  0
SECTION
  2
HEADER
  9
$ACADVER
  1
AC1024
  9
$ACADMAINTVER
 70
     6
  9
$DWGCODEPAGE
  3
ANSI_932
  9
$LASTSAVEDBY
  1
senju
  9
$INSBASE
 10
0.0
 20
0.0
 30
0.0
  9
$EXTMIN
 10
4739.964036726896
 20
8569.48121379703
 30
0.0
  9
$EXTMAX
 10
5825.964032382896
 20
9388.48121379703
 30
960.208308198174
  9
$LIMMIN
 10
4739.964036726896
 20
8569.48121379703
  9
$LIMMAX
 10
5825.964032382896
 20
9388.48121379703
  9
$ORTHOMODE
 70
     1
  9
$REGENMODE
 70
     1
  9
$FILLMODE
 70
     1
  9
$QTEXTMODE
 70
     0
  9
$MIRRTEXT
 70
     0
  9
$LTSCALE
 40
5.0
  9
$ATTMODE
 70
     1
  9
$TEXTSIZE
 40
6.0
  9
$TRACEWID
 40
0.05
  9
$TEXTSTYLE
  7
K
  9
$CLAYER
  8
SUNPOU
  9
$CELTYPE
  6
BYLAYER
  9
$CECOLOR
 62
   256
  9
$CELTSCALE
 40
1.0
  9
$DISPSILH
 70
     0
  9
$DIMSCALE
 40
3.0
  9
$DIMASZ
 40
1.5
  9
$DIMEXO
 40
1.0
  9
$DIMDLI
 40
6.0
  9
$DIMRND
 40
0.0
  9
$DIMDLE
 40
0.0
  9
$DIMEXE
 40
1.0
  9
$DIMTP
 40
0.0
  9
$DIMTM
 40
0.0
  9
$DIMTXT
 40
3.0
  9
$DIMCEN
 40
1.0
  9
$DIMTSZ
 40
0.0
  9
$DIMTOL
 70
     0
  9
$DIMLIM
 70
     0
  9
$DIMTIH
 70
     0
  9
$DIMTOH
 70
     0
  9
$DIMSE1
 70
     0
  9
$DIMSE2
 70
     0
  9
$DIMTAD
 70
     3
  9
$DIMZIN
 70
     8
  9
$DIMBLK
  1
ARROW
  9
$DIMASO
 70
     0
  9
$DIMSHO
 70
     0
  9
$DIMPOST
  1

  9
$DIMAPOST
  1

  9
$DIMALT
 70
     0
  9
$DIMALTD
 70
     2
  9
$DIMALTF
 40
25.4
  9
$DIMLFAC
 40
1.0
  9
$DIMTOFL
 70
     1
  9
$DIMTVP
 40
0.0
  9
$DIMTIX
 70
     0
  9
$DIMSOXD
 70
     0
  9
$DIMSAH
 70
     0
  9
$DIMBLK1
  1

  9
$DIMBLK2
  1

  9
$DIMSTYLE
  2
IMAO
  9
$DIMCLRD
 70
   256
  9
$DIMCLRE
 70
   256
  9
$DIMCLRT
 70
   256
  9
$DIMTFAC
 40
1.0
  9
$DIMGAP
 40
1.0
  9
$DIMJUST
 70
     0
  9
$DIMSD1
 70
     0
  9
$DIMSD2
 70
     0
  9
$DIMTOLJ
 70
     1
  9
$DIMTZIN
 70
     8
  9
$DIMALTZ
 70
     8
  9
$DIMALTTZ
 70
     8
  9
$DIMUPT
 70
     0
  9
$DIMDEC
 70
     2
  9
$DIMTDEC
 70
     2
  9
$DIMALTU
 70
     2
  9
$DIMALTTD
 70
     2
  9
$DIMTXSTY
  7
K
  9
$DIMAUNIT
 70
     0
  9
$DIMADEC
 70
     0
  9
$DIMALTRND
 40
0.0
  9
$DIMAZIN
 70
     0
  9
$DIMDSEP
 70
    46
  9
$DIMATFIT
 70
     3
  9
$DIMFRAC
 70
     0
  9
$DIMLDRBLK
  1
ARROW
  9
$DIMLUNIT
 70
     2
  9
$DIMLWD
 70
    -2
  9
$DIMLWE
 70
    -2
  9
$DIMTMOVE
 70
     2
  9
$DIMFXL
 40
1.0
  9
$DIMFXLON
 70
     0
  9
$DIMJOGANG
 40
0.7853981633974483
  9
$DIMTFILL
 70
     0
  9
$DIMTFILLCLR
 70
     0
  9
$DIMARCSYM
 70
     0
  9
$DIMLTYPE
  6

  9
$DIMLTEX1
  6

  9
$DIMLTEX2
  6

  9
$DIMTXTDIRECTION
 70
     0
  9
$LUNITS
 70
     2
  9
$LUPREC
 70
     2
  9
$SKETCHINC
 40
0.1
  9
$FILLETRAD
 40
5.0
  9
$AUNITS
 70
     0
  9
$AUPREC
 70
     2
  9
$MENU
  1
stdr12j
  9
$ELEVATION
 40
0.0
  9
$PELEVATION
 40
0.0
  9
$THICKNESS
 40
0.0
  9
$LIMCHECK
 70
     0
  9
$CHAMFERA
 40
0.0
  9
$CHAMFERB
 40
0.0
  9
$CHAMFERC
 40
0.0
  9
$CHAMFERD
 40
0.0
  9
$SKPOLY
 70
     0
  9
$TDCREATE
 40
2450546.677632986
  9
$TDUCREATE
 40
2450546.302632986
  9
$TDUPDATE
 40
2460080.683312824
  9
$TDUUPDATE
 40
2460080.308312824
  9
$TDINDWG
 40
1.5121849074
  9
$TDUSRTIMER
 40
0.000664537
  9
$USRTIMER
 70
     1
  9
$ANGBASE
 50
0.0
  9
$ANGDIR
 70
     0
  9
$PDMODE
 70
     0
  9
$PDSIZE
 40
0.0
  9
$PLINEWID
 40
0.0
  9
$SPLFRAME
 70
     0
  9
$SPLINETYPE
 70
     6
  9
$SPLINESEGS
 70
     8
  9
$HANDSEED
  5
1E4BB01D43
  9
$SURFTAB1
 70
     6
  9
$SURFTAB2
 70
     6
  9
$SURFTYPE
 70
     6
  9
$SURFU
 70
     6
  9
$SURFV
 70
     6
  9
$UCSBASE
  2

  9
$UCSNAME
  2

  9
$UCSORG
 10
0.0
 20
0.0
 30
0.0
  9
$UCSXDIR
 10
1.0
 20
0.0
 30
0.0
  9
$UCSYDIR
 10
0.0
 20
1.0
 30
0.0
  9
$UCSORTHOREF
  2

  9
$UCSORTHOVIEW
 70
     0
  9
$UCSORGTOP
 10
0.0
 20
0.0
 30
0.0
  9
$UCSORGBOTTOM
 10
0.0
 20
0.0
 30
0.0
  9
$UCSORGLEFT
 10
0.0
 20
0.0
 30
0.0
  9
$UCSORGRIGHT
 10
0.0
 20
0.0
 30
0.0
  9
$UCSORGFRONT
 10
0.0
 20
0.0
 30
0.0
  9
$UCSORGBACK
 10
0.0
 20
0.0
 30
0.0
  9
$PUCSBASE
  2

  9
$PUCSNAME
  2

  9
$PUCSORG
 10
0.0
 20
0.0
 30
0.0
  9
$PUCSXDIR
 10
1.0
 20
0.0
 30
0.0
  9
$PUCSYDIR
 10
0.0
 20
1.0
 30
0.0
  9
$PUCSORTHOREF
  2

  9
$PUCSORTHOVIEW
 70
     0
  9
$PUCSORGTOP
 10
0.0
 20
0.0
 30
0.0
  9
$PUCSORGBOTTOM
 10
0.0
 20
0.0
 30
0.0
  9
$PUCSORGLEFT
 10
0.0
 20
0.0
 30
0.0
  9
$PUCSORGRIGHT
 10
0.0
 20
0.0
 30
0.0
  9
$PUCSORGFRONT
 10
0.0
 20
0.0
 30
0.0
  9
$PUCSORGBACK
 10
0.0
 20
0.0
 30
0.0
  9
$USERI1
 70
     4
  9
$USERI2
 70
     1
  9
$USERI3
 70
     1
  9
$USERI4
 70
     0
  9
$USERI5
 70
     0
  9
$USERR1
 40
1.0
  9
$USERR2
 40
3.0
  9
$USERR3
 40
3.0
  9
$USERR4
 40
1.5
  9
$USERR5
 40
6.0
  9
$WORLDVIEW
 70
     1
  9
$SHADEDGE
 70
     3
  9
$SHADEDIF
 70
    70
  9
$TILEMODE
 70
     1
  9
$MAXACTVP
 70
    16
  9
$PINSBASE
 10
0.0
 20
0.0
 30
0.0
  9
$PLIMCHECK
 70
     0
  9
$PEXTMIN
 10
1.000000000000000E+20
 20
1.000000000000000E+20
 30
1.000000000000000E+20
  9
$PEXTMAX
 10
-1.000000000000000E+20
 20
-1.000000000000000E+20
 30
-1.000000000000000E+20
  9
$PLIMMIN
 10
0.0
 20
0.0
  9
$PLIMMAX
 10
0.0
 20
0.0
  9
$UNITMODE
 70
     0
  9
$VISRETAIN
 70
     0
  9
$PLINEGEN
 70
     0
  9
$PSLTSCALE
 70
     0
  9
$TREEDEPTH
 70
  3020
  9
$CMLSTYLE
  2
STANDARD
  9
$CMLJUST
 70
     0
  9
$CMLSCALE
 40
1.0
  9
$PROXYGRAPHICS
 70
     1
  9
$MEASUREMENT
 70
     0
  9
$CELWEIGHT
370
    -1
  9
$ENDCAPS
280
     0
  9
$JOINSTYLE
280
     0
  9
$LWDISPLAY
290
     0
  9
$INSUNITS
 70
     0
  9
$HYPERLINKBASE
  1

  9
$STYLESHEET
  1
aclt.ctb
  9
$XEDIT
290
     1
  9
$CEPSNTYPE
380
     0
  9
$PSTYLEMODE
290
     1
  9
$FINGERPRINTGUID
  2
{2B5CC9FE-05CB-4FCE-8532-81E7116E6531}
  9
$VERSIONGUID
  2
{1C41996E-8202-444B-9662-67D3E39174C8}
  9
$EXTNAMES
290
     1
  9
$PSVPSCALE
 40
0.0
  9
$OLESTARTUP
290
     0
  9
$SORTENTS
280
    96
  9
$INDEXCTL
280
     0
  9
$HIDETEXT
280
     1
  9
$XCLIPFRAME
280
     2
  9
$HALOGAP
280
     0
  9
$OBSCOLOR
 70
   257
  9
$OBSLTYPE
280
     0
  9
$INTERSECTIONDISPLAY
280
     0
  9
$INTERSECTIONCOLOR
 70
   257
  9
$DIMASSOC
280
     0
  9
$PROJECTNAME
  1

  9
$CAMERADISPLAY
290
     0
  9
$LENSLENGTH
 40
50.0
  9
$CAMERAHEIGHT
 40
0.0
  9
$STEPSPERSEC
 40
2.0
  9
$STEPSIZE
 40
6.0
  9
$3DDWFPREC
 40
2.0
  9
$PSOLWIDTH
 40
0.25
  9
$PSOLHEIGHT
 40
4.0
  9
$LOFTANG1
 40
1.570796326794897
  9
$LOFTANG2
 40
1.570796326794897
  9
$LOFTMAG1
 40
0.0
  9
$LOFTMAG2
 40
0.0
  9
$LOFTPARAM
 70
     7
  9
$LOFTNORMALS
280
     1
  9
$LATITUDE
 40
37.795
  9
$LONGITUDE
 40
-122.394
  9
$NORTHDIRECTION
 40
0.0
  9
$TIMEZONE
 70
 -8000
  9
$LIGHTGLYPHDISPLAY
280
     1
  9
$TILEMODELIGHTSYNCH
280
     1
  9
$SOLIDHIST
280
     0
  9
$SHOWHIST
280
     1
  9
$DWFFRAME
280
     2
  9
$DGNFRAME
280
     2
  9
$REALWORLDSCALE
290
     1
  9
$INTERFERECOLOR
 62
   256
  9
$CSHADOW
280
     0
  9
$SHADOWPLANELOCATION
 40
0.0
  0
ENDSEC
  0
SECTION
  2
CLASSES
  0
CLASS
  1
LWPOLYLINE
  2
AcDbPolyline
  3
ObjectDBX Classes
 90
        0
 91
        1
280
     0
281
     1
  0
CLASS
  1
ACDBDICTIONARYWDFLT
  2
AcDbDictionaryWithDefault
  3
ObjectDBX Classes
 90
        0
 91
        3
280
     0
281
     0
  0
CLASS
  1
ACDBPLACEHOLDER
  2
AcDbPlaceHolder
  3
ObjectDBX Classes
 90
        0
 91
        1
280
     0
281
     0
  0
CLASS
  1
LAYOUT
  2
AcDbLayout
  3
ObjectDBX Classes
 90
        0
 91
        1
280
     0
281
     0
  0
CLASS
  1
LONG_TRANSACTION
  2
AcDbLongTransaction
  3
ObjectDBX Classes
 90
        0
 91
        1
280
     0
281
     0
  0
CLASS
  1
LWPOLYLINE
  2
AcDbPolyline
  3
ObjectDBX Classes
 90
        0
 91
        1
280
     0
281
     1
  0
CLASS
  1
HATCH
  2
AcDbHatch
  3
ObjectDBX Classes
 90
        0
 91
        1
280
     0
281
     1
  0
CLASS
  1
XRECORD
  2
AcDbXrecord
  3
ObjectDBX Classes
 90
        0
 91
        1
280
     0
281
     0
  0
CLASS
  1
DICTIONARYVAR
  2
AcDbDictionaryVar
  3
ObjectDBX Classes
 90
        0
 91
        3
280
     0
281
     0
  0
CLASS
  1
LONG_TRANSACTION
  2
AcDbLongTransaction
  3
ObjectDBX Classes
 90
        0
 91
        1
280
     0
281
     0
  0
CLASS
  1
LWPOLYLINE
  2
AcDbPolyline
  3
ObjectDBX Classes
 90
        0
 91
        1
280
     0
281
     1
  0
CLASS
  1
HATCH
  2
AcDbHatch
  3
ObjectDBX Classes
 90
        0
 91
        1
280
     0
281
     1
  0
CLASS
  1
XRECORD
  2
AcDbXrecord
  3
ObjectDBX Classes
 90
        0
 91
        1
280
     0
281
     0
  0
CLASS
  1
LONG_TRANSACTION
  2
AcDbLongTransaction
  3
ObjectDBX Classes
 90
        0
 91
        1
280
     0
281
     0
  0
CLASS
  1
LWPOLYLINE
  2
AcDbPolyline
  3
ObjectDBX Classes
 90
        0
 91
        1
280
     0
281
     1
  0
CLASS
  1
HATCH
  2
AcDbHatch
  3
ObjectDBX Classes
 90
        0
 91
        1
280
     0
281
     1
  0
CLASS
  1
XRECORD
  2
AcDbXrecord
  3
ObjectDBX Classes
 90
        0
 91
        1
280
     0
281
     0
  0
CLASS
  1
LONG_TRANSACTION
  2
AcDbLongTransaction
  3
ObjectDBX Classes
 90
        0
 91
        1
280
     0
281
     0
  0
CLASS
  1
LWPOLYLINE
  2
AcDbPolyline
  3
ObjectDBX Classes
 90
        0
 91
        1
280
     0
281
     1
  0
CLASS
  1
HATCH
  2
AcDbHatch
  3
ObjectDBX Classes
 90
        0
 91
        1
280
     0
281
     1
  0
CLASS
  1
XRECORD
  2
AcDbXrecord
  3
ObjectDBX Classes
 90
        0
 91
        1
280
     0
281
     0
  0
CLASS
  1
VISUALSTYLE
  2
AcDbVisualStyle
  3
ObjectDBX Classes
 90
     4095
 91
        3
280
     0
281
     0
  0
CLASS
  1
SCALE
  2
AcDbScale
  3
ObjectDBX Classes
 90
     1153
 91
        3
280
     0
281
     0
  0
CLASS
  1
MATERIAL
  2
AcDbMaterial
  3
ObjectDBX Classes
 90
     1153
 91
        3
280
     0
281
     0
  0
CLASS
  1
TABLESTYLE
  2
AcDbTableStyle
  3
ObjectDBX Classes
 90
     4095
 91
        3
280
     0
281
     0
  0
CLASS
  1
MLEADERSTYLE
  2
AcDbMLeaderStyle
  3
ACDB_MLEADERSTYLE_CLASS
 90
     4095
 91
        3
280
     0
281
     0
  0
CLASS
  1
CELLSTYLEMAP
  2
AcDbCellStyleMap
  3
ObjectDBX Classes
 90
     1152
 91
        3
280
     0
281
     0
  0
ENDSEC
  0
SECTION
  2
TABLES
  0
TABLE
  2
VPORT
  5
1E4BABA584
330
0
100
AcDbSymbolTable
 70
     9
  0
VPORT
  5
1E4BABA5C3
330
1E4BABA584
100
AcDbSymbolTableRecord
100
AcDbViewportTableRecord
  2
2
 70
     0
 10
0.5
 20
0.0
 11
1.0
 21
1.0
 12
0.9240312421264802
 22
1.052650975462767
 13
0.0
 23
0.0
 14
1.0
 24
1.0
 15
10.0
 25
10.0
 16
0.0
 26
0.0
 36
1.0
 17
0.0
 27
0.0
 37
0.0
 40
2.105301950925534
 41
0.8778135048231511
 42
50.0
 43
0.0
 44
0.0
 50
0.0
 51
0.0
 71
     0
 72
   500
 73
     1
 74
     1
 75
     0
 76
     0
 77
     0
 78
     0
281
     0
 65
     1
110
0.0
120
0.0
130
0.0
111
1.0
121
0.0
131
0.0
112
0.0
122
1.0
132
0.0
 79
     0
146
0.0
348
1E4BB01CFB
 60
     3
 61
     5
292
     1
282
     1
141
0.0
142
0.0
 63
   256
  0
VPORT
  5
1E4BABA5C4
330
1E4BABA584
100
AcDbSymbolTableRecord
100
AcDbViewportTableRecord
  2
2
 70
     0
 10
0.0
 20
0.0
 11
0.5
 21
1.0
 12
0.9240312421264802
 22
1.052650975462767
 13
0.0
 23
0.0
 14
1.0
 24
1.0
 15
10.0
 25
10.0
 16
0.0
 26
0.0
 36
1.0
 17
0.0
 27
0.0
 37
0.0
 40
2.105301950925534
 41
0.8778135048231511
 42
50.0
 43
0.0
 44
0.0
 50
0.0
 51
0.0
 71
     0
 72
   500
 73
     1
 74
     1
 75
     0
 76
     0
 77
     0
 78
     0
281
     0
 65
     1
110
0.0
120
0.0
130
0.0
111
1.0
121
0.0
131
0.0
112
0.0
122
1.0
132
0.0
 79
     0
146
0.0
348
1E4BB01CFB
 60
     3
 61
     5
292
     1
282
     1
141
0.0
142
0.0
 63
   256
  0
VPORT
  5
1E4BABA5C5
330
1E4BABA584
100
AcDbSymbolTableRecord
100
AcDbViewportTableRecord
  2
3
 70
     0
 10
0.0
 20
0.5
 11
1.0
 21
1.0
 12
2.832169994473273
 22
1.052650975462767
 13
0.0
 23
0.0
 14
1.0
 24
1.0
 15
10.0
 25
10.0
 16
0.0
 26
0.0
 36
1.0
 17
0.0
 27
0.0
 37
0.0
 40
2.105301950925534
 41
3.571428571428571
 42
50.0
 43
0.0
 44
0.0
 50
0.0
 51
0.0
 71
     0
 72
   500
 73
     1
 74
     1
 75
     0
 76
     0
 77
     0
 78
     0
281
     0
 65
     1
110
0.0
120
0.0
130
0.0
111
1.0
121
0.0
131
0.0
112
0.0
122
1.0
132
0.0
 79
     0
146
0.0
348
1E4BB01CFB
 60
     3
 61
     5
292
     1
282
     1
141
0.0
142
0.0
 63
   256
  0
VPORT
  5
1E4BABA5C6
330
1E4BABA584
100
AcDbSymbolTableRecord
100
AcDbViewportTableRecord
  2
3
 70
     0
 10
0.0
 20
0.0
 11
1.0
 21
0.5
 12
2.856741679241312
 22
1.052650975462767
 13
0.0
 23
0.0
 14
1.0
 24
1.0
 15
10.0
 25
10.0
 16
0.0
 26
0.0
 36
1.0
 17
0.0
 27
0.0
 37
0.0
 40
2.105301950925534
 41
3.594771241830065
 42
50.0
 43
0.0
 44
0.0
 50
0.0
 51
0.0
 71
     0
 72
   500
 73
     1
 74
     1
 75
     0
 76
     0
 77
     0
 78
     0
281
     0
 65
     1
110
0.0
120
0.0
130
0.0
111
1.0
121
0.0
131
0.0
112
0.0
122
1.0
132
0.0
 79
     0
146
0.0
348
1E4BB01CFB
 60
     3
 61
     5
292
     1
282
     1
141
0.0
142
0.0
 63
   256
  0
VPORT
  5
1E4BABA5C7
330
1E4BABA584
100
AcDbSymbolTableRecord
100
AcDbViewportTableRecord
  2
4
 70
     0
 10
0.5
 20
0.0
 11
1.0
 21
0.5
 12
2.88685751670972
 22
1.052650975462767
 13
0.0
 23
0.0
 14
1.0
 24
1.0
 15
10.0
 25
10.0
 16
0.0
 26
0.0
 36
1.0
 17
0.0
 27
0.0
 37
0.0
 40
4.275207030309071
 41
1.784313725490196
 42
50.0
 43
0.0
 44
0.0
 50
0.0
 51
0.0
 71
     0
 72
   500
 73
     1
 74
     1
 75
     0
 76
     0
 77
     0
 78
     0
281
     0
 65
     1
110
0.0
120
0.0
130
0.0
111
1.0
121
0.0
131
0.0
112
0.0
122
1.0
132
0.0
 79
     0
146
0.0
348
1E4BB01CFB
 60
     3
 61
     5
292
     1
282
     1
141
0.0
142
0.0
 63
   256
  0
VPORT
  5
1E4BABA5C8
330
1E4BABA584
100
AcDbSymbolTableRecord
100
AcDbViewportTableRecord
  2
4
 70
     0
 10
0.5
 20
0.5
 11
1.0
 21
1.0
 12
2.862090274555523
 22
1.052650975462767
 13
0.0
 23
0.0
 14
1.0
 24
1.0
 15
10.0
 25
10.0
 16
0.0
 26
0.0
 36
1.0
 17
0.0
 27
0.0
 37
0.0
 40
4.275207030309071
 41
1.772727272727273
 42
50.0
 43
0.0
 44
0.0
 50
0.0
 51
0.0
 71
     0
 72
   500
 73
     1
 74
     1
 75
     0
 76
     0
 77
     0
 78
     0
281
     0
 65
     1
110
0.0
120
0.0
130
0.0
111
1.0
121
0.0
131
0.0
112
0.0
122
1.0
132
0.0
 79
     0
146
0.0
348
1E4BB01CFB
 60
     3
 61
     5
292
     1
282
     1
141
0.0
142
0.0
 63
   256
  0
VPORT
  5
1E4BABA5C9
330
1E4BABA584
100
AcDbSymbolTableRecord
100
AcDbViewportTableRecord
  2
4
 70
     0
 10
0.0
 20
0.5
 11
0.5
 21
1.0
 12
2.862090274555523
 22
1.052650975462767
 13
0.0
 23
0.0
 14
1.0
 24
1.0
 15
10.0
 25
10.0
 16
0.0
 26
0.0
 36
1.0
 17
0.0
 27
0.0
 37
0.0
 40
4.275207030309071
 41
1.772727272727273
 42
50.0
 43
0.0
 44
0.0
 50
0.0
 51
0.0
 71
     0
 72
   500
 73
     1
 74
     1
 75
     0
 76
     0
 77
     0
 78
     0
281
     0
 65
     1
110
0.0
120
0.0
130
0.0
111
1.0
121
0.0
131
0.0
112
0.0
122
1.0
132
0.0
 79
     0
146
0.0
348
1E4BB01CFB
 60
     3
 61
     5
292
     1
282
     1
141
0.0
142
0.0
 63
   256
  0
VPORT
  5
1E4BABA5CA
330
1E4BABA584
100
AcDbSymbolTableRecord
100
AcDbViewportTableRecord
  2
4
 70
     0
 10
0.0
 20
0.0
 11
0.5
 21
0.5
 12
2.88685751670972
 22
1.052650975462767
 13
0.0
 23
0.0
 14
1.0
 24
1.0
 15
10.0
 25
10.0
 16
0.0
 26
0.0
 36
1.0
 17
0.0
 27
0.0
 37
0.0
 40
4.275207030309071
 41
1.784313725490196
 42
50.0
 43
0.0
 44
0.0
 50
0.0
 51
0.0
 71
     0
 72
   500
 73
     1
 74
     1
 75
     0
 76
     0
 77
     0
 78
     0
281
     0
 65
     1
110
0.0
120
0.0
130
0.0
111
1.0
121
0.0
131
0.0
112
0.0
122
1.0
132
0.0
 79
     0
146
0.0
348
1E4BB01CFB
 60
     3
 61
     5
292
     1
282
     1
141
0.0
142
0.0
 63
   256
  0
VPORT
  5
1E4BB01CF5
330
1E4BABA584
100
AcDbSymbolTableRecord
100
AcDbViewportTableRecord
  2
*Active
 70
     0
 10
0.0
 20
0.0
 11
1.0
 21
1.0
 12
5282.990839672992
 22
8978.985699279823
 13
0.0
 23
0.0
 14
1.0
 24
1.0
 15
10.0
 25
10.0
 16
0.0
 26
0.0
 36
1.0
 17
0.0
 27
0.0
 37
0.0
 40
824.2797611661808
 41
2.007438894792774
 42
50.0
 43
0.0
 44
0.0
 50
0.0
 51
0.0
 71
     0
 72
   500
 73
     1
 74
     0
 75
     0
 76
     0
 77
     0
 78
     0
281
     0
 65
     1
110
0.0
120
0.0
130
0.0
111
1.0
121
0.0
131
0.0
112
0.0
122
1.0
132
0.0
 79
     0
146
0.0
348
1E4BB01CFB
 60
     3
 61
     5
292
     1
282
     1
141
0.0
142
0.0
 63
   256
  0
ENDTAB
  0
TABLE
  2
LTYPE
  5
1E4BABA581
330
0
100
AcDbSymbolTable
 70
     4
  0
LTYPE
  5
1E4BABA58D
330
1E4BABA581
100
AcDbSymbolTableRecord
100
AcDbLinetypeTableRecord
  2
BYBLOCK
 70
     0
  3

 72
    65
 73
     0
 40
0.0
  0
LTYPE
  5
1E4BABA58E
330
1E4BABA581
100
AcDbSymbolTableRecord
100
AcDbLinetypeTableRecord
  2
BYLAYER
 70
     0
  3

 72
    65
 73
     0
 40
0.0
  0
LTYPE
  5
1E4BABA58F
330
1E4BABA581
100
AcDbSymbolTableRecord
100
AcDbLinetypeTableRecord
  2
CONTINUOUS
 70
     0
  3
実線
 72
    65
 73
     0
 40
0.0
  0
LTYPE
  5
1E4BABA5C0
330
1E4BABA581
100
AcDbSymbolTableRecord
100
AcDbLinetypeTableRecord
  2
CENTER
 70
     0
  3
____ _ ____ _ ____ _ ____ _ ____ _ ____ _ ____
 72
    65
 73
     4
 40
2.0
 49
1.25
 74
     0
 49
-0.25
 74
     0
 49
0.25
 74
     0
 49
-0.25
 74
     0
  0
LTYPE
  5
1E4BABA5C2
330
1E4BABA581
100
AcDbSymbolTableRecord
100
AcDbLinetypeTableRecord
  2
HIDDEN
 70
     0
  3
_ _ _ _ _ _ _ _ _ _ _ _ _ _ _ _ _ _ _ _ _ _ _
 72
    65
 73
     2
 40
0.375
 49
0.25
 74
     0
 49
-0.125
 74
     0
  0
LTYPE
  5
1E4BABC2AE
330
1E4BABA581
100
AcDbSymbolTableRecord
100
AcDbLinetypeTableRecord
  2
PHANTOM
 70
     0
  3
_____ _ _ _____ _ _ _____ _ _ _____ _ _ ____
 72
    65
 73
     6
 40
2.5
 49
1.25
 74
     0
 49
-0.25
 74
     0
 49
0.25
 74
     0
 49
-0.25
 74
     0
 49
0.25
 74
     0
 49
-0.25
 74
     0
  0
ENDTAB
  0
TABLE
  2
LAYER
  5
1E4BABA57E
102
{ACAD_XDICTIONARY
360
1E4BABAD0F
102
}
330
0
100
AcDbSymbolTable
 70
    15
  0
LAYER
  5
1E4BABA58A
330
1E4BABA57E
100
AcDbSymbolTableRecord
100
AcDbLayerTableRecord
  2
0
 70
     0
 62
     6
  6
CONTINUOUS
370
    -3
390
1E4BABAC6E
347
1E4BB01D34
  0
LAYER
  5
1E4BABA5CF
330
1E4BABA57E
100
AcDbSymbolTableRecord
100
AcDbLayerTableRecord
  2
ITTEN
 70
     0
 62
     1
  6
CENTER
370
    -3
390
1E4BABAC6E
347
1E4BB01D34
  0
LAYER
  5
1E4BABA5D1
330
1E4BABA57E
100
AcDbSymbolTableRecord
100
AcDbLayerTableRecord
  2
HATCH
 70
     0
 62
     4
  6
CONTINUOUS
370
    -3
390
1E4BABAC6E
347
1E4BB01D34
  0
LAYER
  5
1E4BABA5D2
330
1E4BABA57E
100
AcDbSymbolTableRecord
100
AcDbLayerTableRecord
  2
SUNPOU
 70
     0
 62
     3
  6
CONTINUOUS
370
    -3
390
1E4BABAC6E
347
1E4BB01D34
  0
LAYER
  5
1E4BABA5D3
330
1E4BABA57E
100
AcDbSymbolTableRecord
100
AcDbLayerTableRecord
  2
TEXT
 70
     0
 62
     3
  6
CONTINUOUS
370
    -3
390
1E4BABAC6E
347
1E4BB01D34
  0
LAYER
  5
1E4BABA5D4
330
1E4BABA57E
100
AcDbSymbolTableRecord
100
AcDbLayerTableRecord
  2
SAISEN
 70
     0
 62
     4
  6
CONTINUOUS
370
    -3
390
1E4BABAC6E
347
1E4BB01D34
  0
LAYER
  5
1E4BABA5D5
330
1E4BABA57E
100
AcDbSymbolTableRecord
100
AcDbLayerTableRecord
  2
JISSEN
 70
     0
 62
     7
  6
CONTINUOUS
370
    -3
390
1E4BABAC6E
347
1E4BB01D34
  0
LAYER
  5
1E4BABA5D7
330
1E4BABA57E
100
AcDbSymbolTableRecord
100
AcDbLayerTableRecord
  2
TENSEN
 70
     0
 62
     2
  6
HIDDEN
370
    -3
390
1E4BABAC6E
347
1E4BB01D34
  0
LAYER
  5
1E4BABA5D9
330
1E4BABA57E
100
AcDbSymbolTableRecord
100
AcDbLayerTableRecord
  2
WAKU
 70
     0
 62
     5
  6
CONTINUOUS
370
    -3
390
1E4BABAC6E
347
1E4BB01D34
  0
LAYER
  5
1E4BABAD0B
330
1E4BABA57E
100
AcDbSymbolTableRecord
100
AcDbLayerTableRecord
  2
DEFPOINTS
 70
     0
 62
     7
  6
CONTINUOUS
290
     0
370
    -3
390
1E4BABAC6E
347
1E4BB01D34
  0
LAYER
  5
1E4BABC2AF
330
1E4BABA57E
100
AcDbSymbolTableRecord
100
AcDbLayerTableRecord
  2
NITEN
 70
     0
 62
     2
  6
PHANTOM
370
    -3
390
1E4BABC2B7
347
1E4BB01D34
  0
LAYER
  5
1E4BABC2B0
330
1E4BABA57E
100
AcDbSymbolTableRecord
100
AcDbLayerTableRecord
  2
BORDER
 70
     0
 62
     7
  6
CONTINUOUS
370
    -3
390
1E4BABC2B7
347
1E4BB01D34
  0
LAYER
  5
1E4BABC2B2
330
1E4BABA57E
100
AcDbSymbolTableRecord
100
AcDbLayerTableRecord
  2
ASSIST
 70
     0
 62
     7
  6
CONTINUOUS
370
    -3
390
1E4BABAC6E
347
1E4BB01D34
  0
LAYER
  5
1E4BABC2B3
330
1E4BABA57E
100
AcDbSymbolTableRecord
100
AcDbLayerTableRecord
  2
SCALE
 70
     0
 62
     4
  6
CONTINUOUS
370
    -3
390
1E4BABAC6E
347
1E4BB01D34
  0
LAYER
  5
1E4BADBD72
102
{ACAD_XDICTIONARY
360
1E4BADBD73
102
}
330
1E4BABA57E
100
AcDbSymbolTableRecord
100
AcDbLayerTableRecord
  2
WORK
 70
     0
 62
     7
  6
CONTINUOUS
370
    -3
390
1E4BABAC6E
347
1E4BB01D34
  0
ENDTAB
  0
TABLE
  2
STYLE
  5
1E4BABA57F
330
0
100
AcDbSymbolTable
 70
     4
  0
STYLE
  5
1E4BABA58B
330
1E4BABA57F
100
AcDbSymbolTableRecord
100
AcDbTextStyleTableRecord
  2
STANDARD
 70
     0
 40
0.0
 41
1.0
 50
0.0
 71
     0
 42
1.5
  3
SIMPLEX.shx
  4
bigfont.shx
  0
STYLE
  5
1E4BABA5B6
330
1E4BABA57F
100
AcDbSymbolTableRecord
100
AcDbTextStyleTableRecord
  2
K
 70
     0
 40
0.0
 41
1.0
 50
0.0
 71
     0
 42
3.0
  3
simplex.shx
  4
bigfont.shx
  0
STYLE
  5
1E4BABA5BB
330
1E4BABA57F
100
AcDbSymbolTableRecord
100
AcDbTextStyleTableRecord
  2
ROMANS
 70
     0
 40
0.0
 41
0.8
 50
0.0
 71
     0
 42
6.0
  3
romans
  4

  0
STYLE
  5
1E4BABC2B4
330
1E4BABA57F
100
AcDbSymbolTableRecord
100
AcDbTextStyleTableRecord
  2
DIMENSION
 70
     0
 40
0.0
 41
1.0
 50
0.0
 71
     0
 42
2.5
  3
romans.shx
  4
bigfont.shx
  0
ENDTAB
  0
TABLE
  2
VIEW
  5
1E4BABA582
330
0
100
AcDbSymbolTable
 70
     0
  0
ENDTAB
  0
TABLE
  2
UCS
  5
1E4BABA583
330
0
100
AcDbSymbolTable
 70
     0
  0
ENDTAB
  0
TABLE
  2
APPID
  5
1E4BABA585
330
0
100
AcDbSymbolTable
 70
    16
  0
APPID
  5
1E4BABA58C
330
1E4BABA585
100
AcDbSymbolTableRecord
100
AcDbRegAppTableRecord
  2
ACAD
 70
     0
  0
APPID
  5
1E4BABDCCD
330
1E4BABA585
100
AcDbSymbolTableRecord
100
AcDbRegAppTableRecord
  2
CONTENTBLOCKICON
 70
     0
  0
APPID
  5
1E4BABDCCE
330
1E4BABA585
100
AcDbSymbolTableRecord
100
AcDbRegAppTableRecord
  2
X_OBJNAME
 70
     0
  0
APPID
  5
1E4BABDCCF
330
1E4BABA585
100
AcDbSymbolTableRecord
100
AcDbRegAppTableRecord
  2
X_PARAM_BALLOON
 70
     0
  0
APPID
  5
1E4BABDCD0
330
1E4BABA585
100
AcDbSymbolTableRecord
100
AcDbRegAppTableRecord
  2
X_PARAM_TXTPATERN
 70
     0
  0
APPID
  5
1E4BABDCD1
330
1E4BABA585
100
AcDbSymbolTableRecord
100
AcDbRegAppTableRecord
  2
X_PARAM_CTXTPATERN
 70
     0
  0
APPID
  5
1E4BABDCD2
330
1E4BABA585
100
AcDbSymbolTableRecord
100
AcDbRegAppTableRecord
  2
X_PARAM_SYSVAL
 70
     0
  0
APPID
  5
1E4BABDCD3
330
1E4BABA585
100
AcDbSymbolTableRecord
100
AcDbRegAppTableRecord
  2
X_DEFINELIST
 70
     0
  0
APPID
  5
1E4BAD2BE7
330
1E4BABA585
100
AcDbSymbolTableRecord
100
AcDbRegAppTableRecord
  2
ACAD_PSEXT
 70
     0
  0
APPID
  5
1E4BADBD84
330
1E4BABA585
100
AcDbSymbolTableRecord
100
AcDbRegAppTableRecord
  2
X_UNIONHANDLE
 70
     0
  0
APPID
  5
1E4BADBD85
330
1E4BABA585
100
AcDbSymbolTableRecord
100
AcDbRegAppTableRecord
  2
X_OBJDATA
 70
     0
  0
APPID
  5
1E4BADBD86
330
1E4BABA585
100
AcDbSymbolTableRecord
100
AcDbRegAppTableRecord
  2
X_PARENTHANDLE
 70
     0
  0
APPID
  5
1E4BADBD87
330
1E4BABA585
100
AcDbSymbolTableRecord
100
AcDbRegAppTableRecord
  2
ASK_MEN_XD
 70
     0
  0
APPID
  5
1E4BADBD88
330
1E4BABA585
100
AcDbSymbolTableRecord
100
AcDbRegAppTableRecord
  2
ASKLEADER
 70
     0
  0
APPID
  5
1E4BADBD89
330
1E4BABA585
100
AcDbSymbolTableRecord
100
AcDbRegAppTableRecord
  2
ASKLEADERCHILD
 70
     0
  0
APPID
  5
1E4BADBD8A
330
1E4BABA585
100
AcDbSymbolTableRecord
100
AcDbRegAppTableRecord
  2
ACAD_MLEADERVER
 70
     0
  0
ENDTAB
  0
TABLE
  2
DIMSTYLE
  5
1E4BABA586
330
0
100
AcDbSymbolTable
 70
     2
100
AcDbDimStyleTable
  0
DIMSTYLE
105
1E4BABA5CD
330
1E4BABA586
100
AcDbSymbolTableRecord
100
AcDbDimStyleTableRecord
  2
IMAO
 70
     0
 41
1.5
 42
1.0
 43
6.0
 44
1.0
 47
495.0
 73
     0
 74
     0
 77
     1
 78
     8
140
3.0
141
0.0
172
     1
174
     1
178
     0
271
     2
272
     2
279
     2
284
     8
285
     8
286
     8
340
1E4BABA5BB
341
1E4BABA5A5
342
1E4BABA5A5
343
1E4BABA5A5
344
1E4BABA5A5
  0
DIMSTYLE
105
1E4BABDCC8
330
1E4BABA586
100
AcDbSymbolTableRecord
100
AcDbDimStyleTableRecord
  2
STANDARD
 70
     0
 40
0.5
 41
2.0
 42
0.1
 43
10.0
 44
1.5
 73
     0
 74
     0
 78
     8
140
3.0
145
1.0
147
0.1
172
     1
176
   256
177
   256
271
     2
178
   256
271
     2
272
     2
284
     8
340
1E4BABC2B4
341
1E4BABC289
342
1E4BABC289
  0
ENDTAB
  0
TABLE
  2
BLOCK_RECORD
  5
1E4BABA57D
330
0
100
AcDbSymbolTable
 70
     4
  0
BLOCK_RECORD
  5
1E4BABA593
330
1E4BABA57D
100
AcDbSymbolTableRecord
100
AcDbBlockTableRecord
  2
*MODEL_SPACE
340
1E4BABAC71
 70
     0
280
     1
281
     0
  0
BLOCK_RECORD
  5
1E4BABA590
330
1E4BABA57D
100
AcDbSymbolTableRecord
100
AcDbBlockTableRecord
  2
*PAPER_SPACE
340
1E4BABAC72
 70
     0
280
     1
281
     0
  0
BLOCK_RECORD
  5
1E4BABA598
330
1E4BABA57D
100
AcDbSymbolTableRecord
100
AcDbBlockTableRecord
  2
ARROW
340
0
102
{BLKREFS
331
1E4BAFBC2A
331
1E4BAFC8CD
331
1E4BAFC8CE
331
1E4BAFC8D3
331
1E4BAFC8D4
331
1E4BAFC8D9
331
1E4BAFC8DA
331
1E4BAFC8DF
331
1E4BAFC8E0
331
1E4BAFC8E5
331
1E4BAFC8E6
331
1E4BAFC8F1
331
1E4BAFC8F2
331
1E4BAFC8F7
331
1E4BAFC8F8
331
1E4BAFC900
331
1E4BAFC901
102
}
 70
     0
280
     1
281
     0
  0
BLOCK_RECORD
  5
1E4BABA5A5
330
1E4BABA57D
100
AcDbSymbolTableRecord
100
AcDbBlockTableRecord
  2
ARROWANG
340
0
 70
     0
280
     1
281
     0
  0
BLOCK_RECORD
  5
1E4BABC0D7
330
1E4BABA57D
100
AcDbSymbolTableRecord
100
AcDbBlockTableRecord
  2
WAKU
340
0
 70
     0
280
     1
281
     0
  0
BLOCK_RECORD
  5
1E4BABC289
330
1E4BABA57D
100
AcDbSymbolTableRecord
100
AcDbBlockTableRecord
  2
AR_OPEN
340
0
 70
     0
280
     1
281
     0
  0
ENDTAB
  0
ENDSEC
  0
SECTION
  2
BLOCKS
  0
BLOCK
  5
1E4BABA5DC
330
1E4BABA593
100
AcDbEntity
  8
0
370
    -1
100
AcDbBlockBegin
  2
*MODEL_SPACE
 70
     0
 10
0.0
 20
0.0
 30
0.0
  3
*MODEL_SPACE
  1

  0
ENDBLK
  5
1E4BABA5DD
330
1E4BABA593
100
AcDbEntity
  8
0
370
    -1
100
AcDbBlockEnd
  0
BLOCK
  5
1E4BABA5DA
330
1E4BABA590
100
AcDbEntity
 67
     1
  8
0
370
    -1
100
AcDbBlockBegin
  2
*PAPER_SPACE
 70
     0
 10
0.0
 20
0.0
 30
0.0
  3
*PAPER_SPACE
  1

  0
ENDBLK
  5
1E4BABA5DB
330
1E4BABA590
100
AcDbEntity
 67
     1
  8
0
370
    -1
100
AcDbBlockEnd
  0
BLOCK
  5
499
330
1E4BABA598
100
AcDbEntity
  8
0
370
    -1
100
AcDbBlockBegin
  2
ARROW
 70
     0
 10
1.0
 20
0.5
 30
0.0
  3
ARROW
  1

  0
LINE
  5
49A
330
1E4BABA598
100
AcDbEntity
  8
0
370
    -1
100
AcDbLine
 10
1.0
 20
0.5
 30
0.0
 11
-0.5000000000000213
 21
0.0980762113533018
 31
0.0
  0
LINE
  5
49B
330
1E4BABA598
100
AcDbEntity
  8
0
370
    -1
100
AcDbLine
 10
0.0
 20
0.5
 30
0.0
 11
1.0
 21
0.5
 31
0.0
  0
LINE
  5
49C
330
1E4BABA598
100
AcDbEntity
  8
0
370
    -1
100
AcDbLine
 10
1.0
 20
0.5
 30
0.0
 11
-0.4999999999999574
 21
0.9019237886467408
 31
0.0
  0
ENDBLK
  5
49D
330
1E4BABA598
100
AcDbEntity
  8
0
370
    -1
100
AcDbBlockEnd
  0
BLOCK
  5
4CC9
330
1E4BABA5A5
100
AcDbEntity
  8
0
370
    -1
100
AcDbBlockBegin
  2
ARROWANG
 70
     0
 10
0.0
 20
0.0
 30
0.0
  3
ARROWANG
  1

  0
LINE
  5
4CCA
330
1E4BABA5A5
100
AcDbEntity
  8
SUNPOU
370
    -1
100
AcDbLine
 10
0.0
 20
0.0
 30
0.0
 11
-1.499999999999957
 21
0.4019237886467408
 31
0.0
  0
LINE
  5
4CCB
330
1E4BABA5A5
100
AcDbEntity
  8
SUNPOU
370
    -1
100
AcDbLine
 10
0.0
 20
0.0
 30
0.0
 11
-1.500000000000028
 21
-0.4019237886467124
 31
0.0
  0
ENDBLK
  5
4CCC
330
1E4BABA5A5
100
AcDbEntity
  8
0
370
    -1
100
AcDbBlockEnd
  0
BLOCK
  5
1E4BABC0DC
330
1E4BABC0D7
100
AcDbEntity
  8
0
370
    -1
100
AcDbBlockBegin
  2
WAKU
 70
     0
 10
0.0
 20
0.0
 30
0.0
  3
WAKU
  1

  0
LINE
  5
1E4BABC0D8
330
1E4BABC0D7
100
AcDbEntity
  8
WAKU
370
    -1
100
AcDbLine
 10
0.999999996
 20
0.0
 30
0.0
 11
0.999999996
 21
0.9999999999999999
 31
0.0
  0
LINE
  5
1E4BABC0D9
330
1E4BABC0D7
100
AcDbEntity
  8
WAKU
370
    -1
100
AcDbLine
 10
0.0
 20
0.9999999999999999
 30
0.0
 11
0.999999996
 21
0.9999999999999999
 31
0.0
  0
LINE
  5
1E4BABC0DA
330
1E4BABC0D7
100
AcDbEntity
  8
WAKU
370
    -1
100
AcDbLine
 10
0.999999996
 20
0.0
 30
0.0
 11
0.0
 21
0.0
 31
0.0
  0
LINE
  5
1E4BABC0DB
330
1E4BABC0D7
100
AcDbEntity
  8
WAKU
370
    -1
100
AcDbLine
 10
0.0
 20
0.0
 30
0.0
 11
0.0
 21
0.9999999999999999
 31
0.0
  0
ENDBLK
  5
1E4BABC0DD
330
1E4BABC0D7
100
AcDbEntity
  8
0
370
    -1
100
AcDbBlockEnd
  0
BLOCK
  5
1E4BABC28D
330
1E4BABC289
100
AcDbEntity
  8
0
370
    -1
100
AcDbBlockBegin
  2
AR_OPEN
 70
     0
 10
0.0
 20
0.0
 30
0.0
  3
AR_OPEN
  1

  0
LINE
  5
1E4BABC28A
330
1E4BABC289
100
AcDbEntity
  8
0
 62
     0
370
    -1
100
AcDbLine
 10
-1.0
 20
0.0
 30
0.0
 11
0.0
 21
0.0
 31
0.0
  0
LINE
  5
1E4BABC28B
330
1E4BABC289
100
AcDbEntity
  8
0
 62
     0
370
    -1
100
AcDbLine
 10
0.0
 20
0.0
 30
0.0
 11
-1.0
 21
0.2679491924311037
 31
0.0
  0
LINE
  5
1E4BABC28C
330
1E4BABC289
100
AcDbEntity
  8
0
 62
     0
370
    -1
100
AcDbLine
 10
0.0
 20
0.0
 30
0.0
 11
-1.0
 21
-0.2679491924311037
 31
0.0
  0
ENDBLK
  5
1E4BABC28E
330
1E4BABC289
100
AcDbEntity
  8
0
370
    -1
100
AcDbBlockEnd
  0
ENDSEC
  0
SECTION
  2
ENTITIES
  0
LINE
  5
1E4BAFB4C6
102
{ACAD_REACTORS
330
1E4BAFBABC
102
}
330
1E4BABA593
100
AcDbEntity
  8
WAKU
100
AcDbLine
 10
4739.964036726896
 20
9388.48121379703
 30
0.0
 11
5282.964034554896
 21
9388.48121379703
 31
0.0
  0
LINE
  5
1E4BAFB4C7
102
{ACAD_REACTORS
330
1E4BAFBABC
102
}
330
1E4BABA593
100
AcDbEntity
  8
WAKU
100
AcDbLine
 10
5282.964034554896
 20
8569.48121379703
 30
0.0
 11
4739.964036726896
 21
8569.48121379703
 31
0.0
  0
LINE
  5
1E4BAFB4C8
102
{ACAD_REACTORS
330
1E4BAFBABC
102
}
330
1E4BABA593
100
AcDbEntity
  8
WAKU
100
AcDbLine
 10
4739.964036726896
 20
8569.48121379703
 30
0.0
 11
4739.964036726896
 21
9388.48121379703
 31
0.0
  0
LINE
  5
1E4BAFB4CB
102
{ACAD_REACTORS
330
1E4BAFBABC
102
}
330
1E4BABA593
100
AcDbEntity
  8
WAKU
100
AcDbLine
 10
5825.964032382896
 20
9388.48121379703
 30
0.0
 11
5825.964032382896
 21
8569.48121379703
 31
0.0
  0
LINE
  5
1E4BAFB4E4
102
{ACAD_REACTORS
330
1E4BAFBABC
102
}
330
1E4BABA593
100
AcDbEntity
  8
WAKU
100
AcDbLine
 10
5825.964032382896
 20
8569.48121379703
 30
0.0
 11
5282.964034554896
 21
8569.48121379703
 31
0.0
  0
TEXT
  5
1E4BAFB90A
330
1E4BABA593
100
AcDbEntity
  8
TEXT
100
AcDbText
 10
5645.55740740721
 20
8599.384347063597
 30
0.0
 40
9.0
  1
一斉開放弁　　XDVII50　外観図
  7
K
100
AcDbText
  0
TEXT
  5
1E4BAFB90B
330
1E4BABA593
100
AcDbEntity
  8
TEXT
100
AcDbText
 10
5645.55740740721
 20
8580.861666435063
 30
0.0
 40
9.0
  1
A3用紙　印刷尺度：1/3
  7
K
100
AcDbText
  0
LINE
  5
1E4BAFB90E
102
{ACAD_REACTORS
330
1E4BAFBABC
102
}
330
1E4BABA593
100
AcDbEntity
  8
WAKU
100
AcDbLine
 10
5282.964034554896
 20
9388.48121379703
 30
0.0
 11
5825.964032382896
 21
9388.48121379703
 31
0.0
  0
LINE
  5
1E4BAFBABD
330
1E4BABA593
100
AcDbEntity
  8
JISSEN
100
AcDbLine
 39
960.208308198174
 10
5448.03296004767
 20
8999.525485515245
 30
0.0
 11
5437.03296004767
 21
8999.525485515245
 31
0.0
  0
LINE
  5
1E4BAFBABE
330
1E4BABA593
100
AcDbEntity
  8
JISSEN
100
AcDbLine
 39
960.208308198174
 10
5437.53296004767
 20
9011.89151091903
 30
0.0
 11
5439.53296004767
 21
9011.89151091903
 31
0.0
  0
LINE
  5
1E4BAFBABF
330
1E4BABA593
100
AcDbEntity
  8
JISSEN
100
AcDbLine
 39
960.208308198174
 10
5437.53296004767
 20
9000.39151091903
 30
0.0
 11
5447.53296004767
 21
9000.39151091903
 31
0.0
  0
LINE
  5
1E4BAFBAC0
330
1E4BABA593
100
AcDbEntity
  8
JISSEN
100
AcDbLine
 39
960.208308198174
 10
5447.53296004767
 20
9011.89151091903
 30
0.0
 11
5445.53296004767
 21
9011.89151091903
 31
0.0
  0
LINE
  5
1E4BAFBAC1
330
1E4BABA593
100
AcDbEntity
  8
JISSEN
100
AcDbLine
 39
960.208308198174
 10
5148.283251883817
 20
8999.525485515245
 30
0.0
 11
5137.283251883817
 21
8999.525485515243
 31
0.0
  0
LINE
  5
1E4BAFBAC2
330
1E4BABA593
100
AcDbEntity
  8
ITTEN
 48
3.0
100
AcDbLine
 10
5442.532960047669
 20
9022.39151091903
 30
0.0
 11
5442.532960047671
 21
8769.39150659769
 31
0.0
  0
LINE
  5
1E4BAFBAC8
330
1E4BABA593
100
AcDbEntity
  8
ITTEN
 48
3.0
100
AcDbLine
 10
5142.783251883819
 20
9022.391510919031
 30
0.0
 11
5142.783251883817
 21
8769.39150659769
 31
0.0
  0
LINE
  5
1E4BAFBAD5
330
1E4BABA593
100
AcDbEntity
  8
ITTEN
 48
3.0
100
AcDbLine
 10
5530.032960047676
 20
8859.371007842514
 30
0.0
 11
5355.032960047676
 21
8859.371007842514
 31
0.0
  0
CIRCLE
  5
1E4BAFBAD6
330
1E4BABA593
100
AcDbEntity
  8
JISSEN
100
AcDbCircle
 10
5442.532960047676
 20
8859.371007842516
 30
0.0
 40
77.5
  0
CIRCLE
  5
1E4BAFBAD7
330
1E4BABA593
100
AcDbEntity
  8
JISSEN
100
AcDbCircle
 10
5442.532960047676
 20
8859.371007842516
 30
0.0
 40
75.49999999999955
  0
LINE
  5
1E4BAFBAE1
330
1E4BABA593
100
AcDbEntity
  8
JISSEN
100
AcDbLine
 10
5195.783251883819
 20
8913.39151091903
 30
0.0
 11
5195.783251883819
 21
8905.203827455058
 31
0.0
  0
LINE
  5
1E4BAFBAE2
330
1E4BABA593
100
AcDbEntity
  8
JISSEN
100
AcDbLine
 10
5089.783251868366
 20
8913.391510903864
 30
0.0
 11
5089.783251870709
 21
8905.203827439893
 31
0.0
  0
LINE
  5
1E4BAFBAE3
330
1E4BABA593
100
AcDbEntity
  8
JISSEN
100
AcDbLine
 10
5089.783251883819
 20
8913.39151091903
 30
0.0
 11
5089.783251883819
 21
8905.203827455058
 31
0.0
  0
LINE
  5
1E4BAFBAE4
330
1E4BABA593
100
AcDbEntity
  8
JISSEN
100
AcDbLine
 10
5237.435301573249
 20
8934.89151091903
 30
0.0
 11
5237.435301573249
 21
8783.89151091903
 31
0.0
  0
LINE
  5
1E4BAFBAE5
330
1E4BABA593
100
AcDbEntity
  8
JISSEN
100
AcDbLine
 10
5216.43530157325
 20
8934.89151091903
 30
0.0
 11
5216.43530157325
 21
8783.89151091903
 31
0.0
  0
LINE
  5
1E4BAFBAE6
330
1E4BABA593
100
AcDbEntity
  8
JISSEN
100
AcDbLine
 10
5235.435301573249
 20
8936.89151091903
 30
0.0
 11
5235.435301573249
 21
8781.89151091903
 31
0.0
  0
LINE
  5
1E4BAFBAE7
330
1E4BABA593
100
AcDbEntity
  8
JISSEN
100
AcDbLine
 10
5069.435301573249
 20
8783.89151091903
 30
0.0
 11
5069.435301573249
 21
8934.89151091903
 31
0.0
  0
LINE
  5
1E4BAFBAE8
330
1E4BABA593
100
AcDbEntity
  8
JISSEN
100
AcDbLine
 10
5050.435301573249
 20
8936.89151091903
 30
0.0
 11
5050.435301573249
 21
8781.89151091903
 31
0.0
  0
LINE
  5
1E4BAFBAE9
330
1E4BABA593
100
AcDbEntity
  8
JISSEN
100
AcDbLine
 10
5048.435301573249
 20
8934.89151091903
 30
0.0
 11
5048.435301573249
 21
8783.89151091903
 31
0.0
  0
ARC
  5
1E4BAFBAEA
330
1E4BABA593
100
AcDbEntity
  8
JISSEN
100
AcDbCircle
 10
5144.258910506011
 20
8907.565009083713
 30
0.0
 40
104.8403860925574
100
AcDbArc
 50
285.5697906463713
 51
308.327618377488
  0
LINE
  5
1E4BAFBAEC
330
1E4BABA593
100
AcDbEntity
  8
ITTEN
 48
3.0
100
AcDbLine
 10
5038.435301573249
 20
8859.39151091903
 30
0.0
 11
5247.435301573249
 21
8859.39151091903
 31
0.0
  0
CIRCLE
  5
1E4BAFBAEE
330
1E4BABA593
100
AcDbEntity
  8
NITEN
100
AcDbCircle
 10
5142.783251883819
 20
8829.39151091903
 30
0.0
 40
20.0
  0
CIRCLE
  5
1E4BAFBAEF
330
1E4BABA593
100
AcDbEntity
  8
JISSEN
100
AcDbCircle
 10
5142.783251877629
 20
8829.391510921425
 30
0.0
 40
22.0
  0
ARC
  5
1E4BAFBAF0
330
1E4BABA593
100
AcDbEntity
  8
JISSEN
100
AcDbCircle
 10
5142.783251883819
 20
8909.39151091903
 30
0.0
 40
107.0
100
AcDbArc
 50
231.7867892982374
 51
253.9315406169754
  0
ARC
  5
1E4BAFBAF1
330
1E4BABA593
100
AcDbEntity
  8
JISSEN
100
AcDbCircle
 10
5067.435301573249
 20
8783.89151091903
 30
0.0
 40
2.0
100
AcDbArc
 50
270.0
 51
0.0
  0
LINE
  5
1E4BAFBAF2
330
1E4BABA593
100
AcDbEntity
  8
JISSEN
100
AcDbLine
 10
5050.435301573249
 20
8781.89151091903
 30
0.0
 11
5067.435301573249
 21
8781.89151091903
 31
0.0
  0
LINE
  5
1E4BAFBAF3
330
1E4BABA593
100
AcDbEntity
  8
JISSEN
100
AcDbLine
 10
5050.435301573249
 20
8781.89151091903
 30
0.0
 11
5048.435301573249
 21
8783.89151091903
 31
0.0
  0
ARC
  5
1E4BAFBAF4
330
1E4BABA593
100
AcDbEntity
  8
JISSEN
100
AcDbCircle
 10
5072.435301573249
 20
8823.39151091903
 30
0.0
 40
3.0
100
AcDbArc
 50
90.0
 51
180.0
  0
ARC
  5
1E4BAFBAF5
330
1E4BABA593
100
AcDbEntity
  8
JISSEN
100
AcDbCircle
 10
5073.501219581058
 20
8821.391510919026
 30
0.0
 40
5.0
100
AcDbArc
 50
51.78678929823742
 51
89.99999999994789
  0
LINE
  5
1E4BAFBAF6
330
1E4BABA593
100
AcDbEntity
  8
JISSEN
100
AcDbLine
 10
5072.283251883817
 20
8826.39151091903
 30
0.0
 11
5073.501219581061
 21
8826.39151091903
 31
0.0
  0
LINE
  5
1E4BAFBAF7
330
1E4BABA593
100
AcDbEntity
  8
SUNPOU
100
AcDbLine
 10
5142.076145102625
 20
8788.791509256058
 30
0.0
 11
5133.745879376068
 21
8779.751120308236
 31
0.0
  0
LINE
  5
1E4BAFBAF8
330
1E4BABA593
100
AcDbEntity
  8
SUNPOU
100
AcDbLine
 10
5133.590863379073
 20
8788.791509256054
 30
0.0
 11
5142.231160513705
 21
8779.751120343833
 31
0.0
  0
LINE
  5
1E4BAFBAF9
330
1E4BABA593
100
AcDbEntity
  8
JISSEN
370
    15
100
AcDbLine
 10
5142.783251883817
 20
8779.391506597693
 30
0.0
 11
5134.297970975173
 21
8779.391506597693
 31
0.0
  0
LINE
  5
1E4BAFBAFA
330
1E4BABA593
100
AcDbEntity
  8
JISSEN
370
    15
100
AcDbLine
 10
5141.589166772907
 20
8789.39151196211
 30
0.0
 11
5133.229313711059
 21
8789.39151196211
 31
0.0
  0
LINE
  5
1E4BAFBAFB
330
1E4BABA593
100
AcDbEntity
  8
JISSEN
100
AcDbLine
 10
5119.783251883819
 20
8794.39151091903
 30
0.0
 11
5165.783251883819
 21
8794.39151091903
 31
0.0
  0
LINE
  5
1E4BAFBAFC
330
1E4BABA593
100
AcDbEntity
  8
SAISEN
100
AcDbLine
 10
5133.25400225963
 20
8789.366847808622
 30
0.0
 11
5133.413786664177
 21
8794.47994875416
 31
0.0
  0
LINE
  5
1E4BAFBAFD
330
1E4BABA593
100
AcDbEntity
  8
SAISEN
100
AcDbLine
 10
5133.254002259448
 20
8789.36684862759
 30
0.0
 11
5133.413786638402
 21
8794.479948754164
 31
0.0
  0
LINE
  5
1E4BAFBAFE
330
1E4BABA593
100
AcDbEntity
  8
JISSEN
370
    15
100
AcDbLine
 10
5132.279500658047
 20
8794.39151091903
 30
0.0
 11
5132.154478052986
 21
8790.390984997446
 31
0.0
  0
LINE
  5
1E4BAFBAFF
330
1E4BABA593
100
AcDbEntity
  8
JISSEN
370
     0
100
AcDbLine
 10
5133.590863379073
 20
8788.79150925606
 30
0.0
 11
5133.590863379073
 21
8780.39150862425
 31
0.0
  0
LINE
  5
1E4BAFBB00
330
1E4BABA593
100
AcDbEntity
  8
JISSEN
370
    15
100
AcDbLine
 10
5133.29797081126
 20
8788.79150925606
 30
0.0
 11
5133.29797081126
 21
8780.39150862425
 31
0.0
  0
SPLINE
  5
1E4BAFBB01
330
1E4BABA593
100
AcDbEntity
  8
JISSEN
370
     0
100
AcDbSpline
210
0.0
220
0.0
230
1.0
 70
     8
 71
     3
 72
    10
 73
     6
 74
     0
 42
0.000000001
 43
0.0000000001
 40
0.0
 40
0.0
 40
0.0
 40
0.0
 40
0.2360272521924887
 40
0.787221596408062
 40
1.0
 40
1.0
 40
1.0
 40
1.0
 10
5133.185098240507
 20
8789.390938267405
 30
0.0
 10
5133.139686760345
 20
8789.38878354524
 30
0.0
 10
5132.988225869383
 20
8789.381596901303
 30
0.0
 10
5132.843173042093
 20
8789.363898254855
 30
0.0
 10
5132.888977660094
 20
8789.36877151605
 30
0.0
 10
5132.901734965277
 20
8789.370128795797
 30
0.0
  0
ARC
  5
1E4BAFBB02
330
1E4BABA593
100
AcDbEntity
  8
JISSEN
370
    15
100
AcDbCircle
 10
5132.697970509578
 20
8788.791509577924
 30
0.0
 40
0.6000000000000227
100
AcDbArc
 50
0.0
 51
71.33165855477168
  0
SPLINE
  5
1E4BAFBB03
330
1E4BABA593
100
AcDbEntity
  8
JISSEN
370
    15
100
AcDbSpline
210
0.0
220
0.0
230
1.0
 70
     8
 71
     3
 72
    12
 73
     8
 74
     0
 42
0.000000001
 43
0.0000000001
 40
0.0
 40
0.0
 40
0.0
 40
0.0
 40
0.1764426174454052
 40
0.4157844720410422
 40
0.6727365020091571
 40
0.9373646409500969
 40
1.0
 40
1.0
 40
1.0
 40
1.0
 10
5132.158080408704
 20
8790.388824329073
 30
0.0
 10
5132.157983028999
 20
8790.309092569672
 30
0.0
 10
5132.157753555137
 20
8790.12120583365
 30
0.0
 10
5132.269992192323
 20
8789.825456691166
 30
0.0
 10
5132.49446148379
 20
8789.559646022308
 30
0.0
 10
5132.72647959463
 20
8789.402209104981
 30
0.0
 10
5132.87455583309
 20
8789.38081684944
 30
0.0
 10
5132.902896324527
 20
8789.376722559626
 30
0.0
  0
LINE
  5
1E4BAFBB04
330
1E4BABA593
100
AcDbEntity
  8
JISSEN
370
     0
100
AcDbLine
 10
5133.229313711059
 20
8789.39151196211
 30
0.0
 11
5133.185098240507
 21
8789.390938267405
 31
0.0
  0
ARC
  5
1E4BAFBB05
330
1E4BABA593
100
AcDbEntity
  8
JISSEN
370
     0
100
AcDbCircle
 10
5134.474753852843
 20
8780.266511942895
 30
0.0
 40
0.8926850172212176
100
AcDbArc
 50
171.9508068167827
 51
258.5779253309823
  0
ARC
  5
1E4BAFBB06
330
1E4BABA593
100
AcDbEntity
  8
JISSEN
370
    15
100
AcDbCircle
 10
5134.297970509579
 20
8780.391509577925
 30
0.0
 40
1.000000000000085
100
AcDbArc
 50
180.0
 51
270.0
  0
ARC
  5
1E4BAFBB07
330
1E4BABA593
100
AcDbEntity
  8
JISSEN
370
     0
100
AcDbCircle
 10
5133.049554883295
 20
8788.862136679925
 30
0.0
 40
0.5458966208036719
100
AcDbArc
 50
352.5663057069261
 51
75.62336281412271
  0
LINE
  5
1E4BAFBB08
330
1E4BABA593
100
AcDbEntity
  8
JISSEN
100
AcDbLine
 10
5116.783251883819
 20
8801.767164231118
 30
0.0
 11
5116.783251883819
 21
8797.39151091903
 31
0.0
  0
ARC
  5
1E4BAFBB09
330
1E4BABA593
100
AcDbEntity
  8
JISSEN
100
AcDbCircle
 10
5119.783251883819
 20
8797.39151091903
 30
0.0
 40
3.0
100
AcDbArc
 50
180.0
 51
270.0
  0
ARC
  5
1E4BAFBB0A
330
1E4BABA593
100
AcDbEntity
  8
JISSEN
100
AcDbCircle
 10
5111.783251883819
 20
8801.767164231118
 30
0.0
 40
5.0
100
AcDbArc
 50
0.0
 51
73.93154061697535
  0
ARC
  5
1E4BAFBB0B
330
1E4BABA593
100
AcDbEntity
  8
JISSEN
100
AcDbCircle
 10
5142.783251890007
 20
8696.974458008184
 30
0.0
 40
111.6923054989555
100
AcDbArc
 50
96.74289788974328
 51
100.3152081921562
  0
LINE
  5
1E4BAFBB0C
330
1E4BABA593
100
AcDbEntity
  8
JISSEN
370
    15
100
AcDbLine
 10
5153.412025714648
 20
8790.390984997446
 30
0.0
 11
5153.287003109586
 21
8794.39151091903
 31
0.0
  0
LINE
  5
1E4BAFBB0D
330
1E4BABA593
100
AcDbEntity
  8
SAISEN
100
AcDbLine
 10
5152.15271785508
 20
8794.47994875416
 30
0.0
 11
5152.31250225963
 21
8789.366847808622
 31
0.0
  0
LINE
  5
1E4BAFBB0E
330
1E4BABA593
100
AcDbEntity
  8
SAISEN
100
AcDbLine
 10
5152.152717880498
 20
8794.479948754162
 30
0.0
 11
5152.312502259451
 21
8789.36684862759
 31
0.0
  0
LINE
  5
1E4BAFBB10
330
1E4BABA593
100
AcDbEntity
  8
JISSEN
370
     0
100
AcDbLine
 10
5151.97564038856
 20
8780.39150862425
 30
0.0
 11
5151.97564038856
 21
8788.79150925606
 31
0.0
  0
LINE
  5
1E4BAFBB11
330
1E4BABA593
100
AcDbEntity
  8
JISSEN
370
    15
100
AcDbLine
 10
5152.268532956374
 20
8780.39150862425
 30
0.0
 11
5152.268532956374
 21
8788.79150925606
 31
0.0
  0
ARC
  5
1E4BAFBB12
330
1E4BABA593
100
AcDbEntity
  8
JISSEN
370
     0
100
AcDbCircle
 10
5151.091749914791
 20
8780.266511942895
 30
0.0
 40
0.8926850172213584
100
AcDbArc
 50
281.4220746690177
 51
8.049193183217271
  0
ARC
  5
1E4BAFBB13
330
1E4BABA593
100
AcDbEntity
  8
JISSEN
370
    15
100
AcDbCircle
 10
5151.268533258055
 20
8780.391509577925
 30
0.0
 40
1.000000000000085
100
AcDbArc
 50
270.0
 51
0.0
  0
SPLINE
  5
1E4BAFBB14
330
1E4BABA593
100
AcDbEntity
  8
JISSEN
370
    15
100
AcDbSpline
210
0.0
220
0.0
230
1.0
 70
     8
 71
     3
 72
    12
 73
     8
 74
     0
 42
0.000000001
 43
0.0000000001
 40
0.0
 40
0.0
 40
0.0
 40
0.0
 40
0.1956789951789757
 40
0.4675957375230368
 40
0.6834677456879578
 40
0.8661084775142949
 40
1.0
 40
1.0
 40
1.0
 40
1.0
 10
5152.661922680569
 20
8789.378004059488
 30
0.0
 10
5152.748527142427
 20
8789.402778341071
 30
0.0
 10
5152.955477700292
 20
8789.461979117616
 30
0.0
 10
5153.194497714701
 20
8789.682306722558
 30
0.0
 10
5153.348533963463
 20
8789.948233301762
 30
0.0
 10
5153.41322265949
 20
8790.18661654108
 30
0.0
 10
5153.410082978671
 20
8790.329266456416
 30
0.0
 10
5153.408754909766
 20
8790.389606640036
 30
0.0
  0
ARC
  5
1E4BAFBB15
330
1E4BABA593
100
AcDbEntity
  8
JISSEN
370
     0
100
AcDbCircle
 10
5152.516948884338
 20
8788.862136679925
 30
0.0
 40
0.5458966208036719
100
AcDbArc
 50
104.3766371858773
 51
187.4336942930739
  0
SPLINE
  5
1E4BAFBB16
330
1E4BABA593
100
AcDbEntity
  8
JISSEN
370
     0
100
AcDbSpline
210
0.0
220
0.0
230
1.0
 70
     8
 71
     3
 72
     9
 73
     5
 74
     0
 42
0.000000001
 43
0.0000000001
 40
0.0
 40
0.0
 40
0.0
 40
0.0
 40
0.4132398080961207
 40
1.0
 40
1.0
 40
1.0
 40
1.0
 10
5152.664763214421
 20
8789.370128795797
 30
0.0
 10
5152.659469097738
 20
8789.37104694985
 30
0.0
 10
5152.646657852118
 20
8789.373268793035
 30
0.0
 10
5152.47949187055
 20
8789.384404359997
 30
0.0
 10
5152.381405527127
 20
8789.390938267405
 30
0.0
  0
LINE
  5
1E4BAFBB17
330
1E4BABA593
100
AcDbEntity
  8
JISSEN
370
     0
100
AcDbLine
 10
5152.381405527127
 20
8789.390938267405
 30
0.0
 11
5152.337190056574
 21
8789.39151196211
 31
0.0
  0
ARC
  5
1E4BAFBB18
330
1E4BABA593
100
AcDbEntity
  8
JISSEN
370
    15
100
AcDbCircle
 10
5152.868533258055
 20
8788.791509577924
 30
0.0
 40
0.6000000000000227
100
AcDbArc
 50
108.674792517064
 51
180.0
  0
LINE
  5
1E4BAFBB19
330
1E4BABA593
100
AcDbEntity
  8
JISSEN
370
     0
100
AcDbLine
 10
5143.490358665009
 20
8788.79150925606
 30
0.0
 11
5143.490358665009
 21
8780.39150862425
 31
0.0
  0
LINE
  5
1E4BAFBB1A
330
1E4BABA593
100
AcDbEntity
  8
JISSEN
370
     0
100
AcDbLine
 10
5142.076145102625
 20
8780.39150862425
 30
0.0
 11
5142.076145102625
 21
8788.79150925606
 31
0.0
  0
ARC
  5
1E4BAFBB1B
330
1E4BABA593
100
AcDbEntity
  8
JISSEN
370
     0
100
AcDbCircle
 10
5142.960034513771
 20
8780.266511047446
 30
0.0
 40
0.8926840904508181
100
AcDbArc
 50
171.9507403597856
 51
258.5779295337201
  0
ARC
  5
1E4BAFBB1C
330
1E4BABA593
100
AcDbEntity
  8
JISSEN
370
     0
100
AcDbCircle
 10
5142.606469253862
 20
8780.266511047446
 30
0.0
 40
0.8926840904507172
100
AcDbArc
 50
281.422070466331
 51
8.049259640214377
  0
SPLINE
  5
1E4BAFBB1D
330
1E4BABA593
100
AcDbEntity
  8
JISSEN
370
    15
100
AcDbSpline
210
0.0
220
0.0
230
1.0
 70
     8
 71
     3
 72
    11
 73
     7
 74
     0
 42
0.000000001
 43
0.0000000001
 40
0.0
 40
0.0
 40
0.0
 40
0.0
 40
0.1287882562168848
 40
0.4295474175794903
 40
0.7334197060751666
 40
1.0
 40
1.0
 40
1.0
 40
1.0
 10
5143.896124269237
 20
8789.390938267405
 30
0.0
 10
5143.807348010769
 20
8789.38870476365
 30
0.0
 10
5143.5112525927
 20
8789.381255359509
 30
0.0
 10
5142.950645680052
 20
8789.361506666788
 30
0.0
 10
5142.257548454207
 20
8789.372366986587
 30
0.0
 10
5141.857382514941
 20
8789.385023640107
 30
0.0
 10
5141.670379498397
 20
8789.390938267405
 30
0.0
  0
ARC
  5
1E4BAFBB1E
330
1E4BABA593
100
AcDbEntity
  8
JISSEN
370
     0
100
AcDbCircle
 10
5141.534835566024
 20
8788.862135870077
 30
0.0
 40
0.5458975481011723
100
AcDbArc
 50
352.5664041254701
 51
75.62332544226346
  0
LINE
  5
1E4BAFBB1F
330
1E4BABA593
100
AcDbEntity
  8
JISSEN
370
     0
100
AcDbLine
 10
5141.670379498397
 20
8789.390938267405
 30
0.0
 11
5141.589166772907
 21
8789.39151196211
 31
0.0
  0
ARC
  5
1E4BAFBB20
330
1E4BABA593
100
AcDbEntity
  8
JISSEN
370
     0
100
AcDbCircle
 10
5144.03166820161
 20
8788.862135870077
 30
0.0
 40
0.5458975481011371
100
AcDbArc
 50
104.3766745577365
 51
187.4335958745299
  0
LINE
  5
1E4BAFBB21
330
1E4BABA593
100
AcDbEntity
  8
JISSEN
370
    15
100
AcDbLine
 10
5143.977336994727
 20
8789.39151196211
 30
0.0
 11
5143.896124269237
 21
8789.390938267405
 31
0.0
  0
LINE
  5
1E4BAFBB22
330
1E4BABA593
100
AcDbEntity
  8
JISSEN
370
    15
100
AcDbLine
 10
5152.337190056574
 20
8789.39151196211
 30
0.0
 11
5143.977336994727
 21
8789.39151196211
 31
0.0
  0
LINE
  5
1E4BAFBB23
330
1E4BABA593
100
AcDbEntity
  8
JISSEN
370
    15
100
AcDbLine
 10
5151.268532792461
 20
8779.391506597693
 30
0.0
 11
5142.783251883817
 21
8779.391506597693
 31
0.0
  0
LINE
  5
1E4BAFBB24
330
1E4BABA593
100
AcDbEntity
  8
SUNPOU
100
AcDbLine
 10
5143.490358665009
 20
8788.79150925606
 30
0.0
 11
5151.820624391567
 21
8779.751120308236
 31
0.0
  0
LINE
  5
1E4BAFBB25
330
1E4BABA593
100
AcDbEntity
  8
SUNPOU
100
AcDbLine
 10
5151.97564038856
 20
8788.791509256054
 30
0.0
 11
5143.33534325393
 21
8779.751120343833
 31
0.0
  0
ARC
  5
1E4BAFBB26
330
1E4BABA593
100
AcDbEntity
  8
JISSEN
100
AcDbCircle
 10
5165.783251883819
 20
8797.39151091903
 30
0.0
 40
3.0
100
AcDbArc
 50
270.0
 51
0.0
  0
LINE
  5
1E4BAFBB27
330
1E4BABA593
100
AcDbEntity
  8
JISSEN
100
AcDbLine
 10
5168.783251883819
 20
8801.767164231118
 30
0.0
 11
5168.783251883819
 21
8797.39151091903
 31
0.0
  0
ARC
  5
1E4BAFBB28
330
1E4BABA593
100
AcDbEntity
  8
JISSEN
100
AcDbCircle
 10
5173.783251883819
 20
8801.767164231118
 30
0.0
 40
5.0
100
AcDbArc
 50
106.0684593830246
 51
180.0
  0
ARC
  5
1E4BAFBB29
330
1E4BABA593
100
AcDbEntity
  8
JISSEN
100
AcDbCircle
 10
5142.783251890007
 20
8696.974458008184
 30
0.0
 40
111.6923054989555
100
AcDbArc
 50
79.68479180784378
 51
83.25710211655235
  0
ARC
  5
1E4BAFBB2A
330
1E4BABA593
100
AcDbEntity
  8
JISSEN
100
AcDbCircle
 10
5142.783251898125
 20
8809.39151091903
 30
0.0
 40
107.0
100
AcDbArc
 50
121.1886223499174
 51
122.7405611199758
  0
ARC
  5
1E4BAFBB2B
330
1E4BABA593
100
AcDbEntity
  8
JISSEN
100
AcDbCircle
 10
5142.783251883819
 20
8809.39151091903
 30
0.0
 40
107.0
100
AcDbArc
 50
121.1886223335001
 51
122.7405611035694
  0
ARC
  5
1E4BAFBB2C
330
1E4BABA593
100
AcDbEntity
  8
JISSEN
100
AcDbCircle
 10
5142.783251883819
 20
8809.39151091903
 30
0.0
 40
107.0
100
AcDbArc
 50
121.1886223335001
 51
122.7405611035694
  0
ARC
  5
1E4BAFBB2D
330
1E4BABA593
100
AcDbEntity
  8
JISSEN
100
AcDbCircle
 10
5072.375636505243
 20
8902.392219908803
 30
0.0
 40
3.0
100
AcDbArc
 50
180.0000000163626
 51
270.0000000164147
  0
LINE
  5
1E4BAFBB2E
330
1E4BABA593
100
AcDbEntity
  8
JISSEN
100
AcDbLine
 10
5084.913809351307
 20
8899.39221991246
 30
0.0
 11
5072.131202182942
 21
8899.392219908803
 31
0.0
  0
ARC
  5
1E4BAFBB2F
330
1E4BABA593
100
AcDbEntity
  8
JISSEN
100
AcDbCircle
 10
5084.783251870709
 20
8905.203827438463
 30
0.0
 40
5.0
100
AcDbArc
 50
301.1886223499174
 51
0.0000000163626053
  0
ARC
  5
1E4BAFBB30
330
1E4BABA593
100
AcDbEntity
  8
JISSEN
100
AcDbCircle
 10
5084.783251883819
 20
8905.203827455058
 30
0.0
 40
5.0
100
AcDbArc
 50
301.1886223335001
 51
0.0
  0
LINE
  5
1E4BAFBB31
330
1E4BABA593
100
AcDbEntity
  8
JISSEN
100
AcDbLine
 10
5122.783251883824
 20
8870.89151091903
 30
0.0
 11
5122.783251883824
 21
8878.89151091903
 31
0.0
  0
LINE
  5
1E4BAFBB32
330
1E4BABA593
100
AcDbEntity
  8
JISSEN
100
AcDbLine
 10
5155.855048653537
 20
8878.891510919055
 30
0.0
 11
5162.783251883813
 21
8874.89151091903
 31
0.0
  0
LINE
  5
1E4BAFBB33
330
1E4BABA593
100
AcDbEntity
  8
JISSEN
100
AcDbLine
 10
5142.783251883859
 20
8870.89151091903
 30
0.0
 11
5122.783251883824
 21
8870.89151091903
 31
0.0
  0
LINE
  5
1E4BAFBB34
330
1E4BABA593
100
AcDbEntity
  8
JISSEN
100
AcDbLine
 10
5155.855048653537
 20
8872.89151091903
 30
0.0
 11
5150.247353498997
 21
8872.89151091903
 31
0.0
  0
LINE
  5
1E4BAFBB35
330
1E4BABA593
100
AcDbEntity
  8
JISSEN
100
AcDbLine
 10
5150.247353498997
 20
8872.89151091903
 30
0.0
 11
5142.783251883859
 21
8870.89151091903
 31
0.0
  0
LINE
  5
1E4BAFBB36
330
1E4BABA593
100
AcDbEntity
  8
JISSEN
100
AcDbLine
 10
5155.855048653537
 20
8870.89151091903
 30
0.0
 11
5155.855048653537
 21
8872.89151091903
 31
0.0
  0
LINE
  5
1E4BAFBB37
330
1E4BABA593
100
AcDbEntity
  8
JISSEN
100
AcDbLine
 10
5162.783251883813
 20
8874.89151091903
 30
0.0
 11
5155.855048653537
 21
8870.89151091903
 31
0.0
  0
LINE
  5
1E4BAFBB38
330
1E4BABA593
100
AcDbEntity
  8
JISSEN
100
AcDbLine
 10
5122.783251883824
 20
8878.891510919033
 30
0.0
 11
5142.783251883824
 21
8878.891510919038
 31
0.0
  0
LINE
  5
1E4BAFBB39
330
1E4BABA593
100
AcDbEntity
  8
JISSEN
100
AcDbLine
 10
5125.033251883819
 20
8886.89151091903
 30
0.0
 11
5125.033251883819
 21
8902.89151091903
 31
0.0
  0
LINE
  5
1E4BAFBB3A
330
1E4BABA593
100
AcDbEntity
  8
JISSEN
100
AcDbLine
 10
5127.033251883819
 20
8891.99151091903
 30
0.0
 11
5127.033251883819
 21
8886.89151091903
 31
0.0
  0
LINE
  5
1E4BAFBB3B
330
1E4BABA593
100
AcDbEntity
  8
JISSEN
100
AcDbLine
 10
5132.087253476384
 20
8897.298212591222
 30
0.0
 11
5136.932652469855
 21
8887.328636285303
 31
0.0
  0
LINE
  5
1E4BAFBB3C
330
1E4BABA593
100
AcDbEntity
  8
JISSEN
100
AcDbLine
 10
5130.614913828795
 20
8895.752255961255
 30
0.0
 11
5135.133851297782
 21
8886.454385552757
 31
0.0
  0
LINE
  5
1E4BAFBB3D
330
1E4BABA593
100
AcDbEntity
  8
JISSEN
100
AcDbLine
 10
5108.033251883819
 20
8886.89151091903
 30
0.0
 11
5108.033251883819
 21
8902.89151091903
 31
0.0
  0
LINE
  5
1E4BAFBB3E
330
1E4BABA593
100
AcDbEntity
  8
JISSEN
100
AcDbLine
 10
5110.033251883819
 20
8902.89151091903
 30
0.0
 11
5110.033251883819
 21
8886.89151091903
 31
0.0
  0
ARC
  5
1E4BAFBB3F
330
1E4BABA593
100
AcDbEntity
  8
JISSEN
100
AcDbCircle
 10
5117.533251883819
 20
8891.89151091903
 30
0.0
 40
4.0
100
AcDbArc
 50
180.0
 51
0.0
  0
ARC
  5
1E4BAFBB40
330
1E4BABA593
100
AcDbEntity
  8
JISSEN
100
AcDbCircle
 10
5117.533251883819
 20
8891.89151091903
 30
0.0
 40
6.0
100
AcDbArc
 50
180.0
 51
0.0
  0
ARC
  5
1E4BAFBB41
330
1E4BABA593
100
AcDbEntity
  8
JISSEN
100
AcDbCircle
 10
5109.033251883819
 20
8886.89151091903
 30
0.0
 40
1.0
100
AcDbArc
 50
180.0
 51
0.0
  0
ARC
  5
1E4BAFBB42
330
1E4BABA593
100
AcDbEntity
  8
JISSEN
100
AcDbCircle
 10
5136.033251883819
 20
8886.891510919031
 30
0.0
 40
1.0
100
AcDbArc
 50
205.9206115365683
 51
25.92061153656835
  0
ARC
  5
1E4BAFBB43
330
1E4BABA593
100
AcDbEntity
  8
JISSEN
100
AcDbCircle
 10
5126.033251883819
 20
8886.89151091903
 30
0.0
 40
1.0
100
AcDbArc
 50
180.0
 51
0.0
  0
ARC
  5
1E4BAFBB44
330
1E4BABA593
100
AcDbEntity
  8
JISSEN
100
AcDbCircle
 10
5117.533251883819
 20
8897.89151091903
 30
0.0
 40
4.0
100
AcDbArc
 50
0.0
 51
180.0
  0
ARC
  5
1E4BAFBB45
330
1E4BABA593
100
AcDbEntity
  8
JISSEN
100
AcDbCircle
 10
5117.533251883819
 20
8897.89151091903
 30
0.0
 40
6.0
100
AcDbArc
 50
0.0
 51
180.0
  0
LINE
  5
1E4BAFBB46
330
1E4BABA593
100
AcDbEntity
  8
JISSEN
100
AcDbLine
 10
5113.533251883819
 20
8897.89151091903
 30
0.0
 11
5113.533251883819
 21
8891.89151091903
 31
0.0
  0
ARC
  5
1E4BAFBB47
330
1E4BABA593
100
AcDbEntity
  8
JISSEN
100
AcDbCircle
 10
5109.033251883819
 20
8902.89151091903
 30
0.0
 40
1.0
100
AcDbArc
 50
0.0
 51
180.0
  0
LINE
  5
1E4BAFBB48
330
1E4BABA593
100
AcDbEntity
  8
JISSEN
100
AcDbLine
 10
5111.533251883819
 20
8897.89151091903
 30
0.0
 11
5111.533251883819
 21
8891.89151091903
 31
0.0
  0
ARC
  5
1E4BAFBB49
330
1E4BABA593
100
AcDbEntity
  8
JISSEN
100
AcDbCircle
 10
5136.033251883819
 20
8902.89151091903
 30
0.0
 40
1.0
100
AcDbArc
 50
316.3971810273251
 51
136.3971810273251
  0
LINE
  5
1E4BAFBB4A
330
1E4BABA593
100
AcDbEntity
  8
JISSEN
100
AcDbLine
 10
5136.757389814851
 20
8902.201855746616
 30
0.0
 11
5132.087253476384
 21
8897.298212591222
 31
0.0
  0
LINE
  5
1E4BAFBB4B
330
1E4BABA593
100
AcDbEntity
  8
JISSEN
100
AcDbLine
 10
5123.533251883819
 20
8897.89151091903
 30
0.0
 11
5123.533251883819
 21
8891.89151091903
 31
0.0
  0
ARC
  5
1E4BAFBB4C
330
1E4BABA593
100
AcDbEntity
  8
JISSEN
100
AcDbCircle
 10
5126.033251883819
 20
8902.89151091903
 30
0.0
 40
1.0
100
AcDbArc
 50
0.0
 51
180.0
  0
LINE
  5
1E4BAFBB4D
330
1E4BABA593
100
AcDbEntity
  8
JISSEN
100
AcDbLine
 10
5127.033251883819
 20
8902.89151091903
 30
0.0
 11
5127.033251883819
 21
8894.89151091903
 31
0.0
  0
LINE
  5
1E4BAFBB4E
330
1E4BABA593
100
AcDbEntity
  8
JISSEN
100
AcDbLine
 10
5121.533251883819
 20
8897.89151091903
 30
0.0
 11
5121.533251883819
 21
8891.89151091903
 31
0.0
  0
LINE
  5
1E4BAFBB4F
330
1E4BABA593
100
AcDbEntity
  8
JISSEN
100
AcDbLine
 10
5135.309113952782
 20
8903.581166091444
 30
0.0
 11
5127.033251883819
 21
8894.89151091903
 31
0.0
  0
LINE
  5
1E4BAFBB50
330
1E4BABA593
100
AcDbEntity
  8
JISSEN
100
AcDbLine
 10
5130.614913828795
 20
8895.752255961255
 30
0.0
 11
5127.033251883819
 21
8891.99151091903
 31
0.0
  0
LINE
  5
1E4BAFBB51
330
1E4BABA593
100
AcDbEntity
  8
JISSEN
100
AcDbLine
 10
5150.247353498997
 20
8876.89151091903
 30
0.0
 11
5155.855048653537
 21
8876.89151091903
 31
0.0
  0
LINE
  5
1E4BAFBB52
330
1E4BABA593
100
AcDbEntity
  8
JISSEN
100
AcDbLine
 10
5142.783251883824
 20
8878.891510919038
 30
0.0
 11
5150.247353498997
 21
8876.89151091903
 31
0.0
  0
LINE
  5
1E4BAFBB53
330
1E4BABA593
100
AcDbEntity
  8
JISSEN
100
AcDbLine
 10
5155.855048653537
 20
8876.89151091903
 30
0.0
 11
5155.855048653537
 21
8878.891510919055
 31
0.0
  0
ARC
  5
1E4BAFBB54
330
1E4BABA593
100
AcDbEntity
  8
JISSEN
100
AcDbCircle
 10
5149.533251883819
 20
8894.89151091903
 30
0.0
 40
1.0
100
AcDbArc
 50
270.0
 51
90.0
  0
LINE
  5
1E4BAFBB55
330
1E4BABA593
100
AcDbEntity
  8
JISSEN
100
AcDbLine
 10
5139.533251883819
 20
8895.89151091903
 30
0.0
 11
5149.533251883819
 21
8895.89151091903
 31
0.0
  0
LINE
  5
1E4BAFBB56
330
1E4BABA593
100
AcDbEntity
  8
JISSEN
100
AcDbLine
 10
5149.533251883819
 20
8893.89151091903
 30
0.0
 11
5139.533251883819
 21
8893.89151091903
 31
0.0
  0
ARC
  5
1E4BAFBB57
330
1E4BABA593
100
AcDbEntity
  8
JISSEN
100
AcDbCircle
 10
5139.533251883819
 20
8894.89151091903
 30
0.0
 40
1.0
100
AcDbArc
 50
90.0
 51
270.0
  0
LINE
  5
1E4BAFBB59
330
1E4BABA593
100
AcDbEntity
  8
JISSEN
100
AcDbLine
 10
5235.435301573249
 20
8781.89151091903
 30
0.0
 11
5218.43530157325
 21
8781.89151091903
 31
0.0
  0
ARC
  5
1E4BAFBB5A
330
1E4BABA593
100
AcDbEntity
  8
JISSEN
100
AcDbCircle
 10
5218.43530157325
 20
8783.89151091903
 30
0.0
 40
2.0
100
AcDbArc
 50
180.0
 51
270.0
  0
LINE
  5
1E4BAFBB5B
330
1E4BABA593
100
AcDbEntity
  8
JISSEN
100
AcDbLine
 10
5237.435301573249
 20
8783.89151091903
 30
0.0
 11
5235.435301573249
 21
8781.89151091903
 31
0.0
  0
ARC
  5
1E4BAFBB5C
330
1E4BABA593
100
AcDbEntity
  8
JISSEN
100
AcDbCircle
 10
5212.369383566127
 20
8821.39151094285
 30
0.0
 40
5.0
100
AcDbArc
 50
90.00000001974976
 51
128.2132107214658
  0
ARC
  5
1E4BAFBB5D
330
1E4BABA593
100
AcDbEntity
  8
JISSEN
100
AcDbCircle
 10
5213.43530157325
 20
8823.391510943222
 30
0.0
 40
3.0
100
AcDbArc
 50
0.0000000196976586
 51
90.00000001969767
  0
LINE
  5
1E4BAFBB5E
330
1E4BABA593
100
AcDbEntity
  8
JISSEN
100
AcDbLine
 10
5213.587351261649
 20
8826.391510943273
 30
0.0
 11
5212.369383564404
 21
8826.391510942854
 31
0.0
  0
LINE
  5
1E4BAFBB60
330
1E4BABA593
100
AcDbEntity
  8
JISSEN
100
AcDbLine
 10
5200.652694404886
 20
8899.39221992902
 30
0.0
 11
5213.43530157325
 21
8899.39221992902
 31
0.0
  0
ARC
  5
1E4BAFBB61
330
1E4BABA593
100
AcDbEntity
  8
JISSEN
100
AcDbCircle
 10
5142.783251883819
 20
8809.39151091903
 30
0.0
 40
107.0
100
AcDbArc
 50
57.25943889643062
 51
58.81137766649989
  0
ARC
  5
1E4BAFBB62
330
1E4BABA593
100
AcDbEntity
  8
JISSEN
100
AcDbCircle
 10
5200.783251883819
 20
8905.203827455058
 30
0.0
 40
5.0
100
AcDbArc
 50
180.0
 51
238.8113776664999
  0
ARC
  5
1E4BAFBB63
330
1E4BABA593
100
AcDbEntity
  8
JISSEN
100
AcDbCircle
 10
5213.43530157325
 20
8902.39221992902
 30
0.0
 40
3.0
100
AcDbArc
 50
270.0
 51
0.0
  0
LINE
  5
1E4BAFBB66
330
1E4BABA593
100
AcDbEntity
  8
JISSEN
100
AcDbLine
 10
5182.783251883819
 20
8972.371007842517
 30
0.0
 11
5162.783251883819
 21
8972.371007842517
 31
0.0
  0
LINE
  5
1E4BAFBB68
330
1E4BABA593
100
AcDbEntity
  8
JISSEN
100
AcDbLine
 10
5071.283251883817
 20
8941.371007842516
 30
0.0
 11
5214.283251883819
 21
8941.371007842516
 31
0.0
  0
LINE
  5
1E4BAFBB69
330
1E4BABA593
100
AcDbEntity
  8
JISSEN
100
AcDbLine
 10
5214.283251883819
 20
8956.371007842516
 30
0.0
 11
5072.283251883819
 21
8956.371007842516
 31
0.0
  0
LINE
  5
1E4BAFBB6A
330
1E4BABA593
100
AcDbEntity
  8
JISSEN
100
AcDbLine
 10
5212.283251885787
 20
8923.39151091903
 30
0.0
 11
5073.283251883819
 21
8923.39151091903
 31
0.0
  0
ARC
  5
1E4BAFBB6B
330
1E4BABA593
100
AcDbEntity
  8
JISSEN
100
AcDbCircle
 10
5159.435301573259
 20
8973.874780753198
 30
0.0
 40
1.5
100
AcDbArc
 50
180.0
 51
270.0
  0
LINE
  5
1E4BAFBB6C
330
1E4BABA593
100
AcDbEntity
  8
JISSEN
100
AcDbLine
 10
5157.935301573259
 20
8975.622894297858
 30
0.0
 11
5157.935301573259
 21
8956.371007842516
 31
0.0
  0
LINE
  5
1E4BAFBB6D
330
1E4BABA593
100
AcDbEntity
  8
JISSEN
100
AcDbLine
 10
5127.935301573259
 20
8977.371007842517
 30
0.0
 11
5127.935301573259
 21
8957.871007842516
 31
0.0
  0
ARC
  5
1E4BAFBB6F
330
1E4BABA593
100
AcDbEntity
  8
JISSEN
100
AcDbCircle
 10
5101.923108264442
 20
8948.154942566398
 30
0.0
 40
16.21606527611809
100
AcDbArc
 50
72.41204622605208
 51
107.5879537739479
  0
LINE
  5
1E4BAFBB70
330
1E4BABA593
100
AcDbEntity
  8
JISSEN
100
AcDbLine
 10
5093.436059307352
 20
8964.371007842516
 30
0.0
 11
5110.410157221528
 21
8964.371007842517
 31
0.0
  0
LINE
  5
1E4BAFBB71
330
1E4BABA593
100
AcDbEntity
  8
JISSEN
100
AcDbLine
 10
5071.283251883819
 20
8955.371007842516
 30
0.0
 11
5071.283251883819
 21
8940.257536322812
 31
0.0
  0
ARC
  5
1E4BAFBB72
330
1E4BABA593
100
AcDbEntity
  8
JISSEN
100
AcDbCircle
 10
5067.435301573249
 20
8934.89151091903
 30
0.0
 40
2.0
100
AcDbArc
 50
0.0
 51
90.0
  0
LINE
  5
1E4BAFBB73
330
1E4BABA593
100
AcDbEntity
  8
JISSEN
100
AcDbLine
 10
5050.435301573249
 20
8936.89151091903
 30
0.0
 11
5069.283251883819
 21
8936.89151091903
 31
0.0
  0
LINE
  5
1E4BAFBB74
330
1E4BABA593
100
AcDbEntity
  8
JISSEN
100
AcDbLine
 10
5050.435301573249
 20
8936.89151091903
 30
0.0
 11
5048.435301573249
 21
8934.89151091903
 31
0.0
  0
ARC
  5
1E4BAFBB75
330
1E4BABA593
100
AcDbEntity
  8
JISSEN
100
AcDbCircle
 10
5073.283251883819
 20
8925.39151091903
 30
0.0
 40
2.0
100
AcDbArc
 50
180.0
 51
270.0
  0
ARC
  5
1E4BAFBB76
330
1E4BABA593
100
AcDbEntity
  8
JISSEN
100
AcDbCircle
 10
5079.783251883819
 20
8913.39151091903
 30
0.0
 40
10.0
100
AcDbArc
 50
0.0
 51
90.0
  0
LINE
  5
1E4BAFBB77
330
1E4BABA593
100
AcDbEntity
  8
JISSEN
100
AcDbLine
 10
5071.283251883819
 20
8936.885080352442
 30
0.0
 11
5071.283251883819
 21
8936.885080352442
 31
0.0
  0
LINE
  5
1E4BAFBB78
330
1E4BABA593
100
AcDbEntity
  8
JISSEN
100
AcDbLine
 10
5071.283251883819
 20
8936.885080352442
 30
0.0
 11
5071.283251883819
 21
8936.885080352442
 31
0.0
  0
LINE
  5
1E4BAFBB79
330
1E4BABA593
100
AcDbEntity
  8
JISSEN
100
AcDbLine
 10
5071.283251883819
 20
8936.885080352442
 30
0.0
 11
5071.283251883819
 21
8936.885080352442
 31
0.0
  0
LINE
  5
1E4BAFBB7A
330
1E4BABA593
100
AcDbEntity
  8
JISSEN
100
AcDbLine
 10
5071.283251883819
 20
8936.89151091903
 30
0.0
 11
5071.283251883819
 21
8936.885080352442
 31
0.0
  0
ARC
  5
1E4BAFBB7B
330
1E4BABA593
100
AcDbEntity
  8
JISSEN
100
AcDbCircle
 10
5069.283251883819
 20
8938.89151091903
 30
0.0
 40
2.0
100
AcDbArc
 50
270.0
 51
0.0
  0
LINE
  5
1E4BAFBB7C
330
1E4BABA593
100
AcDbEntity
  8
JISSEN
100
AcDbLine
 10
5071.283251883819
 20
8940.257536322812
 30
0.0
 11
5071.283251883819
 21
8925.39151091903
 31
0.0
  0
LINE
  5
1E4BAFBB7D
330
1E4BABA593
100
AcDbEntity
  8
JISSEN
100
AcDbLine
 10
5097.02310826444
 20
8963.612975204458
 30
0.0
 11
5097.02310826444
 21
8956.371007842517
 31
0.0
  0
LINE
  5
1E4BAFBB7E
330
1E4BABA593
100
AcDbEntity
  8
JISSEN
100
AcDbLine
 10
5092.123108264441
 20
8963.612975204456
 30
0.0
 11
5092.123108264441
 21
8956.371007842517
 31
0.0
  0
ARC
  5
1E4BAFBB7F
330
1E4BABA593
100
AcDbEntity
  8
JISSEN
100
AcDbCircle
 10
5072.283251883819
 20
8955.371007842516
 30
0.0
 40
1.0
100
AcDbArc
 50
90.0
 51
180.0
  0
LINE
  5
1E4BAFBB80
330
1E4BABA593
100
AcDbEntity
  8
JISSEN
100
AcDbLine
 10
5093.436059307352
 20
8964.371007842516
 30
0.0
 11
5092.123108264441
 21
8963.612975204456
 31
0.0
  0
ARC
  5
1E4BAFBB81
330
1E4BABA593
100
AcDbEntity
  8
JISSEN
100
AcDbCircle
 10
5092.123108264443
 20
8948.154942566398
 30
0.0
 40
16.21606527611809
100
AcDbArc
 50
72.41204622605208
 51
85.64351788231048
  0
LINE
  5
1E4BAFBB82
330
1E4BABA593
100
AcDbEntity
  8
JISSEN
100
AcDbLine
 10
5152.935301573259
 20
8941.371007842516
 30
0.0
 11
5152.935301573259
 21
8925.391510919027
 31
0.0
  0
LINE
  5
1E4BAFBB83
330
1E4BABA593
100
AcDbEntity
  8
JISSEN
100
AcDbLine
 10
5132.935301573259
 20
8941.371007842516
 30
0.0
 11
5132.935301573259
 21
8925.39151091903
 31
0.0
  0
LINE
  5
1E4BAFBB84
330
1E4BABA593
100
AcDbEntity
  8
SAISEN
100
AcDbLine
 10
5152.935301573259
 20
8941.371007842516
 30
0.0
 11
5133.216988632004
 21
8923.977297356654
 31
0.0
  0
LINE
  5
1E4BAFBB85
330
1E4BABA593
100
AcDbEntity
  8
SAISEN
100
AcDbLine
 10
5132.935301573259
 20
8941.371007842516
 30
0.0
 11
5152.349515135633
 21
8923.977297356654
 31
0.0
  0
ARC
  5
1E4BAFBB86
330
1E4BABA593
100
AcDbEntity
  8
JISSEN
100
AcDbCircle
 10
5134.935301573259
 20
8925.39151091903
 30
0.0
 40
2.0
100
AcDbArc
 50
180.0
 51
270.0
  0
ARC
  5
1E4BAFBB87
330
1E4BABA593
100
AcDbEntity
  8
JISSEN
100
AcDbCircle
 10
5150.935301573259
 20
8925.391510919027
 30
0.0
 40
2.0
100
AcDbArc
 50
270.0
 51
0.0
  0
ARC
  5
1E4BAFBB89
330
1E4BABA593
100
AcDbEntity
  8
JISSEN
100
AcDbCircle
 10
5126.435301573259
 20
8957.871007842516
 30
0.0
 40
1.5
100
AcDbArc
 50
270.0
 51
0.0
  0
LINE
  5
1E4BAFBB8A
330
1E4BABA593
100
AcDbEntity
  8
JISSEN
100
AcDbLine
 10
5111.723108264439
 20
8963.612975204458
 30
0.0
 11
5111.723108264441
 21
8956.371007842517
 31
0.0
  0
LINE
  5
1E4BAFBB8B
330
1E4BABA593
100
AcDbEntity
  8
JISSEN
100
AcDbLine
 10
5106.82310826444
 20
8963.612975204458
 30
0.0
 11
5106.823108264442
 21
8956.371007842517
 31
0.0
  0
LINE
  5
1E4BAFBB8C
330
1E4BABA593
100
AcDbEntity
  8
JISSEN
100
AcDbLine
 10
5110.410157221528
 20
8964.371007842517
 30
0.0
 11
5111.723108264439
 21
8963.612975204458
 31
0.0
  0
ARC
  5
1E4BAFBB8D
330
1E4BABA593
100
AcDbEntity
  8
JISSEN
100
AcDbCircle
 10
5111.723108264441
 20
8948.154942566398
 30
0.0
 40
16.21606527611809
100
AcDbArc
 50
94.35648211768952
 51
107.5879537739479
  0
LINE
  5
1E4BAFBB8E
330
1E4BABA593
100
AcDbEntity
  8
JISSEN
100
AcDbLine
 10
5159.435301573259
 20
8972.374780753198
 30
0.0
 11
5163.562089352408
 21
8972.371007842517
 31
0.0
  0
LINE
  5
1E4BAFBB91
330
1E4BABA593
100
AcDbEntity
  8
HATCH
100
AcDbLine
 10
5139.783251883819
 20
9011.89151091903
 30
0.0
 11
5145.783251883819
 21
9000.39151091903
 31
0.0
  0
LINE
  5
1E4BAFBB92
330
1E4BABA593
100
AcDbEntity
  8
HATCH
100
AcDbLine
 10
5145.783251883819
 20
9011.89151091903
 30
0.0
 11
5139.783251883819
 21
9000.39151091903
 31
0.0
  0
LINE
  5
1E4BAFBB93
330
1E4BABA593
100
AcDbEntity
  8
JISSEN
100
AcDbLine
 10
5139.783251883819
 20
9011.89151091903
 30
0.0
 11
5139.783251883819
 21
9000.39151091903
 31
0.0
  0
LINE
  5
1E4BAFBB94
330
1E4BABA593
100
AcDbEntity
  8
JISSEN
100
AcDbLine
 10
5145.783251883819
 20
9011.89151091903
 30
0.0
 11
5145.783251883819
 21
9000.39151091903
 31
0.0
  0
LINE
  5
1E4BAFBB95
330
1E4BABA593
100
AcDbEntity
  8
JISSEN
100
AcDbLine
 10
5147.783251883819
 20
9011.89151091903
 30
0.0
 11
5147.783251883819
 21
9000.39151091903
 31
0.0
  0
LINE
  5
1E4BAFBB96
330
1E4BABA593
100
AcDbEntity
  8
JISSEN
100
AcDbLine
 10
5137.783251883819
 20
9011.89151091903
 30
0.0
 11
5137.783251883819
 21
9000.39151091903
 31
0.0
  0
LINE
  5
1E4BAFBB97
330
1E4BABA593
100
AcDbEntity
  8
JISSEN
100
AcDbLine
 10
5137.783251883819
 20
9000.39151091903
 30
0.0
 11
5137.283251883817
 21
8999.525485515243
 31
0.0
  0
LINE
  5
1E4BAFBB98
330
1E4BABA593
100
AcDbEntity
  8
JISSEN
100
AcDbLine
 10
5128.935301573259
 20
8978.237033246309
 30
0.0
 11
5156.935301573259
 21
8978.237033246309
 31
0.0
  0
LINE
  5
1E4BAFBB99
330
1E4BABA593
100
AcDbEntity
  8
JISSEN
100
AcDbLine
 10
5137.283251883817
 20
8999.525485515243
 30
0.0
 11
5137.283251883817
 21
8978.237033246309
 31
0.0
  0
ARC
  5
1E4BAFBB9A
330
1E4BABA593
100
AcDbEntity
  8
JISSEN
100
AcDbCircle
 10
5128.935301573259
 20
8977.237033246309
 30
0.0
 40
1.0
100
AcDbArc
 50
90.0
 51
180.0
  0
LINE
  5
1E4BAFBB9B
330
1E4BABA593
100
AcDbEntity
  8
JISSEN
100
AcDbLine
 10
5148.283251883817
 20
8999.525485515245
 30
0.0
 11
5148.283251883817
 21
8978.237033246309
 31
0.0
  0
LINE
  5
1E4BAFBB9D
330
1E4BABA593
100
AcDbEntity
  8
JISSEN
100
AcDbLine
 10
5157.935301573259
 20
8977.371007842517
 30
0.0
 11
5157.935301573259
 21
8973.874780753198
 31
0.0
  0
ARC
  5
1E4BAFBB9E
330
1E4BABA593
100
AcDbEntity
  8
JISSEN
100
AcDbCircle
 10
5156.935301573259
 20
8977.237033246309
 30
0.0
 40
1.0
100
AcDbArc
 50
0.0
 51
90.0
  0
LINE
  5
1E4BAFBB9F
330
1E4BABA593
100
AcDbEntity
  8
JISSEN
100
AcDbLine
 10
5147.783251883819
 20
9000.39151091903
 30
0.0
 11
5148.283251883819
 21
8999.525485515243
 31
0.0
  0
LINE
  5
1E4BAFBBA0
330
1E4BABA593
100
AcDbEntity
  8
JISSEN
100
AcDbLine
 10
5142.783251883819
 20
9000.39151091903
 30
0.0
 11
5147.783251883819
 21
9000.39151091903
 31
0.0
  0
LINE
  5
1E4BAFBBA1
330
1E4BABA593
100
AcDbEntity
  8
JISSEN
100
AcDbLine
 10
5137.783251883819
 20
9000.39151091903
 30
0.0
 11
5142.783251883819
 21
9000.39151091903
 31
0.0
  0
LINE
  5
1E4BAFBBA2
330
1E4BABA593
100
AcDbEntity
  8
JISSEN
100
AcDbLine
 10
5144.844804696628
 20
9012.39151091903
 30
0.0
 11
5145.783251883819
 21
9011.89151091903
 31
0.0
  0
LINE
  5
1E4BAFBBA3
330
1E4BABA593
100
AcDbEntity
  8
JISSEN
100
AcDbLine
 10
5147.783251883819
 20
9011.89151091903
 30
0.0
 11
5147.283251883819
 21
9012.39151091903
 31
0.0
  0
LINE
  5
1E4BAFBBA4
330
1E4BABA593
100
AcDbEntity
  8
JISSEN
100
AcDbLine
 10
5145.783251883819
 20
9011.89151091903
 30
0.0
 11
5147.783251883819
 21
9011.89151091903
 31
0.0
  0
LINE
  5
1E4BAFBBA5
330
1E4BABA593
100
AcDbEntity
  8
JISSEN
100
AcDbLine
 10
5140.721699071009
 20
9012.39151091903
 30
0.0
 11
5139.783251883819
 21
9011.89151091903
 31
0.0
  0
LINE
  5
1E4BAFBBA6
330
1E4BABA593
100
AcDbEntity
  8
JISSEN
100
AcDbLine
 10
5142.783251883819
 20
9012.39151091903
 30
0.0
 11
5147.283251883819
 21
9012.39151091903
 31
0.0
  0
LINE
  5
1E4BAFBBA7
330
1E4BABA593
100
AcDbEntity
  8
JISSEN
100
AcDbLine
 10
5137.783251883819
 20
9011.89151091903
 30
0.0
 11
5138.283251883819
 21
9012.39151091903
 31
0.0
  0
LINE
  5
1E4BAFBBA8
330
1E4BABA593
100
AcDbEntity
  8
JISSEN
100
AcDbLine
 10
5142.783251883819
 20
9012.39151091903
 30
0.0
 11
5138.283251883819
 21
9012.39151091903
 31
0.0
  0
LINE
  5
1E4BAFBBA9
330
1E4BABA593
100
AcDbEntity
  8
JISSEN
100
AcDbLine
 10
5137.783251883819
 20
9011.89151091903
 30
0.0
 11
5139.783251883819
 21
9011.89151091903
 31
0.0
  0
LINE
  5
1E4BAFBBAA
330
1E4BABA593
100
AcDbEntity
  8
JISSEN
100
AcDbLine
 10
5214.283251883819
 20
8976.737033246589
 30
0.0
 11
5214.283251883819
 21
8941.103058650087
 31
0.0
  0
ARC
  5
1E4BAFBBAB
330
1E4BABA593
100
AcDbEntity
  8
JISSEN
100
AcDbCircle
 10
5182.783251883819
 20
8973.871007842517
 30
0.0
 40
1.5
100
AcDbArc
 50
270.0
 51
0.0
  0
LINE
  5
1E4BAFBBAC
330
1E4BABA593
100
AcDbEntity
  8
JISSEN
100
AcDbLine
 10
5184.283251883819
 20
8973.871007842517
 30
0.0
 11
5184.283251883819
 21
8964.36366915646
 31
0.0
  0
LINE
  5
1E4BAFBBAF
330
1E4BABA593
100
AcDbEntity
  8
JISSEN
100
AcDbLine
 10
5214.283251883819
 20
8941.237033246296
 30
0.0
 11
5214.283251885787
 21
8925.391510919311
 31
0.0
  0
ARC
  5
1E4BAFBBB0
330
1E4BABA593
100
AcDbEntity
  8
JISSEN
100
AcDbCircle
 10
5205.783251883819
 20
8913.39151091903
 30
0.0
 40
10.0
100
AcDbArc
 50
90.0
 51
180.0
  0
ARC
  5
1E4BAFBBB1
330
1E4BABA593
100
AcDbEntity
  8
JISSEN
100
AcDbCircle
 10
5212.283251885787
 20
8925.39151091903
 30
0.0
 40
2.0
100
AcDbArc
 50
270.0
 51
0.000000008024972
  0
LINE
  5
1E4BAFBBB2
330
1E4BABA593
100
AcDbEntity
  8
JISSEN
100
AcDbLine
 10
5235.435301573249
 20
8936.89151091903
 30
0.0
 11
5216.283251883819
 21
8936.89151091903
 31
0.0
  0
ARC
  5
1E4BAFBBB3
330
1E4BABA593
100
AcDbEntity
  8
JISSEN
100
AcDbCircle
 10
5218.43530157325
 20
8934.89151091903
 30
0.0
 40
2.0
100
AcDbArc
 50
90.0
 51
180.0
  0
ARC
  5
1E4BAFBBB4
330
1E4BABA593
100
AcDbEntity
  8
JISSEN
100
AcDbCircle
 10
5216.283251883819
 20
8938.89151091903
 30
0.0
 40
2.0
100
AcDbArc
 50
180.0
 51
270.0
  0
LINE
  5
1E4BAFBBB5
330
1E4BABA593
100
AcDbEntity
  8
JISSEN
100
AcDbLine
 10
5237.435301573249
 20
8934.891510919031
 30
0.0
 11
5235.435301573249
 21
8936.89151091903
 31
0.0
  0
LINE
  5
1E4BAFBBB6
330
1E4BABA593
100
AcDbEntity
  8
JISSEN
100
AcDbLine
 10
5193.443395503196
 20
8963.612975204456
 30
0.0
 11
5193.443395503196
 21
8956.371007842517
 31
0.0
  0
LINE
  5
1E4BAFBBB7
330
1E4BABA593
100
AcDbEntity
  8
JISSEN
100
AcDbLine
 10
5188.543395503197
 20
8963.612975204458
 30
0.0
 11
5188.543395503197
 21
8956.371007842517
 31
0.0
  0
LINE
  5
1E4BAFBBB8
330
1E4BABA593
100
AcDbEntity
  8
JISSEN
100
AcDbLine
 10
5178.743395503197
 20
8963.612975204458
 30
0.0
 11
5178.743395503196
 21
8956.371007842517
 31
0.0
  0
LINE
  5
1E4BAFBBB9
330
1E4BABA593
100
AcDbEntity
  8
JISSEN
100
AcDbLine
 10
5173.843395503198
 20
8963.612975204458
 30
0.0
 11
5173.843395503196
 21
8956.371007842517
 31
0.0
  0
ARC
  5
1E4BAFBBBA
330
1E4BABA593
100
AcDbEntity
  8
JISSEN
100
AcDbCircle
 10
5193.443395503195
 20
8948.154942566398
 30
0.0
 40
16.21606527611809
100
AcDbArc
 50
94.35648211768952
 51
107.5879537739479
  0
LINE
  5
1E4BAFBBBB
330
1E4BABA593
100
AcDbEntity
  8
JISSEN
100
AcDbLine
 10
5192.130444460285
 20
8964.371007842516
 30
0.0
 11
5175.156346546109
 21
8964.371007842517
 31
0.0
  0
LINE
  5
1E4BAFBBBC
330
1E4BABA593
100
AcDbEntity
  8
JISSEN
100
AcDbLine
 10
5175.156346546109
 20
8964.371007842517
 30
0.0
 11
5173.843395503198
 21
8963.612975204458
 31
0.0
  0
ARC
  5
1E4BAFBBBD
330
1E4BABA593
100
AcDbEntity
  8
JISSEN
100
AcDbCircle
 10
5173.843395503196
 20
8948.154942566398
 30
0.0
 40
16.21606527611809
100
AcDbArc
 50
72.41204622605208
 51
85.64351788231048
  0
ARC
  5
1E4BAFBBBE
330
1E4BABA593
100
AcDbEntity
  8
JISSEN
100
AcDbCircle
 10
5183.643395503195
 20
8948.154942566398
 30
0.0
 40
16.21606527611809
100
AcDbArc
 50
72.41204622605208
 51
107.5879537739479
  0
LINE
  5
1E4BAFBBBF
330
1E4BABA593
100
AcDbEntity
  8
JISSEN
100
AcDbLine
 10
5192.130444460285
 20
8964.371007842516
 30
0.0
 11
5193.443395503196
 21
8963.612975204456
 31
0.0
  0
LINE
  5
1E4BAFBBC3
330
1E4BABA593
100
AcDbEntity
  8
JISSEN
100
AcDbLine
 10
5212.783280844033
 20
8978.237033246309
 30
0.0
 11
5185.783251883819
 21
8978.237033246309
 31
0.0
  0
LINE
  5
1E4BAFBBC5
330
1E4BABA593
100
AcDbEntity
  8
JISSEN
100
AcDbLine
 10
5184.283251883819
 20
8976.737033246309
 30
0.0
 11
5184.283251883819
 21
8973.871007842517
 31
0.0
  0
ARC
  5
1E4BAFBBC6
330
1E4BABA593
100
AcDbEntity
  8
JISSEN
100
AcDbCircle
 10
5185.783251883819
 20
8976.737033246309
 30
0.0
 40
1.5
100
AcDbArc
 50
90.0
 51
180.0
  0
ARC
  5
1E4BAFBBC8
330
1E4BABA593
100
AcDbEntity
  8
JISSEN
100
AcDbCircle
 10
5212.783251883819
 20
8976.737033246589
 30
0.0
 40
1.5
100
AcDbArc
 50
0.0
 51
90.0
  0
CIRCLE
  5
1E4BAFBBCD
330
1E4BABA593
100
AcDbEntity
  8
JISSEN
100
AcDbCircle
 10
5484.959366918865
 20
8901.797414713707
 30
0.0
 40
9.5
  0
CIRCLE
  5
1E4BAFBBCE
330
1E4BABA593
100
AcDbEntity
  8
JISSEN
100
AcDbCircle
 10
5400.106553176478
 20
8901.797414713707
 30
0.0
 40
9.5
  0
ARC
  5
1E4BAFBBCF
330
1E4BABA593
100
AcDbEntity
  8
ITTEN
 48
3.0
100
AcDbCircle
 10
5442.532960047671
 20
8859.371007842514
 30
0.0
 40
60.0
100
AcDbArc
 50
90.0
 51
270.0
  0
LINE
  5
1E4BAFBBD0
330
1E4BABA593
100
AcDbEntity
  8
ITTEN
 48
3.0
100
AcDbLine
 10
5413.895135409615
 20
8888.00883248057
 30
0.0
 11
5386.317970943341
 21
8915.585996946844
 31
0.0
  0
ARC
  5
1E4BAFBBD1
330
1E4BABA593
100
AcDbEntity
  8
ITTEN
 48
3.0
100
AcDbCircle
 10
5442.532960047671
 20
8859.371007842514
 30
0.0
 40
60.0
100
AcDbArc
 50
270.0
 51
90.0
  0
LINE
  5
1E4BAFBBD2
330
1E4BABA593
100
AcDbEntity
  8
ITTEN
 48
3.0
100
AcDbLine
 10
5471.170784685728
 20
8888.00883248057
 30
0.0
 11
5498.747949152003
 21
8915.585996946844
 31
0.0
  0
CIRCLE
  5
1E4BAFBBD8
330
1E4BABA593
100
AcDbEntity
  8
JISSEN
100
AcDbCircle
 10
5442.532960047676
 20
8859.371007842514
 30
0.0
 40
25.0
  0
CIRCLE
  5
1E4BAFBBD9
330
1E4BABA593
100
AcDbEntity
  8
JISSEN
100
AcDbCircle
 10
5442.53296004767
 20
8859.371007843038
 30
0.0
 40
27.0
  0
LINE
  5
1E4BAFBBDA
330
1E4BABA593
100
AcDbEntity
  8
JISSEN
370
    15
100
AcDbLine
 10
5442.532960047669
 20
8779.391506597693
 30
0.0
 11
5434.047679139025
 21
8779.391506597693
 31
0.0
  0
CIRCLE
  5
1E4BAFBBDB
330
1E4BABA593
100
AcDbEntity
  8
JISSEN
100
AcDbCircle
 10
5400.106553176478
 20
8816.944600971321
 30
0.0
 40
9.5
  0
LINE
  5
1E4BAFBBDC
330
1E4BABA593
100
AcDbEntity
  8
ITTEN
 48
3.0
100
AcDbLine
 10
5413.895135409616
 20
8830.733183204458
 30
0.0
 11
5386.31797094334
 21
8803.156018738184
 31
0.0
  0
ARC
  5
1E4BAFBBDD
330
1E4BABA593
100
AcDbEntity
  8
JISSEN
370
    15
100
AcDbCircle
 10
5434.047678673431
 20
8780.391509577925
 30
0.0
 40
1.000000000000085
100
AcDbArc
 50
180.0
 51
270.0
  0
ARC
  5
1E4BAFBBDE
330
1E4BABA593
100
AcDbEntity
  8
JISSEN
370
     0
100
AcDbCircle
 10
5434.224462016695
 20
8780.266511942895
 30
0.0
 40
0.8926850172212176
100
AcDbArc
 50
171.9508068167827
 51
258.5779253309823
  0
LINE
  5
1E4BAFBBDF
330
1E4BABA593
100
AcDbEntity
  8
JISSEN
370
    15
100
AcDbLine
 10
5433.047678975112
 20
8782.453653214483
 30
0.0
 11
5433.047678975112
 21
8780.39150862425
 31
0.0
  0
LINE
  5
1E4BAFBBE0
330
1E4BABA593
100
AcDbEntity
  8
JISSEN
370
     0
100
AcDbLine
 10
5433.340571542925
 20
8782.418100206885
 30
0.0
 11
5433.340571542925
 21
8780.39150862425
 31
0.0
  0
LINE
  5
1E4BAFBBE1
330
1E4BABA593
100
AcDbEntity
  8
SUNPOU
100
AcDbLine
 10
5435.725022776866
 20
8782.170606353166
 30
0.0
 11
5433.49558753992
 21
8779.751120308236
 31
0.0
  0
CIRCLE
  5
1E4BAFBBE2
330
1E4BABA593
100
AcDbEntity
  8
JISSEN
100
AcDbCircle
 10
5484.959366918863
 20
8816.944600971321
 30
0.0
 40
9.5
  0
LINE
  5
1E4BAFBBE3
330
1E4BABA593
100
AcDbEntity
  8
ITTEN
 48
3.0
100
AcDbLine
 10
5471.170784685727
 20
8830.73318320446
 30
0.0
 11
5498.747949152004
 21
8803.156018738186
 31
0.0
  0
ARC
  5
1E4BAFBBE4
330
1E4BABA593
100
AcDbEntity
  8
JISSEN
370
    15
100
AcDbCircle
 10
5451.018241421907
 20
8780.391509577925
 30
0.0
 40
1.000000000000085
100
AcDbArc
 50
270.0
 51
0.0
  0
ARC
  5
1E4BAFBBE5
330
1E4BABA593
100
AcDbEntity
  8
JISSEN
370
     0
100
AcDbCircle
 10
5450.841458078643
 20
8780.266511942895
 30
0.0
 40
0.8926850172213584
100
AcDbArc
 50
281.4220746690177
 51
8.049193183217271
  0
LINE
  5
1E4BAFBBE6
330
1E4BABA593
100
AcDbEntity
  8
JISSEN
370
    15
100
AcDbLine
 10
5452.018241120226
 20
8780.39150862425
 30
0.0
 11
5452.018241120226
 21
8782.453653214481
 31
0.0
  0
LINE
  5
1E4BAFBBE7
330
1E4BABA593
100
AcDbEntity
  8
JISSEN
370
     0
100
AcDbLine
 10
5451.725348552412
 20
8780.39150862425
 30
0.0
 11
5451.725348552412
 21
8782.418100206884
 31
0.0
  0
LINE
  5
1E4BAFBBE8
330
1E4BABA593
100
AcDbEntity
  8
SUNPOU
100
AcDbLine
 10
5445.153476402911
 20
8781.915324422693
 30
0.0
 11
5443.085051417782
 21
8779.751120343833
 31
0.0
  0
ARC
  5
1E4BAFBBE9
330
1E4BABA593
100
AcDbEntity
  8
JISSEN
370
     0
100
AcDbCircle
 10
5442.356177417714
 20
8780.266511047446
 30
0.0
 40
0.8926840904507172
100
AcDbArc
 50
281.422070466331
 51
8.049259640214377
  0
ARC
  5
1E4BAFBBEA
330
1E4BABA593
100
AcDbEntity
  8
JISSEN
370
     0
100
AcDbCircle
 10
5442.709742677624
 20
8780.266511047446
 30
0.0
 40
0.8926840904508181
100
AcDbArc
 50
171.9507403597856
 51
258.5779295337201
  0
LINE
  5
1E4BAFBBEB
330
1E4BABA593
100
AcDbEntity
  8
JISSEN
370
     0
100
AcDbLine
 10
5441.825853266477
 20
8780.39150862425
 30
0.0
 11
5441.825853266477
 21
8781.874233716104
 31
0.0
  0
LINE
  5
1E4BAFBBEC
330
1E4BABA593
100
AcDbEntity
  8
JISSEN
370
     0
100
AcDbLine
 10
5443.240066828861
 20
8781.874233716104
 30
0.0
 11
5443.240066828861
 21
8780.39150862425
 31
0.0
  0
LINE
  5
1E4BAFBBED
330
1E4BABA593
100
AcDbEntity
  8
SUNPOU
100
AcDbLine
 10
5439.912443692428
 20
8781.915324422693
 30
0.0
 11
5441.980868677557
 21
8779.751120343833
 31
0.0
  0
LINE
  5
1E4BAFBBEE
330
1E4BABA593
100
AcDbEntity
  8
SUNPOU
100
AcDbLine
 10
5449.340897318474
 20
8782.170606353166
 30
0.0
 11
5451.570332555419
 21
8779.751120308236
 31
0.0
  0
LINE
  5
1E4BAFBBEF
330
1E4BABA593
100
AcDbEntity
  8
JISSEN
370
    15
100
AcDbLine
 10
5451.018240956313
 20
8779.391506597693
 30
0.0
 11
5442.532960047669
 21
8779.391506597693
 31
0.0
  0
LINE
  5
1E4BAFBBF4
330
1E4BABA593
100
AcDbEntity
  8
JISSEN
100
AcDbLine
 10
5466.920456844191
 20
8853.871007842517
 30
0.0
 11
5418.145463251161
 21
8853.871007842517
 31
0.0
  0
LINE
  5
1E4BAFBBFE
330
1E4BABA593
100
AcDbEntity
  8
JISSEN
100
AcDbLine
 10
5486.239366900672
 20
8923.371007842514
 30
0.0
 11
5516.032960047671
 21
8923.371007842514
 31
0.0
  0
LINE
  5
1E4BAFBBFF
330
1E4BABA593
100
AcDbEntity
  8
SUNPOU
100
AcDbLine
 10
5535.53906411027
 20
8999.580272277808
 30
0.0
 11
5480.850527424506
 21
8999.580272277808
 31
0.0
  0
TEXT
  5
1E4BAFBC00
330
1E4BABA593
100
AcDbEntity
  8
SUNPOU
100
AcDbText
 10
5486.700605847213
 20
9001.580272277808
 30
0.0
 40
9.0
  1
Rc 1/2
  7
K
 72
     2
 11
5531.100605847213
 21
9001.580272277808
 31
0.0
100
AcDbText
  0
LINE
  5
1E4BAFBC01
330
1E4BABA593
100
AcDbEntity
  8
JISSEN
100
AcDbLine
 10
5371.032960047673
 20
8941.371007842516
 30
0.0
 11
5516.032960047671
 21
8941.371007842516
 31
0.0
  0
LINE
  5
1E4BAFBC02
330
1E4BABA593
100
AcDbEntity
  8
JISSEN
100
AcDbLine
 10
5463.532960047667
 20
8956.371007842517
 30
0.0
 11
5511.032960047665
 21
8956.371007842517
 31
0.0
  0
LINE
  5
1E4BAFBC03
330
1E4BABA593
100
AcDbEntity
  8
JISSEN
100
AcDbLine
 10
5457.532960047673
 20
8977.237033246309
 30
0.0
 11
5457.532960047673
 21
8970.898937036007
 31
0.0
  0
LINE
  5
1E4BAFBC04
330
1E4BABA593
100
AcDbEntity
  8
JISSEN
100
AcDbLine
 10
5427.532960047673
 20
8977.237033246309
 30
0.0
 11
5427.532960047673
 21
8970.898937036
 31
0.0
  0
ARC
  5
1E4BAFBC05
330
1E4BABA593
100
AcDbEntity
  8
JISSEN
100
AcDbCircle
 10
5442.532960047671
 20
8959.237033246316
 30
0.0
 40
19.0
100
AcDbArc
 50
0.0
 51
180.0
  0
LINE
  5
1E4BAFBC06
330
1E4BABA593
100
AcDbEntity
  8
SUNPOU
100
AcDbLine
 10
5450.166984421016
 20
8966.570257364492
 30
0.0
 11
5480.850527424506
 21
8999.580272277808
 31
0.0
  0
CIRCLE
  5
1E4BAFBC07
330
1E4BABA593
100
AcDbEntity
  8
JISSEN
100
AcDbCircle
 10
5442.532960047671
 20
8959.371007842525
 30
0.0
 40
5.000000000000909
  0
CIRCLE
  5
1E4BAFBC08
330
1E4BABA593
100
AcDbEntity
  8
JISSEN
100
AcDbCircle
 10
5442.532960047671
 20
8959.371007842525
 30
0.0
 40
9.315499999999076
  0
CIRCLE
  5
1E4BAFBC09
330
1E4BABA593
100
AcDbEntity
  8
SAISEN
100
AcDbCircle
 10
5442.532960047671
 20
8959.371007842525
 30
0.0
 40
10.47750000000093
  0
ARC
  5
1E4BAFBC0A
330
1E4BABA593
100
AcDbEntity
  8
JISSEN
100
AcDbCircle
 10
5442.532960047673
 20
9014.371007842517
 30
0.0
 40
73.0
100
AcDbArc
 50
254.9136806744621
 51
270.0
  0
LINE
  5
1E4BAFBC0B
330
1E4BABA593
100
AcDbEntity
  8
ITTEN
 48
3.0
100
AcDbLine
 10
5413.533269518157
 20
8959.371007842525
 30
0.0
 11
5471.532650577185
 21
8959.371007842525
 31
0.0
  0
LINE
  5
1E4BAFBC0C
330
1E4BABA593
100
AcDbEntity
  8
JISSEN
100
AcDbLine
 10
5371.032960047669
 20
8938.371007842516
 30
0.0
 11
5371.032960047669
 21
8953.371007842521
 31
0.0
  0
LINE
  5
1E4BAFBC0D
330
1E4BABA593
100
AcDbEntity
  8
JISSEN
100
AcDbLine
 10
5371.032960047673
 20
8941.371007842516
 30
0.0
 11
5371.032960047673
 21
8925.371007842514
 31
0.0
  0
ARC
  5
1E4BAFBC0E
330
1E4BABA593
100
AcDbEntity
  8
JISSEN
100
AcDbCircle
 10
5373.032960047673
 20
8925.371007842514
 30
0.0
 40
2.0
100
AcDbArc
 50
180.0
 51
270.0
  0
ARC
  5
1E4BAFBC0F
330
1E4BABA593
100
AcDbEntity
  8
JISSEN
100
AcDbCircle
 10
5373.032960045703
 20
8925.371007842514
 30
0.0
 40
2.0
100
AcDbArc
 50
179.999999991975
 51
270.0
  0
ARC
  5
1E4BAFBC10
330
1E4BABA593
100
AcDbEntity
  8
JISSEN
100
AcDbCircle
 10
5379.532960047671
 20
8913.371007842514
 30
0.0
 40
10.0
100
AcDbArc
 50
13.25733001447092
 51
90.0
  0
LINE
  5
1E4BAFBC11
330
1E4BABA593
100
AcDbEntity
  8
JISSEN
100
AcDbLine
 10
5398.826553194669
 20
8923.371007842514
 30
0.0
 11
5373.032960045703
 21
8923.371007842514
 31
0.0
  0
LINE
  5
1E4BAFBC12
330
1E4BABA593
100
AcDbEntity
  8
JISSEN
100
AcDbLine
 10
5371.032960047673
 20
8936.871007842514
 30
0.0
 11
5371.032960047673
 21
8936.864577275926
 31
0.0
  0
LINE
  5
1E4BAFBC13
330
1E4BABA593
100
AcDbEntity
  8
JISSEN
100
AcDbLine
 10
5371.032960047673
 20
8936.864577275926
 30
0.0
 11
5371.032960047673
 21
8936.864577275926
 31
0.0
  0
LINE
  5
1E4BAFBC14
330
1E4BABA593
100
AcDbEntity
  8
JISSEN
100
AcDbLine
 10
5371.032960047673
 20
8936.864577275926
 30
0.0
 11
5371.032960047673
 21
8936.864577275926
 31
0.0
  0
LINE
  5
1E4BAFBC15
330
1E4BABA593
100
AcDbEntity
  8
JISSEN
100
AcDbLine
 10
5371.032960047673
 20
8936.864577275926
 30
0.0
 11
5371.032960047673
 21
8936.864577275926
 31
0.0
  0
ARC
  5
1E4BAFBC16
330
1E4BABA593
100
AcDbEntity
  8
JISSEN
100
AcDbCircle
 10
5401.67281642829
 20
8948.1549425664
 30
0.0
 40
16.21606527611809
100
AcDbArc
 50
72.41204622605208
 51
107.5879537739479
  0
LINE
  5
1E4BAFBC17
330
1E4BABA593
100
AcDbEntity
  8
JISSEN
100
AcDbLine
 10
5393.185767471203
 20
8964.371007842517
 30
0.0
 11
5410.159865385378
 21
8964.371007842517
 31
0.0
  0
LINE
  5
1E4BAFBC18
330
1E4BABA593
100
AcDbEntity
  8
JISSEN
100
AcDbLine
 10
5374.032960047669
 20
8956.371007842521
 30
0.0
 11
5421.532960047667
 21
8956.371007842525
 31
0.0
  0
LINE
  5
1E4BAFBC19
330
1E4BABA593
100
AcDbEntity
  8
JISSEN
100
AcDbLine
 10
5396.772816428291
 20
8963.612975204458
 30
0.0
 11
5396.772816428291
 21
8956.371007842517
 31
0.0
  0
LINE
  5
1E4BAFBC1A
330
1E4BABA593
100
AcDbEntity
  8
JISSEN
100
AcDbLine
 10
5391.872816428291
 20
8963.612975204458
 30
0.0
 11
5391.872816428291
 21
8956.371007842517
 31
0.0
  0
ARC
  5
1E4BAFBC1B
330
1E4BABA593
100
AcDbEntity
  8
JISSEN
100
AcDbCircle
 10
5374.032960047669
 20
8953.371007842521
 30
0.0
 40
3.0
100
AcDbArc
 50
90.0
 51
180.0
  0
ARC
  5
1E4BAFBC1C
330
1E4BABA593
100
AcDbEntity
  8
JISSEN
100
AcDbCircle
 10
5391.872816428291
 20
8948.154942566398
 30
0.0
 40
16.21606527611809
100
AcDbArc
 50
72.41204622605208
 51
85.64351788231048
  0
LINE
  5
1E4BAFBC1D
330
1E4BABA593
100
AcDbEntity
  8
JISSEN
100
AcDbLine
 10
5393.185767471203
 20
8964.371007842517
 30
0.0
 11
5391.872816428291
 21
8963.612975204458
 31
0.0
  0
ARC
  5
1E4BAFBC1E
330
1E4BABA593
100
AcDbEntity
  8
JISSEN
100
AcDbCircle
 10
5421.532960047667
 20
8958.37100784252
 30
0.0
 40
2.0
100
AcDbArc
 50
270.0
 51
0.0
  0
LINE
  5
1E4BAFBC1F
330
1E4BABA593
100
AcDbEntity
  8
JISSEN
100
AcDbLine
 10
5411.47281642829
 20
8963.61297520446
 30
0.0
 11
5411.47281642829
 21
8956.371007842517
 31
0.0
  0
LINE
  5
1E4BAFBC20
330
1E4BABA593
100
AcDbEntity
  8
JISSEN
100
AcDbLine
 10
5423.532960047673
 20
8959.371007842525
 30
0.0
 11
5423.532960047673
 21
8941.371007842517
 31
0.0
  0
LINE
  5
1E4BAFBC21
330
1E4BABA593
100
AcDbEntity
  8
JISSEN
100
AcDbLine
 10
5406.57281642829
 20
8963.61297520446
 30
0.0
 11
5406.57281642829
 21
8956.371007842517
 31
0.0
  0
LINE
  5
1E4BAFBC22
330
1E4BABA593
100
AcDbEntity
  8
JISSEN
100
AcDbLine
 10
5410.159865385378
 20
8964.371007842517
 30
0.0
 11
5411.47281642829
 21
8963.61297520446
 31
0.0
  0
ARC
  5
1E4BAFBC23
330
1E4BABA593
100
AcDbEntity
  8
JISSEN
100
AcDbCircle
 10
5411.472816428291
 20
8948.1549425664
 30
0.0
 40
16.21606527611809
100
AcDbArc
 50
94.35648211768952
 51
107.5879537739479
  0
ARC
  5
1E4BAFBC24
330
1E4BABA593
100
AcDbEntity
  8
JISSEN
100
AcDbCircle
 10
5505.532960047673
 20
8913.371007842514
 30
0.0
 40
10.0
100
AcDbArc
 50
90.0
 51
166.7426699855291
  0
LINE
  5
1E4BAFBC25
330
1E4BABA593
100
AcDbEntity
  8
JISSEN
100
AcDbLine
 10
5474.906054709958
 20
8964.371007842517
 30
0.0
 11
5473.593103667046
 21
8963.61297520446
 31
0.0
  0
LINE
  5
1E4BAFBC26
330
1E4BABA593
100
AcDbEntity
  8
JISSEN
100
AcDbLine
 10
5473.593103667046
 20
8963.61297520446
 30
0.0
 11
5473.593103667046
 21
8956.371007842517
 31
0.0
  0
ARC
  5
1E4BAFBC27
330
1E4BABA593
100
AcDbEntity
  8
JISSEN
100
AcDbCircle
 10
5463.532960047667
 20
8958.37100784252
 30
0.0
 40
2.0
100
AcDbArc
 50
180.0
 51
270.0
  0
LINE
  5
1E4BAFBC28
330
1E4BABA593
100
AcDbEntity
  8
JISSEN
100
AcDbLine
 10
5461.532960047673
 20
8959.23703324631
 30
0.0
 11
5461.532960047673
 21
8941.371007842516
 31
0.0
  0
ARC
  5
1E4BAFBC29
330
1E4BABA593
100
AcDbEntity
  8
JISSEN
100
AcDbCircle
 10
5442.532960047673
 20
9014.371007842517
 30
0.0
 40
73.0
100
AcDbArc
 50
270.0
 51
285.0863193255379
  0
INSERT
  5
1E4BAFBC2A
330
1E4BABA593
100
AcDbEntity
  8
SUNPOU
100
AcDbBlockReference
  2
ARROW
 10
5450.166984421016
 20
8966.570257364492
 30
0.0
 41
4.500000000000064
 42
4.5
 43
4.5
 50
227.0918566014151
  0
LINE
  5
1E4BAFBC2B
330
1E4BABA593
100
AcDbEntity
  8
JISSEN
100
AcDbLine
 10
5493.193103667045
 20
8963.612975204458
 30
0.0
 11
5493.193103667045
 21
8956.371007842517
 31
0.0
  0
LINE
  5
1E4BAFBC2C
330
1E4BABA593
100
AcDbEntity
  8
JISSEN
100
AcDbLine
 10
5488.293103667045
 20
8963.612975204458
 30
0.0
 11
5488.293103667045
 21
8956.371007842517
 31
0.0
  0
LINE
  5
1E4BAFBC2D
330
1E4BABA593
100
AcDbEntity
  8
JISSEN
100
AcDbLine
 10
5478.493103667046
 20
8963.61297520446
 30
0.0
 11
5478.493103667046
 21
8956.371007842517
 31
0.0
  0
ARC
  5
1E4BAFBC2E
330
1E4BABA593
100
AcDbEntity
  8
JISSEN
100
AcDbCircle
 10
5493.193103667045
 20
8948.154942566398
 30
0.0
 40
16.21606527611809
100
AcDbArc
 50
94.35648211768952
 51
107.5879537739479
  0
LINE
  5
1E4BAFBC2F
330
1E4BABA593
100
AcDbEntity
  8
JISSEN
100
AcDbLine
 10
5491.880152624133
 20
8964.371007842517
 30
0.0
 11
5474.906054709958
 21
8964.371007842517
 31
0.0
  0
ARC
  5
1E4BAFBC30
330
1E4BABA593
100
AcDbEntity
  8
JISSEN
100
AcDbCircle
 10
5473.593103667044
 20
8948.1549425664
 30
0.0
 40
16.21606527611809
100
AcDbArc
 50
72.41204622605208
 51
85.64351788231048
  0
ARC
  5
1E4BAFBC31
330
1E4BABA593
100
AcDbEntity
  8
JISSEN
100
AcDbCircle
 10
5483.393103667046
 20
8948.1549425664
 30
0.0
 40
16.21606527611809
100
AcDbArc
 50
72.41204622605208
 51
107.5879537739479
  0
LINE
  5
1E4BAFBC32
330
1E4BABA593
100
AcDbEntity
  8
JISSEN
100
AcDbLine
 10
5491.880152624133
 20
8964.371007842517
 30
0.0
 11
5493.193103667045
 21
8963.612975204458
 31
0.0
  0
LINE
  5
1E4BAFBC33
330
1E4BABA593
100
AcDbEntity
  8
JISSEN
100
AcDbLine
 10
5447.03296004767
 20
9012.39151091903
 30
0.0
 11
5438.03296004767
 21
9012.39151091903
 31
0.0
  0
LINE
  5
1E4BAFBC34
330
1E4BABA593
100
AcDbEntity
  8
JISSEN
100
AcDbLine
 10
5442.532960047671
 20
8978.237033246309
 30
0.0
 11
5428.532960047671
 21
8978.237033246309
 31
0.0
  0
LINE
  5
1E4BAFBC35
330
1E4BABA593
100
AcDbEntity
  8
JISSEN
100
AcDbLine
 10
5437.53296004767
 20
9011.89151091903
 30
0.0
 11
5437.53296004767
 21
9000.39151091903
 31
0.0
  0
LINE
  5
1E4BAFBC36
330
1E4BABA593
100
AcDbEntity
  8
JISSEN
100
AcDbLine
 10
5437.032960047671
 20
8999.525485515249
 30
0.0
 11
5437.032960047671
 21
8978.237033246309
 31
0.0
  0
ARC
  5
1E4BAFBC37
330
1E4BABA593
100
AcDbEntity
  8
JISSEN
100
AcDbCircle
 10
5428.532960047671
 20
8977.237033246309
 30
0.0
 40
1.0
100
AcDbArc
 50
90.0
 51
180.0
  0
LINE
  5
1E4BAFBC38
330
1E4BABA593
100
AcDbEntity
  8
JISSEN
100
AcDbLine
 10
5437.53296004767
 20
9000.39151091903
 30
0.0
 11
5437.032960047668
 21
8999.525485515243
 31
0.0
  0
LINE
  5
1E4BAFBC39
330
1E4BABA593
100
AcDbEntity
  8
JISSEN
100
AcDbLine
 10
5437.53296004767
 20
9011.89151091903
 30
0.0
 11
5438.03296004767
 21
9012.39151091903
 31
0.0
  0
LINE
  5
1E4BAFBC3A
330
1E4BABA593
100
AcDbEntity
  8
JISSEN
100
AcDbLine
 10
5445.53296004767
 20
9011.89151091903
 30
0.0
 11
5445.53296004767
 21
9000.39151091903
 31
0.0
  0
LINE
  5
1E4BAFBC3B
330
1E4BABA593
100
AcDbEntity
  8
JISSEN
100
AcDbLine
 10
5447.53296004767
 20
9011.89151091903
 30
0.0
 11
5447.53296004767
 21
9000.39151091903
 31
0.0
  0
LINE
  5
1E4BAFBC3C
330
1E4BABA593
100
AcDbEntity
  8
JISSEN
100
AcDbLine
 10
5439.53296004767
 20
9011.89151091903
 30
0.0
 11
5439.53296004767
 21
9000.39151091903
 31
0.0
  0
LINE
  5
1E4BAFBC3D
330
1E4BABA593
100
AcDbEntity
  8
HATCH
100
AcDbLine
 10
5445.53296004767
 20
9011.891510919026
 30
0.0
 11
5439.53296004767
 21
9000.39151091903
 31
0.0
  0
LINE
  5
1E4BAFBC3E
330
1E4BABA593
100
AcDbEntity
  8
HATCH
100
AcDbLine
 10
5439.53296004767
 20
9011.89151091903
 30
0.0
 11
5445.53296004767
 21
9000.391510919026
 31
0.0
  0
LINE
  5
1E4BAFBC3F
330
1E4BABA593
100
AcDbEntity
  8
JISSEN
100
AcDbLine
 10
5448.032960047673
 20
8999.525485515245
 30
0.0
 11
5448.032960047673
 21
8978.237033246309
 31
0.0
  0
LINE
  5
1E4BAFBC40
330
1E4BABA593
100
AcDbEntity
  8
JISSEN
100
AcDbLine
 10
5442.532960047671
 20
8978.237033246309
 30
0.0
 11
5456.532960047671
 21
8978.237033246309
 31
0.0
  0
LINE
  5
1E4BAFBC41
330
1E4BABA593
100
AcDbEntity
  8
JISSEN
100
AcDbLine
 10
5442.532960047673
 20
8978.471006224388
 30
0.0
 11
5442.532960047673
 21
8978.471006224388
 31
0.0
  0
LINE
  5
1E4BAFBC42
330
1E4BABA593
100
AcDbEntity
  8
JISSEN
100
AcDbLine
 10
5442.532960047673
 20
8978.471006224388
 30
0.0
 11
5442.532960047673
 21
8978.471006224388
 31
0.0
  0
ARC
  5
1E4BAFBC43
330
1E4BABA593
100
AcDbEntity
  8
JISSEN
100
AcDbCircle
 10
5456.532960047671
 20
8977.237033246309
 30
0.0
 40
1.0
100
AcDbArc
 50
0.0
 51
90.0
  0
LINE
  5
1E4BAFBC44
330
1E4BABA593
100
AcDbEntity
  8
JISSEN
100
AcDbLine
 10
5447.53296004767
 20
9000.39151091903
 30
0.0
 11
5448.032960047672
 21
8999.525485515243
 31
0.0
  0
LINE
  5
1E4BAFBC45
330
1E4BABA593
100
AcDbEntity
  8
JISSEN
100
AcDbLine
 10
5447.53296004767
 20
9011.89151091903
 30
0.0
 11
5447.03296004767
 21
9012.39151091903
 31
0.0
  0
LINE
  5
1E4BAFBC46
330
1E4BABA593
100
AcDbEntity
  8
JISSEN
100
AcDbLine
 10
5444.594512860477
 20
9012.39151091903
 30
0.0
 11
5445.53296004767
 21
9011.89151091903
 31
0.0
  0
LINE
  5
1E4BAFBC47
330
1E4BABA593
100
AcDbEntity
  8
JISSEN
100
AcDbLine
 10
5440.471407234861
 20
9012.39151091903
 30
0.0
 11
5439.53296004767
 21
9011.89151091903
 31
0.0
  0
LINE
  5
1E4BAFBC48
330
1E4BABA593
100
AcDbEntity
  8
JISSEN
100
AcDbLine
 10
5517.032960047671
 20
8941.103058650086
 30
0.0
 11
5517.032960047671
 21
8923.638957034946
 31
0.0
  0
LINE
  5
1E4BAFBC49
330
1E4BABA593
100
AcDbEntity
  8
JISSEN
100
AcDbLine
 10
5514.032960047671
 20
8941.371007842516
 30
0.0
 11
5514.032960047671
 21
8925.371007842514
 31
0.0
  0
ARC
  5
1E4BAFBC4A
330
1E4BABA593
100
AcDbEntity
  8
JISSEN
100
AcDbCircle
 10
5512.032960049639
 20
8925.371007842514
 30
0.0
 40
2.0
100
AcDbArc
 50
270.0
 51
0.000000008024972
  0
ARC
  5
1E4BAFBC4B
330
1E4BABA593
100
AcDbEntity
  8
JISSEN
100
AcDbCircle
 10
5512.032960047671
 20
8925.371007842514
 30
0.0
 40
2.0
100
AcDbArc
 50
270.0
 51
0.0
  0
ARC
  5
1E4BAFBC4C
330
1E4BABA593
100
AcDbEntity
  8
JISSEN
100
AcDbCircle
 10
5516.032960047671
 20
8925.371007842514
 30
0.0
 40
2.0
100
AcDbArc
 50
270.0
 51
300.0000000000103
  0
LINE
  5
1E4BAFBC4D
330
1E4BABA593
100
AcDbEntity
  8
JISSEN
100
AcDbLine
 10
5514.032960047671
 20
8936.864577275926
 30
0.0
 11
5514.032960047671
 21
8936.864577275926
 31
0.0
  0
LINE
  5
1E4BAFBC4E
330
1E4BABA593
100
AcDbEntity
  8
JISSEN
100
AcDbLine
 10
5514.032960047671
 20
8936.864577275926
 30
0.0
 11
5514.032960047671
 21
8936.864577275926
 31
0.0
  0
LINE
  5
1E4BAFBC4F
330
1E4BABA593
100
AcDbEntity
  8
JISSEN
100
AcDbLine
 10
5514.032960047671
 20
8936.864577275926
 30
0.0
 11
5514.032960047671
 21
8936.864577275926
 31
0.0
  0
LINE
  5
1E4BAFBC50
330
1E4BABA593
100
AcDbEntity
  8
JISSEN
100
AcDbLine
 10
5514.032960047671
 20
8936.871007842514
 30
0.0
 11
5514.032960047671
 21
8936.864577275926
 31
0.0
  0
ARC
  5
1E4BAFBC51
330
1E4BABA593
100
AcDbEntity
  8
JISSEN
100
AcDbCircle
 10
5516.032960047671
 20
8939.371007842516
 30
0.0
 40
2.0
100
AcDbArc
 50
59.9999999999897
 51
90.0
  0
LINE
  5
1E4BAFBC52
330
1E4BABA593
100
AcDbEntity
  8
JISSEN
100
AcDbLine
 10
5514.032960047665
 20
8956.371007842517
 30
0.0
 11
5514.032960047665
 21
8941.371007842516
 31
0.0
  0
ARC
  5
1E4BAFBC53
330
1E4BABA593
100
AcDbEntity
  8
JISSEN
100
AcDbCircle
 10
5511.032960047665
 20
8953.371007842517
 30
0.0
 40
3.0
100
AcDbArc
 50
0.0
 51
90.0
  0
ARC
  5
1E4BAFC854
330
1E4BABA593
100
AcDbEntity
  8
JISSEN
100
AcDbCircle
 10
5171.381202194388
 20
8897.89151091903
 30
0.0
 40
6.0
100
AcDbArc
 50
0.0
 51
180.0
  0
ARC
  5
1E4BAFC855
330
1E4BABA593
100
AcDbEntity
  8
JISSEN
100
AcDbCircle
 10
5171.381202194388
 20
8891.89151091903
 30
0.0
 40
6.0
100
AcDbArc
 50
180.0
 51
0.0
  0
ARC
  5
1E4BAFC856
330
1E4BABA593
100
AcDbEntity
  8
JISSEN
100
AcDbCircle
 10
5157.881202194388
 20
8891.89151091903
 30
0.0
 40
6.0
100
AcDbArc
 50
194.9999999999945
 51
118.0724869358284
  0
ARC
  5
1E4BAFC857
330
1E4BABA593
100
AcDbEntity
  8
JISSEN
100
AcDbCircle
 10
5162.881202194388
 20
8902.891510919031
 30
0.0
 40
1.0
100
AcDbArc
 50
270.0
 51
90.0
  0
ARC
  5
1E4BAFC858
330
1E4BABA593
100
AcDbEntity
  8
JISSEN
100
AcDbCircle
 10
5152.881202194388
 20
8902.891510919031
 30
0.0
 40
1.0
100
AcDbArc
 50
90.0
 51
180.0
  0
LINE
  5
1E4BAFC859
330
1E4BABA593
100
AcDbEntity
  8
JISSEN
100
AcDbLine
 10
5162.881202194388
 20
8901.891510919031
 30
0.0
 11
5153.881202194388
 21
8901.891510919031
 31
0.0
  0
ARC
  5
1E4BAFC85A
330
1E4BABA593
100
AcDbEntity
  8
JISSEN
100
AcDbCircle
 10
5157.881202194388
 20
8891.89151091903
 30
0.0
 40
4.0
100
AcDbArc
 50
194.9999999999945
 51
118.0724869358284
  0
LINE
  5
1E4BAFC85B
330
1E4BABA593
100
AcDbEntity
  8
JISSEN
100
AcDbLine
 10
5153.881202194388
 20
8896.558177585695
 30
0.0
 11
5155.057672782622
 21
8897.185628566089
 31
0.0
  0
LINE
  5
1E4BAFC85C
330
1E4BABA593
100
AcDbEntity
  8
JISSEN
100
AcDbLine
 10
5153.881202194388
 20
8901.891510919031
 30
0.0
 11
5153.881202194388
 21
8896.558177585695
 31
0.0
  0
LINE
  5
1E4BAFC85D
330
1E4BABA593
100
AcDbEntity
  8
JISSEN
100
AcDbLine
 10
5151.881202194388
 20
8902.891510919031
 30
0.0
 11
5151.881202194388
 21
8894.89151091903
 31
0.0
  0
ARC
  5
1E4BAFC85E
330
1E4BABA593
100
AcDbEntity
  8
JISSEN
100
AcDbCircle
 10
5153.051573062944
 20
8890.597415693517
 30
0.0
 40
1.000000000000441
100
AcDbArc
 50
14.99999999999445
 51
194.9999999999945
  0
ARC
  5
1E4BAFC85F
330
1E4BABA593
100
AcDbEntity
  8
JISSEN
100
AcDbCircle
 10
5152.881202194388
 20
8894.89151091903
 30
0.0
 40
1.0
100
AcDbArc
 50
180.0
 51
298.0724869358284
  0
LINE
  5
1E4BAFC860
330
1E4BABA593
100
AcDbEntity
  8
JISSEN
100
AcDbLine
 10
5153.351790429681
 20
8894.009157977853
 30
0.0
 11
5155.998849253209
 21
8895.420922683736
 31
0.0
  0
ARC
  5
1E4BAFC861
330
1E4BABA593
100
AcDbEntity
  8
JISSEN
100
AcDbCircle
 10
5171.381202194388
 20
8897.89151091903
 30
0.0
 40
4.0
100
AcDbArc
 50
0.0
 51
180.0
  0
ARC
  5
1E4BAFC862
330
1E4BABA593
100
AcDbEntity
  8
JISSEN
100
AcDbCircle
 10
5171.381202194388
 20
8891.89151091903
 30
0.0
 40
4.0
100
AcDbArc
 50
180.0
 51
0.0
  0
LINE
  5
1E4BAFC863
330
1E4BABA593
100
AcDbEntity
  8
JISSEN
100
AcDbLine
 10
5175.381202194388
 20
8897.89151091903
 30
0.0
 11
5175.381202194388
 21
8891.89151091903
 31
0.0
  0
LINE
  5
1E4BAFC864
330
1E4BABA593
100
AcDbEntity
  8
JISSEN
100
AcDbLine
 10
5165.381202194388
 20
8897.89151091903
 30
0.0
 11
5165.381202194388
 21
8891.89151091903
 31
0.0
  0
LINE
  5
1E4BAFC865
330
1E4BABA593
100
AcDbEntity
  8
JISSEN
100
AcDbLine
 10
5167.381202194388
 20
8897.89151091903
 30
0.0
 11
5167.381202194388
 21
8891.89151091903
 31
0.0
  0
LINE
  5
1E4BAFC866
330
1E4BABA593
100
AcDbEntity
  8
JISSEN
100
AcDbLine
 10
5152.881202194388
 20
8903.89151091903
 30
0.0
 11
5162.881202194388
 21
8903.89151091903
 31
0.0
  0
LINE
  5
1E4BAFC867
330
1E4BABA593
100
AcDbEntity
  8
JISSEN
100
AcDbLine
 10
5177.381202194388
 20
8897.89151091903
 30
0.0
 11
5177.381202194388
 21
8891.89151091903
 31
0.0
  0
ARC
  5
1E4BAFC869
330
1E4BABA593
100
AcDbEntity
  8
JISSEN
100
AcDbCircle
 10
5142.935301573259
 20
9181.81222333258
 30
0.0
 40
71.5
100
AcDbArc
 50
15.41058754405998
 51
270.0
  0
LINE
  5
1E4BAFC86A
330
1E4BABA593
100
AcDbEntity
  8
JISSEN
100
AcDbLine
 10
5237.435301573249
 20
9257.312223332587
 30
0.0
 11
5237.435301573249
 21
9106.305785166474
 31
0.0
  0
LINE
  5
1E4BAFC86B
330
1E4BABA593
100
AcDbEntity
  8
ITTEN
 48
3.0
100
AcDbLine
 10
5142.935301573259
 20
9101.938482139429
 30
0.0
 11
5142.935301573259
 21
9260.938482139429
 31
0.0
  0
LINE
  5
1E4BAFC86C
330
1E4BABA593
100
AcDbEntity
  8
JISSEN
100
AcDbLine
 10
5048.435301573249
 20
9106.305785166496
 30
0.0
 11
5048.435301573249
 21
9257.318661498677
 31
0.0
  0
LINE
  5
1E4BAFC86D
330
1E4BABA593
100
AcDbEntity
  8
JISSEN
100
AcDbLine
 10
5235.435301573249
 20
9259.312223332587
 30
0.0
 11
5235.435301573248
 21
9181.812223332587
 31
0.0
  0
LINE
  5
1E4BAFC86E
330
1E4BABA593
100
AcDbEntity
  8
JISSEN
100
AcDbLine
 10
5216.435301573249
 20
9257.312223332587
 30
0.0
 11
5216.433299006634
 21
9198.823970139349
 31
0.0
  0
LINE
  5
1E4BAFC86F
330
1E4BABA593
100
AcDbEntity
  8
JISSEN
100
AcDbLine
 10
5069.435301573249
 20
9257.369685636488
 30
0.0
 11
5069.435301573249
 21
9198.16087745418
 31
0.0
  0
LINE
  5
1E4BAFC870
330
1E4BABA593
100
AcDbEntity
  8
JISSEN
100
AcDbLine
 10
5050.428863407159
 20
9259.312223332587
 30
0.0
 11
5050.428863407159
 21
9181.812223332588
 31
0.0
  0
CIRCLE
  5
1E4BAFC871
330
1E4BABA593
100
AcDbEntity
  8
JISSEN
100
AcDbCircle
 10
5183.947494882079
 20
9140.800030023758
 30
0.0
 40
9.0
  0
LWPOLYLINE
  5
1E4BAFC872
330
1E4BABA593
100
AcDbEntity
  8
JISSEN
100
AcDbPolyline
 90
        6
 70
     1
 43
0.0
 10
5173.555190036664
 20
9140.800030023758
 10
5178.751342459372
 20
9131.800030023758
 10
5189.143647304785
 20
9131.800030023758
 10
5194.339799727491
 20
9140.800030023758
 10
5189.143647304785
 20
9149.800030023758
 10
5178.751342459371
 20
9149.800030023758
  0
ARC
  5
1E4BAFC873
330
1E4BABA593
100
AcDbEntity
  8
JISSEN
100
AcDbCircle
 10
5142.935301573259
 20
9181.81222333258
 30
0.0
 40
71.5
100
AcDbArc
 50
270.0
 51
344.58941245594
  0
LINE
  5
1E4BAFC874
330
1E4BABA593
100
AcDbEntity
  8
JISSEN
100
AcDbLine
 10
5150.418616346808
 20
9168.81222333258
 30
0.0
 11
5183.435301573259
 21
9168.81222333258
 31
0.0
  0
LINE
  5
1E4BAFC875
330
1E4BABA593
100
AcDbEntity
  8
JISSEN
100
AcDbLine
 10
5150.418616346808
 20
9194.81222333258
 30
0.0
 11
5183.435301573259
 21
9194.81222333258
 31
0.0
  0
LINE
  5
1E4BAFC876
330
1E4BABA593
100
AcDbEntity
  8
ITTEN
 48
3.0
100
AcDbLine
 10
5040.435301573249
 20
9181.81222333258
 30
0.0
 11
5245.435301573249
 21
9181.81222333258
 31
0.0
  0
LWPOLYLINE
  5
1E4BAFC877
330
1E4BABA593
100
AcDbEntity
  8
JISSEN
100
AcDbPolyline
 90
        6
 70
     1
 43
0.0
 10
5101.923108264439
 20
9151.192334869173
 10
5092.923108264439
 20
9145.996182446466
 10
5092.923108264439
 20
9135.603877601052
 10
5101.923108264439
 20
9130.407725178346
 10
5110.923108264439
 20
9135.603877601052
 10
5110.923108264439
 20
9145.996182446466
  0
CIRCLE
  5
1E4BAFC878
330
1E4BABA593
100
AcDbEntity
  8
JISSEN
100
AcDbCircle
 10
5101.923108264439
 20
9140.800030023758
 30
0.0
 40
9.0
  0
LINE
  5
1E4BAFC879
330
1E4BABA593
100
AcDbEntity
  8
JISSEN
100
AcDbLine
 10
5050.428863407158
 20
9104.312223332587
 30
0.0
 11
5050.42886340716
 21
9181.812223332588
 31
0.0
  0
LINE
  5
1E4BAFC87A
330
1E4BABA593
100
AcDbEntity
  8
JISSEN
100
AcDbLine
 10
5069.435301573249
 20
9106.312223332587
 30
0.0
 11
5069.435301573249
 21
9165.52389985325
 31
0.0
  0
LINE
  5
1E4BAFC87B
330
1E4BABA593
100
AcDbEntity
  8
ITTEN
 48
3.0
100
AcDbLine
 10
5043.435301573248
 20
9121.812223332581
 30
0.0
 11
5074.435301573249
 21
9121.81222333258
 31
0.0
  0
LINE
  5
1E4BAFC87C
330
1E4BABA593
100
AcDbEntity
  8
JISSEN
100
AcDbLine
 10
5067.435301573249
 20
9104.312223332587
 30
0.0
 11
5050.428863407159
 21
9104.312223332587
 31
0.0
  0
LINE
  5
1E4BAFC87D
330
1E4BABA593
100
AcDbEntity
  8
JISSEN
100
AcDbLine
 10
5050.428863407158
 20
9104.312223332587
 30
0.0
 11
5048.435301573249
 21
9106.305785166496
 31
0.0
  0
ARC
  5
1E4BAFC87E
330
1E4BABA593
100
AcDbEntity
  8
JISSEN
100
AcDbCircle
 10
5067.435301573249
 20
9106.312223332587
 30
0.0
 40
2.0
100
AcDbArc
 50
270.0
 51
0.0
  0
LINE
  5
1E4BAFC87F
330
1E4BABA593
100
AcDbEntity
  8
JISSEN
100
AcDbLine
 10
5132.935301573259
 20
9107.31222333258
 30
0.0
 11
5152.935301573259
 21
9107.31222333258
 31
0.0
  0
ARC
  5
1E4BAFC880
330
1E4BABA593
100
AcDbEntity
  8
JISSEN
100
AcDbCircle
 10
5130.935301573259
 20
9109.298431540949
 30
0.0
 40
2.0
100
AcDbArc
 50
0.0
 51
80.60352262316657
  0
LINE
  5
1E4BAFC881
330
1E4BABA593
100
AcDbEntity
  8
JISSEN
100
AcDbLine
 10
5132.935301573259
 20
9107.31222333258
 30
0.0
 11
5132.935301573259
 21
9109.298431540949
 31
0.0
  0
ARC
  5
1E4BAFC882
330
1E4BABA593
100
AcDbEntity
  8
JISSEN
100
AcDbCircle
 10
5154.935301573259
 20
9109.298431540949
 30
0.0
 40
2.0
100
AcDbArc
 50
99.39647737683343
 51
180.0
  0
LINE
  5
1E4BAFC883
330
1E4BABA593
100
AcDbEntity
  8
JISSEN
100
AcDbLine
 10
5152.935301573259
 20
9107.31222333258
 30
0.0
 11
5152.935301573259
 21
9109.298431540949
 31
0.0
  0
ARC
  5
1E4BAFC884
330
1E4BABA593
100
AcDbEntity
  8
JISSEN
100
AcDbCircle
 10
5072.435301573258
 20
9145.812223332612
 30
0.0
 40
3.0
100
AcDbArc
 50
90.0
 51
180.0
  0
ARC
  5
1E4BAFC885
330
1E4BABA593
100
AcDbEntity
  8
JISSEN
100
AcDbCircle
 10
5071.318656494395
 20
9164.751347083176
 30
0.0
 40
2.035648187078138
100
AcDbArc
 50
14.48008504105777
 51
157.6965463072947
  0
LINE
  5
1E4BAFC886
330
1E4BABA593
100
AcDbEntity
  8
JISSEN
100
AcDbLine
 10
5072.435301573259
 20
9148.81222333261
 30
0.0
 11
5073.653269270504
 21
9148.81222333261
 31
0.0
  0
ARC
  5
1E4BAFC887
330
1E4BABA593
100
AcDbEntity
  8
JISSEN
100
AcDbCircle
 10
5073.653269270498
 20
9143.812223332607
 30
0.0
 40
5.0
100
AcDbArc
 50
51.78678929823742
 51
89.99999999994789
  0
ARC
  5
1E4BAFC888
330
1E4BABA593
100
AcDbEntity
  8
JISSEN
100
AcDbCircle
 10
5142.935301573291
 20
9231.812223332587
 30
0.0
 40
107.0
100
AcDbArc
 50
231.7867892982374
 51
235.6762350471425
  0
ARC
  5
1E4BAFC889
330
1E4BABA593
100
AcDbEntity
  8
JISSEN
100
AcDbCircle
 10
5071.417437712529
 20
9198.960958451087
 30
0.0
 40
2.137520356921055
100
AcDbArc
 50
201.9812611974805
 51
342.625792333782
  0
CIRCLE
  5
1E4BAFC88A
330
1E4BABA593
100
AcDbEntity
  8
JISSEN
100
AcDbCircle
 10
5142.935301573259
 20
9181.812223332578
 30
0.0
 40
15.0
  0
LINE
  5
1E4BAFC88B
330
1E4BABA593
100
AcDbEntity
  8
JISSEN
100
AcDbLine
 10
5139.935301573259
 20
9177.81222333258
 30
0.0
 11
5145.935301573259
 21
9177.81222333258
 31
0.0
  0
LINE
  5
1E4BAFC88C
330
1E4BABA593
100
AcDbEntity
  8
JISSEN
100
AcDbLine
 10
5139.935301573259
 20
9185.81222333258
 30
0.0
 11
5145.935301573259
 21
9185.81222333258
 31
0.0
  0
CIRCLE
  5
1E4BAFC88D
330
1E4BABA593
100
AcDbEntity
  8
JISSEN
100
AcDbCircle
 10
5142.935301573259
 20
9181.81222333258
 30
0.0
 40
5.0
  0
ARC
  5
1E4BAFC88E
330
1E4BABA593
100
AcDbEntity
  8
JISSEN
100
AcDbCircle
 10
5142.935301573259
 20
9181.81222333258
 30
0.0
 40
4.5
100
AcDbArc
 50
117.2660444507317
 51
242.7339555492684
  0
ARC
  5
1E4BAFC88F
330
1E4BABA593
100
AcDbEntity
  8
JISSEN
100
AcDbCircle
 10
5142.935301573259
 20
9181.81222333258
 30
0.0
 40
4.5
100
AcDbArc
 50
297.2660444507316
 51
62.73395554926836
  0
LINE
  5
1E4BAFC890
330
1E4BABA593
100
AcDbEntity
  8
JISSEN
100
AcDbLine
 10
5235.435301573248
 20
9104.305785166474
 30
0.0
 11
5235.435301573248
 21
9181.812223332587
 31
0.0
  0
LINE
  5
1E4BAFC891
330
1E4BABA593
100
AcDbEntity
  8
JISSEN
100
AcDbLine
 10
5216.435301573249
 20
9106.254761028684
 30
0.0
 11
5216.435301573249
 21
9164.782836966644
 31
0.0
  0
LINE
  5
1E4BAFC895
330
1E4BABA593
100
AcDbEntity
  8
ITTEN
 48
3.0
100
AcDbLine
 10
5211.435301573249
 20
9121.812223332585
 30
0.0
 11
5242.435301573249
 21
9121.812223332585
 31
0.0
  0
LINE
  5
1E4BAFC896
330
1E4BABA593
100
AcDbEntity
  8
JISSEN
100
AcDbLine
 10
5213.935301573259
 20
9169.372835122318
 30
0.0
 11
5213.935301573259
 21
9182.18596452574
 31
0.0
  0
LINE
  5
1E4BAFC897
330
1E4BABA593
100
AcDbEntity
  8
JISSEN
100
AcDbLine
 10
5213.935301573259
 20
9164.31222333258
 30
0.0
 11
5213.935301573259
 21
9181.81222333258
 31
0.0
  0
LINE
  5
1E4BAFC898
330
1E4BABA593
100
AcDbEntity
  8
JISSEN
100
AcDbLine
 10
5184.935301573259
 20
9168.81222333258
 30
0.0
 11
5184.935301573259
 21
9181.81222333258
 31
0.0
  0
ARC
  5
1E4BAFC899
330
1E4BABA593
100
AcDbEntity
  8
JISSEN
100
AcDbCircle
 10
5212.217333876007
 20
9143.81222333258
 30
0.0
 40
5.0
100
AcDbArc
 50
90.00000000005213
 51
128.2132107017626
  0
LINE
  5
1E4BAFC89A
330
1E4BABA593
100
AcDbEntity
  8
JISSEN
100
AcDbLine
 10
5186.435301573259
 20
9162.81222333258
 30
0.0
 11
5212.435301573259
 21
9162.81222333258
 31
0.0
  0
ARC
  5
1E4BAFC89B
330
1E4BABA593
100
AcDbEntity
  8
JISSEN
100
AcDbCircle
 10
5142.935301573249
 20
9231.812223332587
 30
0.0
 40
107.0
100
AcDbArc
 50
304.3237649528575
 51
308.2132107017625
  0
LINE
  5
1E4BAFC89C
330
1E4BABA593
100
AcDbEntity
  8
JISSEN
100
AcDbLine
 10
5184.935301573259
 20
9167.81222333258
 30
0.0
 11
5184.935301573259
 21
9167.81222333258
 31
0.0
  0
LINE
  5
1E4BAFC89D
330
1E4BABA593
100
AcDbEntity
  8
JISSEN
100
AcDbLine
 10
5184.935301573259
 20
9168.81222333258
 30
0.0
 11
5184.935301573259
 21
9168.81222333258
 31
0.0
  0
ARC
  5
1E4BAFC89E
330
1E4BABA593
100
AcDbEntity
  8
JISSEN
100
AcDbCircle
 10
5186.435301573259
 20
9164.31222333258
 30
0.0
 40
1.5
100
AcDbArc
 50
180.0
 51
270.0
  0
LINE
  5
1E4BAFC89F
330
1E4BABA593
100
AcDbEntity
  8
JISSEN
100
AcDbLine
 10
5184.935301573259
 20
9164.31222333258
 30
0.0
 11
5184.935301573259
 21
9167.31222333258
 31
0.0
  0
LINE
  5
1E4BAFC8A0
330
1E4BABA593
100
AcDbEntity
  8
JISSEN
100
AcDbLine
 10
5184.935301573259
 20
9167.31222333258
 30
0.0
 11
5184.935301573259
 21
9167.31222333258
 31
0.0
  0
LINE
  5
1E4BAFC8A1
330
1E4BABA593
100
AcDbEntity
  8
JISSEN
100
AcDbLine
 10
5184.935301573259
 20
9167.31222333258
 30
0.0
 11
5184.935301573259
 21
9168.813820823352
 31
0.0
  0
ARC
  5
1E4BAFC8A2
330
1E4BABA593
100
AcDbEntity
  8
JISSEN
100
AcDbCircle
 10
5183.435301573259
 20
9167.31222333258
 30
0.0
 40
1.5
100
AcDbArc
 50
0.0
 51
90.0
  0
LINE
  5
1E4BAFC8A3
330
1E4BABA593
100
AcDbEntity
  8
JISSEN
100
AcDbLine
 10
5213.435301573248
 20
9148.812223332583
 30
0.0
 11
5212.217333876003
 21
9148.812223332583
 31
0.0
  0
ARC
  5
1E4BAFC8A4
330
1E4BABA593
100
AcDbEntity
  8
JISSEN
100
AcDbCircle
 10
5213.435301573248
 20
9145.812223332583
 30
0.0
 40
3.0
100
AcDbArc
 50
0.0
 51
90.0
  0
ARC
  5
1E4BAFC8A5
330
1E4BABA593
100
AcDbEntity
  8
JISSEN
100
AcDbCircle
 10
5212.435301573259
 20
9164.31222333258
 30
0.0
 40
1.5
100
AcDbArc
 50
270.0
 51
0.0
  0
ARC
  5
1E4BAFC8A6
330
1E4BABA593
100
AcDbEntity
  8
JISSEN
100
AcDbCircle
 10
5214.218269432903
 20
9164.540077362806
 30
0.0
 40
2.230283331010727
100
AcDbArc
 50
6.248853261319631
 51
97.28906473071606
  0
LINE
  5
1E4BAFC8A7
330
1E4BABA593
100
AcDbEntity
  8
JISSEN
100
AcDbLine
 10
5186.435301573259
 20
9200.81222333258
 30
0.0
 11
5212.435301573259
 21
9200.81222333258
 31
0.0
  0
LINE
  5
1E4BAFC8A8
330
1E4BABA593
100
AcDbEntity
  8
JISSEN
100
AcDbLine
 10
5184.935301573259
 20
9194.81222333258
 30
0.0
 11
5184.935301573259
 21
9181.81222333258
 31
0.0
  0
LINE
  5
1E4BAFC8A9
330
1E4BABA593
100
AcDbEntity
  8
JISSEN
100
AcDbLine
 10
5184.935301573259
 20
9196.31222333258
 30
0.0
 11
5184.935301573259
 21
9194.810625841807
 31
0.0
  0
LINE
  5
1E4BAFC8AA
330
1E4BABA593
100
AcDbEntity
  8
JISSEN
100
AcDbLine
 10
5184.935301573259
 20
9194.81222333258
 30
0.0
 11
5184.935301573259
 21
9194.81222333258
 31
0.0
  0
LINE
  5
1E4BAFC8AB
330
1E4BABA593
100
AcDbEntity
  8
JISSEN
100
AcDbLine
 10
5184.935301573259
 20
9196.31222333258
 30
0.0
 11
5184.935301573259
 21
9196.31222333258
 31
0.0
  0
LINE
  5
1E4BAFC8AC
330
1E4BABA593
100
AcDbEntity
  8
JISSEN
100
AcDbLine
 10
5184.935301573259
 20
9199.31222333258
 30
0.0
 11
5184.935301573259
 21
9196.31222333258
 31
0.0
  0
LINE
  5
1E4BAFC8AD
330
1E4BABA593
100
AcDbEntity
  8
JISSEN
100
AcDbLine
 10
5184.935301573259
 20
9195.81222333258
 30
0.0
 11
5184.935301573259
 21
9195.81222333258
 31
0.0
  0
ARC
  5
1E4BAFC8AE
330
1E4BABA593
100
AcDbEntity
  8
JISSEN
100
AcDbCircle
 10
5186.435301573259
 20
9199.31222333258
 30
0.0
 40
1.5
100
AcDbArc
 50
90.0
 51
180.0
  0
ARC
  5
1E4BAFC8AF
330
1E4BABA593
100
AcDbEntity
  8
JISSEN
100
AcDbCircle
 10
5183.435301573259
 20
9196.31222333258
 30
0.0
 40
1.5
100
AcDbArc
 50
270.0
 51
0.0
  0
LINE
  5
1E4BAFC8B0
330
1E4BABA593
100
AcDbEntity
  8
JISSEN
100
AcDbLine
 10
5213.935301573259
 20
9194.625352736
 30
0.0
 11
5213.935301573259
 21
9181.81222333258
 31
0.0
  0
LINE
  5
1E4BAFC8B1
330
1E4BABA593
100
AcDbEntity
  8
JISSEN
100
AcDbLine
 10
5213.935301573259
 20
9199.31222333258
 30
0.0
 11
5213.935301573259
 21
9181.81222333258
 31
0.0
  0
ARC
  5
1E4BAFC8B2
330
1E4BABA593
100
AcDbEntity
  8
JISSEN
100
AcDbCircle
 10
5212.435301573259
 20
9199.31222333258
 30
0.0
 40
1.5
100
AcDbArc
 50
0.0
 51
90.0
  0
ARC
  5
1E4BAFC8B3
330
1E4BABA593
100
AcDbEntity
  8
JISSEN
100
AcDbCircle
 10
5214.218269432902
 20
9199.08436930234
 30
0.0
 40
2.230283331012519
100
AcDbArc
 50
262.7109352692839
 51
353.7511467386803
  0
LWPOLYLINE
  5
1E4BAFC8B4
330
1E4BABA593
100
AcDbEntity
  8
JISSEN
100
AcDbPolyline
 90
        6
 70
     1
 43
0.0
 10
5183.947494882079
 20
9212.432111795984
 10
5192.947494882079
 20
9217.62826421869
 10
5192.947494882079
 20
9228.020569064105
 10
5183.947494882079
 20
9233.216721486811
 10
5174.947494882079
 20
9228.020569064105
 10
5174.947494882079
 20
9217.62826421869
  0
CIRCLE
  5
1E4BAFC8B5
330
1E4BABA593
100
AcDbEntity
  8
JISSEN
100
AcDbCircle
 10
5183.947494882079
 20
9222.824416641399
 30
0.0
 40
9.0
  0
LWPOLYLINE
  5
1E4BAFC8B6
330
1E4BABA593
100
AcDbEntity
  8
JISSEN
100
AcDbPolyline
 90
        6
 70
     1
 43
0.0
 10
5112.315413109854
 20
9222.824416641399
 10
5107.119260687146
 20
9231.824416641399
 10
5096.726955841733
 20
9231.824416641399
 10
5091.530803419027
 20
9222.824416641399
 10
5096.726955841733
 20
9213.824416641399
 10
5107.119260687147
 20
9213.824416641399
  0
CIRCLE
  5
1E4BAFC8B7
330
1E4BABA593
100
AcDbEntity
  8
JISSEN
100
AcDbCircle
 10
5101.923108264439
 20
9222.824416641399
 30
0.0
 40
9.0
  0
ARC
  5
1E4BAFC8B8
330
1E4BABA593
100
AcDbEntity
  8
JISSEN
100
AcDbCircle
 10
5072.435301573286
 20
9217.812223332618
 30
0.0
 40
3.0
100
AcDbArc
 50
179.9999999998958
 51
270.0
  0
ARC
  5
1E4BAFC8B9
330
1E4BABA593
100
AcDbEntity
  8
JISSEN
100
AcDbCircle
 10
5142.935301573252
 20
9131.812223332587
 30
0.0
 40
107.0
100
AcDbArc
 50
124.3237649528575
 51
128.2132107017626
  0
LINE
  5
1E4BAFC8BA
330
1E4BABA593
100
AcDbEntity
  8
JISSEN
100
AcDbLine
 10
5072.435301573285
 20
9214.81222333262
 30
0.0
 11
5073.65326927053
 21
9214.81222333262
 31
0.0
  0
ARC
  5
1E4BAFC8BB
330
1E4BABA593
100
AcDbEntity
  8
JISSEN
100
AcDbCircle
 10
5073.653269270528
 20
9219.812223332621
 30
0.0
 40
5.0
100
AcDbArc
 50
270.0
 51
308.2132107017625
  0
LINE
  5
1E4BAFC8BC
330
1E4BABA593
100
AcDbEntity
  8
ITTEN
 48
3.0
100
AcDbLine
 10
5043.435301573248
 20
9241.812223332578
 30
0.0
 11
5074.435301573249
 21
9241.812223332578
 31
0.0
  0
LINE
  5
1E4BAFC8BD
330
1E4BABA593
100
AcDbEntity
  8
JISSEN
100
AcDbLine
 10
5067.435301573249
 20
9259.312223332587
 30
0.0
 11
5050.428863407159
 21
9259.312223332587
 31
0.0
  0
LINE
  5
1E4BAFC8BE
330
1E4BABA593
100
AcDbEntity
  8
JISSEN
100
AcDbLine
 10
5050.428863407159
 20
9259.312223332587
 30
0.0
 11
5048.435301573249
 21
9257.318661498677
 31
0.0
  0
ARC
  5
1E4BAFC8BF
330
1E4BABA593
100
AcDbEntity
  8
JISSEN
100
AcDbCircle
 10
5067.435301573249
 20
9257.312223332587
 30
0.0
 40
2.0
100
AcDbArc
 50
0.0
 51
90.0
  0
ARC
  5
1E4BAFC8C1
330
1E4BABA593
100
AcDbEntity
  8
JISSEN
100
AcDbCircle
 10
5212.217333876008
 20
9219.812223332594
 30
0.0
 40
5.0
100
AcDbArc
 50
231.7867892982374
 51
269.9999999999479
  0
ARC
  5
1E4BAFC8C2
330
1E4BABA593
100
AcDbEntity
  8
JISSEN
100
AcDbCircle
 10
5142.935301573248
 20
9131.812223332587
 30
0.0
 40
107.0
100
AcDbArc
 50
51.78678929823742
 51
55.67623504714251
  0
LINE
  5
1E4BAFC8C3
330
1E4BABA593
100
AcDbEntity
  8
JISSEN
100
AcDbLine
 10
5213.435301573249
 20
9214.81222333259
 30
0.0
 11
5212.217333876004
 21
9214.81222333259
 31
0.0
  0
ARC
  5
1E4BAFC8C4
330
1E4BABA593
100
AcDbEntity
  8
JISSEN
100
AcDbCircle
 10
5213.435301573249
 20
9217.81222333259
 30
0.0
 40
3.0
100
AcDbArc
 50
270.0
 51
0.0
  0
LINE
  5
1E4BAFC8C5
330
1E4BABA593
100
AcDbEntity
  8
ITTEN
 48
3.0
100
AcDbLine
 10
5242.435301573248
 20
9241.812223332578
 30
0.0
 11
5211.43477086918
 21
9241.812223332578
 31
0.0
  0
LINE
  5
1E4BAFC8CA
330
1E4BABA593
100
AcDbEntity
  8
SUNPOU
100
AcDbLine
 10
5048.435301573249
 20
8780.89151091903
 30
0.0
 11
5048.435301573249
 21
8739.483305143109
 31
0.0
  0
LINE
  5
1E4BAFC8CB
330
1E4BABA593
100
AcDbEntity
  8
SUNPOU
100
AcDbLine
 10
5237.435301573249
 20
8780.89151091903
 30
0.0
 11
5237.435301573249
 21
8739.483305143109
 31
0.0
  0
LINE
  5
1E4BAFC8CC
330
1E4BABA593
100
AcDbEntity
  8
SUNPOU
100
AcDbLine
 10
5052.935301573249
 20
8742.483305143109
 30
0.0
 11
5232.935301573249
 21
8742.483305143109
 31
0.0
  0
INSERT
  5
1E4BAFC8CD
330
1E4BABA593
100
AcDbEntity
  8
SUNPOU
100
AcDbBlockReference
  2
ARROW
 10
5048.435301573249
 20
8742.483305143109
 30
0.0
 41
4.5
 42
4.5
 43
4.5
 50
180.0
  0
INSERT
  5
1E4BAFC8CE
330
1E4BABA593
100
AcDbEntity
  8
SUNPOU
100
AcDbBlockReference
  2
ARROW
 10
5237.435301573249
 20
8742.483305143109
 30
0.0
 41
4.5
 42
4.5
 43
4.5
  0
MTEXT
  5
1E4BAFC8CF
330
1E4BABA593
100
AcDbEntity
  8
SUNPOU
100
AcDbMText
 10
5142.935301573249
 20
8749.983305143109
 30
0.0
 40
9.0
 41
0.0
 46
0.0
 71
     5
 72
     1
  1
190
  7
K
 73
     1
 44
1.0
  0
LINE
  5
1E4BAFC8D0
330
1E4BABA593
100
AcDbEntity
  8
SUNPOU
100
AcDbLine
 10
5410.533269518157
 20
8959.371007842525
 30
0.0
 11
5331.09052424502
 21
8959.371007842525
 31
0.0
  0
LINE
  5
1E4BAFC8D1
330
1E4BABA593
100
AcDbEntity
  8
SUNPOU
100
AcDbLine
 10
5352.032960047676
 20
8859.371007842514
 30
0.0
 11
5331.09052424502
 21
8859.371007842514
 31
0.0
  0
LINE
  5
1E4BAFC8D2
330
1E4BABA593
100
AcDbEntity
  8
SUNPOU
100
AcDbLine
 10
5334.09052424502
 20
8954.871007842525
 30
0.0
 11
5334.09052424502
 21
8863.871007842514
 31
0.0
  0
INSERT
  5
1E4BAFC8D3
330
1E4BABA593
100
AcDbEntity
  8
SUNPOU
100
AcDbBlockReference
  2
ARROW
 10
5334.09052424502
 20
8959.371007842525
 30
0.0
 41
4.5
 42
4.5
 43
4.5
 50
90.0
  0
INSERT
  5
1E4BAFC8D4
330
1E4BABA593
100
AcDbEntity
  8
SUNPOU
100
AcDbBlockReference
  2
ARROW
 10
5334.09052424502
 20
8859.371007842514
 30
0.0
 41
4.5
 42
4.5
 43
4.5
 50
270.0
  0
MTEXT
  5
1E4BAFC8D5
330
1E4BABA593
100
AcDbEntity
  8
SUNPOU
100
AcDbMText
 10
5326.590524245019
 20
8909.371007842521
 30
0.0
 40
9.0
 41
0.0
 46
0.0
 71
     5
 72
     1
  1
\A1;100
  7
K
 11
6.123031769111886E-17
 21
1.0
 31
0.0
 73
     1
 44
1.0
  0
LINE
  5
1E4BAFC8D6
330
1E4BABA593
100
AcDbEntity
  8
SUNPOU
100
AcDbLine
 10
5035.435301573249
 20
8859.39151091903
 30
0.0
 11
5005.631387104137
 21
8859.39151091903
 31
0.0
  0
LINE
  5
1E4BAFC8D7
330
1E4BABA593
100
AcDbEntity
  8
SUNPOU
100
AcDbLine
 10
5131.297970975173
 20
8779.391506597693
 30
0.0
 11
5005.631387104137
 21
8779.391506597693
 31
0.0
  0
LINE
  5
1E4BAFC8D8
330
1E4BABA593
100
AcDbEntity
  8
SUNPOU
100
AcDbLine
 10
5008.631387104137
 20
8854.89151091903
 30
0.0
 11
5008.631387104137
 21
8783.891506597693
 31
0.0
  0
INSERT
  5
1E4BAFC8D9
330
1E4BABA593
100
AcDbEntity
  8
SUNPOU
100
AcDbBlockReference
  2
ARROW
 10
5008.631387104137
 20
8859.39151091903
 30
0.0
 41
4.5
 42
4.5
 43
4.5
 50
90.0
  0
INSERT
  5
1E4BAFC8DA
330
1E4BABA593
100
AcDbEntity
  8
SUNPOU
100
AcDbBlockReference
  2
ARROW
 10
5008.631387104137
 20
8779.391506597693
 30
0.0
 41
4.5
 42
4.5
 43
4.5
 50
270.0
  0
MTEXT
  5
1E4BAFC8DB
330
1E4BABA593
100
AcDbEntity
  8
SUNPOU
100
AcDbMText
 10
5001.131387104136
 20
8819.391508758363
 30
0.0
 40
9.0
 41
0.0
 46
0.0
 71
     5
 72
     1
  1
\A1;80
  7
K
 11
6.123031769111886E-17
 21
1.0
 31
0.0
 73
     1
 44
1.0
  0
LINE
  5
1E4BAFC8DC
330
1E4BABA593
100
AcDbEntity
  8
SUNPOU
100
AcDbLine
 10
5035.435301573249
 20
8859.39151091903
 30
0.0
 11
5005.631387104137
 21
8859.39151091903
 31
0.0
  0
LINE
  5
1E4BAFC8DD
330
1E4BABA593
100
AcDbEntity
  8
SUNPOU
100
AcDbLine
 10
5135.283251883819
 20
9012.39151091903
 30
0.0
 11
5005.631387104137
 21
9012.39151091903
 31
0.0
  0
LINE
  5
1E4BAFC8DE
330
1E4BABA593
100
AcDbEntity
  8
SUNPOU
100
AcDbLine
 10
5008.631387104137
 20
8863.89151091903
 30
0.0
 11
5008.631387104137
 21
9007.89151091903
 31
0.0
  0
INSERT
  5
1E4BAFC8DF
330
1E4BABA593
100
AcDbEntity
  8
SUNPOU
100
AcDbBlockReference
  2
ARROW
 10
5008.631387104137
 20
8859.39151091903
 30
0.0
 41
4.5
 42
4.5
 43
4.5
 50
270.0
  0
INSERT
  5
1E4BAFC8E0
330
1E4BABA593
100
AcDbEntity
  8
SUNPOU
100
AcDbBlockReference
  2
ARROW
 10
5008.631387104137
 20
9012.39151091903
 30
0.0
 41
4.5
 42
4.5
 43
4.5
 50
90.0
  0
MTEXT
  5
1E4BAFC8E1
330
1E4BABA593
100
AcDbEntity
  8
SUNPOU
100
AcDbMText
 10
5001.131387104136
 20
8935.891510919031
 30
0.0
 40
9.0
 41
0.0
 46
0.0
 71
     5
 72
     1
  1
153（全開時）
  7
K
 11
6.123031769111886E-17
 21
1.0
 31
0.0
 73
     1
 44
1.0
  0
LINE
  5
1E4BAFC8E2
330
1E4BABA593
100
AcDbEntity
  8
SUNPOU
100
AcDbLine
 10
5245.435301573249
 20
9121.812223332585
 30
0.0
 11
5283.484023438884
 21
9121.812223332585
 31
0.0
  0
LINE
  5
1E4BAFC8E3
330
1E4BABA593
100
AcDbEntity
  8
SUNPOU
100
AcDbLine
 10
5245.435301573249
 20
9241.812223332578
 30
0.0
 11
5283.484023438884
 21
9241.812223332578
 31
0.0
  0
LINE
  5
1E4BAFC8E4
330
1E4BABA593
100
AcDbEntity
  8
SUNPOU
100
AcDbLine
 10
5280.484023438884
 20
9126.312223332585
 30
0.0
 11
5280.484023438884
 21
9237.312223332578
 31
0.0
  0
INSERT
  5
1E4BAFC8E5
330
1E4BABA593
100
AcDbEntity
  8
SUNPOU
100
AcDbBlockReference
  2
ARROW
 10
5280.484023438884
 20
9121.812223332585
 30
0.0
 41
4.5
 42
4.5
 43
4.5
 50
270.0
  0
INSERT
  5
1E4BAFC8E6
330
1E4BABA593
100
AcDbEntity
  8
SUNPOU
100
AcDbBlockReference
  2
ARROW
 10
5280.484023438884
 20
9241.812223332578
 30
0.0
 41
4.5
 42
4.5
 43
4.5
 50
90.0
  0
MTEXT
  5
1E4BAFC8E7
330
1E4BABA593
100
AcDbEntity
  8
SUNPOU
100
AcDbMText
 10
5272.984023438883
 20
9181.812223332583
 30
0.0
 40
9.0
 41
0.0
 46
0.0
 71
     5
 72
     1
  1
%%c120
  7
K
 11
6.123031769111886E-17
 21
1.0
 31
0.0
 73
     1
 44
1.0
  0
LINE
  5
1E4BAFC8E8
330
1E4BABA593
100
AcDbEntity
  8
JISSEN
100
AcDbLine
 10
5235.44173973936
 20
9259.312223332587
 30
0.0
 11
5237.43530157327
 21
9257.318661498677
 31
0.0
  0
ARC
  5
1E4BAFC8E9
330
1E4BABA593
100
AcDbEntity
  8
JISSEN
100
AcDbCircle
 10
5218.435301573269
 20
9257.312223332587
 30
0.0
 40
2.0
100
AcDbArc
 50
90.0
 51
180.0
  0
LINE
  5
1E4BAFC8EA
330
1E4BABA593
100
AcDbEntity
  8
JISSEN
100
AcDbLine
 10
5218.435301573269
 20
9259.312223332587
 30
0.0
 11
5235.43530157325
 21
9259.312223332587
 31
0.0
  0
LINE
  5
1E4BAFC8EE
330
1E4BABA593
100
AcDbEntity
  8
SUNPOU
100
AcDbLine
 10
5238.39173973936
 20
9259.312223332587
 30
0.0
 11
5305.353668433669
 21
9259.312223332587
 31
0.0
  0
LINE
  5
1E4BAFC8EF
330
1E4BABA593
100
AcDbEntity
  8
SUNPOU
100
AcDbLine
 10
5238.39173973936
 20
9104.312223332587
 30
0.0
 11
5305.353668433669
 21
9104.312223332587
 31
0.0
  0
LINE
  5
1E4BAFC8F0
330
1E4BABA593
100
AcDbEntity
  8
SUNPOU
100
AcDbLine
 10
5302.353668433669
 20
9254.812223332587
 30
0.0
 11
5302.353668433669
 21
9108.812223332587
 31
0.0
  0
INSERT
  5
1E4BAFC8F1
330
1E4BABA593
100
AcDbEntity
  8
SUNPOU
100
AcDbBlockReference
  2
ARROW
 10
5302.353668433669
 20
9259.312223332587
 30
0.0
 41
4.5
 42
4.5
 43
4.5
 50
90.0
  0
INSERT
  5
1E4BAFC8F2
330
1E4BABA593
100
AcDbEntity
  8
SUNPOU
100
AcDbBlockReference
  2
ARROW
 10
5302.353668433669
 20
9104.312223332587
 30
0.0
 41
4.5
 42
4.5
 43
4.5
 50
270.0
  0
MTEXT
  5
1E4BAFC8F3
330
1E4BABA593
100
AcDbEntity
  8
SUNPOU
100
AcDbMText
 10
5294.853668433668
 20
9181.812223332588
 30
0.0
 40
9.0
 41
0.0
 46
0.0
 71
     5
 72
     1
  1
%%c155
  7
K
 11
6.123031769111886E-17
 21
1.0
 31
0.0
 73
     1
 44
1.0
  0
LINE
  5
1E4BAFC8F4
330
1E4BABA593
100
AcDbEntity
  8
SUNPOU
100
AcDbLine
 10
5216.435301573249
 20
9104.064116231433
 30
0.0
 11
5216.435301573249
 21
9071.091852031224
 31
0.0
  0
LINE
  5
1E4BAFC8F5
330
1E4BABA593
100
AcDbEntity
  8
SUNPOU
100
AcDbLine
 10
5237.43530157327
 20
9103.305785166496
 30
0.0
 11
5237.43530157327
 21
9071.091852031224
 31
0.0
  0
LINE
  5
1E4BAFC8F6
330
1E4BABA593
100
AcDbEntity
  8
SUNPOU
100
AcDbLine
 10
5220.935301573249
 20
9074.091852031224
 30
0.0
 11
5232.93530157327
 21
9074.091852031224
 31
0.0
  0
INSERT
  5
1E4BAFC8F7
330
1E4BABA593
100
AcDbEntity
  8
SUNPOU
100
AcDbBlockReference
  2
ARROW
 10
5216.435301573249
 20
9074.091852031224
 30
0.0
 41
4.5
 42
4.5
 43
4.5
 50
180.0
  0
INSERT
  5
1E4BAFC8F8
330
1E4BABA593
100
AcDbEntity
  8
SUNPOU
100
AcDbBlockReference
  2
ARROW
 10
5237.43530157327
 20
9074.091852031224
 30
0.0
 41
4.5
 42
4.5
 43
4.5
  0
MTEXT
  5
1E4BAFC8F9
330
1E4BABA593
100
AcDbEntity
  8
SUNPOU
100
AcDbMText
 10
5226.935301573259
 20
9081.591852031224
 30
0.0
 40
9.0
 41
0.0
 46
0.0
 71
     5
 72
     1
  1
20
  7
K
 73
     1
 44
1.0
  0
LINE
  5
1E4BAFC8FA
330
1E4BABA593
100
AcDbEntity
  8
JISSEN
100
AcDbLine
 10
5218.43530157327
 20
9104.312223332587
 30
0.0
 11
5235.44173973936
 21
9104.312223332587
 31
0.0
  0
LINE
  5
1E4BAFC8FB
330
1E4BABA593
100
AcDbEntity
  8
JISSEN
100
AcDbLine
 10
5235.441739739361
 20
9104.312223332587
 30
0.0
 11
5237.43530157327
 21
9106.305785166496
 31
0.0
  0
ARC
  5
1E4BAFC8FC
330
1E4BABA593
100
AcDbEntity
  8
JISSEN
100
AcDbCircle
 10
5218.43530157327
 20
9106.312223332587
 30
0.0
 40
2.0
100
AcDbArc
 50
180.0
 51
270.0
  0
LINE
  5
1E4BAFC8FD
330
1E4BABA593
100
AcDbEntity
  8
SUNPOU
100
AcDbLine
 10
5142.783251883819
 20
9025.391510919031
 30
0.0
 11
5142.783251883819
 21
9048.188373353354
 31
0.0
  0
LINE
  5
1E4BAFC8FE
330
1E4BABA593
100
AcDbEntity
  8
SUNPOU
100
AcDbLine
 10
5214.283251883819
 20
8979.737033246589
 30
0.0
 11
5214.283251883819
 21
9048.188373353354
 31
0.0
  0
LINE
  5
1E4BAFC8FF
330
1E4BABA593
100
AcDbEntity
  8
SUNPOU
100
AcDbLine
 10
5147.283251883819
 20
9045.188373353354
 30
0.0
 11
5209.783251883819
 21
9045.188373353354
 31
0.0
  0
INSERT
  5
1E4BAFC900
330
1E4BABA593
100
AcDbEntity
  8
SUNPOU
100
AcDbBlockReference
  2
ARROW
 10
5142.783251883819
 20
9045.188373353354
 30
0.0
 41
4.5
 42
4.5
 43
4.5
 50
180.0
  0
INSERT
  5
1E4BAFC901
330
1E4BABA593
100
AcDbEntity
  8
SUNPOU
100
AcDbBlockReference
  2
ARROW
 10
5214.283251883819
 20
9045.188373353354
 30
0.0
 41
4.5
 42
4.5
 43
4.5
  0
MTEXT
  5
1E4BAFC902
330
1E4BABA593
100
AcDbEntity
  8
SUNPOU
100
AcDbMText
 10
5178.533251883819
 20
9052.688373353354
 30
0.0
 40
9.0
 41
0.0
 46
0.0
 71
     5
 72
     1
  1
\A1;71.5
  7
K
 73
     1
 44
1.0
  0
ENDSEC
  0
SECTION
  2
OBJECTS
  0
DICTIONARY
  5
1E4BABA588
330
0
100
AcDbDictionary
281
     1
  3
ACAD_DETAILVIEWSTYLE
350
1E4BB01D3E
  3
ACAD_GROUP
350
1E4BABA589
  3
ACAD_LAYOUT
350
1E4BABAC6F
  3
ACAD_MATERIAL
350
1E4BB01D31
  3
ACAD_MLEADERSTYLE
350
1E4BB01D37
  3
ACAD_MLINESTYLE
350
1E4BABA596
  3
ACAD_PLOTSETTINGS
350
1E4BABAC70
  3
ACAD_PLOTSTYLENAME
350
1E4BABAC6D
  3
ACAD_SCALELIST
350
1E4BB01D0F
  3
ACAD_SECTIONVIEWSTYLE
350
1E4BB01D3F
  3
ACAD_TABLESTYLE
350
1E4BB01D35
  3
ACAD_VISUALSTYLE
350
1E4BB01CF6
  3
ACDB_RECOMPOSE_DATA
350
1E4BB01D42
  3
AcDbVariableDictionary
350
1E4BABBC1C
  3
APPDATA
350
1E4BB01D39
  0
DICTIONARY
  5
1E4BABAD0F
330
1E4BABA57E
100
AcDbDictionary
280
     1
281
     1
  3
ACAD_LAYERFILTERS
360
1E4BABC0B4
  3
ACAD_LAYERSTATES
360
1E4BABAD10
  0
DICTIONARY
  5
1E4BADBD73
330
1E4BADBD72
100
AcDbDictionary
280
     1
281
     1
  3
ADSK_XREC_LAYER_RECONCILED
360
1E4BADBD75
  0
DICTIONARY
  5
1E4BB01D3E
102
{ACAD_REACTORS
330
1E4BABA588
102
}
330
1E4BABA588
100
AcDbDictionary
281
     1
  0
DICTIONARY
  5
1E4BABA589
102
{ACAD_REACTORS
330
1E4BABA588
102
}
330
1E4BABA588
100
AcDbDictionary
281
     1
  3
*A1795
350
1E4BAFBABC
  0
DICTIONARY
  5
1E4BABAC6F
102
{ACAD_REACTORS
330
1E4BABA588
102
}
330
1E4BABA588
100
AcDbDictionary
281
     1
  3
Model
350
1E4BABAC71
  3
ﾚｲｱｳﾄ1
350
1E4BABAC72
  0
DICTIONARY
  5
1E4BB01D31
102
{ACAD_REACTORS
330
1E4BABA588
102
}
330
1E4BABA588
100
AcDbDictionary
281
     1
  3
ByBlock
350
1E4BB01D33
  3
ByLayer
350
1E4BB01D32
  3
Global
350
1E4BB01D34
  0
DICTIONARY
  5
1E4BB01D37
102
{ACAD_REACTORS
330
1E4BABA588
102
}
330
1E4BABA588
100
AcDbDictionary
281
     1
  3
Standard
350
1E4BB01D38
  0
DICTIONARY
  5
1E4BABA596
102
{ACAD_REACTORS
330
1E4BABA588
102
}
330
1E4BABA588
100
AcDbDictionary
281
     1
  3
STANDARD
350
1E4BABA597
  0
DICTIONARY
  5
1E4BABAC70
102
{ACAD_REACTORS
330
1E4BABA588
102
}
330
1E4BABA588
100
AcDbDictionary
281
     1
  0
ACDBDICTIONARYWDFLT
  5
1E4BABAC6D
102
{ACAD_REACTORS
330
1E4BABA588
102
}
330
1E4BABA588
100
AcDbDictionary
281
     1
  3
Normal
350
1E4BABAC6E
  3
Style_1
350
1E4BABC2B7
100
AcDbDictionaryWithDefault
340
1E4BABAC6E
  0
DICTIONARY
  5
1E4BB01D0F
102
{ACAD_REACTORS
330
1E4BABA588
102
}
330
1E4BABA588
100
AcDbDictionary
281
     1
  3
A0
350
1E4BB01D10
  3
A1
350
1E4BB01D11
  3
A2
350
1E4BB01D12
  3
A3
350
1E4BB01D13
  3
A4
350
1E4BB01D14
  3
A5
350
1E4BB01D15
  3
A6
350
1E4BB01D16
  3
A7
350
1E4BB01D17
  3
A8
350
1E4BB01D18
  3
A9
350
1E4BB01D19
  3
B0
350
1E4BB01D1A
  3
B1
350
1E4BB01D1B
  3
B2
350
1E4BB01D1C
  3
B3
350
1E4BB01D1D
  3
B4
350
1E4BB01D1E
  3
B5
350
1E4BB01D1F
  3
B6
350
1E4BB01D20
  3
B7
350
1E4BB01D21
  3
B8
350
1E4BB01D22
  3
B9
350
1E4BB01D23
  3
C0
350
1E4BB01D24
  3
C1
350
1E4BB01D25
  3
C2
350
1E4BB01D26
  3
C3
350
1E4BB01D27
  3
C4
350
1E4BB01D28
  3
C5
350
1E4BB01D29
  3
C6
350
1E4BB01D2A
  3
C7
350
1E4BB01D2B
  3
C8
350
1E4BB01D2C
  3
C9
350
1E4BB01D2D
  3
D0
350
1E4BB01D2E
  3
D1
350
1E4BB01D2F
  3
D2
350
1E4BB01D30
  0
DICTIONARY
  5
1E4BB01D3F
102
{ACAD_REACTORS
330
1E4BABA588
102
}
330
1E4BABA588
100
AcDbDictionary
281
     1
  0
DICTIONARY
  5
1E4BB01D35
102
{ACAD_REACTORS
330
1E4BABA588
102
}
330
1E4BABA588
100
AcDbDictionary
281
     1
  3
Standard
350
1E4BB01D36
  0
DICTIONARY
  5
1E4BB01CF6
102
{ACAD_REACTORS
330
1E4BABA588
102
}
330
1E4BABA588
100
AcDbDictionary
281
     1
  3
2dWireframe
350
1E4BB01CFB
  3
Basic
350
1E4BB01CFE
  3
Brighten
350
1E4BB01D02
  3
ColorChange
350
1E4BB01D06
  3
Conceptual
350
1E4BB01D00
  3
Dim
350
1E4BB01D01
  3
EdgeColorOff
350
1E4BB01D09
  3
Facepattern
350
1E4BB01D05
  3
Flat
350
1E4BB01CF7
  3
FlatWithEdges
350
1E4BB01CF8
  3
Gouraud
350
1E4BB01CF9
  3
GouraudWithEdges
350
1E4BB01CFA
  3
Hidden
350
1E4BB01CFD
  3
JitterOff
350
1E4BB01D07
  3
Linepattern
350
1E4BB01D04
  3
OverhangOff
350
1E4BB01D08
  3
Realistic
350
1E4BB01CFF
  3
Shaded
350
1E4BB01D0E
  3
Shaded with edges
350
1E4BB01D0D
  3
Shades of Gray
350
1E4BB01D0A
  3
Sketchy
350
1E4BB01D0B
  3
Thicken
350
1E4BB01D03
  3
Wireframe
350
1E4BB01CFC
  3
X-Ray
350
1E4BB01D0C
  0
XRECORD
  5
1E4BB01D42
102
{ACAD_REACTORS
330
1E4BABA588
102
}
330
1E4BABA588
100
AcDbXrecord
280
     1
 90
        1
330
1E4BB01D36
  0
DICTIONARY
  5
1E4BABBC1C
102
{ACAD_REACTORS
330
1E4BABA588
102
}
330
1E4BABA588
100
AcDbDictionary
281
     1
  3
CANNOSCALE
350
1E4BB01D3A
  3
CMLEADERSTYLE
350
1E4BB01D3C
  3
CTABLESTYLE
350
1E4BB01D3B
  3
DIMASSOC
350
1E4BABC0A8
  3
MSLTSCALE
350
1E4BB01D3D
  3
SORTENTS
350
1E4BABBC1D
  0
DICTIONARY
  5
1E4BB01D39
102
{ACAD_REACTORS
330
1E4BABA588
102
}
330
1E4BABA588
100
AcDbDictionary
281
     1
  0
DICTIONARY
  5
1E4BABC0B4
102
{ACAD_REACTORS
330
1E4BABAD0F
102
}
330
1E4BABAD0F
100
AcDbDictionary
280
     1
281
     1
  3
0
360
1E4BABC0B5
  3
0-0
360
1E4BABC0B6
  3
０画層
360
1E4BABC0D4
  3
10画層
360
1E4BABC0B7
  3
2
360
1E4BABC0B8
  3
3
360
1E4BABC0B9
  3
3A
360
1E4BABC0BA
  3
３A画層
360
1E4BABC0D5
  3
３画層
360
1E4BABC0D6
  3
4
360
1E4BABC0BB
  3
5画層
360
1E4BABC0BC
  3
6画層
360
1E4BABC0BD
  3
7
360
1E4BABC0BE
  3
7a画層
360
1E4BABC0BF
  3
8
360
1E4BABC0C0
  3
ASYST
360
1E4BABC0C1
  3
ASYST PHASE 1
360
1E4BABC0C2
  3
ASYST PHASE 2
360
1E4BABC0C3
  3
cap-0
360
1E4BABC0C4
  3
dims
360
1E4BABC0C5
  3
elec
360
1E4BABC0C6
  3
ELECTRICAL
360
1E4BABC0C7
  3
F
360
1E4BABC0C8
  3
Frame
360
1E4BABC0C9
  3
FROZEN
360
1E4BABC0CA
  3
FROZEN ACTIVE
360
1E4BABC0CB
  3
jiku-0
360
1E4BABC0CC
  3
MP
360
1E4BABC0CD
  3
MPR
360
1E4BABC0CE
  3
p-
360
1E4BABC0CF
  3
ST
360
1E4BABC0D0
  3
TC
360
1E4BABC0D1
  3
TEXT
360
1E4BABC0D2
  3
ｹｰﾌﾞﾙ図
360
1E4BABC0D3
  0
DICTIONARY
  5
1E4BABAD10
102
{ACAD_REACTORS
330
1E4BABAD0F
102
}
330
1E4BABAD0F
100
AcDbDictionary
281
     1
  0
XRECORD
  5
1E4BADBD75
102
{ACAD_REACTORS
330
1E4BADBD73
102
}
330
1E4BADBD73
100
AcDbXrecord
280
     1
290
     1
  0
GROUP
  5
1E4BAFBABC
102
{ACAD_REACTORS
330
1E4BABA589
102
}
330
1E4BABA589
100
AcDbGroup
300

 70
     1
 71
     1
340
1E4BAFB4C6
340
1E4BAFB4C8
340
1E4BAFB4C7
340
1E4BAFB4CB
340
1E4BAFB90E
340
1E4BAFB4E4
  0
LAYOUT
  5
1E4BABAC71
102
{ACAD_REACTORS
330
1E4BABAC6F
102
}
330
1E4BABAC6F
100
AcDbPlotSettings
  1

  2
\\Nt_honsya\FUJITSU XL-5300-3
  4
A4
  6

 40
5.873749732971191
 41
5.704405784606934
 42
5.789077758789062
 43
5.873748779296875
 44
209.9733276367188
 45
296.9259948730469
 46
0.0
 47
0.0
 48
0.0
 49
0.0
140
0.0
141
0.0
142
1.0
143
1.0
 70
 11952
 72
     0
 73
     1
 74
     0
  7
aclt.ctb
 75
     0
 76
     0
 77
     2
 78
   300
147
1.0
148
142.6071822177236
149
41.48911807161443
100
AcDbLayout
  1
Model
 70
     1
 71
     0
 10
0.0
 20
0.0
 11
12.0
 21
9.0
 12
0.0
 22
0.0
 32
0.0
 14
4739.964036726896
 24
8569.48121379703
 34
0.0
 15
5825.964032382896
 25
9388.48121379703
 35
960.208308198174
146
0.0
 13
0.0
 23
0.0
 33
0.0
 16
1.0
 26
0.0
 36
0.0
 17
0.0
 27
1.0
 37
0.0
 76
     0
330
1E4BABA593
331
1E4BB01CF5
  0
LAYOUT
  5
1E4BABAC72
102
{ACAD_REACTORS
330
1E4BABAC6F
102
}
330
1E4BABAC6F
100
AcDbPlotSettings
  1

  2
\\Nt_honsya\FUJITSU XL-5300-3
  4

  6

 40
0.0
 41
0.0
 42
0.0
 43
0.0
 44
0.0
 45
0.0
 46
0.0
 47
0.0
 48
0.0
 49
0.0
140
0.0
141
0.0
142
1.0
143
1.0
 70
   688
 72
     0
 73
     0
 74
     5
  7
pdf001.ctb
 75
    16
 76
     0
 77
     2
 78
   300
147
1.0
148
0.0
149
0.0
100
AcDbLayout
  1
ﾚｲｱｳﾄ1
 70
     0
 71
     1
 10
0.0
 20
0.0
 11
12.0
 21
9.0
 12
0.0
 22
0.0
 32
0.0
 14
1.000000000000000E+20
 24
1.000000000000000E+20
 34
1.000000000000000E+20
 15
-1.000000000000000E+20
 25
-1.000000000000000E+20
 35
-1.000000000000000E+20
146
0.0
 13
0.0
 23
0.0
 33
0.0
 16
1.0
 26
0.0
 36
0.0
 17
0.0
 27
1.0
 37
0.0
 76
     0
330
1E4BABA590
  0
MATERIAL
  5
1E4BB01D33
102
{ACAD_REACTORS
330
1E4BB01D31
102
}
330
1E4BB01D31
100
AcDbMaterial
  1
ByBlock
 72
     1
 94
      127
  0
MATERIAL
  5
1E4BB01D32
102
{ACAD_REACTORS
330
1E4BB01D31
102
}
330
1E4BB01D31
100
AcDbMaterial
  1
ByLayer
 72
     1
 94
      127
  0
MATERIAL
  5
1E4BB01D34
102
{ACAD_REACTORS
330
1E4BB01D31
102
}
330
1E4BB01D31
100
AcDbMaterial
  1
Global
 72
     1
 94
      127
  0
MLEADERSTYLE
  5
1E4BB01D38
102
{ACAD_REACTORS
330
1E4BB01D37
102
}
330
1E4BB01D37
100
AcDbMLeaderStyle
179
     2
170
     2
171
     1
172
     0
 90
        2
 40
0.0
 41
0.0
173
     1
 91
-1056964608
340
1E4BABA58D
 92
       -2
290
     1
 42
0.09
291
     1
 43
0.36
  3
Standard
341
0
 44
0.18
300

342
1E4BABA58B
174
     1
178
     1
175
     1
176
     0
 93
-1056964608
 45
0.18
292
     0
297
     0
 46
0.18
343
0
 94
-1056964608
 47
1.0
 49
1.0
140
1.0
293
     1
141
0.0
294
     1
177
     0
142
1.0
295
     0
296
     0
143
0.125
271
     0
272
     9
273
     9
  0
MLINESTYLE
  5
1E4BABA597
102
{ACAD_REACTORS
330
1E4BABA596
102
}
330
1E4BABA596
100
AcDbMlineStyle
  2
STANDARD
 70
     0
  3

 62
   256
 51
90.0
 52
90.0
 71
     2
 49
0.5
 62
   256
  6
BYLAYER
 49
-0.5
 62
   256
  6
BYLAYER
  0
ACDBPLACEHOLDER
  5
1E4BABAC6E
102
{ACAD_REACTORS
330
1E4BABAC6D
102
}
330
1E4BABAC6D
  0
ACDBPLACEHOLDER
  5
1E4BABC2B7
102
{ACAD_REACTORS
330
1E4BABAC6D
102
}
330
1E4BABAC6D
  0
SCALE
  5
1E4BB01D10
102
{ACAD_REACTORS
330
1E4BB01D0F
102
}
330
1E4BB01D0F
100
AcDbScale
 70
     0
300
1:1
140
1.0
141
1.0
290
     1
  0
SCALE
  5
1E4BB01D11
102
{ACAD_REACTORS
330
1E4BB01D0F
102
}
330
1E4BB01D0F
100
AcDbScale
 70
     0
300
1:2
140
1.0
141
2.0
290
     0
  0
SCALE
  5
1E4BB01D12
102
{ACAD_REACTORS
330
1E4BB01D0F
102
}
330
1E4BB01D0F
100
AcDbScale
 70
     0
300
1:4
140
1.0
141
4.0
290
     0
  0
SCALE
  5
1E4BB01D13
102
{ACAD_REACTORS
330
1E4BB01D0F
102
}
330
1E4BB01D0F
100
AcDbScale
 70
     0
300
1:5
140
1.0
141
5.0
290
     0
  0
SCALE
  5
1E4BB01D14
102
{ACAD_REACTORS
330
1E4BB01D0F
102
}
330
1E4BB01D0F
100
AcDbScale
 70
     0
300
1:8
140
1.0
141
8.0
290
     0
  0
SCALE
  5
1E4BB01D15
102
{ACAD_REACTORS
330
1E4BB01D0F
102
}
330
1E4BB01D0F
100
AcDbScale
 70
     0
300
1:10
140
1.0
141
10.0
290
     0
  0
SCALE
  5
1E4BB01D16
102
{ACAD_REACTORS
330
1E4BB01D0F
102
}
330
1E4BB01D0F
100
AcDbScale
 70
     0
300
1:16
140
1.0
141
16.0
290
     0
  0
SCALE
  5
1E4BB01D17
102
{ACAD_REACTORS
330
1E4BB01D0F
102
}
330
1E4BB01D0F
100
AcDbScale
 70
     0
300
1:20
140
1.0
141
20.0
290
     0
  0
SCALE
  5
1E4BB01D18
102
{ACAD_REACTORS
330
1E4BB01D0F
102
}
330
1E4BB01D0F
100
AcDbScale
 70
     0
300
1:30
140
1.0
141
30.0
290
     0
  0
SCALE
  5
1E4BB01D19
102
{ACAD_REACTORS
330
1E4BB01D0F
102
}
330
1E4BB01D0F
100
AcDbScale
 70
     0
300
1:40
140
1.0
141
40.0
290
     0
  0
SCALE
  5
1E4BB01D1A
102
{ACAD_REACTORS
330
1E4BB01D0F
102
}
330
1E4BB01D0F
100
AcDbScale
 70
     0
300
1:50
140
1.0
141
50.0
290
     0
  0
SCALE
  5
1E4BB01D1B
102
{ACAD_REACTORS
330
1E4BB01D0F
102
}
330
1E4BB01D0F
100
AcDbScale
 70
     0
300
1:100
140
1.0
141
100.0
290
     0
  0
SCALE
  5
1E4BB01D1C
102
{ACAD_REACTORS
330
1E4BB01D0F
102
}
330
1E4BB01D0F
100
AcDbScale
 70
     0
300
2:1
140
2.0
141
1.0
290
     0
  0
SCALE
  5
1E4BB01D1D
102
{ACAD_REACTORS
330
1E4BB01D0F
102
}
330
1E4BB01D0F
100
AcDbScale
 70
     0
300
4:1
140
4.0
141
1.0
290
     0
  0
SCALE
  5
1E4BB01D1E
102
{ACAD_REACTORS
330
1E4BB01D0F
102
}
330
1E4BB01D0F
100
AcDbScale
 70
     0
300
8:1
140
8.0
141
1.0
290
     0
  0
SCALE
  5
1E4BB01D1F
102
{ACAD_REACTORS
330
1E4BB01D0F
102
}
330
1E4BB01D0F
100
AcDbScale
 70
     0
300
10:1
140
10.0
141
1.0
290
     0
  0
SCALE
  5
1E4BB01D20
102
{ACAD_REACTORS
330
1E4BB01D0F
102
}
330
1E4BB01D0F
100
AcDbScale
 70
     0
300
100:1
140
100.0
141
1.0
290
     0
  0
SCALE
  5
1E4BB01D21
102
{ACAD_REACTORS
330
1E4BB01D0F
102
}
330
1E4BB01D0F
100
AcDbScale
 70
     0
300
1/128" = 1'-0"
140
0.0078125
141
12.0
290
     0
  0
SCALE
  5
1E4BB01D22
102
{ACAD_REACTORS
330
1E4BB01D0F
102
}
330
1E4BB01D0F
100
AcDbScale
 70
     0
300
1/64" = 1'-0"
140
0.015625
141
12.0
290
     0
  0
SCALE
  5
1E4BB01D23
102
{ACAD_REACTORS
330
1E4BB01D0F
102
}
330
1E4BB01D0F
100
AcDbScale
 70
     0
300
1/32" = 1'-0"
140
0.03125
141
12.0
290
     0
  0
SCALE
  5
1E4BB01D24
102
{ACAD_REACTORS
330
1E4BB01D0F
102
}
330
1E4BB01D0F
100
AcDbScale
 70
     0
300
1/16" = 1'-0"
140
0.0625
141
12.0
290
     0
  0
SCALE
  5
1E4BB01D25
102
{ACAD_REACTORS
330
1E4BB01D0F
102
}
330
1E4BB01D0F
100
AcDbScale
 70
     0
300
3/32" = 1'-0"
140
0.09375
141
12.0
290
     0
  0
SCALE
  5
1E4BB01D26
102
{ACAD_REACTORS
330
1E4BB01D0F
102
}
330
1E4BB01D0F
100
AcDbScale
 70
     0
300
1/8" = 1'-0"
140
0.125
141
12.0
290
     0
  0
SCALE
  5
1E4BB01D27
102
{ACAD_REACTORS
330
1E4BB01D0F
102
}
330
1E4BB01D0F
100
AcDbScale
 70
     0
300
3/16" = 1'-0"
140
0.1875
141
12.0
290
     0
  0
SCALE
  5
1E4BB01D28
102
{ACAD_REACTORS
330
1E4BB01D0F
102
}
330
1E4BB01D0F
100
AcDbScale
 70
     0
300
1/4" = 1'-0"
140
0.25
141
12.0
290
     0
  0
SCALE
  5
1E4BB01D29
102
{ACAD_REACTORS
330
1E4BB01D0F
102
}
330
1E4BB01D0F
100
AcDbScale
 70
     0
300
3/8" = 1'-0"
140
0.375
141
12.0
290
     0
  0
SCALE
  5
1E4BB01D2A
102
{ACAD_REACTORS
330
1E4BB01D0F
102
}
330
1E4BB01D0F
100
AcDbScale
 70
     0
300
1/2" = 1'-0"
140
0.5
141
12.0
290
     0
  0
SCALE
  5
1E4BB01D2B
102
{ACAD_REACTORS
330
1E4BB01D0F
102
}
330
1E4BB01D0F
100
AcDbScale
 70
     0
300
3/4" = 1'-0"
140
0.75
141
12.0
290
     0
  0
SCALE
  5
1E4BB01D2C
102
{ACAD_REACTORS
330
1E4BB01D0F
102
}
330
1E4BB01D0F
100
AcDbScale
 70
     0
300
1" = 1'-0"
140
1.0
141
12.0
290
     0
  0
SCALE
  5
1E4BB01D2D
102
{ACAD_REACTORS
330
1E4BB01D0F
102
}
330
1E4BB01D0F
100
AcDbScale
 70
     0
300
1-1/2" = 1'-0"
140
1.5
141
12.0
290
     0
  0
SCALE
  5
1E4BB01D2E
102
{ACAD_REACTORS
330
1E4BB01D0F
102
}
330
1E4BB01D0F
100
AcDbScale
 70
     0
300
3" = 1'-0"
140
3.0
141
12.0
290
     0
  0
SCALE
  5
1E4BB01D2F
102
{ACAD_REACTORS
330
1E4BB01D0F
102
}
330
1E4BB01D0F
100
AcDbScale
 70
     0
300
6" = 1'-0"
140
6.0
141
12.0
290
     0
  0
SCALE
  5
1E4BB01D30
102
{ACAD_REACTORS
330
1E4BB01D0F
102
}
330
1E4BB01D0F
100
AcDbScale
 70
     0
300
1'-0" = 1'-0"
140
12.0
141
12.0
290
     0
  0
TABLESTYLE
  5
1E4BB01D36
102
{ACAD_REACTORS
330
1E4BB01D35
102
}
102
{ACAD_XDICTIONARY
360
1E4BB01D40
102
}
330
1E4BB01D35
100
AcDbTableStyle
  3
Standard
 70
     0
 71
     0
 40
0.06
 41
0.06
280
     0
281
     0
  7
STANDARD
140
0.18
170
     2
 62
     0
 63
   257
283
     0
 90
        4
 91
        0
  1

274
    -2
284
     1
 64
     0
275
    -2
285
     1
 65
     0
276
    -2
286
     1
 66
     0
277
    -2
287
     1
 67
     0
278
    -2
288
     1
 68
     0
279
    -2
289
     1
 69
     0
  7
STANDARD
140
0.25
170
     5
 62
     0
 63
   257
283
     0
 90
        4
 91
        0
  1

274
    -2
284
     1
 64
     0
275
    -2
285
     1
 65
     0
276
    -2
286
     1
 66
     0
277
    -2
287
     1
 67
     0
278
    -2
288
     1
 68
     0
279
    -2
289
     1
 69
     0
  7
STANDARD
140
0.18
170
     5
 62
     0
 63
   257
283
     0
 90
        4
 91
        0
  1

274
    -2
284
     1
 64
     0
275
    -2
285
     1
 65
     0
276
    -2
286
     1
 66
     0
277
    -2
287
     1
 67
     0
278
    -2
288
     1
 68
     0
279
    -2
289
     1
 69
     0
  0
VISUALSTYLE
  5
1E4BB01CFB
102
{ACAD_REACTORS
330
1E4BB01CF6
102
}
330
1E4BB01CF6
100
AcDbVisualStyle
  2
2dWireframe
 70
     4
177
     2
291
     0
 71
     0
176
     1
 72
     2
176
     1
 73
     0
176
     1
 90
        0
176
     1
 40
0.6
176
     1
 41
30.0
176
     1
 62
     5
 63
     7
421
 16777215
176
     1
 74
     1
176
     1
 91
        4
176
     1
 64
     7
176
     1
 65
   257
176
     1
 75
     1
176
     1
175
     1
176
     1
 42
1.0
176
     1
 92
        0
176
     1
 66
   257
176
     1
 43
1.0
176
     1
 76
     1
176
     1
 77
     6
176
     1
 78
     2
176
     1
 67
     7
176
     1
 79
     5
176
     1
170
     0
176
     1
171
     0
176
     1
290
     0
176
     1
 93
        1
176
     1
 44
0.0
176
     1
173
     0
176
     1
  0
VISUALSTYLE
  5
1E4BB01CFE
102
{ACAD_REACTORS
330
1E4BB01CF6
102
}
330
1E4BB01CF6
100
AcDbVisualStyle
  2
Basic
 70
     7
177
     2
291
     1
 71
     1
176
     1
 72
     0
176
     1
 73
     1
176
     1
 90
        0
176
     1
 40
0.6
176
     1
 41
30.0
176
     1
 62
     5
 63
     7
421
 16777215
176
     1
 74
     0
176
     1
 91
        4
176
     1
 64
     7
176
     1
 65
   257
176
     1
 75
     1
176
     1
175
     1
176
     1
 42
1.0
176
     1
 92
        8
176
     1
 66
     7
176
     1
 43
1.0
176
     1
 76
     1
176
     1
 77
     6
176
     1
 78
     2
176
     1
 67
     7
176
     1
 79
     5
176
     1
170
     0
176
     1
171
     0
176
     1
290
     0
176
     1
 93
        1
176
     1
 44
0.0
176
     1
173
     0
176
     1
  0
VISUALSTYLE
  5
1E4BB01D02
102
{ACAD_REACTORS
330
1E4BB01CF6
102
}
330
1E4BB01CF6
100
AcDbVisualStyle
  2
Brighten
 70
    12
177
     2
291
     1
 71
     2
176
     1
 72
     2
176
     1
 73
     0
176
     1
 90
        0
176
     1
 40
0.6
176
     1
 41
30.0
176
     1
 62
     5
 63
     7
421
 16777215
176
     1
 74
     1
176
     1
 91
        4
176
     1
 64
     7
176
     1
 65
   257
176
     1
 75
     1
176
     1
175
     1
176
     1
 42
1.0
176
     1
 92
        8
176
     1
 66
     7
176
     1
 43
1.0
176
     1
 76
     1
176
     1
 77
     6
176
     1
 78
     2
176
     1
 67
     7
176
     1
 79
     5
176
     1
170
     0
176
     1
171
     0
176
     1
290
     0
176
     1
 93
        1
176
     1
 44
50.0
176
     1
173
     0
176
     1
  0
VISUALSTYLE
  5
1E4BB01D06
102
{ACAD_REACTORS
330
1E4BB01CF6
102
}
330
1E4BB01CF6
100
AcDbVisualStyle
  2
ColorChange
 70
    16
177
     2
291
     1
 71
     2
176
     1
 72
     2
176
     1
 73
     3
176
     1
 90
        0
176
     1
 40
0.6
176
     1
 41
30.0
176
     1
 62
     5
 63
     8
421
  8421504
176
     1
 74
     1
176
     1
 91
        4
176
     1
 64
     7
176
     1
 65
   257
176
     1
 75
     1
176
     1
175
     1
176
     1
 42
1.0
176
     1
 92
        8
176
     1
 66
     8
424
  8421504
176
     1
 43
1.0
176
     1
 76
     1
176
     1
 77
     6
176
     1
 78
     2
176
     1
 67
     7
176
     1
 79
     5
176
     1
170
     0
176
     1
171
     0
176
     1
290
     0
176
     1
 93
        1
176
     1
 44
0.0
176
     1
173
     0
176
     1
  0
VISUALSTYLE
  5
1E4BB01D00
102
{ACAD_REACTORS
330
1E4BB01CF6
102
}
330
1E4BB01CF6
100
AcDbVisualStyle
  2
Conceptual
 70
     9
177
     2
291
     0
 71
     3
176
     1
 72
     2
176
     1
 73
     0
176
     1
 90
        0
176
     1
 40
0.6
176
     1
 41
30.0
176
     1
 62
     5
 63
     7
421
 16777215
176
     1
 74
     2
176
     1
 91
        2
176
     1
 64
     7
176
     1
 65
   257
176
     1
 75
     1
176
     1
175
     1
176
     1
 42
179.0
176
     1
 92
        8
176
     1
 66
     7
176
     1
 43
1.0
176
     1
 76
     1
176
     1
 77
     6
176
     1
 78
     2
176
     1
 67
     7
176
     1
 79
     3
176
     1
170
     0
176
     1
171
     0
176
     1
290
     0
176
     1
 93
        1
176
     1
 44
0.0
176
     1
173
     0
176
     1
  0
VISUALSTYLE
  5
1E4BB01D01
102
{ACAD_REACTORS
330
1E4BB01CF6
102
}
330
1E4BB01CF6
100
AcDbVisualStyle
  2
Dim
 70
    11
177
     2
291
     1
 71
     2
176
     1
 72
     2
176
     1
 73
     0
176
     1
 90
        0
176
     1
 40
0.6
176
     1
 41
30.0
176
     1
 62
     5
 63
     7
421
 16777215
176
     1
 74
     1
176
     1
 91
        4
176
     1
 64
     7
176
     1
 65
   257
176
     1
 75
     1
176
     1
175
     1
176
     1
 42
1.0
176
     1
 92
        8
176
     1
 66
     7
176
     1
 43
1.0
176
     1
 76
     1
176
     1
 77
     6
176
     1
 78
     2
176
     1
 67
     7
176
     1
 79
     5
176
     1
170
     0
176
     1
171
     0
176
     1
290
     0
176
     1
 93
        1
176
     1
 44
-50.0
176
     1
173
     0
176
     1
  0
VISUALSTYLE
  5
1E4BB01D09
102
{ACAD_REACTORS
330
1E4BB01CF6
102
}
330
1E4BB01CF6
100
AcDbVisualStyle
  2
EdgeColorOff
 70
    22
177
     2
291
     1
 71
     2
176
     0
 72
     2
176
     0
 73
     0
176
     0
 90
        0
176
     0
 40
0.6
176
     0
 41
30.0
176
     0
 62
     5
 63
     7
421
 16777215
176
     0
 74
     1
176
     0
 91
        4
176
     0
 64
     7
176
     0
 65
   257
176
     0
 75
     1
176
     0
175
     1
176
     0
 42
1.0
176
     0
 92
        8
176
     2
 66
     7
176
     0
 43
1.0
176
     0
 76
     1
176
     0
 77
     6
176
     0
 78
     2
176
     0
 67
     7
176
     0
 79
     5
176
     0
170
     0
176
     0
171
     0
176
     0
290
     0
176
     0
 93
        1
176
     0
 44
0.0
176
     0
173
     0
176
     0
  0
VISUALSTYLE
  5
1E4BB01D05
102
{ACAD_REACTORS
330
1E4BB01CF6
102
}
330
1E4BB01CF6
100
AcDbVisualStyle
  2
Facepattern
 70
    15
177
     2
291
     1
 71
     2
176
     1
 72
     2
176
     1
 73
     0
176
     1
 90
        0
176
     1
 40
0.6
176
     1
 41
30.0
176
     1
 62
     5
 63
     7
421
 16777215
176
     1
 74
     1
176
     1
 91
        4
176
     1
 64
     7
176
     1
 65
   257
176
     1
 75
     1
176
     1
175
     1
176
     1
 42
1.0
176
     1
 92
        8
176
     1
 66
     7
176
     1
 43
1.0
176
     1
 76
     1
176
     1
 77
     6
176
     1
 78
     2
176
     1
 67
     7
176
     1
 79
     5
176
     1
170
     0
176
     1
171
     0
176
     1
290
     0
176
     1
 93
        1
176
     1
 44
0.0
176
     1
173
     0
176
     1
  0
VISUALSTYLE
  5
1E4BB01CF7
102
{ACAD_REACTORS
330
1E4BB01CF6
102
}
330
1E4BB01CF6
100
AcDbVisualStyle
  2
Flat
 70
     0
177
     2
291
     1
 71
     2
176
     1
 72
     1
176
     1
 73
     1
176
     1
 90
        2
176
     1
 40
0.6
176
     1
 41
30.0
176
     1
 62
     5
 63
     7
421
 16777215
176
     1
 74
     0
176
     1
 91
        0
176
     1
 64
     7
176
     1
 65
   257
176
     1
 75
     1
176
     1
175
     1
176
     1
 42
1.0
176
     1
 92
        8
176
     1
 66
     7
176
     1
 43
1.0
176
     1
 76
     1
176
     1
 77
     6
176
     1
 78
     2
176
     1
 67
     7
176
     1
 79
     5
176
     1
170
     0
176
     1
171
     0
176
     1
290
     0
176
     1
 93
       13
176
     1
 44
0.0
176
     1
173
     0
176
     1
  0
VISUALSTYLE
  5
1E4BB01CF8
102
{ACAD_REACTORS
330
1E4BB01CF6
102
}
330
1E4BB01CF6
100
AcDbVisualStyle
  2
FlatWithEdges
 70
     1
177
     2
291
     1
 71
     2
176
     1
 72
     1
176
     1
 73
     1
176
     1
 90
        2
176
     1
 40
0.6
176
     1
 41
30.0
176
     1
 62
     5
 63
     7
421
 16777215
176
     1
 74
     1
176
     1
 91
        0
176
     1
 64
     7
176
     1
 65
   257
176
     1
 75
     1
176
     1
175
     1
176
     1
 42
1.0
176
     1
 92
        0
176
     1
 66
   257
176
     1
 43
1.0
176
     1
 76
     1
176
     1
 77
     6
176
     1
 78
     2
176
     1
 67
     7
176
     1
 79
     5
176
     1
170
     0
176
     1
171
     0
176
     1
290
     0
176
     1
 93
       13
176
     1
 44
0.0
176
     1
173
     0
176
     1
  0
VISUALSTYLE
  5
1E4BB01CF9
102
{ACAD_REACTORS
330
1E4BB01CF6
102
}
330
1E4BB01CF6
100
AcDbVisualStyle
  2
Gouraud
 70
     2
177
     2
291
     1
 71
     2
176
     1
 72
     2
176
     1
 73
     1
176
     1
 90
        2
176
     1
 40
0.6
176
     1
 41
30.0
176
     1
 62
     5
 63
     7
421
 16777215
176
     1
 74
     0
176
     1
 91
        0
176
     1
 64
     7
176
     1
 65
   257
176
     1
 75
     1
176
     1
175
     1
176
     1
 42
1.0
176
     1
 92
        0
176
     1
 66
     7
176
     1
 43
1.0
176
     1
 76
     1
176
     1
 77
     6
176
     1
 78
     2
176
     1
 67
     7
176
     1
 79
     5
176
     1
170
     0
176
     1
171
     0
176
     1
290
     0
176
     1
 93
       13
176
     1
 44
0.0
176
     1
173
     0
176
     1
  0
VISUALSTYLE
  5
1E4BB01CFA
102
{ACAD_REACTORS
330
1E4BB01CF6
102
}
330
1E4BB01CF6
100
AcDbVisualStyle
  2
GouraudWithEdges
 70
     3
177
     2
291
     1
 71
     2
176
     1
 72
     2
176
     1
 73
     1
176
     1
 90
        2
176
     1
 40
0.6
176
     1
 41
30.0
176
     1
 62
     5
 63
     7
421
 16777215
176
     1
 74
     1
176
     1
 91
        0
176
     1
 64
     7
176
     1
 65
   257
176
     1
 75
     1
176
     1
175
     1
176
     1
 42
1.0
176
     1
 92
        0
176
     1
 66
   257
176
     1
 43
1.0
176
     1
 76
     1
176
     1
 77
     6
176
     1
 78
     2
176
     1
 67
     7
176
     1
 79
     5
176
     1
170
     0
176
     1
171
     0
176
     1
290
     0
176
     1
 93
       13
176
     1
 44
0.0
176
     1
173
     0
176
     1
  0
VISUALSTYLE
  5
1E4BB01CFD
102
{ACAD_REACTORS
330
1E4BB01CF6
102
}
330
1E4BB01CF6
100
AcDbVisualStyle
  2
Hidden
 70
     6
177
     2
291
     0
 71
     1
176
     1
 72
     2
176
     1
 73
     2
176
     1
 90
        0
176
     1
 40
0.6
176
     1
 41
30.0
176
     1
 62
     5
 63
     7
421
 16777215
176
     1
 74
     2
176
     1
 91
        2
176
     1
 64
     7
176
     1
 65
   257
176
     1
 75
     2
176
     1
175
     1
176
     1
 42
40.0
176
     1
 92
        0
176
     1
 66
   257
176
     1
 43
1.0
176
     1
 76
     1
176
     1
 77
     6
176
     1
 78
     2
176
     1
 67
     7
176
     1
 79
     3
176
     1
170
     0
176
     1
171
     0
176
     1
290
     0
176
     1
 93
        1
176
     1
 44
0.0
176
     1
173
     0
176
     1
  0
VISUALSTYLE
  5
1E4BB01D07
102
{ACAD_REACTORS
330
1E4BB01CF6
102
}
330
1E4BB01CF6
100
AcDbVisualStyle
  2
JitterOff
 70
    20
177
     2
291
     1
 71
     2
176
     0
 72
     2
176
     0
 73
     0
176
     0
 90
        0
176
     0
 40
0.6
176
     0
 41
30.0
176
     0
 62
     5
 63
     7
421
 16777215
176
     0
 74
     1
176
     0
 91
        4
176
     0
 64
     7
176
     0
 65
   257
176
     0
 75
     1
176
     0
175
     1
176
     0
 42
1.0
176
     0
 92
       10
176
     2
 66
     7
176
     0
 43
1.0
176
     0
 76
     1
176
     0
 77
     6
176
     0
 78
     2
176
     0
 67
     7
176
     0
 79
     5
176
     0
170
     0
176
     0
171
     0
176
     0
290
     0
176
     0
 93
        1
176
     0
 44
0.0
176
     0
173
     0
176
     0
  0
VISUALSTYLE
  5
1E4BB01D04
102
{ACAD_REACTORS
330
1E4BB01CF6
102
}
330
1E4BB01CF6
100
AcDbVisualStyle
  2
Linepattern
 70
    14
177
     2
291
     1
 71
     2
176
     1
 72
     2
176
     1
 73
     0
176
     1
 90
        0
176
     1
 40
0.6
176
     1
 41
30.0
176
     1
 62
     5
 63
     7
421
 16777215
176
     1
 74
     1
176
     1
 91
        4
176
     1
 64
     7
176
     1
 65
   257
176
     1
 75
     7
176
     1
175
     7
176
     1
 42
1.0
176
     1
 92
        8
176
     1
 66
     7
176
     1
 43
1.0
176
     1
 76
     1
176
     1
 77
     6
176
     1
 78
     2
176
     1
 67
     7
176
     1
 79
     5
176
     1
170
     0
176
     1
171
     0
176
     1
290
     0
176
     1
 93
        1
176
     1
 44
0.0
176
     1
173
     0
176
     1
  0
VISUALSTYLE
  5
1E4BB01D08
102
{ACAD_REACTORS
330
1E4BB01CF6
102
}
330
1E4BB01CF6
100
AcDbVisualStyle
  2
OverhangOff
 70
    21
177
     2
291
     1
 71
     2
176
     0
 72
     2
176
     0
 73
     0
176
     0
 90
        0
176
     0
 40
0.6
176
     0
 41
30.0
176
     0
 62
     5
 63
     7
421
 16777215
176
     0
 74
     1
176
     0
 91
        4
176
     0
 64
     7
176
     0
 65
   257
176
     0
 75
     1
176
     0
175
     1
176
     0
 42
1.0
176
     0
 92
        9
176
     2
 66
     7
176
     0
 43
1.0
176
     0
 76
     1
176
     0
 77
     6
176
     0
 78
     2
176
     0
 67
     7
176
     0
 79
     5
176
     0
170
     0
176
     0
171
     0
176
     0
290
     0
176
     0
 93
        1
176
     0
 44
0.0
176
     0
173
     0
176
     0
  0
VISUALSTYLE
  5
1E4BB01CFF
102
{ACAD_REACTORS
330
1E4BB01CF6
102
}
330
1E4BB01CF6
100
AcDbVisualStyle
  2
Realistic
 70
     8
177
     2
291
     0
 71
     2
176
     1
 72
     3
176
     1
 73
     0
176
     1
 90
        2
176
     1
 40
0.6
176
     1
 41
30.0
176
     1
 62
     5
 63
     7
421
 16777215
176
     1
 74
     0
176
     1
 91
        0
176
     1
 64
     7
176
     1
 65
   257
176
     1
 75
     1
176
     1
175
     1
176
     1
 42
1.0
176
     1
 92
        8
176
     1
 66
   257
176
     1
 43
1.0
176
     1
 76
     1
176
     1
 77
     6
176
     1
 78
     2
176
     1
 67
     7
176
     1
 79
     3
176
     1
170
     0
176
     1
171
     0
176
     1
290
     0
176
     1
 93
       13
176
     1
 44
0.0
176
     1
173
     0
176
     1
  0
VISUALSTYLE
  5
1E4BB01D0E
102
{ACAD_REACTORS
330
1E4BB01CF6
102
}
330
1E4BB01CF6
100
AcDbVisualStyle
  2
Shaded
 70
    27
177
     2
291
     0
 71
     2
176
     1
 72
     2
176
     1
 73
     1
176
     1
 90
        2
176
     1
 40
0.6
176
     1
 41
30.0
176
     1
 62
     5
 63
     7
421
 16777215
176
     1
 74
     0
176
     1
 91
        4
176
     1
 64
     7
176
     1
 65
   257
176
     1
 75
     1
176
     1
175
     1
176
     1
 42
1.0
176
     1
 92
        8
176
     1
 66
   257
176
     1
 43
1.0
176
     1
 76
     1
176
     1
 77
     6
176
     1
 78
     2
176
     1
 67
     8
425
  7895160
176
     1
 79
     3
176
     1
170
     0
176
     1
171
     0
176
     1
290
     0
176
     1
 93
        5
176
     1
 44
0.0
176
     1
173
     0
176
     1
  0
VISUALSTYLE
  5
1E4BB01D0D
102
{ACAD_REACTORS
330
1E4BB01CF6
102
}
330
1E4BB01CF6
100
AcDbVisualStyle
  2
Shaded with edges
 70
    26
177
     2
291
     0
 71
     2
176
     1
 72
     2
176
     1
 73
     1
176
     1
 90
        2
176
     1
 40
0.6
176
     1
 41
30.0
176
     1
 62
     5
 63
     7
421
 16777215
176
     1
 74
     1
176
     1
 91
       10
176
     1
 64
     7
176
     1
 65
   257
176
     1
 75
     2
176
     1
175
     1
176
     1
 42
1.0
176
     1
 92
        8
176
     1
 66
   257
176
     1
 43
1.0
176
     1
 76
     1
176
     1
 77
     6
176
     1
 78
     2
176
     1
 67
     7
176
     1
 79
     3
176
     1
170
     0
176
     1
171
     0
176
     1
290
     0
176
     1
 93
        5
176
     1
 44
0.0
176
     1
173
     0
176
     1
  0
VISUALSTYLE
  5
1E4BB01D0A
102
{ACAD_REACTORS
330
1E4BB01CF6
102
}
330
1E4BB01CF6
100
AcDbVisualStyle
  2
Shades of Gray
 70
    23
177
     2
291
     0
 71
     2
176
     1
 72
     2
176
     1
 73
     3
176
     1
 90
        0
176
     1
 40
0.6
176
     1
 41
30.0
176
     1
 62
     5
 63
     7
421
 16777215
176
     1
 74
     2
176
     1
 91
        2
176
     1
 64
     7
176
     1
 65
     7
176
     1
 75
     1
176
     1
175
     1
176
     1
 42
40.0
176
     1
 92
        8
176
     1
 66
     7
176
     1
 43
1.0
176
     1
 76
     1
176
     1
 77
     6
176
     1
 78
     2
176
     1
 67
     7
176
     1
 79
     3
176
     1
170
     0
176
     1
171
     0
176
     1
290
     0
176
     1
 93
        1
176
     1
 44
0.0
176
     1
173
     0
176
     1
  0
VISUALSTYLE
  5
1E4BB01D0B
102
{ACAD_REACTORS
330
1E4BB01CF6
102
}
330
1E4BB01CF6
100
AcDbVisualStyle
  2
Sketchy
 70
    24
177
     2
291
     0
 71
     1
176
     1
 72
     2
176
     1
 73
     2
176
     1
 90
        0
176
     1
 40
0.6
176
     1
 41
30.0
176
     1
 62
     5
 63
     7
421
 16777215
176
     1
 74
     2
176
     1
 91
        2
176
     1
 64
     7
176
     1
 65
     7
176
     1
 75
     1
176
     1
175
     1
176
     1
 42
40.0
176
     1
 92
       11
176
     1
 66
     7
176
     1
 43
1.0
176
     1
 76
     1
176
     1
 77
     6
176
     1
 78
     2
176
     1
 67
     7
176
     1
 79
     6
176
     1
170
     0
176
     1
171
     0
176
     1
290
     0
176
     1
 93
        1
176
     1
 44
0.0
176
     1
173
     0
176
     1
  0
VISUALSTYLE
  5
1E4BB01D03
102
{ACAD_REACTORS
330
1E4BB01CF6
102
}
330
1E4BB01CF6
100
AcDbVisualStyle
  2
Thicken
 70
    13
177
     2
291
     1
 71
     2
176
     1
 72
     2
176
     1
 73
     0
176
     1
 90
        0
176
     1
 40
0.6
176
     1
 41
30.0
176
     1
 62
     5
 63
     7
421
 16777215
176
     1
 74
     1
176
     1
 91
        4
176
     1
 64
     7
176
     1
 65
   257
176
     1
 75
     1
176
     1
175
     1
176
     1
 42
1.0
176
     1
 92
       12
176
     1
 66
     7
176
     1
 43
1.0
176
     1
 76
     1
176
     1
 77
     6
176
     1
 78
     2
176
     1
 67
     7
176
     1
 79
     5
176
     1
170
     0
176
     1
171
     0
176
     1
290
     0
176
     1
 93
        1
176
     1
 44
0.0
176
     1
173
     0
176
     1
  0
VISUALSTYLE
  5
1E4BB01CFC
102
{ACAD_REACTORS
330
1E4BB01CF6
102
}
330
1E4BB01CF6
100
AcDbVisualStyle
  2
Wireframe
 70
     5
177
     2
291
     0
 71
     0
176
     1
 72
     2
176
     1
 73
     0
176
     1
 90
        0
176
     1
 40
0.6
176
     1
 41
30.0
176
     1
 62
     5
 63
     7
421
 16777215
176
     1
 74
     1
176
     1
 91
        4
176
     1
 64
     7
176
     1
 65
   257
176
     1
 75
     1
176
     1
175
     1
176
     1
 42
1.0
176
     1
 92
        0
176
     1
 66
   257
176
     1
 43
1.0
176
     1
 76
     1
176
     1
 77
     6
176
     1
 78
     2
176
     1
 67
     7
176
     1
 79
     3
176
     1
170
     0
176
     1
171
     0
176
     1
290
     0
176
     1
 93
        1
176
     1
 44
0.0
176
     1
173
     0
176
     1
  0
VISUALSTYLE
  5
1E4BB01D0C
102
{ACAD_REACTORS
330
1E4BB01CF6
102
}
330
1E4BB01CF6
100
AcDbVisualStyle
  2
X-Ray
 70
    25
177
     2
291
     0
 71
     2
176
     1
 72
     2
176
     1
 73
     1
176
     1
 90
        1
176
     1
 40
0.5
176
     1
 41
30.0
176
     1
 62
     5
 63
     7
421
 16777215
176
     1
 74
     1
176
     1
 91
        0
176
     1
 64
     7
176
     1
 65
   257
176
     1
 75
     1
176
     1
175
     1
176
     1
 42
1.0
176
     1
 92
        8
176
     1
 66
     7
176
     1
 43
1.0
176
     1
 76
     1
176
     1
 77
     6
176
     1
 78
     2
176
     1
 67
     7
176
     1
 79
     3
176
     1
170
     0
176
     1
171
     0
176
     1
290
     0
176
     1
 93
       13
176
     1
 44
0.0
176
     1
173
     0
176
     1
  0
DICTIONARYVAR
  5
1E4BB01D3A
102
{ACAD_REACTORS
330
1E4BABBC1C
102
}
330
1E4BABBC1C
100
DictionaryVariables
280
     0
  1
1:1
  0
DICTIONARYVAR
  5
1E4BB01D3C
102
{ACAD_REACTORS
330
1E4BABBC1C
102
}
330
1E4BABBC1C
100
DictionaryVariables
280
     0
  1
Standard
  0
DICTIONARYVAR
  5
1E4BB01D3B
102
{ACAD_REACTORS
330
1E4BABBC1C
102
}
330
1E4BABBC1C
100
DictionaryVariables
280
     0
  1
Standard
  0
DICTIONARYVAR
  5
1E4BABC0A8
102
{ACAD_REACTORS
330
1E4BABBC1C
102
}
330
1E4BABBC1C
100
DictionaryVariables
280
     0
  1
0
  0
DICTIONARYVAR
  5
1E4BB01D3D
102
{ACAD_REACTORS
330
1E4BABBC1C
102
}
330
1E4BABBC1C
100
DictionaryVariables
280
     0
  1
0
  0
DICTIONARYVAR
  5
1E4BABBC1D
102
{ACAD_REACTORS
330
1E4BABBC1C
102
}
330
1E4BABBC1C
100
DictionaryVariables
280
     0
  1
96
  0
XRECORD
  5
1E4BABC0B5
102
{ACAD_REACTORS
330
1E4BABC0B4
102
}
330
1E4BABC0B4
100
AcDbXrecord
280
     1
  1
0
  1
*-0
  1
*
  1
*
 70
     0
  1
*
  1
*
  0
XRECORD
  5
1E4BABC0B6
102
{ACAD_REACTORS
330
1E4BABC0B4
102
}
330
1E4BABC0B4
100
AcDbXrecord
280
     1
  1
0-0
  1
*-0
  1
*
  1
*
 70
     0
  1
*
  1
*
  0
XRECORD
  5
1E4BABC0D4
102
{ACAD_REACTORS
330
1E4BABC0B4
102
}
330
1E4BABC0B4
100
AcDbXrecord
280
     1
  1
０画層
  1
*-0
  1
*
  1
*
 70
     0
  1
*
  1
*
  0
XRECORD
  5
1E4BABC0B7
102
{ACAD_REACTORS
330
1E4BABC0B4
102
}
330
1E4BABC0B4
100
AcDbXrecord
280
     1
  1
10画層
  1
*-10
  1
*
  1
*
 70
     0
  1
*
  1
*
  0
XRECORD
  5
1E4BABC0B8
102
{ACAD_REACTORS
330
1E4BABC0B4
102
}
330
1E4BABC0B4
100
AcDbXrecord
280
     1
  1
2
  1
*-2
  1
*
  1
*
 70
     0
  1
*
  1
*
  0
XRECORD
  5
1E4BABC0B9
102
{ACAD_REACTORS
330
1E4BABC0B4
102
}
330
1E4BABC0B4
100
AcDbXrecord
280
     1
  1
3
  1
*-3
  1
*
  1
*
 70
     0
  1
*
  1
*
  0
XRECORD
  5
1E4BABC0BA
102
{ACAD_REACTORS
330
1E4BABC0B4
102
}
330
1E4BABC0B4
100
AcDbXrecord
280
     1
  1
3A
  1
*-3A
  1
*
  1
*
 70
     0
  1
*
  1
*
  0
XRECORD
  5
1E4BABC0D5
102
{ACAD_REACTORS
330
1E4BABC0B4
102
}
330
1E4BABC0B4
100
AcDbXrecord
280
     1
  1
３A画層
  1
*-3A
  1
*
  1
*
 70
     0
  1
*
  1
*
  0
XRECORD
  5
1E4BABC0D6
102
{ACAD_REACTORS
330
1E4BABC0B4
102
}
330
1E4BABC0B4
100
AcDbXrecord
280
     1
  1
３画層
  1
*-3
  1
*
  1
*
 70
     0
  1
*
  1
*
  0
XRECORD
  5
1E4BABC0BB
102
{ACAD_REACTORS
330
1E4BABC0B4
102
}
330
1E4BABC0B4
100
AcDbXrecord
280
     1
  1
4
  1
*-4
  1
*
  1
*
 70
     0
  1
*
  1
*
  0
XRECORD
  5
1E4BABC0BC
102
{ACAD_REACTORS
330
1E4BABC0B4
102
}
330
1E4BABC0B4
100
AcDbXrecord
280
     1
  1
5画層
  1
*-5
  1
*
  1
*
 70
     0
  1
*
  1
*
  0
XRECORD
  5
1E4BABC0BD
102
{ACAD_REACTORS
330
1E4BABC0B4
102
}
330
1E4BABC0B4
100
AcDbXrecord
280
     1
  1
6画層
  1
*-6
  1
*
  1
*
 70
     0
  1
*
  1
*
  0
XRECORD
  5
1E4BABC0BE
102
{ACAD_REACTORS
330
1E4BABC0B4
102
}
330
1E4BABC0B4
100
AcDbXrecord
280
     1
  1
7
  1
*-7*
  1
*
  1
*
 70
     0
  1
*
  1
*
  0
XRECORD
  5
1E4BABC0BF
102
{ACAD_REACTORS
330
1E4BABC0B4
102
}
330
1E4BABC0B4
100
AcDbXrecord
280
     1
  1
7a画層
  1
*-7a
  1
*
  1
*
 70
     0
  1
*
  1
*
  0
XRECORD
  5
1E4BABC0C0
102
{ACAD_REACTORS
330
1E4BABC0B4
102
}
330
1E4BABC0B4
100
AcDbXrecord
280
     1
  1
8
  1
*-8,8
  1
*
  1
*
 70
     0
  1
*
  1
*
  0
XRECORD
  5
1E4BABC0C1
102
{ACAD_REACTORS
330
1E4BABC0B4
102
}
330
1E4BABC0B4
100
AcDbXrecord
280
     1
  1
ASYST
  1
ASYST*
  1
*
  1
*
 70
     0
  1
*
  1
*
  0
XRECORD
  5
1E4BABC0C2
102
{ACAD_REACTORS
330
1E4BABC0B4
102
}
330
1E4BABC0B4
100
AcDbXrecord
280
     1
  1
ASYST PHASE 1
  1
A1.0-8$0$ASYT*
  1
*
  1
*
 70
     0
  1
*
  1
*
  0
XRECORD
  5
1E4BABC0C3
102
{ACAD_REACTORS
330
1E4BABC0B4
102
}
330
1E4BABC0B4
100
AcDbXrecord
280
     1
  1
ASYST PHASE 2
  1
A2.0-8$0$ASYT*
  1
*
  1
*
 70
     0
  1
*
  1
*
  0
XRECORD
  5
1E4BABC0C4
102
{ACAD_REACTORS
330
1E4BABC0B4
102
}
330
1E4BABC0B4
100
AcDbXrecord
280
     1
  1
cap-0
  1
*
  1
*
  1
*
 70
     0
  1
*
  1
*
  0
XRECORD
  5
1E4BABC0C5
102
{ACAD_REACTORS
330
1E4BABC0B4
102
}
330
1E4BABC0B4
100
AcDbXrecord
280
     1
  1
dims
  1
*di*
  1
*
  1
*
 70
     0
  1
*
  1
*
  0
XRECORD
  5
1E4BABC0C6
102
{ACAD_REACTORS
330
1E4BABC0B4
102
}
330
1E4BABC0B4
100
AcDbXrecord
280
     1
  1
elec
  1
e-*
  1
*
  1
*
 70
     0
  1
*
  1
*
  0
XRECORD
  5
1E4BABC0C7
102
{ACAD_REACTORS
330
1E4BABC0B4
102
}
330
1E4BABC0B4
100
AcDbXrecord
280
     1
  1
ELECTRICAL
  1
E-*
  1
*
  1
*
 70
     0
  1
*
  1
*
  0
XRECORD
  5
1E4BABC0C8
102
{ACAD_REACTORS
330
1E4BABC0B4
102
}
330
1E4BABC0B4
100
AcDbXrecord
280
     1
  1
F
  1
*
  1
*
  1
*
 70
     0
  1
*
  1
*
  0
XRECORD
  5
1E4BABC0C9
102
{ACAD_REACTORS
330
1E4BABC0B4
102
}
330
1E4BABC0B4
100
AcDbXrecord
280
     1
  1
Frame
  1
F*
  1
*
  1
*
 70
     0
  1
*
  1
*
  0
XRECORD
  5
1E4BABC0CA
102
{ACAD_REACTORS
330
1E4BABC0B4
102
}
330
1E4BABC0B4
100
AcDbXrecord
280
     1
  1
FROZEN
  1
*
  1
*
  1
*
 70
     4
  1
*
  1
*
  0
XRECORD
  5
1E4BABC0CB
102
{ACAD_REACTORS
330
1E4BABC0B4
102
}
330
1E4BABC0B4
100
AcDbXrecord
280
     1
  1
FROZEN ACTIVE
  1
*
  1
*
  1
*
 70
    16
  1
*
  1
*
  0
XRECORD
  5
1E4BABC0CC
102
{ACAD_REACTORS
330
1E4BABC0B4
102
}
330
1E4BABC0B4
100
AcDbXrecord
280
     1
  1
jiku-0
  1
*
  1
*
  1
*
 70
     0
  1
*
  1
*
  0
XRECORD
  5
1E4BABC0CD
102
{ACAD_REACTORS
330
1E4BABC0B4
102
}
330
1E4BABC0B4
100
AcDbXrecord
280
     1
  1
MP
  1
MP_*
  1
*
  1
*
 70
     0
  1
*
  1
*
  0
XRECORD
  5
1E4BABC0CE
102
{ACAD_REACTORS
330
1E4BABC0B4
102
}
330
1E4BABC0B4
100
AcDbXrecord
280
     1
  1
MPR
  1
MPR*
  1
*
  1
*
 70
     0
  1
*
  1
*
  0
XRECORD
  5
1E4BABC0CF
102
{ACAD_REACTORS
330
1E4BABC0B4
102
}
330
1E4BABC0B4
100
AcDbXrecord
280
     1
  1
p-
  1
p-*
  1
*
  1
*
 70
     0
  1
*
  1
*
  0
XRECORD
  5
1E4BABC0D0
102
{ACAD_REACTORS
330
1E4BABC0B4
102
}
330
1E4BABC0B4
100
AcDbXrecord
280
     1
  1
ST
  1
ST_*
  1
*
  1
*
 70
     0
  1
*
  1
*
  0
XRECORD
  5
1E4BABC0D1
102
{ACAD_REACTORS
330
1E4BABC0B4
102
}
330
1E4BABC0B4
100
AcDbXrecord
280
     1
  1
TC
  1
TC_*,0N
  1
*
  1
*
 70
     0
  1
*
  1
*
  0
XRECORD
  5
1E4BABC0D2
102
{ACAD_REACTORS
330
1E4BABC0B4
102
}
330
1E4BABC0B4
100
AcDbXrecord
280
     1
  1
TEXT
  1
TEXT
  1
*
  1
*
 70
     0
  1
*
  1
*
  0
XRECORD
  5
1E4BABC0D3
102
{ACAD_REACTORS
330
1E4BABC0B4
102
}
330
1E4BABC0B4
100
AcDbXrecord
280
     1
  1
ｹｰﾌﾞﾙ図
  1
*
  1
*
  1
*
 70
     0
  1
*
  1
*
  0
DICTIONARY
  5
1E4BB01D40
330
1E4BB01D36
100
AcDbDictionary
280
     1
281
     1
  3
ACAD_ROUNDTRIP_2008_TABLESTYLE_CELLSTYLEMAP
360
1E4BB01D41
  0
CELLSTYLEMAP
  5
1E4BB01D41
102
{ACAD_REACTORS
330
1E4BB01D40
102
}
330
1E4BB01D40
100
AcDbCellStyleMap
 90
        3
300
CELLSTYLE
  1
TABLEFORMAT_BEGIN
 90
        5
170
     1
 91
        0
 92
    32768
 62
   257
 93
        1
300
CONTENTFORMAT
  1
CONTENTFORMAT_BEGIN
 90
        0
 91
        0
 92
        4
 93
        0
300

 40
0.0
140
1.0
 94
        5
 62
     0
340
1E4BABA58B
144
0.25
309
CONTENTFORMAT_END
171
     1
301
MARGIN
  1
CELLMARGIN_BEGIN
 40
0.06
 40
0.06
 40
0.06
 40
0.06
 40
0.06
 40
0.06
309
CELLMARGIN_END
 94
        6
 95
        1
302
GRIDFORMAT
  1
GRIDFORMAT_BEGIN
 90
        0
 91
        1
 62
     0
 92
       -2
340
1E4BABA58D
 93
        0
 40
0.045
309
GRIDFORMAT_END
 95
        2
302
GRIDFORMAT
  1
GRIDFORMAT_BEGIN
 90
        0
 91
        1
 62
     0
 92
       -2
340
1E4BABA58D
 93
        0
 40
0.045
309
GRIDFORMAT_END
 95
        4
302
GRIDFORMAT
  1
GRIDFORMAT_BEGIN
 90
        0
 91
        1
 62
     0
 92
       -2
340
1E4BABA58D
 93
        0
 40
0.045
309
GRIDFORMAT_END
 95
        8
302
GRIDFORMAT
  1
GRIDFORMAT_BEGIN
 90
        0
 91
        1
 62
     0
 92
       -2
340
1E4BABA58D
 93
        0
 40
0.045
309
GRIDFORMAT_END
 95
       16
302
GRIDFORMAT
  1
GRIDFORMAT_BEGIN
 90
        0
 91
        1
 62
     0
 92
       -2
340
1E4BABA58D
 93
        0
 40
0.045
309
GRIDFORMAT_END
 95
       32
302
GRIDFORMAT
  1
GRIDFORMAT_BEGIN
 90
        0
 91
        1
 62
     0
 92
       -2
340
1E4BABA58D
 93
        0
 40
0.045
309
GRIDFORMAT_END
309
TABLEFORMAT_END
  1
CELLSTYLE_BEGIN
 90
        1
 91
        1
300
_TITLE
309
CELLSTYLE_END
300
CELLSTYLE
  1
TABLEFORMAT_BEGIN
 90
        5
170
     1
 91
        0
 92
        0
 62
   257
 93
        1
300
CONTENTFORMAT
  1
CONTENTFORMAT_BEGIN
 90
        0
 91
        0
 92
        4
 93
        0
300

 40
0.0
140
1.0
 94
        5
 62
     0
340
1E4BABA58B
144
0.18
309
CONTENTFORMAT_END
171
     1
301
MARGIN
  1
CELLMARGIN_BEGIN
 40
0.06
 40
0.06
 40
0.06
 40
0.06
 40
0.06
 40
0.06
309
CELLMARGIN_END
 94
        6
 95
        1
302
GRIDFORMAT
  1
GRIDFORMAT_BEGIN
 90
        0
 91
        1
 62
     0
 92
       -2
340
1E4BABA58D
 93
        0
 40
0.045
309
GRIDFORMAT_END
 95
        2
302
GRIDFORMAT
  1
GRIDFORMAT_BEGIN
 90
        0
 91
        1
 62
     0
 92
       -2
340
1E4BABA58D
 93
        0
 40
0.045
309
GRIDFORMAT_END
 95
        4
302
GRIDFORMAT
  1
GRIDFORMAT_BEGIN
 90
        0
 91
        1
 62
     0
 92
       -2
340
1E4BABA58D
 93
        0
 40
0.045
309
GRIDFORMAT_END
 95
        8
302
GRIDFORMAT
  1
GRIDFORMAT_BEGIN
 90
        0
 91
        1
 62
     0
 92
       -2
340
1E4BABA58D
 93
        0
 40
0.045
309
GRIDFORMAT_END
 95
       16
302
GRIDFORMAT
  1
GRIDFORMAT_BEGIN
 90
        0
 91
        1
 62
     0
 92
       -2
340
1E4BABA58D
 93
        0
 40
0.045
309
GRIDFORMAT_END
 95
       32
302
GRIDFORMAT
  1
GRIDFORMAT_BEGIN
 90
        0
 91
        1
 62
     0
 92
       -2
340
1E4BABA58D
 93
        0
 40
0.045
309
GRIDFORMAT_END
309
TABLEFORMAT_END
  1
CELLSTYLE_BEGIN
 90
        2
 91
        1
300
_HEADER
309
CELLSTYLE_END
300
CELLSTYLE
  1
TABLEFORMAT_BEGIN
 90
        5
170
     1
 91
        0
 92
        0
 62
   257
 93
        1
300
CONTENTFORMAT
  1
CONTENTFORMAT_BEGIN
 90
        0
 91
        0
 92
        4
 93
        0
300

 40
0.0
140
1.0
 94
        2
 62
     0
340
1E4BABA58B
144
0.18
309
CONTENTFORMAT_END
171
     1
301
MARGIN
  1
CELLMARGIN_BEGIN
 40
0.06
 40
0.06
 40
0.06
 40
0.06
 40
0.06
 40
0.06
309
CELLMARGIN_END
 94
        6
 95
        1
302
GRIDFORMAT
  1
GRIDFORMAT_BEGIN
 90
        0
 91
        1
 62
     0
 92
       -2
340
1E4BABA58D
 93
        0
 40
0.045
309
GRIDFORMAT_END
 95
        2
302
GRIDFORMAT
  1
GRIDFORMAT_BEGIN
 90
        0
 91
        1
 62
     0
 92
       -2
340
1E4BABA58D
 93
        0
 40
0.045
309
GRIDFORMAT_END
 95
        4
302
GRIDFORMAT
  1
GRIDFORMAT_BEGIN
 90
        0
 91
        1
 62
     0
 92
       -2
340
1E4BABA58D
 93
        0
 40
0.045
309
GRIDFORMAT_END
 95
        8
302
GRIDFORMAT
  1
GRIDFORMAT_BEGIN
 90
        0
 91
        1
 62
     0
 92
       -2
340
1E4BABA58D
 93
        0
 40
0.045
309
GRIDFORMAT_END
 95
       16
302
GRIDFORMAT
  1
GRIDFORMAT_BEGIN
 90
        0
 91
        1
 62
     0
 92
       -2
340
1E4BABA58D
 93
        0
 40
0.045
309
GRIDFORMAT_END
 95
       32
302
GRIDFORMAT
  1
GRIDFORMAT_BEGIN
 90
        0
 91
        1
 62
     0
 92
       -2
340
1E4BABA58D
 93
        0
 40
0.045
309
GRIDFORMAT_END
309
TABLEFORMAT_END
  1
CELLSTYLE_BEGIN
 90
        3
 91
        2
300
_DATA
309
CELLSTYLE_END
  0
ENDSEC
  0
EOF
