  0
SECTION
  2
HEADER
  9
$ACADVER
  1
AC1024
  9
$ACADMAINTVER
 70
     6
  9
$DWGCODEPAGE
  3
ANSI_932
  9
$LASTSAVEDBY
  1
senju
  9
$INSBASE
 10
0.0
 20
0.0
 30
0.0
  9
$EXTMIN
 10
3542.443832408066
 20
8569.48121379703
 30
0.0
  9
$EXTMAX
 10
4628.443828064066
 20
9388.48121379703
 30
960.208308198174
  9
$LIMMIN
 10
3542.443832408066
 20
8569.48121379703
  9
$LIMMAX
 10
4628.443828064066
 20
9388.48121379703
  9
$ORTHOMODE
 70
     1
  9
$REGENMODE
 70
     1
  9
$FILLMODE
 70
     1
  9
$QTEXTMODE
 70
     0
  9
$MIRRTEXT
 70
     0
  9
$LTSCALE
 40
5.0
  9
$ATTMODE
 70
     1
  9
$TEXTSIZE
 40
3.0
  9
$TRACEWID
 40
0.05
  9
$TEXTSTYLE
  7
K
  9
$CLAYER
  8
SUNPOU
  9
$CELTYPE
  6
BYLAYER
  9
$CECOLOR
 62
   256
  9
$CELTSCALE
 40
1.0
  9
$DISPSILH
 70
     0
  9
$DIMSCALE
 40
3.0
  9
$DIMASZ
 40
1.5
  9
$DIMEXO
 40
1.0
  9
$DIMDLI
 40
6.0
  9
$DIMRND
 40
0.0
  9
$DIMDLE
 40
0.0
  9
$DIMEXE
 40
1.0
  9
$DIMTP
 40
0.0
  9
$DIMTM
 40
0.0
  9
$DIMTXT
 40
3.0
  9
$DIMCEN
 40
1.0
  9
$DIMTSZ
 40
0.0
  9
$DIMTOL
 70
     0
  9
$DIMLIM
 70
     0
  9
$DIMTIH
 70
     0
  9
$DIMTOH
 70
     0
  9
$DIMSE1
 70
     0
  9
$DIMSE2
 70
     0
  9
$DIMTAD
 70
     3
  9
$DIMZIN
 70
     8
  9
$DIMBLK
  1
ARROW
  9
$DIMASO
 70
     0
  9
$DIMSHO
 70
     0
  9
$DIMPOST
  1

  9
$DIMAPOST
  1

  9
$DIMALT
 70
     0
  9
$DIMALTD
 70
     2
  9
$DIMALTF
 40
25.4
  9
$DIMLFAC
 40
1.0
  9
$DIMTOFL
 70
     1
  9
$DIMTVP
 40
0.0
  9
$DIMTIX
 70
     0
  9
$DIMSOXD
 70
     0
  9
$DIMSAH
 70
     0
  9
$DIMBLK1
  1

  9
$DIMBLK2
  1

  9
$DIMSTYLE
  2
IMAO
  9
$DIMCLRD
 70
   256
  9
$DIMCLRE
 70
   256
  9
$DIMCLRT
 70
   256
  9
$DIMTFAC
 40
1.0
  9
$DIMGAP
 40
1.0
  9
$DIMJUST
 70
     0
  9
$DIMSD1
 70
     0
  9
$DIMSD2
 70
     0
  9
$DIMTOLJ
 70
     1
  9
$DIMTZIN
 70
     8
  9
$DIMALTZ
 70
     8
  9
$DIMALTTZ
 70
     8
  9
$DIMUPT
 70
     0
  9
$DIMDEC
 70
     2
  9
$DIMTDEC
 70
     2
  9
$DIMALTU
 70
     2
  9
$DIMALTTD
 70
     2
  9
$DIMTXSTY
  7
K
  9
$DIMAUNIT
 70
     0
  9
$DIMADEC
 70
     0
  9
$DIMALTRND
 40
0.0
  9
$DIMAZIN
 70
     0
  9
$DIMDSEP
 70
    46
  9
$DIMATFIT
 70
     3
  9
$DIMFRAC
 70
     0
  9
$DIMLDRBLK
  1
ARROW
  9
$DIMLUNIT
 70
     2
  9
$DIMLWD
 70
    -2
  9
$DIMLWE
 70
    -2
  9
$DIMTMOVE
 70
     2
  9
$DIMFXL
 40
1.0
  9
$DIMFXLON
 70
     0
  9
$DIMJOGANG
 40
0.7853981633974483
  9
$DIMTFILL
 70
     0
  9
$DIMTFILLCLR
 70
     0
  9
$DIMARCSYM
 70
     0
  9
$DIMLTYPE
  6

  9
$DIMLTEX1
  6

  9
$DIMLTEX2
  6

  9
$DIMTXTDIRECTION
 70
     0
  9
$LUNITS
 70
     2
  9
$LUPREC
 70
     2
  9
$SKETCHINC
 40
0.1
  9
$FILLETRAD
 40
5.0
  9
$AUNITS
 70
     0
  9
$AUPREC
 70
     2
  9
$MENU
  1
stdr12j
  9
$ELEVATION
 40
0.0
  9
$PELEVATION
 40
0.0
  9
$THICKNESS
 40
0.0
  9
$LIMCHECK
 70
     0
  9
$CHAMFERA
 40
0.0
  9
$CHAMFERB
 40
0.0
  9
$CHAMFERC
 40
0.0
  9
$CHAMFERD
 40
0.0
  9
$SKPOLY
 70
     0
  9
$TDCREATE
 40
2450546.677632974
  9
$TDUCREATE
 40
2450546.302632974
  9
$TDUPDATE
 40
2460080.68245684
  9
$TDUUPDATE
 40
2460080.30745684
  9
$TDINDWG
 40
1.5139603009
  9
$TDUSRTIMER
 40
0.0002078588
  9
$USRTIMER
 70
     1
  9
$ANGBASE
 50
0.0
  9
$ANGDIR
 70
     0
  9
$PDMODE
 70
     0
  9
$PDSIZE
 40
0.0
  9
$PLINEWID
 40
0.0
  9
$SPLFRAME
 70
     0
  9
$SPLINETYPE
 70
     6
  9
$SPLINESEGS
 70
     8
  9
$HANDSEED
  5
1E4BB01D65
  9
$SURFTAB1
 70
     6
  9
$SURFTAB2
 70
     6
  9
$SURFTYPE
 70
     6
  9
$SURFU
 70
     6
  9
$SURFV
 70
     6
  9
$UCSBASE
  2

  9
$UCSNAME
  2

  9
$UCSORG
 10
0.0
 20
0.0
 30
0.0
  9
$UCSXDIR
 10
1.0
 20
0.0
 30
0.0
  9
$UCSYDIR
 10
0.0
 20
1.0
 30
0.0
  9
$UCSORTHOREF
  2

  9
$UCSORTHOVIEW
 70
     0
  9
$UCSORGTOP
 10
0.0
 20
0.0
 30
0.0
  9
$UCSORGBOTTOM
 10
0.0
 20
0.0
 30
0.0
  9
$UCSORGLEFT
 10
0.0
 20
0.0
 30
0.0
  9
$UCSORGRIGHT
 10
0.0
 20
0.0
 30
0.0
  9
$UCSORGFRONT
 10
0.0
 20
0.0
 30
0.0
  9
$UCSORGBACK
 10
0.0
 20
0.0
 30
0.0
  9
$PUCSBASE
  2

  9
$PUCSNAME
  2

  9
$PUCSORG
 10
0.0
 20
0.0
 30
0.0
  9
$PUCSXDIR
 10
1.0
 20
0.0
 30
0.0
  9
$PUCSYDIR
 10
0.0
 20
1.0
 30
0.0
  9
$PUCSORTHOREF
  2

  9
$PUCSORTHOVIEW
 70
     0
  9
$PUCSORGTOP
 10
0.0
 20
0.0
 30
0.0
  9
$PUCSORGBOTTOM
 10
0.0
 20
0.0
 30
0.0
  9
$PUCSORGLEFT
 10
0.0
 20
0.0
 30
0.0
  9
$PUCSORGRIGHT
 10
0.0
 20
0.0
 30
0.0
  9
$PUCSORGFRONT
 10
0.0
 20
0.0
 30
0.0
  9
$PUCSORGBACK
 10
0.0
 20
0.0
 30
0.0
  9
$USERI1
 70
     4
  9
$USERI2
 70
     1
  9
$USERI3
 70
     1
  9
$USERI4
 70
     0
  9
$USERI5
 70
     0
  9
$USERR1
 40
1.0
  9
$USERR2
 40
3.0
  9
$USERR3
 40
3.0
  9
$USERR4
 40
1.5
  9
$USERR5
 40
6.0
  9
$WORLDVIEW
 70
     1
  9
$SHADEDGE
 70
     3
  9
$SHADEDIF
 70
    70
  9
$TILEMODE
 70
     1
  9
$MAXACTVP
 70
    16
  9
$PINSBASE
 10
0.0
 20
0.0
 30
0.0
  9
$PLIMCHECK
 70
     0
  9
$PEXTMIN
 10
1.000000000000000E+20
 20
1.000000000000000E+20
 30
1.000000000000000E+20
  9
$PEXTMAX
 10
-1.000000000000000E+20
 20
-1.000000000000000E+20
 30
-1.000000000000000E+20
  9
$PLIMMIN
 10
0.0
 20
0.0
  9
$PLIMMAX
 10
0.0
 20
0.0
  9
$UNITMODE
 70
     0
  9
$VISRETAIN
 70
     0
  9
$PLINEGEN
 70
     0
  9
$PSLTSCALE
 70
     0
  9
$TREEDEPTH
 70
  3020
  9
$CMLSTYLE
  2
STANDARD
  9
$CMLJUST
 70
     0
  9
$CMLSCALE
 40
1.0
  9
$PROXYGRAPHICS
 70
     1
  9
$MEASUREMENT
 70
     0
  9
$CELWEIGHT
370
    -1
  9
$ENDCAPS
280
     0
  9
$JOINSTYLE
280
     0
  9
$LWDISPLAY
290
     0
  9
$INSUNITS
 70
     0
  9
$HYPERLINKBASE
  1

  9
$STYLESHEET
  1
aclt.ctb
  9
$XEDIT
290
     1
  9
$CEPSNTYPE
380
     0
  9
$PSTYLEMODE
290
     1
  9
$FINGERPRINTGUID
  2
{2B5CC9FE-05CB-4FCE-8532-81E7116E6531}
  9
$VERSIONGUID
  2
{AF96D280-F201-4CEA-A214-2AC44D8235C2}
  9
$EXTNAMES
290
     1
  9
$PSVPSCALE
 40
0.0
  9
$OLESTARTUP
290
     0
  9
$SORTENTS
280
    96
  9
$INDEXCTL
280
     0
  9
$HIDETEXT
280
     1
  9
$XCLIPFRAME
280
     2
  9
$HALOGAP
280
     0
  9
$OBSCOLOR
 70
   257
  9
$OBSLTYPE
280
     0
  9
$INTERSECTIONDISPLAY
280
     0
  9
$INTERSECTIONCOLOR
 70
   257
  9
$DIMASSOC
280
     0
  9
$PROJECTNAME
  1

  9
$CAMERADISPLAY
290
     0
  9
$LENSLENGTH
 40
50.0
  9
$CAMERAHEIGHT
 40
0.0
  9
$STEPSPERSEC
 40
2.0
  9
$STEPSIZE
 40
6.0
  9
$3DDWFPREC
 40
2.0
  9
$PSOLWIDTH
 40
0.25
  9
$PSOLHEIGHT
 40
4.0
  9
$LOFTANG1
 40
1.570796326794897
  9
$LOFTANG2
 40
1.570796326794897
  9
$LOFTMAG1
 40
0.0
  9
$LOFTMAG2
 40
0.0
  9
$LOFTPARAM
 70
     7
  9
$LOFTNORMALS
280
     1
  9
$LATITUDE
 40
37.795
  9
$LONGITUDE
 40
-122.394
  9
$NORTHDIRECTION
 40
0.0
  9
$TIMEZONE
 70
 -8000
  9
$LIGHTGLYPHDISPLAY
280
     1
  9
$TILEMODELIGHTSYNCH
280
     1
  9
$SOLIDHIST
280
     0
  9
$SHOWHIST
280
     1
  9
$DWFFRAME
280
     2
  9
$DGNFRAME
280
     2
  9
$REALWORLDSCALE
290
     1
  9
$INTERFERECOLOR
 62
   256
  9
$CSHADOW
280
     0
  9
$SHADOWPLANELOCATION
 40
0.0
  0
ENDSEC
  0
SECTION
  2
CLASSES
  0
CLASS
  1
LWPOLYLINE
  2
AcDbPolyline
  3
ObjectDBX Classes
 90
        0
 91
        1
280
     0
281
     1
  0
CLASS
  1
ACDBDICTIONARYWDFLT
  2
AcDbDictionaryWithDefault
  3
ObjectDBX Classes
 90
        0
 91
        3
280
     0
281
     0
  0
CLASS
  1
ACDBPLACEHOLDER
  2
AcDbPlaceHolder
  3
ObjectDBX Classes
 90
        0
 91
        1
280
     0
281
     0
  0
CLASS
  1
LAYOUT
  2
AcDbLayout
  3
ObjectDBX Classes
 90
        0
 91
        1
280
     0
281
     0
  0
CLASS
  1
LONG_TRANSACTION
  2
AcDbLongTransaction
  3
ObjectDBX Classes
 90
        0
 91
        1
280
     0
281
     0
  0
CLASS
  1
LWPOLYLINE
  2
AcDbPolyline
  3
ObjectDBX Classes
 90
        0
 91
        1
280
     0
281
     1
  0
CLASS
  1
HATCH
  2
AcDbHatch
  3
ObjectDBX Classes
 90
        0
 91
        1
280
     0
281
     1
  0
CLASS
  1
XRECORD
  2
AcDbXrecord
  3
ObjectDBX Classes
 90
        0
 91
        1
280
     0
281
     0
  0
CLASS
  1
DICTIONARYVAR
  2
AcDbDictionaryVar
  3
ObjectDBX Classes
 90
        0
 91
        3
280
     0
281
     0
  0
CLASS
  1
LONG_TRANSACTION
  2
AcDbLongTransaction
  3
ObjectDBX Classes
 90
        0
 91
        1
280
     0
281
     0
  0
CLASS
  1
LWPOLYLINE
  2
AcDbPolyline
  3
ObjectDBX Classes
 90
        0
 91
        1
280
     0
281
     1
  0
CLASS
  1
HATCH
  2
AcDbHatch
  3
ObjectDBX Classes
 90
        0
 91
        1
280
     0
281
     1
  0
CLASS
  1
XRECORD
  2
AcDbXrecord
  3
ObjectDBX Classes
 90
        0
 91
        1
280
     0
281
     0
  0
CLASS
  1
LONG_TRANSACTION
  2
AcDbLongTransaction
  3
ObjectDBX Classes
 90
        0
 91
        1
280
     0
281
     0
  0
CLASS
  1
LWPOLYLINE
  2
AcDbPolyline
  3
ObjectDBX Classes
 90
        0
 91
        1
280
     0
281
     1
  0
CLASS
  1
HATCH
  2
AcDbHatch
  3
ObjectDBX Classes
 90
        0
 91
        1
280
     0
281
     1
  0
CLASS
  1
XRECORD
  2
AcDbXrecord
  3
ObjectDBX Classes
 90
        0
 91
        1
280
     0
281
     0
  0
CLASS
  1
LONG_TRANSACTION
  2
AcDbLongTransaction
  3
ObjectDBX Classes
 90
        0
 91
        1
280
     0
281
     0
  0
CLASS
  1
LWPOLYLINE
  2
AcDbPolyline
  3
ObjectDBX Classes
 90
        0
 91
        1
280
     0
281
     1
  0
CLASS
  1
HATCH
  2
AcDbHatch
  3
ObjectDBX Classes
 90
        0
 91
        1
280
     0
281
     1
  0
CLASS
  1
XRECORD
  2
AcDbXrecord
  3
ObjectDBX Classes
 90
        0
 91
        1
280
     0
281
     0
  0
CLASS
  1
SCALE
  2
AcDbScale
  3
ObjectDBX Classes
 90
     1153
 91
        3
280
     0
281
     0
  0
CLASS
  1
VISUALSTYLE
  2
AcDbVisualStyle
  3
ObjectDBX Classes
 90
     4095
 91
        3
280
     0
281
     0
  0
CLASS
  1
MATERIAL
  2
AcDbMaterial
  3
ObjectDBX Classes
 90
     1153
 91
        3
280
     0
281
     0
  0
CLASS
  1
TABLESTYLE
  2
AcDbTableStyle
  3
ObjectDBX Classes
 90
     4095
 91
        3
280
     0
281
     0
  0
CLASS
  1
MLEADERSTYLE
  2
AcDbMLeaderStyle
  3
ACDB_MLEADERSTYLE_CLASS
 90
     4095
 91
        3
280
     0
281
     0
  0
CLASS
  1
CELLSTYLEMAP
  2
AcDbCellStyleMap
  3
ObjectDBX Classes
 90
     1152
 91
        3
280
     0
281
     0
  0
ENDSEC
  0
SECTION
  2
TABLES
  0
TABLE
  2
VPORT
  5
1E4BABA584
330
0
100
AcDbSymbolTable
 70
     9
  0
VPORT
  5
1E4BABA5C3
330
1E4BABA584
100
AcDbSymbolTableRecord
100
AcDbViewportTableRecord
  2
2
 70
     0
 10
0.5
 20
0.0
 11
1.0
 21
1.0
 12
0.9240312421264802
 22
1.052650975462766
 13
0.0
 23
0.0
 14
1.0
 24
1.0
 15
10.0
 25
10.0
 16
0.0
 26
0.0
 36
1.0
 17
0.0
 27
0.0
 37
0.0
 40
2.105301950925533
 41
0.8778135048231511
 42
50.0
 43
0.0
 44
0.0
 50
0.0
 51
0.0
 71
     0
 72
   500
 73
     1
 74
     1
 75
     0
 76
     0
 77
     0
 78
     0
281
     0
 65
     1
110
0.0
120
0.0
130
0.0
111
1.0
121
0.0
131
0.0
112
0.0
122
1.0
132
0.0
 79
     0
146
0.0
348
1E4BB01D3E
 60
     3
 61
     5
292
     1
282
     1
141
0.0
142
0.0
 63
   256
  0
VPORT
  5
1E4BABA5C4
330
1E4BABA584
100
AcDbSymbolTableRecord
100
AcDbViewportTableRecord
  2
2
 70
     0
 10
0.0
 20
0.0
 11
0.5
 21
1.0
 12
0.9240312421264802
 22
1.052650975462766
 13
0.0
 23
0.0
 14
1.0
 24
1.0
 15
10.0
 25
10.0
 16
0.0
 26
0.0
 36
1.0
 17
0.0
 27
0.0
 37
0.0
 40
2.105301950925533
 41
0.8778135048231511
 42
50.0
 43
0.0
 44
0.0
 50
0.0
 51
0.0
 71
     0
 72
   500
 73
     1
 74
     1
 75
     0
 76
     0
 77
     0
 78
     0
281
     0
 65
     1
110
0.0
120
0.0
130
0.0
111
1.0
121
0.0
131
0.0
112
0.0
122
1.0
132
0.0
 79
     0
146
0.0
348
1E4BB01D3E
 60
     3
 61
     5
292
     1
282
     1
141
0.0
142
0.0
 63
   256
  0
VPORT
  5
1E4BABA5C5
330
1E4BABA584
100
AcDbSymbolTableRecord
100
AcDbViewportTableRecord
  2
3
 70
     0
 10
0.0
 20
0.5
 11
1.0
 21
1.0
 12
2.832169994473273
 22
1.052650975462766
 13
0.0
 23
0.0
 14
1.0
 24
1.0
 15
10.0
 25
10.0
 16
0.0
 26
0.0
 36
1.0
 17
0.0
 27
0.0
 37
0.0
 40
2.105301950925533
 41
3.571428571428571
 42
50.0
 43
0.0
 44
0.0
 50
0.0
 51
0.0
 71
     0
 72
   500
 73
     1
 74
     1
 75
     0
 76
     0
 77
     0
 78
     0
281
     0
 65
     1
110
0.0
120
0.0
130
0.0
111
1.0
121
0.0
131
0.0
112
0.0
122
1.0
132
0.0
 79
     0
146
0.0
348
1E4BB01D3E
 60
     3
 61
     5
292
     1
282
     1
141
0.0
142
0.0
 63
   256
  0
VPORT
  5
1E4BABA5C6
330
1E4BABA584
100
AcDbSymbolTableRecord
100
AcDbViewportTableRecord
  2
3
 70
     0
 10
0.0
 20
0.0
 11
1.0
 21
0.5
 12
2.856741679241311
 22
1.052650975462766
 13
0.0
 23
0.0
 14
1.0
 24
1.0
 15
10.0
 25
10.0
 16
0.0
 26
0.0
 36
1.0
 17
0.0
 27
0.0
 37
0.0
 40
2.105301950925533
 41
3.594771241830065
 42
50.0
 43
0.0
 44
0.0
 50
0.0
 51
0.0
 71
     0
 72
   500
 73
     1
 74
     1
 75
     0
 76
     0
 77
     0
 78
     0
281
     0
 65
     1
110
0.0
120
0.0
130
0.0
111
1.0
121
0.0
131
0.0
112
0.0
122
1.0
132
0.0
 79
     0
146
0.0
348
1E4BB01D3E
 60
     3
 61
     5
292
     1
282
     1
141
0.0
142
0.0
 63
   256
  0
VPORT
  5
1E4BABA5C7
330
1E4BABA584
100
AcDbSymbolTableRecord
100
AcDbViewportTableRecord
  2
4
 70
     0
 10
0.5
 20
0.0
 11
1.0
 21
0.5
 12
2.886857516709719
 22
1.052650975462766
 13
0.0
 23
0.0
 14
1.0
 24
1.0
 15
10.0
 25
10.0
 16
0.0
 26
0.0
 36
1.0
 17
0.0
 27
0.0
 37
0.0
 40
4.27520703030907
 41
1.784313725490195
 42
50.0
 43
0.0
 44
0.0
 50
0.0
 51
0.0
 71
     0
 72
   500
 73
     1
 74
     1
 75
     0
 76
     0
 77
     0
 78
     0
281
     0
 65
     1
110
0.0
120
0.0
130
0.0
111
1.0
121
0.0
131
0.0
112
0.0
122
1.0
132
0.0
 79
     0
146
0.0
348
1E4BB01D3E
 60
     3
 61
     5
292
     1
282
     1
141
0.0
142
0.0
 63
   256
  0
VPORT
  5
1E4BABA5C8
330
1E4BABA584
100
AcDbSymbolTableRecord
100
AcDbViewportTableRecord
  2
4
 70
     0
 10
0.5
 20
0.5
 11
1.0
 21
1.0
 12
2.862090274555523
 22
1.052650975462766
 13
0.0
 23
0.0
 14
1.0
 24
1.0
 15
10.0
 25
10.0
 16
0.0
 26
0.0
 36
1.0
 17
0.0
 27
0.0
 37
0.0
 40
4.27520703030907
 41
1.772727272727272
 42
50.0
 43
0.0
 44
0.0
 50
0.0
 51
0.0
 71
     0
 72
   500
 73
     1
 74
     1
 75
     0
 76
     0
 77
     0
 78
     0
281
     0
 65
     1
110
0.0
120
0.0
130
0.0
111
1.0
121
0.0
131
0.0
112
0.0
122
1.0
132
0.0
 79
     0
146
0.0
348
1E4BB01D3E
 60
     3
 61
     5
292
     1
282
     1
141
0.0
142
0.0
 63
   256
  0
VPORT
  5
1E4BABA5C9
330
1E4BABA584
100
AcDbSymbolTableRecord
100
AcDbViewportTableRecord
  2
4
 70
     0
 10
0.0
 20
0.5
 11
0.5
 21
1.0
 12
2.862090274555523
 22
1.052650975462766
 13
0.0
 23
0.0
 14
1.0
 24
1.0
 15
10.0
 25
10.0
 16
0.0
 26
0.0
 36
1.0
 17
0.0
 27
0.0
 37
0.0
 40
4.27520703030907
 41
1.772727272727272
 42
50.0
 43
0.0
 44
0.0
 50
0.0
 51
0.0
 71
     0
 72
   500
 73
     1
 74
     1
 75
     0
 76
     0
 77
     0
 78
     0
281
     0
 65
     1
110
0.0
120
0.0
130
0.0
111
1.0
121
0.0
131
0.0
112
0.0
122
1.0
132
0.0
 79
     0
146
0.0
348
1E4BB01D3E
 60
     3
 61
     5
292
     1
282
     1
141
0.0
142
0.0
 63
   256
  0
VPORT
  5
1E4BABA5CA
330
1E4BABA584
100
AcDbSymbolTableRecord
100
AcDbViewportTableRecord
  2
4
 70
     0
 10
0.0
 20
0.0
 11
0.5
 21
0.5
 12
2.886857516709719
 22
1.052650975462766
 13
0.0
 23
0.0
 14
1.0
 24
1.0
 15
10.0
 25
10.0
 16
0.0
 26
0.0
 36
1.0
 17
0.0
 27
0.0
 37
0.0
 40
4.27520703030907
 41
1.784313725490195
 42
50.0
 43
0.0
 44
0.0
 50
0.0
 51
0.0
 71
     0
 72
   500
 73
     1
 74
     1
 75
     0
 76
     0
 77
     0
 78
     0
281
     0
 65
     1
110
0.0
120
0.0
130
0.0
111
1.0
121
0.0
131
0.0
112
0.0
122
1.0
132
0.0
 79
     0
146
0.0
348
1E4BB01D3E
 60
     3
 61
     5
292
     1
282
     1
141
0.0
142
0.0
 63
   256
  0
VPORT
  5
1E4BB01CF5
330
1E4BABA584
100
AcDbSymbolTableRecord
100
AcDbViewportTableRecord
  2
*Active
 70
     0
 10
0.0
 20
0.0
 11
1.0
 21
1.0
 12
4211.012624858948
 22
8960.069902851941
 13
0.0
 23
0.0
 14
1.0
 24
1.0
 15
10.0
 25
10.0
 16
0.0
 26
0.0
 36
1.0
 17
0.0
 27
0.0
 37
0.0
 40
1288.055051784308
 41
2.391891891891892
 42
50.0
 43
0.0
 44
0.0
 50
0.0
 51
0.0
 71
    16
 72
   500
 73
     1
 74
     0
 75
     0
 76
     0
 77
     0
 78
     0
281
     0
 65
     1
110
0.0
120
0.0
130
0.0
111
1.0
121
0.0
131
0.0
112
0.0
122
1.0
132
0.0
 79
     0
146
0.0
348
1E4BB01D3E
 60
     3
 61
     5
292
     1
282
     1
141
0.0
142
0.0
 63
   256
  0
ENDTAB
  0
TABLE
  2
LTYPE
  5
1E4BABA581
330
0
100
AcDbSymbolTable
 70
     4
  0
LTYPE
  5
1E4BABA58D
330
1E4BABA581
100
AcDbSymbolTableRecord
100
AcDbLinetypeTableRecord
  2
BYBLOCK
 70
     0
  3

 72
    65
 73
     0
 40
0.0
  0
LTYPE
  5
1E4BABA58E
330
1E4BABA581
100
AcDbSymbolTableRecord
100
AcDbLinetypeTableRecord
  2
BYLAYER
 70
     0
  3

 72
    65
 73
     0
 40
0.0
  0
LTYPE
  5
1E4BABA58F
330
1E4BABA581
100
AcDbSymbolTableRecord
100
AcDbLinetypeTableRecord
  2
CONTINUOUS
 70
     0
  3
実線
 72
    65
 73
     0
 40
0.0
  0
LTYPE
  5
1E4BABA5C0
330
1E4BABA581
100
AcDbSymbolTableRecord
100
AcDbLinetypeTableRecord
  2
CENTER
 70
     0
  3
____ _ ____ _ ____ _ ____ _ ____ _ ____ _ ____
 72
    65
 73
     4
 40
2.0
 49
1.25
 74
     0
 49
-0.25
 74
     0
 49
0.25
 74
     0
 49
-0.25
 74
     0
  0
LTYPE
  5
1E4BABA5C2
330
1E4BABA581
100
AcDbSymbolTableRecord
100
AcDbLinetypeTableRecord
  2
HIDDEN
 70
     0
  3
_ _ _ _ _ _ _ _ _ _ _ _ _ _ _ _ _ _ _ _ _ _ _
 72
    65
 73
     2
 40
0.375
 49
0.25
 74
     0
 49
-0.125
 74
     0
  0
LTYPE
  5
1E4BABC2AE
330
1E4BABA581
100
AcDbSymbolTableRecord
100
AcDbLinetypeTableRecord
  2
PHANTOM
 70
     0
  3
_____ _ _ _____ _ _ _____ _ _ _____ _ _ ____
 72
    65
 73
     6
 40
2.5
 49
1.25
 74
     0
 49
-0.25
 74
     0
 49
0.25
 74
     0
 49
-0.25
 74
     0
 49
0.25
 74
     0
 49
-0.25
 74
     0
  0
ENDTAB
  0
TABLE
  2
LAYER
  5
1E4BABA57E
102
{ACAD_XDICTIONARY
360
1E4BABAD0F
102
}
330
0
100
AcDbSymbolTable
 70
    15
  0
LAYER
  5
1E4BABA58A
330
1E4BABA57E
100
AcDbSymbolTableRecord
100
AcDbLayerTableRecord
  2
0
 70
     0
 62
     6
  6
CONTINUOUS
370
    -3
390
1E4BABAC6E
347
1E4BB01D55
  0
LAYER
  5
1E4BABA5CF
330
1E4BABA57E
100
AcDbSymbolTableRecord
100
AcDbLayerTableRecord
  2
ITTEN
 70
     0
 62
     1
  6
CENTER
370
    -3
390
1E4BABAC6E
347
1E4BB01D55
  0
LAYER
  5
1E4BABA5D1
330
1E4BABA57E
100
AcDbSymbolTableRecord
100
AcDbLayerTableRecord
  2
HATCH
 70
     0
 62
     4
  6
CONTINUOUS
370
    -3
390
1E4BABAC6E
347
1E4BB01D55
  0
LAYER
  5
1E4BABA5D2
330
1E4BABA57E
100
AcDbSymbolTableRecord
100
AcDbLayerTableRecord
  2
SUNPOU
 70
     0
 62
     3
  6
CONTINUOUS
370
    -3
390
1E4BABAC6E
347
1E4BB01D55
  0
LAYER
  5
1E4BABA5D3
330
1E4BABA57E
100
AcDbSymbolTableRecord
100
AcDbLayerTableRecord
  2
TEXT
 70
     0
 62
     3
  6
CONTINUOUS
370
    -3
390
1E4BABAC6E
347
1E4BB01D55
  0
LAYER
  5
1E4BABA5D4
330
1E4BABA57E
100
AcDbSymbolTableRecord
100
AcDbLayerTableRecord
  2
SAISEN
 70
     0
 62
     4
  6
CONTINUOUS
370
    -3
390
1E4BABAC6E
347
1E4BB01D55
  0
LAYER
  5
1E4BABA5D5
330
1E4BABA57E
100
AcDbSymbolTableRecord
100
AcDbLayerTableRecord
  2
JISSEN
 70
     0
 62
     7
  6
CONTINUOUS
370
    -3
390
1E4BABAC6E
347
1E4BB01D55
  0
LAYER
  5
1E4BABA5D7
330
1E4BABA57E
100
AcDbSymbolTableRecord
100
AcDbLayerTableRecord
  2
TENSEN
 70
     0
 62
     2
  6
HIDDEN
370
    -3
390
1E4BABAC6E
347
1E4BB01D55
  0
LAYER
  5
1E4BABA5D9
330
1E4BABA57E
100
AcDbSymbolTableRecord
100
AcDbLayerTableRecord
  2
WAKU
 70
     0
 62
     5
  6
CONTINUOUS
370
    -3
390
1E4BABAC6E
347
1E4BB01D55
  0
LAYER
  5
1E4BABAD0B
330
1E4BABA57E
100
AcDbSymbolTableRecord
100
AcDbLayerTableRecord
  2
DEFPOINTS
 70
     0
 62
     7
  6
CONTINUOUS
290
     0
370
    -3
390
1E4BABAC6E
347
1E4BB01D55
  0
LAYER
  5
1E4BABC2AF
330
1E4BABA57E
100
AcDbSymbolTableRecord
100
AcDbLayerTableRecord
  2
NITEN
 70
     0
 62
     2
  6
PHANTOM
370
    -3
390
1E4BABC2B7
347
1E4BB01D55
  0
LAYER
  5
1E4BABC2B0
330
1E4BABA57E
100
AcDbSymbolTableRecord
100
AcDbLayerTableRecord
  2
BORDER
 70
     0
 62
     7
  6
CONTINUOUS
370
    -3
390
1E4BABC2B7
347
1E4BB01D55
  0
LAYER
  5
1E4BABC2B2
330
1E4BABA57E
100
AcDbSymbolTableRecord
100
AcDbLayerTableRecord
  2
ASSIST
 70
     0
 62
     7
  6
CONTINUOUS
370
    -3
390
1E4BABAC6E
347
1E4BB01D55
  0
LAYER
  5
1E4BABC2B3
330
1E4BABA57E
100
AcDbSymbolTableRecord
100
AcDbLayerTableRecord
  2
SCALE
 70
     0
 62
     4
  6
CONTINUOUS
370
    -3
390
1E4BABAC6E
347
1E4BB01D55
  0
LAYER
  5
1E4BADBD72
102
{ACAD_XDICTIONARY
360
1E4BADBD73
102
}
330
1E4BABA57E
100
AcDbSymbolTableRecord
100
AcDbLayerTableRecord
  2
WORK
 70
     0
 62
     7
  6
CONTINUOUS
370
    -3
390
1E4BABAC6E
347
1E4BB01D55
  0
ENDTAB
  0
TABLE
  2
STYLE
  5
1E4BABA57F
330
0
100
AcDbSymbolTable
 70
     4
  0
STYLE
  5
1E4BABA58B
330
1E4BABA57F
100
AcDbSymbolTableRecord
100
AcDbTextStyleTableRecord
  2
STANDARD
 70
     0
 40
0.0
 41
1.0
 50
0.0
 71
     0
 42
1.5
  3
SIMPLEX.shx
  4
bigfont.shx
  0
STYLE
  5
1E4BABA5B6
330
1E4BABA57F
100
AcDbSymbolTableRecord
100
AcDbTextStyleTableRecord
  2
K
 70
     0
 40
0.0
 41
1.0
 50
0.0
 71
     0
 42
3.0
  3
simplex.shx
  4
bigfont.shx
  0
STYLE
  5
1E4BABA5BB
330
1E4BABA57F
100
AcDbSymbolTableRecord
100
AcDbTextStyleTableRecord
  2
ROMANS
 70
     0
 40
0.0
 41
0.8
 50
0.0
 71
     0
 42
6.0
  3
romans
  4

  0
STYLE
  5
1E4BABC2B4
330
1E4BABA57F
100
AcDbSymbolTableRecord
100
AcDbTextStyleTableRecord
  2
DIMENSION
 70
     0
 40
0.0
 41
1.0
 50
0.0
 71
     0
 42
2.5
  3
romans.shx
  4
bigfont.shx
  0
ENDTAB
  0
TABLE
  2
VIEW
  5
1E4BABA582
330
0
100
AcDbSymbolTable
 70
     0
  0
ENDTAB
  0
TABLE
  2
UCS
  5
1E4BABA583
330
0
100
AcDbSymbolTable
 70
     0
  0
ENDTAB
  0
TABLE
  2
APPID
  5
1E4BABA585
330
0
100
AcDbSymbolTable
 70
    17
  0
APPID
  5
1E4BABA58C
330
1E4BABA585
100
AcDbSymbolTableRecord
100
AcDbRegAppTableRecord
  2
ACAD
 70
     0
  0
APPID
  5
1E4BABDCCD
330
1E4BABA585
100
AcDbSymbolTableRecord
100
AcDbRegAppTableRecord
  2
CONTENTBLOCKICON
 70
     0
  0
APPID
  5
1E4BABDCCE
330
1E4BABA585
100
AcDbSymbolTableRecord
100
AcDbRegAppTableRecord
  2
X_OBJNAME
 70
     0
  0
APPID
  5
1E4BABDCCF
330
1E4BABA585
100
AcDbSymbolTableRecord
100
AcDbRegAppTableRecord
  2
X_PARAM_BALLOON
 70
     0
  0
APPID
  5
1E4BABDCD0
330
1E4BABA585
100
AcDbSymbolTableRecord
100
AcDbRegAppTableRecord
  2
X_PARAM_TXTPATERN
 70
     0
  0
APPID
  5
1E4BABDCD1
330
1E4BABA585
100
AcDbSymbolTableRecord
100
AcDbRegAppTableRecord
  2
X_PARAM_CTXTPATERN
 70
     0
  0
APPID
  5
1E4BABDCD2
330
1E4BABA585
100
AcDbSymbolTableRecord
100
AcDbRegAppTableRecord
  2
X_PARAM_SYSVAL
 70
     0
  0
APPID
  5
1E4BABDCD3
330
1E4BABA585
100
AcDbSymbolTableRecord
100
AcDbRegAppTableRecord
  2
X_DEFINELIST
 70
     0
  0
APPID
  5
1E4BAD2BE7
330
1E4BABA585
100
AcDbSymbolTableRecord
100
AcDbRegAppTableRecord
  2
ACAD_PSEXT
 70
     0
  0
APPID
  5
1E4BADBD84
330
1E4BABA585
100
AcDbSymbolTableRecord
100
AcDbRegAppTableRecord
  2
X_UNIONHANDLE
 70
     0
  0
APPID
  5
1E4BADBD85
330
1E4BABA585
100
AcDbSymbolTableRecord
100
AcDbRegAppTableRecord
  2
X_OBJDATA
 70
     0
  0
APPID
  5
1E4BADBD86
330
1E4BABA585
100
AcDbSymbolTableRecord
100
AcDbRegAppTableRecord
  2
X_PARENTHANDLE
 70
     0
  0
APPID
  5
1E4BADBD87
330
1E4BABA585
100
AcDbSymbolTableRecord
100
AcDbRegAppTableRecord
  2
ASK_MEN_XD
 70
     0
  0
APPID
  5
1E4BADBD88
330
1E4BABA585
100
AcDbSymbolTableRecord
100
AcDbRegAppTableRecord
  2
ASKLEADER
 70
     0
  0
APPID
  5
1E4BADBD89
330
1E4BABA585
100
AcDbSymbolTableRecord
100
AcDbRegAppTableRecord
  2
ASKLEADERCHILD
 70
     0
  0
APPID
  5
1E4BADBD8A
330
1E4BABA585
100
AcDbSymbolTableRecord
100
AcDbRegAppTableRecord
  2
ACAD_MLEADERVER
 70
     0
  0
APPID
  5
1E4BB01D5B
330
1E4BABA585
100
AcDbSymbolTableRecord
100
AcDbRegAppTableRecord
  2
PLOTTRANSPARENCY
 70
     0
  0
ENDTAB
  0
TABLE
  2
DIMSTYLE
  5
1E4BABA586
330
0
100
AcDbSymbolTable
 70
     2
100
AcDbDimStyleTable
  0
DIMSTYLE
105
1E4BABA5CD
330
1E4BABA586
100
AcDbSymbolTableRecord
100
AcDbDimStyleTableRecord
  2
IMAO
 70
     0
 41
1.5
 42
1.0
 43
6.0
 44
1.0
 47
495.0
 73
     0
 74
     0
 77
     1
 78
     8
140
3.0
141
0.0
172
     1
174
     1
178
     0
271
     2
272
     2
279
     2
284
     8
285
     8
286
     8
340
1E4BABA5BB
341
1E4BABA5A5
342
1E4BABA5A5
343
1E4BABA5A5
344
1E4BABA5A5
  0
DIMSTYLE
105
1E4BABDCC8
330
1E4BABA586
100
AcDbSymbolTableRecord
100
AcDbDimStyleTableRecord
  2
STANDARD
 70
     0
 40
0.5
 41
2.0
 42
0.1
 43
10.0
 44
1.5
 73
     0
 74
     0
 78
     8
140
3.0
145
1.0
147
0.1
172
     1
176
   256
177
   256
271
     2
178
   256
271
     2
272
     2
284
     8
340
1E4BABC2B4
341
1E4BABC289
342
1E4BABC289
  0
ENDTAB
  0
TABLE
  2
BLOCK_RECORD
  5
1E4BABA57D
330
0
100
AcDbSymbolTable
 70
     4
  0
BLOCK_RECORD
  5
1E4BABA593
330
1E4BABA57D
100
AcDbSymbolTableRecord
100
AcDbBlockTableRecord
  2
*MODEL_SPACE
340
1E4BABAC71
 70
     0
280
     1
281
     0
  0
BLOCK_RECORD
  5
1E4BABA590
330
1E4BABA57D
100
AcDbSymbolTableRecord
100
AcDbBlockTableRecord
  2
*PAPER_SPACE
340
1E4BABAC72
 70
     0
280
     1
281
     0
  0
BLOCK_RECORD
  5
1E4BABA598
330
1E4BABA57D
100
AcDbSymbolTableRecord
100
AcDbBlockTableRecord
  2
ARROW
340
0
102
{BLKREFS
331
1E4BB00543
331
1E4BB00547
331
1E4BB00548
331
1E4BB0054D
331
1E4BB0054E
331
1E4BB00553
331
1E4BB00554
331
1E4BB00559
331
1E4BB0055A
331
1E4BB0056B
331
1E4BB0056C
331
1E4BB00592
331
1E4BB00593
331
1E4BB00596
331
1E4BB00599
331
1E4BB0059D
331
1E4BB0059E
102
}
 70
     0
280
     1
281
     0
  0
BLOCK_RECORD
  5
1E4BABA5A5
330
1E4BABA57D
100
AcDbSymbolTableRecord
100
AcDbBlockTableRecord
  2
ARROWANG
340
0
 70
     0
280
     1
281
     0
  0
BLOCK_RECORD
  5
1E4BABC0D7
330
1E4BABA57D
100
AcDbSymbolTableRecord
100
AcDbBlockTableRecord
  2
WAKU
340
0
 70
     0
280
     1
281
     0
  0
BLOCK_RECORD
  5
1E4BABC289
330
1E4BABA57D
100
AcDbSymbolTableRecord
100
AcDbBlockTableRecord
  2
AR_OPEN
340
0
 70
     0
280
     1
281
     0
  0
ENDTAB
  0
ENDSEC
  0
SECTION
  2
BLOCKS
  0
BLOCK
  5
1E4BABA5DC
330
1E4BABA593
100
AcDbEntity
  8
0
100
AcDbBlockBegin
  2
*MODEL_SPACE
 70
     0
 10
0.0
 20
0.0
 30
0.0
  3
*MODEL_SPACE
  1

  0
ENDBLK
  5
1E4BABA5DD
330
1E4BABA593
100
AcDbEntity
  8
0
100
AcDbBlockEnd
  0
BLOCK
  5
1E4BABA5DA
330
1E4BABA590
100
AcDbEntity
 67
     1
  8
0
100
AcDbBlockBegin
  2
*PAPER_SPACE
 70
     0
 10
0.0
 20
0.0
 30
0.0
  3
*PAPER_SPACE
  1

  0
ENDBLK
  5
1E4BABA5DB
330
1E4BABA590
100
AcDbEntity
 67
     1
  8
0
100
AcDbBlockEnd
  0
BLOCK
  5
499
330
1E4BABA598
100
AcDbEntity
  8
0
100
AcDbBlockBegin
  2
ARROW
 70
     0
 10
1.0
 20
0.5
 30
0.0
  3
ARROW
  1

  0
LINE
  5
49A
330
1E4BABA598
100
AcDbEntity
  8
0
100
AcDbLine
 10
1.0
 20
0.5
 30
0.0
 11
-0.5000000000000214
 21
0.0980762113533018
 31
0.0
  0
LINE
  5
49B
330
1E4BABA598
100
AcDbEntity
  8
0
100
AcDbLine
 10
0.0
 20
0.5
 30
0.0
 11
1.0
 21
0.5
 31
0.0
  0
LINE
  5
49C
330
1E4BABA598
100
AcDbEntity
  8
0
100
AcDbLine
 10
1.0
 20
0.5
 30
0.0
 11
-0.4999999999999574
 21
0.9019237886467408
 31
0.0
  0
ENDBLK
  5
49D
330
1E4BABA598
100
AcDbEntity
  8
0
100
AcDbBlockEnd
  0
BLOCK
  5
4CC9
330
1E4BABA5A5
100
AcDbEntity
  8
0
100
AcDbBlockBegin
  2
ARROWANG
 70
     0
 10
0.0
 20
0.0
 30
0.0
  3
ARROWANG
  1

  0
LINE
  5
4CCA
330
1E4BABA5A5
100
AcDbEntity
  8
SUNPOU
100
AcDbLine
 10
0.0
 20
0.0
 30
0.0
 11
-1.499999999999957
 21
0.4019237886467409
 31
0.0
  0
LINE
  5
4CCB
330
1E4BABA5A5
100
AcDbEntity
  8
SUNPOU
100
AcDbLine
 10
0.0
 20
0.0
 30
0.0
 11
-1.500000000000028
 21
-0.4019237886467124
 31
0.0
  0
ENDBLK
  5
4CCC
330
1E4BABA5A5
100
AcDbEntity
  8
0
100
AcDbBlockEnd
  0
BLOCK
  5
1E4BABC0DC
330
1E4BABC0D7
100
AcDbEntity
  8
0
100
AcDbBlockBegin
  2
WAKU
 70
     0
 10
0.0
 20
0.0
 30
0.0
  3
WAKU
  1

  0
LINE
  5
1E4BABC0D8
330
1E4BABC0D7
100
AcDbEntity
  8
WAKU
100
AcDbLine
 10
0.999999996
 20
0.0
 30
0.0
 11
0.999999996
 21
0.9999999999999998
 31
0.0
  0
LINE
  5
1E4BABC0D9
330
1E4BABC0D7
100
AcDbEntity
  8
WAKU
100
AcDbLine
 10
0.0
 20
0.9999999999999998
 30
0.0
 11
0.999999996
 21
0.9999999999999998
 31
0.0
  0
LINE
  5
1E4BABC0DA
330
1E4BABC0D7
100
AcDbEntity
  8
WAKU
100
AcDbLine
 10
0.999999996
 20
0.0
 30
0.0
 11
0.0
 21
0.0
 31
0.0
  0
LINE
  5
1E4BABC0DB
330
1E4BABC0D7
100
AcDbEntity
  8
WAKU
100
AcDbLine
 10
0.0
 20
0.0
 30
0.0
 11
0.0
 21
0.9999999999999998
 31
0.0
  0
ENDBLK
  5
1E4BABC0DD
330
1E4BABC0D7
100
AcDbEntity
  8
0
100
AcDbBlockEnd
  0
BLOCK
  5
1E4BABC28D
330
1E4BABC289
100
AcDbEntity
  8
0
100
AcDbBlockBegin
  2
AR_OPEN
 70
     0
 10
0.0
 20
0.0
 30
0.0
  3
AR_OPEN
  1

  0
LINE
  5
1E4BABC28A
330
1E4BABC289
100
AcDbEntity
  8
0
 62
     0
100
AcDbLine
 10
-1.0
 20
0.0
 30
0.0
 11
0.0
 21
0.0
 31
0.0
  0
LINE
  5
1E4BABC28B
330
1E4BABC289
100
AcDbEntity
  8
0
 62
     0
100
AcDbLine
 10
0.0
 20
0.0
 30
0.0
 11
-1.0
 21
0.2679491924311037
 31
0.0
  0
LINE
  5
1E4BABC28C
330
1E4BABC289
100
AcDbEntity
  8
0
 62
     0
100
AcDbLine
 10
0.0
 20
0.0
 30
0.0
 11
-1.0
 21
-0.2679491924311037
 31
0.0
  0
ENDBLK
  5
1E4BABC28E
330
1E4BABC289
100
AcDbEntity
  8
0
100
AcDbBlockEnd
  0
ENDSEC
  0
SECTION
  2
ENTITIES
  0
LINE
  5
1E4BAFF46D
102
{ACAD_REACTORS
330
1E4BAFFC7A
102
}
330
1E4BABA593
100
AcDbEntity
  8
WAKU
100
AcDbLine
 10
4085.443830236067
 20
8569.48121379703
 30
0.0
 11
3542.443832408066
 21
8569.48121379703
 31
0.0
  0
LINE
  5
1E4BAFF46E
102
{ACAD_REACTORS
330
1E4BAFFC7A
102
}
330
1E4BABA593
100
AcDbEntity
  8
WAKU
100
AcDbLine
 10
3542.443832408066
 20
9388.48121379703
 30
0.0
 11
4085.443830236067
 21
9388.48121379703
 31
0.0
  0
LINE
  5
1E4BAFF471
102
{ACAD_REACTORS
330
1E4BAFFC7A
102
}
330
1E4BABA593
100
AcDbEntity
  8
WAKU
100
AcDbLine
 10
3542.443832408066
 20
8569.48121379703
 30
0.0
 11
3542.443832408066
 21
9388.48121379703
 31
0.0
  0
LINE
  5
1E4BAFF487
102
{ACAD_REACTORS
330
1E4BAFFC7A
102
}
330
1E4BABA593
100
AcDbEntity
  8
WAKU
100
AcDbLine
 10
4085.443830236067
 20
9388.48121379703
 30
0.0
 11
4628.443828064066
 21
9388.48121379703
 31
0.0
  0
LINE
  5
1E4BAFF488
102
{ACAD_REACTORS
330
1E4BAFFC7A
102
}
330
1E4BABA593
100
AcDbEntity
  8
WAKU
100
AcDbLine
 10
4628.443828064066
 20
8569.48121379703
 30
0.0
 11
4085.443830236067
 21
8569.48121379703
 31
0.0
  0
LINE
  5
1E4BAFF65C
102
{ACAD_REACTORS
330
1E4BAFFC7A
102
}
330
1E4BABA593
100
AcDbEntity
  8
WAKU
100
AcDbLine
 10
4628.443828064066
 20
9388.48121379703
 30
0.0
 11
4628.443828064066
 21
8569.48121379703
 31
0.0
  0
TEXT
  5
1E4BAFF65D
330
1E4BABA593
100
AcDbEntity
  8
TEXT
100
AcDbText
 10
4448.037203088381
 20
8580.861666435065
 30
0.0
 40
9.0
  1
A3用紙　印刷尺度：1/3
  7
K
100
AcDbText
  0
TEXT
  5
1E4BAFF65E
330
1E4BABA593
100
AcDbEntity
  8
TEXT
100
AcDbText
 10
4448.037203088381
 20
8599.384347063597
 30
0.0
 40
9.0
  1
一斉開放弁　　XDVII40　外観図
  7
K
100
AcDbText
  0
LINE
  5
1E4BAFFCA1
330
1E4BABA593
100
AcDbEntity
  8
JISSEN
100
AcDbLine
 39
960.208308198174
 10
3892.772863825461
 20
8877.630850545029
 30
0.0
 11
3892.772863825463
 21
8870.63085054503
 31
0.0
  0
LINE
  5
1E4BAFFCA2
330
1E4BABA593
100
AcDbEntity
  8
JISSEN
100
AcDbLine
 39
960.208308198174
 10
4035.77286382546
 20
8915.130850545307
 30
0.0
 11
4035.77286382546
 21
8870.63085054503
 31
0.0
  0
ARC
  5
1E4BAFFCA3
330
1E4BABA593
100
AcDbEntity
  8
JISSEN
100
AcDbCircle
 39
960.208308198174
 10
3889.772863825461
 20
8870.63085054503
 30
0.0
 40
3.0
100
AcDbArc
 50
270.0
 51
0.0
  0
ARC
  5
1E4BAFFCA7
330
1E4BABA593
100
AcDbEntity
  8
JISSEN
100
AcDbCircle
 39
960.208308198174
 10
3933.272863825458
 20
8743.949609677908
 30
0.0
 40
5.0
100
AcDbArc
 50
0.0
 51
70.5287793654796
  0
ARC
  5
1E4BAFFCA8
330
1E4BABA593
100
AcDbEntity
  8
JISSEN
100
AcDbCircle
 39
960.208308198174
 10
3964.272863825491
 20
8831.63085054503
 30
0.0
 40
88.0
100
AcDbArc
 50
226.0900023355225
 51
250.5287793654796
  0
ARC
  5
1E4BAFFCA9
330
1E4BABA593
100
AcDbEntity
  8
JISSEN
100
AcDbCircle
 39
960.208308198174
 10
3995.272863825459
 20
8743.949609677897
 30
0.0
 40
5.0
100
AcDbArc
 50
109.4712206344712
 51
180.0
  0
ARC
  5
1E4BAFFCAA
330
1E4BABA593
100
AcDbEntity
  8
JISSEN
100
AcDbCircle
 39
960.208308198174
 10
3964.272863825464
 20
8831.63085054503
 30
0.0
 40
88.0
100
AcDbArc
 50
289.4712206344713
 51
313.9099976644774
  0
ARC
  5
1E4BAFFCAB
330
1E4BABA593
100
AcDbEntity
  8
JISSEN
100
AcDbCircle
 39
960.208308198174
 10
3899.774801839102
 20
8764.63085054503
 30
0.0
 40
5.0
100
AcDbArc
 50
46.09000233552253
 51
90.0
  0
ARC
  5
1E4BAFFCAC
330
1E4BABA593
100
AcDbEntity
  8
JISSEN
100
AcDbCircle
 39
960.208308198174
 10
4028.770925811852
 20
8764.63085054503
 30
0.0
 40
5.0
100
AcDbArc
 50
90.0
 51
133.9099976644774
  0
LINE
  5
1E4BAFFCAE
330
1E4BABA593
100
AcDbEntity
  8
JISSEN
100
AcDbLine
 39
960.208308198174
 10
4051.772863825461
 20
8867.63085054503
 30
0.0
 11
4051.772863825462
 21
8727.630850545029
 31
0.0
  0
LINE
  5
1E4BAFFCAF
330
1E4BABA593
100
AcDbEntity
  8
JISSEN
100
AcDbLine
 39
960.208308198174
 10
3876.772863825462
 20
8867.63085054503
 30
0.0
 11
3876.772863825461
 21
8727.630850545029
 31
0.0
  0
ARC
  5
1E4BAFFCB0
330
1E4BABA593
100
AcDbEntity
  8
JISSEN
100
AcDbCircle
 39
960.208308198174
 10
3900.272863825462
 20
8851.630850545029
 30
0.0
 40
10.0
100
AcDbArc
 50
0.0
 51
90.0
  0
LINE
  5
1E4BAFFCFE
330
1E4BABA593
100
AcDbEntity
  8
JISSEN
100
AcDbLine
 10
4338.060884436195
 20
8892.63085054503
 30
0.0
 11
4338.060884436195
 21
8878.219706245953
 31
0.0
  0
LINE
  5
1E4BAFFD00
330
1E4BABA593
100
AcDbEntity
  8
JISSEN
100
AcDbLine
 10
4285.560884436199
 20
8897.63085054503
 30
0.0
 11
4285.560884436199
 21
8879.630850545032
 31
0.0
  0
LINE
  5
1E4BAFFD01
330
1E4BABA593
100
AcDbEntity
  8
JISSEN
100
AcDbLine
 10
4247.560884436198
 20
8897.63085054503
 30
0.0
 11
4247.560884436198
 21
8879.630850545032
 31
0.0
  0
LINE
  5
1E4BAFFD02
330
1E4BABA593
100
AcDbEntity
  8
JISSEN
100
AcDbLine
 10
4195.060884436199
 20
8878.219706245955
 30
0.0
 11
4195.060884436199
 21
8892.630850545032
 31
0.0
  0
LINE
  5
1E4BAFFD05
330
1E4BABA593
100
AcDbEntity
  8
ITTEN
 48
3.0
100
AcDbLine
 10
4266.560884436196
 20
8958.630850545029
 30
0.0
 11
4266.560884436196
 21
8703.415218902624
 31
0.0
  0
LINE
  5
1E4BAFFD07
330
1E4BABA593
100
AcDbEntity
  8
JISSEN
100
AcDbLine
 10
3892.772863825463
 20
8893.630850545029
 30
0.0
 11
3892.772863825463
 21
8877.630850545029
 31
0.0
  0
LINE
  5
1E4BAFFD08
330
1E4BABA593
100
AcDbEntity
  8
ITTEN
 48
3.0
100
AcDbLine
 10
3964.272863825463
 20
8958.630850545029
 30
0.0
 11
3964.272863825462
 21
8703.415218902624
 31
0.0
  0
ARC
  5
1E4BAFFD09
330
1E4BABA593
100
AcDbEntity
  8
JISSEN
100
AcDbCircle
 10
3956.272863825462
 20
8863.630850545029
 30
0.0
 40
2.0
100
AcDbArc
 50
180.0
 51
270.0
  0
LINE
  5
1E4BAFFD0A
330
1E4BABA593
100
AcDbEntity
  8
JISSEN
100
AcDbLine
 10
3958.247001756495
 20
8840.441195372616
 30
0.0
 11
3953.576865418028
 21
8835.537552217223
 31
0.0
  0
LINE
  5
1E4BAFFD0B
330
1E4BABA593
100
AcDbEntity
  8
JISSEN
100
AcDbLine
 10
3964.272863825502
 20
8809.130850545029
 30
0.0
 11
3944.272863825467
 21
8809.130850545029
 31
0.0
  0
LINE
  5
1E4BAFFD0C
330
1E4BABA593
100
AcDbEntity
  8
JISSEN
100
AcDbLine
 10
3944.272863825467
 20
8817.130850545032
 30
0.0
 11
3964.272863825468
 21
8817.13085054504
 31
0.0
  0
LINE
  5
1E4BAFFD0D
330
1E4BABA593
100
AcDbEntity
  8
JISSEN
100
AcDbLine
 10
3953.576865418028
 20
8835.537552217223
 30
0.0
 11
3958.422264411499
 21
8825.567975911303
 31
0.0
  0
LINE
  5
1E4BAFFD0E
330
1E4BABA593
100
AcDbEntity
  8
JISSEN
100
AcDbLine
 10
3952.104525770439
 20
8833.991595587255
 30
0.0
 11
3956.623463239425
 21
8824.693725178757
 31
0.0
  0
LINE
  5
1E4BAFFD0F
330
1E4BABA593
100
AcDbEntity
  8
JISSEN
100
AcDbLine
 10
3956.798725894426
 20
8841.820505717444
 30
0.0
 11
3948.522863825462
 21
8833.13085054503
 31
0.0
  0
CIRCLE
  5
1E4BAFFD10
330
1E4BABA593
100
AcDbEntity
  8
NITEN
100
AcDbCircle
 10
3964.272863825462
 20
8772.645716208239
 30
0.0
 40
20.0
  0
LINE
  5
1E4BAFFD11
330
1E4BABA593
100
AcDbEntity
  8
SAISEN
100
AcDbLine
 10
3974.272863825463
 20
8879.630850545029
 30
0.0
 11
3955.088835499397
 21
8862.709939624756
 31
0.0
  0
LINE
  5
1E4BAFFD12
330
1E4BABA593
100
AcDbEntity
  8
SAISEN
100
AcDbLine
 10
3954.272863825463
 20
8879.630850545029
 30
0.0
 11
3973.456892151526
 21
8862.709939624758
 31
0.0
  0
LINE
  5
1E4BAFFD14
330
1E4BABA593
100
AcDbEntity
  8
JISSEN
100
AcDbLine
 10
3892.772863825463
 20
8879.630850545029
 30
0.0
 11
4035.772863825463
 21
8879.630850545029
 31
0.0
  0
CIRCLE
  5
1E4BAFFD15
330
1E4BABA593
100
AcDbEntity
  8
JISSEN
100
AcDbCircle
 10
3964.272863825462
 20
8772.630850545029
 30
0.0
 40
22.0
  0
LINE
  5
1E4BAFFD16
330
1E4BABA593
100
AcDbEntity
  8
JISSEN
100
AcDbLine
 10
3941.272863825459
 20
8732.025218902625
 30
0.0
 11
3987.272863825459
 21
8732.025218902625
 31
0.0
  0
LINE
  5
1E4BAFFD17
330
1E4BABA593
100
AcDbEntity
  8
JISSEN
100
AcDbLine
 10
4030.774186066735
 20
8861.630850545029
 30
0.0
 11
3897.772863825455
 21
8861.630850545029
 31
0.0
  0
LINE
  5
1E4BAFFD18
330
1E4BABA593
100
AcDbEntity
  8
ITTEN
 48
3.0
100
AcDbLine
 10
3866.272863825462
 20
8797.630850545029
 30
0.0
 11
4062.272863825461
 21
8797.630850545029
 31
0.0
  0
ARC
  5
1E4BAFFD1B
330
1E4BABA593
100
AcDbEntity
  8
JISSEN
100
AcDbCircle
 10
3964.27286382543
 20
8625.697299454698
 30
0.0
 40
124.6049128255348
100
AcDbArc
 50
95.1887865673048
 51
101.1050688016446
  0
LINE
  5
1E4BAFFD1C
330
1E4BABA593
100
AcDbEntity
  8
JISSEN
100
AcDbLine
 10
3895.772863825455
 20
8859.630850545029
 30
0.0
 11
3895.772863825458
 21
8729.630850545029
 31
0.0
  0
LINE
  5
1E4BAFFD1D
330
1E4BABA593
100
AcDbEntity
  8
JISSEN
100
AcDbLine
 10
3874.272863825462
 20
8865.130850545027
 30
0.0
 11
3874.272863825462
 21
8730.130850545027
 31
0.0
  0
LINE
  5
1E4BAFFD20
330
1E4BABA593
100
AcDbEntity
  8
ITTEN
 48
3.0
100
AcDbLine
 10
3869.272863825461
 20
8745.130850545029
 30
0.0
 11
3900.772863825457
 21
8745.130850545029
 31
0.0
  0
LINE
  5
1E4BAFFD22
330
1E4BABA593
100
AcDbEntity
  8
JISSEN
100
AcDbLine
 10
3876.772863825461
 20
8727.630850545029
 30
0.0
 11
3874.272863825462
 21
8730.130850545027
 31
0.0
  0
ARC
  5
1E4BAFFD27
330
1E4BABA593
100
AcDbEntity
  8
JISSEN
100
AcDbCircle
 10
3893.772863825458
 20
8729.630850545029
 30
0.0
 40
2.0
100
AcDbArc
 50
270.0
 51
0.0
  0
LINE
  5
1E4BAFFD28
330
1E4BABA593
100
AcDbEntity
  8
JISSEN
100
AcDbLine
 10
3876.772863825461
 20
8727.630850545029
 30
0.0
 11
3893.772863825458
 21
8727.630850545029
 31
0.0
  0
ARC
  5
1E4BAFFD29
330
1E4BABA593
100
AcDbEntity
  8
JISSEN
100
AcDbCircle
 10
3941.272863825459
 20
8735.025218902627
 30
0.0
 40
3.0
100
AcDbArc
 50
180.0
 51
270.0
  0
LINE
  5
1E4BAFFD2C
330
1E4BABA593
100
AcDbEntity
  8
JISSEN
100
AcDbLine
 10
3938.272863825459
 20
8743.949609677908
 30
0.0
 11
3938.272863825459
 21
8735.025218902627
 31
0.0
  0
LINE
  5
1E4BAFFD2D
330
1E4BABA593
100
AcDbEntity
  8
JISSEN
100
AcDbLine
 10
3944.272863825467
 20
8809.130850545029
 30
0.0
 11
3944.272863825467
 21
8817.130850545029
 31
0.0
  0
LINE
  5
1E4BAFFD2E
330
1E4BABA593
100
AcDbEntity
  8
ASSIST
100
AcDbLine
 10
3898.772863825462
 20
8769.630850545029
 30
0.0
 11
3899.774801839102
 21
8769.630850545029
 31
0.0
  0
ARC
  5
1E4BAFFD2F
330
1E4BABA593
100
AcDbEntity
  8
JISSEN
100
AcDbCircle
 10
3898.772863825462
 20
8766.630850545029
 30
0.0
 40
3.0
100
AcDbArc
 50
90.0
 51
180.0
  0
LINE
  5
1E4BAFFD30
330
1E4BABA593
100
AcDbEntity
  8
JISSEN
100
AcDbLine
 10
3874.272863825462
 20
8865.130850545027
 30
0.0
 11
3876.772863825462
 21
8867.63085054503
 31
0.0
  0
LINE
  5
1E4BAFFD31
330
1E4BABA593
100
AcDbEntity
  8
ITTEN
 48
3.0
100
AcDbLine
 10
3869.272863825461
 20
8850.13085054503
 30
0.0
 11
3900.772863825455
 21
8850.13085054503
 31
0.0
  0
LINE
  5
1E4BAFFD32
330
1E4BABA593
100
AcDbEntity
  8
JISSEN
100
AcDbLine
 10
3910.272863825462
 20
8851.630850545029
 30
0.0
 11
3910.272863825462
 21
8835.51965356747
 31
0.0
  0
ARC
  5
1E4BAFFD33
330
1E4BABA593
100
AcDbEntity
  8
JISSEN
100
AcDbCircle
 10
3899.774801839077
 20
8830.63085054503
 30
0.0
 40
5.0
100
AcDbArc
 50
270.0
 51
313.9099976644586
  0
LINE
  5
1E4BAFFD34
330
1E4BABA593
100
AcDbEntity
  8
ASSIST
100
AcDbLine
 10
3898.772863825462
 20
8825.63085054503
 30
0.0
 11
3899.774801839077
 21
8825.63085054503
 31
0.0
  0
ARC
  5
1E4BAFFD35
330
1E4BABA593
100
AcDbEntity
  8
JISSEN
100
AcDbCircle
 10
3898.772863825462
 20
8828.63085054503
 30
0.0
 40
3.0
100
AcDbArc
 50
180.0
 51
270.0
  0
ARC
  5
1E4BAFFD36
330
1E4BABA593
100
AcDbEntity
  8
JISSEN
100
AcDbCircle
 10
3964.272863825462
 20
8763.630850545025
 30
0.0
 40
88.0
100
AcDbArc
 50
129.3761353833242
 51
133.9099976644587
  0
ARC
  5
1E4BAFFD37
330
1E4BABA593
100
AcDbEntity
  8
JISSEN
100
AcDbCircle
 10
3905.272863825461
 20
8835.51965356747
 30
0.0
 40
5.0
100
AcDbArc
 50
309.3761353833243
 51
0.0
  0
ARC
  5
1E4BAFFD38
330
1E4BABA593
100
AcDbEntity
  8
JISSEN
100
AcDbCircle
 10
3947.522863825462
 20
8841.130850545029
 30
0.0
 40
1.0
100
AcDbArc
 50
0.0
 51
180.0
  0
ARC
  5
1E4BAFFD39
330
1E4BABA593
100
AcDbEntity
  8
JISSEN
100
AcDbCircle
 10
3930.522863825462
 20
8841.130850545029
 30
0.0
 40
1.0
100
AcDbArc
 50
0.0
 51
180.0
  0
ARC
  5
1E4BAFFD3A
330
1E4BABA593
100
AcDbEntity
  8
JISSEN
100
AcDbCircle
 10
3939.022863825462
 20
8836.13085054503
 30
0.0
 40
4.0
100
AcDbArc
 50
0.0
 51
180.0
  0
ARC
  5
1E4BAFFD3B
330
1E4BABA593
100
AcDbEntity
  8
JISSEN
100
AcDbCircle
 10
3939.022863825462
 20
8836.13085054503
 30
0.0
 40
6.0
100
AcDbArc
 50
0.0
 51
180.0
  0
LINE
  5
1E4BAFFD3C
330
1E4BABA593
100
AcDbEntity
  8
JISSEN
100
AcDbLine
 10
3948.522863825462
 20
8830.23085054503
 30
0.0
 11
3948.522863825462
 21
8825.130850545029
 31
0.0
  0
ARC
  5
1E4BAFFD3D
330
1E4BABA593
100
AcDbEntity
  8
JISSEN
100
AcDbCircle
 10
3947.522863825462
 20
8825.130850545029
 30
0.0
 40
1.0
100
AcDbArc
 50
180.0
 51
0.0
  0
ARC
  5
1E4BAFFD3E
330
1E4BABA593
100
AcDbEntity
  8
JISSEN
100
AcDbCircle
 10
3939.022863825462
 20
8830.13085054503
 30
0.0
 40
4.0
100
AcDbArc
 50
180.0
 51
0.0
  0
ARC
  5
1E4BAFFD3F
330
1E4BABA593
100
AcDbEntity
  8
JISSEN
100
AcDbCircle
 10
3939.022863825462
 20
8830.13085054503
 30
0.0
 40
6.0
100
AcDbArc
 50
180.0
 51
0.0
  0
ARC
  5
1E4BAFFD40
330
1E4BABA593
100
AcDbEntity
  8
JISSEN
100
AcDbCircle
 10
3930.522863825462
 20
8825.130850545029
 30
0.0
 40
1.0
100
AcDbArc
 50
180.0
 51
0.0
  0
LINE
  5
1E4BAFFD41
330
1E4BABA593
100
AcDbEntity
  8
JISSEN
100
AcDbLine
 10
3952.104525770439
 20
8833.991595587255
 30
0.0
 11
3948.522863825462
 21
8830.23085054503
 31
0.0
  0
LINE
  5
1E4BAFFD42
330
1E4BABA593
100
AcDbEntity
  8
JISSEN
100
AcDbLine
 10
3946.522863825462
 20
8825.130850545029
 30
0.0
 11
3946.522863825462
 21
8841.130850545029
 31
0.0
  0
LINE
  5
1E4BAFFD43
330
1E4BABA593
100
AcDbEntity
  8
JISSEN
100
AcDbLine
 10
3948.522863825462
 20
8841.130850545029
 30
0.0
 11
3948.522863825462
 21
8833.13085054503
 31
0.0
  0
LINE
  5
1E4BAFFD44
330
1E4BABA593
100
AcDbEntity
  8
JISSEN
100
AcDbLine
 10
3945.022863825462
 20
8836.13085054503
 30
0.0
 11
3945.022863825462
 21
8830.13085054503
 31
0.0
  0
LINE
  5
1E4BAFFD45
330
1E4BABA593
100
AcDbEntity
  8
JISSEN
100
AcDbLine
 10
3943.022863825462
 20
8836.13085054503
 30
0.0
 11
3943.022863825462
 21
8830.13085054503
 31
0.0
  0
LINE
  5
1E4BAFFD46
330
1E4BABA593
100
AcDbEntity
  8
JISSEN
100
AcDbLine
 10
3935.022863825462
 20
8836.13085054503
 30
0.0
 11
3935.022863825462
 21
8830.13085054503
 31
0.0
  0
LINE
  5
1E4BAFFD47
330
1E4BABA593
100
AcDbEntity
  8
JISSEN
100
AcDbLine
 10
3933.022863825462
 20
8836.13085054503
 30
0.0
 11
3933.022863825462
 21
8830.13085054503
 31
0.0
  0
LINE
  5
1E4BAFFD48
330
1E4BABA593
100
AcDbEntity
  8
JISSEN
100
AcDbLine
 10
3929.522863825463
 20
8825.130850545029
 30
0.0
 11
3929.522863825463
 21
8841.130850545029
 31
0.0
  0
LINE
  5
1E4BAFFD49
330
1E4BABA593
100
AcDbEntity
  8
JISSEN
100
AcDbLine
 10
3931.522863825462
 20
8841.130850545029
 30
0.0
 11
3931.522863825462
 21
8825.130850545029
 31
0.0
  0
LINE
  5
1E4BAFFD4A
330
1E4BABA593
100
AcDbEntity
  8
JISSEN
100
AcDbLine
 10
3892.772863825464
 20
8875.12441997844
 30
0.0
 11
3892.772863825464
 21
8875.12441997844
 31
0.0
  0
LINE
  5
1E4BAFFD4B
330
1E4BABA593
100
AcDbEntity
  8
JISSEN
100
AcDbLine
 10
3892.772863825464
 20
8875.12441997844
 30
0.0
 11
3892.772863825464
 21
8875.12441997844
 31
0.0
  0
LINE
  5
1E4BAFFD4C
330
1E4BABA593
100
AcDbEntity
  8
JISSEN
100
AcDbLine
 10
3892.772863825464
 20
8875.12441997844
 30
0.0
 11
3892.772863825464
 21
8875.12441997844
 31
0.0
  0
LINE
  5
1E4BAFFD4D
330
1E4BABA593
100
AcDbEntity
  8
JISSEN
100
AcDbLine
 10
3892.772863825464
 20
8875.13085054503
 30
0.0
 11
3892.772863825464
 21
8875.12441997844
 31
0.0
  0
ARC
  5
1E4BAFFD4E
330
1E4BABA593
100
AcDbEntity
  8
JISSEN
100
AcDbCircle
 10
3893.77286382546
 20
8865.630850545029
 30
0.0
 40
2.0
100
AcDbArc
 50
0.0
 51
90.0
  0
ARC
  5
1E4BAFFD4F
330
1E4BABA593
100
AcDbEntity
  8
JISSEN
100
AcDbCircle
 10
3897.772863825455
 20
8859.630850545029
 30
0.0
 40
2.0
100
AcDbArc
 50
90.0
 51
180.0
  0
LINE
  5
1E4BAFFD50
330
1E4BABA593
100
AcDbEntity
  8
JISSEN
100
AcDbLine
 10
3895.77286382546
 20
8865.630850545029
 30
0.0
 11
3895.77286382546
 21
8863.630850545029
 31
0.0
  0
LINE
  5
1E4BAFFD51
330
1E4BABA593
100
AcDbEntity
  8
JISSEN
100
AcDbLine
 10
3876.772863825462
 20
8867.63085054503
 30
0.0
 11
3889.772863825461
 21
8867.63085054503
 31
0.0
  0
LINE
  5
1E4BAFFD52
330
1E4BABA593
100
AcDbEntity
  8
JISSEN
100
AcDbLine
 10
3954.272863825463
 20
8879.630850545029
 30
0.0
 11
3954.272863825462
 21
8863.630850545029
 31
0.0
  0
ARC
  5
1E4BAFFD53
330
1E4BABA593
100
AcDbEntity
  8
JISSEN
100
AcDbCircle
 10
4330.560884436198
 20
8851.630850545025
 30
0.0
 40
10.0
100
AcDbArc
 50
90.0
 51
180.0
  0
CIRCLE
  5
1E4BAFFD56
330
1E4BABA593
100
AcDbEntity
  8
JISSEN
100
AcDbCircle
 10
4266.560884436194
 20
8797.630850545029
 30
0.0
 40
70.0
  0
CIRCLE
  5
1E4BAFFD57
330
1E4BABA593
100
AcDbEntity
  8
JISSEN
100
AcDbCircle
 10
4266.5608844362
 20
8797.63085054503
 30
0.0
 40
67.49999999999727
  0
LINE
  5
1E4BAFFD5A
330
1E4BABA593
100
AcDbEntity
  8
JISSEN
100
AcDbLine
 10
4294.915778193714
 20
8861.630850545029
 30
0.0
 11
4340.060884436196
 21
8861.630850545029
 31
0.0
  0
LINE
  5
1E4BAFFD5F
330
1E4BABA593
100
AcDbEntity
  8
ITTEN
 48
3.0
100
AcDbLine
 10
4344.560884436194
 20
8797.630850545029
 30
0.0
 11
4188.560884436194
 21
8797.630850545029
 31
0.0
  0
LINE
  5
1E4BAFFD60
330
1E4BABA593
100
AcDbEntity
  8
JISSEN
100
AcDbLine
 10
4195.060884436196
 20
8879.630850545032
 30
0.0
 11
4340.076632752086
 21
8879.630850545032
 31
0.0
  0
LINE
  5
1E4BAFFD61
330
1E4BABA593
100
AcDbEntity
  8
JISSEN
100
AcDbLine
 10
4195.060884436196
 20
8879.630850545029
 30
0.0
 11
4340.076632752317
 21
8879.630850545029
 31
0.0
  0
ARC
  5
1E4BAFFD62
330
1E4BABA593
100
AcDbEntity
  8
ITTEN
 48
3.0
100
AcDbCircle
 10
4266.560884436196
 20
8797.630850545029
 30
0.0
 40
52.5
100
AcDbArc
 50
90.0
 51
270.0
  0
ARC
  5
1E4BAFFD63
330
1E4BABA593
100
AcDbEntity
  8
ITTEN
 48
3.0
100
AcDbCircle
 10
4266.560884436196
 20
8797.630850545029
 30
0.0
 40
52.5
100
AcDbArc
 50
270.0
 51
90.0
  0
ARC
  5
1E4BAFFD64
330
1E4BABA593
100
AcDbEntity
  8
JISSEN
100
AcDbCircle
 10
3964.27286382543
 20
8625.697299454698
 30
0.0
 40
124.6049128255348
100
AcDbArc
 50
78.89493119830426
 51
84.81121343266922
  0
LINE
  5
1E4BAFFD67
330
1E4BABA593
100
AcDbEntity
  8
JISSEN
100
AcDbLine
 10
4032.774186066741
 20
8865.70356379533
 30
0.0
 11
4032.774186066738
 21
8729.630850545029
 31
0.0
  0
LINE
  5
1E4BAFFD68
330
1E4BABA593
100
AcDbEntity
  8
JISSEN
100
AcDbLine
 10
4054.272863825461
 20
8730.130850545027
 30
0.0
 11
4054.272863825461
 21
8865.130850545027
 31
0.0
  0
LINE
  5
1E4BAFFD6B
330
1E4BABA593
100
AcDbEntity
  8
ITTEN
 48
3.0
100
AcDbLine
 10
4059.275084444436
 20
8745.130850545029
 30
0.0
 11
4027.774186066738
 21
8745.130850545029
 31
0.0
  0
LINE
  5
1E4BAFFD6D
330
1E4BABA593
100
AcDbEntity
  8
JISSEN
100
AcDbLine
 10
4051.772863825462
 20
8727.630850545029
 30
0.0
 11
4034.774186066739
 21
8727.630850545029
 31
0.0
  0
ARC
  5
1E4BAFFD73
330
1E4BABA593
100
AcDbEntity
  8
JISSEN
100
AcDbCircle
 10
3987.272863825459
 20
8735.025218902627
 30
0.0
 40
3.0
100
AcDbArc
 50
270.0
 51
0.0
  0
LINE
  5
1E4BAFFD76
330
1E4BABA593
100
AcDbEntity
  8
JISSEN
100
AcDbLine
 10
3990.272863825458
 20
8743.949609677897
 30
0.0
 11
3990.272863825458
 21
8735.025218902627
 31
0.0
  0
ARC
  5
1E4BAFFD78
330
1E4BABA593
100
AcDbEntity
  8
JISSEN
100
AcDbCircle
 10
4034.774186066739
 20
8729.630850545029
 30
0.0
 40
2.0
100
AcDbArc
 50
180.0
 51
270.0
  0
LINE
  5
1E4BAFFD7C
330
1E4BABA593
100
AcDbEntity
  8
JISSEN
100
AcDbLine
 10
4051.772863825462
 20
8727.630850545029
 30
0.0
 11
4054.272863825461
 21
8730.130850545027
 31
0.0
  0
LINE
  5
1E4BAFFD9A
330
1E4BABA593
100
AcDbEntity
  8
JISSEN
100
AcDbLine
 10
3977.344660595179
 20
8815.130850545029
 30
0.0
 11
3977.344660595179
 21
8817.130850545052
 31
0.0
  0
LINE
  5
1E4BAFFD9B
330
1E4BABA593
100
AcDbEntity
  8
JISSEN
100
AcDbLine
 10
3977.344660595179
 20
8817.130850545052
 30
0.0
 11
3984.272863825455
 21
8813.130850545029
 31
0.0
  0
LINE
  5
1E4BAFFD9C
330
1E4BABA593
100
AcDbEntity
  8
JISSEN
100
AcDbLine
 10
3964.272863825468
 20
8817.13085054504
 30
0.0
 11
3971.736965440639
 21
8815.130850545029
 31
0.0
  0
LINE
  5
1E4BAFFD9D
330
1E4BABA593
100
AcDbEntity
  8
ASSIST
100
AcDbLine
 10
4029.772863825463
 20
8769.630850545029
 30
0.0
 11
4028.770925811852
 21
8769.630850545029
 31
0.0
  0
ARC
  5
1E4BAFFD9E
330
1E4BABA593
100
AcDbEntity
  8
JISSEN
100
AcDbCircle
 10
4029.772863825463
 20
8766.630850545029
 30
0.0
 40
3.0
100
AcDbArc
 50
0.0
 51
90.0
  0
LINE
  5
1E4BAFFD9F
330
1E4BABA593
100
AcDbEntity
  8
JISSEN
100
AcDbLine
 10
3971.736965440639
 20
8815.130850545029
 30
0.0
 11
3977.344660595179
 21
8815.130850545029
 31
0.0
  0
LINE
  5
1E4BAFFDA0
330
1E4BABA593
100
AcDbEntity
  8
JISSEN
100
AcDbLine
 10
3977.344660595179
 20
8809.130850545029
 30
0.0
 11
3977.344660595179
 21
8811.13085054503
 31
0.0
  0
LINE
  5
1E4BAFFDA1
330
1E4BABA593
100
AcDbEntity
  8
JISSEN
100
AcDbLine
 10
3977.344660595179
 20
8811.13085054503
 30
0.0
 11
3971.736965440639
 21
8811.13085054503
 31
0.0
  0
LINE
  5
1E4BAFFDA2
330
1E4BABA593
100
AcDbEntity
  8
JISSEN
100
AcDbLine
 10
3984.272863825455
 20
8813.130850545029
 30
0.0
 11
3977.344660595179
 21
8809.130850545029
 31
0.0
  0
LINE
  5
1E4BAFFDA3
330
1E4BABA593
100
AcDbEntity
  8
JISSEN
100
AcDbLine
 10
3971.736965440639
 20
8811.13085054503
 30
0.0
 11
3964.272863825502
 21
8809.130850545029
 31
0.0
  0
LINE
  5
1E4BAFFDA6
330
1E4BABA593
100
AcDbEntity
  8
ITTEN
 48
3.0
100
AcDbLine
 10
4059.454798952102
 20
8850.13085054503
 30
0.0
 11
4027.774186066736
 21
8850.13085054503
 31
0.0
  0
LINE
  5
1E4BAFFDA7
330
1E4BABA593
100
AcDbEntity
  8
JISSEN
100
AcDbLine
 10
4018.272863825461
 20
8851.630850545029
 30
0.0
 11
4018.272863825461
 21
8835.519653567468
 31
0.0
  0
ARC
  5
1E4BAFFDA8
330
1E4BABA593
100
AcDbEntity
  8
JISSEN
100
AcDbCircle
 10
3993.022863825462
 20
8836.13085054503
 30
0.0
 40
4.0
100
AcDbArc
 50
0.0
 51
180.0
  0
ARC
  5
1E4BAFFDA9
330
1E4BABA593
100
AcDbEntity
  8
JISSEN
100
AcDbCircle
 10
3993.022863825462
 20
8836.13085054503
 30
0.0
 40
6.0
100
AcDbArc
 50
0.0
 51
180.0
  0
ARC
  5
1E4BAFFDAA
330
1E4BABA593
100
AcDbEntity
  8
JISSEN
100
AcDbCircle
 10
3993.022863825462
 20
8830.13085054503
 30
0.0
 40
4.0
100
AcDbArc
 50
180.0
 51
0.0
  0
ARC
  5
1E4BAFFDAB
330
1E4BABA593
100
AcDbEntity
  8
JISSEN
100
AcDbCircle
 10
3993.022863825462
 20
8830.13085054503
 30
0.0
 40
6.0
100
AcDbArc
 50
180.0
 51
0.0
  0
ARC
  5
1E4BAFFDAC
330
1E4BABA593
100
AcDbEntity
  8
JISSEN
100
AcDbCircle
 10
3982.022863825462
 20
8841.130850545029
 30
0.0
 40
1.0
100
AcDbArc
 50
0.0
 51
147.9946167919385
  0
ARC
  5
1E4BAFFDAD
330
1E4BABA593
100
AcDbEntity
  8
JISSEN
100
AcDbCircle
 10
3984.522863825462
 20
8829.130850545029
 30
0.0
 40
1.0
100
AcDbArc
 50
270.0
 51
90.0
  0
LINE
  5
1E4BAFFDAE
330
1E4BABA593
100
AcDbEntity
  8
ASSIST
100
AcDbLine
 10
3983.022863825462
 20
8828.130850545027
 30
0.0
 11
3983.022863825462
 21
8825.130850545029
 31
0.0
  0
LINE
  5
1E4BAFFDAF
330
1E4BABA593
100
AcDbEntity
  8
ASSIST
100
AcDbLine
 10
3981.022863825462
 20
8828.130850545027
 30
0.0
 11
3981.022863825462
 21
8825.130850545029
 31
0.0
  0
LINE
  5
1E4BAFFDB0
330
1E4BABA593
100
AcDbEntity
  8
ASSIST
100
AcDbLine
 10
3981.022863825462
 20
8830.13085054503
 30
0.0
 11
3976.327111466969
 21
8830.13085054503
 31
0.0
  0
ARC
  5
1E4BAFFDB1
330
1E4BABA593
100
AcDbEntity
  8
JISSEN
100
AcDbCircle
 10
3974.522863825462
 20
8829.130850545029
 30
0.0
 40
1.0
100
AcDbArc
 50
147.9946167919385
 51
270.0
  0
LINE
  5
1E4BAFFDB2
330
1E4BABA593
100
AcDbEntity
  8
ASSIST
100
AcDbLine
 10
3981.022863825462
 20
8828.130850545027
 30
0.0
 11
3974.522863825462
 21
8828.130850545027
 31
0.0
  0
ARC
  5
1E4BAFFDB3
330
1E4BABA593
100
AcDbEntity
  8
JISSEN
100
AcDbCircle
 10
3982.022863825462
 20
8825.130850545029
 30
0.0
 40
1.0
100
AcDbArc
 50
180.0
 51
0.0
  0
LINE
  5
1E4BAFFDB4
330
1E4BABA593
100
AcDbEntity
  8
ASSIST
100
AcDbLine
 10
3984.522863825462
 20
8828.130850545027
 30
0.0
 11
3983.022863825462
 21
8828.130850545027
 31
0.0
  0
LINE
  5
1E4BAFFDB5
330
1E4BABA593
100
AcDbEntity
  8
ASSIST
100
AcDbLine
 10
3984.522863825462
 20
8830.13085054503
 30
0.0
 11
3983.022863825462
 21
8830.13085054503
 31
0.0
  0
LINE
  5
1E4BAFFDB6
330
1E4BABA593
100
AcDbEntity
  8
JISSEN
100
AcDbLine
 10
3987.022863825462
 20
8836.13085054503
 30
0.0
 11
3987.022863825462
 21
8830.13085054503
 31
0.0
  0
LINE
  5
1E4BAFFDB7
330
1E4BABA593
100
AcDbEntity
  8
JISSEN
100
AcDbLine
 10
3989.022863825463
 20
8836.13085054503
 30
0.0
 11
3989.022863825463
 21
8830.13085054503
 31
0.0
  0
LINE
  5
1E4BAFFDB8
330
1E4BABA593
100
AcDbEntity
  8
JISSEN
100
AcDbLine
 10
3981.022863825462
 20
8837.644054318616
 30
0.0
 11
3976.327111466969
 21
8830.13085054503
 31
0.0
  0
LINE
  5
1E4BAFFDB9
330
1E4BABA593
100
AcDbEntity
  8
ASSIST
100
AcDbLine
 10
3981.022863825462
 20
8837.644054318618
 30
0.0
 11
3981.022863825462
 21
8830.13085054503
 31
0.0
  0
ARC
  5
1E4BAFFDBA
330
1E4BABA593
100
AcDbEntity
  8
JISSEN
100
AcDbCircle
 10
3971.022863825462
 20
8833.13085054503
 30
0.0
 40
1.0
100
AcDbArc
 50
270.0
 51
90.0
  0
LINE
  5
1E4BAFFDBB
330
1E4BABA593
100
AcDbEntity
  8
JISSEN
100
AcDbLine
 10
3981.174865521457
 20
8841.660849485032
 30
0.0
 11
3973.674865521457
 21
8829.660849485032
 31
0.0
  0
LINE
  5
1E4BAFFDBC
330
1E4BABA593
100
AcDbEntity
  8
ASSIST
100
AcDbLine
 10
3983.022863825462
 20
8841.130850545029
 30
0.0
 11
3983.022863825462
 21
8830.13085054503
 31
0.0
  0
ARC
  5
1E4BAFFDBD
330
1E4BABA593
100
AcDbEntity
  8
JISSEN
100
AcDbCircle
 10
3957.522863825463
 20
8841.130850545029
 30
0.0
 40
1.0
100
AcDbArc
 50
316.3971810273251
 51
136.3971810273251
  0
ARC
  5
1E4BAFFDBE
330
1E4BABA593
100
AcDbEntity
  8
JISSEN
100
AcDbCircle
 10
3957.522863825463
 20
8825.13085054503
 30
0.0
 40
1.0
100
AcDbArc
 50
205.9206115365683
 51
25.92061153656834
  0
ARC
  5
1E4BAFFDBF
330
1E4BABA593
100
AcDbEntity
  8
JISSEN
100
AcDbCircle
 10
3961.022863825462
 20
8833.13085054503
 30
0.0
 40
1.0
100
AcDbArc
 50
90.0
 51
270.0
  0
LINE
  5
1E4BAFFDC0
330
1E4BABA593
100
AcDbEntity
  8
JISSEN
100
AcDbLine
 10
3971.022863825462
 20
8832.130850545029
 30
0.0
 11
3961.022863825462
 21
8832.130850545029
 31
0.0
  0
LINE
  5
1E4BAFFDC1
330
1E4BABA593
100
AcDbEntity
  8
JISSEN
100
AcDbLine
 10
3961.022863825462
 20
8834.130850545029
 30
0.0
 11
3971.022863825462
 21
8834.130850545029
 31
0.0
  0
ARC
  5
1E4BAFFDC2
330
1E4BABA593
100
AcDbEntity
  8
JISSEN
100
AcDbCircle
 10
4027.959597137793
 20
8828.63085054503
 30
0.0
 40
3.0
100
AcDbArc
 50
225.5846914028294
 51
270.0
  0
LINE
  5
1E4BAFFDC3
330
1E4BABA593
100
AcDbEntity
  8
ASSIST
100
AcDbLine
 10
4029.772863825463
 20
8825.63085054503
 30
0.0
 11
4027.959597137793
 21
8825.63085054503
 31
0.0
  0
ARC
  5
1E4BAFFDC4
330
1E4BABA593
100
AcDbEntity
  8
JISSEN
100
AcDbCircle
 10
4029.772863825463
 20
8828.63085054503
 30
0.0
 40
3.0
100
AcDbArc
 50
270.0
 51
0.0
  0
ARC
  5
1E4BAFFDC5
330
1E4BABA593
100
AcDbEntity
  8
JISSEN
100
AcDbCircle
 10
3964.272863825457
 20
8763.630850545025
 30
0.0
 40
88.0
100
AcDbArc
 50
45.58469140282945
 51
50.62386461667573
  0
ARC
  5
1E4BAFFDC6
330
1E4BABA593
100
AcDbEntity
  8
JISSEN
100
AcDbCircle
 10
4023.27286382546
 20
8835.519653567468
 30
0.0
 40
5.0
100
AcDbArc
 50
180.0
 51
230.6238646166757
  0
LINE
  5
1E4BAFFDC7
330
1E4BABA593
100
AcDbEntity
  8
JISSEN
100
AcDbLine
 10
3999.022863825462
 20
8836.13085054503
 30
0.0
 11
3999.022863825462
 21
8830.13085054503
 31
0.0
  0
LINE
  5
1E4BAFFDC8
330
1E4BABA593
100
AcDbEntity
  8
JISSEN
100
AcDbLine
 10
3997.022863825462
 20
8836.13085054503
 30
0.0
 11
3997.022863825462
 21
8830.13085054503
 31
0.0
  0
ARC
  5
1E4BAFFDC9
330
1E4BABA593
100
AcDbEntity
  8
JISSEN
100
AcDbCircle
 10
3972.272863825462
 20
8863.630850545029
 30
0.0
 40
2.0
100
AcDbArc
 50
270.0
 51
0.0
  0
LINE
  5
1E4BAFFDCA
330
1E4BABA593
100
AcDbEntity
  8
JISSEN
100
AcDbLine
 10
3974.272863825462
 20
8879.630850545029
 30
0.0
 11
3974.272863825462
 21
8863.630850545029
 31
0.0
  0
ARC
  5
1E4BAFFDCC
330
1E4BABA593
100
AcDbEntity
  8
JISSEN
100
AcDbCircle
 10
4034.772863825468
 20
8865.630850545036
 30
0.0
 40
2.0
100
AcDbArc
 50
90.0
 51
180.0
  0
ARC
  5
1E4BAFFDCD
330
1E4BABA593
100
AcDbEntity
  8
JISSEN
100
AcDbCircle
 10
4030.774186066735
 20
8859.630850545029
 30
0.0
 40
2.0
100
AcDbArc
 50
0.0
 51
90.0
  0
ARC
  5
1E4BAFFDCE
330
1E4BABA593
100
AcDbEntity
  8
JISSEN
100
AcDbCircle
 10
4028.272863825462
 20
8851.630850545029
 30
0.0
 40
10.0
100
AcDbArc
 50
90.0
 51
180.0
  0
LINE
  5
1E4BAFFDCF
330
1E4BABA593
100
AcDbEntity
  8
JISSEN
100
AcDbLine
 10
4032.772863825468
 20
8865.630850545036
 30
0.0
 11
4032.772863825468
 21
8863.63085054504
 31
0.0
  0
LINE
  5
1E4BAFFDD0
330
1E4BABA593
100
AcDbEntity
  8
JISSEN
100
AcDbLine
 10
4054.272863825461
 20
8865.130850545027
 30
0.0
 11
4051.772863825461
 21
8867.63085054503
 31
0.0
  0
ARC
  5
1E4BAFFDD1
330
1E4BABA593
100
AcDbEntity
  8
JISSEN
100
AcDbCircle
 10
4038.77286382546
 20
8870.63085054503
 30
0.0
 40
3.0
100
AcDbArc
 50
180.0
 51
270.0
  0
LINE
  5
1E4BAFFDD2
330
1E4BABA593
100
AcDbEntity
  8
JISSEN
100
AcDbLine
 10
4051.772863825461
 20
8867.63085054503
 30
0.0
 11
4038.77286382546
 21
8867.63085054503
 31
0.0
  0
CIRCLE
  5
1E4BAFFDD4
330
1E4BABA593
100
AcDbEntity
  8
JISSEN
100
AcDbCircle
 10
4266.560884436196
 20
8797.630850545029
 30
0.0
 40
22.0
  0
CIRCLE
  5
1E4BAFFDD5
330
1E4BABA593
100
AcDbEntity
  8
JISSEN
100
AcDbCircle
 10
4266.560884436196
 20
8797.630850545029
 30
0.0
 40
20.0
  0
LINE
  5
1E4BAFFDD6
330
1E4BABA593
100
AcDbEntity
  8
JISSEN
100
AcDbLine
 10
4285.789768959233
 20
8792.13085054503
 30
0.0
 11
4247.331999913177
 21
8792.13085054503
 31
0.0
  0
CIRCLE
  5
1E4BAFFDD7
330
1E4BABA593
100
AcDbEntity
  8
JISSEN
100
AcDbCircle
 10
4229.437778423902
 20
8760.507744532735
 30
0.0
 40
9.5
  0
LINE
  5
1E4BAFFDD8
330
1E4BABA593
100
AcDbEntity
  8
ITTEN
 48
3.0
100
AcDbLine
 10
4238.276613188733
 20
8769.346579297566
 30
0.0
 11
4220.598943659069
 21
8751.668909767905
 31
0.0
  0
CIRCLE
  5
1E4BAFFDDA
330
1E4BABA593
100
AcDbEntity
  8
JISSEN
100
AcDbCircle
 10
4303.683990448489
 20
8760.507744532735
 30
0.0
 40
9.5
  0
LINE
  5
1E4BAFFDDB
330
1E4BABA593
100
AcDbEntity
  8
ITTEN
 48
3.0
100
AcDbLine
 10
4294.845155683657
 20
8769.346579297566
 30
0.0
 11
4312.522825213322
 21
8751.668909767905
 31
0.0
  0
ARC
  5
1E4BAFFDDC
330
1E4BABA593
100
AcDbEntity
  8
JISSEN
100
AcDbCircle
 10
4266.560884436199
 20
8952.630850545029
 30
0.0
 40
73.0
100
AcDbArc
 50
254.913680674462
 51
285.0863193255379
  0
LINE
  5
1E4BAFFDDD
330
1E4BABA593
100
AcDbEntity
  8
JISSEN
100
AcDbLine
 10
4212.560884436194
 20
8851.630850545025
 30
0.0
 11
4212.560884436194
 21
8847.630850545029
 31
0.0
  0
LINE
  5
1E4BAFFDDE
330
1E4BABA593
100
AcDbEntity
  8
JISSEN
100
AcDbLine
 10
4212.560884436193
 20
8851.630850545025
 30
0.0
 11
4212.560884436194
 21
8842.172965447666
 31
0.0
  0
CIRCLE
  5
1E4BAFFDDF
330
1E4BABA593
100
AcDbEntity
  8
JISSEN
100
AcDbCircle
 10
4229.437778423902
 20
8834.753956557322
 30
0.0
 40
9.5
  0
LINE
  5
1E4BAFFDE0
330
1E4BABA593
100
AcDbEntity
  8
ITTEN
 48
3.0
100
AcDbLine
 10
4238.276613188733
 20
8825.915121792488
 30
0.0
 11
4220.598943659069
 21
8843.592791322153
 31
0.0
  0
ARC
  5
1E4BAFFDE1
330
1E4BABA593
100
AcDbEntity
  8
JISSEN
100
AcDbCircle
 10
4202.560884436194
 20
8851.630850545025
 30
0.0
 40
10.0
100
AcDbArc
 50
0.0
 51
90.0
  0
LINE
  5
1E4BAFFDE2
330
1E4BABA593
100
AcDbEntity
  8
JISSEN
100
AcDbLine
 10
4238.205990678677
 20
8861.630850545029
 30
0.0
 11
4197.060884434228
 21
8861.630850545029
 31
0.0
  0
LINE
  5
1E4BAFFDE3
330
1E4BABA593
100
AcDbEntity
  8
JISSEN
100
AcDbLine
 10
4195.060884436196
 20
8875.13085054503
 30
0.0
 11
4195.060884436196
 21
8875.12441997844
 31
0.0
  0
LINE
  5
1E4BAFFDE4
330
1E4BABA593
100
AcDbEntity
  8
JISSEN
100
AcDbLine
 10
4195.060884436196
 20
8875.12441997844
 30
0.0
 11
4195.060884436196
 21
8875.12441997844
 31
0.0
  0
LINE
  5
1E4BAFFDE5
330
1E4BABA593
100
AcDbEntity
  8
JISSEN
100
AcDbLine
 10
4195.060884436196
 20
8875.12441997844
 30
0.0
 11
4195.060884436196
 21
8875.12441997844
 31
0.0
  0
LINE
  5
1E4BAFFDE6
330
1E4BABA593
100
AcDbEntity
  8
JISSEN
100
AcDbLine
 10
4195.060884436196
 20
8875.12441997844
 30
0.0
 11
4195.060884436196
 21
8875.12441997844
 31
0.0
  0
ARC
  5
1E4BAFFDE7
330
1E4BABA593
100
AcDbEntity
  8
JISSEN
100
AcDbCircle
 10
4197.060884436196
 20
8863.630850545029
 30
0.0
 40
2.0
100
AcDbArc
 50
180.0
 51
270.0
  0
ARC
  5
1E4BAFFDE8
330
1E4BABA593
100
AcDbEntity
  8
JISSEN
100
AcDbCircle
 10
4197.060884434228
 20
8863.630850545029
 30
0.0
 40
2.0
100
AcDbArc
 50
179.999999991975
 51
270.0
  0
LINE
  5
1E4BAFFDE9
330
1E4BABA593
100
AcDbEntity
  8
JISSEN
100
AcDbLine
 10
4195.060884436196
 20
8879.630850545032
 30
0.0
 11
4195.060884436196
 21
8863.630850545029
 31
0.0
  0
LINE
  5
1E4BAFFDEA
330
1E4BABA593
100
AcDbEntity
  8
JISSEN
100
AcDbLine
 10
4320.560884436199
 20
8851.630850545025
 30
0.0
 11
4320.560884436197
 21
8842.172965447666
 31
0.0
  0
LINE
  5
1E4BAFFDEB
330
1E4BABA593
100
AcDbEntity
  8
JISSEN
100
AcDbLine
 10
4320.560884436197
 20
8851.630850545025
 30
0.0
 11
4320.560884436197
 21
8847.630850545029
 31
0.0
  0
CIRCLE
  5
1E4BAFFDED
330
1E4BABA593
100
AcDbEntity
  8
JISSEN
100
AcDbCircle
 10
4303.68399044849
 20
8834.753956557322
 30
0.0
 40
9.5
  0
LINE
  5
1E4BAFFDEE
330
1E4BABA593
100
AcDbEntity
  8
ITTEN
 48
3.0
100
AcDbLine
 10
4294.845155683658
 20
8825.915121792488
 30
0.0
 11
4312.522825213322
 21
8843.592791322153
 31
0.0
  0
ARC
  5
1E4BAFFEFB
330
1E4BABA593
100
AcDbEntity
  8
JISSEN
100
AcDbCircle
 10
4340.060884436196
 20
8877.630912548355
 30
0.0
 40
2.0
100
AcDbArc
 50
59.9999999999897
 51
90.0
  0
ARC
  5
1E4BAFFEFC
330
1E4BABA593
100
AcDbEntity
  8
JISSEN
100
AcDbCircle
 10
4340.060884436196
 20
8863.630850545029
 30
0.0
 40
2.0
100
AcDbArc
 50
270.0
 51
300.0000000000103
  0
LINE
  5
1E4BAFFEFD
330
1E4BABA593
100
AcDbEntity
  8
JISSEN
100
AcDbLine
 10
4341.060884436195
 20
8879.362963355925
 30
0.0
 11
4341.060884436195
 21
8861.89879973746
 31
0.0
  0
LINE
  5
1E4BAFFEFE
330
1E4BABA593
100
AcDbEntity
  8
JISSEN
100
AcDbLine
 10
4338.060884436194
 20
8875.12441997844
 30
0.0
 11
4338.060884436194
 21
8875.12441997844
 31
0.0
  0
LINE
  5
1E4BAFFEFF
330
1E4BABA593
100
AcDbEntity
  8
JISSEN
100
AcDbLine
 10
4338.060884436194
 20
8875.12441997844
 30
0.0
 11
4338.060884436194
 21
8875.12441997844
 31
0.0
  0
LINE
  5
1E4BAFFF00
330
1E4BABA593
100
AcDbEntity
  8
JISSEN
100
AcDbLine
 10
4338.060884436194
 20
8875.12441997844
 30
0.0
 11
4338.060884436194
 21
8875.12441997844
 31
0.0
  0
LINE
  5
1E4BAFFF01
330
1E4BABA593
100
AcDbEntity
  8
JISSEN
100
AcDbLine
 10
4338.060884436194
 20
8875.13085054503
 30
0.0
 11
4338.060884436194
 21
8875.12441997844
 31
0.0
  0
LINE
  5
1E4BAFFF02
330
1E4BABA593
100
AcDbEntity
  8
JISSEN
100
AcDbLine
 10
4338.060884436194
 20
8879.630850545032
 30
0.0
 11
4338.060884436194
 21
8863.630850545029
 31
0.0
  0
ARC
  5
1E4BAFFF03
330
1E4BABA593
100
AcDbEntity
  8
JISSEN
100
AcDbCircle
 10
4336.060884438164
 20
8863.630850545029
 30
0.0
 40
2.0
100
AcDbArc
 50
270.0
 51
0.000000008024972
  0
ARC
  5
1E4BAFFF04
330
1E4BABA593
100
AcDbEntity
  8
JISSEN
100
AcDbCircle
 10
4336.060884436195
 20
8863.630850545029
 30
0.0
 40
2.0
100
AcDbArc
 50
270.0
 51
0.0
  0
ARC
  5
1E4BAFFF05
330
1E4BABA593
100
AcDbEntity
  8
JISSEN
100
AcDbCircle
 10
3964.424913514904
 20
9135.623211779883
 30
0.0
 40
71.5
100
AcDbArc
 50
15.41058754405998
 51
270.0
  0
LINE
  5
1E4BAFFF06
330
1E4BABA593
100
AcDbEntity
  8
JISSEN
100
AcDbLine
 10
3954.272863825462
 20
9061.123211779885
 30
0.0
 11
3974.272863825462
 21
9061.123211779885
 31
0.0
  0
CIRCLE
  5
1E4BAFFF07
330
1E4BABA593
100
AcDbEntity
  8
JISSEN
100
AcDbCircle
 10
3964.424913514904
 20
9135.623211779883
 30
0.0
 40
15.0
  0
LINE
  5
1E4BAFFF08
330
1E4BABA593
100
AcDbEntity
  8
JISSEN
100
AcDbLine
 10
3950.424913514904
 20
8916.630850545029
 30
0.0
 11
3978.424913514904
 21
8916.630850545029
 31
0.0
  0
LINE
  5
1E4BAFFF09
330
1E4BABA593
100
AcDbEntity
  8
JISSEN
100
AcDbLine
 10
4035.77286382546
 20
8894.630850545029
 30
0.0
 11
3893.772863825463
 21
8894.630850545029
 31
0.0
  0
LINE
  5
1E4BAFFF0A
330
1E4BABA593
100
AcDbEntity
  8
ITTEN
 48
3.0
100
AcDbLine
 10
3866.272863825462
 20
9135.623211779883
 30
0.0
 11
4062.272863825461
 21
9135.623211779883
 31
0.0
  0
LINE
  5
1E4BAFFF0B
330
1E4BABA593
100
AcDbEntity
  8
JISSEN
100
AcDbLine
 10
3876.266425659371
 20
9065.623211779883
 30
0.0
 11
3876.266425659373
 21
9135.623211779894
 31
0.0
  0
LINE
  5
1E4BAFFF0C
330
1E4BABA593
100
AcDbEntity
  8
JISSEN
100
AcDbLine
 10
3874.272863825462
 20
9067.616773613792
 30
0.0
 11
3874.272863825462
 21
9203.629649945971
 31
0.0
  0
ARC
  5
1E4BAFFF0E
330
1E4BABA593
100
AcDbEntity
  8
JISSEN
100
AcDbCircle
 10
3913.612720206087
 20
8886.41478526891
 30
0.0
 40
16.21606527611808
100
AcDbArc
 50
72.41204622605208
 51
85.64351788231048
  0
LINE
  5
1E4BAFFF0F
330
1E4BABA593
100
AcDbEntity
  8
JISSEN
100
AcDbLine
 10
3914.925671248997
 20
8902.630850545029
 30
0.0
 11
3931.899769163173
 21
8902.630850545029
 31
0.0
  0
LINE
  5
1E4BAFFF11
330
1E4BABA593
100
AcDbEntity
  8
JISSEN
100
AcDbLine
 10
3914.925671248997
 20
8902.630850545029
 30
0.0
 11
3913.612720206085
 21
8901.87281790697
 31
0.0
  0
LINE
  5
1E4BAFFF12
330
1E4BABA593
100
AcDbEntity
  8
JISSEN
100
AcDbLine
 10
3913.612720206085
 20
8901.87281790697
 30
0.0
 11
3913.612720206085
 21
8894.630850545029
 31
0.0
  0
ARC
  5
1E4BAFFF13
330
1E4BABA593
100
AcDbEntity
  8
JISSEN
100
AcDbCircle
 10
3893.772863825463
 20
8893.630850545029
 30
0.0
 40
1.0
100
AcDbArc
 50
90.0
 51
180.0
  0
ARC
  5
1E4BAFFF14
330
1E4BABA593
100
AcDbEntity
  8
JISSEN
100
AcDbCircle
 10
3947.924913514905
 20
8896.130850545029
 30
0.0
 40
1.5
100
AcDbArc
 50
270.0
 51
0.0
  0
LINE
  5
1E4BAFFF15
330
1E4BABA593
100
AcDbEntity
  8
JISSEN
100
AcDbLine
 10
3949.424913514905
 20
8915.630850545029
 30
0.0
 11
3949.424913514905
 21
8895.13085054503
 31
0.0
  0
ARC
  5
1E4BAFFF16
330
1E4BABA593
100
AcDbEntity
  8
JISSEN
100
AcDbCircle
 10
3950.424913514904
 20
8915.630850545029
 30
0.0
 40
1.0
100
AcDbArc
 50
90.0
 51
180.0
  0
LINE
  5
1E4BAFFF17
330
1E4BABA593
100
AcDbEntity
  8
JISSEN
100
AcDbLine
 10
3931.899769163173
 20
8902.630850545029
 30
0.0
 11
3933.212720206084
 21
8901.87281790697
 31
0.0
  0
LINE
  5
1E4BAFFF18
330
1E4BABA593
100
AcDbEntity
  8
JISSEN
100
AcDbLine
 10
3933.212720206084
 20
8901.87281790697
 30
0.0
 11
3933.212720206085
 21
8894.630850545029
 31
0.0
  0
LINE
  5
1E4BAFFF19
330
1E4BABA593
100
AcDbEntity
  8
JISSEN
100
AcDbLine
 10
3928.312720206085
 20
8901.87281790697
 30
0.0
 11
3928.312720206085
 21
8894.630850545029
 31
0.0
  0
ARC
  5
1E4BAFFF1A
330
1E4BABA593
100
AcDbEntity
  8
JISSEN
100
AcDbCircle
 10
3933.212720206086
 20
8886.414785268911
 30
0.0
 40
16.21606527611808
100
AcDbArc
 50
94.35648211768952
 51
107.5879537739478
  0
LINE
  5
1E4BAFFF1B
330
1E4BABA593
100
AcDbEntity
  8
JISSEN
100
AcDbLine
 10
3918.512720206085
 20
8901.87281790697
 30
0.0
 11
3918.512720206085
 21
8894.630850545029
 31
0.0
  0
ARC
  5
1E4BAFFF1C
330
1E4BABA593
100
AcDbEntity
  8
JISSEN
100
AcDbCircle
 10
3923.412720206086
 20
8886.41478526891
 30
0.0
 40
16.21606527611808
100
AcDbArc
 50
72.41204622605208
 51
107.5879537739478
  0
LINE
  5
1E4BAFFF1D
330
1E4BABA593
100
AcDbEntity
  8
JISSEN
100
AcDbLine
 10
3876.266425659371
 20
9065.623211779883
 30
0.0
 11
3874.272863825462
 21
9067.616773613792
 31
0.0
  0
LINE
  5
1E4BAFFF1E
330
1E4BABA593
100
AcDbEntity
  8
ITTEN
 48
3.0
100
AcDbLine
 10
3869.188997413459
 20
9083.123211779883
 30
0.0
 11
3900.272863825462
 21
9083.123211779883
 31
0.0
  0
LWPOLYLINE
  5
1E4BAFFF1F
330
1E4BABA593
100
AcDbEntity
  8
JISSEN
100
AcDbPolyline
 90
        6
 70
     1
 43
0.0
 10
3923.412720206084
 20
9105.00332331648
 10
3914.412720206084
 20
9099.80717089377
 10
3914.412720206084
 20
9089.414866048355
 10
3923.412720206084
 20
9084.21871362565
 10
3932.412720206084
 20
9089.414866048355
 10
3932.412720206084
 20
9099.807170893771
  0
CIRCLE
  5
1E4BAFFF20
330
1E4BABA593
100
AcDbEntity
  8
JISSEN
100
AcDbCircle
 10
3923.412720206084
 20
9094.611018471063
 30
0.0
 40
9.0
  0
LINE
  5
1E4BAFFF21
330
1E4BABA593
100
AcDbEntity
  8
JISSEN
100
AcDbLine
 10
3895.27286382546
 20
9067.623211779883
 30
0.0
 11
3895.272863825463
 21
9104.318260094895
 31
0.0
  0
ARC
  5
1E4BAFFF22
330
1E4BABA593
100
AcDbEntity
  8
JISSEN
100
AcDbCircle
 10
3893.272863825461
 20
9067.623211779883
 30
0.0
 40
2.0
100
AcDbArc
 50
270.0
 51
0.0
  0
LINE
  5
1E4BAFFF23
330
1E4BABA593
100
AcDbEntity
  8
JISSEN
100
AcDbLine
 10
3893.272863825461
 20
9065.623211779883
 30
0.0
 11
3876.316425659371
 21
9065.623211779883
 31
0.0
  0
ARC
  5
1E4BAFFF24
330
1E4BABA593
100
AcDbEntity
  8
JISSEN
100
AcDbCircle
 10
3952.272863825463
 20
9063.134745881194
 30
0.0
 40
2.0
100
AcDbArc
 50
0.0
 51
80.48336170390111
  0
LINE
  5
1E4BAFFF25
330
1E4BABA593
100
AcDbEntity
  8
JISSEN
100
AcDbLine
 10
3954.272863825462
 20
9061.123211779885
 30
0.0
 11
3954.272863825462
 21
9063.134745881194
 31
0.0
  0
ARC
  5
1E4BAFFF26
330
1E4BABA593
100
AcDbEntity
  8
JISSEN
100
AcDbCircle
 10
3897.437350377824
 20
9104.10703479797
 30
0.0
 40
2.174768530534584
100
AcDbArc
 50
40.16465920556175
 51
174.426337029574
  0
ARC
  5
1E4BAFFF27
330
1E4BABA593
100
AcDbEntity
  8
JISSEN
100
AcDbCircle
 10
3900.272863825464
 20
9100.649408265748
 30
0.0
 40
5.0
100
AcDbArc
 50
98.47254965977484
 51
180.0
  0
LINE
  5
1E4BAFFF28
330
1E4BABA593
100
AcDbEntity
  8
JISSEN
100
AcDbLine
 10
3895.272863825463
 20
9203.623211779883
 30
0.0
 11
3895.272863825463
 21
9166.928163464874
 31
0.0
  0
LINE
  5
1E4BAFFF29
330
1E4BABA593
100
AcDbEntity
  8
JISSEN
100
AcDbLine
 10
3876.266425659373
 20
9205.623211779883
 30
0.0
 11
3876.266425659372
 21
9135.623211779894
 31
0.0
  0
LINE
  5
1E4BAFFF2A
330
1E4BABA593
100
AcDbEntity
  8
ITTEN
 48
3.0
100
AcDbLine
 10
3869.272863825461
 20
9188.123211779883
 30
0.0
 11
3900.290450040762
 21
9188.123211779883
 31
0.0
  0
LWPOLYLINE
  5
1E4BAFFF2B
330
1E4BABA593
100
AcDbEntity
  8
JISSEN
100
AcDbPolyline
 90
        6
 70
     1
 43
0.0
 10
3933.805025051499
 20
9176.6354050887
 10
3928.608872628791
 20
9185.6354050887
 10
3918.216567783378
 20
9185.6354050887
 10
3913.020415360671
 20
9176.6354050887
 10
3918.216567783378
 20
9167.635405088702
 10
3928.608872628792
 20
9167.635405088702
  0
CIRCLE
  5
1E4BAFFF2C
330
1E4BABA593
100
AcDbEntity
  8
JISSEN
100
AcDbCircle
 10
3923.412720206084
 20
9176.6354050887
 30
0.0
 40
9.0
  0
ARC
  5
1E4BAFFF2D
330
1E4BABA593
100
AcDbEntity
  8
JISSEN
100
AcDbCircle
 10
3900.272863825464
 20
9170.597015294017
 30
0.0
 40
5.0
100
AcDbArc
 50
180.0
 51
261.5274503402251
  0
ARC
  5
1E4BAFFF2E
330
1E4BABA593
100
AcDbEntity
  8
JISSEN
100
AcDbCircle
 10
3897.437350377824
 20
9167.139388761796
 30
0.0
 40
2.174768530534584
100
AcDbArc
 50
185.5736629704259
 51
319.8353407944382
  0
LINE
  5
1E4BAFFF2F
330
1E4BABA593
100
AcDbEntity
  8
JISSEN
100
AcDbLine
 10
3876.266425659372
 20
9205.623211779883
 30
0.0
 11
3874.272863825462
 21
9203.629649945971
 31
0.0
  0
ARC
  5
1E4BAFFF30
330
1E4BABA593
100
AcDbEntity
  8
JISSEN
100
AcDbCircle
 10
3893.272863825462
 20
9203.623211779883
 30
0.0
 40
2.0
100
AcDbArc
 50
0.0
 51
90.0
  0
LINE
  5
1E4BAFFF31
330
1E4BABA593
100
AcDbEntity
  8
JISSEN
100
AcDbLine
 10
3893.272863825462
 20
9205.623211779883
 30
0.0
 11
3876.316425659372
 21
9205.623211779883
 31
0.0
  0
LINE
  5
1E4BAFFF48
330
1E4BABA593
100
AcDbEntity
  8
JISSEN
100
AcDbLine
 10
4287.560884436198
 20
8894.630850545023
 30
0.0
 11
4335.060884436197
 21
8894.630850545023
 31
0.0
  0
LINE
  5
1E4BAFFF4F
330
1E4BABA593
100
AcDbEntity
  8
JISSEN
100
AcDbLine
 10
4035.424913514904
 20
9123.183823569621
 30
0.0
 11
4035.424913514904
 21
9135.996952973042
 31
0.0
  0
LINE
  5
1E4BAFFF50
330
1E4BABA593
100
AcDbEntity
  8
JISSEN
100
AcDbLine
 10
4035.424913514904
 20
9118.123211779883
 30
0.0
 11
4035.424913514904
 21
9135.623211779883
 31
0.0
  0
LINE
  5
1E4BAFFF51
330
1E4BABA593
100
AcDbEntity
  8
JISSEN
100
AcDbLine
 10
4006.424913514904
 20
9122.623211779883
 30
0.0
 11
4006.424913514904
 21
9135.623211779883
 31
0.0
  0
LINE
  5
1E4BAFFF52
330
1E4BABA593
100
AcDbEntity
  8
JISSEN
100
AcDbLine
 10
4052.27286382546
 20
9065.623211779883
 30
0.0
 11
4052.27286382546
 21
9135.62321177989
 31
0.0
  0
LINE
  5
1E4BAFFF53
330
1E4BABA593
100
AcDbEntity
  8
JISSEN
100
AcDbLine
 10
4054.272863825461
 20
9203.623211779883
 30
0.0
 11
4054.272863825461
 21
9067.623211779883
 31
0.0
  0
LINE
  5
1E4BAFFF54
330
1E4BABA593
100
AcDbEntity
  8
ITTEN
 48
3.0
100
AcDbLine
 10
3964.424913514904
 20
9055.749470586732
 30
0.0
 11
3964.424913514904
 21
9214.74947058673
 31
0.0
  0
ARC
  5
1E4BAFFF55
330
1E4BABA593
100
AcDbEntity
  8
JISSEN
100
AcDbCircle
 10
3964.424913514904
 20
9135.623211779883
 30
0.0
 40
71.5
100
AcDbArc
 50
270.0
 51
344.58941245594
  0
ARC
  5
1E4BAFFF57
330
1E4BABA593
100
AcDbEntity
  8
JISSEN
100
AcDbCircle
 10
4034.272863825464
 20
8915.130850545307
 30
0.0
 40
1.5
100
AcDbArc
 50
0.0
 51
90.0
  0
LINE
  5
1E4BAFFF5A
330
1E4BABA593
100
AcDbEntity
  8
JISSEN
100
AcDbLine
 10
4004.272863825463
 20
8909.63085054503
 30
0.0
 11
3980.924913514904
 21
8909.634623455711
 31
0.0
  0
ARC
  5
1E4BAFFF5B
330
1E4BABA593
100
AcDbEntity
  8
JISSEN
100
AcDbCircle
 10
3980.924913514904
 20
8911.134623455711
 30
0.0
 40
1.5
100
AcDbArc
 50
180.0
 51
270.0
  0
LINE
  5
1E4BAFFF5C
330
1E4BABA593
100
AcDbEntity
  8
JISSEN
100
AcDbLine
 10
3979.424913514904
 20
8914.63085054503
 30
0.0
 11
3979.424913514904
 21
8911.134623455711
 31
0.0
  0
LINE
  5
1E4BAFFF5D
330
1E4BABA593
100
AcDbEntity
  8
JISSEN
100
AcDbLine
 10
3979.424913514904
 20
8915.630850545029
 30
0.0
 11
3979.424913514904
 21
8894.630850545029
 31
0.0
  0
ARC
  5
1E4BAFFF5E
330
1E4BABA593
100
AcDbEntity
  8
JISSEN
100
AcDbCircle
 10
3978.424913514904
 20
8915.630850545029
 30
0.0
 40
1.0
100
AcDbArc
 50
0.0
 51
90.0
  0
ARC
  5
1E4BAFFF5F
330
1E4BABA593
100
AcDbEntity
  8
JISSEN
100
AcDbCircle
 10
4004.272863825463
 20
8911.13085054503
 30
0.0
 40
1.5
100
AcDbArc
 50
270.0
 51
0.0
  0
LINE
  5
1E4BAFFF60
330
1E4BABA593
100
AcDbEntity
  8
JISSEN
100
AcDbLine
 10
4010.033007444841
 20
8901.87281790697
 30
0.0
 11
4010.033007444841
 21
8894.630850545029
 31
0.0
  0
LINE
  5
1E4BAFFF61
330
1E4BABA593
100
AcDbEntity
  8
JISSEN
100
AcDbLine
 10
4014.933007444841
 20
8901.87281790697
 30
0.0
 11
4014.933007444841
 21
8894.630850545029
 31
0.0
  0
ARC
  5
1E4BAFFF62
330
1E4BABA593
100
AcDbEntity
  8
JISSEN
100
AcDbCircle
 10
4014.933007444839
 20
8886.41478526891
 30
0.0
 40
16.21606527611808
100
AcDbArc
 50
94.35648211768952
 51
107.5879537739478
  0
LINE
  5
1E4BAFFF63
330
1E4BABA593
100
AcDbEntity
  8
JISSEN
100
AcDbLine
 10
4013.620056401928
 20
8902.630850545029
 30
0.0
 11
4014.933007444841
 21
8901.87281790697
 31
0.0
  0
LINE
  5
1E4BAFFF64
330
1E4BABA593
100
AcDbEntity
  8
JISSEN
100
AcDbLine
 10
4005.772863825463
 20
8915.130850545029
 30
0.0
 11
4005.772863825463
 21
8902.630850545029
 31
0.0
  0
ARC
  5
1E4BAFFF65
330
1E4BABA593
100
AcDbEntity
  8
JISSEN
100
AcDbCircle
 10
4007.272863825463
 20
8915.130850545029
 30
0.0
 40
1.5
100
AcDbArc
 50
90.0
 51
180.0
  0
ARC
  5
1E4BAFFF66
330
1E4BABA593
100
AcDbEntity
  8
JISSEN
100
AcDbCircle
 10
4007.272863825463
 20
8915.130850545029
 30
0.0
 40
1.5
100
AcDbArc
 50
90.0
 51
180.0
  0
LINE
  5
1E4BAFFF67
330
1E4BABA593
100
AcDbEntity
  8
JISSEN
100
AcDbLine
 10
4034.272892785678
 20
8916.630850545029
 30
0.0
 11
4007.272863825463
 21
8916.630850545029
 31
0.0
  0
ARC
  5
1E4BAFFF68
330
1E4BABA593
100
AcDbEntity
  8
JISSEN
100
AcDbCircle
 10
3995.33300744484
 20
8886.414785268911
 30
0.0
 40
16.21606527611808
100
AcDbArc
 50
72.41204622605208
 51
85.64351788231048
  0
LINE
  5
1E4BAFFF69
330
1E4BABA593
100
AcDbEntity
  8
JISSEN
100
AcDbLine
 10
4000.233007444841
 20
8901.87281790697
 30
0.0
 11
4000.23300744484
 21
8894.630850545029
 31
0.0
  0
LINE
  5
1E4BAFFF6A
330
1E4BABA593
100
AcDbEntity
  8
JISSEN
100
AcDbLine
 10
3995.333007444841
 20
8901.87281790697
 30
0.0
 11
3995.333007444841
 21
8894.630850545029
 31
0.0
  0
LINE
  5
1E4BAFFF6B
330
1E4BABA593
100
AcDbEntity
  8
JISSEN
100
AcDbLine
 10
3996.645958487753
 20
8902.630850545029
 30
0.0
 11
3995.333007444841
 21
8901.87281790697
 31
0.0
  0
LINE
  5
1E4BAFFF6C
330
1E4BABA593
100
AcDbEntity
  8
JISSEN
100
AcDbLine
 10
4013.620056401928
 20
8902.630850545029
 30
0.0
 11
3996.645958487753
 21
8902.630850545029
 31
0.0
  0
ARC
  5
1E4BAFFF6D
330
1E4BABA593
100
AcDbEntity
  8
JISSEN
100
AcDbCircle
 10
4005.13300744484
 20
8886.41478526891
 30
0.0
 40
16.21606527611808
100
AcDbArc
 50
72.41204622605208
 51
107.5879537739478
  0
ARC
  5
1E4BAFFF80
330
1E4BABA593
100
AcDbEntity
  8
JISSEN
100
AcDbCircle
 10
4033.924913514904
 20
9118.123211779883
 30
0.0
 40
1.5
100
AcDbArc
 50
270.0
 51
0.0
  0
ARC
  5
1E4BAFFF81
330
1E4BABA593
100
AcDbEntity
  8
JISSEN
100
AcDbCircle
 10
4035.272863825461
 20
9067.623211779883
 30
0.0
 40
2.0
100
AcDbArc
 50
180.0
 51
270.0
  0
LINE
  5
1E4BAFFF82
330
1E4BABA593
100
AcDbEntity
  8
ITTEN
 48
3.0
100
AcDbLine
 10
4059.275084444436
 20
9083.123211779883
 30
0.0
 11
4028.272863825463
 21
9083.123211779883
 31
0.0
  0
CIRCLE
  5
1E4BAFFF83
330
1E4BABA593
100
AcDbEntity
  8
JISSEN
100
AcDbCircle
 10
4005.437106823723
 20
9094.611018471063
 30
0.0
 40
9.0
  0
LWPOLYLINE
  5
1E4BAFFF84
330
1E4BABA593
100
AcDbEntity
  8
JISSEN
100
AcDbPolyline
 90
        6
 70
     1
 43
0.0
 10
3995.044801978309
 20
9094.611018471063
 10
4000.240954401016
 20
9085.611018471063
 10
4010.633259246429
 20
9085.611018471063
 10
4015.829411669137
 20
9094.611018471063
 10
4010.633259246429
 20
9103.611018471063
 10
4000.240954401015
 20
9103.611018471063
  0
LINE
  5
1E4BAFFF85
330
1E4BABA593
100
AcDbEntity
  8
JISSEN
100
AcDbLine
 10
4033.272863825462
 20
9067.623211779883
 30
0.0
 11
4033.272863825462
 21
9104.31826009489
 31
0.0
  0
ARC
  5
1E4BAFFF86
330
1E4BABA593
100
AcDbEntity
  8
JISSEN
100
AcDbCircle
 10
3976.272863825462
 20
9063.084421650474
 30
0.0
 40
2.0
100
AcDbArc
 50
99.27635814595376
 51
180.0
  0
LINE
  5
1E4BAFFF87
330
1E4BABA593
100
AcDbEntity
  8
JISSEN
100
AcDbLine
 10
3974.272863825462
 20
9061.123211779885
 30
0.0
 11
3974.272863825462
 21
9063.084421650474
 31
0.0
  0
LINE
  5
1E4BAFFF88
330
1E4BABA593
100
AcDbEntity
  8
JISSEN
100
AcDbLine
 10
3971.908228288453
 20
9122.623211779883
 30
0.0
 11
4004.924913514904
 21
9122.623211779883
 31
0.0
  0
ARC
  5
1E4BAFFF89
330
1E4BABA593
100
AcDbEntity
  8
JISSEN
100
AcDbCircle
 10
4028.272863825463
 20
9100.649408265748
 30
0.0
 40
5.0
100
AcDbArc
 50
0.0
 51
78.25735096569974
  0
ARC
  5
1E4BAFFF8A
330
1E4BABA593
100
AcDbEntity
  8
JISSEN
100
AcDbCircle
 10
4031.108377273103
 20
9104.10703479797
 30
0.0
 40
2.174768530534584
100
AcDbArc
 50
5.573662970425913
 51
139.8353407944382
  0
LINE
  5
1E4BAFFF8B
330
1E4BABA593
100
AcDbEntity
  8
JISSEN
100
AcDbLine
 10
4006.424913514904
 20
9121.623211779883
 30
0.0
 11
4006.424913514904
 21
9121.623211779883
 31
0.0
  0
LINE
  5
1E4BAFFF8C
330
1E4BABA593
100
AcDbEntity
  8
JISSEN
100
AcDbLine
 10
4006.424913514904
 20
9122.623211779883
 30
0.0
 11
4006.424913514904
 21
9122.623211779883
 31
0.0
  0
ARC
  5
1E4BAFFF8D
330
1E4BABA593
100
AcDbEntity
  8
JISSEN
100
AcDbCircle
 10
4007.924913514904
 20
9118.123211779883
 30
0.0
 40
1.5
100
AcDbArc
 50
180.0
 51
270.0
  0
LINE
  5
1E4BAFFF8E
330
1E4BABA593
100
AcDbEntity
  8
JISSEN
100
AcDbLine
 10
4006.424913514904
 20
9118.123211779883
 30
0.0
 11
4006.424913514904
 21
9121.123211779883
 31
0.0
  0
LINE
  5
1E4BAFFF8F
330
1E4BABA593
100
AcDbEntity
  8
JISSEN
100
AcDbLine
 10
4006.424913514904
 20
9121.123211779883
 30
0.0
 11
4006.424913514904
 21
9121.123211779883
 31
0.0
  0
LINE
  5
1E4BAFFF90
330
1E4BABA593
100
AcDbEntity
  8
JISSEN
100
AcDbLine
 10
4006.424913514904
 20
9121.123211779883
 30
0.0
 11
4006.424913514904
 21
9122.624809270656
 31
0.0
  0
ARC
  5
1E4BAFFF91
330
1E4BABA593
100
AcDbEntity
  8
JISSEN
100
AcDbCircle
 10
4004.924913514904
 20
9121.123211779883
 30
0.0
 40
1.5
100
AcDbArc
 50
0.0
 51
90.0
  0
LINE
  5
1E4BAFFF92
330
1E4BABA593
100
AcDbEntity
  8
JISSEN
100
AcDbLine
 10
4007.924913514904
 20
9116.623211779883
 30
0.0
 11
4033.924913514904
 21
9116.623211779883
 31
0.0
  0
LINE
  5
1E4BAFFF93
330
1E4BABA593
100
AcDbEntity
  8
JISSEN
100
AcDbLine
 10
4052.27286382546
 20
9065.623211779883
 30
0.0
 11
4054.272863825461
 21
9067.623211779883
 31
0.0
  0
LINE
  5
1E4BAFFF94
330
1E4BABA593
100
AcDbEntity
  8
JISSEN
100
AcDbLine
 10
4035.272863825461
 20
9065.623211779883
 30
0.0
 11
4052.27286382546
 21
9065.623211779883
 31
0.0
  0
ARC
  5
1E4BAFFF97
330
1E4BABA593
100
AcDbEntity
  8
JISSEN
100
AcDbCircle
 10
4266.560884436199
 20
8897.63085054503
 30
0.0
 40
19.0
100
AcDbArc
 50
0.0
 51
180.0
  0
LINE
  5
1E4BAFFF98
330
1E4BABA593
100
AcDbEntity
  8
ITTEN
 48
3.0
100
AcDbLine
 10
4244.560884436198
 20
8897.63085054503
 30
0.0
 11
4288.560884436199
 21
8897.63085054503
 31
0.0
  0
LINE
  5
1E4BAFFF99
330
1E4BABA593
100
AcDbEntity
  8
JISSEN
100
AcDbLine
 10
4198.060884436199
 20
8894.630850545027
 30
0.0
 11
4245.560884436199
 21
8894.63085054503
 31
0.0
  0
ARC
  5
1E4BAFFF9A
330
1E4BABA593
100
AcDbEntity
  8
JISSEN
100
AcDbCircle
 10
4198.0608844362
 20
8891.630850545027
 30
0.0
 40
3.0
100
AcDbArc
 50
90.0
 51
180.0
  0
ARC
  5
1E4BAFFF9B
330
1E4BABA593
100
AcDbEntity
  8
JISSEN
100
AcDbCircle
 10
4235.50074081682
 20
8886.414785268906
 30
0.0
 40
16.21606527611808
100
AcDbArc
 50
94.35648211768952
 51
107.5879537739478
  0
ARC
  5
1E4BAFFF9C
330
1E4BABA593
100
AcDbEntity
  8
JISSEN
100
AcDbCircle
 10
4225.700740816821
 20
8886.414785268904
 30
0.0
 40
16.21606527611808
100
AcDbArc
 50
72.41204622605208
 51
107.5879537739478
  0
LINE
  5
1E4BAFFF9D
330
1E4BABA593
100
AcDbEntity
  8
JISSEN
100
AcDbLine
 10
4220.800740816819
 20
8901.872817906964
 30
0.0
 11
4220.800740816819
 21
8894.630850545023
 31
0.0
  0
LINE
  5
1E4BAFFF9E
330
1E4BABA593
100
AcDbEntity
  8
JISSEN
100
AcDbLine
 10
4230.600740816819
 20
8901.872817906964
 30
0.0
 11
4230.600740816821
 21
8894.630850545023
 31
0.0
  0
LINE
  5
1E4BAFFF9F
330
1E4BABA593
100
AcDbEntity
  8
JISSEN
100
AcDbLine
 10
4235.500740816818
 20
8901.872817906966
 30
0.0
 11
4235.50074081682
 21
8894.630850545023
 31
0.0
  0
LINE
  5
1E4BAFFFA0
330
1E4BABA593
100
AcDbEntity
  8
JISSEN
100
AcDbLine
 10
4234.187789773907
 20
8902.630850545023
 30
0.0
 11
4235.500740816818
 21
8901.872817906966
 31
0.0
  0
ARC
  5
1E4BAFFFA1
330
1E4BABA593
100
AcDbEntity
  8
JISSEN
100
AcDbCircle
 10
4245.560884436199
 20
8896.630850545025
 30
0.0
 40
2.0
100
AcDbArc
 50
270.0
 51
0.0
  0
LINE
  5
1E4BAFFFA2
330
1E4BABA593
100
AcDbEntity
  8
JISSEN
100
AcDbLine
 10
4215.900740816819
 20
8901.872817906964
 30
0.0
 11
4215.900740816819
 21
8894.630850545023
 31
0.0
  0
LINE
  5
1E4BAFFFA3
330
1E4BABA593
100
AcDbEntity
  8
JISSEN
100
AcDbLine
 10
4217.213691859732
 20
8902.630850545022
 30
0.0
 11
4215.900740816819
 21
8901.872817906964
 31
0.0
  0
LINE
  5
1E4BAFFFA4
330
1E4BABA593
100
AcDbEntity
  8
JISSEN
100
AcDbLine
 10
4217.213691859732
 20
8902.630850545022
 30
0.0
 11
4234.187789773907
 21
8902.630850545023
 31
0.0
  0
ARC
  5
1E4BAFFFA5
330
1E4BABA593
100
AcDbEntity
  8
JISSEN
100
AcDbCircle
 10
4215.900740816822
 20
8886.414785268904
 30
0.0
 40
16.21606527611808
100
AcDbArc
 50
72.41204622605208
 51
85.64351788231048
  0
ARC
  5
1E4BAFFFAA
330
1E4BABA593
100
AcDbEntity
  8
JISSEN
100
AcDbCircle
 10
4280.560884436198
 20
8915.63085054503
 30
0.0
 40
1.0
100
AcDbArc
 50
0.0
 51
90.0
  0
ARC
  5
1E4BAFFFAB
330
1E4BABA593
100
AcDbEntity
  8
JISSEN
100
AcDbCircle
 10
4287.560884436198
 20
8896.630850545025
 30
0.0
 40
2.0
100
AcDbArc
 50
180.0
 51
270.0
  0
LINE
  5
1E4BAFFFAC
330
1E4BABA593
100
AcDbEntity
  8
JISSEN
100
AcDbLine
 10
4281.560884436198
 20
8915.63085054503
 30
0.0
 11
4281.560884436198
 21
8909.292754334721
 31
0.0
  0
CIRCLE
  5
1E4BAFFFAF
330
1E4BABA593
100
AcDbEntity
  8
JISSEN
100
AcDbCircle
 10
4266.560884436199
 20
8897.63085054503
 30
0.0
 40
5.0
  0
LINE
  5
1E4BAFFFB0
330
1E4BABA593
100
AcDbEntity
  8
JISSEN
100
AcDbLine
 10
4266.560884436199
 20
8916.63085054503
 30
0.0
 11
4280.560884436198
 21
8916.63085054503
 31
0.0
  0
ARC
  5
1E4BAFFFB2
330
1E4BABA593
100
AcDbEntity
  8
JISSEN
100
AcDbCircle
 10
4252.560884436198
 20
8915.63085054503
 30
0.0
 40
1.0
100
AcDbArc
 50
90.0
 51
180.0
  0
LINE
  5
1E4BAFFFB3
330
1E4BABA593
100
AcDbEntity
  8
JISSEN
100
AcDbLine
 10
4251.5608844362
 20
8915.63085054503
 30
0.0
 11
4251.560884436198
 21
8909.292754334721
 31
0.0
  0
CIRCLE
  5
1E4BAFFFB4
330
1E4BABA593
100
AcDbEntity
  8
SAISEN
100
AcDbCircle
 10
4266.560884436198
 20
8897.63085054503
 30
0.0
 40
10.47750000000098
  0
LINE
  5
1E4BAFFFB5
330
1E4BABA593
100
AcDbEntity
  8
JISSEN
100
AcDbLine
 10
4266.560884436199
 20
8916.63085054503
 30
0.0
 11
4252.560884436198
 21
8916.63085054503
 31
0.0
  0
CIRCLE
  5
1E4BAFFFB6
330
1E4BABA593
100
AcDbEntity
  8
JISSEN
100
AcDbCircle
 10
4266.560884436199
 20
8897.63085054503
 30
0.0
 40
9.315499999999984
  0
LINE
  5
1E4BAFFFB7
330
1E4BABA593
100
AcDbEntity
  8
JISSEN
100
AcDbLine
 10
4298.933979098488
 20
8902.630850545023
 30
0.0
 11
4297.621028055576
 21
8901.872817906966
 31
0.0
  0
LINE
  5
1E4BAFFFB8
330
1E4BABA593
100
AcDbEntity
  8
JISSEN
100
AcDbLine
 10
4297.621028055576
 20
8901.872817906966
 30
0.0
 11
4297.621028055575
 21
8894.630850545023
 31
0.0
  0
LINE
  5
1E4BAFFFB9
330
1E4BABA593
100
AcDbEntity
  8
JISSEN
100
AcDbLine
 10
4302.521028055577
 20
8901.872817906964
 30
0.0
 11
4302.521028055575
 21
8894.630850545023
 31
0.0
  0
LINE
  5
1E4BAFFFBA
330
1E4BABA593
100
AcDbEntity
  8
JISSEN
100
AcDbLine
 10
4315.908077012664
 20
8902.630850545022
 30
0.0
 11
4317.221028055575
 21
8901.872817906964
 31
0.0
  0
ARC
  5
1E4BAFFFBB
330
1E4BABA593
100
AcDbEntity
  8
JISSEN
100
AcDbCircle
 10
4317.221028055573
 20
8886.414785268904
 30
0.0
 40
16.21606527611808
100
AcDbArc
 50
94.35648211768952
 51
107.5879537739478
  0
LINE
  5
1E4BAFFFBC
330
1E4BABA593
100
AcDbEntity
  8
JISSEN
100
AcDbLine
 10
4317.221028055575
 20
8901.872817906964
 30
0.0
 11
4317.221028055575
 21
8894.630850545023
 31
0.0
  0
LINE
  5
1E4BAFFFBD
330
1E4BABA593
100
AcDbEntity
  8
JISSEN
100
AcDbLine
 10
4312.321028055576
 20
8901.872817906964
 30
0.0
 11
4312.321028055576
 21
8894.630850545023
 31
0.0
  0
ARC
  5
1E4BAFFFBE
330
1E4BABA593
100
AcDbEntity
  8
JISSEN
100
AcDbCircle
 10
4307.421028055574
 20
8886.414785268904
 30
0.0
 40
16.21606527611808
100
AcDbArc
 50
72.41204622605208
 51
107.5879537739478
  0
LINE
  5
1E4BAFFFBF
330
1E4BABA593
100
AcDbEntity
  8
JISSEN
100
AcDbLine
 10
4315.908077012664
 20
8902.630850545022
 30
0.0
 11
4298.933979098488
 21
8902.630850545023
 31
0.0
  0
ARC
  5
1E4BAFFFC0
330
1E4BABA593
100
AcDbEntity
  8
JISSEN
100
AcDbCircle
 10
4297.621028055575
 20
8886.414785268906
 30
0.0
 40
16.21606527611808
100
AcDbArc
 50
72.41204622605208
 51
85.64351788231048
  0
LINE
  5
1E4BB00002
330
1E4BABA593
100
AcDbEntity
  8
JISSEN
100
AcDbLine
 10
4052.272863825463
 20
9205.623211779883
 30
0.0
 11
4052.27286382546
 21
9135.62321177989
 31
0.0
  0
LINE
  5
1E4BB00004
330
1E4BABA593
100
AcDbEntity
  8
JISSEN
100
AcDbLine
 10
4033.272863825462
 20
9203.623211779883
 30
0.0
 11
4033.272863825462
 21
9166.928163464872
 31
0.0
  0
ARC
  5
1E4BB00005
330
1E4BABA593
100
AcDbEntity
  8
JISSEN
100
AcDbCircle
 10
4033.924913514904
 20
9153.123211779883
 30
0.0
 40
1.5
100
AcDbArc
 50
0.0
 51
90.0
  0
LINE
  5
1E4BB00006
330
1E4BABA593
100
AcDbEntity
  8
ITTEN
 48
3.0
100
AcDbLine
 10
4059.454798952102
 20
9188.123211779883
 30
0.0
 11
4028.272863825462
 21
9188.123211779883
 31
0.0
  0
LINE
  5
1E4BB00007
330
1E4BABA593
100
AcDbEntity
  8
JISSEN
100
AcDbLine
 10
3971.908228288452
 20
9148.623211779883
 30
0.0
 11
4004.924913514904
 21
9148.623211779883
 31
0.0
  0
ARC
  5
1E4BB00008
330
1E4BABA593
100
AcDbEntity
  8
JISSEN
100
AcDbCircle
 10
3964.424913514904
 20
9135.623211779883
 30
0.0
 40
4.5
100
AcDbArc
 50
297.2660444507316
 51
62.73395554926836
  0
ARC
  5
1E4BB00009
330
1E4BABA593
100
AcDbEntity
  8
JISSEN
100
AcDbCircle
 10
3964.424913514904
 20
9135.623211779883
 30
0.0
 40
4.5
100
AcDbArc
 50
117.2660444507316
 51
242.7339555492683
  0
CIRCLE
  5
1E4BB0000A
330
1E4BABA593
100
AcDbEntity
  8
JISSEN
100
AcDbCircle
 10
3964.424913514904
 20
9135.623211779883
 30
0.0
 40
5.0
  0
LINE
  5
1E4BB0000B
330
1E4BABA593
100
AcDbEntity
  8
JISSEN
100
AcDbLine
 10
3961.424913514904
 20
9131.623211779883
 30
0.0
 11
3967.424913514904
 21
9131.623211779883
 31
0.0
  0
LINE
  5
1E4BB0000C
330
1E4BABA593
100
AcDbEntity
  8
JISSEN
100
AcDbLine
 10
3961.424913514904
 20
9139.623211779883
 30
0.0
 11
3967.424913514904
 21
9139.623211779883
 31
0.0
  0
LINE
  5
1E4BB0000D
330
1E4BABA593
100
AcDbEntity
  8
JISSEN
100
AcDbLine
 10
4006.424913514904
 20
9150.123211779883
 30
0.0
 11
4006.424913514904
 21
9148.62161428911
 31
0.0
  0
LINE
  5
1E4BB0000E
330
1E4BABA593
100
AcDbEntity
  8
JISSEN
100
AcDbLine
 10
4006.424913514904
 20
9148.623211779883
 30
0.0
 11
4006.424913514904
 21
9148.623211779883
 31
0.0
  0
LINE
  5
1E4BB0000F
330
1E4BABA593
100
AcDbEntity
  8
JISSEN
100
AcDbLine
 10
4006.424913514904
 20
9150.123211779883
 30
0.0
 11
4006.424913514904
 21
9150.123211779883
 31
0.0
  0
LINE
  5
1E4BB00010
330
1E4BABA593
100
AcDbEntity
  8
JISSEN
100
AcDbLine
 10
4006.424913514904
 20
9153.123211779883
 30
0.0
 11
4006.424913514904
 21
9150.123211779883
 31
0.0
  0
LINE
  5
1E4BB00011
330
1E4BABA593
100
AcDbEntity
  8
JISSEN
100
AcDbLine
 10
4006.424913514904
 20
9149.623211779883
 30
0.0
 11
4006.424913514904
 21
9149.623211779883
 31
0.0
  0
ARC
  5
1E4BB00012
330
1E4BABA593
100
AcDbEntity
  8
JISSEN
100
AcDbCircle
 10
4007.924913514904
 20
9153.123211779883
 30
0.0
 40
1.5
100
AcDbArc
 50
90.0
 51
180.0
  0
ARC
  5
1E4BB00013
330
1E4BABA593
100
AcDbEntity
  8
JISSEN
100
AcDbCircle
 10
4004.924913514904
 20
9150.123211779883
 30
0.0
 40
1.5
100
AcDbArc
 50
270.0
 51
0.0
  0
LINE
  5
1E4BB00014
330
1E4BABA593
100
AcDbEntity
  8
JISSEN
100
AcDbLine
 10
4006.424913514904
 20
9148.623211779883
 30
0.0
 11
4006.424913514904
 21
9135.623211779883
 31
0.0
  0
LINE
  5
1E4BB00015
330
1E4BABA593
100
AcDbEntity
  8
JISSEN
100
AcDbLine
 10
4007.924913514904
 20
9154.623211779883
 30
0.0
 11
4033.924913514904
 21
9154.623211779883
 31
0.0
  0
ARC
  5
1E4BB00016
330
1E4BABA593
100
AcDbEntity
  8
JISSEN
100
AcDbCircle
 10
4031.108377273103
 20
9167.139388761796
 30
0.0
 40
2.174768530534584
100
AcDbArc
 50
220.1646592055617
 51
354.4263370295741
  0
ARC
  5
1E4BB00017
330
1E4BABA593
100
AcDbEntity
  8
JISSEN
100
AcDbCircle
 10
4028.272863825463
 20
9170.597015294017
 30
0.0
 40
5.0
100
AcDbArc
 50
281.7426490343001
 51
0.0
  0
LWPOLYLINE
  5
1E4BB00018
330
1E4BABA593
100
AcDbEntity
  8
JISSEN
100
AcDbPolyline
 90
        6
 70
     1
 43
0.0
 10
4005.437106823723
 20
9166.243100243288
 10
4014.437106823724
 20
9171.439252665996
 10
4014.437106823724
 20
9181.831557511408
 10
4005.437106823723
 20
9187.027709934115
 10
3996.437106823724
 20
9181.831557511408
 10
3996.437106823724
 20
9171.439252665994
  0
CIRCLE
  5
1E4BB00019
330
1E4BABA593
100
AcDbEntity
  8
JISSEN
100
AcDbCircle
 10
4005.437106823723
 20
9176.6354050887
 30
0.0
 40
9.0
  0
LINE
  5
1E4BB0001A
330
1E4BABA593
100
AcDbEntity
  8
JISSEN
100
AcDbLine
 10
4035.424913514904
 20
9148.436341183304
 30
0.0
 11
4035.424913514904
 21
9135.623211779883
 31
0.0
  0
LINE
  5
1E4BB0001B
330
1E4BABA593
100
AcDbEntity
  8
JISSEN
100
AcDbLine
 10
4035.424913514904
 20
9153.123211779883
 30
0.0
 11
4035.424913514904
 21
9135.623211779883
 31
0.0
  0
ARC
  5
1E4BB0001D
330
1E4BABA593
100
AcDbEntity
  8
JISSEN
100
AcDbCircle
 10
4035.272863825462
 20
9203.623211779883
 30
0.0
 40
2.0
100
AcDbArc
 50
90.0
 51
180.0
  0
LINE
  5
1E4BB0001F
330
1E4BABA593
100
AcDbEntity
  8
JISSEN
100
AcDbLine
 10
4052.272863825463
 20
9205.623211779883
 30
0.0
 11
4054.272863825461
 21
9203.623211779883
 31
0.0
  0
LINE
  5
1E4BB00020
330
1E4BABA593
100
AcDbEntity
  8
JISSEN
100
AcDbLine
 10
4035.272863825462
 20
9205.623211779883
 30
0.0
 11
4052.272863825463
 21
9205.623211779883
 31
0.0
  0
ARC
  5
1E4BB00288
330
1E4BABA593
100
AcDbEntity
  8
JISSEN
100
AcDbCircle
 10
4335.060884436197
 20
8891.630850545023
 30
0.0
 40
3.0
100
AcDbArc
 50
0.0
 51
90.0
  0
LINE
  5
1E4BB002DC
330
1E4BABA593
100
AcDbEntity
  8
HATCH
100
AcDbLine
 10
3967.272863825463
 20
8950.130850545029
 30
0.0
 11
3964.272863825464
 21
8944.380850545029
 31
0.0
  0
LINE
  5
1E4BB002DD
330
1E4BABA593
100
AcDbEntity
  8
JISSEN
100
AcDbLine
 10
3969.772863825465
 20
8937.764825141247
 30
0.0
 11
3964.272863825464
 21
8937.764825141247
 31
0.0
  0
LINE
  5
1E4BB002DE
330
1E4BABA593
100
AcDbEntity
  8
JISSEN
100
AcDbLine
 10
3969.272863825464
 20
8938.630850545029
 30
0.0
 11
3964.272863825464
 21
8938.630850545029
 31
0.0
  0
LINE
  5
1E4BB002DF
330
1E4BABA593
100
AcDbEntity
  8
HATCH
100
AcDbLine
 10
3964.272863825464
 20
8944.380850545029
 30
0.0
 11
3967.272863825464
 21
8938.630850545029
 31
0.0
  0
LINE
  5
1E4BB002E0
330
1E4BABA593
100
AcDbEntity
  8
JISSEN
100
AcDbLine
 10
3964.272863825463
 20
8950.63085054503
 30
0.0
 11
3968.772863825463
 21
8950.63085054503
 31
0.0
  0
LINE
  5
1E4BB002E1
330
1E4BABA593
100
AcDbEntity
  8
JISSEN
100
AcDbLine
 10
3962.211311012654
 20
8950.63085054503
 30
0.0
 11
3961.272863825463
 21
8950.130850545029
 31
0.0
  0
LINE
  5
1E4BB002E2
330
1E4BABA593
100
AcDbEntity
  8
JISSEN
100
AcDbLine
 10
3959.272863825463
 20
8950.130850545029
 30
0.0
 11
3961.272863825463
 21
8950.130850545029
 31
0.0
  0
LINE
  5
1E4BB002E3
330
1E4BABA593
100
AcDbEntity
  8
JISSEN
100
AcDbLine
 10
3959.272863825463
 20
8950.130850545029
 30
0.0
 11
3959.772863825463
 21
8950.63085054503
 31
0.0
  0
LINE
  5
1E4BB002E4
330
1E4BABA593
100
AcDbEntity
  8
JISSEN
100
AcDbLine
 10
3964.272863825463
 20
8950.63085054503
 30
0.0
 11
3959.772863825463
 21
8950.63085054503
 31
0.0
  0
LINE
  5
1E4BB002E5
330
1E4BABA593
100
AcDbEntity
  8
HATCH
100
AcDbLine
 10
3964.272863825462
 20
8944.380850545029
 30
0.0
 11
3961.272863825463
 21
8938.630850545029
 31
0.0
  0
LINE
  5
1E4BB002E6
330
1E4BABA593
100
AcDbEntity
  8
JISSEN
100
AcDbLine
 10
3959.272863825463
 20
8938.630850545029
 30
0.0
 11
3958.772863825462
 21
8937.764825141245
 31
0.0
  0
LINE
  5
1E4BB002E7
330
1E4BABA593
100
AcDbEntity
  8
JISSEN
100
AcDbLine
 10
3959.272863825463
 20
8938.630850545029
 30
0.0
 11
3964.272863825463
 21
8938.630850545029
 31
0.0
  0
LINE
  5
1E4BB002E8
330
1E4BABA593
100
AcDbEntity
  8
JISSEN
100
AcDbLine
 10
3958.772863825463
 20
8937.764825141247
 30
0.0
 11
3964.272863825463
 21
8937.764825141247
 31
0.0
  0
LINE
  5
1E4BB002E9
330
1E4BABA593
100
AcDbEntity
  8
HATCH
100
AcDbLine
 10
3961.272863825463
 20
8950.130850545029
 30
0.0
 11
3964.272863825462
 21
8944.380850545029
 31
0.0
  0
LINE
  5
1E4BB002EA
330
1E4BABA593
100
AcDbEntity
  8
JISSEN
100
AcDbLine
 10
3959.272863825463
 20
8950.130850545029
 30
0.0
 11
3959.272863825463
 21
8938.630850545029
 31
0.0
  0
LINE
  5
1E4BB002EB
330
1E4BABA593
100
AcDbEntity
  8
JISSEN
100
AcDbLine
 10
3961.272863825463
 20
8950.130850545029
 30
0.0
 11
3961.272863825463
 21
8938.630850545029
 31
0.0
  0
LINE
  5
1E4BB002EC
330
1E4BABA593
100
AcDbEntity
  8
JISSEN
100
AcDbLine
 10
3967.272863825463
 20
8950.130850545029
 30
0.0
 11
3967.272863825464
 21
8938.630850545029
 31
0.0
  0
LINE
  5
1E4BB002ED
330
1E4BABA593
100
AcDbEntity
  8
JISSEN
100
AcDbLine
 10
3969.272863825463
 20
8950.130850545029
 30
0.0
 11
3969.272863825464
 21
8938.630850545029
 31
0.0
  0
LINE
  5
1E4BB002EE
330
1E4BABA593
100
AcDbEntity
  8
JISSEN
100
AcDbLine
 10
3969.272863825464
 20
8938.630850545029
 30
0.0
 11
3969.772863825465
 21
8937.764825141245
 31
0.0
  0
LINE
  5
1E4BB002EF
330
1E4BABA593
100
AcDbEntity
  8
JISSEN
100
AcDbLine
 10
3969.272863825463
 20
8950.130850545029
 30
0.0
 11
3968.772863825463
 21
8950.63085054503
 31
0.0
  0
LINE
  5
1E4BB002F0
330
1E4BABA593
100
AcDbEntity
  8
JISSEN
100
AcDbLine
 10
3969.272863825463
 20
8950.130850545029
 30
0.0
 11
3967.272863825463
 21
8950.130850545029
 31
0.0
  0
LINE
  5
1E4BB002F1
330
1E4BABA593
100
AcDbEntity
  8
JISSEN
100
AcDbLine
 10
3966.334416638273
 20
8950.63085054503
 30
0.0
 11
3967.272863825463
 21
8950.130850545029
 31
0.0
  0
LINE
  5
1E4BB002F2
330
1E4BABA593
100
AcDbEntity
  8
JISSEN
100
AcDbLine
 10
3969.772863825288
 20
8937.76482514155
 30
0.0
 11
3969.77286382529
 21
8916.630850545029
 31
0.0
  0
LINE
  5
1E4BB002F3
330
1E4BABA593
100
AcDbEntity
  8
JISSEN
100
AcDbLine
 10
3958.772863825639
 20
8937.76482514155
 30
0.0
 11
3958.772863825639
 21
8916.630850545029
 31
0.0
  0
LINE
  5
1E4BB004EA
330
1E4BABA593
100
AcDbEntity
  8
JISSEN
370
     0
100
AcDbLine
 10
3973.465252330203
 20
8718.025216607846
 30
0.0
 11
3973.465252330203
 21
8726.425217239655
 31
0.0
  0
LINE
  5
1E4BB004EB
330
1E4BABA593
100
AcDbEntity
  8
JISSEN
370
    15
100
AcDbLine
 10
3973.758144898016
 20
8718.025216607846
 30
0.0
 11
3973.758144898016
 21
8726.425217239655
 31
0.0
  0
LINE
  5
1E4BB004EC
330
1E4BABA593
100
AcDbEntity
  8
JISSEN
370
     0
100
AcDbLine
 10
3964.979970606652
 20
8726.425217239655
 30
0.0
 11
3964.979970606652
 21
8718.025216607846
 31
0.0
  0
LINE
  5
1E4BB004ED
330
1E4BABA593
100
AcDbEntity
  8
JISSEN
370
     0
100
AcDbLine
 10
3963.565757044267
 20
8718.025216607846
 30
0.0
 11
3963.565757044267
 21
8726.425217239655
 31
0.0
  0
LINE
  5
1E4BB004EE
330
1E4BABA593
100
AcDbEntity
  8
SUNPOU
100
AcDbLine
 10
3964.979970606652
 20
8726.425217239655
 30
0.0
 11
3973.310236333209
 21
8717.384828291832
 31
0.0
  0
LINE
  5
1E4BB004EF
330
1E4BABA593
100
AcDbEntity
  8
SUNPOU
100
AcDbLine
 10
3973.465252330203
 20
8726.425217239648
 30
0.0
 11
3964.824955195572
 21
8717.38482832743
 31
0.0
  0
LINE
  5
1E4BB004F0
330
1E4BABA593
100
AcDbEntity
  8
JISSEN
370
     0
100
AcDbLine
 10
3955.080475320716
 20
8726.425217239655
 30
0.0
 11
3955.080475320716
 21
8718.025216607846
 31
0.0
  0
LINE
  5
1E4BB004F1
330
1E4BABA593
100
AcDbEntity
  8
JISSEN
370
    15
100
AcDbLine
 10
3954.787582752902
 20
8726.425217239655
 30
0.0
 11
3954.787582752902
 21
8718.025216607846
 31
0.0
  0
LINE
  5
1E4BB004F2
330
1E4BABA593
100
AcDbEntity
  8
SUNPOU
100
AcDbLine
 10
3963.565757044267
 20
8726.425217239654
 30
0.0
 11
3955.235491317711
 21
8717.384828291832
 31
0.0
  0
LINE
  5
1E4BB004F3
330
1E4BABA593
100
AcDbEntity
  8
SUNPOU
100
AcDbLine
 10
3955.080475320716
 20
8726.425217239648
 30
0.0
 11
3963.720772455348
 21
8717.38482832743
 31
0.0
  0
ARC
  5
1E4BB004F4
330
1E4BABA593
100
AcDbEntity
  8
JISSEN
370
     0
100
AcDbCircle
 10
3972.581361856434
 20
8717.900219926489
 30
0.0
 40
0.8926850172213583
100
AcDbArc
 50
281.4220746690177
 51
8.049193183217271
  0
ARC
  5
1E4BB004F5
330
1E4BABA593
100
AcDbEntity
  8
JISSEN
370
    15
100
AcDbCircle
 10
3972.758145199698
 20
8718.02521756152
 30
0.0
 40
1.000000000000085
100
AcDbArc
 50
270.0
 51
0.0
  0
ARC
  5
1E4BB004F6
330
1E4BABA593
100
AcDbEntity
  8
JISSEN
370
     0
100
AcDbCircle
 10
3964.449646455414
 20
8717.900219031042
 30
0.0
 40
0.892684090450818
100
AcDbArc
 50
171.9507403597856
 51
258.5779295337201
  0
ARC
  5
1E4BB004F7
330
1E4BABA593
100
AcDbEntity
  8
JISSEN
370
     0
100
AcDbCircle
 10
3964.096081195505
 20
8717.900219031042
 30
0.0
 40
0.8926840904507171
100
AcDbArc
 50
281.4220704663309
 51
8.04925964021438
  0
LINE
  5
1E4BB004F8
330
1E4BABA593
100
AcDbEntity
  8
JISSEN
370
    15
100
AcDbLine
 10
3972.758144734104
 20
8717.025214581288
 30
0.0
 11
3964.272863825459
 21
8717.025214581288
 31
0.0
  0
ARC
  5
1E4BB004F9
330
1E4BABA593
100
AcDbEntity
  8
JISSEN
370
     0
100
AcDbCircle
 10
3955.964365794486
 20
8717.900219926489
 30
0.0
 40
0.8926850172212176
100
AcDbArc
 50
171.9508068167827
 51
258.5779253309822
  0
ARC
  5
1E4BB004FA
330
1E4BABA593
100
AcDbEntity
  8
JISSEN
370
    15
100
AcDbCircle
 10
3955.787582451221
 20
8718.02521756152
 30
0.0
 40
1.000000000000085
100
AcDbArc
 50
180.0
 51
270.0
  0
LINE
  5
1E4BB004FB
330
1E4BABA593
100
AcDbEntity
  8
JISSEN
370
    15
100
AcDbLine
 10
3964.272863825459
 20
8717.025214581288
 30
0.0
 11
3955.787582916815
 21
8717.025214581288
 31
0.0
  0
LINE
  5
1E4BB004FC
330
1E4BABA593
100
AcDbEntity
  8
JISSEN
370
    15
100
AcDbLine
 10
3974.90163765629
 20
8728.024692981042
 30
0.0
 11
3974.776615051229
 21
8732.025218902625
 31
0.0
  0
LINE
  5
1E4BB004FD
330
1E4BABA593
100
AcDbEntity
  8
SAISEN
100
AcDbLine
 10
3973.642329796723
 20
8732.113656737756
 30
0.0
 11
3973.802114201273
 21
8727.000555792218
 31
0.0
  0
LINE
  5
1E4BB004FE
330
1E4BABA593
100
AcDbEntity
  8
SAISEN
100
AcDbLine
 10
3973.642329822141
 20
8732.113656737756
 30
0.0
 11
3973.802114201094
 21
8727.000556611185
 31
0.0
  0
SPLINE
  5
1E4BB004FF
330
1E4BABA593
100
AcDbEntity
  8
JISSEN
370
    15
100
AcDbSpline
210
0.0
220
0.0
230
1.0
 70
     8
 71
     3
 72
    12
 73
     8
 74
     0
 42
0.000000001
 43
0.0000000001
 40
0.0
 40
0.0
 40
0.0
 40
0.0
 40
0.1956789951789757
 40
0.4675957375230368
 40
0.6834677456879578
 40
0.8661084775142949
 40
1.0
 40
1.0
 40
1.0
 40
1.0
 10
3974.151534622211
 20
8727.011712043084
 30
0.0
 10
3974.23813908407
 20
8727.036486324667
 30
0.0
 10
3974.445089641935
 20
8727.095687101211
 30
0.0
 10
3974.684109656344
 20
8727.316014706152
 30
0.0
 10
3974.838145905106
 20
8727.581941285356
 30
0.0
 10
3974.902834601133
 20
8727.820324524677
 30
0.0
 10
3974.899694920314
 20
8727.962974440012
 30
0.0
 10
3974.898366851408
 20
8728.023314623631
 30
0.0
  0
ARC
  5
1E4BB00500
330
1E4BABA593
100
AcDbEntity
  8
JISSEN
370
     0
100
AcDbCircle
 10
3974.006560825982
 20
8726.495844663521
 30
0.0
 40
0.5458966208036719
100
AcDbArc
 50
104.3766371858772
 51
187.4336942930739
  0
SPLINE
  5
1E4BB00501
330
1E4BABA593
100
AcDbEntity
  8
JISSEN
370
     0
100
AcDbSpline
210
0.0
220
0.0
230
1.0
 70
     8
 71
     3
 72
     9
 73
     5
 74
     0
 42
0.000000001
 43
0.0000000001
 40
0.0
 40
0.0
 40
0.0
 40
0.0
 40
0.4132398080961207
 40
1.0
 40
1.0
 40
1.0
 40
1.0
 10
3974.154375156064
 20
8727.003836779393
 30
0.0
 10
3974.149081039381
 20
8727.004754933443
 30
0.0
 10
3974.136269793761
 20
8727.006976776633
 30
0.0
 10
3973.969103812193
 20
8727.01811234359
 30
0.0
 10
3973.87101746877
 20
8727.024646251
 30
0.0
  0
LINE
  5
1E4BB00502
330
1E4BABA593
100
AcDbEntity
  8
JISSEN
370
     0
100
AcDbLine
 10
3973.87101746877
 20
8727.024646251
 30
0.0
 11
3973.826801998217
 21
8727.025219945706
 31
0.0
  0
ARC
  5
1E4BB00503
330
1E4BABA593
100
AcDbEntity
  8
JISSEN
370
    15
100
AcDbCircle
 10
3974.358145199698
 20
8726.425217561518
 30
0.0
 40
0.6000000000000228
100
AcDbArc
 50
108.674792517064
 51
180.0
  0
SPLINE
  5
1E4BB00504
330
1E4BABA593
100
AcDbEntity
  8
JISSEN
370
    15
100
AcDbSpline
210
0.0
220
0.0
230
1.0
 70
     8
 71
     3
 72
    11
 73
     7
 74
     0
 42
0.000000001
 43
0.0000000001
 40
0.0
 40
0.0
 40
0.0
 40
0.0
 40
0.1287882562168848
 40
0.4295474175794904
 40
0.7334197060751667
 40
1.0
 40
1.0
 40
1.0
 40
1.0
 10
3965.385736210879
 20
8727.024646251
 30
0.0
 10
3965.296959952412
 20
8727.022412747247
 30
0.0
 10
3965.000864534342
 20
8727.014963343105
 30
0.0
 10
3964.440257621694
 20
8726.995214650386
 30
0.0
 10
3963.747160395849
 20
8727.006074970182
 30
0.0
 10
3963.346994456584
 20
8727.018731623702
 30
0.0
 10
3963.15999144004
 20
8727.024646251
 30
0.0
  0
ARC
  5
1E4BB00505
330
1E4BABA593
100
AcDbEntity
  8
JISSEN
370
     0
100
AcDbCircle
 10
3963.024447507666
 20
8726.495843853672
 30
0.0
 40
0.5458975481011724
100
AcDbArc
 50
352.5664041254701
 51
75.62332544226346
  0
LINE
  5
1E4BB00506
330
1E4BABA593
100
AcDbEntity
  8
JISSEN
370
     0
100
AcDbLine
 10
3963.15999144004
 20
8727.024646251
 30
0.0
 11
3963.078778714549
 21
8727.025219945706
 31
0.0
  0
ARC
  5
1E4BB00507
330
1E4BABA593
100
AcDbEntity
  8
JISSEN
370
     0
100
AcDbCircle
 10
3965.521280143253
 20
8726.495843853672
 30
0.0
 40
0.5458975481011371
100
AcDbArc
 50
104.3766745577365
 51
187.4335958745298
  0
LINE
  5
1E4BB00508
330
1E4BABA593
100
AcDbEntity
  8
JISSEN
370
    15
100
AcDbLine
 10
3965.46694893637
 20
8727.025219945706
 30
0.0
 11
3965.385736210879
 21
8727.024646251
 31
0.0
  0
LINE
  5
1E4BB00509
330
1E4BABA593
100
AcDbEntity
  8
JISSEN
370
    15
100
AcDbLine
 10
3973.826801998217
 20
8727.025219945706
 30
0.0
 11
3965.46694893637
 21
8727.025219945706
 31
0.0
  0
LINE
  5
1E4BB0050A
330
1E4BABA593
100
AcDbEntity
  8
SAISEN
100
AcDbLine
 10
3954.743614201273
 20
8727.000555792218
 30
0.0
 11
3954.90339860582
 21
8732.113656737756
 31
0.0
  0
LINE
  5
1E4BB0050B
330
1E4BABA593
100
AcDbEntity
  8
SAISEN
100
AcDbLine
 10
3954.743614201091
 20
8727.000556611185
 30
0.0
 11
3954.903398580045
 21
8732.11365673776
 31
0.0
  0
LINE
  5
1E4BB0050C
330
1E4BABA593
100
AcDbEntity
  8
JISSEN
370
    15
100
AcDbLine
 10
3953.76911259969
 20
8732.025218902625
 30
0.0
 11
3953.644089994628
 21
8728.024692981042
 31
0.0
  0
SPLINE
  5
1E4BB0050D
330
1E4BABA593
100
AcDbEntity
  8
JISSEN
370
     0
100
AcDbSpline
210
0.0
220
0.0
230
1.0
 70
     8
 71
     3
 72
    10
 73
     6
 74
     0
 42
0.000000001
 43
0.0000000001
 40
0.0
 40
0.0
 40
0.0
 40
0.0
 40
0.2360272521924887
 40
0.7872215964080621
 40
1.0
 40
1.0
 40
1.0
 40
1.0
 10
3954.674710182149
 20
8727.024646251
 30
0.0
 10
3954.629298701988
 20
8727.022491528836
 30
0.0
 10
3954.477837811026
 20
8727.015304884899
 30
0.0
 10
3954.332784983735
 20
8726.99760623845
 30
0.0
 10
3954.378589601736
 20
8727.002479499644
 30
0.0
 10
3954.391346906919
 20
8727.003836779393
 30
0.0
  0
ARC
  5
1E4BB0050E
330
1E4BABA593
100
AcDbEntity
  8
JISSEN
370
    15
100
AcDbCircle
 10
3954.187582451221
 20
8726.425217561518
 30
0.0
 40
0.6000000000000228
100
AcDbArc
 50
0.0
 51
71.33165855477168
  0
SPLINE
  5
1E4BB0050F
330
1E4BABA593
100
AcDbEntity
  8
JISSEN
370
    15
100
AcDbSpline
210
0.0
220
0.0
230
1.0
 70
     8
 71
     3
 72
    12
 73
     8
 74
     0
 42
0.000000001
 43
0.0000000001
 40
0.0
 40
0.0
 40
0.0
 40
0.0
 40
0.1764426174454052
 40
0.4157844720410422
 40
0.6727365020091572
 40
0.9373646409500969
 40
1.0
 40
1.0
 40
1.0
 40
1.0
 10
3953.647692350347
 20
8728.022532312669
 30
0.0
 10
3953.647594970642
 20
8727.942800553268
 30
0.0
 10
3953.647365496779
 20
8727.754913817245
 30
0.0
 10
3953.759604133966
 20
8727.45916467476
 30
0.0
 10
3953.984073425433
 20
8727.193354005904
 30
0.0
 10
3954.216091536273
 20
8727.035917088577
 30
0.0
 10
3954.364167774733
 20
8727.014524833035
 30
0.0
 10
3954.39250826617
 20
8727.010430543221
 30
0.0
  0
LINE
  5
1E4BB00510
330
1E4BABA593
100
AcDbEntity
  8
JISSEN
370
     0
100
AcDbLine
 10
3954.718925652702
 20
8727.025219945706
 30
0.0
 11
3954.674710182149
 21
8727.024646251
 31
0.0
  0
ARC
  5
1E4BB00511
330
1E4BABA593
100
AcDbEntity
  8
JISSEN
370
     0
100
AcDbCircle
 10
3954.539166824938
 20
8726.495844663521
 30
0.0
 40
0.5458966208036719
100
AcDbArc
 50
352.566305706926
 51
75.62336281412271
  0
LINE
  5
1E4BB00512
330
1E4BABA593
100
AcDbEntity
  8
JISSEN
370
    15
100
AcDbLine
 10
3963.078778714549
 20
8727.025219945706
 30
0.0
 11
3954.718925652702
 21
8727.025219945706
 31
0.0
  0
SPLINE
  5
1E4BB00513
330
1E4BABA593
100
AcDbEntity
  8
JISSEN
370
    15
100
AcDbSpline
210
0.0
220
0.0
230
1.0
 70
     8
 71
     3
 72
    12
 73
     8
 74
     0
 42
0.000000001
 43
0.0000000001
 40
0.0
 40
0.0
 40
0.0
 40
0.0
 40
0.1956789951789757
 40
0.4675957375230368
 40
0.6834677456879578
 40
0.8661084775142949
 40
1.0
 40
1.0
 40
1.0
 40
1.0
 10
4276.43955523295
 20
8727.011712043086
 30
0.0
 10
4276.526159694808
 20
8727.036486324669
 30
0.0
 10
4276.733110252673
 20
8727.095687101213
 30
0.0
 10
4276.972130267082
 20
8727.316014706155
 30
0.0
 10
4277.126166515843
 20
8727.58194128536
 30
0.0
 10
4277.190855211871
 20
8727.820324524677
 30
0.0
 10
4277.187715531051
 20
8727.962974440014
 30
0.0
 10
4277.186387462147
 20
8728.023314623633
 30
0.0
  0
LINE
  5
1E4BB00514
330
1E4BABA593
100
AcDbEntity
  8
JISSEN
370
    15
100
AcDbLine
 10
4265.366799325287
 20
8727.025219945708
 30
0.0
 11
4257.00694626344
 21
8727.025219945708
 31
0.0
  0
ARC
  5
1E4BB00515
330
1E4BABA593
100
AcDbEntity
  8
JISSEN
370
     0
100
AcDbCircle
 10
4256.827187435676
 20
8726.495844663523
 30
0.0
 40
0.5458966208036719
100
AcDbArc
 50
352.566305706926
 51
75.62336281412271
  0
LINE
  5
1E4BB00516
330
1E4BABA593
100
AcDbEntity
  8
JISSEN
370
     0
100
AcDbLine
 10
4257.00694626344
 20
8727.025219945708
 30
0.0
 11
4256.962730792888
 21
8727.024646251002
 31
0.0
  0
SPLINE
  5
1E4BB00517
330
1E4BABA593
100
AcDbEntity
  8
JISSEN
370
    15
100
AcDbSpline
210
0.0
220
0.0
230
1.0
 70
     8
 71
     3
 72
    12
 73
     8
 74
     0
 42
0.000000001
 43
0.0000000001
 40
0.0
 40
0.0
 40
0.0
 40
0.0
 40
0.1764426174454052
 40
0.4157844720410422
 40
0.6727365020091572
 40
0.9373646409500969
 40
1.0
 40
1.0
 40
1.0
 40
1.0
 10
4255.935712961085
 20
8728.02253231267
 30
0.0
 10
4255.93561558138
 20
8727.94280055327
 30
0.0
 10
4255.935386107518
 20
8727.754913817247
 30
0.0
 10
4256.047624744704
 20
8727.459164674765
 30
0.0
 10
4256.27209403617
 20
8727.193354005905
 30
0.0
 10
4256.504112147012
 20
8727.035917088579
 30
0.0
 10
4256.652188385471
 20
8727.014524833037
 30
0.0
 10
4256.680528876908
 20
8727.010430543223
 30
0.0
  0
ARC
  5
1E4BB00518
330
1E4BABA593
100
AcDbEntity
  8
JISSEN
370
    15
100
AcDbCircle
 10
4256.475603061959
 20
8726.425217561524
 30
0.0
 40
0.6000000000000228
100
AcDbArc
 50
0.0
 51
71.33165855477168
  0
SPLINE
  5
1E4BB00519
330
1E4BABA593
100
AcDbEntity
  8
JISSEN
370
     0
100
AcDbSpline
210
0.0
220
0.0
230
1.0
 70
     8
 71
     3
 72
    10
 73
     6
 74
     0
 42
0.000000001
 43
0.0000000001
 40
0.0
 40
0.0
 40
0.0
 40
0.0
 40
0.2360272521924887
 40
0.7872215964080621
 40
1.0
 40
1.0
 40
1.0
 40
1.0
 10
4256.962730792888
 20
8727.024646251002
 30
0.0
 10
4256.917319312726
 20
8727.022491528838
 30
0.0
 10
4256.765858421764
 20
8727.0153048849
 30
0.0
 10
4256.620805594473
 20
8726.997606238452
 30
0.0
 10
4256.666610212475
 20
8727.00247949965
 30
0.0
 10
4256.679367517658
 20
8727.003836779395
 30
0.0
  0
LINE
  5
1E4BB0051A
330
1E4BABA593
100
AcDbEntity
  8
JISSEN
370
    15
100
AcDbLine
 10
4255.945105075982
 20
8728.44049551938
 30
0.0
 11
4255.932110605367
 21
8728.024692981044
 31
0.0
  0
LINE
  5
1E4BB0051B
330
1E4BABA593
100
AcDbEntity
  8
SAISEN
100
AcDbLine
 10
4257.03163481183
 20
8727.000556611185
 30
0.0
 11
4257.071524689174
 21
8728.277032686228
 31
0.0
  0
LINE
  5
1E4BB0051C
330
1E4BABA593
100
AcDbEntity
  8
SAISEN
100
AcDbLine
 10
4257.031634812011
 20
8727.000555792221
 30
0.0
 11
4257.071524714839
 21
8728.277032682718
 31
0.0
  0
LINE
  5
1E4BB0051D
330
1E4BABA593
100
AcDbEntity
  8
JISSEN
370
    15
100
AcDbLine
 10
4276.114822608955
 20
8727.025219945708
 30
0.0
 11
4267.754969547108
 21
8727.025219945708
 31
0.0
  0
LINE
  5
1E4BB0051E
330
1E4BABA593
100
AcDbEntity
  8
JISSEN
370
    15
100
AcDbLine
 10
4267.754969547108
 20
8727.025219945708
 30
0.0
 11
4267.673756821618
 21
8727.024646251002
 31
0.0
  0
ARC
  5
1E4BB0051F
330
1E4BABA593
100
AcDbEntity
  8
JISSEN
370
     0
100
AcDbCircle
 10
4267.809300753991
 20
8726.495843853674
 30
0.0
 40
0.5458975481011371
100
AcDbArc
 50
104.3766745577365
 51
187.4335958745298
  0
LINE
  5
1E4BB00520
330
1E4BABA593
100
AcDbEntity
  8
JISSEN
370
     0
100
AcDbLine
 10
4265.448012050778
 20
8727.024646251002
 30
0.0
 11
4265.366799325287
 21
8727.025219945708
 31
0.0
  0
ARC
  5
1E4BB00521
330
1E4BABA593
100
AcDbEntity
  8
JISSEN
370
     0
100
AcDbCircle
 10
4265.312468118405
 20
8726.495843853674
 30
0.0
 40
0.5458975481011724
100
AcDbArc
 50
352.5664041254701
 51
75.62332544226346
  0
SPLINE
  5
1E4BB00522
330
1E4BABA593
100
AcDbEntity
  8
JISSEN
370
    15
100
AcDbSpline
210
0.0
220
0.0
230
1.0
 70
     8
 71
     3
 72
    11
 73
     7
 74
     0
 42
0.000000001
 43
0.0000000001
 40
0.0
 40
0.0
 40
0.0
 40
0.0
 40
0.1287882562168848
 40
0.4295474175794904
 40
0.7334197060751667
 40
1.0
 40
1.0
 40
1.0
 40
1.0
 10
4267.673756821618
 20
8727.024646251002
 30
0.0
 10
4267.58498056315
 20
8727.022412747248
 30
0.0
 10
4267.28888514508
 20
8727.014963343107
 30
0.0
 10
4266.728278232433
 20
8726.995214650386
 30
0.0
 10
4266.035181006587
 20
8727.006074970184
 30
0.0
 10
4265.635015067323
 20
8727.018731623704
 30
0.0
 10
4265.448012050778
 20
8727.024646251002
 30
0.0
  0
ARC
  5
1E4BB00523
330
1E4BABA593
100
AcDbEntity
  8
JISSEN
370
    15
100
AcDbCircle
 10
4276.646165810435
 20
8726.425217561524
 30
0.0
 40
0.6000000000000228
100
AcDbArc
 50
108.674792517064
 51
180.0
  0
LINE
  5
1E4BB00524
330
1E4BABA593
100
AcDbEntity
  8
JISSEN
370
     0
100
AcDbLine
 10
4276.159038079508
 20
8727.024646251002
 30
0.0
 11
4276.114822608955
 21
8727.025219945708
 31
0.0
  0
SPLINE
  5
1E4BB00525
330
1E4BABA593
100
AcDbEntity
  8
JISSEN
370
     0
100
AcDbSpline
210
0.0
220
0.0
230
1.0
 70
     8
 71
     3
 72
     9
 73
     5
 74
     0
 42
0.000000001
 43
0.0000000001
 40
0.0
 40
0.0
 40
0.0
 40
0.0
 40
0.4132398080961207
 40
1.0
 40
1.0
 40
1.0
 40
1.0
 10
4276.442395766802
 20
8727.003836779395
 30
0.0
 10
4276.437101650119
 20
8727.004754933447
 30
0.0
 10
4276.424290404498
 20
8727.006976776634
 30
0.0
 10
4276.257124422931
 20
8727.018112343594
 30
0.0
 10
4276.159038079508
 20
8727.024646251002
 30
0.0
  0
ARC
  5
1E4BB00526
330
1E4BABA593
100
AcDbEntity
  8
JISSEN
370
     0
100
AcDbCircle
 10
4276.294581436719
 20
8726.495844663523
 30
0.0
 40
0.5458966208036719
100
AcDbArc
 50
104.3766371858772
 51
187.4336942930739
  0
LINE
  5
1E4BB00527
330
1E4BABA593
100
AcDbEntity
  8
SAISEN
100
AcDbLine
 10
4276.050244931289
 20
8728.277032788585
 30
0.0
 11
4276.090134811832
 21
8727.000556611185
 31
0.0
  0
LINE
  5
1E4BB00528
330
1E4BABA593
100
AcDbEntity
  8
SAISEN
100
AcDbLine
 10
4276.050244905982
 20
8728.27703278512
 30
0.0
 11
4276.090134812011
 21
8727.000555792221
 31
0.0
  0
LINE
  5
1E4BB00529
330
1E4BABA593
100
AcDbEntity
  8
JISSEN
370
    15
100
AcDbLine
 10
4266.560884436198
 20
8717.02521458129
 30
0.0
 11
4258.075603527553
 21
8717.02521458129
 31
0.0
  0
ARC
  5
1E4BB0052A
330
1E4BABA593
100
AcDbEntity
  8
JISSEN
370
    15
100
AcDbCircle
 10
4258.07560306196
 20
8718.025217561522
 30
0.0
 40
1.000000000000085
100
AcDbArc
 50
180.0
 51
270.0
  0
ARC
  5
1E4BB0052B
330
1E4BABA593
100
AcDbEntity
  8
JISSEN
370
     0
100
AcDbCircle
 10
4258.252386405223
 20
8717.900219926492
 30
0.0
 40
0.8926850172212176
100
AcDbArc
 50
171.9508068167827
 51
258.5779253309822
  0
LINE
  5
1E4BB0052C
330
1E4BABA593
100
AcDbEntity
  8
JISSEN
370
    15
100
AcDbLine
 10
4275.046165344842
 20
8717.02521458129
 30
0.0
 11
4266.560884436198
 21
8717.02521458129
 31
0.0
  0
ARC
  5
1E4BB0052D
330
1E4BABA593
100
AcDbEntity
  8
JISSEN
370
     0
100
AcDbCircle
 10
4266.384101806243
 20
8717.900219031044
 30
0.0
 40
0.8926840904507171
100
AcDbArc
 50
281.4220704663309
 51
8.04925964021438
  0
ARC
  5
1E4BB0052E
330
1E4BABA593
100
AcDbEntity
  8
JISSEN
370
     0
100
AcDbCircle
 10
4266.737667066152
 20
8717.900219031044
 30
0.0
 40
0.892684090450818
100
AcDbArc
 50
171.9507403597856
 51
258.5779295337201
  0
ARC
  5
1E4BB0052F
330
1E4BABA593
100
AcDbEntity
  8
JISSEN
370
    15
100
AcDbCircle
 10
4275.046165810436
 20
8718.025217561522
 30
0.0
 40
1.000000000000085
100
AcDbArc
 50
270.0
 51
0.0
  0
ARC
  5
1E4BB00530
330
1E4BABA593
100
AcDbEntity
  8
JISSEN
370
     0
100
AcDbCircle
 10
4274.869382467172
 20
8717.900219926492
 30
0.0
 40
0.8926850172213583
100
AcDbArc
 50
281.4220746690177
 51
8.049193183217271
  0
LINE
  5
1E4BB00531
330
1E4BABA593
100
AcDbEntity
  8
SUNPOU
100
AcDbLine
 10
4257.368495931454
 20
8726.425217239652
 30
0.0
 11
4266.008793066085
 21
8717.38482832743
 31
0.0
  0
LINE
  5
1E4BB00532
330
1E4BABA593
100
AcDbEntity
  8
SUNPOU
100
AcDbLine
 10
4265.853777655006
 20
8726.425217239655
 30
0.0
 11
4257.523511928449
 21
8717.384828291833
 31
0.0
  0
LINE
  5
1E4BB00533
330
1E4BABA593
100
AcDbEntity
  8
JISSEN
370
    15
100
AcDbLine
 10
4257.075603363641
 20
8726.425217239657
 30
0.0
 11
4257.075603363641
 21
8718.025216607848
 31
0.0
  0
LINE
  5
1E4BB00534
330
1E4BABA593
100
AcDbEntity
  8
JISSEN
370
     0
100
AcDbLine
 10
4257.368495931454
 20
8726.425217239657
 30
0.0
 11
4257.368495931454
 21
8718.025216607848
 31
0.0
  0
LINE
  5
1E4BB00535
330
1E4BABA593
100
AcDbEntity
  8
SUNPOU
100
AcDbLine
 10
4275.753272940941
 20
8726.425217239652
 30
0.0
 11
4267.112975806311
 21
8717.38482832743
 31
0.0
  0
LINE
  5
1E4BB00536
330
1E4BABA593
100
AcDbEntity
  8
SUNPOU
100
AcDbLine
 10
4267.26799121739
 20
8726.425217239657
 30
0.0
 11
4275.598256943947
 21
8717.384828291833
 31
0.0
  0
LINE
  5
1E4BB00537
330
1E4BABA593
100
AcDbEntity
  8
JISSEN
370
     0
100
AcDbLine
 10
4265.853777655006
 20
8718.025216607848
 30
0.0
 11
4265.853777655006
 21
8726.425217239657
 31
0.0
  0
LINE
  5
1E4BB00538
330
1E4BABA593
100
AcDbEntity
  8
JISSEN
370
     0
100
AcDbLine
 10
4267.26799121739
 20
8726.425217239657
 30
0.0
 11
4267.26799121739
 21
8718.025216607848
 31
0.0
  0
LINE
  5
1E4BB00539
330
1E4BABA593
100
AcDbEntity
  8
JISSEN
370
    15
100
AcDbLine
 10
4276.046165508755
 20
8718.025216607848
 30
0.0
 11
4276.046165508755
 21
8726.425217239657
 31
0.0
  0
LINE
  5
1E4BB0053A
330
1E4BABA593
100
AcDbEntity
  8
JISSEN
370
     0
100
AcDbLine
 10
4275.753272940941
 20
8718.025216607848
 30
0.0
 11
4275.753272940941
 21
8726.425217239657
 31
0.0
  0
LINE
  5
1E4BB0053B
330
1E4BABA593
100
AcDbEntity
  8
JISSEN
370
    15
100
AcDbLine
 10
4277.189658267029
 20
8728.024692981044
 30
0.0
 11
4277.176663796413
 21
8728.44049551938
 31
0.0
  0
LINE
  5
1E4BB00540
330
1E4BABA593
100
AcDbEntity
  8
SUNPOU
100
AcDbLine
 10
4359.566988498798
 20
8937.840114980314
 30
0.0
 11
4304.878451813034
 21
8937.840114980314
 31
0.0
  0
TEXT
  5
1E4BB00541
330
1E4BABA593
100
AcDbEntity
  8
SUNPOU
100
AcDbText
 10
4310.728530235741
 20
8939.840114980312
 30
0.0
 40
9.0
  1
Rc 1/2
  7
K
 72
     2
 11
4355.128530235741
 21
8939.840114980312
 31
0.0
100
AcDbText
  0
LINE
  5
1E4BB00542
330
1E4BABA593
100
AcDbEntity
  8
SUNPOU
100
AcDbLine
 10
4274.194908809544
 20
8904.830100066998
 30
0.0
 11
4304.878451813034
 21
8937.840114980314
 31
0.0
  0
INSERT
  5
1E4BB00543
330
1E4BABA593
100
AcDbEntity
  8
SUNPOU
100
AcDbBlockReference
  2
ARROW
 10
4274.194908809543
 20
8904.830100066998
 30
0.0
 41
4.500000000000063
 42
4.5
 43
4.5
 50
227.0918566014151
  0
LINE
  5
1E4BB00544
330
1E4BABA593
100
AcDbEntity
  8
SUNPOU
100
AcDbLine
 10
4062.275084444435
 20
9083.123211779883
 30
0.0
 11
4089.881032260072
 21
9083.123211779883
 31
0.0
  0
LINE
  5
1E4BB00545
330
1E4BABA593
100
AcDbEntity
  8
SUNPOU
100
AcDbLine
 10
4062.454798952102
 20
9188.123211779883
 30
0.0
 11
4089.881032260072
 21
9188.123211779883
 31
0.0
  0
LINE
  5
1E4BB00546
330
1E4BABA593
100
AcDbEntity
  8
SUNPOU
100
AcDbLine
 10
4086.881032260072
 20
9087.623211779883
 30
0.0
 11
4086.881032260072
 21
9183.623211779883
 31
0.0
  0
INSERT
  5
1E4BB00547
330
1E4BABA593
100
AcDbEntity
  8
SUNPOU
100
AcDbBlockReference
  2
ARROW
 10
4086.881032260072
 20
9083.123211779883
 30
0.0
 41
4.5
 42
4.5
 43
4.5
 50
270.0
  0
INSERT
  5
1E4BB00548
330
1E4BABA593
100
AcDbEntity
  8
SUNPOU
100
AcDbBlockReference
  2
ARROW
 10
4086.881032260072
 20
9188.123211779883
 30
0.0
 41
4.5
 42
4.5
 43
4.5
 50
90.0
  0
MTEXT
  5
1E4BB00549
330
1E4BABA593
100
AcDbEntity
  8
SUNPOU
100
AcDbMText
 10
4079.381032260071
 20
9135.623211779883
 30
0.0
 40
9.0
 41
0.0
 46
0.0
 71
     5
 72
     1
  1
%%c105
  7
K
 11
1.000000000000000E-16
 21
1.0
 31
0.0
 73
     1
 44
1.0
  0
LINE
  5
1E4BB0054A
330
1E4BABA593
100
AcDbEntity
  8
SUNPOU
100
AcDbLine
 10
4055.27286382546
 20
9065.623211779883
 30
0.0
 11
4110.877456566112
 21
9065.623211779883
 31
0.0
  0
LINE
  5
1E4BB0054B
330
1E4BABA593
100
AcDbEntity
  8
SUNPOU
100
AcDbLine
 10
4055.272863825461
 20
9205.623211779883
 30
0.0
 11
4110.877456566112
 21
9205.623211779883
 31
0.0
  0
LINE
  5
1E4BB0054C
330
1E4BABA593
100
AcDbEntity
  8
SUNPOU
100
AcDbLine
 10
4107.877456566113
 20
9070.123211779883
 30
0.0
 11
4107.877456566113
 21
9201.123211779883
 31
0.0
  0
INSERT
  5
1E4BB0054D
330
1E4BABA593
100
AcDbEntity
  8
SUNPOU
100
AcDbBlockReference
  2
ARROW
 10
4107.877456566113
 20
9065.623211779883
 30
0.0
 41
4.5
 42
4.5
 43
4.5
 50
270.0
  0
INSERT
  5
1E4BB0054E
330
1E4BABA593
100
AcDbEntity
  8
SUNPOU
100
AcDbBlockReference
  2
ARROW
 10
4107.877456566113
 20
9205.623211779883
 30
0.0
 41
4.5
 42
4.5
 43
4.5
 50
90.0
  0
MTEXT
  5
1E4BB0054F
330
1E4BABA593
100
AcDbEntity
  8
SUNPOU
100
AcDbMText
 10
4100.377456566111
 20
9135.623211779883
 30
0.0
 40
9.0
 41
0.0
 46
0.0
 71
     5
 72
     1
  1
%%c140
  7
K
 11
1.000000000000000E-16
 21
1.0
 31
0.0
 73
     1
 44
1.0
  0
LINE
  5
1E4BB00550
330
1E4BABA593
100
AcDbEntity
  8
SUNPOU
100
AcDbLine
 10
4033.272863825462
 20
9064.623211779883
 30
0.0
 11
4033.272863825462
 21
9036.346540043956
 31
0.0
  0
LINE
  5
1E4BB00551
330
1E4BABA593
100
AcDbEntity
  8
SUNPOU
100
AcDbLine
 10
4054.272863825461
 20
9064.623211779883
 30
0.0
 11
4054.272863825461
 21
9036.346540043956
 31
0.0
  0
LINE
  5
1E4BB00552
330
1E4BABA593
100
AcDbEntity
  8
SUNPOU
100
AcDbLine
 10
4037.772863825461
 20
9039.346540043958
 30
0.0
 11
4049.77286382546
 21
9039.346540043958
 31
0.0
  0
INSERT
  5
1E4BB00553
330
1E4BABA593
100
AcDbEntity
  8
SUNPOU
100
AcDbBlockReference
  2
ARROW
 10
4033.272863825462
 20
9039.346540043958
 30
0.0
 41
4.5
 42
4.5
 43
4.5
 50
180.0
  0
INSERT
  5
1E4BB00554
330
1E4BABA593
100
AcDbEntity
  8
SUNPOU
100
AcDbBlockReference
  2
ARROW
 10
4054.272863825461
 20
9039.346540043958
 30
0.0
 41
4.5
 42
4.5
 43
4.5
  0
MTEXT
  5
1E4BB00555
330
1E4BABA593
100
AcDbEntity
  8
SUNPOU
100
AcDbMText
 10
4043.772863825461
 20
9046.846540043958
 30
0.0
 40
9.0
 41
0.0
 46
0.0
 71
     5
 72
     1
  1
20
  7
K
 73
     1
 44
1.0
  0
LINE
  5
1E4BB00556
330
1E4BABA593
100
AcDbEntity
  8
SUNPOU
100
AcDbLine
 10
3874.272863825462
 20
8727.130850545029
 30
0.0
 11
3874.272863825462
 21
8679.11200797056
 31
0.0
  0
LINE
  5
1E4BB00557
330
1E4BABA593
100
AcDbEntity
  8
SUNPOU
100
AcDbLine
 10
4054.272863825461
 20
8727.130850545029
 30
0.0
 11
4054.272863825461
 21
8679.11200797056
 31
0.0
  0
LINE
  5
1E4BB00558
330
1E4BABA593
100
AcDbEntity
  8
SUNPOU
100
AcDbLine
 10
3878.772863825462
 20
8682.11200797056
 30
0.0
 11
4049.772863825461
 21
8682.11200797056
 31
0.0
  0
INSERT
  5
1E4BB00559
330
1E4BABA593
100
AcDbEntity
  8
SUNPOU
100
AcDbBlockReference
  2
ARROW
 10
3874.272863825462
 20
8682.11200797056
 30
0.0
 41
4.5
 42
4.5
 43
4.5
 50
180.0
  0
INSERT
  5
1E4BB0055A
330
1E4BABA593
100
AcDbEntity
  8
SUNPOU
100
AcDbBlockReference
  2
ARROW
 10
4054.272863825461
 20
8682.11200797056
 30
0.0
 41
4.5
 42
4.5
 43
4.5
  0
MTEXT
  5
1E4BB0055B
330
1E4BABA593
100
AcDbEntity
  8
SUNPOU
100
AcDbMText
 10
3964.272863825462
 20
8689.61200797056
 30
0.0
 40
9.0
 41
0.0
 46
0.0
 71
     5
 72
     1
  1
\A1;180
  7
K
 73
     1
 44
1.0
  0
LINE
  5
1E4BB00568
330
1E4BABA593
100
AcDbEntity
  8
SUNPOU
100
AcDbLine
 10
4185.560884436194
 20
8797.630850545029
 30
0.0
 11
4165.825257646971
 21
8797.630850545029
 31
0.0
  0
LINE
  5
1E4BB00569
330
1E4BABA593
100
AcDbEntity
  8
SUNPOU
100
AcDbLine
 10
4241.560884436199
 20
8897.63085054503
 30
0.0
 11
4165.825257646971
 21
8897.63085054503
 31
0.0
  0
LINE
  5
1E4BB0056A
330
1E4BABA593
100
AcDbEntity
  8
SUNPOU
100
AcDbLine
 10
4168.825257646971
 20
8802.130850545029
 30
0.0
 11
4168.825257646971
 21
8893.13085054503
 31
0.0
  0
INSERT
  5
1E4BB0056B
330
1E4BABA593
100
AcDbEntity
  8
SUNPOU
100
AcDbBlockReference
  2
ARROW
 10
4168.825257646971
 20
8797.630850545029
 30
0.0
 41
4.5
 42
4.5
 43
4.5
 50
270.0
  0
INSERT
  5
1E4BB0056C
330
1E4BABA593
100
AcDbEntity
  8
SUNPOU
100
AcDbBlockReference
  2
ARROW
 10
4168.825257646971
 20
8897.63085054503
 30
0.0
 41
4.5
 42
4.5
 43
4.5
 50
90.0
  0
MTEXT
  5
1E4BB0056D
330
1E4BABA593
100
AcDbEntity
  8
SUNPOU
100
AcDbMText
 10
4161.32525764697
 20
8847.630850545029
 30
0.0
 40
9.0
 41
0.0
 46
0.0
 71
     5
 72
     1
  1
\A1;100
  7
K
 11
1.000000000000000E-16
 21
1.0
 31
0.0
 73
     1
 44
1.0
  0
LINE
  5
1E4BB00577
330
1E4BABA593
100
AcDbEntity
  8
JISSEN
100
AcDbLine
 10
4272.060884436021
 20
8937.76482514155
 30
0.0
 11
4272.060884436023
 21
8916.630850545029
 31
0.0
  0
LINE
  5
1E4BB00578
330
1E4BABA593
100
AcDbEntity
  8
JISSEN
100
AcDbLine
 10
4261.060884436372
 20
8937.76482514155
 30
0.0
 11
4261.060884436372
 21
8916.630850545029
 31
0.0
  0
LINE
  5
1E4BB00579
330
1E4BABA593
100
AcDbEntity
  8
HATCH
100
AcDbLine
 10
4269.560884436197
 20
8950.130850545029
 30
0.0
 11
4266.560884436198
 21
8944.380850545029
 31
0.0
  0
LINE
  5
1E4BB0057A
330
1E4BABA593
100
AcDbEntity
  8
JISSEN
100
AcDbLine
 10
4272.060884436197
 20
8937.764825141247
 30
0.0
 11
4266.560884436198
 21
8937.764825141247
 31
0.0
  0
LINE
  5
1E4BB0057B
330
1E4BABA593
100
AcDbEntity
  8
JISSEN
100
AcDbLine
 10
4271.560884436198
 20
8938.630850545029
 30
0.0
 11
4266.560884436198
 21
8938.630850545029
 31
0.0
  0
LINE
  5
1E4BB0057C
330
1E4BABA593
100
AcDbEntity
  8
HATCH
100
AcDbLine
 10
4266.560884436198
 20
8944.380850545029
 30
0.0
 11
4269.560884436198
 21
8938.630850545029
 31
0.0
  0
LINE
  5
1E4BB0057D
330
1E4BABA593
100
AcDbEntity
  8
JISSEN
100
AcDbLine
 10
4266.560884436197
 20
8950.63085054503
 30
0.0
 11
4271.060884436197
 21
8950.63085054503
 31
0.0
  0
LINE
  5
1E4BB0057E
330
1E4BABA593
100
AcDbEntity
  8
JISSEN
100
AcDbLine
 10
4264.499331623386
 20
8950.63085054503
 30
0.0
 11
4263.560884436196
 21
8950.130850545029
 31
0.0
  0
LINE
  5
1E4BB0057F
330
1E4BABA593
100
AcDbEntity
  8
JISSEN
100
AcDbLine
 10
4261.560884436195
 20
8950.130850545029
 30
0.0
 11
4263.560884436196
 21
8950.130850545029
 31
0.0
  0
LINE
  5
1E4BB00580
330
1E4BABA593
100
AcDbEntity
  8
JISSEN
100
AcDbLine
 10
4261.560884436195
 20
8950.130850545029
 30
0.0
 11
4262.060884436196
 21
8950.63085054503
 31
0.0
  0
LINE
  5
1E4BB00581
330
1E4BABA593
100
AcDbEntity
  8
JISSEN
100
AcDbLine
 10
4266.560884436196
 20
8950.63085054503
 30
0.0
 11
4262.060884436196
 21
8950.63085054503
 31
0.0
  0
LINE
  5
1E4BB00582
330
1E4BABA593
100
AcDbEntity
  8
HATCH
100
AcDbLine
 10
4266.560884436196
 20
8944.380850545029
 30
0.0
 11
4263.560884436196
 21
8938.630850545029
 31
0.0
  0
LINE
  5
1E4BB00583
330
1E4BABA593
100
AcDbEntity
  8
JISSEN
100
AcDbLine
 10
4261.560884436195
 20
8938.630850545029
 30
0.0
 11
4261.060884436196
 21
8937.764825141245
 31
0.0
  0
LINE
  5
1E4BB00584
330
1E4BABA593
100
AcDbEntity
  8
JISSEN
100
AcDbLine
 10
4261.560884436195
 20
8938.630850545029
 30
0.0
 11
4266.560884436196
 21
8938.630850545029
 31
0.0
  0
LINE
  5
1E4BB00585
330
1E4BABA593
100
AcDbEntity
  8
JISSEN
100
AcDbLine
 10
4261.060884436196
 20
8937.764825141247
 30
0.0
 11
4266.560884436196
 21
8937.764825141247
 31
0.0
  0
LINE
  5
1E4BB00586
330
1E4BABA593
100
AcDbEntity
  8
HATCH
100
AcDbLine
 10
4263.560884436196
 20
8950.130850545029
 30
0.0
 11
4266.560884436196
 21
8944.380850545029
 31
0.0
  0
LINE
  5
1E4BB00587
330
1E4BABA593
100
AcDbEntity
  8
JISSEN
100
AcDbLine
 10
4261.560884436195
 20
8950.130850545029
 30
0.0
 11
4261.560884436195
 21
8938.630850545029
 31
0.0
  0
LINE
  5
1E4BB00588
330
1E4BABA593
100
AcDbEntity
  8
JISSEN
100
AcDbLine
 10
4263.560884436196
 20
8950.130850545029
 30
0.0
 11
4263.560884436196
 21
8938.630850545029
 31
0.0
  0
LINE
  5
1E4BB00589
330
1E4BABA593
100
AcDbEntity
  8
JISSEN
100
AcDbLine
 10
4269.560884436197
 20
8950.130850545029
 30
0.0
 11
4269.560884436198
 21
8938.630850545029
 31
0.0
  0
LINE
  5
1E4BB0058A
330
1E4BABA593
100
AcDbEntity
  8
JISSEN
100
AcDbLine
 10
4271.560884436197
 20
8950.130850545029
 30
0.0
 11
4271.560884436198
 21
8938.630850545029
 31
0.0
  0
LINE
  5
1E4BB0058B
330
1E4BABA593
100
AcDbEntity
  8
JISSEN
100
AcDbLine
 10
4271.560884436198
 20
8938.630850545029
 30
0.0
 11
4272.060884436197
 21
8937.764825141245
 31
0.0
  0
LINE
  5
1E4BB0058C
330
1E4BABA593
100
AcDbEntity
  8
JISSEN
100
AcDbLine
 10
4271.560884436197
 20
8950.130850545029
 30
0.0
 11
4271.060884436197
 21
8950.63085054503
 31
0.0
  0
LINE
  5
1E4BB0058D
330
1E4BABA593
100
AcDbEntity
  8
JISSEN
100
AcDbLine
 10
4271.560884436197
 20
8950.130850545029
 30
0.0
 11
4269.560884436197
 21
8950.130850545029
 31
0.0
  0
LINE
  5
1E4BB0058E
330
1E4BABA593
100
AcDbEntity
  8
JISSEN
100
AcDbLine
 10
4268.622437249006
 20
8950.63085054503
 30
0.0
 11
4269.560884436197
 21
8950.130850545029
 31
0.0
  0
LINE
  5
1E4BB0058F
330
1E4BABA593
100
AcDbEntity
  8
SUNPOU
100
AcDbLine
 10
3830.120999045781
 20
8802.130850545029
 30
0.0
 11
3830.120999045781
 21
8946.13085054503
 31
0.0
  0
LINE
  5
1E4BB00590
330
1E4BABA593
100
AcDbEntity
  8
SUNPOU
100
AcDbLine
 10
3956.772863825463
 20
8950.63085054503
 30
0.0
 11
3827.120999045781
 21
8950.63085054503
 31
0.0
  0
MTEXT
  5
1E4BB00591
330
1E4BABA593
100
AcDbEntity
  8
SUNPOU
100
AcDbMText
 10
3822.62099904578
 20
8874.13085054503
 30
0.0
 40
9.0
 41
0.0
 46
0.0
 71
     5
 72
     1
  1
153（全開時）
  7
K
 11
1.000000000000000E-16
 21
1.0
 31
0.0
 73
     1
 44
1.0
  0
INSERT
  5
1E4BB00592
330
1E4BABA593
100
AcDbEntity
  8
SUNPOU
100
AcDbBlockReference
  2
ARROW
 10
3830.120999045781
 20
8950.63085054503
 30
0.0
 41
4.5
 42
4.5
 43
4.5
 50
90.0
  0
INSERT
  5
1E4BB00593
330
1E4BABA593
100
AcDbEntity
  8
SUNPOU
100
AcDbBlockReference
  2
ARROW
 10
3830.120999045781
 20
8797.630850545029
 30
0.0
 41
4.5
 42
4.5
 43
4.5
 50
270.0
  0
LINE
  5
1E4BB00594
330
1E4BABA593
100
AcDbEntity
  8
SUNPOU
100
AcDbLine
 10
4035.772863825463
 20
8917.976372872588
 30
0.0
 11
4035.772863825463
 21
8986.427712979354
 31
0.0
  0
LINE
  5
1E4BB00595
330
1E4BABA593
100
AcDbEntity
  8
SUNPOU
100
AcDbLine
 10
3968.772863825463
 20
8983.427712979354
 30
0.0
 11
4031.272863825463
 21
8983.427712979354
 31
0.0
  0
INSERT
  5
1E4BB00596
330
1E4BABA593
100
AcDbEntity
  8
SUNPOU
100
AcDbBlockReference
  2
ARROW
 10
4035.772863825463
 20
8983.427712979354
 30
0.0
 41
4.5
 42
4.5
 43
4.5
  0
MTEXT
  5
1E4BB00597
330
1E4BABA593
100
AcDbEntity
  8
SUNPOU
100
AcDbMText
 10
4000.022863825463
 20
8990.927712979354
 30
0.0
 40
9.0
 41
0.0
 46
0.0
 71
     5
 72
     1
  1
\A1;71.5
  7
K
 73
     1
 44
1.0
  0
LINE
  5
1E4BB00598
330
1E4BABA593
100
AcDbEntity
  8
SUNPOU
100
AcDbLine
 10
3964.272863825463
 20
8963.63085054503
 30
0.0
 11
3964.272863825463
 21
8986.427712979354
 31
0.0
  0
INSERT
  5
1E4BB00599
330
1E4BABA593
100
AcDbEntity
  8
SUNPOU
100
AcDbBlockReference
  2
ARROW
 10
3964.272863825463
 20
8983.427712979354
 30
0.0
 41
4.5
 42
4.5
 43
4.5
 50
180.0
  0
LINE
  5
1E4BB0059A
330
1E4BABA593
100
AcDbEntity
  8
SUNPOU
100
AcDbLine
 10
3863.272863825462
 20
8797.630850545029
 30
0.0
 11
3827.120999045781
 21
8797.630850545029
 31
0.0
  0
LINE
  5
1E4BB0059B
330
1E4BABA593
100
AcDbEntity
  8
SUNPOU
100
AcDbLine
 10
3952.787582916815
 20
8717.025214581288
 30
0.0
 11
3827.120999045781
 21
8717.025214581288
 31
0.0
  0
LINE
  5
1E4BB0059C
330
1E4BABA593
100
AcDbEntity
  8
SUNPOU
100
AcDbLine
 10
3830.120999045781
 20
8793.130850545029
 30
0.0
 11
3830.120999045781
 21
8721.525214581288
 31
0.0
  0
INSERT
  5
1E4BB0059D
330
1E4BABA593
100
AcDbEntity
  8
SUNPOU
100
AcDbBlockReference
  2
ARROW
 10
3830.120999045781
 20
8797.630850545029
 30
0.0
 41
4.5
 42
4.5
 43
4.5
 50
90.0
  0
INSERT
  5
1E4BB0059E
330
1E4BABA593
100
AcDbEntity
  8
SUNPOU
100
AcDbBlockReference
  2
ARROW
 10
3830.120999045781
 20
8717.025214581288
 30
0.0
 41
4.5
 42
4.5
 43
4.5
 50
270.0
  0
MTEXT
  5
1E4BB0059F
330
1E4BABA593
100
AcDbEntity
  8
SUNPOU
100
AcDbMText
 10
3822.62099904578
 20
8757.328032563159
 30
0.0
 40
9.0
 41
0.0
 46
0.0
 71
     5
 72
     1
  1
80
  7
K
 11
1.000000000000000E-16
 21
1.0
 31
0.0
 73
     1
 44
1.0
  0
ENDSEC
  0
SECTION
  2
OBJECTS
  0
DICTIONARY
  5
1E4BABA588
330
0
100
AcDbDictionary
281
     1
  3
ACAD_DETAILVIEWSTYLE
350
1E4BB01D60
  3
ACAD_GROUP
350
1E4BABA589
  3
ACAD_LAYOUT
350
1E4BABAC6F
  3
ACAD_MATERIAL
350
1E4BB01D52
  3
ACAD_MLEADERSTYLE
350
1E4BB01D58
  3
ACAD_MLINESTYLE
350
1E4BABA596
  3
ACAD_PLOTSETTINGS
350
1E4BABAC70
  3
ACAD_PLOTSTYLENAME
350
1E4BABAC6D
  3
ACAD_SCALELIST
350
1E4BB01D17
  3
ACAD_SECTIONVIEWSTYLE
350
1E4BB01D61
  3
ACAD_TABLESTYLE
350
1E4BB01D56
  3
ACAD_VISUALSTYLE
350
1E4BB01D39
  3
ACDB_RECOMPOSE_DATA
350
1E4BB01D64
  3
AcDbVariableDictionary
350
1E4BABBC1C
  3
APPDATA
350
1E4BB01D5A
  0
DICTIONARY
  5
1E4BABAD0F
330
1E4BABA57E
100
AcDbDictionary
280
     1
281
     1
  3
ACAD_LAYERFILTERS
360
1E4BABC0B4
  3
ACAD_LAYERSTATES
360
1E4BABAD10
  0
DICTIONARY
  5
1E4BADBD73
330
1E4BADBD72
100
AcDbDictionary
280
     1
281
     1
  3
ADSK_XREC_LAYER_RECONCILED
360
1E4BADBD75
  0
DICTIONARY
  5
1E4BB01D60
102
{ACAD_REACTORS
330
1E4BABA588
102
}
330
1E4BABA588
100
AcDbDictionary
281
     1
  0
DICTIONARY
  5
1E4BABA589
102
{ACAD_REACTORS
330
1E4BABA588
102
}
330
1E4BABA588
100
AcDbDictionary
281
     1
  3
*A2615
350
1E4BAFFC7A
  0
DICTIONARY
  5
1E4BABAC6F
102
{ACAD_REACTORS
330
1E4BABA588
102
}
330
1E4BABA588
100
AcDbDictionary
281
     1
  3
Model
350
1E4BABAC71
  3
ﾚｲｱｳﾄ1
350
1E4BABAC72
  0
DICTIONARY
  5
1E4BB01D52
102
{ACAD_REACTORS
330
1E4BABA588
102
}
330
1E4BABA588
100
AcDbDictionary
281
     1
  3
ByBlock
350
1E4BB01D54
  3
ByLayer
350
1E4BB01D53
  3
Global
350
1E4BB01D55
  0
DICTIONARY
  5
1E4BB01D58
102
{ACAD_REACTORS
330
1E4BABA588
102
}
330
1E4BABA588
100
AcDbDictionary
281
     1
  3
Standard
350
1E4BB01D59
  0
DICTIONARY
  5
1E4BABA596
102
{ACAD_REACTORS
330
1E4BABA588
102
}
330
1E4BABA588
100
AcDbDictionary
281
     1
  3
STANDARD
350
1E4BABA597
  0
DICTIONARY
  5
1E4BABAC70
102
{ACAD_REACTORS
330
1E4BABA588
102
}
330
1E4BABA588
100
AcDbDictionary
281
     1
  0
ACDBDICTIONARYWDFLT
  5
1E4BABAC6D
102
{ACAD_REACTORS
330
1E4BABA588
102
}
330
1E4BABA588
100
AcDbDictionary
281
     1
  3
Normal
350
1E4BABAC6E
  3
Style_1
350
1E4BABC2B7
100
AcDbDictionaryWithDefault
340
1E4BABAC6E
  0
DICTIONARY
  5
1E4BB01D17
102
{ACAD_REACTORS
330
1E4BABA588
102
}
330
1E4BABA588
100
AcDbDictionary
281
     1
  3
A0
350
1E4BB01D18
  3
A1
350
1E4BB01D19
  3
A2
350
1E4BB01D1A
  3
A3
350
1E4BB01D1B
  3
A4
350
1E4BB01D1C
  3
A5
350
1E4BB01D1D
  3
A6
350
1E4BB01D1E
  3
A7
350
1E4BB01D1F
  3
A8
350
1E4BB01D20
  3
A9
350
1E4BB01D21
  3
B0
350
1E4BB01D22
  3
B1
350
1E4BB01D23
  3
B2
350
1E4BB01D24
  3
B3
350
1E4BB01D25
  3
B4
350
1E4BB01D26
  3
B5
350
1E4BB01D27
  3
B6
350
1E4BB01D28
  3
B7
350
1E4BB01D29
  3
B8
350
1E4BB01D2A
  3
B9
350
1E4BB01D2B
  3
C0
350
1E4BB01D2C
  3
C1
350
1E4BB01D2D
  3
C2
350
1E4BB01D2E
  3
C3
350
1E4BB01D2F
  3
C4
350
1E4BB01D30
  3
C5
350
1E4BB01D31
  3
C6
350
1E4BB01D32
  3
C7
350
1E4BB01D33
  3
C8
350
1E4BB01D34
  3
C9
350
1E4BB01D35
  3
D0
350
1E4BB01D36
  3
D1
350
1E4BB01D37
  3
D2
350
1E4BB01D38
  0
DICTIONARY
  5
1E4BB01D61
102
{ACAD_REACTORS
330
1E4BABA588
102
}
330
1E4BABA588
100
AcDbDictionary
281
     1
  0
DICTIONARY
  5
1E4BB01D56
102
{ACAD_REACTORS
330
1E4BABA588
102
}
330
1E4BABA588
100
AcDbDictionary
281
     1
  3
Standard
350
1E4BB01D57
  0
DICTIONARY
  5
1E4BB01D39
102
{ACAD_REACTORS
330
1E4BABA588
102
}
330
1E4BABA588
100
AcDbDictionary
281
     1
  3
2dWireframe
350
1E4BB01D3E
  3
Basic
350
1E4BB01D41
  3
Brighten
350
1E4BB01D45
  3
ColorChange
350
1E4BB01D49
  3
Conceptual
350
1E4BB01D43
  3
Dim
350
1E4BB01D44
  3
EdgeColorOff
350
1E4BB01D4C
  3
Facepattern
350
1E4BB01D48
  3
Flat
350
1E4BB01D3A
  3
FlatWithEdges
350
1E4BB01D3B
  3
Gouraud
350
1E4BB01D3C
  3
GouraudWithEdges
350
1E4BB01D3D
  3
Hidden
350
1E4BB01D40
  3
JitterOff
350
1E4BB01D4A
  3
Linepattern
350
1E4BB01D47
  3
OverhangOff
350
1E4BB01D4B
  3
Realistic
350
1E4BB01D42
  3
Shaded
350
1E4BB01D51
  3
Shaded with edges
350
1E4BB01D50
  3
Shades of Gray
350
1E4BB01D4D
  3
Sketchy
350
1E4BB01D4E
  3
Thicken
350
1E4BB01D46
  3
Wireframe
350
1E4BB01D3F
  3
X-Ray
350
1E4BB01D4F
  0
XRECORD
  5
1E4BB01D64
102
{ACAD_REACTORS
330
1E4BABA588
102
}
330
1E4BABA588
100
AcDbXrecord
280
     1
 90
        1
330
1E4BB01D57
  0
DICTIONARY
  5
1E4BABBC1C
102
{ACAD_REACTORS
330
1E4BABA588
102
}
330
1E4BABA588
100
AcDbDictionary
281
     1
  3
CANNOSCALE
350
1E4BB01D5C
  3
CMLEADERSTYLE
350
1E4BB01D5E
  3
CTABLESTYLE
350
1E4BB01D5D
  3
DIMASSOC
350
1E4BABC0A8
  3
MSLTSCALE
350
1E4BB01D5F
  3
SORTENTS
350
1E4BABBC1D
  0
DICTIONARY
  5
1E4BB01D5A
102
{ACAD_REACTORS
330
1E4BABA588
102
}
330
1E4BABA588
100
AcDbDictionary
281
     1
  0
DICTIONARY
  5
1E4BABC0B4
102
{ACAD_REACTORS
330
1E4BABAD0F
102
}
330
1E4BABAD0F
100
AcDbDictionary
280
     1
281
     1
  3
0
360
1E4BABC0B5
  3
0-0
360
1E4BABC0B6
  3
０画層
360
1E4BABC0D4
  3
10画層
360
1E4BABC0B7
  3
2
360
1E4BABC0B8
  3
3
360
1E4BABC0B9
  3
3A
360
1E4BABC0BA
  3
３A画層
360
1E4BABC0D5
  3
３画層
360
1E4BABC0D6
  3
4
360
1E4BABC0BB
  3
5画層
360
1E4BABC0BC
  3
6画層
360
1E4BABC0BD
  3
7
360
1E4BABC0BE
  3
7a画層
360
1E4BABC0BF
  3
8
360
1E4BABC0C0
  3
ASYST
360
1E4BABC0C1
  3
ASYST PHASE 1
360
1E4BABC0C2
  3
ASYST PHASE 2
360
1E4BABC0C3
  3
cap-0
360
1E4BABC0C4
  3
dims
360
1E4BABC0C5
  3
elec
360
1E4BABC0C6
  3
ELECTRICAL
360
1E4BABC0C7
  3
F
360
1E4BABC0C8
  3
Frame
360
1E4BABC0C9
  3
FROZEN
360
1E4BABC0CA
  3
FROZEN ACTIVE
360
1E4BABC0CB
  3
jiku-0
360
1E4BABC0CC
  3
MP
360
1E4BABC0CD
  3
MPR
360
1E4BABC0CE
  3
p-
360
1E4BABC0CF
  3
ST
360
1E4BABC0D0
  3
TC
360
1E4BABC0D1
  3
TEXT
360
1E4BABC0D2
  3
ｹｰﾌﾞﾙ図
360
1E4BABC0D3
  0
DICTIONARY
  5
1E4BABAD10
102
{ACAD_REACTORS
330
1E4BABAD0F
102
}
330
1E4BABAD0F
100
AcDbDictionary
281
     1
  0
XRECORD
  5
1E4BADBD75
102
{ACAD_REACTORS
330
1E4BADBD73
102
}
330
1E4BADBD73
100
AcDbXrecord
280
     1
290
     1
  0
GROUP
  5
1E4BAFFC7A
102
{ACAD_REACTORS
330
1E4BABA589
102
}
330
1E4BABA589
100
AcDbGroup
300

 70
     1
 71
     1
340
1E4BAFF46E
340
1E4BAFF471
340
1E4BAFF46D
340
1E4BAFF65C
340
1E4BAFF487
340
1E4BAFF488
  0
LAYOUT
  5
1E4BABAC71
102
{ACAD_REACTORS
330
1E4BABAC6F
102
}
330
1E4BABAC6F
100
AcDbPlotSettings
  1

  2
\\Nt_honsya\FUJITSU XL-5300-3
  4
A4
  6

 40
5.873749732971191
 41
5.704405784606933
 42
5.789077758789062
 43
5.873748779296875
 44
209.9733276367187
 45
296.9259948730469
 46
0.0
 47
0.0
 48
0.0
 49
0.0
140
0.0
141
0.0
142
1.0
143
1.0
 70
 11952
 72
     0
 73
     1
 74
     0
  7
aclt.ctb
 75
     0
 76
     0
 77
     2
 78
   300
147
1.0
148
142.6071822177235
149
41.48911807161443
100
AcDbLayout
  1
Model
 70
     1
 71
     0
 10
0.0
 20
0.0
 11
12.0
 21
9.0
 12
0.0
 22
0.0
 32
0.0
 14
0.0
 24
0.0
 34
0.0
 15
0.0
 25
0.0
 35
0.0
146
0.0
 13
0.0
 23
0.0
 33
0.0
 16
1.0
 26
0.0
 36
0.0
 17
0.0
 27
1.0
 37
0.0
 76
     0
330
1E4BABA593
331
1E4BB01CF5
  0
LAYOUT
  5
1E4BABAC72
102
{ACAD_REACTORS
330
1E4BABAC6F
102
}
330
1E4BABAC6F
100
AcDbPlotSettings
  1

  2
\\Nt_honsya\FUJITSU XL-5300-3
  4

  6

 40
0.0
 41
0.0
 42
0.0
 43
0.0
 44
0.0
 45
0.0
 46
0.0
 47
0.0
 48
0.0
 49
0.0
140
0.0
141
0.0
142
1.0
143
1.0
 70
   688
 72
     0
 73
     0
 74
     5
  7
pdf001.ctb
 75
    16
 76
     0
 77
     2
 78
   300
147
1.0
148
0.0
149
0.0
100
AcDbLayout
  1
ﾚｲｱｳﾄ1
 70
     0
 71
     1
 10
0.0
 20
0.0
 11
12.0
 21
9.0
 12
0.0
 22
0.0
 32
0.0
 14
1.000000000000000E+20
 24
1.000000000000000E+20
 34
1.000000000000000E+20
 15
-1.000000000000000E+20
 25
-1.000000000000000E+20
 35
-1.000000000000000E+20
146
0.0
 13
0.0
 23
0.0
 33
0.0
 16
1.0
 26
0.0
 36
0.0
 17
0.0
 27
1.0
 37
0.0
 76
     0
330
1E4BABA590
  0
MATERIAL
  5
1E4BB01D54
102
{ACAD_REACTORS
330
1E4BB01D52
102
}
330
1E4BB01D52
100
AcDbMaterial
  1
ByBlock
 72
     1
 94
      127
  0
MATERIAL
  5
1E4BB01D53
102
{ACAD_REACTORS
330
1E4BB01D52
102
}
330
1E4BB01D52
100
AcDbMaterial
  1
ByLayer
 72
     1
 94
      127
  0
MATERIAL
  5
1E4BB01D55
102
{ACAD_REACTORS
330
1E4BB01D52
102
}
330
1E4BB01D52
100
AcDbMaterial
  1
Global
 72
     1
 94
      127
  0
MLEADERSTYLE
  5
1E4BB01D59
102
{ACAD_REACTORS
330
1E4BB01D58
102
}
330
1E4BB01D58
100
AcDbMLeaderStyle
179
     2
170
     2
171
     1
172
     0
 90
        2
 40
0.0
 41
0.0
173
     1
 91
-1056964608
340
1E4BABA58D
 92
       -2
290
     1
 42
0.09
291
     1
 43
0.36
  3
Standard
341
0
 44
0.18
300

342
1E4BABA58B
174
     1
178
     1
175
     1
176
     0
 93
-1056964608
 45
0.18
292
     0
297
     0
 46
0.18
343
0
 94
-1056964608
 47
1.0
 49
1.0
140
1.0
293
     1
141
0.0
294
     1
177
     0
142
1.0
295
     0
296
     0
143
0.125
271
     0
272
     9
273
     9
  0
MLINESTYLE
  5
1E4BABA597
102
{ACAD_REACTORS
330
1E4BABA596
102
}
330
1E4BABA596
100
AcDbMlineStyle
  2
STANDARD
 70
     0
  3

 62
   256
 51
90.0
 52
90.0
 71
     2
 49
0.5
 62
   256
  6
BYLAYER
 49
-0.5
 62
   256
  6
BYLAYER
  0
ACDBPLACEHOLDER
  5
1E4BABAC6E
102
{ACAD_REACTORS
330
1E4BABAC6D
102
}
330
1E4BABAC6D
  0
ACDBPLACEHOLDER
  5
1E4BABC2B7
102
{ACAD_REACTORS
330
1E4BABAC6D
102
}
330
1E4BABAC6D
  0
SCALE
  5
1E4BB01D18
102
{ACAD_REACTORS
330
1E4BB01D17
102
}
330
1E4BB01D17
100
AcDbScale
 70
     0
300
1:1
140
1.0
141
1.0
290
     1
  0
SCALE
  5
1E4BB01D19
102
{ACAD_REACTORS
330
1E4BB01D17
102
}
330
1E4BB01D17
100
AcDbScale
 70
     0
300
1:2
140
1.0
141
2.0
290
     0
  0
SCALE
  5
1E4BB01D1A
102
{ACAD_REACTORS
330
1E4BB01D17
102
}
330
1E4BB01D17
100
AcDbScale
 70
     0
300
1:4
140
1.0
141
4.0
290
     0
  0
SCALE
  5
1E4BB01D1B
102
{ACAD_REACTORS
330
1E4BB01D17
102
}
330
1E4BB01D17
100
AcDbScale
 70
     0
300
1:5
140
1.0
141
5.0
290
     0
  0
SCALE
  5
1E4BB01D1C
102
{ACAD_REACTORS
330
1E4BB01D17
102
}
330
1E4BB01D17
100
AcDbScale
 70
     0
300
1:8
140
1.0
141
8.0
290
     0
  0
SCALE
  5
1E4BB01D1D
102
{ACAD_REACTORS
330
1E4BB01D17
102
}
330
1E4BB01D17
100
AcDbScale
 70
     0
300
1:10
140
1.0
141
10.0
290
     0
  0
SCALE
  5
1E4BB01D1E
102
{ACAD_REACTORS
330
1E4BB01D17
102
}
330
1E4BB01D17
100
AcDbScale
 70
     0
300
1:16
140
1.0
141
16.0
290
     0
  0
SCALE
  5
1E4BB01D1F
102
{ACAD_REACTORS
330
1E4BB01D17
102
}
330
1E4BB01D17
100
AcDbScale
 70
     0
300
1:20
140
1.0
141
20.0
290
     0
  0
SCALE
  5
1E4BB01D20
102
{ACAD_REACTORS
330
1E4BB01D17
102
}
330
1E4BB01D17
100
AcDbScale
 70
     0
300
1:30
140
1.0
141
30.0
290
     0
  0
SCALE
  5
1E4BB01D21
102
{ACAD_REACTORS
330
1E4BB01D17
102
}
330
1E4BB01D17
100
AcDbScale
 70
     0
300
1:40
140
1.0
141
40.0
290
     0
  0
SCALE
  5
1E4BB01D22
102
{ACAD_REACTORS
330
1E4BB01D17
102
}
330
1E4BB01D17
100
AcDbScale
 70
     0
300
1:50
140
1.0
141
50.0
290
     0
  0
SCALE
  5
1E4BB01D23
102
{ACAD_REACTORS
330
1E4BB01D17
102
}
330
1E4BB01D17
100
AcDbScale
 70
     0
300
1:100
140
1.0
141
100.0
290
     0
  0
SCALE
  5
1E4BB01D24
102
{ACAD_REACTORS
330
1E4BB01D17
102
}
330
1E4BB01D17
100
AcDbScale
 70
     0
300
2:1
140
2.0
141
1.0
290
     0
  0
SCALE
  5
1E4BB01D25
102
{ACAD_REACTORS
330
1E4BB01D17
102
}
330
1E4BB01D17
100
AcDbScale
 70
     0
300
4:1
140
4.0
141
1.0
290
     0
  0
SCALE
  5
1E4BB01D26
102
{ACAD_REACTORS
330
1E4BB01D17
102
}
330
1E4BB01D17
100
AcDbScale
 70
     0
300
8:1
140
8.0
141
1.0
290
     0
  0
SCALE
  5
1E4BB01D27
102
{ACAD_REACTORS
330
1E4BB01D17
102
}
330
1E4BB01D17
100
AcDbScale
 70
     0
300
10:1
140
10.0
141
1.0
290
     0
  0
SCALE
  5
1E4BB01D28
102
{ACAD_REACTORS
330
1E4BB01D17
102
}
330
1E4BB01D17
100
AcDbScale
 70
     0
300
100:1
140
100.0
141
1.0
290
     0
  0
SCALE
  5
1E4BB01D29
102
{ACAD_REACTORS
330
1E4BB01D17
102
}
330
1E4BB01D17
100
AcDbScale
 70
     0
300
1/128" = 1'-0"
140
0.0078125
141
12.0
290
     0
  0
SCALE
  5
1E4BB01D2A
102
{ACAD_REACTORS
330
1E4BB01D17
102
}
330
1E4BB01D17
100
AcDbScale
 70
     0
300
1/64" = 1'-0"
140
0.015625
141
12.0
290
     0
  0
SCALE
  5
1E4BB01D2B
102
{ACAD_REACTORS
330
1E4BB01D17
102
}
330
1E4BB01D17
100
AcDbScale
 70
     0
300
1/32" = 1'-0"
140
0.03125
141
12.0
290
     0
  0
SCALE
  5
1E4BB01D2C
102
{ACAD_REACTORS
330
1E4BB01D17
102
}
330
1E4BB01D17
100
AcDbScale
 70
     0
300
1/16" = 1'-0"
140
0.0625
141
12.0
290
     0
  0
SCALE
  5
1E4BB01D2D
102
{ACAD_REACTORS
330
1E4BB01D17
102
}
330
1E4BB01D17
100
AcDbScale
 70
     0
300
3/32" = 1'-0"
140
0.09375
141
12.0
290
     0
  0
SCALE
  5
1E4BB01D2E
102
{ACAD_REACTORS
330
1E4BB01D17
102
}
330
1E4BB01D17
100
AcDbScale
 70
     0
300
1/8" = 1'-0"
140
0.125
141
12.0
290
     0
  0
SCALE
  5
1E4BB01D2F
102
{ACAD_REACTORS
330
1E4BB01D17
102
}
330
1E4BB01D17
100
AcDbScale
 70
     0
300
3/16" = 1'-0"
140
0.1875
141
12.0
290
     0
  0
SCALE
  5
1E4BB01D30
102
{ACAD_REACTORS
330
1E4BB01D17
102
}
330
1E4BB01D17
100
AcDbScale
 70
     0
300
1/4" = 1'-0"
140
0.25
141
12.0
290
     0
  0
SCALE
  5
1E4BB01D31
102
{ACAD_REACTORS
330
1E4BB01D17
102
}
330
1E4BB01D17
100
AcDbScale
 70
     0
300
3/8" = 1'-0"
140
0.375
141
12.0
290
     0
  0
SCALE
  5
1E4BB01D32
102
{ACAD_REACTORS
330
1E4BB01D17
102
}
330
1E4BB01D17
100
AcDbScale
 70
     0
300
1/2" = 1'-0"
140
0.5
141
12.0
290
     0
  0
SCALE
  5
1E4BB01D33
102
{ACAD_REACTORS
330
1E4BB01D17
102
}
330
1E4BB01D17
100
AcDbScale
 70
     0
300
3/4" = 1'-0"
140
0.75
141
12.0
290
     0
  0
SCALE
  5
1E4BB01D34
102
{ACAD_REACTORS
330
1E4BB01D17
102
}
330
1E4BB01D17
100
AcDbScale
 70
     0
300
1" = 1'-0"
140
1.0
141
12.0
290
     0
  0
SCALE
  5
1E4BB01D35
102
{ACAD_REACTORS
330
1E4BB01D17
102
}
330
1E4BB01D17
100
AcDbScale
 70
     0
300
1-1/2" = 1'-0"
140
1.5
141
12.0
290
     0
  0
SCALE
  5
1E4BB01D36
102
{ACAD_REACTORS
330
1E4BB01D17
102
}
330
1E4BB01D17
100
AcDbScale
 70
     0
300
3" = 1'-0"
140
3.0
141
12.0
290
     0
  0
SCALE
  5
1E4BB01D37
102
{ACAD_REACTORS
330
1E4BB01D17
102
}
330
1E4BB01D17
100
AcDbScale
 70
     0
300
6" = 1'-0"
140
6.0
141
12.0
290
     0
  0
SCALE
  5
1E4BB01D38
102
{ACAD_REACTORS
330
1E4BB01D17
102
}
330
1E4BB01D17
100
AcDbScale
 70
     0
300
1'-0" = 1'-0"
140
12.0
141
12.0
290
     0
  0
TABLESTYLE
  5
1E4BB01D57
102
{ACAD_REACTORS
330
1E4BB01D56
102
}
102
{ACAD_XDICTIONARY
360
1E4BB01D62
102
}
330
1E4BB01D56
100
AcDbTableStyle
  3
Standard
 70
     0
 71
     0
 40
0.06
 41
0.06
280
     0
281
     0
  7
STANDARD
140
0.18
170
     2
 62
     0
 63
   257
283
     0
 90
        4
 91
        0
  1

274
    -2
284
     1
 64
     0
275
    -2
285
     1
 65
     0
276
    -2
286
     1
 66
     0
277
    -2
287
     1
 67
     0
278
    -2
288
     1
 68
     0
279
    -2
289
     1
 69
     0
  7
STANDARD
140
0.25
170
     5
 62
     0
 63
   257
283
     0
 90
        4
 91
        0
  1

274
    -2
284
     1
 64
     0
275
    -2
285
     1
 65
     0
276
    -2
286
     1
 66
     0
277
    -2
287
     1
 67
     0
278
    -2
288
     1
 68
     0
279
    -2
289
     1
 69
     0
  7
STANDARD
140
0.18
170
     5
 62
     0
 63
   257
283
     0
 90
        4
 91
        0
  1

274
    -2
284
     1
 64
     0
275
    -2
285
     1
 65
     0
276
    -2
286
     1
 66
     0
277
    -2
287
     1
 67
     0
278
    -2
288
     1
 68
     0
279
    -2
289
     1
 69
     0
  0
VISUALSTYLE
  5
1E4BB01D3E
102
{ACAD_REACTORS
330
1E4BB01D39
102
}
330
1E4BB01D39
100
AcDbVisualStyle
  2
2dWireframe
 70
     4
177
     2
291
     0
 71
     0
176
     1
 72
     2
176
     1
 73
     0
176
     1
 90
        0
176
     1
 40
0.6
176
     1
 41
30.0
176
     1
 62
     5
 63
     7
421
 16777215
176
     1
 74
     1
176
     1
 91
        4
176
     1
 64
     7
176
     1
 65
   257
176
     1
 75
     1
176
     1
175
     1
176
     1
 42
1.0
176
     1
 92
        0
176
     1
 66
   257
176
     1
 43
1.0
176
     1
 76
     1
176
     1
 77
     6
176
     1
 78
     2
176
     1
 67
     7
176
     1
 79
     5
176
     1
170
     0
176
     1
171
     0
176
     1
290
     0
176
     1
 93
        1
176
     1
 44
0.0
176
     1
173
     0
176
     1
  0
VISUALSTYLE
  5
1E4BB01D41
102
{ACAD_REACTORS
330
1E4BB01D39
102
}
330
1E4BB01D39
100
AcDbVisualStyle
  2
Basic
 70
     7
177
     2
291
     1
 71
     1
176
     1
 72
     0
176
     1
 73
     1
176
     1
 90
        0
176
     1
 40
0.6
176
     1
 41
30.0
176
     1
 62
     5
 63
     7
421
 16777215
176
     1
 74
     0
176
     1
 91
        4
176
     1
 64
     7
176
     1
 65
   257
176
     1
 75
     1
176
     1
175
     1
176
     1
 42
1.0
176
     1
 92
        8
176
     1
 66
     7
176
     1
 43
1.0
176
     1
 76
     1
176
     1
 77
     6
176
     1
 78
     2
176
     1
 67
     7
176
     1
 79
     5
176
     1
170
     0
176
     1
171
     0
176
     1
290
     0
176
     1
 93
        1
176
     1
 44
0.0
176
     1
173
     0
176
     1
  0
VISUALSTYLE
  5
1E4BB01D45
102
{ACAD_REACTORS
330
1E4BB01D39
102
}
330
1E4BB01D39
100
AcDbVisualStyle
  2
Brighten
 70
    12
177
     2
291
     1
 71
     2
176
     1
 72
     2
176
     1
 73
     0
176
     1
 90
        0
176
     1
 40
0.6
176
     1
 41
30.0
176
     1
 62
     5
 63
     7
421
 16777215
176
     1
 74
     1
176
     1
 91
        4
176
     1
 64
     7
176
     1
 65
   257
176
     1
 75
     1
176
     1
175
     1
176
     1
 42
1.0
176
     1
 92
        8
176
     1
 66
     7
176
     1
 43
1.0
176
     1
 76
     1
176
     1
 77
     6
176
     1
 78
     2
176
     1
 67
     7
176
     1
 79
     5
176
     1
170
     0
176
     1
171
     0
176
     1
290
     0
176
     1
 93
        1
176
     1
 44
50.0
176
     1
173
     0
176
     1
  0
VISUALSTYLE
  5
1E4BB01D49
102
{ACAD_REACTORS
330
1E4BB01D39
102
}
330
1E4BB01D39
100
AcDbVisualStyle
  2
ColorChange
 70
    16
177
     2
291
     1
 71
     2
176
     1
 72
     2
176
     1
 73
     3
176
     1
 90
        0
176
     1
 40
0.6
176
     1
 41
30.0
176
     1
 62
     5
 63
     8
421
  8421504
176
     1
 74
     1
176
     1
 91
        4
176
     1
 64
     7
176
     1
 65
   257
176
     1
 75
     1
176
     1
175
     1
176
     1
 42
1.0
176
     1
 92
        8
176
     1
 66
     8
424
  8421504
176
     1
 43
1.0
176
     1
 76
     1
176
     1
 77
     6
176
     1
 78
     2
176
     1
 67
     7
176
     1
 79
     5
176
     1
170
     0
176
     1
171
     0
176
     1
290
     0
176
     1
 93
        1
176
     1
 44
0.0
176
     1
173
     0
176
     1
  0
VISUALSTYLE
  5
1E4BB01D43
102
{ACAD_REACTORS
330
1E4BB01D39
102
}
330
1E4BB01D39
100
AcDbVisualStyle
  2
Conceptual
 70
     9
177
     2
291
     0
 71
     3
176
     1
 72
     2
176
     1
 73
     0
176
     1
 90
        0
176
     1
 40
0.6
176
     1
 41
30.0
176
     1
 62
     5
 63
     7
421
 16777215
176
     1
 74
     2
176
     1
 91
        2
176
     1
 64
     7
176
     1
 65
   257
176
     1
 75
     1
176
     1
175
     1
176
     1
 42
179.0
176
     1
 92
        8
176
     1
 66
     7
176
     1
 43
1.0
176
     1
 76
     1
176
     1
 77
     6
176
     1
 78
     2
176
     1
 67
     7
176
     1
 79
     3
176
     1
170
     0
176
     1
171
     0
176
     1
290
     0
176
     1
 93
        1
176
     1
 44
0.0
176
     1
173
     0
176
     1
  0
VISUALSTYLE
  5
1E4BB01D44
102
{ACAD_REACTORS
330
1E4BB01D39
102
}
330
1E4BB01D39
100
AcDbVisualStyle
  2
Dim
 70
    11
177
     2
291
     1
 71
     2
176
     1
 72
     2
176
     1
 73
     0
176
     1
 90
        0
176
     1
 40
0.6
176
     1
 41
30.0
176
     1
 62
     5
 63
     7
421
 16777215
176
     1
 74
     1
176
     1
 91
        4
176
     1
 64
     7
176
     1
 65
   257
176
     1
 75
     1
176
     1
175
     1
176
     1
 42
1.0
176
     1
 92
        8
176
     1
 66
     7
176
     1
 43
1.0
176
     1
 76
     1
176
     1
 77
     6
176
     1
 78
     2
176
     1
 67
     7
176
     1
 79
     5
176
     1
170
     0
176
     1
171
     0
176
     1
290
     0
176
     1
 93
        1
176
     1
 44
-50.0
176
     1
173
     0
176
     1
  0
VISUALSTYLE
  5
1E4BB01D4C
102
{ACAD_REACTORS
330
1E4BB01D39
102
}
330
1E4BB01D39
100
AcDbVisualStyle
  2
EdgeColorOff
 70
    22
177
     2
291
     1
 71
     2
176
     0
 72
     2
176
     0
 73
     0
176
     0
 90
        0
176
     0
 40
0.6
176
     0
 41
30.0
176
     0
 62
     5
 63
     7
421
 16777215
176
     0
 74
     1
176
     0
 91
        4
176
     0
 64
     7
176
     0
 65
   257
176
     0
 75
     1
176
     0
175
     1
176
     0
 42
1.0
176
     0
 92
        8
176
     2
 66
     7
176
     0
 43
1.0
176
     0
 76
     1
176
     0
 77
     6
176
     0
 78
     2
176
     0
 67
     7
176
     0
 79
     5
176
     0
170
     0
176
     0
171
     0
176
     0
290
     0
176
     0
 93
        1
176
     0
 44
0.0
176
     0
173
     0
176
     0
  0
VISUALSTYLE
  5
1E4BB01D48
102
{ACAD_REACTORS
330
1E4BB01D39
102
}
330
1E4BB01D39
100
AcDbVisualStyle
  2
Facepattern
 70
    15
177
     2
291
     1
 71
     2
176
     1
 72
     2
176
     1
 73
     0
176
     1
 90
        0
176
     1
 40
0.6
176
     1
 41
30.0
176
     1
 62
     5
 63
     7
421
 16777215
176
     1
 74
     1
176
     1
 91
        4
176
     1
 64
     7
176
     1
 65
   257
176
     1
 75
     1
176
     1
175
     1
176
     1
 42
1.0
176
     1
 92
        8
176
     1
 66
     7
176
     1
 43
1.0
176
     1
 76
     1
176
     1
 77
     6
176
     1
 78
     2
176
     1
 67
     7
176
     1
 79
     5
176
     1
170
     0
176
     1
171
     0
176
     1
290
     0
176
     1
 93
        1
176
     1
 44
0.0
176
     1
173
     0
176
     1
  0
VISUALSTYLE
  5
1E4BB01D3A
102
{ACAD_REACTORS
330
1E4BB01D39
102
}
330
1E4BB01D39
100
AcDbVisualStyle
  2
Flat
 70
     0
177
     2
291
     1
 71
     2
176
     1
 72
     1
176
     1
 73
     1
176
     1
 90
        2
176
     1
 40
0.6
176
     1
 41
30.0
176
     1
 62
     5
 63
     7
421
 16777215
176
     1
 74
     0
176
     1
 91
        0
176
     1
 64
     7
176
     1
 65
   257
176
     1
 75
     1
176
     1
175
     1
176
     1
 42
1.0
176
     1
 92
        8
176
     1
 66
     7
176
     1
 43
1.0
176
     1
 76
     1
176
     1
 77
     6
176
     1
 78
     2
176
     1
 67
     7
176
     1
 79
     5
176
     1
170
     0
176
     1
171
     0
176
     1
290
     0
176
     1
 93
       13
176
     1
 44
0.0
176
     1
173
     0
176
     1
  0
VISUALSTYLE
  5
1E4BB01D3B
102
{ACAD_REACTORS
330
1E4BB01D39
102
}
330
1E4BB01D39
100
AcDbVisualStyle
  2
FlatWithEdges
 70
     1
177
     2
291
     1
 71
     2
176
     1
 72
     1
176
     1
 73
     1
176
     1
 90
        2
176
     1
 40
0.6
176
     1
 41
30.0
176
     1
 62
     5
 63
     7
421
 16777215
176
     1
 74
     1
176
     1
 91
        0
176
     1
 64
     7
176
     1
 65
   257
176
     1
 75
     1
176
     1
175
     1
176
     1
 42
1.0
176
     1
 92
        0
176
     1
 66
   257
176
     1
 43
1.0
176
     1
 76
     1
176
     1
 77
     6
176
     1
 78
     2
176
     1
 67
     7
176
     1
 79
     5
176
     1
170
     0
176
     1
171
     0
176
     1
290
     0
176
     1
 93
       13
176
     1
 44
0.0
176
     1
173
     0
176
     1
  0
VISUALSTYLE
  5
1E4BB01D3C
102
{ACAD_REACTORS
330
1E4BB01D39
102
}
330
1E4BB01D39
100
AcDbVisualStyle
  2
Gouraud
 70
     2
177
     2
291
     1
 71
     2
176
     1
 72
     2
176
     1
 73
     1
176
     1
 90
        2
176
     1
 40
0.6
176
     1
 41
30.0
176
     1
 62
     5
 63
     7
421
 16777215
176
     1
 74
     0
176
     1
 91
        0
176
     1
 64
     7
176
     1
 65
   257
176
     1
 75
     1
176
     1
175
     1
176
     1
 42
1.0
176
     1
 92
        0
176
     1
 66
     7
176
     1
 43
1.0
176
     1
 76
     1
176
     1
 77
     6
176
     1
 78
     2
176
     1
 67
     7
176
     1
 79
     5
176
     1
170
     0
176
     1
171
     0
176
     1
290
     0
176
     1
 93
       13
176
     1
 44
0.0
176
     1
173
     0
176
     1
  0
VISUALSTYLE
  5
1E4BB01D3D
102
{ACAD_REACTORS
330
1E4BB01D39
102
}
330
1E4BB01D39
100
AcDbVisualStyle
  2
GouraudWithEdges
 70
     3
177
     2
291
     1
 71
     2
176
     1
 72
     2
176
     1
 73
     1
176
     1
 90
        2
176
     1
 40
0.6
176
     1
 41
30.0
176
     1
 62
     5
 63
     7
421
 16777215
176
     1
 74
     1
176
     1
 91
        0
176
     1
 64
     7
176
     1
 65
   257
176
     1
 75
     1
176
     1
175
     1
176
     1
 42
1.0
176
     1
 92
        0
176
     1
 66
   257
176
     1
 43
1.0
176
     1
 76
     1
176
     1
 77
     6
176
     1
 78
     2
176
     1
 67
     7
176
     1
 79
     5
176
     1
170
     0
176
     1
171
     0
176
     1
290
     0
176
     1
 93
       13
176
     1
 44
0.0
176
     1
173
     0
176
     1
  0
VISUALSTYLE
  5
1E4BB01D40
102
{ACAD_REACTORS
330
1E4BB01D39
102
}
330
1E4BB01D39
100
AcDbVisualStyle
  2
Hidden
 70
     6
177
     2
291
     0
 71
     1
176
     1
 72
     2
176
     1
 73
     2
176
     1
 90
        0
176
     1
 40
0.6
176
     1
 41
30.0
176
     1
 62
     5
 63
     7
421
 16777215
176
     1
 74
     2
176
     1
 91
        2
176
     1
 64
     7
176
     1
 65
   257
176
     1
 75
     2
176
     1
175
     1
176
     1
 42
40.0
176
     1
 92
        0
176
     1
 66
   257
176
     1
 43
1.0
176
     1
 76
     1
176
     1
 77
     6
176
     1
 78
     2
176
     1
 67
     7
176
     1
 79
     3
176
     1
170
     0
176
     1
171
     0
176
     1
290
     0
176
     1
 93
        1
176
     1
 44
0.0
176
     1
173
     0
176
     1
  0
VISUALSTYLE
  5
1E4BB01D4A
102
{ACAD_REACTORS
330
1E4BB01D39
102
}
330
1E4BB01D39
100
AcDbVisualStyle
  2
JitterOff
 70
    20
177
     2
291
     1
 71
     2
176
     0
 72
     2
176
     0
 73
     0
176
     0
 90
        0
176
     0
 40
0.6
176
     0
 41
30.0
176
     0
 62
     5
 63
     7
421
 16777215
176
     0
 74
     1
176
     0
 91
        4
176
     0
 64
     7
176
     0
 65
   257
176
     0
 75
     1
176
     0
175
     1
176
     0
 42
1.0
176
     0
 92
       10
176
     2
 66
     7
176
     0
 43
1.0
176
     0
 76
     1
176
     0
 77
     6
176
     0
 78
     2
176
     0
 67
     7
176
     0
 79
     5
176
     0
170
     0
176
     0
171
     0
176
     0
290
     0
176
     0
 93
        1
176
     0
 44
0.0
176
     0
173
     0
176
     0
  0
VISUALSTYLE
  5
1E4BB01D47
102
{ACAD_REACTORS
330
1E4BB01D39
102
}
330
1E4BB01D39
100
AcDbVisualStyle
  2
Linepattern
 70
    14
177
     2
291
     1
 71
     2
176
     1
 72
     2
176
     1
 73
     0
176
     1
 90
        0
176
     1
 40
0.6
176
     1
 41
30.0
176
     1
 62
     5
 63
     7
421
 16777215
176
     1
 74
     1
176
     1
 91
        4
176
     1
 64
     7
176
     1
 65
   257
176
     1
 75
     7
176
     1
175
     7
176
     1
 42
1.0
176
     1
 92
        8
176
     1
 66
     7
176
     1
 43
1.0
176
     1
 76
     1
176
     1
 77
     6
176
     1
 78
     2
176
     1
 67
     7
176
     1
 79
     5
176
     1
170
     0
176
     1
171
     0
176
     1
290
     0
176
     1
 93
        1
176
     1
 44
0.0
176
     1
173
     0
176
     1
  0
VISUALSTYLE
  5
1E4BB01D4B
102
{ACAD_REACTORS
330
1E4BB01D39
102
}
330
1E4BB01D39
100
AcDbVisualStyle
  2
OverhangOff
 70
    21
177
     2
291
     1
 71
     2
176
     0
 72
     2
176
     0
 73
     0
176
     0
 90
        0
176
     0
 40
0.6
176
     0
 41
30.0
176
     0
 62
     5
 63
     7
421
 16777215
176
     0
 74
     1
176
     0
 91
        4
176
     0
 64
     7
176
     0
 65
   257
176
     0
 75
     1
176
     0
175
     1
176
     0
 42
1.0
176
     0
 92
        9
176
     2
 66
     7
176
     0
 43
1.0
176
     0
 76
     1
176
     0
 77
     6
176
     0
 78
     2
176
     0
 67
     7
176
     0
 79
     5
176
     0
170
     0
176
     0
171
     0
176
     0
290
     0
176
     0
 93
        1
176
     0
 44
0.0
176
     0
173
     0
176
     0
  0
VISUALSTYLE
  5
1E4BB01D42
102
{ACAD_REACTORS
330
1E4BB01D39
102
}
330
1E4BB01D39
100
AcDbVisualStyle
  2
Realistic
 70
     8
177
     2
291
     0
 71
     2
176
     1
 72
     3
176
     1
 73
     0
176
     1
 90
        2
176
     1
 40
0.6
176
     1
 41
30.0
176
     1
 62
     5
 63
     7
421
 16777215
176
     1
 74
     0
176
     1
 91
        0
176
     1
 64
     7
176
     1
 65
   257
176
     1
 75
     1
176
     1
175
     1
176
     1
 42
1.0
176
     1
 92
        8
176
     1
 66
   257
176
     1
 43
1.0
176
     1
 76
     1
176
     1
 77
     6
176
     1
 78
     2
176
     1
 67
     7
176
     1
 79
     3
176
     1
170
     0
176
     1
171
     0
176
     1
290
     0
176
     1
 93
       13
176
     1
 44
0.0
176
     1
173
     0
176
     1
  0
VISUALSTYLE
  5
1E4BB01D51
102
{ACAD_REACTORS
330
1E4BB01D39
102
}
330
1E4BB01D39
100
AcDbVisualStyle
  2
Shaded
 70
    27
177
     2
291
     0
 71
     2
176
     1
 72
     2
176
     1
 73
     1
176
     1
 90
        2
176
     1
 40
0.6
176
     1
 41
30.0
176
     1
 62
     5
 63
     7
421
 16777215
176
     1
 74
     0
176
     1
 91
        4
176
     1
 64
     7
176
     1
 65
   257
176
     1
 75
     1
176
     1
175
     1
176
     1
 42
1.0
176
     1
 92
        8
176
     1
 66
   257
176
     1
 43
1.0
176
     1
 76
     1
176
     1
 77
     6
176
     1
 78
     2
176
     1
 67
     8
425
  7895160
176
     1
 79
     3
176
     1
170
     0
176
     1
171
     0
176
     1
290
     0
176
     1
 93
        5
176
     1
 44
0.0
176
     1
173
     0
176
     1
  0
VISUALSTYLE
  5
1E4BB01D50
102
{ACAD_REACTORS
330
1E4BB01D39
102
}
330
1E4BB01D39
100
AcDbVisualStyle
  2
Shaded with edges
 70
    26
177
     2
291
     0
 71
     2
176
     1
 72
     2
176
     1
 73
     1
176
     1
 90
        2
176
     1
 40
0.6
176
     1
 41
30.0
176
     1
 62
     5
 63
     7
421
 16777215
176
     1
 74
     1
176
     1
 91
       10
176
     1
 64
     7
176
     1
 65
   257
176
     1
 75
     2
176
     1
175
     1
176
     1
 42
1.0
176
     1
 92
        8
176
     1
 66
   257
176
     1
 43
1.0
176
     1
 76
     1
176
     1
 77
     6
176
     1
 78
     2
176
     1
 67
     7
176
     1
 79
     3
176
     1
170
     0
176
     1
171
     0
176
     1
290
     0
176
     1
 93
        5
176
     1
 44
0.0
176
     1
173
     0
176
     1
  0
VISUALSTYLE
  5
1E4BB01D4D
102
{ACAD_REACTORS
330
1E4BB01D39
102
}
330
1E4BB01D39
100
AcDbVisualStyle
  2
Shades of Gray
 70
    23
177
     2
291
     0
 71
     2
176
     1
 72
     2
176
     1
 73
     3
176
     1
 90
        0
176
     1
 40
0.6
176
     1
 41
30.0
176
     1
 62
     5
 63
     7
421
 16777215
176
     1
 74
     2
176
     1
 91
        2
176
     1
 64
     7
176
     1
 65
     7
176
     1
 75
     1
176
     1
175
     1
176
     1
 42
40.0
176
     1
 92
        8
176
     1
 66
     7
176
     1
 43
1.0
176
     1
 76
     1
176
     1
 77
     6
176
     1
 78
     2
176
     1
 67
     7
176
     1
 79
     3
176
     1
170
     0
176
     1
171
     0
176
     1
290
     0
176
     1
 93
        1
176
     1
 44
0.0
176
     1
173
     0
176
     1
  0
VISUALSTYLE
  5
1E4BB01D4E
102
{ACAD_REACTORS
330
1E4BB01D39
102
}
330
1E4BB01D39
100
AcDbVisualStyle
  2
Sketchy
 70
    24
177
     2
291
     0
 71
     1
176
     1
 72
     2
176
     1
 73
     2
176
     1
 90
        0
176
     1
 40
0.6
176
     1
 41
30.0
176
     1
 62
     5
 63
     7
421
 16777215
176
     1
 74
     2
176
     1
 91
        2
176
     1
 64
     7
176
     1
 65
     7
176
     1
 75
     1
176
     1
175
     1
176
     1
 42
40.0
176
     1
 92
       11
176
     1
 66
     7
176
     1
 43
1.0
176
     1
 76
     1
176
     1
 77
     6
176
     1
 78
     2
176
     1
 67
     7
176
     1
 79
     6
176
     1
170
     0
176
     1
171
     0
176
     1
290
     0
176
     1
 93
        1
176
     1
 44
0.0
176
     1
173
     0
176
     1
  0
VISUALSTYLE
  5
1E4BB01D46
102
{ACAD_REACTORS
330
1E4BB01D39
102
}
330
1E4BB01D39
100
AcDbVisualStyle
  2
Thicken
 70
    13
177
     2
291
     1
 71
     2
176
     1
 72
     2
176
     1
 73
     0
176
     1
 90
        0
176
     1
 40
0.6
176
     1
 41
30.0
176
     1
 62
     5
 63
     7
421
 16777215
176
     1
 74
     1
176
     1
 91
        4
176
     1
 64
     7
176
     1
 65
   257
176
     1
 75
     1
176
     1
175
     1
176
     1
 42
1.0
176
     1
 92
       12
176
     1
 66
     7
176
     1
 43
1.0
176
     1
 76
     1
176
     1
 77
     6
176
     1
 78
     2
176
     1
 67
     7
176
     1
 79
     5
176
     1
170
     0
176
     1
171
     0
176
     1
290
     0
176
     1
 93
        1
176
     1
 44
0.0
176
     1
173
     0
176
     1
  0
VISUALSTYLE
  5
1E4BB01D3F
102
{ACAD_REACTORS
330
1E4BB01D39
102
}
330
1E4BB01D39
100
AcDbVisualStyle
  2
Wireframe
 70
     5
177
     2
291
     0
 71
     0
176
     1
 72
     2
176
     1
 73
     0
176
     1
 90
        0
176
     1
 40
0.6
176
     1
 41
30.0
176
     1
 62
     5
 63
     7
421
 16777215
176
     1
 74
     1
176
     1
 91
        4
176
     1
 64
     7
176
     1
 65
   257
176
     1
 75
     1
176
     1
175
     1
176
     1
 42
1.0
176
     1
 92
        0
176
     1
 66
   257
176
     1
 43
1.0
176
     1
 76
     1
176
     1
 77
     6
176
     1
 78
     2
176
     1
 67
     7
176
     1
 79
     3
176
     1
170
     0
176
     1
171
     0
176
     1
290
     0
176
     1
 93
        1
176
     1
 44
0.0
176
     1
173
     0
176
     1
  0
VISUALSTYLE
  5
1E4BB01D4F
102
{ACAD_REACTORS
330
1E4BB01D39
102
}
330
1E4BB01D39
100
AcDbVisualStyle
  2
X-Ray
 70
    25
177
     2
291
     0
 71
     2
176
     1
 72
     2
176
     1
 73
     1
176
     1
 90
        1
176
     1
 40
0.5
176
     1
 41
30.0
176
     1
 62
     5
 63
     7
421
 16777215
176
     1
 74
     1
176
     1
 91
        0
176
     1
 64
     7
176
     1
 65
   257
176
     1
 75
     1
176
     1
175
     1
176
     1
 42
1.0
176
     1
 92
        8
176
     1
 66
     7
176
     1
 43
1.0
176
     1
 76
     1
176
     1
 77
     6
176
     1
 78
     2
176
     1
 67
     7
176
     1
 79
     3
176
     1
170
     0
176
     1
171
     0
176
     1
290
     0
176
     1
 93
       13
176
     1
 44
0.0
176
     1
173
     0
176
     1
  0
DICTIONARYVAR
  5
1E4BB01D5C
102
{ACAD_REACTORS
330
1E4BABBC1C
102
}
330
1E4BABBC1C
100
DictionaryVariables
280
     0
  1
1:1
  0
DICTIONARYVAR
  5
1E4BB01D5E
102
{ACAD_REACTORS
330
1E4BABBC1C
102
}
330
1E4BABBC1C
100
DictionaryVariables
280
     0
  1
Standard
  0
DICTIONARYVAR
  5
1E4BB01D5D
102
{ACAD_REACTORS
330
1E4BABBC1C
102
}
330
1E4BABBC1C
100
DictionaryVariables
280
     0
  1
Standard
  0
DICTIONARYVAR
  5
1E4BABC0A8
102
{ACAD_REACTORS
330
1E4BABBC1C
102
}
330
1E4BABBC1C
100
DictionaryVariables
280
     0
  1
0
  0
DICTIONARYVAR
  5
1E4BB01D5F
102
{ACAD_REACTORS
330
1E4BABBC1C
102
}
330
1E4BABBC1C
100
DictionaryVariables
280
     0
  1
0
  0
DICTIONARYVAR
  5
1E4BABBC1D
102
{ACAD_REACTORS
330
1E4BABBC1C
102
}
330
1E4BABBC1C
100
DictionaryVariables
280
     0
  1
96
  0
XRECORD
  5
1E4BABC0B5
102
{ACAD_REACTORS
330
1E4BABC0B4
102
}
330
1E4BABC0B4
100
AcDbXrecord
280
     1
  1
0
  1
*-0
  1
*
  1
*
 70
     0
  1
*
  1
*
  0
XRECORD
  5
1E4BABC0B6
102
{ACAD_REACTORS
330
1E4BABC0B4
102
}
330
1E4BABC0B4
100
AcDbXrecord
280
     1
  1
0-0
  1
*-0
  1
*
  1
*
 70
     0
  1
*
  1
*
  0
XRECORD
  5
1E4BABC0D4
102
{ACAD_REACTORS
330
1E4BABC0B4
102
}
330
1E4BABC0B4
100
AcDbXrecord
280
     1
  1
０画層
  1
*-0
  1
*
  1
*
 70
     0
  1
*
  1
*
  0
XRECORD
  5
1E4BABC0B7
102
{ACAD_REACTORS
330
1E4BABC0B4
102
}
330
1E4BABC0B4
100
AcDbXrecord
280
     1
  1
10画層
  1
*-10
  1
*
  1
*
 70
     0
  1
*
  1
*
  0
XRECORD
  5
1E4BABC0B8
102
{ACAD_REACTORS
330
1E4BABC0B4
102
}
330
1E4BABC0B4
100
AcDbXrecord
280
     1
  1
2
  1
*-2
  1
*
  1
*
 70
     0
  1
*
  1
*
  0
XRECORD
  5
1E4BABC0B9
102
{ACAD_REACTORS
330
1E4BABC0B4
102
}
330
1E4BABC0B4
100
AcDbXrecord
280
     1
  1
3
  1
*-3
  1
*
  1
*
 70
     0
  1
*
  1
*
  0
XRECORD
  5
1E4BABC0BA
102
{ACAD_REACTORS
330
1E4BABC0B4
102
}
330
1E4BABC0B4
100
AcDbXrecord
280
     1
  1
3A
  1
*-3A
  1
*
  1
*
 70
     0
  1
*
  1
*
  0
XRECORD
  5
1E4BABC0D5
102
{ACAD_REACTORS
330
1E4BABC0B4
102
}
330
1E4BABC0B4
100
AcDbXrecord
280
     1
  1
３A画層
  1
*-3A
  1
*
  1
*
 70
     0
  1
*
  1
*
  0
XRECORD
  5
1E4BABC0D6
102
{ACAD_REACTORS
330
1E4BABC0B4
102
}
330
1E4BABC0B4
100
AcDbXrecord
280
     1
  1
３画層
  1
*-3
  1
*
  1
*
 70
     0
  1
*
  1
*
  0
XRECORD
  5
1E4BABC0BB
102
{ACAD_REACTORS
330
1E4BABC0B4
102
}
330
1E4BABC0B4
100
AcDbXrecord
280
     1
  1
4
  1
*-4
  1
*
  1
*
 70
     0
  1
*
  1
*
  0
XRECORD
  5
1E4BABC0BC
102
{ACAD_REACTORS
330
1E4BABC0B4
102
}
330
1E4BABC0B4
100
AcDbXrecord
280
     1
  1
5画層
  1
*-5
  1
*
  1
*
 70
     0
  1
*
  1
*
  0
XRECORD
  5
1E4BABC0BD
102
{ACAD_REACTORS
330
1E4BABC0B4
102
}
330
1E4BABC0B4
100
AcDbXrecord
280
     1
  1
6画層
  1
*-6
  1
*
  1
*
 70
     0
  1
*
  1
*
  0
XRECORD
  5
1E4BABC0BE
102
{ACAD_REACTORS
330
1E4BABC0B4
102
}
330
1E4BABC0B4
100
AcDbXrecord
280
     1
  1
7
  1
*-7*
  1
*
  1
*
 70
     0
  1
*
  1
*
  0
XRECORD
  5
1E4BABC0BF
102
{ACAD_REACTORS
330
1E4BABC0B4
102
}
330
1E4BABC0B4
100
AcDbXrecord
280
     1
  1
7a画層
  1
*-7a
  1
*
  1
*
 70
     0
  1
*
  1
*
  0
XRECORD
  5
1E4BABC0C0
102
{ACAD_REACTORS
330
1E4BABC0B4
102
}
330
1E4BABC0B4
100
AcDbXrecord
280
     1
  1
8
  1
*-8,8
  1
*
  1
*
 70
     0
  1
*
  1
*
  0
XRECORD
  5
1E4BABC0C1
102
{ACAD_REACTORS
330
1E4BABC0B4
102
}
330
1E4BABC0B4
100
AcDbXrecord
280
     1
  1
ASYST
  1
ASYST*
  1
*
  1
*
 70
     0
  1
*
  1
*
  0
XRECORD
  5
1E4BABC0C2
102
{ACAD_REACTORS
330
1E4BABC0B4
102
}
330
1E4BABC0B4
100
AcDbXrecord
280
     1
  1
ASYST PHASE 1
  1
A1.0-8$0$ASYT*
  1
*
  1
*
 70
     0
  1
*
  1
*
  0
XRECORD
  5
1E4BABC0C3
102
{ACAD_REACTORS
330
1E4BABC0B4
102
}
330
1E4BABC0B4
100
AcDbXrecord
280
     1
  1
ASYST PHASE 2
  1
A2.0-8$0$ASYT*
  1
*
  1
*
 70
     0
  1
*
  1
*
  0
XRECORD
  5
1E4BABC0C4
102
{ACAD_REACTORS
330
1E4BABC0B4
102
}
330
1E4BABC0B4
100
AcDbXrecord
280
     1
  1
cap-0
  1
*
  1
*
  1
*
 70
     0
  1
*
  1
*
  0
XRECORD
  5
1E4BABC0C5
102
{ACAD_REACTORS
330
1E4BABC0B4
102
}
330
1E4BABC0B4
100
AcDbXrecord
280
     1
  1
dims
  1
*di*
  1
*
  1
*
 70
     0
  1
*
  1
*
  0
XRECORD
  5
1E4BABC0C6
102
{ACAD_REACTORS
330
1E4BABC0B4
102
}
330
1E4BABC0B4
100
AcDbXrecord
280
     1
  1
elec
  1
e-*
  1
*
  1
*
 70
     0
  1
*
  1
*
  0
XRECORD
  5
1E4BABC0C7
102
{ACAD_REACTORS
330
1E4BABC0B4
102
}
330
1E4BABC0B4
100
AcDbXrecord
280
     1
  1
ELECTRICAL
  1
E-*
  1
*
  1
*
 70
     0
  1
*
  1
*
  0
XRECORD
  5
1E4BABC0C8
102
{ACAD_REACTORS
330
1E4BABC0B4
102
}
330
1E4BABC0B4
100
AcDbXrecord
280
     1
  1
F
  1
*
  1
*
  1
*
 70
     0
  1
*
  1
*
  0
XRECORD
  5
1E4BABC0C9
102
{ACAD_REACTORS
330
1E4BABC0B4
102
}
330
1E4BABC0B4
100
AcDbXrecord
280
     1
  1
Frame
  1
F*
  1
*
  1
*
 70
     0
  1
*
  1
*
  0
XRECORD
  5
1E4BABC0CA
102
{ACAD_REACTORS
330
1E4BABC0B4
102
}
330
1E4BABC0B4
100
AcDbXrecord
280
     1
  1
FROZEN
  1
*
  1
*
  1
*
 70
     4
  1
*
  1
*
  0
XRECORD
  5
1E4BABC0CB
102
{ACAD_REACTORS
330
1E4BABC0B4
102
}
330
1E4BABC0B4
100
AcDbXrecord
280
     1
  1
FROZEN ACTIVE
  1
*
  1
*
  1
*
 70
    16
  1
*
  1
*
  0
XRECORD
  5
1E4BABC0CC
102
{ACAD_REACTORS
330
1E4BABC0B4
102
}
330
1E4BABC0B4
100
AcDbXrecord
280
     1
  1
jiku-0
  1
*
  1
*
  1
*
 70
     0
  1
*
  1
*
  0
XRECORD
  5
1E4BABC0CD
102
{ACAD_REACTORS
330
1E4BABC0B4
102
}
330
1E4BABC0B4
100
AcDbXrecord
280
     1
  1
MP
  1
MP_*
  1
*
  1
*
 70
     0
  1
*
  1
*
  0
XRECORD
  5
1E4BABC0CE
102
{ACAD_REACTORS
330
1E4BABC0B4
102
}
330
1E4BABC0B4
100
AcDbXrecord
280
     1
  1
MPR
  1
MPR*
  1
*
  1
*
 70
     0
  1
*
  1
*
  0
XRECORD
  5
1E4BABC0CF
102
{ACAD_REACTORS
330
1E4BABC0B4
102
}
330
1E4BABC0B4
100
AcDbXrecord
280
     1
  1
p-
  1
p-*
  1
*
  1
*
 70
     0
  1
*
  1
*
  0
XRECORD
  5
1E4BABC0D0
102
{ACAD_REACTORS
330
1E4BABC0B4
102
}
330
1E4BABC0B4
100
AcDbXrecord
280
     1
  1
ST
  1
ST_*
  1
*
  1
*
 70
     0
  1
*
  1
*
  0
XRECORD
  5
1E4BABC0D1
102
{ACAD_REACTORS
330
1E4BABC0B4
102
}
330
1E4BABC0B4
100
AcDbXrecord
280
     1
  1
TC
  1
TC_*,0N
  1
*
  1
*
 70
     0
  1
*
  1
*
  0
XRECORD
  5
1E4BABC0D2
102
{ACAD_REACTORS
330
1E4BABC0B4
102
}
330
1E4BABC0B4
100
AcDbXrecord
280
     1
  1
TEXT
  1
TEXT
  1
*
  1
*
 70
     0
  1
*
  1
*
  0
XRECORD
  5
1E4BABC0D3
102
{ACAD_REACTORS
330
1E4BABC0B4
102
}
330
1E4BABC0B4
100
AcDbXrecord
280
     1
  1
ｹｰﾌﾞﾙ図
  1
*
  1
*
  1
*
 70
     0
  1
*
  1
*
  0
DICTIONARY
  5
1E4BB01D62
330
1E4BB01D57
100
AcDbDictionary
280
     1
281
     1
  3
ACAD_ROUNDTRIP_2008_TABLESTYLE_CELLSTYLEMAP
360
1E4BB01D63
  0
CELLSTYLEMAP
  5
1E4BB01D63
102
{ACAD_REACTORS
330
1E4BB01D62
102
}
330
1E4BB01D62
100
AcDbCellStyleMap
 90
        3
300
CELLSTYLE
  1
TABLEFORMAT_BEGIN
 90
        5
170
     1
 91
        0
 92
    32768
 62
   257
 93
        1
300
CONTENTFORMAT
  1
CONTENTFORMAT_BEGIN
 90
        0
 91
        0
 92
        4
 93
        0
300

 40
0.0
140
1.0
 94
        5
 62
     0
340
1E4BABA58B
144
0.25
309
CONTENTFORMAT_END
171
     1
301
MARGIN
  1
CELLMARGIN_BEGIN
 40
0.06
 40
0.06
 40
0.06
 40
0.06
 40
0.06
 40
0.06
309
CELLMARGIN_END
 94
        6
 95
        1
302
GRIDFORMAT
  1
GRIDFORMAT_BEGIN
 90
        0
 91
        1
 62
     0
 92
       -2
340
1E4BABA58D
 93
        0
 40
0.045
309
GRIDFORMAT_END
 95
        2
302
GRIDFORMAT
  1
GRIDFORMAT_BEGIN
 90
        0
 91
        1
 62
     0
 92
       -2
340
1E4BABA58D
 93
        0
 40
0.045
309
GRIDFORMAT_END
 95
        4
302
GRIDFORMAT
  1
GRIDFORMAT_BEGIN
 90
        0
 91
        1
 62
     0
 92
       -2
340
1E4BABA58D
 93
        0
 40
0.045
309
GRIDFORMAT_END
 95
        8
302
GRIDFORMAT
  1
GRIDFORMAT_BEGIN
 90
        0
 91
        1
 62
     0
 92
       -2
340
1E4BABA58D
 93
        0
 40
0.045
309
GRIDFORMAT_END
 95
       16
302
GRIDFORMAT
  1
GRIDFORMAT_BEGIN
 90
        0
 91
        1
 62
     0
 92
       -2
340
1E4BABA58D
 93
        0
 40
0.045
309
GRIDFORMAT_END
 95
       32
302
GRIDFORMAT
  1
GRIDFORMAT_BEGIN
 90
        0
 91
        1
 62
     0
 92
       -2
340
1E4BABA58D
 93
        0
 40
0.045
309
GRIDFORMAT_END
309
TABLEFORMAT_END
  1
CELLSTYLE_BEGIN
 90
        1
 91
        1
300
_TITLE
309
CELLSTYLE_END
300
CELLSTYLE
  1
TABLEFORMAT_BEGIN
 90
        5
170
     1
 91
        0
 92
        0
 62
   257
 93
        1
300
CONTENTFORMAT
  1
CONTENTFORMAT_BEGIN
 90
        0
 91
        0
 92
        4
 93
        0
300

 40
0.0
140
1.0
 94
        5
 62
     0
340
1E4BABA58B
144
0.18
309
CONTENTFORMAT_END
171
     1
301
MARGIN
  1
CELLMARGIN_BEGIN
 40
0.06
 40
0.06
 40
0.06
 40
0.06
 40
0.06
 40
0.06
309
CELLMARGIN_END
 94
        6
 95
        1
302
GRIDFORMAT
  1
GRIDFORMAT_BEGIN
 90
        0
 91
        1
 62
     0
 92
       -2
340
1E4BABA58D
 93
        0
 40
0.045
309
GRIDFORMAT_END
 95
        2
302
GRIDFORMAT
  1
GRIDFORMAT_BEGIN
 90
        0
 91
        1
 62
     0
 92
       -2
340
1E4BABA58D
 93
        0
 40
0.045
309
GRIDFORMAT_END
 95
        4
302
GRIDFORMAT
  1
GRIDFORMAT_BEGIN
 90
        0
 91
        1
 62
     0
 92
       -2
340
1E4BABA58D
 93
        0
 40
0.045
309
GRIDFORMAT_END
 95
        8
302
GRIDFORMAT
  1
GRIDFORMAT_BEGIN
 90
        0
 91
        1
 62
     0
 92
       -2
340
1E4BABA58D
 93
        0
 40
0.045
309
GRIDFORMAT_END
 95
       16
302
GRIDFORMAT
  1
GRIDFORMAT_BEGIN
 90
        0
 91
        1
 62
     0
 92
       -2
340
1E4BABA58D
 93
        0
 40
0.045
309
GRIDFORMAT_END
 95
       32
302
GRIDFORMAT
  1
GRIDFORMAT_BEGIN
 90
        0
 91
        1
 62
     0
 92
       -2
340
1E4BABA58D
 93
        0
 40
0.045
309
GRIDFORMAT_END
309
TABLEFORMAT_END
  1
CELLSTYLE_BEGIN
 90
        2
 91
        1
300
_HEADER
309
CELLSTYLE_END
300
CELLSTYLE
  1
TABLEFORMAT_BEGIN
 90
        5
170
     1
 91
        0
 92
        0
 62
   257
 93
        1
300
CONTENTFORMAT
  1
CONTENTFORMAT_BEGIN
 90
        0
 91
        0
 92
        4
 93
        0
300

 40
0.0
140
1.0
 94
        2
 62
     0
340
1E4BABA58B
144
0.18
309
CONTENTFORMAT_END
171
     1
301
MARGIN
  1
CELLMARGIN_BEGIN
 40
0.06
 40
0.06
 40
0.06
 40
0.06
 40
0.06
 40
0.06
309
CELLMARGIN_END
 94
        6
 95
        1
302
GRIDFORMAT
  1
GRIDFORMAT_BEGIN
 90
        0
 91
        1
 62
     0
 92
       -2
340
1E4BABA58D
 93
        0
 40
0.045
309
GRIDFORMAT_END
 95
        2
302
GRIDFORMAT
  1
GRIDFORMAT_BEGIN
 90
        0
 91
        1
 62
     0
 92
       -2
340
1E4BABA58D
 93
        0
 40
0.045
309
GRIDFORMAT_END
 95
        4
302
GRIDFORMAT
  1
GRIDFORMAT_BEGIN
 90
        0
 91
        1
 62
     0
 92
       -2
340
1E4BABA58D
 93
        0
 40
0.045
309
GRIDFORMAT_END
 95
        8
302
GRIDFORMAT
  1
GRIDFORMAT_BEGIN
 90
        0
 91
        1
 62
     0
 92
       -2
340
1E4BABA58D
 93
        0
 40
0.045
309
GRIDFORMAT_END
 95
       16
302
GRIDFORMAT
  1
GRIDFORMAT_BEGIN
 90
        0
 91
        1
 62
     0
 92
       -2
340
1E4BABA58D
 93
        0
 40
0.045
309
GRIDFORMAT_END
 95
       32
302
GRIDFORMAT
  1
GRIDFORMAT_BEGIN
 90
        0
 91
        1
 62
     0
 92
       -2
340
1E4BABA58D
 93
        0
 40
0.045
309
GRIDFORMAT_END
309
TABLEFORMAT_END
  1
CELLSTYLE_BEGIN
 90
        3
 91
        2
300
_DATA
309
CELLSTYLE_END
  0
ENDSEC
  0
EOF
