  0
SECTION
  2
HEADER
  9
$ACADVER
  1
AC1027
  9
$ACADMAINTVER
 70
     8
  9
$DWGCODEPAGE
  3
ANSI_932
  9
$REQUIREDVERSIONS
160
                 0
  9
$INSBASE
 10
0.0
 20
0.0
 30
0.0
  9
$EXTMIN
 10
31955.51497473719
 20
20554.72513991531
 30
0.0
  9
$EXTMAX
 10
33314.69601670563
 20
21237.22513991531
 30
0.0
  9
$LIMMIN
 10
0.0
 20
0.0
  9
$LIMMAX
 10
420.0
 20
297.0
  9
$ORTHOMODE
 70
     0
  9
$REGENMODE
 70
     1
  9
$FILLMODE
 70
     1
  9
$QTEXTMODE
 70
     0
  9
$MIRRTEXT
 70
     1
  9
$LTSCALE
 40
25.0
  9
$ATTMODE
 70
     1
  9
$TEXTSIZE
 40
500.0
  9
$TRACEWID
 40
0.05
  9
$TEXTSTYLE
  7
Standard
  9
$CLAYER
  8
0
  9
$CELTYPE
  6
ByLayer
  9
$CECOLOR
 62
   256
  9
$CELTSCALE
 40
1.0
  9
$DISPSILH
 70
     0
  9
$DIMSCALE
 40
1.0
  9
$DIMASZ
 40
4.0
  9
$DIMEXO
 40
0.75
  9
$DIMDLI
 40
30.0
  9
$DIMRND
 40
0.0
  9
$DIMDLE
 40
0.0
  9
$DIMEXE
 40
1.0
  9
$DIMTP
 40
0.0
  9
$DIMTM
 40
0.0
  9
$DIMTXT
 40
4.0
  9
$DIMCEN
 40
0.09
  9
$DIMTSZ
 40
0.0
  9
$DIMTOL
 70
     0
  9
$DIMLIM
 70
     0
  9
$DIMTIH
 70
     0
  9
$DIMTOH
 70
     0
  9
$DIMSE1
 70
     0
  9
$DIMSE2
 70
     0
  9
$DIMTAD
 70
     3
  9
$DIMZIN
 70
     8
  9
$DIMBLK
  1

  9
$DIMASO
 70
     1
  9
$DIMSHO
 70
     1
  9
$DIMPOST
  1

  9
$DIMAPOST
  1

  9
$DIMALT
 70
     0
  9
$DIMALTD
 70
     2
  9
$DIMALTF
 40
25.4
  9
$DIMLFAC
 40
1.0
  9
$DIMTOFL
 70
     1
  9
$DIMTVP
 40
0.7
  9
$DIMTIX
 70
     0
  9
$DIMSOXD
 70
     0
  9
$DIMSAH
 70
     0
  9
$DIMBLK1
  1

  9
$DIMBLK2
  1

  9
$DIMSTYLE
  2
Standard
  9
$DIMCLRD
 70
     0
  9
$DIMCLRE
 70
     0
  9
$DIMCLRT
 70
     0
  9
$DIMTFAC
 40
0.5
  9
$DIMGAP
 40
0.09
  9
$DIMJUST
 70
     0
  9
$DIMSD1
 70
     0
  9
$DIMSD2
 70
     0
  9
$DIMTOLJ
 70
     1
  9
$DIMTZIN
 70
     8
  9
$DIMALTZ
 70
     0
  9
$DIMALTTZ
 70
     0
  9
$DIMUPT
 70
     1
  9
$DIMDEC
 70
     2
  9
$DIMTDEC
 70
     4
  9
$DIMALTU
 70
     2
  9
$DIMALTTD
 70
     2
  9
$DIMTXSTY
  7
Standard
  9
$DIMAUNIT
 70
     0
  9
$DIMADEC
 70
     0
  9
$DIMALTRND
 40
0.0
  9
$DIMAZIN
 70
     0
  9
$DIMDSEP
 70
    46
  9
$DIMATFIT
 70
     2
  9
$DIMFRAC
 70
     0
  9
$DIMLDRBLK
  1

  9
$DIMLUNIT
 70
     2
  9
$DIMLWD
 70
    -2
  9
$DIMLWE
 70
    -2
  9
$DIMTMOVE
 70
     2
  9
$DIMFXL
 40
1.0
  9
$DIMFXLON
 70
     0
  9
$DIMJOGANG
 40
0.7853981633974483
  9
$DIMTFILL
 70
     0
  9
$DIMTFILLCLR
 70
     0
  9
$DIMARCSYM
 70
     0
  9
$DIMLTYPE
  6

  9
$DIMLTEX1
  6

  9
$DIMLTEX2
  6

  9
$DIMTXTDIRECTION
 70
     0
  9
$LUNITS
 70
     2
  9
$LUPREC
 70
     4
  9
$SKETCHINC
 40
0.1
  9
$FILLETRAD
 40
0.5
  9
$AUNITS
 70
     0
  9
$AUPREC
 70
     0
  9
$MENU
  1
.
  9
$ELEVATION
 40
0.0
  9
$PELEVATION
 40
0.0
  9
$THICKNESS
 40
0.0
  9
$LIMCHECK
 70
     0
  9
$CHAMFERA
 40
0.0
  9
$CHAMFERB
 40
0.0
  9
$CHAMFERC
 40
0.0
  9
$CHAMFERD
 40
0.0
  9
$SKPOLY
 70
     0
  9
$TDCREATE
 40
2459733.715636574
  9
$TDUCREATE
 40
2459733.340636574
  9
$TDUPDATE
 40
2459733.340640752
  9
$TDUUPDATE
 40
2459732.965640752
  9
$TDINDWG
 40
0.0000000116
  9
$TDUSRTIMER
 40
0.0000000116
  9
$USRTIMER
 70
     1
  9
$ANGBASE
 50
0.0
  9
$ANGDIR
 70
     0
  9
$PDMODE
 70
     0
  9
$PDSIZE
 40
0.0
  9
$PLINEWID
 40
0.0
  9
$SPLFRAME
 70
     0
  9
$SPLINETYPE
 70
     6
  9
$SPLINESEGS
 70
     8
  9
$HANDSEED
  5
506
  9
$SURFTAB1
 70
     6
  9
$SURFTAB2
 70
     6
  9
$SURFTYPE
 70
     6
  9
$SURFU
 70
     6
  9
$SURFV
 70
     6
  9
$UCSBASE
  2

  9
$UCSNAME
  2

  9
$UCSORG
 10
0.0
 20
0.0
 30
0.0
  9
$UCSXDIR
 10
1.0
 20
0.0
 30
0.0
  9
$UCSYDIR
 10
0.0
 20
1.0
 30
0.0
  9
$UCSORTHOREF
  2

  9
$UCSORTHOVIEW
 70
     0
  9
$UCSORGTOP
 10
0.0
 20
0.0
 30
0.0
  9
$UCSORGBOTTOM
 10
0.0
 20
0.0
 30
0.0
  9
$UCSORGLEFT
 10
0.0
 20
0.0
 30
0.0
  9
$UCSORGRIGHT
 10
0.0
 20
0.0
 30
0.0
  9
$UCSORGFRONT
 10
0.0
 20
0.0
 30
0.0
  9
$UCSORGBACK
 10
0.0
 20
0.0
 30
0.0
  9
$PUCSBASE
  2

  9
$PUCSNAME
  2

  9
$PUCSORG
 10
0.0
 20
0.0
 30
0.0
  9
$PUCSXDIR
 10
1.0
 20
0.0
 30
0.0
  9
$PUCSYDIR
 10
0.0
 20
1.0
 30
0.0
  9
$PUCSORTHOREF
  2

  9
$PUCSORTHOVIEW
 70
     0
  9
$PUCSORGTOP
 10
0.0
 20
0.0
 30
0.0
  9
$PUCSORGBOTTOM
 10
0.0
 20
0.0
 30
0.0
  9
$PUCSORGLEFT
 10
0.0
 20
0.0
 30
0.0
  9
$PUCSORGRIGHT
 10
0.0
 20
0.0
 30
0.0
  9
$PUCSORGFRONT
 10
0.0
 20
0.0
 30
0.0
  9
$PUCSORGBACK
 10
0.0
 20
0.0
 30
0.0
  9
$USERI1
 70
     0
  9
$USERI2
 70
     0
  9
$USERI3
 70
     0
  9
$USERI4
 70
     0
  9
$USERI5
 70
     0
  9
$USERR1
 40
0.0
  9
$USERR2
 40
0.0
  9
$USERR3
 40
0.0
  9
$USERR4
 40
0.0
  9
$USERR5
 40
0.0
  9
$WORLDVIEW
 70
     1
  9
$SHADEDGE
 70
     3
  9
$SHADEDIF
 70
    70
  9
$TILEMODE
 70
     1
  9
$MAXACTVP
 70
    64
  9
$PINSBASE
 10
0.0
 20
0.0
 30
0.0
  9
$PLIMCHECK
 70
     0
  9
$PEXTMIN
 10
0.0
 20
0.0
 30
0.0
  9
$PEXTMAX
 10
420.0
 20
297.0
 30
0.0
  9
$PLIMMIN
 10
0.0
 20
0.0
  9
$PLIMMAX
 10
420.0
 20
297.0
  9
$UNITMODE
 70
     0
  9
$VISRETAIN
 70
     1
  9
$PLINEGEN
 70
     0
  9
$PSLTSCALE
 70
     1
  9
$TREEDEPTH
 70
  3020
  9
$CMLSTYLE
  2
Standard
  9
$CMLJUST
 70
     0
  9
$CMLSCALE
 40
1.0
  9
$PROXYGRAPHICS
 70
     1
  9
$MEASUREMENT
 70
     1
  9
$CELWEIGHT
370
    -1
  9
$ENDCAPS
280
     0
  9
$JOINSTYLE
280
     0
  9
$LWDISPLAY
290
     0
  9
$INSUNITS
 70
     4
  9
$HYPERLINKBASE
  1

  9
$STYLESHEET
  1

  9
$XEDIT
290
     1
  9
$CEPSNTYPE
380
     0
  9
$PSTYLEMODE
290
     1
  9
$FINGERPRINTGUID
  2
{03000174-CD8F-4B68-8232-70BA0BD1069C}
  9
$VERSIONGUID
  2
{FAEB1C32-E019-11D5-929B-00C0DF256EC4}
  9
$EXTNAMES
290
     1
  9
$PSVPSCALE
 40
0.0
  9
$OLESTARTUP
290
     0
  9
$SORTENTS
280
   127
  9
$INDEXCTL
280
     0
  9
$HIDETEXT
280
     1
  9
$XCLIPFRAME
280
     2
  9
$HALOGAP
280
     0
  9
$OBSCOLOR
 70
   257
  9
$OBSLTYPE
280
     0
  9
$INTERSECTIONDISPLAY
280
     0
  9
$INTERSECTIONCOLOR
 70
   257
  9
$DIMASSOC
280
     1
  9
$PROJECTNAME
  1

  9
$CAMERADISPLAY
290
     0
  9
$LENSLENGTH
 40
50.0
  9
$CAMERAHEIGHT
 40
0.0
  9
$STEPSPERSEC
 40
2.0
  9
$STEPSIZE
 40
6.0
  9
$3DDWFPREC
 40
2.0
  9
$PSOLWIDTH
 40
0.25
  9
$PSOLHEIGHT
 40
4.0
  9
$LOFTANG1
 40
1.570796326794897
  9
$LOFTANG2
 40
1.570796326794897
  9
$LOFTMAG1
 40
0.0
  9
$LOFTMAG2
 40
0.0
  9
$LOFTPARAM
 70
     7
  9
$LOFTNORMALS
280
     1
  9
$LATITUDE
 40
37.795
  9
$LONGITUDE
 40
-122.394
  9
$NORTHDIRECTION
 40
0.0
  9
$TIMEZONE
 70
 -8000
  9
$LIGHTGLYPHDISPLAY
280
     1
  9
$TILEMODELIGHTSYNCH
280
     1
  9
$CMATERIAL
347
44
  9
$SOLIDHIST
280
     1
  9
$SHOWHIST
280
     1
  9
$DWFFRAME
280
     2
  9
$DGNFRAME
280
     2
  9
$REALWORLDSCALE
290
     1
  9
$INTERFERECOLOR
 62
   256
  9
$CSHADOW
280
     0
  9
$SHADOWPLANELOCATION
 40
0.0
  0
ENDSEC
  0
SECTION
  2
CLASSES
  0
CLASS
  1
ACDBDICTIONARYWDFLT
  2
AcDbDictionaryWithDefault
  3
ObjectDBX Classes
 90
        0
 91
        4
280
     0
281
     0
  0
CLASS
  1
VISUALSTYLE
  2
AcDbVisualStyle
  3
ObjectDBX Classes
 90
     4095
 91
        4
280
     0
281
     0
  0
CLASS
  1
MATERIAL
  2
AcDbMaterial
  3
ObjectDBX Classes
 90
     1153
 91
        4
280
     0
281
     0
  0
CLASS
  1
SCALE
  2
AcDbScale
  3
ObjectDBX Classes
 90
     1153
 91
        4
280
     0
281
     0
  0
CLASS
  1
SUN
  2
AcDbSun
  3
SCENEOE
 90
     1153
 91
        4
280
     0
281
     0
  0
CLASS
  1
DICTIONARYVAR
  2
AcDbDictionaryVar
  3
ObjectDBX Classes
 90
        0
 91
        4
280
     0
281
     0
  0
ENDSEC
  0
SECTION
  2
TABLES
  0
TABLE
  2
VPORT
  5
8
330
0
100
AcDbSymbolTable
 70
     1
  0
VPORT
  5
29
330
8
100
AcDbSymbolTableRecord
100
AcDbViewportTableRecord
  2
*Active
 70
     0
 10
0.0
 20
0.0
 11
1.0
 21
1.0
 12
10.42990654205607
 22
4.5
 13
0.0
 23
0.0
 14
0.5
 24
0.5
 15
0.5
 25
0.5
 16
0.0
 26
0.0
 36
1.0
 17
0.0
 27
0.0
 37
0.0
 40
9.0
 41
1.972972972850329
 42
50.0
 43
0.0
 44
0.0
 50
0.0
 51
0.0
 71
     0
 72
   100
 73
     1
 74
     3
 75
     0
 76
     0
 77
     0
 78
     0
281
     0
 65
     1
110
0.0
120
0.0
130
0.0
111
1.0
121
0.0
131
0.0
112
0.0
122
1.0
132
0.0
 79
     0
146
0.0
 60
     3
 61
     5
292
     1
282
     1
141
0.0
142
0.0
 63
   250
361
69
  0
ENDTAB
  0
TABLE
  2
LTYPE
  5
5
330
0
100
AcDbSymbolTable
 70
     9
  0
LTYPE
  5
14
330
5
100
AcDbSymbolTableRecord
100
AcDbLinetypeTableRecord
  2
ByBlock
 70
     0
  3

 72
    65
 73
     0
 40
0.0
  0
LTYPE
  5
15
330
5
100
AcDbSymbolTableRecord
100
AcDbLinetypeTableRecord
  2
ByLayer
 70
     0
  3

 72
    65
 73
     0
 40
0.0
  0
LTYPE
  5
16
330
5
100
AcDbSymbolTableRecord
100
AcDbLinetypeTableRecord
  2
Continuous
 70
     0
  3
Solid line
 72
    65
 73
     0
 40
0.0
  0
LTYPE
  5
B9
330
5
100
AcDbSymbolTableRecord
100
AcDbLinetypeTableRecord
  2
DOT
 70
     0
  3
DOT
 72
    65
 73
     2
 40
4.0
 49
6.0
 74
     0
 49
-2.0
 74
     0
  0
LTYPE
  5
BA
330
5
100
AcDbSymbolTableRecord
100
AcDbLinetypeTableRecord
  2
HIDDEN
 70
     0
  3
HIDDEN
 72
    65
 73
     2
 40
4.2
 49
8.4
 74
     0
 49
-4.2
 74
     0
  0
LTYPE
  5
BB
330
5
100
AcDbSymbolTableRecord
100
AcDbLinetypeTableRecord
  2
DASHDOT
 70
     0
  3
DASHDOT
 72
    65
 73
     4
 40
14.5
 49
30.0
 74
     0
 49
-9.0
 74
     0
 49
2.5
 74
     0
 49
-9.0
 74
     0
  0
LTYPE
  5
BC
330
5
100
AcDbSymbolTableRecord
100
AcDbLinetypeTableRecord
  2
PHANTOM
 70
     0
  3
PHANTOM
 72
    65
 73
     6
 40
12.0
 49
30.0
 74
     0
 49
-9.0
 74
     0
 49
2.5
 74
     0
 49
-5.0
 74
     0
 49
2.5
 74
     0
 49
-9.0
 74
     0
  0
LTYPE
  5
BD
330
5
100
AcDbSymbolTableRecord
100
AcDbLinetypeTableRecord
  2
ACAD_ISO14W100
 70
     0
  3
ACAD_ISO14W100
 72
    65
 73
     8
 40
1.5
 49
12.0
 74
     0
 49
-3.0
 74
     0
 49
0.5
 74
     0
 49
-3.0
 74
     0
 49
0.5
 74
     0
 49
-3.0
 74
     0
 49
0.5
 74
     0
 49
-3.0
 74
     0
  0
LTYPE
  5
BE
330
5
100
AcDbSymbolTableRecord
100
AcDbLinetypeTableRecord
  2
ACAD_ISO06W100
 70
     0
  3
ACAD_ISO06W100
 72
    65
 73
     8
 40
13.5
 49
24.0
 74
     0
 49
-3.0
 74
     0
 49
0.5
 74
     0
 49
-3.0
 74
     0
 49
0.5
 74
     0
 49
-3.0
 74
     0
 49
0.5
 74
     0
 49
-3.0
 74
     0
  0
LTYPE
  5
BF
330
5
100
AcDbSymbolTableRecord
100
AcDbLinetypeTableRecord
  2
ACAD_ISO11W100
 70
     0
  3
ACAD_ISO11W100
 72
    65
 73
     6
 40
15.5
 49
12.0
 74
     0
 49
-3.0
 74
     0
 49
12.0
 74
     0
 49
-3.0
 74
     0
 49
0.5
 74
     0
 49
-3.0
 74
     0
  0
LTYPE
  5
C0
330
5
100
AcDbSymbolTableRecord
100
AcDbLinetypeTableRecord
  2
ACAD_ISO13W100
 70
     0
  3
ACAD_ISO13W100
 72
    65
 73
     8
 40
13.0
 49
12.0
 74
     0
 49
-3.0
 74
     0
 49
12.0
 74
     0
 49
-3.0
 74
     0
 49
0.5
 74
     0
 49
-3.0
 74
     0
 49
0.5
 74
     0
 49
-3.0
 74
     0
  0
ENDTAB
  0
TABLE
  2
LAYER
  5
2
330
0
100
AcDbSymbolTable
 70
    15
  0
LAYER
  5
10
330
2
100
AcDbSymbolTableRecord
100
AcDbLayerTableRecord
  2
0
 70
     0
 62
     7
  6
Continuous
370
    -3
390
F
347
46
348
0
  0
LAYER
  5
C1
330
2
100
AcDbSymbolTableRecord
100
AcDbLayerTableRecord
  2
1
 70
     0
 62
     7
  6
Continuous
370
     9
390
F
347
46
348
0
  0
LAYER
  5
C2
330
2
100
AcDbSymbolTableRecord
100
AcDbLayerTableRecord
  2
2
 70
     0
 62
     2
  6
HIDDEN
370
     9
390
F
347
46
348
0
  0
LAYER
  5
C3
330
2
100
AcDbSymbolTableRecord
100
AcDbLayerTableRecord
  2
3
 70
     0
 62
     1
  6
DASHDOT
370
     9
390
F
347
46
348
0
  0
LAYER
  5
C4
330
2
100
AcDbSymbolTableRecord
100
AcDbLayerTableRecord
  2
4
 70
     0
 62
     2
  6
PHANTOM
370
     9
390
F
347
46
348
0
  0
LAYER
  5
C5
330
2
100
AcDbSymbolTableRecord
100
AcDbLayerTableRecord
  2
5
 70
     0
 62
     4
  6
Continuous
370
     9
390
F
347
46
348
0
  0
LAYER
  5
C6
330
2
100
AcDbSymbolTableRecord
100
AcDbLayerTableRecord
  2
6
 70
     0
 62
     3
  6
Continuous
370
     9
390
F
347
46
348
0
  0
LAYER
  5
C7
330
2
100
AcDbSymbolTableRecord
100
AcDbLayerTableRecord
  2
7
 70
     0
 62
     3
  6
Continuous
370
     9
390
F
347
46
348
0
  0
LAYER
  5
C8
330
2
100
AcDbSymbolTableRecord
100
AcDbLayerTableRecord
  2
8
 70
     0
 62
     4
  6
Continuous
370
     9
390
F
347
46
348
0
  0
LAYER
  5
C9
330
2
100
AcDbSymbolTableRecord
100
AcDbLayerTableRecord
  2
9
 70
     0
 62
     7
  6
Continuous
370
    30
390
F
347
46
348
0
  0
LAYER
  5
CA
330
2
100
AcDbSymbolTableRecord
100
AcDbLayerTableRecord
  2
10
 70
     0
 62
     2
  6
HIDDEN
370
     9
390
F
347
46
348
0
  0
LAYER
  5
CB
330
2
100
AcDbSymbolTableRecord
100
AcDbLayerTableRecord
  2
11
 70
     0
 62
     5
  6
Continuous
370
    50
390
F
347
46
348
0
  0
LAYER
  5
CC
330
2
100
AcDbSymbolTableRecord
100
AcDbLayerTableRecord
  2
12
 70
     0
 62
     5
  6
Continuous
370
    30
390
F
347
46
348
0
  0
LAYER
  5
CD
330
2
100
AcDbSymbolTableRecord
100
AcDbLayerTableRecord
  2
13
 70
     0
 62
     7
  6
Continuous
370
     9
390
F
347
46
348
0
  0
LAYER
  5
CE
330
2
100
AcDbSymbolTableRecord
100
AcDbLayerTableRecord
  2
14
 70
     0
 62
     7
  6
Continuous
370
     9
390
F
347
46
348
0
  0
ENDTAB
  0
TABLE
  2
STYLE
  5
3
330
0
100
AcDbSymbolTable
 70
     2
  0
STYLE
  5
11
330
3
100
AcDbSymbolTableRecord
100
AcDbTextStyleTableRecord
  2
Standard
 70
     0
 40
0.0
 41
1.0
 50
0.0
 71
     0
 42
500.0
  3
txt
  4
bigfont
  0
STYLE
  5
6C
330
3
100
AcDbSymbolTableRecord
100
AcDbTextStyleTableRecord
  2
T_STANDARD
 70
     4
 40
10.0
 41
1.0
 50
0.0
 71
     0
 42
500.0
  3
txt
  4
bigfont
1001
ACAD
1000

1071
      256
  0
ENDTAB
  0
TABLE
  2
VIEW
  5
6
330
0
100
AcDbSymbolTable
 70
     0
  0
ENDTAB
  0
TABLE
  2
UCS
  5
7
330
0
100
AcDbSymbolTable
 70
     0
  0
ENDTAB
  0
TABLE
  2
APPID
  5
9
330
0
100
AcDbSymbolTable
 70
     2
  0
APPID
  5
12
330
9
100
AcDbSymbolTableRecord
100
AcDbRegAppTableRecord
  2
ACAD
 70
     0
  0
APPID
  5
6B
330
9
100
AcDbSymbolTableRecord
100
AcDbRegAppTableRecord
  2
ODA
 70
     0
  0
ENDTAB
  0
TABLE
  2
DIMSTYLE
  5
A
330
0
100
AcDbSymbolTable
 70
     1
100
AcDbDimStyleTable
  0
DIMSTYLE
105
27
330
A
100
AcDbSymbolTableRecord
100
AcDbDimStyleTableRecord
  2
Standard
 70
     0
178
     0
340
11
  0
ENDTAB
  0
TABLE
  2
BLOCK_RECORD
  5
1
330
0
100
AcDbSymbolTable
 70
    18
  0
BLOCK_RECORD
  5
1F
330
1
100
AcDbSymbolTableRecord
100
AcDbBlockTableRecord
  2
*Model_Space
340
22
 70
     0
280
     1
281
     0
  0
BLOCK_RECORD
  5
1B
330
1
100
AcDbSymbolTableRecord
100
AcDbBlockTableRecord
  2
*Paper_Space
340
1E
 70
     0
280
     1
281
     0
  0
BLOCK_RECORD
  5
23
330
1
100
AcDbSymbolTableRecord
100
AcDbBlockTableRecord
  2
*Paper_Space0
340
26
 70
     0
280
     1
281
     0
  0
BLOCK_RECORD
  5
6D
330
1
100
AcDbSymbolTableRecord
100
AcDbBlockTableRecord
  2
_ORIGIN
340
0
 70
     0
280
     1
281
     0
  0
BLOCK_RECORD
  5
72
330
1
100
AcDbSymbolTableRecord
100
AcDbBlockTableRecord
  2
_DOTBLANK
340
0
 70
     0
280
     1
281
     0
  0
BLOCK_RECORD
  5
77
330
1
100
AcDbSymbolTableRecord
100
AcDbBlockTableRecord
  2
_DOT
340
0
 70
     0
280
     1
281
     0
  0
BLOCK_RECORD
  5
7C
330
1
100
AcDbSymbolTableRecord
100
AcDbBlockTableRecord
  2
_OPEN
340
0
 70
     0
280
     1
281
     0
  0
BLOCK_RECORD
  5
82
330
1
100
AcDbSymbolTableRecord
100
AcDbBlockTableRecord
  2
_CLOSED
340
0
 70
     0
280
     1
281
     0
  0
BLOCK_RECORD
  5
89
330
1
100
AcDbSymbolTableRecord
100
AcDbBlockTableRecord
  2
_CLOSEDBLANK
340
0
 70
     0
280
     1
281
     0
  0
BLOCK_RECORD
  5
8F
330
1
100
AcDbSymbolTableRecord
100
AcDbBlockTableRecord
  2
_ARROWFILLED
340
0
 70
     0
280
     1
281
     0
  0
BLOCK_RECORD
  5
93
330
1
100
AcDbSymbolTableRecord
100
AcDbBlockTableRecord
  2
_BOXBLANK
340
0
 70
     0
280
     1
281
     0
  0
BLOCK_RECORD
  5
9B
330
1
100
AcDbSymbolTableRecord
100
AcDbBlockTableRecord
  2
_BOXFILLED
340
0
 70
     0
280
     1
281
     0
  0
BLOCK_RECORD
  5
A0
330
1
100
AcDbSymbolTableRecord
100
AcDbBlockTableRecord
  2
_INTEGRAL
340
0
 70
     0
280
     1
281
     0
  0
BLOCK_RECORD
  5
A5
330
1
100
AcDbSymbolTableRecord
100
AcDbBlockTableRecord
  2
_OBLIQUE
340
0
 70
     0
280
     1
281
     0
  0
BLOCK_RECORD
  5
A9
330
1
100
AcDbSymbolTableRecord
100
AcDbBlockTableRecord
  2
_NONE
340
0
 70
     0
280
     1
281
     0
  0
BLOCK_RECORD
  5
AC
330
1
100
AcDbSymbolTableRecord
100
AcDbBlockTableRecord
  2
MARK_OPEN
340
0
 70
     0
280
     1
281
     0
  0
BLOCK_RECORD
  5
B1
330
1
100
AcDbSymbolTableRecord
100
AcDbBlockTableRecord
  2
MARK_ORIGIN
340
0
 70
     0
280
     1
281
     0
  0
BLOCK_RECORD
  5
B5
330
1
100
AcDbSymbolTableRecord
100
AcDbBlockTableRecord
  2
MARK_DOT
340
0
 70
     0
280
     1
281
     0
  0
BLOCK_RECORD
  5
23F
330
1
100
AcDbSymbolTableRecord
100
AcDbBlockTableRecord
  2
*G16
340
0
102
{BLKREFS
331
245
102
}
 70
     0
280
     1
281
     0
  0
BLOCK_RECORD
  5
25A
330
1
100
AcDbSymbolTableRecord
100
AcDbBlockTableRecord
  2
*G17
340
0
102
{BLKREFS
331
260
102
}
 70
     0
280
     1
281
     0
  0
ENDTAB
  0
ENDSEC
  0
SECTION
  2
BLOCKS
  0
BLOCK
  5
20
330
1F
100
AcDbEntity
  8
0
100
AcDbBlockBegin
  2
*Model_Space
 70
     0
 10
0.0
 20
0.0
 30
0.0
  3
*Model_Space
  1
*Model_Space
  0
ENDBLK
  5
21
330
1F
100
AcDbEntity
  8
0
100
AcDbBlockEnd
  0
BLOCK
  5
1C
330
1B
100
AcDbEntity
 67
     1
  8
0
100
AcDbBlockBegin
  2
*Paper_Space
 70
     0
 10
0.0
 20
0.0
 30
0.0
  3
*Paper_Space
  1
*Paper_Space
  0
ENDBLK
  5
1D
330
1B
100
AcDbEntity
 67
     1
  8
0
100
AcDbBlockEnd
  0
BLOCK
  5
24
330
23
100
AcDbEntity
  8
0
100
AcDbBlockBegin
  2
*Paper_Space0
 70
     0
 10
0.0
 20
0.0
 30
0.0
  3
*Paper_Space0
  1
*Paper_Space0
  0
ENDBLK
  5
25
330
23
100
AcDbEntity
  8
0
100
AcDbBlockEnd
  0
BLOCK
  5
70
330
6D
100
AcDbEntity
  8
0
100
AcDbBlockBegin
  2
_ORIGIN
 70
     0
 10
0.0
 20
0.0
 30
0.0
  3
_ORIGIN
  1
_ORIGIN
  0
CIRCLE
  5
6E
330
6D
100
AcDbEntity
  8
0
 62
     0
100
AcDbCircle
 10
0.0
 20
0.0
 30
0.0
 40
0.5
  0
LINE
  5
6F
330
6D
100
AcDbEntity
  8
0
 62
     0
100
AcDbLine
 10
0.0
 20
0.0
 30
0.0
 11
-1.0
 21
0.0
 31
0.0
  0
ENDBLK
  5
71
330
6D
100
AcDbEntity
  8
0
100
AcDbBlockEnd
  0
BLOCK
  5
75
330
72
100
AcDbEntity
  8
0
100
AcDbBlockBegin
  2
_DOTBLANK
 70
     0
 10
0.0
 20
0.0
 30
0.0
  3
_DOTBLANK
  1
_DOTBLANK
  0
CIRCLE
  5
73
330
72
100
AcDbEntity
  8
0
 62
     0
100
AcDbCircle
 10
0.0
 20
0.0
 30
0.0
 40
0.5
  0
LINE
  5
74
330
72
100
AcDbEntity
  8
0
 62
     0
100
AcDbLine
 10
-0.5
 20
0.0
 30
0.0
 11
-1.0
 21
0.0
 31
0.0
  0
ENDBLK
  5
76
330
72
100
AcDbEntity
  8
0
100
AcDbBlockEnd
  0
BLOCK
  5
7A
330
77
100
AcDbEntity
  8
0
100
AcDbBlockBegin
  2
_DOT
 70
     0
 10
0.0
 20
0.0
 30
0.0
  3
_DOT
  1
_DOT
  0
LWPOLYLINE
  5
78
330
77
100
AcDbEntity
  8
0
 62
     0
100
AcDbPolyline
 90
        2
 70
     1
 43
0.5
 10
-0.25
 20
0.0
 42
1.0
 10
0.25
 20
0.0
 42
1.0
  0
LINE
  5
79
330
77
100
AcDbEntity
  8
0
 62
     0
100
AcDbLine
 10
-0.5
 20
0.0
 30
0.0
 11
-1.0
 21
0.0
 31
0.0
  0
ENDBLK
  5
7B
330
77
100
AcDbEntity
  8
0
100
AcDbBlockEnd
  0
BLOCK
  5
80
330
7C
100
AcDbEntity
  8
0
100
AcDbBlockBegin
  2
_OPEN
 70
     0
 10
0.0
 20
0.0
 30
0.0
  3
_OPEN
  1
_OPEN
  0
LINE
  5
7D
330
7C
100
AcDbEntity
  8
0
 62
     0
100
AcDbLine
 10
0.0
 20
0.0
 30
0.0
 11
-1.0
 21
0.1666666666666667
 31
0.0
  0
LINE
  5
7E
330
7C
100
AcDbEntity
  8
0
 62
     0
100
AcDbLine
 10
0.0
 20
0.0
 30
0.0
 11
-1.0
 21
-0.1666666666666667
 31
0.0
  0
LINE
  5
7F
330
7C
100
AcDbEntity
  8
0
 62
     0
100
AcDbLine
 10
0.0
 20
0.0
 30
0.0
 11
-1.0
 21
0.0
 31
0.0
  0
ENDBLK
  5
81
330
7C
100
AcDbEntity
  8
0
100
AcDbBlockEnd
  0
BLOCK
  5
87
330
82
100
AcDbEntity
  8
0
100
AcDbBlockBegin
  2
_CLOSED
 70
     0
 10
0.0
 20
0.0
 30
0.0
  3
_CLOSED
  1
_CLOSED
  0
LINE
  5
83
330
82
100
AcDbEntity
  8
0
 62
     0
100
AcDbLine
 10
0.0
 20
0.0
 30
0.0
 11
-1.0
 21
0.1666666666666667
 31
0.0
  0
LINE
  5
84
330
82
100
AcDbEntity
  8
0
 62
     0
100
AcDbLine
 10
0.0
 20
0.0
 30
0.0
 11
-1.0
 21
-0.1666666666666667
 31
0.0
  0
LINE
  5
85
330
82
100
AcDbEntity
  8
0
 62
     0
100
AcDbLine
 10
-1.0
 20
0.1666666666666667
 30
0.0
 11
-1.0
 21
-0.1666666666666667
 31
0.0
  0
LINE
  5
86
330
82
100
AcDbEntity
  8
0
 62
     0
100
AcDbLine
 10
0.0
 20
0.0
 30
0.0
 11
-1.0
 21
0.0
 31
0.0
  0
ENDBLK
  5
88
330
82
100
AcDbEntity
  8
0
100
AcDbBlockEnd
  0
BLOCK
  5
8D
330
89
100
AcDbEntity
  8
0
100
AcDbBlockBegin
  2
_CLOSEDBLANK
 70
     0
 10
0.0
 20
0.0
 30
0.0
  3
_CLOSEDBLANK
  1
_CLOSEDBLANK
  0
LINE
  5
8A
330
89
100
AcDbEntity
  8
0
 62
     0
100
AcDbLine
 10
0.0
 20
0.0
 30
0.0
 11
-1.0
 21
0.1666666666666667
 31
0.0
  0
LINE
  5
8B
330
89
100
AcDbEntity
  8
0
 62
     0
100
AcDbLine
 10
0.0
 20
0.0
 30
0.0
 11
-1.0
 21
-0.1666666666666667
 31
0.0
  0
LINE
  5
8C
330
89
100
AcDbEntity
  8
0
 62
     0
100
AcDbLine
 10
-1.0
 20
0.1666666666666667
 30
0.0
 11
-1.0
 21
-0.1666666666666667
 31
0.0
  0
ENDBLK
  5
8E
330
89
100
AcDbEntity
  8
0
100
AcDbBlockEnd
  0
BLOCK
  5
91
330
8F
100
AcDbEntity
  8
0
100
AcDbBlockBegin
  2
_ARROWFILLED
 70
     0
 10
0.0
 20
0.0
 30
0.0
  3
_ARROWFILLED
  1
_ARROWFILLED
  0
SOLID
  5
90
330
8F
100
AcDbEntity
  8
0
 62
     0
100
AcDbTrace
 10
0.0
 20
0.0
 30
0.0
 11
-1.0
 21
-0.1666666666666667
 31
0.0
 12
-1.0
 22
0.1666666666666667
 32
0.0
 13
0.0
 23
0.0
 33
0.0
  0
ENDBLK
  5
92
330
8F
100
AcDbEntity
  8
0
100
AcDbBlockEnd
  0
BLOCK
  5
99
330
93
100
AcDbEntity
  8
0
100
AcDbBlockBegin
  2
_BOXBLANK
 70
     0
 10
0.0
 20
0.0
 30
0.0
  3
_BOXBLANK
  1
_BOXBLANK
  0
LINE
  5
94
330
93
100
AcDbEntity
  8
0
 62
     0
100
AcDbLine
 10
-0.5
 20
-0.5
 30
0.0
 11
0.5
 21
-0.5
 31
0.0
  0
LINE
  5
95
330
93
100
AcDbEntity
  8
0
 62
     0
100
AcDbLine
 10
0.5
 20
-0.5
 30
0.0
 11
0.5
 21
0.5
 31
0.0
  0
LINE
  5
96
330
93
100
AcDbEntity
  8
0
 62
     0
100
AcDbLine
 10
0.5
 20
0.5
 30
0.0
 11
-0.5
 21
0.5
 31
0.0
  0
LINE
  5
97
330
93
100
AcDbEntity
  8
0
 62
     0
100
AcDbLine
 10
-0.5
 20
0.5
 30
0.0
 11
-0.5
 21
-0.5
 31
0.0
  0
LINE
  5
98
330
93
100
AcDbEntity
  8
0
 62
     0
100
AcDbLine
 10
-0.5
 20
0.0
 30
0.0
 11
-1.0
 21
0.0
 31
0.0
  0
ENDBLK
  5
9A
330
93
100
AcDbEntity
  8
0
100
AcDbBlockEnd
  0
BLOCK
  5
9E
330
9B
100
AcDbEntity
  8
0
100
AcDbBlockBegin
  2
_BOXFILLED
 70
     0
 10
0.0
 20
0.0
 30
0.0
  3
_BOXFILLED
  1
_BOXFILLED
  0
SOLID
  5
9C
330
9B
100
AcDbEntity
  8
0
 62
     0
100
AcDbTrace
 10
-0.5
 20
0.5
 30
0.0
 11
0.5
 21
0.5
 31
0.0
 12
-0.5
 22
-0.5
 32
0.0
 13
0.5
 23
-0.5
 33
0.0
  0
LINE
  5
9D
330
9B
100
AcDbEntity
  8
0
 62
     0
100
AcDbLine
 10
-0.5
 20
0.0
 30
0.0
 11
-1.0
 21
0.0
 31
0.0
  0
ENDBLK
  5
9F
330
9B
100
AcDbEntity
  8
0
100
AcDbBlockEnd
  0
BLOCK
  5
A3
330
A0
100
AcDbEntity
  8
0
100
AcDbBlockBegin
  2
_INTEGRAL
 70
     0
 10
0.0
 20
0.0
 30
0.0
  3
_INTEGRAL
  1
_INTEGRAL
  0
ARC
  5
A1
330
A0
100
AcDbEntity
  8
0
 62
     0
100
AcDbCircle
 10
0.444888
 20
-0.0913346
 30
0.0
 40
0.4541666
100
AcDbArc
 50
101.9999999999999
 51
167.9999999999998
  0
ARC
  5
A2
330
A0
100
AcDbEntity
  8
0
 62
     0
100
AcDbCircle
 10
-0.444888
 20
0.0913346
 30
0.0
 40
0.4541666
100
AcDbArc
 50
281.9999999999997
 51
347.9999999999997
  0
ENDBLK
  5
A4
330
A0
100
AcDbEntity
  8
0
100
AcDbBlockEnd
  0
BLOCK
  5
A7
330
A5
100
AcDbEntity
  8
0
100
AcDbBlockBegin
  2
_OBLIQUE
 70
     0
 10
0.0
 20
0.0
 30
0.0
  3
_OBLIQUE
  1
_OBLIQUE
  0
LINE
  5
A6
330
A5
100
AcDbEntity
  8
0
 62
     0
100
AcDbLine
 10
-0.5
 20
-0.5
 30
0.0
 11
0.5
 21
0.5
 31
0.0
  0
ENDBLK
  5
A8
330
A5
100
AcDbEntity
  8
0
100
AcDbBlockEnd
  0
BLOCK
  5
AA
330
A9
100
AcDbEntity
  8
0
100
AcDbBlockBegin
  2
_NONE
 70
     0
 10
0.0
 20
0.0
 30
0.0
  3
_NONE
  1
_NONE
  0
ENDBLK
  5
AB
330
A9
100
AcDbEntity
  8
0
100
AcDbBlockEnd
  0
BLOCK
  5
AF
330
AC
100
AcDbEntity
  8
0
100
AcDbBlockBegin
  2
MARK_OPEN
 70
     0
 10
0.0
 20
0.0
 30
0.0
  3
MARK_OPEN
  1
MARK_OPEN
  0
LINE
  5
AD
330
AC
100
AcDbEntity
  8
0
 62
     0
100
AcDbLine
 10
0.0
 20
0.0
 30
0.0
 11
-1.0
 21
0.1666666666666667
 31
0.0
  0
LINE
  5
AE
330
AC
100
AcDbEntity
  8
0
 62
     0
100
AcDbLine
 10
0.0
 20
0.0
 30
0.0
 11
-1.0
 21
-0.1666666666666667
 31
0.0
  0
ENDBLK
  5
B0
330
AC
100
AcDbEntity
  8
0
100
AcDbBlockEnd
  0
BLOCK
  5
B3
330
B1
100
AcDbEntity
  8
0
100
AcDbBlockBegin
  2
MARK_ORIGIN
 70
     0
 10
0.0
 20
0.0
 30
0.0
  3
MARK_ORIGIN
  1
MARK_ORIGIN
  0
CIRCLE
  5
B2
330
B1
100
AcDbEntity
  8
0
 62
     0
100
AcDbCircle
 10
0.0
 20
0.0
 30
0.0
 40
0.5
  0
ENDBLK
  5
B4
330
B1
100
AcDbEntity
  8
0
100
AcDbBlockEnd
  0
BLOCK
  5
B7
330
B5
100
AcDbEntity
  8
0
100
AcDbBlockBegin
  2
MARK_DOT
 70
     0
 10
0.0
 20
0.0
 30
0.0
  3
MARK_DOT
  1
MARK_DOT
  0
LWPOLYLINE
  5
B6
330
B5
100
AcDbEntity
  8
0
 62
     0
100
AcDbPolyline
 90
        2
 70
     1
 43
0.5
 10
-0.25
 20
0.0
 42
1.0
 10
0.25
 20
0.0
 42
1.0
  0
ENDBLK
  5
B8
330
B5
100
AcDbEntity
  8
0
100
AcDbBlockEnd
  0
BLOCK
  5
240
330
23F
100
AcDbEntity
  8
0
100
AcDbBlockBegin
  2
*G16
 70
     1
 10
0.0
 20
0.0
 30
0.0
  3
*G16
  1
*G16
  0
LINE
  5
242
330
23F
100
AcDbEntity
  8
6
  6
Continuous
 62
     3
370
     9
100
AcDbLine
 10
32660.76497203719
 20
20780.82687335844
 30
0.0
 11
32662.42231341563
 21
20785.18084902928
 31
0.0
  0
LINE
  5
243
330
23F
100
AcDbEntity
  8
6
  6
Continuous
 62
     3
370
     9
100
AcDbLine
 10
32662.52151502063
 20
20783.25885953178
 30
0.0
 11
32660.76497203719
 21
20780.82687335844
 31
0.0
  0
LINE
  5
244
330
23F
100
AcDbEntity
  8
6
  6
Continuous
 62
     3
370
     9
100
AcDbLine
 10
32660.76497203719
 20
20780.82687335844
 30
0.0
 11
32664.37725960908
 21
20783.76885620763
 31
0.0
  0
ENDBLK
  5
241
330
23F
100
AcDbEntity
  8
0
100
AcDbBlockEnd
  0
BLOCK
  5
25B
330
25A
100
AcDbEntity
  8
0
100
AcDbBlockBegin
  2
*G17
 70
     1
 10
0.0
 20
0.0
 30
0.0
  3
*G17
  1
*G17
  0
LINE
  5
25D
330
25A
100
AcDbEntity
  8
6
  6
Continuous
 62
     3
370
     9
100
AcDbLine
 10
33171.88115722736
 20
20937.19675717653
 30
0.0
 11
33173.53849860579
 21
20941.55073284737
 31
0.0
  0
LINE
  5
25E
330
25A
100
AcDbEntity
  8
6
  6
Continuous
 62
     3
370
     9
100
AcDbLine
 10
33173.63770021079
 20
20939.62874334987
 30
0.0
 11
33171.88115722736
 21
20937.19675717653
 31
0.0
  0
LINE
  5
25F
330
25A
100
AcDbEntity
  8
6
  6
Continuous
 62
     3
370
     9
100
AcDbLine
 10
33171.88115722736
 20
20937.19675717653
 30
0.0
 11
33175.49344479924
 21
20940.13874002572
 31
0.0
  0
ENDBLK
  5
25C
330
25A
100
AcDbEntity
  8
0
100
AcDbBlockEnd
  0
ENDSEC
  0
SECTION
  2
ENTITIES
  0
POLYLINE
  5
CF
330
1F
100
AcDbEntity
  8
11
  6
Continuous
 62
     5
370
    50
100
AcDb2dPolyline
 66
     1
 10
0.0
 20
0.0
 30
0.0
  0
VERTEX
  5
D0
330
CF
100
AcDbEntity
  8
11
  6
Continuous
 62
     5
370
    50
100
AcDbVertex
100
AcDb2dVertex
 10
31955.51497473719
 20
20554.72513991531
 30
0.0
  0
VERTEX
  5
D1
330
CF
100
AcDbEntity
  8
11
  6
Continuous
 62
     5
370
    50
100
AcDbVertex
100
AcDb2dVertex
 10
32408.01497293719
 20
20554.72513991531
 30
0.0
  0
VERTEX
  5
D2
330
CF
100
AcDbEntity
  8
11
  6
Continuous
 62
     5
370
    50
100
AcDbVertex
100
AcDb2dVertex
 10
32408.01497293719
 20
21237.22513991531
 30
0.0
  0
VERTEX
  5
D3
330
CF
100
AcDbEntity
  8
11
  6
Continuous
 62
     5
370
    50
100
AcDbVertex
100
AcDb2dVertex
 10
31955.51497473719
 20
21237.22513991531
 30
0.0
  0
VERTEX
  5
D4
330
CF
100
AcDbEntity
  8
11
  6
Continuous
 62
     5
370
    50
100
AcDbVertex
100
AcDb2dVertex
 10
31955.51497473719
 20
20554.72513991531
 30
0.0
  0
SEQEND
  5
D5
330
CF
100
AcDbEntity
  8
11
  6
Continuous
 62
     5
370
    50
  0
MTEXT
  5
D6
330
1F
100
AcDbEntity
  8
6
  6
Continuous
 62
     3
370
     9
100
AcDbMText
 10
32313.68410939531
 20
20569.4741494864
 30
0.0
 40
6.0
 41
43.08564
 46
6.0
 71
     7
 72
     1
  1
{\fＭＳ ゴシック;防護板 A}
 73
     1
 44
1.0
1001
ACAD
1000
ACAD_MTEXT_DEFINED_HEIGHT_BEGIN
1070
    46
1040
6.0
1000
ACAD_MTEXT_DEFINED_HEIGHT_END
  0
MTEXT
  5
D7
330
1F
100
AcDbEntity
  8
6
  6
Continuous
 62
     3
370
     9
100
AcDbMText
 10
32313.68410939531
 20
20559.9741494864
 30
0.0
 40
6.0
 41
121.05216
 46
6.0
 71
     7
 72
     1
  1
{\fＭＳ ゴシック;A4 用紙、印刷尺度：1/2}
 73
     1
 44
1.0
1001
ACAD
1000
ACAD_MTEXT_DEFINED_HEIGHT_BEGIN
1070
    46
1040
6.0
1000
ACAD_MTEXT_DEFINED_HEIGHT_END
  0
LINE
  5
D8
330
1F
100
AcDbEntity
  8
9
  6
Continuous
 62
     7
370
    30
100
AcDbLine
 10
32001.76497383719
 20
21147.63390833441
 30
0.0
 11
32361.76497383719
 21
21147.63390833441
 31
0.0
  0
LINE
  5
D9
330
1F
100
AcDbEntity
  8
9
  6
Continuous
 62
     7
370
    30
100
AcDbLine
 10
31981.76497383719
 20
21127.63390833441
 30
0.0
 11
32381.76497383719
 21
21127.63390833441
 31
0.0
  0
ARC
  5
DA
330
1F
100
AcDbEntity
  8
9
  6
Continuous
 62
     7
370
    30
100
AcDbCircle
 10
32361.76497383719
 20
21127.63390833441
 30
0.0
 40
20.0
100
AcDbArc
 50
0.0
 51
89.99999999999991
  0
ARC
  5
DB
330
1F
100
AcDbEntity
  8
9
  6
Continuous
 62
     7
370
    30
100
AcDbCircle
 10
32001.76497383719
 20
21127.63390833441
 30
0.0
 40
20.0
100
AcDbArc
 50
89.99999999999991
 51
179.9999999999998
  0
CIRCLE
  5
DC
330
1F
100
AcDbEntity
  8
9
  6
Continuous
 62
     7
370
    30
100
AcDbCircle
 10
32180.15145109991
 20
20841.55439732106
 30
0.0
 40
11.5
  0
CIRCLE
  5
DD
330
1F
100
AcDbEntity
  8
9
  6
Continuous
 62
     7
370
    30
100
AcDbCircle
 10
32180.15145109991
 20
20841.55439732106
 30
0.0
 40
200.0
  0
CIRCLE
  5
DE
330
1F
100
AcDbEntity
  8
9
  6
Continuous
 62
     7
370
    30
100
AcDbCircle
 10
32180.15145109991
 20
20841.55439732106
 30
0.0
 40
199.2000000000007
  0
POLYLINE
  5
DF
330
1F
100
AcDbEntity
  8
11
  6
Continuous
 62
     5
370
    50
100
AcDb2dPolyline
 66
     1
 10
0.0
 20
0.0
 30
0.0
  0
VERTEX
  5
E0
330
DF
100
AcDbEntity
  8
11
  6
Continuous
 62
     5
370
    50
100
AcDbVertex
100
AcDb2dVertex
 10
32408.01497293719
 20
20554.72513991531
 30
0.0
  0
VERTEX
  5
E1
330
DF
100
AcDbEntity
  8
11
  6
Continuous
 62
     5
370
    50
100
AcDbVertex
100
AcDb2dVertex
 10
32860.51497113719
 20
20554.72513991531
 30
0.0
  0
VERTEX
  5
E2
330
DF
100
AcDbEntity
  8
11
  6
Continuous
 62
     5
370
    50
100
AcDbVertex
100
AcDb2dVertex
 10
32860.51497113719
 20
21237.22513991531
 30
0.0
  0
VERTEX
  5
E3
330
DF
100
AcDbEntity
  8
11
  6
Continuous
 62
     5
370
    50
100
AcDbVertex
100
AcDb2dVertex
 10
32408.01497293719
 20
21237.22513991531
 30
0.0
  0
VERTEX
  5
E4
330
DF
100
AcDbEntity
  8
11
  6
Continuous
 62
     5
370
    50
100
AcDbVertex
100
AcDb2dVertex
 10
32408.01497293719
 20
20554.72513991531
 30
0.0
  0
SEQEND
  5
E5
330
DF
100
AcDbEntity
  8
11
  6
Continuous
 62
     5
370
    50
  0
ARC
  5
E6
330
1F
100
AcDbEntity
  8
9
  6
Continuous
 62
     7
370
    30
100
AcDbCircle
 10
32454.26497203719
 20
21099.07687335844
 30
0.0
 40
20.0
100
AcDbArc
 50
89.99999999999991
 51
179.9999999999998
  0
ARC
  5
E7
330
1F
100
AcDbEntity
  8
9
  6
Continuous
 62
     7
370
    30
100
AcDbCircle
 10
32814.26497203719
 20
21099.07687335844
 30
0.0
 40
20.0
100
AcDbArc
 50
0.0
 51
89.99999999999991
  0
LINE
  5
E8
330
1F
100
AcDbEntity
  8
9
  6
Continuous
 62
     7
370
    30
100
AcDbLine
 10
32434.26497203719
 20
21099.07687335844
 30
0.0
 11
32834.26497203719
 21
21099.07687335844
 31
0.0
  0
LINE
  5
E9
330
1F
100
AcDbEntity
  8
9
  6
Continuous
 62
     7
370
    30
100
AcDbLine
 10
32454.26497203719
 20
21119.07687335844
 30
0.0
 11
32814.26497203719
 21
21119.07687335844
 31
0.0
  0
ARC
  5
EA
330
1F
100
AcDbEntity
  8
4
  6
PHANTOM
 62
     2
370
     9
100
AcDbCircle
 10
32642.76488859917
 20
21180.18959100959
 30
0.0
 40
9.725000000000364
100
AcDbArc
 50
29.0689101610436
 51
150.9310898389272
  0
POLYLINE
  5
EB
330
1F
100
AcDbEntity
  8
4
  6
PHANTOM
 62
     2
370
     9
100
AcDb2dPolyline
 66
     1
 10
0.0
 20
0.0
 30
0.0
  0
VERTEX
  5
EC
330
EB
100
AcDbEntity
  8
4
  6
PHANTOM
 62
     2
370
     9
100
AcDbVertex
100
AcDb2dVertex
 10
32651.26488859918
 20
21164.07687335844
 30
0.0
  0
VERTEX
  5
ED
330
EB
100
AcDbEntity
  8
4
  6
PHANTOM
 62
     2
370
     9
100
AcDbVertex
100
AcDb2dVertex
 10
32651.26488859918
 20
21184.91459100959
 30
0.0
  0
SEQEND
  5
EE
330
EB
100
AcDbEntity
  8
4
  6
PHANTOM
 62
     2
370
     9
  0
ARC
  5
EF
330
1F
100
AcDbEntity
  8
4
  6
PHANTOM
 62
     2
370
     9
100
AcDbCircle
 10
32642.76488859918
 20
21189.63959100959
 30
0.0
 40
9.725000000000364
100
AcDbArc
 50
209.0689101610911
 51
330.9310898389082
  0
ARC
  5
F0
330
1F
100
AcDbEntity
  8
4
  6
PHANTOM
 62
     2
370
     9
100
AcDbCircle
 10
32625.76488859917
 20
21180.18959100958
 30
0.0
 40
9.725000000002183
100
AcDbArc
 50
29.06891016108107
 51
150.9310898389085
  0
POLYLINE
  5
F1
330
1F
100
AcDbEntity
  8
4
  6
PHANTOM
 62
     2
370
     9
100
AcDb2dPolyline
 66
     1
 10
0.0
 20
0.0
 30
0.0
  0
VERTEX
  5
F2
330
F1
100
AcDbEntity
  8
4
  6
PHANTOM
 62
     2
370
     9
100
AcDbVertex
100
AcDb2dVertex
 10
32617.26488859918
 20
21184.91459100959
 30
0.0
  0
VERTEX
  5
F3
330
F1
100
AcDbEntity
  8
4
  6
PHANTOM
 62
     2
370
     9
100
AcDbVertex
100
AcDb2dVertex
 10
32617.26488859918
 20
21164.07687335844
 30
0.0
  0
SEQEND
  5
F4
330
F1
100
AcDbEntity
  8
4
  6
PHANTOM
 62
     2
370
     9
  0
ARC
  5
F5
330
1F
100
AcDbEntity
  8
4
  6
PHANTOM
 62
     2
370
     9
100
AcDbCircle
 10
32621.76488859917
 20
21123.57687335843
 30
0.0
 40
1.499999999990905
100
AcDbArc
 50
179.9999999995831
 51
270.0000000004165
  0
POLYLINE
  5
F6
330
1F
100
AcDbEntity
  8
4
  6
PHANTOM
 62
     2
370
     9
100
AcDb2dPolyline
 66
     1
 10
0.0
 20
0.0
 30
0.0
  0
VERTEX
  5
F7
330
F6
100
AcDbEntity
  8
4
  6
PHANTOM
 62
     2
370
     9
100
AcDbVertex
100
AcDb2dVertex
 10
32621.76488859918
 20
21122.07687335844
 30
0.0
  0
VERTEX
  5
F8
330
F6
100
AcDbEntity
  8
4
  6
PHANTOM
 62
     2
370
     9
100
AcDbVertex
100
AcDb2dVertex
 10
32644.85893977017
 20
21122.07687335844
 30
0.0
  0
VERTEX
  5
F9
330
F6
100
AcDbEntity
  8
4
  6
PHANTOM
 62
     2
370
     9
100
AcDbVertex
100
AcDb2dVertex
 10
32646.76488859918
 20
21122.07687335844
 30
0.0
  0
SEQEND
  5
FA
330
F6
100
AcDbEntity
  8
4
  6
PHANTOM
 62
     2
370
     9
  0
ARC
  5
FB
330
1F
100
AcDbEntity
  8
4
  6
PHANTOM
 62
     2
370
     9
100
AcDbCircle
 10
32646.76488859921
 20
21123.57687335842
 30
0.0
 40
1.499999999976353
100
AcDbArc
 50
269.999999998749
 51
0.0000000008337633
  0
POLYLINE
  5
FC
330
1F
100
AcDbEntity
  8
4
  6
PHANTOM
 62
     2
370
     9
100
AcDb2dPolyline
 66
     1
 10
0.0
 20
0.0
 30
0.0
  0
VERTEX
  5
FD
330
FC
100
AcDbEntity
  8
4
  6
PHANTOM
 62
     2
370
     9
100
AcDbVertex
100
AcDb2dVertex
 10
32648.26488859918
 20
21123.57687335844
 30
0.0
  0
VERTEX
  5
FE
330
FC
100
AcDbEntity
  8
4
  6
PHANTOM
 62
     2
370
     9
100
AcDbVertex
100
AcDb2dVertex
 10
32648.26488859918
 20
21134.62288938466
 30
0.0
  0
SEQEND
  5
FF
330
FC
100
AcDbEntity
  8
4
  6
PHANTOM
 62
     2
370
     9
  0
ARC
  5
100
330
1F
100
AcDbEntity
  8
4
  6
PHANTOM
 62
     2
370
     9
100
AcDbCircle
 10
32653.26488859917
 20
21134.62288938466
 30
0.0
 40
4.999999999998181
100
AcDbArc
 50
89.99999999995832
 51
179.9999999999583
  0
ARC
  5
101
330
1F
100
AcDbEntity
  8
4
  6
PHANTOM
 62
     2
370
     9
100
AcDbCircle
 10
32653.26488859919
 20
21141.62288938466
 30
0.0
 40
1.999999999996362
100
AcDbArc
 50
269.9999999994785
 51
0.0000000001042204
  0
POLYLINE
  5
102
330
1F
100
AcDbEntity
  8
4
  6
PHANTOM
 62
     2
370
     9
100
AcDb2dPolyline
 66
     1
 10
0.0
 20
0.0
 30
0.0
  0
VERTEX
  5
103
330
102
100
AcDbEntity
  8
4
  6
PHANTOM
 62
     2
370
     9
100
AcDbVertex
100
AcDb2dVertex
 10
32655.26488859918
 20
21141.62288938466
 30
0.0
  0
VERTEX
  5
104
330
102
100
AcDbEntity
  8
4
  6
PHANTOM
 62
     2
370
     9
100
AcDbVertex
100
AcDb2dVertex
 10
32655.26488859918
 20
21162.07687335844
 30
0.0
  0
SEQEND
  5
105
330
102
100
AcDbEntity
  8
4
  6
PHANTOM
 62
     2
370
     9
  0
ARC
  5
106
330
1F
100
AcDbEntity
  8
4
  6
PHANTOM
 62
     2
370
     9
100
AcDbCircle
 10
32653.26488859916
 20
21162.07687335843
 30
0.0
 40
2.000000000012733
100
AcDbArc
 50
0.0000000004168817
 51
89.99999999958311
  0
POLYLINE
  5
107
330
1F
100
AcDbEntity
  8
4
  6
PHANTOM
 62
     2
370
     9
100
AcDb2dPolyline
 66
     1
 10
0.0
 20
0.0
 30
0.0
  0
VERTEX
  5
108
330
107
100
AcDbEntity
  8
4
  6
PHANTOM
 62
     2
370
     9
100
AcDbVertex
100
AcDb2dVertex
 10
32653.26488859918
 20
21164.07687335844
 30
0.0
  0
VERTEX
  5
109
330
107
100
AcDbEntity
  8
4
  6
PHANTOM
 62
     2
370
     9
100
AcDbVertex
100
AcDb2dVertex
 10
32615.26488859918
 20
21164.07687335844
 30
0.0
  0
SEQEND
  5
10A
330
107
100
AcDbEntity
  8
4
  6
PHANTOM
 62
     2
370
     9
  0
ARC
  5
10B
330
1F
100
AcDbEntity
  8
4
  6
PHANTOM
 62
     2
370
     9
100
AcDbCircle
 10
32615.26488859917
 20
21162.07687335844
 30
0.0
 40
2.000000000003638
100
AcDbArc
 50
89.99999999968735
 51
179.9999999998958
  0
POLYLINE
  5
10C
330
1F
100
AcDbEntity
  8
4
  6
PHANTOM
 62
     2
370
     9
100
AcDb2dPolyline
 66
     1
 10
0.0
 20
0.0
 30
0.0
  0
VERTEX
  5
10D
330
10C
100
AcDbEntity
  8
4
  6
PHANTOM
 62
     2
370
     9
100
AcDbVertex
100
AcDb2dVertex
 10
32613.26488859918
 20
21162.07687335844
 30
0.0
  0
VERTEX
  5
10E
330
10C
100
AcDbEntity
  8
4
  6
PHANTOM
 62
     2
370
     9
100
AcDbVertex
100
AcDb2dVertex
 10
32613.26488859918
 20
21141.62288938466
 30
0.0
  0
SEQEND
  5
10F
330
10C
100
AcDbEntity
  8
4
  6
PHANTOM
 62
     2
370
     9
  0
ARC
  5
110
330
1F
100
AcDbEntity
  8
4
  6
PHANTOM
 62
     2
370
     9
100
AcDbCircle
 10
32615.26488859915
 20
21141.62288938463
 30
0.0
 40
1.999999999974534
100
AcDbArc
 50
179.9999999992705
 51
270.0000000007292
  0
ARC
  5
111
330
1F
100
AcDbEntity
  8
4
  6
PHANTOM
 62
     2
370
     9
100
AcDbCircle
 10
32615.26488859918
 20
21134.62288938466
 30
0.0
 40
5.000000000001819
100
AcDbArc
 50
0.0000000000416882
 51
90.00000000004168
  0
POLYLINE
  5
112
330
1F
100
AcDbEntity
  8
4
  6
PHANTOM
 62
     2
370
     9
100
AcDb2dPolyline
 66
     1
 10
0.0
 20
0.0
 30
0.0
  0
VERTEX
  5
113
330
112
100
AcDbEntity
  8
4
  6
PHANTOM
 62
     2
370
     9
100
AcDbVertex
100
AcDb2dVertex
 10
32620.26488859918
 20
21134.62288938466
 30
0.0
  0
VERTEX
  5
114
330
112
100
AcDbEntity
  8
4
  6
PHANTOM
 62
     2
370
     9
100
AcDbVertex
100
AcDb2dVertex
 10
32620.26488859918
 20
21123.57687335844
 30
0.0
  0
SEQEND
  5
115
330
112
100
AcDbEntity
  8
4
  6
PHANTOM
 62
     2
370
     9
  0
LINE
  5
116
330
1F
100
AcDbEntity
  8
9
  6
Continuous
 62
     7
370
    30
100
AcDbLine
 10
32607.76497203719
 20
21122.07687335844
 30
0.0
 11
32660.76497203719
 21
21122.07687335844
 31
0.0
  0
LINE
  5
117
330
1F
100
AcDbEntity
  8
9
  6
Continuous
 62
     7
370
    30
100
AcDbLine
 10
32660.76497203719
 20
21122.07687335844
 30
0.0
 11
32660.76497203719
 21
21119.07687335844
 31
0.0
  0
LINE
  5
118
330
1F
100
AcDbEntity
  8
9
  6
Continuous
 62
     7
370
    30
100
AcDbLine
 10
32607.76497203719
 20
21122.07687335844
 30
0.0
 11
32607.76497203719
 21
21119.07687335844
 31
0.0
  0
LINE
  5
119
330
1F
100
AcDbEntity
  8
9
  6
Continuous
 62
     7
370
    30
100
AcDbLine
 10
33012.88115722736
 20
20937.19675717653
 30
0.0
 11
33012.88115722736
 21
20928.19675717653
 31
0.0
  0
LINE
  5
11A
330
1F
100
AcDbEntity
  8
9
  6
Continuous
 62
     7
370
    30
100
AcDbLine
 10
33171.88115722736
 20
20937.19675717653
 30
0.0
 11
33171.88115722736
 21
20928.19675717653
 31
0.0
  0
ARC
  5
11B
330
1F
100
AcDbEntity
  8
4
  6
PHANTOM
 62
     2
370
     9
100
AcDbCircle
 10
33054.88090691331
 20
20948.62840389373
 30
0.0
 40
4.500000000012733
100
AcDbArc
 50
180.0000000002313
 51
269.999999999907
  0
POLYLINE
  5
11C
330
1F
100
AcDbEntity
  8
4
  6
PHANTOM
 62
     2
370
     9
100
AcDb2dPolyline
 66
     1
 10
0.0
 20
0.0
 30
0.0
  0
VERTEX
  5
11D
330
11C
100
AcDbEntity
  8
4
  6
PHANTOM
 62
     2
370
     9
100
AcDbVertex
100
AcDb2dVertex
 10
33054.88090691331
 20
20944.12840389372
 30
0.0
  0
VERTEX
  5
11E
330
11C
100
AcDbEntity
  8
4
  6
PHANTOM
 62
     2
370
     9
100
AcDbVertex
100
AcDb2dVertex
 10
33124.16306042629
 20
20944.12840389372
 30
0.0
  0
VERTEX
  5
11F
330
11C
100
AcDbEntity
  8
4
  6
PHANTOM
 62
     2
370
     9
100
AcDbVertex
100
AcDb2dVertex
 10
33129.88090691331
 20
20944.12840389372
 30
0.0
  0
SEQEND
  5
120
330
11C
100
AcDbEntity
  8
4
  6
PHANTOM
 62
     2
370
     9
  0
ARC
  5
121
330
1F
100
AcDbEntity
  8
4
  6
PHANTOM
 62
     2
370
     9
100
AcDbCircle
 10
33129.88090691329
 20
20948.6284038937
 30
0.0
 40
4.499999999985448
100
AcDbArc
 50
270.0000000001849
 51
0.0000000001852807
  0
POLYLINE
  5
122
330
1F
100
AcDbEntity
  8
4
  6
PHANTOM
 62
     2
370
     9
100
AcDb2dPolyline
 66
     1
 10
0.0
 20
0.0
 30
0.0
  0
VERTEX
  5
123
330
122
100
AcDbEntity
  8
4
  6
PHANTOM
 62
     2
370
     9
100
AcDbVertex
100
AcDb2dVertex
 10
33134.38090691331
 20
20948.62840389372
 30
0.0
  0
VERTEX
  5
124
330
122
100
AcDbEntity
  8
4
  6
PHANTOM
 62
     2
370
     9
100
AcDbVertex
100
AcDb2dVertex
 10
33134.38090691331
 20
20981.76645197237
 30
0.0
  0
SEQEND
  5
125
330
122
100
AcDbEntity
  8
4
  6
PHANTOM
 62
     2
370
     9
  0
ARC
  5
126
330
1F
100
AcDbEntity
  8
4
  6
PHANTOM
 62
     2
370
     9
100
AcDbCircle
 10
33149.38090691331
 20
20981.76645197237
 30
0.0
 40
15.00000000000909
100
AcDbArc
 50
90.0000000000278
 51
179.9999999999861
  0
ARC
  5
127
330
1F
100
AcDbEntity
  8
4
  6
PHANTOM
 62
     2
370
     9
100
AcDbCircle
 10
33149.38090691331
 20
21002.76645197235
 30
0.0
 40
5.999999999985448
100
AcDbArc
 50
269.9999999999302
 51
0.0000000001389606
  0
POLYLINE
  5
128
330
1F
100
AcDbEntity
  8
4
  6
PHANTOM
 62
     2
370
     9
100
AcDb2dPolyline
 66
     1
 10
0.0
 20
0.0
 30
0.0
  0
VERTEX
  5
129
330
128
100
AcDbEntity
  8
4
  6
PHANTOM
 62
     2
370
     9
100
AcDbVertex
100
AcDb2dVertex
 10
33155.38090691331
 20
21002.76645197237
 30
0.0
  0
VERTEX
  5
12A
330
128
100
AcDbEntity
  8
4
  6
PHANTOM
 62
     2
370
     9
100
AcDbVertex
100
AcDb2dVertex
 10
33155.38090691331
 20
21064.12840389372
 30
0.0
  0
SEQEND
  5
12B
330
128
100
AcDbEntity
  8
4
  6
PHANTOM
 62
     2
370
     9
  0
ARC
  5
12C
330
1F
100
AcDbEntity
  8
4
  6
PHANTOM
 62
     2
370
     9
100
AcDbCircle
 10
33149.3809069133
 20
21064.12840389372
 30
0.0
 40
6.000000000001819
100
AcDbArc
 50
359.9999999999302
 51
89.99999999993052
  0
POLYLINE
  5
12D
330
1F
100
AcDbEntity
  8
4
  6
PHANTOM
 62
     2
370
     9
100
AcDb2dPolyline
 66
     1
 10
0.0
 20
0.0
 30
0.0
  0
VERTEX
  5
12E
330
12D
100
AcDbEntity
  8
4
  6
PHANTOM
 62
     2
370
     9
100
AcDbVertex
100
AcDb2dVertex
 10
33149.38090691331
 20
21070.12840389372
 30
0.0
  0
VERTEX
  5
12F
330
12D
100
AcDbEntity
  8
4
  6
PHANTOM
 62
     2
370
     9
100
AcDbVertex
100
AcDb2dVertex
 10
33035.38090691331
 20
21070.12840389372
 30
0.0
  0
SEQEND
  5
130
330
12D
100
AcDbEntity
  8
4
  6
PHANTOM
 62
     2
370
     9
  0
ARC
  5
131
330
1F
100
AcDbEntity
  8
4
  6
PHANTOM
 62
     2
370
     9
100
AcDbCircle
 10
33035.38090691331
 20
21064.12840389372
 30
0.0
 40
5.999999999998181
100
AcDbArc
 50
90.00000000006949
 51
180.0000000000344
  0
POLYLINE
  5
132
330
1F
100
AcDbEntity
  8
4
  6
PHANTOM
 62
     2
370
     9
100
AcDb2dPolyline
 66
     1
 10
0.0
 20
0.0
 30
0.0
  0
VERTEX
  5
133
330
132
100
AcDbEntity
  8
4
  6
PHANTOM
 62
     2
370
     9
100
AcDbVertex
100
AcDb2dVertex
 10
33029.38090691331
 20
21064.12840389372
 30
0.0
  0
VERTEX
  5
134
330
132
100
AcDbEntity
  8
4
  6
PHANTOM
 62
     2
370
     9
100
AcDbVertex
100
AcDb2dVertex
 10
33029.38090691331
 20
21002.76645197237
 30
0.0
  0
SEQEND
  5
135
330
132
100
AcDbEntity
  8
4
  6
PHANTOM
 62
     2
370
     9
  0
ARC
  5
136
330
1F
100
AcDbEntity
  8
4
  6
PHANTOM
 62
     2
370
     9
100
AcDbCircle
 10
33035.38090691331
 20
21002.76645197235
 30
0.0
 40
6.000000000003638
100
AcDbArc
 50
179.999999999861
 51
269.9999999999998
  0
ARC
  5
137
330
1F
100
AcDbEntity
  8
4
  6
PHANTOM
 62
     2
370
     9
100
AcDbCircle
 10
33035.3809069133
 20
20981.76645197236
 30
0.0
 40
15.00000000000909
100
AcDbArc
 50
0.0000000000277921
 51
89.99999999997222
  0
POLYLINE
  5
138
330
1F
100
AcDbEntity
  8
4
  6
PHANTOM
 62
     2
370
     9
100
AcDb2dPolyline
 66
     1
 10
0.0
 20
0.0
 30
0.0
  0
VERTEX
  5
139
330
138
100
AcDbEntity
  8
4
  6
PHANTOM
 62
     2
370
     9
100
AcDbVertex
100
AcDb2dVertex
 10
33050.38090691331
 20
20981.76645197237
 30
0.0
  0
VERTEX
  5
13A
330
138
100
AcDbEntity
  8
4
  6
PHANTOM
 62
     2
370
     9
100
AcDbVertex
100
AcDb2dVertex
 10
33050.38090691331
 20
20948.62840389372
 30
0.0
  0
SEQEND
  5
13B
330
138
100
AcDbEntity
  8
4
  6
PHANTOM
 62
     2
370
     9
  0
POLYLINE
  5
13C
330
1F
100
AcDbEntity
  8
4
  6
PHANTOM
 62
     2
370
     9
100
AcDb2dPolyline
 66
     1
 10
0.0
 20
0.0
 30
0.0
  0
VERTEX
  5
13D
330
13C
100
AcDbEntity
  8
4
  6
PHANTOM
 62
     2
370
     9
100
AcDbVertex
100
AcDb2dVertex
 10
33143.38090691331
 20
21070.12840389372
 30
0.0
  0
VERTEX
  5
13E
330
13C
100
AcDbEntity
  8
4
  6
PHANTOM
 62
     2
370
     9
100
AcDbVertex
100
AcDb2dVertex
 10
33143.38090691331
 20
21132.64155684715
 30
0.0
  0
SEQEND
  5
13F
330
13C
100
AcDbEntity
  8
4
  6
PHANTOM
 62
     2
370
     9
  0
ARC
  5
140
330
1F
100
AcDbEntity
  8
4
  6
PHANTOM
 62
     2
370
     9
100
AcDbCircle
 10
33117.88090691331
 20
21146.81655684715
 30
0.0
 40
29.17499999999927
100
AcDbArc
 50
209.0689101610786
 51
330.9310898389206
  0
ARC
  5
141
330
1F
100
AcDbEntity
  8
4
  6
PHANTOM
 62
     2
370
     9
100
AcDbCircle
 10
33066.88090691331
 20
21118.46655684715
 30
0.0
 40
29.17499999999927
100
AcDbArc
 50
29.068910161079
 51
150.931089838921
  0
POLYLINE
  5
142
330
1F
100
AcDbEntity
  8
4
  6
PHANTOM
 62
     2
370
     9
100
AcDb2dPolyline
 66
     1
 10
0.0
 20
0.0
 30
0.0
  0
VERTEX
  5
143
330
142
100
AcDbEntity
  8
4
  6
PHANTOM
 62
     2
370
     9
100
AcDbVertex
100
AcDb2dVertex
 10
33041.38090691331
 20
21132.64155684715
 30
0.0
  0
VERTEX
  5
144
330
142
100
AcDbEntity
  8
4
  6
PHANTOM
 62
     2
370
     9
100
AcDbVertex
100
AcDb2dVertex
 10
33041.38090691331
 20
21070.12840389372
 30
0.0
  0
SEQEND
  5
145
330
142
100
AcDbEntity
  8
4
  6
PHANTOM
 62
     2
370
     9
  0
ARC
  5
146
330
1F
100
AcDbEntity
  8
4
  6
PHANTOM
 62
     2
370
     9
100
AcDbCircle
 10
33117.88090691331
 20
21118.46655684715
 30
0.0
 40
29.17499999999927
100
AcDbArc
 50
29.068910161079
 51
150.9310898389272
  0
LINE
  5
147
330
1F
100
AcDbEntity
  8
9
  6
Continuous
 62
     7
370
    30
100
AcDbLine
 10
33013.33115722735
 20
20925.79675717653
 30
0.0
 11
33092.38115722736
 21
20925.79675717653
 31
0.0
  0
LINE
  5
148
330
1F
100
AcDbEntity
  8
9
  6
Continuous
 62
     7
370
    30
100
AcDbLine
 10
33171.43115722735
 20
20925.79675717653
 30
0.0
 11
33092.38115722736
 21
20925.79675717653
 31
0.0
  0
ARC
  5
149
330
1F
100
AcDbEntity
  8
9
  6
Continuous
 62
     7
370
    30
100
AcDbCircle
 10
33230.58169054294
 20
20868.19675717653
 30
0.0
 40
60.0
100
AcDbArc
 50
0.0
 51
89.99999999999991
  0
ARC
  5
14A
330
1F
100
AcDbEntity
  8
9
  6
Continuous
 62
     7
370
    30
100
AcDbCircle
 10
32942.80417370012
 20
20868.19675717653
 30
0.0
 40
60.0
100
AcDbArc
 50
89.99999999999991
 51
179.9999999999998
  0
POLYLINE
  5
14B
330
1F
100
AcDbEntity
  8
9
  6
Continuous
 62
     7
370
    30
100
AcDb2dPolyline
 66
     1
 10
0.0
 20
0.0
 30
0.0
  0
VERTEX
  5
14C
330
14B
100
AcDbEntity
  8
9
  6
Continuous
 62
     7
370
    30
100
AcDbVertex
100
AcDb2dVertex
 10
32967.17256431453
 20
20934.19675717653
 30
0.0
  0
VERTEX
  5
14D
330
14B
100
AcDbEntity
  8
9
  6
Continuous
 62
     7
370
    30
100
AcDbVertex
100
AcDb2dVertex
 10
32968.35102502249
 20
20932.87373719773
 30
0.0
  0
VERTEX
  5
14E
330
14B
100
AcDbEntity
  8
9
  6
Continuous
 62
     7
370
    30
100
AcDbVertex
100
AcDb2dVertex
 10
32969.3091054827
 20
20931.38850670406
 30
0.0
  0
VERTEX
  5
14F
330
14B
100
AcDbEntity
  8
9
  6
Continuous
 62
     7
370
    30
100
AcDbVertex
100
AcDb2dVertex
 10
32969.70627562876
 20
20929.91516023646
 30
0.0
  0
VERTEX
  5
150
330
14B
100
AcDbEntity
  8
9
  6
Continuous
 62
     7
370
    30
100
AcDbVertex
100
AcDb2dVertex
 10
32969.41732214482
 20
20928.45426368721
 30
0.0
  0
VERTEX
  5
151
330
14B
100
AcDbEntity
  8
9
  6
Continuous
 62
     7
370
    30
100
AcDbVertex
100
AcDb2dVertex
 10
32968.56405887043
 20
20927.00185569729
 30
0.0
  0
VERTEX
  5
152
330
14B
100
AcDbEntity
  8
9
  6
Continuous
 62
     7
370
    30
100
AcDbVertex
100
AcDb2dVertex
 10
32967.33005643402
 20
20925.55284309489
 30
0.0
  0
VERTEX
  5
153
330
14B
100
AcDbEntity
  8
9
  6
Continuous
 62
     7
370
    30
100
AcDbVertex
100
AcDb2dVertex
 10
32965.89888546399
 20
20924.10213270819
 30
0.0
  0
VERTEX
  5
154
330
14B
100
AcDbEntity
  8
9
  6
Continuous
 62
     7
370
    30
100
AcDbVertex
100
AcDb2dVertex
 10
32964.45411658878
 20
20922.64463136539
 30
0.0
  0
VERTEX
  5
155
330
14B
100
AcDbEntity
  8
9
  6
Continuous
 62
     7
370
    30
100
AcDbVertex
100
AcDb2dVertex
 10
32963.1793204368
 20
20921.17524589466
 30
0.0
  0
VERTEX
  5
156
330
14B
100
AcDbEntity
  8
9
  6
Continuous
 62
     7
370
    30
100
AcDbVertex
100
AcDb2dVertex
 10
32962.25806763647
 20
20919.6888831242
 30
0.0
  0
VERTEX
  5
157
330
14B
100
AcDbEntity
  8
9
  6
Continuous
 62
     7
370
    30
100
AcDbVertex
100
AcDb2dVertex
 10
32961.87392881622
 20
20918.18044988217
 30
0.0
  0
VERTEX
  5
158
330
14B
100
AcDbEntity
  8
9
  6
Continuous
 62
     7
370
    30
100
AcDbVertex
100
AcDb2dVertex
 10
32962.15013426405
 20
20916.64457003838
 30
0.0
  0
VERTEX
  5
159
330
14B
100
AcDbEntity
  8
9
  6
Continuous
 62
     7
370
    30
100
AcDbVertex
100
AcDb2dVertex
 10
32962.96855290639
 20
20915.07473562905
 30
0.0
  0
VERTEX
  5
15A
330
14B
100
AcDbEntity
  8
9
  6
Continuous
 62
     7
370
    30
100
AcDbVertex
100
AcDb2dVertex
 10
32964.15071332928
 20
20913.46415573203
 30
0.0
  0
VERTEX
  5
15B
330
14B
100
AcDbEntity
  8
9
  6
Continuous
 62
     7
370
    30
100
AcDbVertex
100
AcDb2dVertex
 10
32965.51814411873
 20
20911.80603942515
 30
0.0
  0
VERTEX
  5
15C
330
14B
100
AcDbEntity
  8
9
  6
Continuous
 62
     7
370
    30
100
AcDbVertex
100
AcDb2dVertex
 10
32966.89237386078
 20
20910.09359578626
 30
0.0
  0
VERTEX
  5
15D
330
14B
100
AcDbEntity
  8
9
  6
Continuous
 62
     7
370
    30
100
AcDbVertex
100
AcDb2dVertex
 10
32968.09493114145
 20
20908.32003389319
 30
0.0
  0
VERTEX
  5
15E
330
14B
100
AcDbEntity
  8
9
  6
Continuous
 62
     7
370
    30
100
AcDbVertex
100
AcDb2dVertex
 10
32968.94734454677
 20
20906.47856282379
 30
0.0
  0
VERTEX
  5
15F
330
14B
100
AcDbEntity
  8
9
  6
Continuous
 62
     7
370
    30
100
AcDbVertex
100
AcDb2dVertex
 10
32969.27114266275
 20
20904.56239165589
 30
0.0
  0
VERTEX
  5
160
330
14B
100
AcDbEntity
  8
9
  6
Continuous
 62
     7
370
    30
100
AcDbVertex
100
AcDb2dVertex
 10
32968.94677797244
 20
20902.56982265613
 30
0.0
  0
VERTEX
  5
161
330
14B
100
AcDbEntity
  8
9
  6
Continuous
 62
     7
370
    30
100
AcDbVertex
100
AcDb2dVertex
 10
32968.09039854682
 20
20900.5195308463
 30
0.0
  0
VERTEX
  5
162
330
14B
100
AcDbEntity
  8
9
  6
Continuous
 62
     7
370
    30
100
AcDbVertex
100
AcDb2dVertex
 10
32966.8770763539
 20
20898.43528443698
 30
0.0
  0
VERTEX
  5
163
330
14B
100
AcDbEntity
  8
9
  6
Continuous
 62
     7
370
    30
100
AcDbVertex
100
AcDb2dVertex
 10
32965.48188336167
 20
20896.34085163877
 30
0.0
  0
VERTEX
  5
164
330
14B
100
AcDbEntity
  8
9
  6
Continuous
 62
     7
370
    30
100
AcDbVertex
100
AcDb2dVertex
 10
32964.07989153815
 20
20894.26000066224
 30
0.0
  0
VERTEX
  5
165
330
14B
100
AcDbEntity
  8
9
  6
Continuous
 62
     7
370
    30
100
AcDbVertex
100
AcDb2dVertex
 10
32962.84617285132
 20
20892.21649971799
 30
0.0
  0
VERTEX
  5
166
330
14B
100
AcDbEntity
  8
9
  6
Continuous
 62
     7
370
    30
100
AcDbVertex
100
AcDb2dVertex
 10
32961.95579926918
 20
20890.23411701659
 30
0.0
  0
VERTEX
  5
167
330
14B
100
AcDbEntity
  8
9
  6
Continuous
 62
     7
370
    30
100
AcDbVertex
100
AcDb2dVertex
 10
32961.58384275974
 20
20888.33662076864
 30
0.0
  0
VERTEX
  5
168
330
14B
100
AcDbEntity
  8
9
  6
Continuous
 62
     7
370
    30
100
AcDbVertex
100
AcDb2dVertex
 10
32961.8464513839
 20
20886.53985644786
 30
0.0
  0
VERTEX
  5
169
330
14B
100
AcDbEntity
  8
9
  6
Continuous
 62
     7
370
    30
100
AcDbVertex
100
AcDb2dVertex
 10
32962.62407757412
 20
20884.82797858051
 30
0.0
  0
VERTEX
  5
16A
330
14B
100
AcDbEntity
  8
9
  6
Continuous
 62
     7
370
    30
100
AcDbVertex
100
AcDb2dVertex
 10
32963.73824985581
 20
20883.17721895603
 30
0.0
  0
VERTEX
  5
16B
330
14B
100
AcDbEntity
  8
9
  6
Continuous
 62
     7
370
    30
100
AcDbVertex
100
AcDb2dVertex
 10
32965.01049675433
 20
20881.56380936383
 30
0.0
  0
VERTEX
  5
16C
330
14B
100
AcDbEntity
  8
9
  6
Continuous
 62
     7
370
    30
100
AcDbVertex
100
AcDb2dVertex
 10
32966.26234679507
 20
20879.9639815933
 30
0.0
  0
VERTEX
  5
16D
330
14B
100
AcDbEntity
  8
9
  6
Continuous
 62
     7
370
    30
100
AcDbVertex
100
AcDb2dVertex
 10
32967.31532850341
 20
20878.35396743388
 30
0.0
  0
VERTEX
  5
16E
330
14B
100
AcDbEntity
  8
9
  6
Continuous
 62
     7
370
    30
100
AcDbVertex
100
AcDb2dVertex
 10
32967.99097040472
 20
20876.70999867498
 30
0.0
  0
VERTEX
  5
16F
330
14B
100
AcDbEntity
  8
9
  6
Continuous
 62
     7
370
    30
100
AcDbVertex
100
AcDb2dVertex
 10
32968.11080102441
 20
20875.00830710601
 30
0.0
  0
VERTEX
  5
170
330
14B
100
AcDbEntity
  8
9
  6
Continuous
 62
     7
370
    30
100
AcDbVertex
100
AcDb2dVertex
 10
32967.56362980293
 20
20873.22767111266
 30
0.0
  0
VERTEX
  5
171
330
14B
100
AcDbEntity
  8
9
  6
Continuous
 62
     7
370
    30
100
AcDbVertex
100
AcDb2dVertex
 10
32966.50738984114
 20
20871.35705546576
 30
0.0
  0
VERTEX
  5
172
330
14B
100
AcDbEntity
  8
9
  6
Continuous
 62
     7
370
    30
100
AcDbVertex
100
AcDb2dVertex
 10
32965.16729515502
 20
20869.38797153241
 30
0.0
  0
VERTEX
  5
173
330
14B
100
AcDbEntity
  8
9
  6
Continuous
 62
     7
370
    30
100
AcDbVertex
100
AcDb2dVertex
 10
32963.76855976052
 20
20867.31193067972
 30
0.0
  0
VERTEX
  5
174
330
14B
100
AcDbEntity
  8
9
  6
Continuous
 62
     7
370
    30
100
AcDbVertex
100
AcDb2dVertex
 10
32962.5363976736
 20
20865.12044427479
 30
0.0
  0
VERTEX
  5
175
330
14B
100
AcDbEntity
  8
9
  6
Continuous
 62
     7
370
    30
100
AcDbVertex
100
AcDb2dVertex
 10
32961.69602291023
 20
20862.80502368472
 30
0.0
  0
VERTEX
  5
176
330
14B
100
AcDbEntity
  8
9
  6
Continuous
 62
     7
370
    30
100
AcDbVertex
100
AcDb2dVertex
 10
32961.64051667477
 20
20862.19675717653
 30
0.0
  0
SEQEND
  5
177
330
14B
100
AcDbEntity
  8
9
  6
Continuous
 62
     7
370
    30
  0
POLYLINE
  5
178
330
1F
100
AcDbEntity
  8
9
  6
Continuous
 62
     7
370
    30
100
AcDb2dPolyline
 66
     1
 10
0.0
 20
0.0
 30
0.0
  0
VERTEX
  5
179
330
178
100
AcDbEntity
  8
9
  6
Continuous
 62
     7
370
    30
100
AcDbVertex
100
AcDb2dVertex
 10
32973.17256431453
 20
20934.19675717653
 30
0.0
  0
VERTEX
  5
17A
330
178
100
AcDbEntity
  8
9
  6
Continuous
 62
     7
370
    30
100
AcDbVertex
100
AcDb2dVertex
 10
32974.35102502249
 20
20932.87373719773
 30
0.0
  0
VERTEX
  5
17B
330
178
100
AcDbEntity
  8
9
  6
Continuous
 62
     7
370
    30
100
AcDbVertex
100
AcDb2dVertex
 10
32975.3091054827
 20
20931.38850670406
 30
0.0
  0
VERTEX
  5
17C
330
178
100
AcDbEntity
  8
9
  6
Continuous
 62
     7
370
    30
100
AcDbVertex
100
AcDb2dVertex
 10
32975.70627562876
 20
20929.91516023646
 30
0.0
  0
VERTEX
  5
17D
330
178
100
AcDbEntity
  8
9
  6
Continuous
 62
     7
370
    30
100
AcDbVertex
100
AcDb2dVertex
 10
32975.41732214482
 20
20928.45426368721
 30
0.0
  0
VERTEX
  5
17E
330
178
100
AcDbEntity
  8
9
  6
Continuous
 62
     7
370
    30
100
AcDbVertex
100
AcDb2dVertex
 10
32974.56405887043
 20
20927.00185569729
 30
0.0
  0
VERTEX
  5
17F
330
178
100
AcDbEntity
  8
9
  6
Continuous
 62
     7
370
    30
100
AcDbVertex
100
AcDb2dVertex
 10
32973.33005643402
 20
20925.55284309489
 30
0.0
  0
VERTEX
  5
180
330
178
100
AcDbEntity
  8
9
  6
Continuous
 62
     7
370
    30
100
AcDbVertex
100
AcDb2dVertex
 10
32971.89888546399
 20
20924.10213270819
 30
0.0
  0
VERTEX
  5
181
330
178
100
AcDbEntity
  8
9
  6
Continuous
 62
     7
370
    30
100
AcDbVertex
100
AcDb2dVertex
 10
32970.45411658878
 20
20922.64463136539
 30
0.0
  0
VERTEX
  5
182
330
178
100
AcDbEntity
  8
9
  6
Continuous
 62
     7
370
    30
100
AcDbVertex
100
AcDb2dVertex
 10
32969.1793204368
 20
20921.17524589466
 30
0.0
  0
VERTEX
  5
183
330
178
100
AcDbEntity
  8
9
  6
Continuous
 62
     7
370
    30
100
AcDbVertex
100
AcDb2dVertex
 10
32968.25806763647
 20
20919.6888831242
 30
0.0
  0
VERTEX
  5
184
330
178
100
AcDbEntity
  8
9
  6
Continuous
 62
     7
370
    30
100
AcDbVertex
100
AcDb2dVertex
 10
32967.87392881622
 20
20918.18044988217
 30
0.0
  0
VERTEX
  5
185
330
178
100
AcDbEntity
  8
9
  6
Continuous
 62
     7
370
    30
100
AcDbVertex
100
AcDb2dVertex
 10
32968.15013426405
 20
20916.64457003838
 30
0.0
  0
VERTEX
  5
186
330
178
100
AcDbEntity
  8
9
  6
Continuous
 62
     7
370
    30
100
AcDbVertex
100
AcDb2dVertex
 10
32968.96855290639
 20
20915.07473562905
 30
0.0
  0
VERTEX
  5
187
330
178
100
AcDbEntity
  8
9
  6
Continuous
 62
     7
370
    30
100
AcDbVertex
100
AcDb2dVertex
 10
32970.15071332928
 20
20913.46415573203
 30
0.0
  0
VERTEX
  5
188
330
178
100
AcDbEntity
  8
9
  6
Continuous
 62
     7
370
    30
100
AcDbVertex
100
AcDb2dVertex
 10
32971.51814411873
 20
20911.80603942515
 30
0.0
  0
VERTEX
  5
189
330
178
100
AcDbEntity
  8
9
  6
Continuous
 62
     7
370
    30
100
AcDbVertex
100
AcDb2dVertex
 10
32972.89237386078
 20
20910.09359578626
 30
0.0
  0
VERTEX
  5
18A
330
178
100
AcDbEntity
  8
9
  6
Continuous
 62
     7
370
    30
100
AcDbVertex
100
AcDb2dVertex
 10
32974.09493114145
 20
20908.32003389319
 30
0.0
  0
VERTEX
  5
18B
330
178
100
AcDbEntity
  8
9
  6
Continuous
 62
     7
370
    30
100
AcDbVertex
100
AcDb2dVertex
 10
32974.94734454677
 20
20906.47856282379
 30
0.0
  0
VERTEX
  5
18C
330
178
100
AcDbEntity
  8
9
  6
Continuous
 62
     7
370
    30
100
AcDbVertex
100
AcDb2dVertex
 10
32975.27114266275
 20
20904.56239165589
 30
0.0
  0
VERTEX
  5
18D
330
178
100
AcDbEntity
  8
9
  6
Continuous
 62
     7
370
    30
100
AcDbVertex
100
AcDb2dVertex
 10
32974.94677797244
 20
20902.56982265613
 30
0.0
  0
VERTEX
  5
18E
330
178
100
AcDbEntity
  8
9
  6
Continuous
 62
     7
370
    30
100
AcDbVertex
100
AcDb2dVertex
 10
32974.09039854682
 20
20900.5195308463
 30
0.0
  0
VERTEX
  5
18F
330
178
100
AcDbEntity
  8
9
  6
Continuous
 62
     7
370
    30
100
AcDbVertex
100
AcDb2dVertex
 10
32972.8770763539
 20
20898.43528443698
 30
0.0
  0
VERTEX
  5
190
330
178
100
AcDbEntity
  8
9
  6
Continuous
 62
     7
370
    30
100
AcDbVertex
100
AcDb2dVertex
 10
32971.48188336167
 20
20896.34085163877
 30
0.0
  0
VERTEX
  5
191
330
178
100
AcDbEntity
  8
9
  6
Continuous
 62
     7
370
    30
100
AcDbVertex
100
AcDb2dVertex
 10
32970.07989153815
 20
20894.26000066224
 30
0.0
  0
VERTEX
  5
192
330
178
100
AcDbEntity
  8
9
  6
Continuous
 62
     7
370
    30
100
AcDbVertex
100
AcDb2dVertex
 10
32968.84617285132
 20
20892.21649971799
 30
0.0
  0
VERTEX
  5
193
330
178
100
AcDbEntity
  8
9
  6
Continuous
 62
     7
370
    30
100
AcDbVertex
100
AcDb2dVertex
 10
32967.95579926918
 20
20890.23411701659
 30
0.0
  0
VERTEX
  5
194
330
178
100
AcDbEntity
  8
9
  6
Continuous
 62
     7
370
    30
100
AcDbVertex
100
AcDb2dVertex
 10
32967.58384275974
 20
20888.33662076864
 30
0.0
  0
VERTEX
  5
195
330
178
100
AcDbEntity
  8
9
  6
Continuous
 62
     7
370
    30
100
AcDbVertex
100
AcDb2dVertex
 10
32967.8464513839
 20
20886.53985644786
 30
0.0
  0
VERTEX
  5
196
330
178
100
AcDbEntity
  8
9
  6
Continuous
 62
     7
370
    30
100
AcDbVertex
100
AcDb2dVertex
 10
32968.62407757412
 20
20884.82797858051
 30
0.0
  0
VERTEX
  5
197
330
178
100
AcDbEntity
  8
9
  6
Continuous
 62
     7
370
    30
100
AcDbVertex
100
AcDb2dVertex
 10
32969.73824985581
 20
20883.17721895603
 30
0.0
  0
VERTEX
  5
198
330
178
100
AcDbEntity
  8
9
  6
Continuous
 62
     7
370
    30
100
AcDbVertex
100
AcDb2dVertex
 10
32971.01049675433
 20
20881.56380936383
 30
0.0
  0
VERTEX
  5
199
330
178
100
AcDbEntity
  8
9
  6
Continuous
 62
     7
370
    30
100
AcDbVertex
100
AcDb2dVertex
 10
32972.26234679507
 20
20879.9639815933
 30
0.0
  0
VERTEX
  5
19A
330
178
100
AcDbEntity
  8
9
  6
Continuous
 62
     7
370
    30
100
AcDbVertex
100
AcDb2dVertex
 10
32973.31532850341
 20
20878.35396743388
 30
0.0
  0
VERTEX
  5
19B
330
178
100
AcDbEntity
  8
9
  6
Continuous
 62
     7
370
    30
100
AcDbVertex
100
AcDb2dVertex
 10
32973.99097040472
 20
20876.70999867498
 30
0.0
  0
VERTEX
  5
19C
330
178
100
AcDbEntity
  8
9
  6
Continuous
 62
     7
370
    30
100
AcDbVertex
100
AcDb2dVertex
 10
32974.11080102441
 20
20875.00830710601
 30
0.0
  0
VERTEX
  5
19D
330
178
100
AcDbEntity
  8
9
  6
Continuous
 62
     7
370
    30
100
AcDbVertex
100
AcDb2dVertex
 10
32973.56362980293
 20
20873.22767111266
 30
0.0
  0
VERTEX
  5
19E
330
178
100
AcDbEntity
  8
9
  6
Continuous
 62
     7
370
    30
100
AcDbVertex
100
AcDb2dVertex
 10
32972.50738984114
 20
20871.35705546576
 30
0.0
  0
VERTEX
  5
19F
330
178
100
AcDbEntity
  8
9
  6
Continuous
 62
     7
370
    30
100
AcDbVertex
100
AcDb2dVertex
 10
32971.16729515502
 20
20869.38797153241
 30
0.0
  0
VERTEX
  5
1A0
330
178
100
AcDbEntity
  8
9
  6
Continuous
 62
     7
370
    30
100
AcDbVertex
100
AcDb2dVertex
 10
32969.76855976052
 20
20867.31193067972
 30
0.0
  0
VERTEX
  5
1A1
330
178
100
AcDbEntity
  8
9
  6
Continuous
 62
     7
370
    30
100
AcDbVertex
100
AcDb2dVertex
 10
32968.5363976736
 20
20865.12044427479
 30
0.0
  0
VERTEX
  5
1A2
330
178
100
AcDbEntity
  8
9
  6
Continuous
 62
     7
370
    30
100
AcDbVertex
100
AcDb2dVertex
 10
32967.69602291023
 20
20862.80502368472
 30
0.0
  0
VERTEX
  5
1A3
330
178
100
AcDbEntity
  8
9
  6
Continuous
 62
     7
370
    30
100
AcDbVertex
100
AcDb2dVertex
 10
32967.64051667477
 20
20862.19675717653
 30
0.0
  0
SEQEND
  5
1A4
330
178
100
AcDbEntity
  8
9
  6
Continuous
 62
     7
370
    30
  0
POLYLINE
  5
1A5
330
1F
100
AcDbEntity
  8
9
  6
Continuous
 62
     7
370
    30
100
AcDb2dPolyline
 66
     1
 10
0.0
 20
0.0
 30
0.0
  0
VERTEX
  5
1A6
330
1A5
100
AcDbEntity
  8
9
  6
Continuous
 62
     7
370
    30
100
AcDbVertex
100
AcDb2dVertex
 10
33211.95900071705
 20
20934.19675717653
 30
0.0
  0
VERTEX
  5
1A7
330
1A5
100
AcDbEntity
  8
9
  6
Continuous
 62
     7
370
    30
100
AcDbVertex
100
AcDb2dVertex
 10
33213.13746142501
 20
20932.87373719773
 30
0.0
  0
VERTEX
  5
1A8
330
1A5
100
AcDbEntity
  8
9
  6
Continuous
 62
     7
370
    30
100
AcDbVertex
100
AcDb2dVertex
 10
33214.09554188522
 20
20931.38850670406
 30
0.0
  0
VERTEX
  5
1A9
330
1A5
100
AcDbEntity
  8
9
  6
Continuous
 62
     7
370
    30
100
AcDbVertex
100
AcDb2dVertex
 10
33214.49271203128
 20
20929.91516023646
 30
0.0
  0
VERTEX
  5
1AA
330
1A5
100
AcDbEntity
  8
9
  6
Continuous
 62
     7
370
    30
100
AcDbVertex
100
AcDb2dVertex
 10
33214.20375854734
 20
20928.45426368721
 30
0.0
  0
VERTEX
  5
1AB
330
1A5
100
AcDbEntity
  8
9
  6
Continuous
 62
     7
370
    30
100
AcDbVertex
100
AcDb2dVertex
 10
33213.35049527295
 20
20927.00185569729
 30
0.0
  0
VERTEX
  5
1AC
330
1A5
100
AcDbEntity
  8
9
  6
Continuous
 62
     7
370
    30
100
AcDbVertex
100
AcDb2dVertex
 10
33212.11649283653
 20
20925.55284309489
 30
0.0
  0
VERTEX
  5
1AD
330
1A5
100
AcDbEntity
  8
9
  6
Continuous
 62
     7
370
    30
100
AcDbVertex
100
AcDb2dVertex
 10
33210.68532186651
 20
20924.10213270819
 30
0.0
  0
VERTEX
  5
1AE
330
1A5
100
AcDbEntity
  8
9
  6
Continuous
 62
     7
370
    30
100
AcDbVertex
100
AcDb2dVertex
 10
33209.24055299129
 20
20922.64463136539
 30
0.0
  0
VERTEX
  5
1AF
330
1A5
100
AcDbEntity
  8
9
  6
Continuous
 62
     7
370
    30
100
AcDbVertex
100
AcDb2dVertex
 10
33207.96575683932
 20
20921.17524589466
 30
0.0
  0
VERTEX
  5
1B0
330
1A5
100
AcDbEntity
  8
9
  6
Continuous
 62
     7
370
    30
100
AcDbVertex
100
AcDb2dVertex
 10
33207.04450403899
 20
20919.6888831242
 30
0.0
  0
VERTEX
  5
1B1
330
1A5
100
AcDbEntity
  8
9
  6
Continuous
 62
     7
370
    30
100
AcDbVertex
100
AcDb2dVertex
 10
33206.66036521873
 20
20918.18044988217
 30
0.0
  0
VERTEX
  5
1B2
330
1A5
100
AcDbEntity
  8
9
  6
Continuous
 62
     7
370
    30
100
AcDbVertex
100
AcDb2dVertex
 10
33206.93657066656
 20
20916.64457003838
 30
0.0
  0
VERTEX
  5
1B3
330
1A5
100
AcDbEntity
  8
9
  6
Continuous
 62
     7
370
    30
100
AcDbVertex
100
AcDb2dVertex
 10
33207.75498930891
 20
20915.07473562905
 30
0.0
  0
VERTEX
  5
1B4
330
1A5
100
AcDbEntity
  8
9
  6
Continuous
 62
     7
370
    30
100
AcDbVertex
100
AcDb2dVertex
 10
33208.93714973179
 20
20913.46415573203
 30
0.0
  0
VERTEX
  5
1B5
330
1A5
100
AcDbEntity
  8
9
  6
Continuous
 62
     7
370
    30
100
AcDbVertex
100
AcDb2dVertex
 10
33210.30458052125
 20
20911.80603942515
 30
0.0
  0
VERTEX
  5
1B6
330
1A5
100
AcDbEntity
  8
9
  6
Continuous
 62
     7
370
    30
100
AcDbVertex
100
AcDb2dVertex
 10
33211.6788102633
 20
20910.09359578626
 30
0.0
  0
VERTEX
  5
1B7
330
1A5
100
AcDbEntity
  8
9
  6
Continuous
 62
     7
370
    30
100
AcDbVertex
100
AcDb2dVertex
 10
33212.88136754397
 20
20908.32003389319
 30
0.0
  0
VERTEX
  5
1B8
330
1A5
100
AcDbEntity
  8
9
  6
Continuous
 62
     7
370
    30
100
AcDbVertex
100
AcDb2dVertex
 10
33213.73378094928
 20
20906.47856282379
 30
0.0
  0
VERTEX
  5
1B9
330
1A5
100
AcDbEntity
  8
9
  6
Continuous
 62
     7
370
    30
100
AcDbVertex
100
AcDb2dVertex
 10
33214.05757906527
 20
20904.56239165589
 30
0.0
  0
VERTEX
  5
1BA
330
1A5
100
AcDbEntity
  8
9
  6
Continuous
 62
     7
370
    30
100
AcDbVertex
100
AcDb2dVertex
 10
33213.73321437495
 20
20902.56982265613
 30
0.0
  0
VERTEX
  5
1BB
330
1A5
100
AcDbEntity
  8
9
  6
Continuous
 62
     7
370
    30
100
AcDbVertex
100
AcDb2dVertex
 10
33212.87683494933
 20
20900.5195308463
 30
0.0
  0
VERTEX
  5
1BC
330
1A5
100
AcDbEntity
  8
9
  6
Continuous
 62
     7
370
    30
100
AcDbVertex
100
AcDb2dVertex
 10
33211.66351275642
 20
20898.43528443698
 30
0.0
  0
VERTEX
  5
1BD
330
1A5
100
AcDbEntity
  8
9
  6
Continuous
 62
     7
370
    30
100
AcDbVertex
100
AcDb2dVertex
 10
33210.26831976419
 20
20896.34085163877
 30
0.0
  0
VERTEX
  5
1BE
330
1A5
100
AcDbEntity
  8
9
  6
Continuous
 62
     7
370
    30
100
AcDbVertex
100
AcDb2dVertex
 10
33208.86632794066
 20
20894.26000066224
 30
0.0
  0
VERTEX
  5
1BF
330
1A5
100
AcDbEntity
  8
9
  6
Continuous
 62
     7
370
    30
100
AcDbVertex
100
AcDb2dVertex
 10
33207.63260925384
 20
20892.21649971799
 30
0.0
  0
VERTEX
  5
1C0
330
1A5
100
AcDbEntity
  8
9
  6
Continuous
 62
     7
370
    30
100
AcDbVertex
100
AcDb2dVertex
 10
33206.7422356717
 20
20890.23411701659
 30
0.0
  0
VERTEX
  5
1C1
330
1A5
100
AcDbEntity
  8
9
  6
Continuous
 62
     7
370
    30
100
AcDbVertex
100
AcDb2dVertex
 10
33206.37027916226
 20
20888.33662076864
 30
0.0
  0
VERTEX
  5
1C2
330
1A5
100
AcDbEntity
  8
9
  6
Continuous
 62
     7
370
    30
100
AcDbVertex
100
AcDb2dVertex
 10
33206.63288778641
 20
20886.53985644786
 30
0.0
  0
VERTEX
  5
1C3
330
1A5
100
AcDbEntity
  8
9
  6
Continuous
 62
     7
370
    30
100
AcDbVertex
100
AcDb2dVertex
 10
33207.41051397664
 20
20884.82797858051
 30
0.0
  0
VERTEX
  5
1C4
330
1A5
100
AcDbEntity
  8
9
  6
Continuous
 62
     7
370
    30
100
AcDbVertex
100
AcDb2dVertex
 10
33208.52468625832
 20
20883.17721895603
 30
0.0
  0
VERTEX
  5
1C5
330
1A5
100
AcDbEntity
  8
9
  6
Continuous
 62
     7
370
    30
100
AcDbVertex
100
AcDb2dVertex
 10
33209.79693315685
 20
20881.56380936383
 30
0.0
  0
VERTEX
  5
1C6
330
1A5
100
AcDbEntity
  8
9
  6
Continuous
 62
     7
370
    30
100
AcDbVertex
100
AcDb2dVertex
 10
33211.04878319758
 20
20879.9639815933
 30
0.0
  0
VERTEX
  5
1C7
330
1A5
100
AcDbEntity
  8
9
  6
Continuous
 62
     7
370
    30
100
AcDbVertex
100
AcDb2dVertex
 10
33212.10176490592
 20
20878.35396743388
 30
0.0
  0
VERTEX
  5
1C8
330
1A5
100
AcDbEntity
  8
9
  6
Continuous
 62
     7
370
    30
100
AcDbVertex
100
AcDb2dVertex
 10
33212.77740680724
 20
20876.70999867498
 30
0.0
  0
VERTEX
  5
1C9
330
1A5
100
AcDbEntity
  8
9
  6
Continuous
 62
     7
370
    30
100
AcDbVertex
100
AcDb2dVertex
 10
33212.89723742692
 20
20875.00830710601
 30
0.0
  0
VERTEX
  5
1CA
330
1A5
100
AcDbEntity
  8
9
  6
Continuous
 62
     7
370
    30
100
AcDbVertex
100
AcDb2dVertex
 10
33212.35006620544
 20
20873.22767111266
 30
0.0
  0
VERTEX
  5
1CB
330
1A5
100
AcDbEntity
  8
9
  6
Continuous
 62
     7
370
    30
100
AcDbVertex
100
AcDb2dVertex
 10
33211.29382624366
 20
20871.35705546576
 30
0.0
  0
VERTEX
  5
1CC
330
1A5
100
AcDbEntity
  8
9
  6
Continuous
 62
     7
370
    30
100
AcDbVertex
100
AcDb2dVertex
 10
33209.95373155754
 20
20869.38797153241
 30
0.0
  0
VERTEX
  5
1CD
330
1A5
100
AcDbEntity
  8
9
  6
Continuous
 62
     7
370
    30
100
AcDbVertex
100
AcDb2dVertex
 10
33208.55499616304
 20
20867.31193067972
 30
0.0
  0
VERTEX
  5
1CE
330
1A5
100
AcDbEntity
  8
9
  6
Continuous
 62
     7
370
    30
100
AcDbVertex
100
AcDb2dVertex
 10
33207.32283407612
 20
20865.12044427479
 30
0.0
  0
VERTEX
  5
1CF
330
1A5
100
AcDbEntity
  8
9
  6
Continuous
 62
     7
370
    30
100
AcDbVertex
100
AcDb2dVertex
 10
33206.48245931273
 20
20862.80502368472
 30
0.0
  0
VERTEX
  5
1D0
330
1A5
100
AcDbEntity
  8
9
  6
Continuous
 62
     7
370
    30
100
AcDbVertex
100
AcDb2dVertex
 10
33206.42695307728
 20
20862.19675717653
 30
0.0
  0
SEQEND
  5
1D1
330
1A5
100
AcDbEntity
  8
9
  6
Continuous
 62
     7
370
    30
  0
POLYLINE
  5
1D2
330
1F
100
AcDbEntity
  8
9
  6
Continuous
 62
     7
370
    30
100
AcDb2dPolyline
 66
     1
 10
0.0
 20
0.0
 30
0.0
  0
VERTEX
  5
1D3
330
1D2
100
AcDbEntity
  8
9
  6
Continuous
 62
     7
370
    30
100
AcDbVertex
100
AcDb2dVertex
 10
33205.95900071705
 20
20934.19675717653
 30
0.0
  0
VERTEX
  5
1D4
330
1D2
100
AcDbEntity
  8
9
  6
Continuous
 62
     7
370
    30
100
AcDbVertex
100
AcDb2dVertex
 10
33207.13746142501
 20
20932.87373719773
 30
0.0
  0
VERTEX
  5
1D5
330
1D2
100
AcDbEntity
  8
9
  6
Continuous
 62
     7
370
    30
100
AcDbVertex
100
AcDb2dVertex
 10
33208.09554188522
 20
20931.38850670406
 30
0.0
  0
VERTEX
  5
1D6
330
1D2
100
AcDbEntity
  8
9
  6
Continuous
 62
     7
370
    30
100
AcDbVertex
100
AcDb2dVertex
 10
33208.49271203128
 20
20929.91516023646
 30
0.0
  0
VERTEX
  5
1D7
330
1D2
100
AcDbEntity
  8
9
  6
Continuous
 62
     7
370
    30
100
AcDbVertex
100
AcDb2dVertex
 10
33208.20375854734
 20
20928.45426368721
 30
0.0
  0
VERTEX
  5
1D8
330
1D2
100
AcDbEntity
  8
9
  6
Continuous
 62
     7
370
    30
100
AcDbVertex
100
AcDb2dVertex
 10
33207.35049527295
 20
20927.00185569729
 30
0.0
  0
VERTEX
  5
1D9
330
1D2
100
AcDbEntity
  8
9
  6
Continuous
 62
     7
370
    30
100
AcDbVertex
100
AcDb2dVertex
 10
33206.11649283653
 20
20925.55284309489
 30
0.0
  0
VERTEX
  5
1DA
330
1D2
100
AcDbEntity
  8
9
  6
Continuous
 62
     7
370
    30
100
AcDbVertex
100
AcDb2dVertex
 10
33204.68532186651
 20
20924.10213270819
 30
0.0
  0
VERTEX
  5
1DB
330
1D2
100
AcDbEntity
  8
9
  6
Continuous
 62
     7
370
    30
100
AcDbVertex
100
AcDb2dVertex
 10
33203.24055299129
 20
20922.64463136539
 30
0.0
  0
VERTEX
  5
1DC
330
1D2
100
AcDbEntity
  8
9
  6
Continuous
 62
     7
370
    30
100
AcDbVertex
100
AcDb2dVertex
 10
33201.96575683932
 20
20921.17524589466
 30
0.0
  0
VERTEX
  5
1DD
330
1D2
100
AcDbEntity
  8
9
  6
Continuous
 62
     7
370
    30
100
AcDbVertex
100
AcDb2dVertex
 10
33201.04450403899
 20
20919.6888831242
 30
0.0
  0
VERTEX
  5
1DE
330
1D2
100
AcDbEntity
  8
9
  6
Continuous
 62
     7
370
    30
100
AcDbVertex
100
AcDb2dVertex
 10
33200.66036521873
 20
20918.18044988217
 30
0.0
  0
VERTEX
  5
1DF
330
1D2
100
AcDbEntity
  8
9
  6
Continuous
 62
     7
370
    30
100
AcDbVertex
100
AcDb2dVertex
 10
33200.93657066656
 20
20916.64457003838
 30
0.0
  0
VERTEX
  5
1E0
330
1D2
100
AcDbEntity
  8
9
  6
Continuous
 62
     7
370
    30
100
AcDbVertex
100
AcDb2dVertex
 10
33201.75498930891
 20
20915.07473562905
 30
0.0
  0
VERTEX
  5
1E1
330
1D2
100
AcDbEntity
  8
9
  6
Continuous
 62
     7
370
    30
100
AcDbVertex
100
AcDb2dVertex
 10
33202.93714973179
 20
20913.46415573203
 30
0.0
  0
VERTEX
  5
1E2
330
1D2
100
AcDbEntity
  8
9
  6
Continuous
 62
     7
370
    30
100
AcDbVertex
100
AcDb2dVertex
 10
33204.30458052125
 20
20911.80603942515
 30
0.0
  0
VERTEX
  5
1E3
330
1D2
100
AcDbEntity
  8
9
  6
Continuous
 62
     7
370
    30
100
AcDbVertex
100
AcDb2dVertex
 10
33205.6788102633
 20
20910.09359578626
 30
0.0
  0
VERTEX
  5
1E4
330
1D2
100
AcDbEntity
  8
9
  6
Continuous
 62
     7
370
    30
100
AcDbVertex
100
AcDb2dVertex
 10
33206.88136754397
 20
20908.32003389319
 30
0.0
  0
VERTEX
  5
1E5
330
1D2
100
AcDbEntity
  8
9
  6
Continuous
 62
     7
370
    30
100
AcDbVertex
100
AcDb2dVertex
 10
33207.73378094928
 20
20906.47856282379
 30
0.0
  0
VERTEX
  5
1E6
330
1D2
100
AcDbEntity
  8
9
  6
Continuous
 62
     7
370
    30
100
AcDbVertex
100
AcDb2dVertex
 10
33208.05757906527
 20
20904.56239165589
 30
0.0
  0
VERTEX
  5
1E7
330
1D2
100
AcDbEntity
  8
9
  6
Continuous
 62
     7
370
    30
100
AcDbVertex
100
AcDb2dVertex
 10
33207.73321437495
 20
20902.56982265613
 30
0.0
  0
VERTEX
  5
1E8
330
1D2
100
AcDbEntity
  8
9
  6
Continuous
 62
     7
370
    30
100
AcDbVertex
100
AcDb2dVertex
 10
33206.87683494933
 20
20900.5195308463
 30
0.0
  0
VERTEX
  5
1E9
330
1D2
100
AcDbEntity
  8
9
  6
Continuous
 62
     7
370
    30
100
AcDbVertex
100
AcDb2dVertex
 10
33205.66351275642
 20
20898.43528443698
 30
0.0
  0
VERTEX
  5
1EA
330
1D2
100
AcDbEntity
  8
9
  6
Continuous
 62
     7
370
    30
100
AcDbVertex
100
AcDb2dVertex
 10
33204.26831976419
 20
20896.34085163877
 30
0.0
  0
VERTEX
  5
1EB
330
1D2
100
AcDbEntity
  8
9
  6
Continuous
 62
     7
370
    30
100
AcDbVertex
100
AcDb2dVertex
 10
33202.86632794066
 20
20894.26000066224
 30
0.0
  0
VERTEX
  5
1EC
330
1D2
100
AcDbEntity
  8
9
  6
Continuous
 62
     7
370
    30
100
AcDbVertex
100
AcDb2dVertex
 10
33201.63260925384
 20
20892.21649971799
 30
0.0
  0
VERTEX
  5
1ED
330
1D2
100
AcDbEntity
  8
9
  6
Continuous
 62
     7
370
    30
100
AcDbVertex
100
AcDb2dVertex
 10
33200.7422356717
 20
20890.23411701659
 30
0.0
  0
VERTEX
  5
1EE
330
1D2
100
AcDbEntity
  8
9
  6
Continuous
 62
     7
370
    30
100
AcDbVertex
100
AcDb2dVertex
 10
33200.37027916226
 20
20888.33662076864
 30
0.0
  0
VERTEX
  5
1EF
330
1D2
100
AcDbEntity
  8
9
  6
Continuous
 62
     7
370
    30
100
AcDbVertex
100
AcDb2dVertex
 10
33200.63288778641
 20
20886.53985644786
 30
0.0
  0
VERTEX
  5
1F0
330
1D2
100
AcDbEntity
  8
9
  6
Continuous
 62
     7
370
    30
100
AcDbVertex
100
AcDb2dVertex
 10
33201.41051397664
 20
20884.82797858051
 30
0.0
  0
VERTEX
  5
1F1
330
1D2
100
AcDbEntity
  8
9
  6
Continuous
 62
     7
370
    30
100
AcDbVertex
100
AcDb2dVertex
 10
33202.52468625832
 20
20883.17721895603
 30
0.0
  0
VERTEX
  5
1F2
330
1D2
100
AcDbEntity
  8
9
  6
Continuous
 62
     7
370
    30
100
AcDbVertex
100
AcDb2dVertex
 10
33203.79693315685
 20
20881.56380936383
 30
0.0
  0
VERTEX
  5
1F3
330
1D2
100
AcDbEntity
  8
9
  6
Continuous
 62
     7
370
    30
100
AcDbVertex
100
AcDb2dVertex
 10
33205.04878319758
 20
20879.9639815933
 30
0.0
  0
VERTEX
  5
1F4
330
1D2
100
AcDbEntity
  8
9
  6
Continuous
 62
     7
370
    30
100
AcDbVertex
100
AcDb2dVertex
 10
33206.10176490592
 20
20878.35396743388
 30
0.0
  0
VERTEX
  5
1F5
330
1D2
100
AcDbEntity
  8
9
  6
Continuous
 62
     7
370
    30
100
AcDbVertex
100
AcDb2dVertex
 10
33206.77740680724
 20
20876.70999867498
 30
0.0
  0
VERTEX
  5
1F6
330
1D2
100
AcDbEntity
  8
9
  6
Continuous
 62
     7
370
    30
100
AcDbVertex
100
AcDb2dVertex
 10
33206.89723742692
 20
20875.00830710601
 30
0.0
  0
VERTEX
  5
1F7
330
1D2
100
AcDbEntity
  8
9
  6
Continuous
 62
     7
370
    30
100
AcDbVertex
100
AcDb2dVertex
 10
33206.35006620544
 20
20873.22767111266
 30
0.0
  0
VERTEX
  5
1F8
330
1D2
100
AcDbEntity
  8
9
  6
Continuous
 62
     7
370
    30
100
AcDbVertex
100
AcDb2dVertex
 10
33205.29382624366
 20
20871.35705546576
 30
0.0
  0
VERTEX
  5
1F9
330
1D2
100
AcDbEntity
  8
9
  6
Continuous
 62
     7
370
    30
100
AcDbVertex
100
AcDb2dVertex
 10
33203.95373155754
 20
20869.38797153241
 30
0.0
  0
VERTEX
  5
1FA
330
1D2
100
AcDbEntity
  8
9
  6
Continuous
 62
     7
370
    30
100
AcDbVertex
100
AcDb2dVertex
 10
33202.55499616304
 20
20867.31193067972
 30
0.0
  0
VERTEX
  5
1FB
330
1D2
100
AcDbEntity
  8
9
  6
Continuous
 62
     7
370
    30
100
AcDbVertex
100
AcDb2dVertex
 10
33201.32283407612
 20
20865.12044427479
 30
0.0
  0
VERTEX
  5
1FC
330
1D2
100
AcDbEntity
  8
9
  6
Continuous
 62
     7
370
    30
100
AcDbVertex
100
AcDb2dVertex
 10
33200.48245931273
 20
20862.80502368472
 30
0.0
  0
VERTEX
  5
1FD
330
1D2
100
AcDbEntity
  8
9
  6
Continuous
 62
     7
370
    30
100
AcDbVertex
100
AcDb2dVertex
 10
33200.42695307728
 20
20862.19675717653
 30
0.0
  0
SEQEND
  5
1FE
330
1D2
100
AcDbEntity
  8
9
  6
Continuous
 62
     7
370
    30
  0
LINE
  5
1FF
330
1F
100
AcDbEntity
  8
9
  6
Continuous
 62
     7
370
    30
100
AcDbLine
 10
32975.26604175392
 20
20928.19675717653
 30
0.0
 11
33208.05247815643
 21
20928.19675717653
 31
0.0
  0
ARC
  5
200
330
1F
100
AcDbEntity
  8
9
  6
Continuous
 62
     7
370
    30
100
AcDbCircle
 10
32454.26497203719
 20
20757.82687335844
 30
0.0
 40
20.0
100
AcDbArc
 50
89.99999999999991
 51
179.9999999999998
  0
ARC
  5
201
330
1F
100
AcDbEntity
  8
9
  6
Continuous
 62
     7
370
    30
100
AcDbCircle
 10
32814.26497203719
 20
20757.82687335844
 30
0.0
 40
20.0
100
AcDbArc
 50
0.0
 51
89.99999999999991
  0
LINE
  5
202
330
1F
100
AcDbEntity
  8
9
  6
Continuous
 62
     7
370
    30
100
AcDbLine
 10
32434.26497203719
 20
20757.82687335844
 30
0.0
 11
32834.26497203719
 21
20757.82687335844
 31
0.0
  0
LINE
  5
203
330
1F
100
AcDbEntity
  8
9
  6
Continuous
 62
     7
370
    30
100
AcDbLine
 10
32454.26497203719
 20
20777.82687335844
 30
0.0
 11
32814.26497203719
 21
20777.82687335844
 31
0.0
  0
LINE
  5
204
330
1F
100
AcDbEntity
  8
9
  6
Continuous
 62
     7
370
    30
100
AcDbLine
 10
32660.61497203719
 20
20777.02687335844
 30
0.0
 11
32634.26497203719
 21
20777.02687335844
 31
0.0
  0
LINE
  5
205
330
1F
100
AcDbEntity
  8
9
  6
Continuous
 62
     7
370
    30
100
AcDbLine
 10
32607.91497203719
 20
20777.02687335844
 30
0.0
 11
32634.26497203719
 21
20777.02687335844
 31
0.0
  0
LINE
  5
206
330
1F
100
AcDbEntity
  8
11
  6
Continuous
 62
     5
370
    50
100
AcDbLine
 10
32860.51497113719
 20
20895.97513991531
 30
0.0
 11
32408.01497293719
 21
20895.97513991531
 31
0.0
  0
ARC
  5
207
330
1F
100
AcDbEntity
  8
4
  6
PHANTOM
 62
     2
370
     9
100
AcDbCircle
 10
32621.76497203719
 20
20782.32687335844
 30
0.0
 40
1.5
100
AcDbArc
 50
180.0000000001386
 51
269.9999999999998
  0
POLYLINE
  5
208
330
1F
100
AcDbEntity
  8
4
  6
PHANTOM
 62
     2
370
     9
100
AcDb2dPolyline
 66
     1
 10
0.0
 20
0.0
 30
0.0
  0
VERTEX
  5
209
330
208
100
AcDbEntity
  8
4
  6
PHANTOM
 62
     2
370
     9
100
AcDbVertex
100
AcDb2dVertex
 10
32621.76497203719
 20
20780.82687335844
 30
0.0
  0
VERTEX
  5
20A
330
208
100
AcDbEntity
  8
4
  6
PHANTOM
 62
     2
370
     9
100
AcDbVertex
100
AcDb2dVertex
 10
32644.85902320819
 20
20780.82687335844
 30
0.0
  0
VERTEX
  5
20B
330
208
100
AcDbEntity
  8
4
  6
PHANTOM
 62
     2
370
     9
100
AcDbVertex
100
AcDb2dVertex
 10
32646.76497203719
 20
20780.82687335844
 30
0.0
  0
SEQEND
  5
20C
330
208
100
AcDbEntity
  8
4
  6
PHANTOM
 62
     2
370
     9
  0
ARC
  5
20D
330
1F
100
AcDbEntity
  8
4
  6
PHANTOM
 62
     2
370
     9
100
AcDbCircle
 10
32646.7649720372
 20
20782.32687335842
 30
0.0
 40
1.499999999976353
100
AcDbArc
 50
269.9999999997218
 51
0.0000000008337633
  0
POLYLINE
  5
20E
330
1F
100
AcDbEntity
  8
4
  6
PHANTOM
 62
     2
370
     9
100
AcDb2dPolyline
 66
     1
 10
0.0
 20
0.0
 30
0.0
  0
VERTEX
  5
20F
330
20E
100
AcDbEntity
  8
4
  6
PHANTOM
 62
     2
370
     9
100
AcDbVertex
100
AcDb2dVertex
 10
32648.26497203719
 20
20782.32687335844
 30
0.0
  0
VERTEX
  5
210
330
20E
100
AcDbEntity
  8
4
  6
PHANTOM
 62
     2
370
     9
100
AcDbVertex
100
AcDb2dVertex
 10
32648.26497203719
 20
20793.37288938466
 30
0.0
  0
SEQEND
  5
211
330
20E
100
AcDbEntity
  8
4
  6
PHANTOM
 62
     2
370
     9
  0
ARC
  5
212
330
1F
100
AcDbEntity
  8
4
  6
PHANTOM
 62
     2
370
     9
100
AcDbCircle
 10
32653.26497203718
 20
20793.37288938468
 30
0.0
 40
4.999999999992724
100
AcDbArc
 50
89.99999999991662
 51
180.0000000002081
  0
ARC
  5
213
330
1F
100
AcDbEntity
  8
4
  6
PHANTOM
 62
     2
370
     9
100
AcDbCircle
 10
32653.26497203718
 20
20800.37288938466
 30
0.0
 40
2.000000000005457
100
AcDbArc
 50
270.000000000208
 51
359.9999999998954
  0
POLYLINE
  5
214
330
1F
100
AcDbEntity
  8
4
  6
PHANTOM
 62
     2
370
     9
100
AcDb2dPolyline
 66
     1
 10
0.0
 20
0.0
 30
0.0
  0
VERTEX
  5
215
330
214
100
AcDbEntity
  8
4
  6
PHANTOM
 62
     2
370
     9
100
AcDbVertex
100
AcDb2dVertex
 10
32655.26497203719
 20
20800.37288938466
 30
0.0
  0
VERTEX
  5
216
330
214
100
AcDbEntity
  8
4
  6
PHANTOM
 62
     2
370
     9
100
AcDbVertex
100
AcDb2dVertex
 10
32655.26497203719
 20
20820.82687335844
 30
0.0
  0
SEQEND
  5
217
330
214
100
AcDbEntity
  8
4
  6
PHANTOM
 62
     2
370
     9
  0
ARC
  5
218
330
1F
100
AcDbEntity
  8
4
  6
PHANTOM
 62
     2
370
     9
100
AcDbCircle
 10
32653.26497203718
 20
20820.82687335845
 30
0.0
 40
2.000000000007276
100
AcDbArc
 50
359.999999999687
 51
89.99999999979156
  0
POLYLINE
  5
219
330
1F
100
AcDbEntity
  8
4
  6
PHANTOM
 62
     2
370
     9
100
AcDb2dPolyline
 66
     1
 10
0.0
 20
0.0
 30
0.0
  0
VERTEX
  5
21A
330
219
100
AcDbEntity
  8
4
  6
PHANTOM
 62
     2
370
     9
100
AcDbVertex
100
AcDb2dVertex
 10
32653.26497203719
 20
20822.82687335844
 30
0.0
  0
VERTEX
  5
21B
330
219
100
AcDbEntity
  8
4
  6
PHANTOM
 62
     2
370
     9
100
AcDbVertex
100
AcDb2dVertex
 10
32615.26497203719
 20
20822.82687335844
 30
0.0
  0
SEQEND
  5
21C
330
219
100
AcDbEntity
  8
4
  6
PHANTOM
 62
     2
370
     9
  0
ARC
  5
21D
330
1F
100
AcDbEntity
  8
4
  6
PHANTOM
 62
     2
370
     9
100
AcDbCircle
 10
32615.26497203721
 20
20820.82687335842
 30
0.0
 40
2.000000000016371
100
AcDbArc
 50
90.00000000041689
 51
179.9999999994789
  0
POLYLINE
  5
21E
330
1F
100
AcDbEntity
  8
4
  6
PHANTOM
 62
     2
370
     9
100
AcDb2dPolyline
 66
     1
 10
0.0
 20
0.0
 30
0.0
  0
VERTEX
  5
21F
330
21E
100
AcDbEntity
  8
4
  6
PHANTOM
 62
     2
370
     9
100
AcDbVertex
100
AcDb2dVertex
 10
32613.26497203719
 20
20820.82687335844
 30
0.0
  0
VERTEX
  5
220
330
21E
100
AcDbEntity
  8
4
  6
PHANTOM
 62
     2
370
     9
100
AcDbVertex
100
AcDb2dVertex
 10
32613.26497203719
 20
20800.37288938466
 30
0.0
  0
SEQEND
  5
221
330
21E
100
AcDbEntity
  8
4
  6
PHANTOM
 62
     2
370
     9
  0
ARC
  5
222
330
1F
100
AcDbEntity
  8
4
  6
PHANTOM
 62
     2
370
     9
100
AcDbCircle
 10
32615.2649720372
 20
20800.37288938468
 30
0.0
 40
2.000000000007276
100
AcDbArc
 50
180.0000000005207
 51
269.9999999997912
  0
ARC
  5
223
330
1F
100
AcDbEntity
  8
4
  6
PHANTOM
 62
     2
370
     9
100
AcDbCircle
 10
32615.2649720372
 20
20793.37288938466
 30
0.0
 40
4.999999999998181
100
AcDbArc
 50
359.9999999999579
 51
90.00000000008338
  0
POLYLINE
  5
224
330
1F
100
AcDbEntity
  8
4
  6
PHANTOM
 62
     2
370
     9
100
AcDb2dPolyline
 66
     1
 10
0.0
 20
0.0
 30
0.0
  0
VERTEX
  5
225
330
224
100
AcDbEntity
  8
4
  6
PHANTOM
 62
     2
370
     9
100
AcDbVertex
100
AcDb2dVertex
 10
32620.26497203719
 20
20793.37288938466
 30
0.0
  0
VERTEX
  5
226
330
224
100
AcDbEntity
  8
4
  6
PHANTOM
 62
     2
370
     9
100
AcDbVertex
100
AcDb2dVertex
 10
32620.26497203719
 20
20782.32687335844
 30
0.0
  0
SEQEND
  5
227
330
224
100
AcDbEntity
  8
4
  6
PHANTOM
 62
     2
370
     9
  0
POLYLINE
  5
228
330
1F
100
AcDbEntity
  8
4
  6
PHANTOM
 62
     2
370
     9
100
AcDb2dPolyline
 66
     1
 10
0.0
 20
0.0
 30
0.0
  0
VERTEX
  5
229
330
228
100
AcDbEntity
  8
4
  6
PHANTOM
 62
     2
370
     9
100
AcDbVertex
100
AcDb2dVertex
 10
32651.26497203719
 20
20822.82687335844
 30
0.0
  0
VERTEX
  5
22A
330
228
100
AcDbEntity
  8
4
  6
PHANTOM
 62
     2
370
     9
100
AcDbVertex
100
AcDb2dVertex
 10
32651.26497203719
 20
20843.66459100959
 30
0.0
  0
SEQEND
  5
22B
330
228
100
AcDbEntity
  8
4
  6
PHANTOM
 62
     2
370
     9
  0
ARC
  5
22C
330
1F
100
AcDbEntity
  8
4
  6
PHANTOM
 62
     2
370
     9
100
AcDbCircle
 10
32642.76497203719
 20
20848.38959100959
 30
0.0
 40
9.725000000000364
100
AcDbArc
 50
209.0689101610724
 51
330.9310898389082
  0
ARC
  5
22D
330
1F
100
AcDbEntity
  8
4
  6
PHANTOM
 62
     2
370
     9
100
AcDbCircle
 10
32625.76497203719
 20
20838.93959100959
 30
0.0
 40
9.724999999998545
100
AcDbArc
 50
29.06891016105402
 51
150.931089838946
  0
POLYLINE
  5
22E
330
1F
100
AcDbEntity
  8
4
  6
PHANTOM
 62
     2
370
     9
100
AcDb2dPolyline
 66
     1
 10
0.0
 20
0.0
 30
0.0
  0
VERTEX
  5
22F
330
22E
100
AcDbEntity
  8
4
  6
PHANTOM
 62
     2
370
     9
100
AcDbVertex
100
AcDb2dVertex
 10
32617.26497203719
 20
20843.66459100959
 30
0.0
  0
VERTEX
  5
230
330
22E
100
AcDbEntity
  8
4
  6
PHANTOM
 62
     2
370
     9
100
AcDbVertex
100
AcDb2dVertex
 10
32617.26497203719
 20
20822.82687335844
 30
0.0
  0
SEQEND
  5
231
330
22E
100
AcDbEntity
  8
4
  6
PHANTOM
 62
     2
370
     9
  0
ARC
  5
232
330
1F
100
AcDbEntity
  8
4
  6
PHANTOM
 62
     2
370
     9
100
AcDbCircle
 10
32642.76497203719
 20
20838.93959100958
 30
0.0
 40
9.724999999998545
100
AcDbArc
 50
29.06891016109148
 51
150.9310898389085
  0
LINE
  5
233
330
1F
100
AcDbEntity
  8
9
  6
Continuous
 62
     7
370
    30
100
AcDbLine
 10
32660.76497203719
 20
20780.82687335844
 30
0.0
 11
32660.76497203719
 21
20777.82687335844
 31
0.0
  0
LINE
  5
234
330
1F
100
AcDbEntity
  8
9
  6
Continuous
 62
     7
370
    30
100
AcDbLine
 10
32607.76497203719
 20
20780.82687335844
 30
0.0
 11
32660.76497203719
 21
20780.82687335844
 31
0.0
  0
LINE
  5
235
330
1F
100
AcDbEntity
  8
9
  6
Continuous
 62
     7
370
    30
100
AcDbLine
 10
32607.76497203719
 20
20780.82687335844
 30
0.0
 11
32607.76497203719
 21
20777.82687335844
 31
0.0
  0
LINE
  5
236
330
1F
100
AcDbEntity
  8
9
  6
Continuous
 62
     7
370
    30
100
AcDbLine
 10
32645.76497203719
 20
20780.82687335844
 30
0.0
 11
32645.76497203719
 21
20777.02687335844
 31
0.0
  0
LINE
  5
237
330
1F
100
AcDbEntity
  8
9
  6
Continuous
 62
     7
370
    30
100
AcDbLine
 10
32622.76497203719
 20
20780.82687335844
 30
0.0
 11
32622.76497203719
 21
20777.02687335844
 31
0.0
  0
ARC
  5
238
330
1F
100
AcDbEntity
  8
9
  6
Continuous
 62
     7
370
    30
100
AcDbCircle
 10
32454.26497203719
 20
20757.82687335844
 30
0.0
 40
19.20000000000073
100
AcDbArc
 50
89.99999999999991
 51
179.9999999999998
  0
LINE
  5
239
330
1F
100
AcDbEntity
  8
9
  6
Continuous
 62
     7
370
    30
100
AcDbLine
 10
32454.26497203719
 20
20777.02687335844
 30
0.0
 11
32814.26497203719
 21
20777.02687335844
 31
0.0
  0
ARC
  5
23A
330
1F
100
AcDbEntity
  8
9
  6
Continuous
 62
     7
370
    30
100
AcDbCircle
 10
32814.26497203719
 20
20757.82687335844
 30
0.0
 40
19.20000000000073
100
AcDbArc
 50
0.0
 51
89.99999999999991
  0
HATCH
  5
23B
330
1F
100
AcDbEntity
  8
9
  6
Continuous
 62
     7
370
    30
100
AcDbHatch
 10
0.0
 20
0.0
 30
0.0
210
0.0
220
0.0
230
1.0
  2
SOLID
 70
     1
 71
     0
 91
        2
 92
        0
 93
        4
 72
     1
 10
32660.76497203719
 20
20780.82687335844
 11
32645.76497203719
 21
20780.82687335844
 72
     1
 10
32645.76497203719
 20
20780.82687335844
 11
32645.76497203719
 21
20777.82687335844
 72
     1
 10
32645.76497203719
 20
20777.82687335844
 11
32660.76497203719
 21
20777.82687335844
 72
     1
 10
32660.76497203719
 20
20777.82687335844
 11
32660.76497203719
 21
20780.82687335844
 97
        0
 92
        0
 93
        4
 72
     1
 10
32622.76497203719
 20
20780.82687335844
 11
32607.76497203719
 21
20780.82687335844
 72
     1
 10
32607.76497203719
 20
20780.82687335844
 11
32607.76497203719
 21
20777.82687335844
 72
     1
 10
32607.76497203719
 20
20777.82687335844
 11
32622.76497203719
 21
20777.82687335844
 72
     1
 10
32622.76497203719
 20
20777.82687335844
 11
32622.76497203719
 21
20780.82687335844
 97
        0
 75
     0
 76
     1
 98
        0
  0
LINE
  5
23C
330
1F
100
AcDbEntity
  8
6
  6
Continuous
 62
     3
370
     9
100
AcDbLine
 10
32684.17017781534
 20
20813.23207913659
 30
0.0
 11
32710.01031447089
 21
20813.23207913659
 31
0.0
  0
MTEXT
  5
23D
330
1F
100
AcDbEntity
  8
6
  6
Continuous
 62
     3
370
     9
100
AcDbMText
 10
32688.51051221786
 20
20813.96139775122
 30
0.0
 40
6.0
 41
30.7998
 46
6.0
 71
     7
 72
     1
  1
{\fＭＳ ゴシック;ゴム材}
 73
     1
 44
1.0
1001
ACAD
1000
ACAD_MTEXT_DEFINED_HEIGHT_BEGIN
1070
    46
1040
6.0
1000
ACAD_MTEXT_DEFINED_HEIGHT_END
  0
LINE
  5
23E
330
1F
100
AcDbEntity
  8
6
  6
Continuous
 62
     3
370
     9
100
AcDbLine
 10
32660.76497203719
 20
20780.82687335844
 30
0.0
 11
32684.17017781534
 21
20813.23207913659
 31
0.0
  0
INSERT
  5
245
330
1F
100
AcDbEntity
  8
0
100
AcDbBlockReference
  2
*G16
 10
0.0
 20
0.0
 30
0.0
  0
POLYLINE
  5
246
330
1F
100
AcDbEntity
  8
11
  6
Continuous
 62
     5
370
    50
100
AcDb2dPolyline
 66
     1
 10
0.0
 20
0.0
 30
0.0
  0
VERTEX
  5
247
330
246
100
AcDbEntity
  8
11
  6
Continuous
 62
     5
370
    50
100
AcDbVertex
100
AcDb2dVertex
 10
32860.51497113719
 20
20554.72513991531
 30
0.0
  0
VERTEX
  5
248
330
246
100
AcDbEntity
  8
11
  6
Continuous
 62
     5
370
    50
100
AcDbVertex
100
AcDb2dVertex
 10
33313.01496933719
 20
20554.72513991531
 30
0.0
  0
VERTEX
  5
249
330
246
100
AcDbEntity
  8
11
  6
Continuous
 62
     5
370
    50
100
AcDbVertex
100
AcDb2dVertex
 10
33313.01496933719
 20
21237.22513991531
 30
0.0
  0
VERTEX
  5
24A
330
246
100
AcDbEntity
  8
11
  6
Continuous
 62
     5
370
    50
100
AcDbVertex
100
AcDb2dVertex
 10
32860.51497113719
 20
21237.22513991531
 30
0.0
  0
VERTEX
  5
24B
330
246
100
AcDbEntity
  8
11
  6
Continuous
 62
     5
370
    50
100
AcDbVertex
100
AcDb2dVertex
 10
32860.51497113719
 20
20554.72513991531
 30
0.0
  0
SEQEND
  5
24C
330
246
100
AcDbEntity
  8
11
  6
Continuous
 62
     5
370
    50
  0
LINE
  5
24D
330
1F
100
AcDbEntity
  8
9
  6
Continuous
 62
     7
370
    30
100
AcDbLine
 10
33012.88115722736
 20
20937.19675717653
 30
0.0
 11
33171.88115722736
 21
20937.19675717653
 31
0.0
  0
LINE
  5
24E
330
1F
100
AcDbEntity
  8
9
  6
Continuous
 62
     7
370
    30
100
AcDbLine
 10
32973.53777758878
 20
20925.79675717653
 30
0.0
 11
33206.32421399129
 21
20925.79675717653
 31
0.0
  0
LINE
  5
24F
330
1F
100
AcDbEntity
  8
9
  6
Continuous
 62
     7
370
    30
100
AcDbLine
 10
33209.15114923849
 20
20868.19675717653
 30
0.0
 11
33290.58169054294
 21
20868.19675717653
 31
0.0
  0
LINE
  5
250
330
1F
100
AcDbEntity
  8
9
  6
Continuous
 62
     7
370
    30
100
AcDbLine
 10
32882.80417370012
 20
20868.19675717653
 30
0.0
 11
32964.36471283597
 21
20868.19675717653
 31
0.0
  0
ARC
  5
251
330
1F
100
AcDbEntity
  8
9
  6
Continuous
 62
     7
370
    30
100
AcDbCircle
 10
32942.80417370012
 20
20868.19675717653
 30
0.0
 40
57.60000000000036
100
AcDbArc
 50
89.99999999999991
 51
179.9999999999998
  0
ARC
  5
252
330
1F
100
AcDbEntity
  8
9
  6
Continuous
 62
     7
370
    30
100
AcDbCircle
 10
33230.58169054294
 20
20868.19675717653
 30
0.0
 40
57.60000000000036
100
AcDbArc
 50
0.0
 51
89.99999999999991
  0
LINE
  5
253
330
1F
100
AcDbEntity
  8
9
  6
Continuous
 62
     7
370
    30
100
AcDbLine
 10
33230.58169054294
 20
20928.19675717653
 30
0.0
 11
33214.05247815643
 21
20928.19675717653
 31
0.0
  0
LINE
  5
254
330
1F
100
AcDbEntity
  8
9
  6
Continuous
 62
     7
370
    30
100
AcDbLine
 10
33230.58169054294
 20
20925.79675717653
 30
0.0
 11
33212.32421399129
 21
20925.79675717653
 31
0.0
  0
LINE
  5
255
330
1F
100
AcDbEntity
  8
9
  6
Continuous
 62
     7
370
    30
100
AcDbLine
 10
32942.80417370012
 20
20928.19675717653
 30
0.0
 11
32969.26604175392
 21
20928.19675717653
 31
0.0
  0
LINE
  5
256
330
1F
100
AcDbEntity
  8
9
  6
Continuous
 62
     7
370
    30
100
AcDbLine
 10
32942.80417370012
 20
20925.79675717653
 30
0.0
 11
32967.53777758878
 21
20925.79675717653
 31
0.0
  0
LINE
  5
257
330
1F
100
AcDbEntity
  8
9
  6
Continuous
 62
     7
370
    30
100
AcDbLine
 10
33126.88115722736
 20
20937.19675717653
 30
0.0
 11
33126.88115722736
 21
20928.19675717653
 31
0.0
  0
LINE
  5
258
330
1F
100
AcDbEntity
  8
9
  6
Continuous
 62
     7
370
    30
100
AcDbLine
 10
33057.88115722736
 20
20937.19675717653
 30
0.0
 11
33057.88115722736
 21
20928.19675717653
 31
0.0
  0
HATCH
  5
259
330
1F
100
AcDbEntity
  8
9
  6
Continuous
 62
     7
370
    30
100
AcDbHatch
 10
0.0
 20
0.0
 30
0.0
210
0.0
220
0.0
230
1.0
  2
SOLID
 70
     1
 71
     0
 91
        2
 92
        0
 93
        4
 72
     1
 10
33171.88115722736
 20
20937.19675717653
 11
33126.88115722736
 21
20937.19675717653
 72
     1
 10
33126.88115722736
 20
20937.19675717653
 11
33126.88115722736
 21
20928.19675717653
 72
     1
 10
33126.88115722736
 20
20928.19675717653
 11
33171.88115722736
 21
20928.19675717653
 72
     1
 10
33171.88115722736
 20
20928.19675717653
 11
33171.88115722736
 21
20937.19675717653
 97
        0
 92
        0
 93
        4
 72
     1
 10
33057.88115722736
 20
20937.19675717653
 11
33012.88115722736
 21
20937.19675717653
 72
     1
 10
33012.88115722736
 20
20937.19675717653
 11
33012.88115722736
 21
20928.19675717653
 72
     1
 10
33012.88115722736
 20
20928.19675717653
 11
33057.88115722736
 21
20928.19675717653
 72
     1
 10
33057.88115722736
 20
20928.19675717653
 11
33057.88115722736
 21
20937.19675717653
 97
        0
 75
     0
 76
     1
 98
        0
  0
INSERT
  5
260
330
1F
100
AcDbEntity
  8
0
100
AcDbBlockReference
  2
*G17
 10
0.0
 20
0.0
 30
0.0
  0
LINE
  5
261
330
1F
100
AcDbEntity
  8
6
  6
Continuous
 62
     3
370
     9
100
AcDbLine
 10
33171.88115722736
 20
20937.19675717653
 30
0.0
 11
33195.2863630055
 21
20969.60196295468
 31
0.0
  0
MTEXT
  5
262
330
1F
100
AcDbEntity
  8
6
  6
Continuous
 62
     3
370
     9
100
AcDbMText
 10
33199.62669740802
 20
20970.33128156931
 30
0.0
 40
12.0
 41
61.5996
 46
12.0
 71
     7
 72
     1
  1
{\fＭＳ ゴシック;ゴム材}
 73
     1
 44
1.0
1001
ACAD
1000
ACAD_MTEXT_DEFINED_HEIGHT_BEGIN
1070
    46
1040
12.0
1000
ACAD_MTEXT_DEFINED_HEIGHT_END
  0
LINE
  5
263
330
1F
100
AcDbEntity
  8
6
  6
Continuous
 62
     3
370
     9
100
AcDbLine
 10
33195.2863630055
 20
20969.60196295468
 30
0.0
 11
33242.62630191409
 21
20969.60196295468
 31
0.0
  0
SPLINE
  5
264
330
1F
100
AcDbEntity
  8
9
  6
Continuous
 62
     7
370
    30
100
AcDbSpline
210
0.0
220
0.0
230
1.0
 70
    12
 71
     3
 72
     8
 73
     4
 74
     0
 42
0.000000001
 43
0.00001
 40
0.000000403112789
 40
0.000000403112789
 40
0.000000403112789
 40
0.000000403112789
 40
0.0017472208689273
 40
0.0017472208689273
 40
0.0017472208689273
 40
0.0017472208689273
 10
32650.51497203719
 20
20776.02687335844
 30
0.0
 41
1.0
 10
32650.0771492751
 20
20776.31576146079
 30
0.0
 41
1.0
 10
32649.63923101747
 20
20776.60445673712
 30
0.0
 41
1.0
 10
32649.20118773036
 20
20776.89289876223
 30
0.0
 41
1.0
  0
LINE
  5
265
330
1F
100
AcDbEntity
  8
9
  6
Continuous
 62
     7
370
    30
100
AcDbLine
 10
32650.03292122961
 20
20777.02687335844
 30
0.0
 11
32651.76497203719
 21
20776.02687335844
 31
0.0
  0
SPLINE
  5
266
330
1F
100
AcDbEntity
  8
9
  6
Continuous
 62
     7
370
    30
100
AcDbSpline
210
0.0
220
0.0
230
1.0
 70
    12
 71
     3
 72
     8
 73
     4
 74
     0
 42
0.000000001
 43
0.00001
 40
0.0000002658515791
 40
0.0000002658515791
 40
0.0000002658515791
 40
0.0000002658515791
 40
0.0017470836077175
 40
0.0017470836077175
 40
0.0017470836077175
 40
0.0017470836077175
 10
32646.70118773036
 20
20776.89289876223
 30
0.0
 41
1.0
 10
32647.13923101747
 20
20776.60445673712
 30
0.0
 41
1.0
 10
32647.5771492751
 20
20776.31576146079
 30
0.0
 41
1.0
 10
32648.01497203719
 20
20776.02687335844
 30
0.0
 41
1.0
  0
LINE
  5
267
330
1F
100
AcDbEntity
  8
9
  6
Continuous
 62
     7
370
    30
100
AcDbLine
 10
32649.20118773036
 20
20776.89289876223
 30
0.0
 11
32646.70118773036
 21
20776.89289876223
 31
0.0
  0
LINE
  5
268
330
1F
100
AcDbEntity
  8
9
  6
Continuous
 62
     7
370
    30
100
AcDbLine
 10
32648.01497203719
 20
20776.02687335853
 30
0.0
 11
32636.76497203715
 21
20776.02687335853
 31
0.0
  0
LINE
  5
269
330
1F
100
AcDbEntity
  8
9
  6
Continuous
 62
     7
370
    30
100
AcDbLine
 10
32651.76497203719
 20
20776.02687335844
 30
0.0
 11
32650.51497203719
 21
20776.02687335844
 31
0.0
  0
LINE
  5
26A
330
1F
100
AcDbEntity
  8
9
  6
Continuous
 62
     7
370
    30
100
AcDbLine
 10
32619.32875634402
 20
20776.89289876223
 30
0.0
 11
32621.82875634402
 21
20776.89289876223
 31
0.0
  0
SPLINE
  5
26B
330
1F
100
AcDbEntity
  8
9
  6
Continuous
 62
     7
370
    30
100
AcDbSpline
210
0.0
220
0.0
230
1.0
 70
    12
 71
     3
 72
     8
 73
     4
 74
     0
 42
0.000000001
 43
0.00001
 40
0.0000002658515791
 40
0.0000002658515791
 40
0.0000002658515791
 40
0.0000002658515791
 40
0.0017470836077175
 40
0.0017470836077175
 40
0.0017470836077175
 40
0.0017470836077175
 10
32621.82875634402
 20
20776.89289876223
 30
0.0
 41
1.0
 10
32621.39071305691
 20
20776.60445673712
 30
0.0
 41
1.0
 10
32620.95279479928
 20
20776.31576146079
 30
0.0
 41
1.0
 10
32620.51497203719
 20
20776.02687335844
 30
0.0
 41
1.0
  0
LINE
  5
26C
330
1F
100
AcDbEntity
  8
9
  6
Continuous
 62
     7
370
    30
100
AcDbLine
 10
32618.49702284478
 20
20777.02687335844
 30
0.0
 11
32616.76497203719
 21
20776.02687335844
 31
0.0
  0
SPLINE
  5
26D
330
1F
100
AcDbEntity
  8
9
  6
Continuous
 62
     7
370
    30
100
AcDbSpline
210
0.0
220
0.0
230
1.0
 70
    12
 71
     3
 72
     8
 73
     4
 74
     0
 42
0.000000001
 43
0.00001
 40
0.000000403112789
 40
0.000000403112789
 40
0.000000403112789
 40
0.000000403112789
 40
0.0017472208689273
 40
0.0017472208689273
 40
0.0017472208689273
 40
0.0017472208689273
 10
32618.01497203719
 20
20776.02687335844
 30
0.0
 41
1.0
 10
32618.45279479928
 20
20776.31576146079
 30
0.0
 41
1.0
 10
32618.89071305691
 20
20776.60445673712
 30
0.0
 41
1.0
 10
32619.32875634402
 20
20776.89289876223
 30
0.0
 41
1.0
  0
LINE
  5
26E
330
1F
100
AcDbEntity
  8
9
  6
Continuous
 62
     7
370
    30
100
AcDbLine
 10
32616.76497203719
 20
20776.02687335844
 30
0.0
 11
32618.01497203719
 21
20776.02687335844
 31
0.0
  0
LINE
  5
26F
330
1F
100
AcDbEntity
  8
9
  6
Continuous
 62
     7
370
    30
100
AcDbLine
 10
32651.76497203719
 20
20776.02687335844
 30
0.0
 11
32651.76497203719
 21
20775.77687335845
 31
0.0
  0
ARC
  5
270
330
1F
100
AcDbEntity
  8
9
  6
Continuous
 62
     7
370
    30
100
AcDbCircle
 10
32651.95247203719
 20
20775.32687335844
 30
0.0
 40
0.4874999999992724
100
AcDbArc
 50
112.6198649480075
 51
247.3801350519921
  0
LINE
  5
271
330
1F
100
AcDbEntity
  8
9
  6
Continuous
 62
     7
370
    30
100
AcDbLine
 10
32651.76497203719
 20
20774.87687335845
 30
0.0
 11
32651.76497203719
 21
20774.27687335845
 31
0.0
  0
ARC
  5
272
330
1F
100
AcDbEntity
  8
9
  6
Continuous
 62
     7
370
    30
100
AcDbCircle
 10
32651.95247203719
 20
20772.32687335844
 30
0.0
 40
0.4874999999992724
100
AcDbArc
 50
112.6198649480075
 51
247.3801350519921
  0
LINE
  5
273
330
1F
100
AcDbEntity
  8
9
  6
Continuous
 62
     7
370
    30
100
AcDbLine
 10
32651.76497203719
 20
20773.37687335844
 30
0.0
 11
32651.76497203719
 21
20772.77687335845
 31
0.0
  0
ARC
  5
274
330
1F
100
AcDbEntity
  8
9
  6
Continuous
 62
     7
370
    30
100
AcDbCircle
 10
32651.95247203719
 20
20773.82687335844
 30
0.0
 40
0.4874999999992724
100
AcDbArc
 50
112.6198649480075
 51
247.3801350519921
  0
LINE
  5
275
330
1F
100
AcDbEntity
  8
9
  6
Continuous
 62
     7
370
    30
100
AcDbLine
 10
32650.51497203719
 20
20775.77687335845
 30
0.0
 11
32650.51497203719
 21
20776.02687335844
 31
0.0
  0
ARC
  5
276
330
1F
100
AcDbEntity
  8
9
  6
Continuous
 62
     7
370
    30
100
AcDbCircle
 10
32650.70247203719
 20
20775.32687335844
 30
0.0
 40
0.4874999999992724
100
AcDbArc
 50
112.619864948172
 51
247.3801350519921
  0
LINE
  5
277
330
1F
100
AcDbEntity
  8
9
  6
Continuous
 62
     7
370
    30
100
AcDbLine
 10
32650.51497203719
 20
20774.27687335845
 30
0.0
 11
32650.51497203719
 21
20774.87687335844
 31
0.0
  0
ARC
  5
278
330
1F
100
AcDbEntity
  8
9
  6
Continuous
 62
     7
370
    30
100
AcDbCircle
 10
32650.70247203719
 20
20772.32687335844
 30
0.0
 40
0.4874999999992724
100
AcDbArc
 50
112.619864948172
 51
247.3801350519921
  0
LINE
  5
279
330
1F
100
AcDbEntity
  8
9
  6
Continuous
 62
     7
370
    30
100
AcDbLine
 10
32650.51497203719
 20
20772.77687335845
 30
0.0
 11
32650.51497203719
 21
20773.37687335845
 31
0.0
  0
ARC
  5
27A
330
1F
100
AcDbEntity
  8
9
  6
Continuous
 62
     7
370
    30
100
AcDbCircle
 10
32650.70247203719
 20
20773.82687335844
 30
0.0
 40
0.4874999999992724
100
AcDbArc
 50
112.619864948172
 51
247.3801350519921
  0
LINE
  5
27B
330
1F
100
AcDbEntity
  8
9
  6
Continuous
 62
     7
370
    30
100
AcDbLine
 10
32648.01497203719
 20
20776.02687335844
 30
0.0
 11
32648.01497203719
 21
20775.77687335845
 31
0.0
  0
LINE
  5
27C
330
1F
100
AcDbEntity
  8
9
  6
Continuous
 62
     7
370
    30
100
AcDbLine
 10
32648.01497203719
 20
20774.87687335845
 30
0.0
 11
32648.01497203719
 21
20774.27687335845
 31
0.0
  0
ARC
  5
27D
330
1F
100
AcDbEntity
  8
9
  6
Continuous
 62
     7
370
    30
100
AcDbCircle
 10
32648.20247203719
 20
20775.32687335844
 30
0.0
 40
0.4874999999992724
100
AcDbArc
 50
112.6198649480075
 51
247.3801350519921
  0
LINE
  5
27E
330
1F
100
AcDbEntity
  8
9
  6
Continuous
 62
     7
370
    30
100
AcDbLine
 10
32648.01497203719
 20
20773.37687335845
 30
0.0
 11
32648.01497203719
 21
20772.77687335845
 31
0.0
  0
ARC
  5
27F
330
1F
100
AcDbEntity
  8
9
  6
Continuous
 62
     7
370
    30
100
AcDbCircle
 10
32648.20247203719
 20
20773.82687335844
 30
0.0
 40
0.4874999999992724
100
AcDbArc
 50
112.6198649480075
 51
247.3801350519921
  0
ARC
  5
280
330
1F
100
AcDbEntity
  8
9
  6
Continuous
 62
     7
370
    30
100
AcDbCircle
 10
32648.20247203719
 20
20772.32687335844
 30
0.0
 40
0.4874999999992724
100
AcDbArc
 50
112.6198649480075
 51
247.3801350519921
  0
LINE
  5
281
330
1F
100
AcDbEntity
  8
9
  6
Continuous
 62
     7
370
    30
100
AcDbLine
 10
32651.76497203719
 20
20771.52687335844
 30
0.0
 11
32651.26497203719
 21
20771.02687335844
 31
0.0
  0
SPLINE
  5
282
330
1F
100
AcDbEntity
  8
9
  6
Continuous
 62
     7
370
    30
100
AcDbSpline
210
0.0
220
0.0
230
1.0
 70
    12
 71
     3
 72
     8
 73
     4
 74
     0
 42
0.000000001
 43
0.00001
 40
0.0
 40
0.0
 40
0.0
 40
0.0
 40
0.0007108901684311
 40
0.0007108901684311
 40
0.0007108901684311
 40
0.0007108901684311
 10
32650.51497203719
 20
20771.53030263944
 30
0.0
 41
1.0
 10
32650.36911611823
 20
20771.36361016063
 30
0.0
 41
1.0
 10
32650.22323873203
 20
20771.19694272252
 30
0.0
 41
1.0
 10
32650.0773379164
 20
20771.03030263944
 30
0.0
 41
1.0
  0
SPLINE
  5
283
330
1F
100
AcDbEntity
  8
9
  6
Continuous
 62
     7
370
    30
100
AcDbSpline
210
0.0
220
0.0
230
1.0
 70
    12
 71
     3
 72
     8
 73
     4
 74
     0
 42
0.000000001
 43
0.00001
 40
0.0
 40
0.0
 40
0.0
 40
0.0
 40
0.0007108901684311
 40
0.0007108901684311
 40
0.0007108901684311
 40
0.0007108901684311
 10
32647.5773379164
 20
20771.02687335844
 30
0.0
 41
1.0
 10
32647.72323873203
 20
20771.19351344151
 30
0.0
 41
1.0
 10
32647.86911611823
 20
20771.36018087963
 30
0.0
 41
1.0
 10
32648.01497203719
 20
20771.52687335844
 30
0.0
 41
1.0
  0
LINE
  5
284
330
1F
100
AcDbEntity
  8
9
  6
Continuous
 62
     7
370
    30
100
AcDbLine
 10
32651.76497203719
 20
20771.53030263944
 30
0.0
 11
32650.51497203719
 21
20771.53030263944
 31
0.0
  0
LINE
  5
285
330
1F
100
AcDbEntity
  8
9
  6
Continuous
 62
     7
370
    30
100
AcDbLine
 10
32651.76497203719
 20
20771.87687335844
 30
0.0
 11
32651.76497203719
 21
20771.52687335844
 31
0.0
  0
LINE
  5
286
330
1F
100
AcDbEntity
  8
9
  6
Continuous
 62
     7
370
    30
100
AcDbLine
 10
32650.51497203719
 20
20771.52687335844
 30
0.0
 11
32650.51497203719
 21
20771.87687335844
 31
0.0
  0
LINE
  5
287
330
1F
100
AcDbEntity
  8
9
  6
Continuous
 62
     7
370
    30
100
AcDbLine
 10
32649.20118773036
 20
20771.02687335844
 30
0.0
 11
32649.20118773036
 21
20776.89289876223
 31
0.0
  0
LINE
  5
288
330
1F
100
AcDbEntity
  8
9
  6
Continuous
 62
     7
370
    30
100
AcDbLine
 10
32648.01497203719
 20
20771.87687335844
 30
0.0
 11
32648.01497203719
 21
20771.52687335844
 31
0.0
  0
LINE
  5
289
330
1F
100
AcDbEntity
  8
9
  6
Continuous
 62
     7
370
    30
100
AcDbLine
 10
32636.76497203719
 20
20771.02687335844
 30
0.0
 11
32636.76497203719
 21
20776.89289876223
 31
0.0
  0
LINE
  5
28A
330
1F
100
AcDbEntity
  8
9
  6
Continuous
 62
     7
370
    30
100
AcDbLine
 10
32631.76497203719
 20
20771.02687335844
 30
0.0
 11
32631.76497203719
 21
20776.89289876223
 31
0.0
  0
ARC
  5
28B
330
1F
100
AcDbEntity
  8
9
  6
Continuous
 62
     7
370
    30
100
AcDbCircle
 10
32620.32747203719
 20
20773.82687335844
 30
0.0
 40
0.4874999999992724
100
AcDbArc
 50
292.6198649480071
 51
67.38013505199247
  0
ARC
  5
28C
330
1F
100
AcDbEntity
  8
9
  6
Continuous
 62
     7
370
    30
100
AcDbCircle
 10
32620.32747203719
 20
20772.32687335844
 30
0.0
 40
0.4874999999992724
100
AcDbArc
 50
292.6198649480071
 51
67.38013505199247
  0
LINE
  5
28D
330
1F
100
AcDbEntity
  8
9
  6
Continuous
 62
     7
370
    30
100
AcDbLine
 10
32620.51497203719
 20
20773.37687335845
 30
0.0
 11
32620.51497203719
 21
20772.77687335845
 31
0.0
  0
ARC
  5
28E
330
1F
100
AcDbEntity
  8
9
  6
Continuous
 62
     7
370
    30
100
AcDbCircle
 10
32620.32747203719
 20
20775.32687335844
 30
0.0
 40
0.4874999999992724
100
AcDbArc
 50
292.6198649480071
 51
67.38013505199247
  0
LINE
  5
28F
330
1F
100
AcDbEntity
  8
9
  6
Continuous
 62
     7
370
    30
100
AcDbLine
 10
32620.51497203719
 20
20774.87687335845
 30
0.0
 11
32620.51497203719
 21
20774.27687335845
 31
0.0
  0
LINE
  5
290
330
1F
100
AcDbEntity
  8
9
  6
Continuous
 62
     7
370
    30
100
AcDbLine
 10
32620.51497203719
 20
20776.02687335844
 30
0.0
 11
32620.51497203719
 21
20775.77687335845
 31
0.0
  0
SPLINE
  5
291
330
1F
100
AcDbEntity
  8
9
  6
Continuous
 62
     7
370
    30
100
AcDbSpline
210
0.0
220
0.0
230
1.0
 70
    12
 71
     3
 72
     8
 73
     4
 74
     0
 42
0.000000001
 43
0.00001
 40
0.0
 40
0.0
 40
0.0
 40
0.0
 40
0.0007108901684311
 40
0.0007108901684311
 40
0.0007108901684311
 40
0.0007108901684311
 10
32620.95260615798
 20
20771.02687335844
 30
0.0
 41
1.0
 10
32620.80670534236
 20
20771.19351344151
 30
0.0
 41
1.0
 10
32620.66082795615
 20
20771.36018087963
 30
0.0
 41
1.0
 10
32620.51497203719
 20
20771.52687335844
 30
0.0
 41
1.0
  0
LINE
  5
292
330
1F
100
AcDbEntity
  8
9
  6
Continuous
 62
     7
370
    30
100
AcDbLine
 10
32620.51497203719
 20
20771.87687335844
 30
0.0
 11
32620.51497203719
 21
20771.52687335844
 31
0.0
  0
LINE
  5
293
330
1F
100
AcDbEntity
  8
9
  6
Continuous
 62
     7
370
    30
100
AcDbLine
 10
32619.32875634402
 20
20771.02687335844
 30
0.0
 11
32619.32875634402
 21
20776.89289876223
 31
0.0
  0
ARC
  5
294
330
1F
100
AcDbEntity
  8
9
  6
Continuous
 62
     7
370
    30
100
AcDbCircle
 10
32617.82747203719
 20
20773.82687335844
 30
0.0
 40
0.4874999999992724
100
AcDbArc
 50
292.6198649480071
 51
67.38013505182802
  0
ARC
  5
295
330
1F
100
AcDbEntity
  8
9
  6
Continuous
 62
     7
370
    30
100
AcDbCircle
 10
32616.57747203719
 20
20773.82687335844
 30
0.0
 40
0.4874999999992724
100
AcDbArc
 50
292.6198649480071
 51
67.38013505199247
  0
LINE
  5
296
330
1F
100
AcDbEntity
  8
9
  6
Continuous
 62
     7
370
    30
100
AcDbLine
 10
32618.01497203719
 20
20772.77687335845
 30
0.0
 11
32618.01497203719
 21
20773.37687335845
 31
0.0
  0
ARC
  5
297
330
1F
100
AcDbEntity
  8
9
  6
Continuous
 62
     7
370
    30
100
AcDbCircle
 10
32617.82747203719
 20
20772.32687335844
 30
0.0
 40
0.4874999999992724
100
AcDbArc
 50
292.6198649480071
 51
67.38013505182802
  0
ARC
  5
298
330
1F
100
AcDbEntity
  8
9
  6
Continuous
 62
     7
370
    30
100
AcDbCircle
 10
32616.57747203719
 20
20772.32687335844
 30
0.0
 40
0.4874999999992724
100
AcDbArc
 50
292.6198649480071
 51
67.38013505199247
  0
LINE
  5
299
330
1F
100
AcDbEntity
  8
9
  6
Continuous
 62
     7
370
    30
100
AcDbLine
 10
32616.76497203719
 20
20773.37687335845
 30
0.0
 11
32616.76497203719
 21
20772.77687335845
 31
0.0
  0
LINE
  5
29A
330
1F
100
AcDbEntity
  8
9
  6
Continuous
 62
     7
370
    30
100
AcDbLine
 10
32618.01497203719
 20
20774.27687335845
 30
0.0
 11
32618.01497203719
 21
20774.87687335844
 31
0.0
  0
ARC
  5
29B
330
1F
100
AcDbEntity
  8
9
  6
Continuous
 62
     7
370
    30
100
AcDbCircle
 10
32617.82747203719
 20
20775.32687335844
 30
0.0
 40
0.4874999999992724
100
AcDbArc
 50
292.6198649480071
 51
67.38013505182802
  0
LINE
  5
29C
330
1F
100
AcDbEntity
  8
9
  6
Continuous
 62
     7
370
    30
100
AcDbLine
 10
32618.01497203719
 20
20775.77687335845
 30
0.0
 11
32618.01497203719
 21
20776.02687335844
 31
0.0
  0
ARC
  5
29D
330
1F
100
AcDbEntity
  8
9
  6
Continuous
 62
     7
370
    30
100
AcDbCircle
 10
32616.57747203719
 20
20775.32687335844
 30
0.0
 40
0.4874999999992724
100
AcDbArc
 50
292.6198649480071
 51
67.38013505199247
  0
LINE
  5
29E
330
1F
100
AcDbEntity
  8
9
  6
Continuous
 62
     7
370
    30
100
AcDbLine
 10
32616.76497203719
 20
20774.87687335845
 30
0.0
 11
32616.76497203719
 21
20774.27687335845
 31
0.0
  0
LINE
  5
29F
330
1F
100
AcDbEntity
  8
9
  6
Continuous
 62
     7
370
    30
100
AcDbLine
 10
32616.76497203719
 20
20776.02687335844
 30
0.0
 11
32616.76497203719
 21
20775.77687335845
 31
0.0
  0
SPLINE
  5
2A0
330
1F
100
AcDbEntity
  8
9
  6
Continuous
 62
     7
370
    30
100
AcDbSpline
210
0.0
220
0.0
230
1.0
 70
    12
 71
     3
 72
     8
 73
     4
 74
     0
 42
0.000000001
 43
0.00001
 40
0.0
 40
0.0
 40
0.0
 40
0.0
 40
0.0007108901684311
 40
0.0007108901684311
 40
0.0007108901684311
 40
0.0007108901684311
 10
32618.01497203719
 20
20771.53030263944
 30
0.0
 41
1.0
 10
32618.16082795615
 20
20771.36361016063
 30
0.0
 41
1.0
 10
32618.30670534236
 20
20771.19694272252
 30
0.0
 41
1.0
 10
32618.45260615798
 20
20771.03030263944
 30
0.0
 41
1.0
  0
LINE
  5
2A1
330
1F
100
AcDbEntity
  8
9
  6
Continuous
 62
     7
370
    30
100
AcDbLine
 10
32616.76497203719
 20
20771.52687335844
 30
0.0
 11
32617.26497203719
 21
20771.02687335844
 31
0.0
  0
LINE
  5
2A2
330
1F
100
AcDbEntity
  8
9
  6
Continuous
 62
     7
370
    30
100
AcDbLine
 10
32616.76497203719
 20
20771.53030263944
 30
0.0
 11
32618.01497203719
 21
20771.53030263944
 31
0.0
  0
LINE
  5
2A3
330
1F
100
AcDbEntity
  8
9
  6
Continuous
 62
     7
370
    30
100
AcDbLine
 10
32618.01497203719
 20
20771.52687335844
 30
0.0
 11
32618.01497203719
 21
20771.87687335844
 31
0.0
  0
LINE
  5
2A4
330
1F
100
AcDbEntity
  8
9
  6
Continuous
 62
     7
370
    30
100
AcDbLine
 10
32616.76497203719
 20
20771.87687335844
 30
0.0
 11
32616.76497203719
 21
20771.52687335844
 31
0.0
  0
LINE
  5
2A5
330
1F
100
AcDbEntity
  8
9
  6
Continuous
 62
     7
370
    30
100
AcDbLine
 10
32620.51497203719
 20
20771.53030263944
 30
0.0
 11
32631.76497203719
 21
20771.53030263944
 31
0.0
  0
LINE
  5
2A6
330
1F
100
AcDbEntity
  8
9
  6
Continuous
 62
     7
370
    30
100
AcDbLine
 10
32648.01497203719
 20
20771.53030263944
 30
0.0
 11
32636.76497203719
 21
20771.53030263944
 31
0.0
  0
LINE
  5
2A7
330
1F
100
AcDbEntity
  8
9
  6
Continuous
 62
     7
370
    30
100
AcDbLine
 10
32620.51497203719
 20
20771.87687335844
 30
0.0
 11
32631.76497203719
 21
20771.87687335844
 31
0.0
  0
LINE
  5
2A8
330
1F
100
AcDbEntity
  8
9
  6
Continuous
 62
     7
370
    30
100
AcDbLine
 10
32620.51497203719
 20
20772.77687335845
 30
0.0
 11
32631.76497203719
 21
20772.77687335845
 31
0.0
  0
LINE
  5
2A9
330
1F
100
AcDbEntity
  8
9
  6
Continuous
 62
     7
370
    30
100
AcDbLine
 10
32620.51497203719
 20
20773.37687335845
 30
0.0
 11
32631.76497203719
 21
20773.37687335845
 31
0.0
  0
LINE
  5
2AA
330
1F
100
AcDbEntity
  8
9
  6
Continuous
 62
     7
370
    30
100
AcDbLine
 10
32620.51497203719
 20
20774.87687335845
 30
0.0
 11
32631.76497203724
 21
20774.87687335845
 31
0.0
  0
LINE
  5
2AB
330
1F
100
AcDbEntity
  8
9
  6
Continuous
 62
     7
370
    30
100
AcDbLine
 10
32620.51497203719
 20
20774.27687335845
 30
0.0
 11
32631.76497203719
 21
20774.27687335845
 31
0.0
  0
LINE
  5
2AC
330
1F
100
AcDbEntity
  8
9
  6
Continuous
 62
     7
370
    30
100
AcDbLine
 10
32620.51497203719
 20
20775.77687335845
 30
0.0
 11
32631.76497203724
 21
20775.77687335845
 31
0.0
  0
LINE
  5
2AD
330
1F
100
AcDbEntity
  8
9
  6
Continuous
 62
     7
370
    30
100
AcDbLine
 10
32616.76497203719
 20
20773.37687335845
 30
0.0
 11
32618.0149720372
 21
20773.37687335845
 31
0.0
  0
LINE
  5
2AE
330
1F
100
AcDbEntity
  8
9
  6
Continuous
 62
     7
370
    30
100
AcDbLine
 10
32616.76497203719
 20
20772.77687335845
 30
0.0
 11
32618.01497203718
 21
20772.77687335845
 31
0.0
  0
LINE
  5
2AF
330
1F
100
AcDbEntity
  8
9
  6
Continuous
 62
     7
370
    30
100
AcDbLine
 10
32616.76497203719
 20
20771.87687335844
 30
0.0
 11
32618.01497203719
 21
20771.87687335844
 31
0.0
  0
LINE
  5
2B0
330
1F
100
AcDbEntity
  8
9
  6
Continuous
 62
     7
370
    30
100
AcDbLine
 10
32616.76497203719
 20
20775.77687335845
 30
0.0
 11
32618.01497203718
 21
20775.77687335845
 31
0.0
  0
LINE
  5
2B1
330
1F
100
AcDbEntity
  8
9
  6
Continuous
 62
     7
370
    30
100
AcDbLine
 10
32616.76497203719
 20
20774.87687335845
 30
0.0
 11
32618.0149720372
 21
20774.87687335845
 31
0.0
  0
LINE
  5
2B2
330
1F
100
AcDbEntity
  8
9
  6
Continuous
 62
     7
370
    30
100
AcDbLine
 10
32616.76497203719
 20
20774.27687335845
 30
0.0
 11
32618.01497203718
 21
20774.27687335845
 31
0.0
  0
LINE
  5
2B3
330
1F
100
AcDbEntity
  8
9
  6
Continuous
 62
     7
370
    30
100
AcDbLine
 10
32648.01497203719
 20
20775.77687335845
 30
0.0
 11
32636.76497203715
 21
20775.77687335845
 31
0.0
  0
LINE
  5
2B4
330
1F
100
AcDbEntity
  8
9
  6
Continuous
 62
     7
370
    30
100
AcDbLine
 10
32648.01497203719
 20
20774.27687335845
 30
0.0
 11
32636.76497203719
 21
20774.27687335845
 31
0.0
  0
LINE
  5
2B5
330
1F
100
AcDbEntity
  8
9
  6
Continuous
 62
     7
370
    30
100
AcDbLine
 10
32648.01497203719
 20
20774.87687335845
 30
0.0
 11
32636.76497203715
 21
20774.87687335845
 31
0.0
  0
LINE
  5
2B6
330
1F
100
AcDbEntity
  8
9
  6
Continuous
 62
     7
370
    30
100
AcDbLine
 10
32648.01497203719
 20
20773.37687335845
 30
0.0
 11
32636.76497203719
 21
20773.37687335845
 31
0.0
  0
LINE
  5
2B7
330
1F
100
AcDbEntity
  8
9
  6
Continuous
 62
     7
370
    30
100
AcDbLine
 10
32648.01497203719
 20
20772.77687335845
 30
0.0
 11
32636.76497203719
 21
20772.77687335845
 31
0.0
  0
LINE
  5
2B8
330
1F
100
AcDbEntity
  8
9
  6
Continuous
 62
     7
370
    30
100
AcDbLine
 10
32648.01497203719
 20
20771.87687335844
 30
0.0
 11
32636.76497203719
 21
20771.87687335844
 31
0.0
  0
LINE
  5
2B9
330
1F
100
AcDbEntity
  8
9
  6
Continuous
 62
     7
370
    30
100
AcDbLine
 10
32651.76497203719
 20
20774.27687335845
 30
0.0
 11
32650.51497203721
 21
20774.27687335845
 31
0.0
  0
LINE
  5
2BA
330
1F
100
AcDbEntity
  8
9
  6
Continuous
 62
     7
370
    30
100
AcDbLine
 10
32651.7649720372
 20
20774.87687335845
 30
0.0
 11
32650.51497203719
 21
20774.87687335845
 31
0.0
  0
LINE
  5
2BB
330
1F
100
AcDbEntity
  8
9
  6
Continuous
 62
     7
370
    30
100
AcDbLine
 10
32651.7649720372
 20
20775.77687335845
 30
0.0
 11
32650.51497203721
 21
20775.77687335845
 31
0.0
  0
LINE
  5
2BC
330
1F
100
AcDbEntity
  8
9
  6
Continuous
 62
     7
370
    30
100
AcDbLine
 10
32651.76497203719
 20
20771.87687335844
 30
0.0
 11
32650.51497203719
 21
20771.87687335844
 31
0.0
  0
LINE
  5
2BD
330
1F
100
AcDbEntity
  8
9
  6
Continuous
 62
     7
370
    30
100
AcDbLine
 10
32651.76497203719
 20
20772.77687335845
 30
0.0
 11
32650.5149720372
 21
20772.77687335845
 31
0.0
  0
LINE
  5
2BE
330
1F
100
AcDbEntity
  8
9
  6
Continuous
 62
     7
370
    30
100
AcDbLine
 10
32651.76497203719
 20
20773.37687335845
 30
0.0
 11
32650.51497203718
 21
20773.37687335845
 31
0.0
  0
LINE
  5
2BF
330
1F
100
AcDbEntity
  8
9
  6
Continuous
 62
     7
370
    30
100
AcDbLine
 10
32643.26497203719
 20
20793.32687335844
 30
0.0
 11
32644.52706881129
 21
20792.06477658424
 31
0.0
  0
LINE
  5
2C0
330
1F
100
AcDbEntity
  8
9
  6
Continuous
 62
     7
370
    30
100
AcDbLine
 10
32644.52706881129
 20
20792.06477658424
 30
0.0
 11
32644.98137828714
 21
20777.52687335844
 31
0.0
  0
LINE
  5
2C1
330
1F
100
AcDbEntity
  8
9
  6
Continuous
 62
     7
370
    30
100
AcDbLine
 10
32625.26497203719
 20
20793.32687335844
 30
0.0
 11
32624.00287526309
 21
20792.06477658424
 31
0.0
  0
LINE
  5
2C2
330
1F
100
AcDbEntity
  8
9
  6
Continuous
 62
     7
370
    30
100
AcDbLine
 10
32624.00287526309
 20
20792.06477658424
 30
0.0
 11
32623.54856578724
 21
20777.52687335844
 31
0.0
  0
LINE
  5
2C3
330
1F
100
AcDbEntity
  8
9
  6
Continuous
 62
     7
370
    30
100
AcDbLine
 10
32648.41497203719
 20
20770.02687334534
 30
0.0
 11
32648.41497203719
 21
20771.02687335844
 31
0.0
  0
LINE
  5
2C4
330
1F
100
AcDbEntity
  8
9
  6
Continuous
 62
     7
370
    30
100
AcDbLine
 10
32648.91497203719
 20
20764.52402974399
 30
0.0
 11
32648.91497203719
 21
20771.02687335844
 31
0.0
  0
ARC
  5
2C5
330
1F
100
AcDbEntity
  8
9
  6
Continuous
 62
     7
370
    30
100
AcDbCircle
 10
32640.58697709249
 20
20767.15505083015
 30
0.0
 40
1.640694770587288
100
AcDbArc
 50
262.9064018570264
 51
355.520709378143
  0
ARC
  5
2C6
330
1F
100
AcDbEntity
  8
9
  6
Continuous
 62
     7
370
    30
100
AcDbCircle
 10
32640.57943623579
 20
20766.88953684365
 30
0.0
 40
1.648956901139172
100
AcDbArc
 50
4.778960574464859
 51
96.79392819036255
  0
LINE
  5
2C7
330
1F
100
AcDbEntity
  8
9
  6
Continuous
 62
     7
370
    30
100
AcDbLine
 10
32648.91497203719
 20
20758.52402974391
 30
0.0
 11
32649.21497203719
 21
20760.96733367231
 31
0.0
  0
LINE
  5
2C8
330
1F
100
AcDbEntity
  8
9
  6
Continuous
 62
     7
370
    30
100
AcDbLine
 10
32649.21497203719
 20
20758.52402974391
 30
0.0
 11
32648.91497203719
 21
20758.52402974391
 31
0.0
  0
LINE
  5
2C9
330
1F
100
AcDbEntity
  8
9
  6
Continuous
 62
     7
370
    30
100
AcDbLine
 10
32649.21497203719
 20
20761.52402974391
 30
0.0
 11
32648.91497203719
 21
20761.52402974391
 31
0.0
  0
LINE
  5
2CA
330
1F
100
AcDbEntity
  8
9
  6
Continuous
 62
     7
370
    30
100
AcDbLine
 10
32648.91497203719
 20
20753.14364498631
 30
0.0
 11
32648.91497203719
 21
20755.52402974391
 31
0.0
  0
LINE
  5
2CB
330
1F
100
AcDbEntity
  8
9
  6
Continuous
 62
     7
370
    30
100
AcDbLine
 10
32648.91497203719
 20
20755.52402974391
 30
0.0
 11
32649.21497203719
 21
20757.96733367231
 31
0.0
  0
ARC
  5
2CC
330
1F
100
AcDbEntity
  8
9
  6
Continuous
 62
     7
370
    30
100
AcDbCircle
 10
32646.66497203719
 20
20751.82402974395
 30
0.0
 40
0.2000000000007276
100
AcDbArc
 50
0.0
 51
89.99999999999991
  0
LINE
  5
2CD
330
1F
100
AcDbEntity
  8
9
  6
Continuous
 62
     7
370
    30
100
AcDbLine
 10
32648.91497203719
 20
20761.52402974391
 30
0.0
 11
32649.21497203719
 21
20763.96733367231
 31
0.0
  0
LINE
  5
2CE
330
1F
100
AcDbEntity
  8
9
  6
Continuous
 62
     7
370
    30
100
AcDbLine
 10
32647.51497188069
 20
20749.02386982374
 30
0.0
 11
32647.51497188069
 21
20747.52386864654
 31
0.0
  0
LINE
  5
2CF
330
1F
100
AcDbEntity
  8
9
  6
Continuous
 62
     7
370
    30
100
AcDbLine
 10
32647.51497188069
 20
20744.52387001744
 30
0.0
 11
32647.51497188069
 21
20744.02386900414
 31
0.0
  0
ARC
  5
2D0
330
1F
100
AcDbEntity
  8
9
  6
Continuous
 62
     7
370
    30
100
AcDbCircle
 10
32646.66497203719
 20
20751.42402974395
 30
0.0
 40
0.2000000000007276
100
AcDbArc
 50
269.9999999999998
 51
0.0
  0
SPLINE
  5
2D1
330
1F
100
AcDbEntity
  8
9
  6
Continuous
 62
     7
370
    30
100
AcDbSpline
210
0.0
220
0.0
230
1.0
 70
    12
 71
     3
 72
    12
 73
     8
 74
     0
 42
0.000000001
 43
0.00001
 40
0.0
 40
0.0
 40
0.0
 40
0.0
 40
0.205840282809383
 40
0.4116490113380446
 40
0.6184457918287852
 40
0.8292559119854885
 40
1.0
 40
1.0
 40
1.0
 40
1.0
 10
32644.74778433752
 20
20746.02386933199
 30
0.0
 41
1.0
 10
32644.75780081037
 20
20745.8584428667
 30
0.0
 41
1.0
 10
32644.7778322206
 20
20745.52761529517
 30
0.0
 41
1.0
 10
32644.93156016255
 20
20745.08622644273
 30
0.0
 41
1.0
 10
32645.15092997606
 20
20744.74953591487
 30
0.0
 41
1.0
 10
32645.39784063633
 20
20744.55496711475
 30
0.0
 41
1.0
 10
32645.55756036832
 20
20744.53348374531
 30
0.0
 41
1.0
 10
32645.62903435391
 20
20744.52387001744
 30
0.0
 41
1.0
  0
ARC
  5
2D2
330
1F
100
AcDbEntity
  8
9
  6
Continuous
 62
     7
370
    30
100
AcDbCircle
 10
32640.96339657229
 20
20745.92792465564
 30
0.0
 40
1.408743357584171
100
AcDbArc
 50
274.67594439064
 51
3.905242003584402
  0
ARC
  5
2D3
330
1F
100
AcDbEntity
  8
9
  6
Continuous
 62
     7
370
    30
100
AcDbCircle
 10
32640.5879206074
 20
20745.91033851054
 30
0.0
 40
1.38763278089391
100
AcDbArc
 50
272.3472583875752
 51
4.692967808166062
  0
SPLINE
  5
2D4
330
1F
100
AcDbEntity
  8
9
  6
Continuous
 62
     7
370
    30
100
AcDbSpline
210
0.0
220
0.0
230
1.0
 70
    12
 71
     3
 72
    12
 73
     8
 74
     0
 42
0.000000001
 43
0.00001
 40
0.0
 40
0.0
 40
0.0
 40
0.0
 40
0.2270414180693609
 40
0.4545205376007232
 40
0.67146492600628
 40
0.8806674473517201
 40
1.0
 40
1.0
 40
1.0
 40
1.0
 10
32645.62903435391
 20
20747.52386864653
 30
0.0
 41
1.0
 10
32645.53328117312
 20
20747.50695899659
 30
0.0
 41
1.0
 10
32645.34159021392
 20
20747.47310709744
 30
0.0
 41
1.0
 10
32645.06764911805
 20
20747.19921698406
 30
0.0
 41
1.0
 10
32644.86178154487
 20
20746.79884806778
 30
0.0
 41
1.0
 10
32644.76061847249
 20
20746.38238029881
 30
0.0
 41
1.0
 10
32644.75120394188
 20
20746.11939315706
 30
0.0
 41
1.0
 10
32644.74778433752
 20
20746.02386933199
 30
0.0
 41
1.0
  0
ARC
  5
2D5
330
1F
100
AcDbEntity
  8
9
  6
Continuous
 62
     7
370
    30
100
AcDbCircle
 10
32641.00119864599
 20
20746.15233972074
 30
0.0
 40
1.373690855685709
100
AcDbArc
 50
354.6337390539504
 51
86.78507455176585
  0
ARC
  5
2D6
330
1F
100
AcDbEntity
  8
9
  6
Continuous
 62
     7
370
    30
100
AcDbCircle
 10
32640.55479039809
 20
20746.10810974704
 30
0.0
 40
1.418614261419862
100
AcDbArc
 50
356.595648634667
 51
86.36412516942642
  0
LINE
  5
2D7
330
1F
100
AcDbEntity
  8
9
  6
Continuous
 62
     7
370
    30
100
AcDbLine
 10
32647.51497188069
 20
20747.52386864654
 30
0.0
 11
32645.62903435389
 21
20747.52386864654
 31
0.0
  0
ARC
  5
2D8
330
1F
100
AcDbEntity
  8
9
  6
Continuous
 62
     7
370
    30
100
AcDbCircle
 10
32645.51497203719
 20
20744.02386944984
 30
0.0
 40
2.0
100
AcDbArc
 50
269.9999999999998
 51
0.0
  0
LINE
  5
2D9
330
1F
100
AcDbEntity
  8
9
  6
Continuous
 62
     7
370
    30
100
AcDbLine
 10
32647.51497188069
 20
20744.52387001744
 30
0.0
 11
32645.62903435389
 21
20744.52387001744
 31
0.0
  0
LINE
  5
2DA
330
1F
100
AcDbEntity
  8
9
  6
Continuous
 62
     7
370
    30
100
AcDbLine
 10
32646.8649720372
 20
20751.82402974395
 30
0.0
 11
32646.8649720372
 21
20751.42402974395
 31
0.0
  0
SPLINE
  5
2DB
330
1F
100
AcDbEntity
  8
9
  6
Continuous
 62
     7
370
    30
100
AcDbSpline
210
0.0
220
0.0
230
1.0
 70
    12
 71
     3
 72
    14
 73
    10
 74
     0
 42
0.000000001
 43
0.00001
 40
0.0
 40
0.0
 40
0.0
 40
0.0
 40
0.1088769686984931
 40
0.2172663573285982
 40
0.3685706574444105
 40
0.4825742753969225
 40
0.5996174274824865
 40
0.7976149977365948
 40
1.0
 40
1.0
 40
1.0
 40
1.0
 10
32628.15626149492
 20
20767.02691460632
 30
0.0
 41
1.0
 10
32628.16895478533
 20
20766.9006336201
 30
0.0
 41
1.0
 10
32628.19428452223
 20
20766.64863716755
 30
0.0
 41
1.0
 10
32628.40158331019
 20
20766.27875068139
 30
0.0
 41
1.0
 10
32628.70241215325
 20
20765.99670603068
 30
0.0
 41
1.0
 10
32629.06435519332
 20
20765.79706763754
 30
0.0
 41
1.0
 10
32629.50079012297
 20
20765.64242107918
 30
0.0
 41
1.0
 10
32630.05670540916
 20
20765.54236179904
 30
0.0
 41
1.0
 10
32630.50029262781
 20
20765.53210098631
 30
0.0
 41
1.0
 10
32630.72451667355
 20
20765.52691436045
 30
0.0
 41
1.0
  0
SPLINE
  5
2DC
330
1F
100
AcDbEntity
  8
9
  6
Continuous
 62
     7
370
    30
100
AcDbSpline
210
0.0
220
0.0
230
1.0
 70
    12
 71
     3
 72
    14
 73
    10
 74
     0
 42
0.000000001
 43
0.00001
 40
0.0
 40
0.0
 40
0.0
 40
0.0
 40
0.2170493941225676
 40
0.4388311995732112
 40
0.5988137766302898
 40
0.7597871991591737
 40
0.8750649674182215
 40
0.9755548291618868
 40
1.0
 40
1.0
 40
1.0
 40
1.0
 10
32630.72451667355
 20
20768.52691485219
 30
0.0
 41
1.0
 10
32630.48415418387
 20
20768.52094930062
 30
0.0
 41
1.0
 10
32629.99818848879
 20
20768.50888812826
 30
0.0
 41
1.0
 10
32629.3575569016
 20
20768.37969863782
 30
0.0
 41
1.0
 10
32628.8206221029
 20
20768.14377558028
 30
0.0
 41
1.0
 10
32628.44881452607
 20
20767.83771527164
 30
0.0
 41
1.0
 10
32628.22703164889
 20
20767.47283503503
 30
0.0
 41
1.0
 10
32628.16031229359
 20
20767.19925177764
 30
0.0
 41
1.0
 10
32628.15692438373
 20
20767.05511654673
 30
0.0
 41
1.0
 10
32628.15626149492
 20
20767.02691460632
 30
0.0
 41
1.0
  0
LINE
  5
2DD
330
1F
100
AcDbEntity
  8
9
  6
Continuous
 62
     7
370
    30
100
AcDbLine
 10
32620.11497203719
 20
20770.02687334534
 30
0.0
 11
32620.11497203719
 21
20771.02687335844
 31
0.0
  0
LINE
  5
2DE
330
1F
100
AcDbEntity
  8
9
  6
Continuous
 62
     7
370
    30
100
AcDbLine
 10
32619.61497203719
 20
20764.52402974399
 30
0.0
 11
32619.61497203719
 21
20771.02687335844
 31
0.0
  0
LINE
  5
2DF
330
1F
100
AcDbEntity
  8
9
  6
Continuous
 62
     7
370
    30
100
AcDbLine
 10
32619.61497203719
 20
20758.52402974391
 30
0.0
 11
32619.31497203719
 21
20760.96733367231
 31
0.0
  0
LINE
  5
2E0
330
1F
100
AcDbEntity
  8
9
  6
Continuous
 62
     7
370
    30
100
AcDbLine
 10
32619.31497203719
 20
20758.52402974391
 30
0.0
 11
32619.61497203719
 21
20758.52402974391
 31
0.0
  0
LINE
  5
2E1
330
1F
100
AcDbEntity
  8
9
  6
Continuous
 62
     7
370
    30
100
AcDbLine
 10
32619.31497203719
 20
20761.52402974391
 30
0.0
 11
32619.61497203719
 21
20761.52402974391
 31
0.0
  0
LINE
  5
2E2
330
1F
100
AcDbEntity
  8
9
  6
Continuous
 62
     7
370
    30
100
AcDbLine
 10
32619.61497203719
 20
20753.14364498631
 30
0.0
 11
32619.61497203719
 21
20755.52402974391
 31
0.0
  0
ARC
  5
2E3
330
1F
100
AcDbEntity
  8
9
  6
Continuous
 62
     7
370
    30
100
AcDbCircle
 10
32621.86497203719
 20
20751.82402974395
 30
0.0
 40
0.2000000000007276
100
AcDbArc
 50
89.99999999999991
 51
179.9999999999998
  0
LINE
  5
2E4
330
1F
100
AcDbEntity
  8
9
  6
Continuous
 62
     7
370
    30
100
AcDbLine
 10
32619.61497203719
 20
20755.52402974391
 30
0.0
 11
32619.31497203719
 21
20757.96733367231
 31
0.0
  0
LINE
  5
2E5
330
1F
100
AcDbEntity
  8
9
  6
Continuous
 62
     7
370
    30
100
AcDbLine
 10
32619.61497203719
 20
20761.52402974391
 30
0.0
 11
32619.31497203719
 21
20763.96733367231
 31
0.0
  0
ARC
  5
2E6
330
1F
100
AcDbEntity
  8
9
  6
Continuous
 62
     7
370
    30
100
AcDbCircle
 10
32627.94296698189
 20
20767.15505083015
 30
0.0
 40
1.640694770587288
100
AcDbArc
 50
184.4792906218563
 51
277.0935981429728
  0
ARC
  5
2E7
330
1F
100
AcDbEntity
  8
9
  6
Continuous
 62
     7
370
    30
100
AcDbCircle
 10
32627.95050783859
 20
20766.88953684365
 30
0.0
 40
1.648956901139172
100
AcDbArc
 50
83.20607180965241
 51
175.2210394255246
  0
LINE
  5
2E8
330
1F
100
AcDbEntity
  8
9
  6
Continuous
 62
     7
370
    30
100
AcDbLine
 10
32639.81497192249
 20
20751.22402974395
 30
0.0
 11
32639.81497192249
 21
20749.02386982374
 31
0.0
  0
LINE
  5
2E9
330
1F
100
AcDbEntity
  8
9
  6
Continuous
 62
     7
370
    30
100
AcDbLine
 10
32639.36497222119
 20
20744.62386798494
 30
0.0
 11
32639.36497222119
 21
20744.52387001744
 31
0.0
  0
ARC
  5
2EA
330
1F
100
AcDbEntity
  8
9
  6
Continuous
 62
     7
370
    30
100
AcDbCircle
 10
32638.66497203719
 20
20744.62386944984
 30
0.0
 40
0.7000000000007276
100
AcDbArc
 50
0.0
 51
89.99999999999991
  0
LINE
  5
2EB
330
1F
100
AcDbEntity
  8
9
  6
Continuous
 62
     7
370
    30
100
AcDbLine
 10
32637.78997549372
 20
20741.32403156907
 30
0.0
 11
32636.76497198129
 21
20741.32403117024
 31
0.0
  0
LINE
  5
2EC
330
1F
100
AcDbEntity
  8
9
  6
Continuous
 62
     7
370
    30
100
AcDbLine
 10
32638.31497214229
 20
20747.52386864654
 30
0.0
 11
32638.31497214229
 21
20746.12402969958
 31
0.0
  0
LINE
  5
2ED
330
1F
100
AcDbEntity
  8
9
  6
Continuous
 62
     7
370
    30
100
AcDbLine
 10
32628.71497215198
 20
20751.22402974399
 30
0.0
 11
32628.71497215196
 21
20749.02386982377
 31
0.0
  0
LINE
  5
2EE
330
1F
100
AcDbEntity
  8
9
  6
Continuous
 62
     7
370
    30
100
AcDbLine
 10
32630.73996858068
 20
20741.3240315691
 30
0.0
 11
32631.76497209312
 21
20741.32403117025
 31
0.0
  0
ARC
  5
2EF
330
1F
100
AcDbEntity
  8
9
  6
Continuous
 62
     7
370
    30
100
AcDbCircle
 10
32628.34781474971
 20
20745.62402969962
 30
0.0
 40
0.2999999999992724
100
AcDbArc
 50
224.9999999999996
 51
269.9999999999998
  0
ARC
  5
2F0
330
1F
100
AcDbEntity
  8
9
  6
Continuous
 62
     7
370
    30
100
AcDbCircle
 10
32627.94202346704
 20
20745.91033851058
 30
0.0
 40
1.38763278089391
100
AcDbArc
 50
175.3070321912351
 51
267.6527416119678
  0
LINE
  5
2F1
330
1F
100
AcDbEntity
  8
9
  6
Continuous
 62
     7
370
    30
100
AcDbLine
 10
32629.16497185324
 20
20744.62386798497
 30
0.0
 11
32629.16497185324
 21
20744.52387001747
 31
0.0
  0
ARC
  5
2F2
330
1F
100
AcDbEntity
  8
9
  6
Continuous
 62
     7
370
    30
100
AcDbCircle
 10
32629.86497203723
 20
20744.62386944987
 30
0.0
 40
0.7000000000007276
100
AcDbArc
 50
89.99999999970224
 51
179.9999999997022
  0
ARC
  5
2F3
330
1F
100
AcDbEntity
  8
9
  6
Continuous
 62
     7
370
    30
100
AcDbCircle
 10
32627.97515367634
 20
20746.10810974708
 30
0.0
 40
1.418614261419862
100
AcDbArc
 50
93.63587483013367
 51
183.4043513648922
  0
LINE
  5
2F4
330
1F
100
AcDbEntity
  8
9
  6
Continuous
 62
     7
370
    30
100
AcDbLine
 10
32630.21497193215
 20
20747.52386864656
 30
0.0
 11
32630.21497193215
 21
20746.12402969961
 31
0.0
  0
LINE
  5
2F5
330
1F
100
AcDbEntity
  8
9
  6
Continuous
 62
     7
370
    30
100
AcDbLine
 10
32621.01497219376
 20
20749.02386982382
 30
0.0
 11
32621.01497219375
 21
20747.52386864663
 31
0.0
  0
ARC
  5
2F6
330
1F
100
AcDbEntity
  8
9
  6
Continuous
 62
     7
370
    30
100
AcDbCircle
 10
32621.86497203719
 20
20751.42402974395
 30
0.0
 40
0.2000000000007276
100
AcDbArc
 50
179.9999999999998
 51
269.9999999999998
  0
LINE
  5
2F7
330
1F
100
AcDbEntity
  8
9
  6
Continuous
 62
     7
370
    30
100
AcDbLine
 10
32621.01497219375
 20
20747.52386864663
 30
0.0
 11
32622.90090972055
 21
20747.52386864661
 31
0.0
  0
SPLINE
  5
2F8
330
1F
100
AcDbEntity
  8
9
  6
Continuous
 62
     7
370
    30
100
AcDbSpline
210
0.0
220
0.0
230
1.0
 70
    12
 71
     3
 72
    12
 73
     8
 74
     0
 42
0.000000001
 43
0.00001
 40
0.0
 40
0.0
 40
0.0
 40
0.0
 40
0.205840282809383
 40
0.4116490113380446
 40
0.6184457918287852
 40
0.8292559119854885
 40
1.0
 40
1.0
 40
1.0
 40
1.0
 10
32623.78215973692
 20
20746.02386933206
 30
0.0
 41
1.0
 10
32623.77214326406
 20
20745.85844286677
 30
0.0
 41
1.0
 10
32623.75211185383
 20
20745.52761529524
 30
0.0
 41
1.0
 10
32623.59838391188
 20
20745.0862264428
 30
0.0
 41
1.0
 10
32623.37901409837
 20
20744.74953591495
 30
0.0
 41
1.0
 10
32623.1321034381
 20
20744.55496711483
 30
0.0
 41
1.0
 10
32622.9723837061
 20
20744.53348374538
 30
0.0
 41
1.0
 10
32622.90090972051
 20
20744.52387001752
 30
0.0
 41
1.0
  0
ARC
  5
2F9
330
1F
100
AcDbEntity
  8
9
  6
Continuous
 62
     7
370
    30
100
AcDbCircle
 10
32623.01497203723
 20
20744.02386944991
 30
0.0
 40
2.0
100
AcDbArc
 50
179.9999999995831
 51
269.9999999995828
  0
LINE
  5
2FA
330
1F
100
AcDbEntity
  8
9
  6
Continuous
 62
     7
370
    30
100
AcDbLine
 10
32621.01497219373
 20
20744.52387001753
 30
0.0
 11
32622.90090972053
 21
20744.52387001751
 31
0.0
  0
SPLINE
  5
2FB
330
1F
100
AcDbEntity
  8
9
  6
Continuous
 62
     7
370
    30
100
AcDbSpline
210
0.0
220
0.0
230
1.0
 70
    12
 71
     3
 72
    12
 73
     8
 74
     0
 42
0.000000001
 43
0.00001
 40
0.0
 40
0.0
 40
0.0
 40
0.0
 40
0.2270414180693609
 40
0.4545205376007232
 40
0.67146492600628
 40
0.8806674473517201
 40
1.0
 40
1.0
 40
1.0
 40
1.0
 10
32622.90090972053
 20
20747.52386864661
 30
0.0
 41
1.0
 10
32622.99666290132
 20
20747.50695899666
 30
0.0
 41
1.0
 10
32623.18835386053
 20
20747.47310709751
 30
0.0
 41
1.0
 10
32623.46229495639
 20
20747.19921698413
 30
0.0
 41
1.0
 10
32623.66816252957
 20
20746.79884806785
 30
0.0
 41
1.0
 10
32623.76932560195
 20
20746.38238029888
 30
0.0
 41
1.0
 10
32623.77874013256
 20
20746.11939315713
 30
0.0
 41
1.0
 10
32623.78215973692
 20
20746.02386933206
 30
0.0
 41
1.0
  0
ARC
  5
2FC
330
1F
100
AcDbEntity
  8
9
  6
Continuous
 62
     7
370
    30
100
AcDbCircle
 10
32627.52874542844
 20
20746.15233972078
 30
0.0
 40
1.373690855685709
100
AcDbArc
 50
93.21492544807414
 51
185.3662609455814
  0
ARC
  5
2FD
330
1F
100
AcDbEntity
  8
9
  6
Continuous
 62
     7
370
    30
100
AcDbCircle
 10
32627.56654750215
 20
20745.92792465568
 30
0.0
 40
1.408743357584171
100
AcDbArc
 50
176.0947579959828
 51
265.3240556089048
  0
LINE
  5
2FE
330
1F
100
AcDbEntity
  8
9
  6
Continuous
 62
     7
370
    30
100
AcDbLine
 10
32621.66497203719
 20
20751.82402974395
 30
0.0
 11
32621.66497203719
 21
20751.42402974395
 31
0.0
  0
ARC
  5
2FF
330
1F
100
AcDbEntity
  8
9
  6
Continuous
 62
     7
370
    30
100
AcDbCircle
 10
32640.18212932473
 20
20745.62402969958
 30
0.0
 40
0.2999999999992724
100
AcDbArc
 50
269.9999999999998
 51
314.999999999017
  0
SPLINE
  5
300
330
1F
100
AcDbEntity
  8
9
  6
Continuous
 62
     7
370
    30
100
AcDbSpline
210
0.0
220
0.0
230
1.0
 70
    12
 71
     3
 72
    14
 73
    10
 74
     0
 42
0.000000001
 43
0.00001
 40
0.0
 40
0.0
 40
0.0
 40
0.0
 40
0.2170493941225676
 40
0.4388311995732112
 40
0.5988137766302898
 40
0.7597871991591737
 40
0.8750649674182215
 40
0.9755548291618868
 40
1.0
 40
1.0
 40
1.0
 40
1.0
 10
32637.80542740084
 20
20768.52691485219
 30
0.0
 41
1.0
 10
32638.04578989052
 20
20768.52094930062
 30
0.0
 41
1.0
 10
32638.53175558559
 20
20768.50888812826
 30
0.0
 41
1.0
 10
32639.17238717279
 20
20768.37969863782
 30
0.0
 41
1.0
 10
32639.70932197148
 20
20768.14377558028
 30
0.0
 41
1.0
 10
32640.08112954831
 20
20767.83771527164
 30
0.0
 41
1.0
 10
32640.30291242549
 20
20767.47283503503
 30
0.0
 41
1.0
 10
32640.3696317808
 20
20767.19925177764
 30
0.0
 41
1.0
 10
32640.37301969065
 20
20767.05511654673
 30
0.0
 41
1.0
 10
32640.37368257947
 20
20767.02691460632
 30
0.0
 41
1.0
  0
SPLINE
  5
301
330
1F
100
AcDbEntity
  8
9
  6
Continuous
 62
     7
370
    30
100
AcDbSpline
210
0.0
220
0.0
230
1.0
 70
    12
 71
     3
 72
    14
 73
    10
 74
     0
 42
0.000000001
 43
0.00001
 40
0.0
 40
0.0
 40
0.0
 40
0.0
 40
0.1088769686984931
 40
0.2172663573285982
 40
0.3685706574444105
 40
0.4825742753969225
 40
0.5996174274824865
 40
0.7976149977365948
 40
1.0
 40
1.0
 40
1.0
 40
1.0
 10
32640.37368257947
 20
20767.02691460632
 30
0.0
 41
1.0
 10
32640.36098928905
 20
20766.9006336201
 30
0.0
 41
1.0
 10
32640.33565955215
 20
20766.64863716755
 30
0.0
 41
1.0
 10
32640.1283607642
 20
20766.27875068139
 30
0.0
 41
1.0
 10
32639.82753192113
 20
20765.99670603068
 30
0.0
 41
1.0
 10
32639.46558888106
 20
20765.79706763754
 30
0.0
 41
1.0
 10
32639.02915395142
 20
20765.64242107918
 30
0.0
 41
1.0
 10
32638.47323866522
 20
20765.54236179904
 30
0.0
 41
1.0
 10
32638.02965144657
 20
20765.53210098631
 30
0.0
 41
1.0
 10
32637.80542740084
 20
20765.52691436045
 30
0.0
 41
1.0
  0
LINE
  5
302
330
1F
100
AcDbEntity
  8
9
  6
Continuous
 62
     7
370
    30
100
AcDbLine
 10
32623.77828091453
 20
20746.12402969965
 30
0.0
 11
32622.26497203724
 21
20746.12402969967
 31
0.0
  0
LINE
  5
303
330
1F
100
AcDbEntity
  8
9
  6
Continuous
 62
     7
370
    30
100
AcDbLine
 10
32623.78215399601
 20
20746.02402969966
 30
0.0
 11
32622.26497203724
 21
20746.02402969967
 31
0.0
  0
ARC
  5
304
330
1F
100
AcDbEntity
  8
9
  6
Continuous
 62
     7
370
    30
100
AcDbCircle
 10
32627.44070796853
 20
20745.82402969962
 30
0.0
 40
0.2000000000007276
100
AcDbArc
 50
45.0
 51
89.99999999999991
  0
LINE
  5
305
330
1F
100
AcDbEntity
  8
9
  6
Continuous
 62
     7
370
    30
100
AcDbLine
 10
32627.58212932476
 20
20745.96545105585
 30
0.0
 11
32628.13568271535
 21
20745.41189766526
 31
0.0
  0
LINE
  5
306
330
1F
100
AcDbEntity
  8
9
  6
Continuous
 62
     7
370
    30
100
AcDbLine
 10
32627.44070796853
 20
20746.02402969963
 30
0.0
 11
32626.55903328304
 21
20746.02402969963
 31
0.0
  0
LINE
  5
307
330
1F
100
AcDbEntity
  8
9
  6
Continuous
 62
     7
370
    30
100
AcDbLine
 10
32622.26497203724
 20
20746.12402969967
 30
0.0
 11
32622.26497203724
 21
20746.02402969967
 31
0.0
  0
LINE
  5
308
330
1F
100
AcDbEntity
  8
9
  6
Continuous
 62
     7
370
    30
100
AcDbLine
 10
32630.04013147342
 20
20742.02386867637
 30
0.0
 11
32630.73996897952
 21
20741.32403117026
 31
0.0
  0
ARC
  5
309
330
1F
100
AcDbEntity
  8
9
  6
Continuous
 62
     7
370
    30
100
AcDbCircle
 10
32622.11497203719
 20
20778.02687335844
 30
0.0
 40
1.0
100
AcDbArc
 50
269.9999999999998
 51
330.0000000000415
  0
LINE
  5
30A
330
1F
100
AcDbEntity
  8
9
  6
Continuous
 62
     7
370
    30
100
AcDbLine
 10
32644.75166315991
 20
20746.12402969959
 30
0.0
 11
32646.26497203719
 21
20746.12402969959
 31
0.0
  0
LINE
  5
30B
330
1F
100
AcDbEntity
  8
9
  6
Continuous
 62
     7
370
    30
100
AcDbLine
 10
32644.74779007843
 20
20746.02402969959
 30
0.0
 11
32646.26497203719
 21
20746.02402969959
 31
0.0
  0
ARC
  5
30C
330
1F
100
AcDbEntity
  8
9
  6
Continuous
 62
     7
370
    30
100
AcDbCircle
 10
32641.08923610591
 20
20745.82402969958
 30
0.0
 40
0.2000000000007276
100
AcDbArc
 50
89.99999999999991
 51
135.0000000007369
  0
LINE
  5
30D
330
1F
100
AcDbEntity
  8
9
  6
Continuous
 62
     7
370
    30
100
AcDbLine
 10
32640.94781474967
 20
20745.96545105581
 30
0.0
 11
32640.39426135908
 21
20745.41189766522
 31
0.0
  0
LINE
  5
30E
330
1F
100
AcDbEntity
  8
9
  6
Continuous
 62
     7
370
    30
100
AcDbLine
 10
32641.08923610591
 20
20746.02402969959
 30
0.0
 11
32641.97091079139
 21
20746.02402969958
 31
0.0
  0
LINE
  5
30F
330
1F
100
AcDbEntity
  8
9
  6
Continuous
 62
     7
370
    30
100
AcDbLine
 10
32646.26497203719
 20
20746.12402969959
 30
0.0
 11
32646.26497203719
 21
20746.02402969959
 31
0.0
  0
LINE
  5
310
330
1F
100
AcDbEntity
  8
9
  6
Continuous
 62
     7
370
    30
100
AcDbLine
 10
32638.48981260099
 20
20742.02386867634
 30
0.0
 11
32637.78997509489
 21
20741.32403117024
 31
0.0
  0
ARC
  5
311
330
1F
100
AcDbEntity
  8
9
  6
Continuous
 62
     7
370
    30
100
AcDbCircle
 10
32646.41497203719
 20
20778.02687335844
 30
0.0
 40
1.0
100
AcDbArc
 50
210.000000000062
 51
269.9999999999998
  0
LINE
  5
312
330
1F
100
AcDbEntity
  8
9
  6
Continuous
 62
     7
370
    30
100
AcDbLine
 10
32619.31497203719
 20
20760.96733367233
 30
0.0
 11
32649.21497203719
 21
20763.96733367232
 31
0.0
  0
LINE
  5
313
330
1F
100
AcDbEntity
  8
9
  6
Continuous
 62
     7
370
    30
100
AcDbLine
 10
32619.61132115792
 20
20761.55376376943
 30
0.0
 11
32649.21497203719
 21
20764.52402974393
 31
0.0
  0
LINE
  5
314
330
1F
100
AcDbEntity
  8
9
  6
Continuous
 62
     7
370
    30
100
AcDbLine
 10
32619.31497203719
 20
20757.96733367232
 30
0.0
 11
32649.21497203719
 21
20760.96733367232
 31
0.0
  0
LINE
  5
315
330
1F
100
AcDbEntity
  8
9
  6
Continuous
 62
     7
370
    30
100
AcDbLine
 10
32619.61132115792
 20
20758.55376376943
 30
0.0
 11
32649.21497203719
 21
20761.52402974393
 31
0.0
  0
LINE
  5
316
330
1F
100
AcDbEntity
  8
9
  6
Continuous
 62
     7
370
    30
100
AcDbLine
 10
32624.86337621738
 20
20755.52402974391
 30
0.0
 11
32649.21497203719
 21
20757.96733367232
 31
0.0
  0
LINE
  5
317
330
1F
100
AcDbEntity
  8
9
  6
Continuous
 62
     7
370
    30
100
AcDbLine
 10
32619.61128461058
 20
20755.55406142367
 30
0.0
 11
32648.91497203719
 21
20758.52402974393
 31
0.0
  0
LINE
  5
318
330
1F
100
AcDbEntity
  8
9
  6
Continuous
 62
     7
370
    30
100
AcDbLine
 10
32649.2149720372
 20
20761.52402974391
 30
0.0
 11
32649.21497203719
 21
20760.96733367231
 31
0.0
  0
LINE
  5
319
330
1F
100
AcDbEntity
  8
9
  6
Continuous
 62
     7
370
    30
100
AcDbLine
 10
32649.21497203719
 20
20758.52402974391
 30
0.0
 11
32649.21497203719
 21
20757.96733367231
 31
0.0
  0
LINE
  5
31A
330
1F
100
AcDbEntity
  8
9
  6
Continuous
 62
     7
370
    30
100
AcDbLine
 10
32648.41497203719
 20
20770.02687334534
 30
0.0
 11
32648.91497203719
 21
20769.16084794156
 31
0.0
  0
LINE
  5
31B
330
1F
100
AcDbEntity
  8
9
  6
Continuous
 62
     7
370
    30
100
AcDbLine
 10
32648.61497203719
 20
20752.02402974404
 30
0.0
 11
32648.91497203719
 21
20753.14364498631
 31
0.0
  0
LINE
  5
31C
330
1F
100
AcDbEntity
  8
9
  6
Continuous
 62
     7
370
    30
100
AcDbLine
 10
32649.21497203724
 20
20764.52402974399
 30
0.0
 11
32649.21497203724
 21
20763.96733367238
 31
0.0
  0
LINE
  5
31D
330
1F
100
AcDbEntity
  8
9
  6
Continuous
 62
     7
370
    30
100
AcDbLine
 10
32620.11497203719
 20
20770.02687334534
 30
0.0
 11
32619.61497203719
 21
20769.16084794156
 31
0.0
  0
LINE
  5
31E
330
1F
100
AcDbEntity
  8
9
  6
Continuous
 62
     7
370
    30
100
AcDbLine
 10
32619.31497203719
 20
20758.52402974391
 30
0.0
 11
32619.31497203719
 21
20757.96733367231
 31
0.0
  0
LINE
  5
31F
330
1F
100
AcDbEntity
  8
9
  6
Continuous
 62
     7
370
    30
100
AcDbLine
 10
32619.31497203719
 20
20761.52402974391
 30
0.0
 11
32619.31497203719
 21
20760.96733367231
 31
0.0
  0
LINE
  5
320
330
1F
100
AcDbEntity
  8
9
  6
Continuous
 62
     7
370
    30
100
AcDbLine
 10
32619.31497203715
 20
20764.52402974399
 30
0.0
 11
32619.31497203714
 21
20763.96733367238
 31
0.0
  0
LINE
  5
321
330
1F
100
AcDbEntity
  8
9
  6
Continuous
 62
     7
370
    30
100
AcDbLine
 10
32619.91497203719
 20
20752.02402974404
 30
0.0
 11
32619.61497203719
 21
20753.14364498631
 31
0.0
  0
LINE
  5
322
330
1F
100
AcDbEntity
  8
9
  6
Continuous
 62
     7
370
    30
100
AcDbLine
 10
32621.01497249986
 20
20744.52387001744
 30
0.0
 11
32621.01497249986
 21
20744.02386900414
 31
0.0
  0
LINE
  5
323
330
1F
100
AcDbEntity
  8
8
  6
Continuous
 62
     4
370
     9
100
AcDbLine
 10
32624.7669629192
 20
20779.32687335844
 30
0.0
 11
32623.56716749178
 21
20778.12707793103
 31
0.0
  0
LINE
  5
324
330
1F
100
AcDbEntity
  8
8
  6
Continuous
 62
     4
370
     9
100
AcDbLine
 10
32643.76298115519
 20
20779.32687335844
 30
0.0
 11
32644.9627765826
 21
20778.12707793103
 31
0.0
  0
LINE
  5
325
330
1F
100
AcDbEntity
  8
8
  6
Continuous
 62
     4
370
     9
100
AcDbLine
 10
32624.7669629192
 20
20779.32687335844
 30
0.0
 11
32625.20253348057
 21
20793.26443479948
 31
0.0
  0
LINE
  5
326
330
1F
100
AcDbEntity
  8
8
  6
Continuous
 62
     4
370
     9
100
AcDbLine
 10
32643.76298115519
 20
20779.32687335844
 30
0.0
 11
32643.32741059381
 21
20793.26443479948
 31
0.0
  0
LINE
  5
327
330
1F
100
AcDbEntity
  8
9
  6
Continuous
 62
     7
370
    30
100
AcDbLine
 10
32650.03292122961
 20
20777.02687335844
 30
0.0
 11
32618.49702284477
 21
20777.02687335844
 31
0.0
  0
LINE
  5
328
330
1F
100
AcDbEntity
  8
9
  6
Continuous
 62
     7
370
    30
100
AcDbLine
 10
32636.76497203719
 20
20776.89289876223
 30
0.0
 11
32631.76497203719
 21
20776.89289876223
 31
0.0
  0
LINE
  5
329
330
1F
100
AcDbEntity
  8
9
  6
Continuous
 62
     7
370
    30
100
AcDbLine
 10
32617.26497203719
 20
20771.02687335844
 30
0.0
 11
32651.26497203719
 21
20771.02687335844
 31
0.0
  0
LINE
  5
32A
330
1F
100
AcDbEntity
  8
9
  6
Continuous
 62
     7
370
    30
100
AcDbLine
 10
32624.00287526309
 20
20792.06477658424
 30
0.0
 11
32644.52706881129
 21
20792.06477658424
 31
0.0
  0
LINE
  5
32B
330
1F
100
AcDbEntity
  8
9
  6
Continuous
 62
     7
370
    30
100
AcDbLine
 10
32622.98099744098
 20
20777.52687335844
 30
0.0
 11
32645.54894663341
 21
20777.52687335844
 31
0.0
  0
LINE
  5
32C
330
1F
100
AcDbEntity
  8
9
  6
Continuous
 62
     7
370
    30
100
AcDbLine
 10
32625.26497203719
 20
20793.32687335844
 30
0.0
 11
32643.26497203719
 21
20793.32687335844
 31
0.0
  0
LINE
  5
32D
330
1F
100
AcDbEntity
  8
9
  6
Continuous
 62
     7
370
    30
100
AcDbLine
 10
32648.91497203719
 20
20770.02687334534
 30
0.0
 11
32619.61497203719
 21
20770.02687334534
 31
0.0
  0
LINE
  5
32E
330
1F
100
AcDbEntity
  8
9
  6
Continuous
 62
     7
370
    30
100
AcDbLine
 10
32628.14557736239
 20
20765.52691436045
 30
0.0
 11
32640.38436671199
 21
20765.52691436045
 31
0.0
  0
LINE
  5
32F
330
1F
100
AcDbEntity
  8
9
  6
Continuous
 62
     7
370
    30
100
AcDbLine
 10
32628.14557736239
 20
20768.52691485215
 30
0.0
 11
32640.38436671199
 21
20768.52691485215
 31
0.0
  0
LINE
  5
330
330
1F
100
AcDbEntity
  8
9
  6
Continuous
 62
     7
370
    30
100
AcDbLine
 10
32619.31497203715
 20
20764.52402974399
 30
0.0
 11
32649.21497203724
 21
20764.52402974399
 31
0.0
  0
LINE
  5
331
330
1F
100
AcDbEntity
  8
9
  6
Continuous
 62
     7
370
    30
100
AcDbLine
 10
32619.91497203719
 20
20752.02402974404
 30
0.0
 11
32648.61497203719
 21
20752.02402974404
 31
0.0
  0
LINE
  5
332
330
1F
100
AcDbEntity
  8
9
  6
Continuous
 62
     7
370
    30
100
AcDbLine
 10
32636.76497198129
 20
20741.32403117024
 30
0.0
 11
32631.76497209312
 21
20741.32403117025
 31
0.0
  0
LINE
  5
333
330
1F
100
AcDbEntity
  8
9
  6
Continuous
 62
     7
370
    30
100
AcDbLine
 10
32628.34781474971
 20
20745.32402969962
 30
0.0
 11
32640.18212932473
 21
20745.32402969958
 31
0.0
  0
LINE
  5
334
330
1F
100
AcDbEntity
  8
9
  6
Continuous
 62
     7
370
    30
100
AcDbLine
 10
32627.45170665403
 20
20744.52387001748
 30
0.0
 11
32641.07823742039
 21
20744.52387001744
 31
0.0
  0
LINE
  5
335
330
1F
100
AcDbEntity
  8
9
  6
Continuous
 62
     7
370
    30
100
AcDbLine
 10
32627.45170665405
 20
20747.52386864658
 30
0.0
 11
32641.07823742039
 21
20747.52386864654
 31
0.0
  0
LINE
  5
336
330
1F
100
AcDbEntity
  8
9
  6
Continuous
 62
     7
370
    30
100
AcDbLine
 10
32621.01497219376
 20
20749.02386982382
 30
0.0
 11
32647.51497188069
 21
20749.02386982374
 31
0.0
  0
LINE
  5
337
330
1F
100
AcDbEntity
  8
9
  6
Continuous
 62
     7
370
    30
100
AcDbLine
 10
32623.01497159022
 20
20742.02386867641
 30
0.0
 11
32645.51497248419
 21
20742.02386867634
 31
0.0
  0
LINE
  5
338
330
1F
100
AcDbEntity
  8
9
  6
Continuous
 62
     7
370
    30
100
AcDbLine
 10
32646.66497203719
 20
20751.22402974395
 30
0.0
 11
32621.86497203719
 21
20751.22402974395
 31
0.0
  0
LINE
  5
339
330
1F
100
AcDbEntity
  8
9
  6
Continuous
 62
     7
370
    30
100
AcDbLine
 10
32619.61497203719
 20
20755.52402974391
 30
0.0
 11
32648.91497203719
 21
20755.52402974391
 31
0.0
  0
LINE
  5
33A
330
1F
100
AcDbEntity
  8
9
  6
Continuous
 62
     7
370
    30
100
AcDbLine
 10
32648.91497203719
 20
20753.14364498631
 30
0.0
 11
32619.61497203719
 21
20753.14364498631
 31
0.0
  0
LINE
  5
33B
330
1F
100
AcDbEntity
  8
9
  6
Continuous
 62
     7
370
    30
100
AcDbLine
 10
32641.97331532837
 20
20746.12402969959
 30
0.0
 11
32626.55662874607
 21
20746.12402969964
 31
0.0
  0
LINE
  5
33C
330
1F
100
AcDbEntity
  8
9
  6
Continuous
 62
     7
370
    30
100
AcDbLine
 10
32644.92512828714
 20
20779.32687335844
 30
0.0
 11
32623.60476642771
 21
20779.32687335844
 31
0.0
  0
LINE
  5
33D
330
1F
100
AcDbEntity
  8
9
  6
Continuous
 62
     7
370
    30
100
AcDbLine
 10
32643.26497203719
 20
21134.57687335844
 30
0.0
 11
32644.52706881129
 21
21133.31477658424
 31
0.0
  0
LINE
  5
33E
330
1F
100
AcDbEntity
  8
9
  6
Continuous
 62
     7
370
    30
100
AcDbLine
 10
32625.26497203719
 20
21134.57687335844
 30
0.0
 11
32624.00287526309
 21
21133.31477658424
 31
0.0
  0
LINE
  5
33F
330
1F
100
AcDbEntity
  8
9
  6
Continuous
 62
     7
370
    30
100
AcDbLine
 10
32648.91497203719
 20
21094.39364498631
 30
0.0
 11
32648.91497203719
 21
21096.77402974391
 31
0.0
  0
ARC
  5
340
330
1F
100
AcDbEntity
  8
9
  6
Continuous
 62
     7
370
    30
100
AcDbCircle
 10
32646.66497203719
 20
21093.07402974395
 30
0.0
 40
0.2000000000007276
100
AcDbArc
 50
0.0
 51
89.99999999999991
  0
LINE
  5
341
330
1F
100
AcDbEntity
  8
9
  6
Continuous
 62
     7
370
    30
100
AcDbLine
 10
32647.51497188069
 20
21090.27386982374
 30
0.0
 11
32647.51497188069
 21
21088.77386864654
 31
0.0
  0
LINE
  5
342
330
1F
100
AcDbEntity
  8
9
  6
Continuous
 62
     7
370
    30
100
AcDbLine
 10
32647.51497188069
 20
21085.77387001744
 30
0.0
 11
32647.51497188069
 21
21085.27386900414
 31
0.0
  0
ARC
  5
343
330
1F
100
AcDbEntity
  8
9
  6
Continuous
 62
     7
370
    30
100
AcDbCircle
 10
32646.66497203719
 20
21092.67402974395
 30
0.0
 40
0.2000000000007276
100
AcDbArc
 50
269.9999999999998
 51
0.0
  0
SPLINE
  5
344
330
1F
100
AcDbEntity
  8
9
  6
Continuous
 62
     7
370
    30
100
AcDbSpline
210
0.0
220
0.0
230
1.0
 70
    12
 71
     3
 72
    12
 73
     8
 74
     0
 42
0.000000001
 43
0.00001
 40
0.0
 40
0.0
 40
0.0
 40
0.0
 40
0.205840282809383
 40
0.4116490113380446
 40
0.6184457918287852
 40
0.8292559119854885
 40
1.0
 40
1.0
 40
1.0
 40
1.0
 10
32644.74778433752
 20
21087.27386933198
 30
0.0
 41
1.0
 10
32644.75780081037
 20
21087.1084428667
 30
0.0
 41
1.0
 10
32644.7778322206
 20
21086.77761529517
 30
0.0
 41
1.0
 10
32644.93156016255
 20
21086.33622644273
 30
0.0
 41
1.0
 10
32645.15092997606
 20
21085.99953591487
 30
0.0
 41
1.0
 10
32645.39784063633
 20
21085.80496711475
 30
0.0
 41
1.0
 10
32645.55756036832
 20
21085.78348374531
 30
0.0
 41
1.0
 10
32645.62903435391
 20
21085.77387001744
 30
0.0
 41
1.0
  0
ARC
  5
345
330
1F
100
AcDbEntity
  8
9
  6
Continuous
 62
     7
370
    30
100
AcDbCircle
 10
32640.96339657229
 20
21087.17792465563
 30
0.0
 40
1.408743357584171
100
AcDbArc
 50
274.6759443906521
 51
3.905242003584402
  0
ARC
  5
346
330
1F
100
AcDbEntity
  8
9
  6
Continuous
 62
     7
370
    30
100
AcDbCircle
 10
32640.5879206074
 20
21087.16033851054
 30
0.0
 40
1.38763278089391
100
AcDbArc
 50
272.3472583875752
 51
4.692967808166062
  0
SPLINE
  5
347
330
1F
100
AcDbEntity
  8
9
  6
Continuous
 62
     7
370
    30
100
AcDbSpline
210
0.0
220
0.0
230
1.0
 70
    12
 71
     3
 72
    12
 73
     8
 74
     0
 42
0.000000001
 43
0.00001
 40
0.0
 40
0.0
 40
0.0
 40
0.0
 40
0.2270414180693609
 40
0.4545205376007232
 40
0.67146492600628
 40
0.8806674473517201
 40
1.0
 40
1.0
 40
1.0
 40
1.0
 10
32645.62903435391
 20
21088.77386864653
 30
0.0
 41
1.0
 10
32645.53328117312
 20
21088.75695899659
 30
0.0
 41
1.0
 10
32645.34159021392
 20
21088.72310709744
 30
0.0
 41
1.0
 10
32645.06764911805
 20
21088.44921698406
 30
0.0
 41
1.0
 10
32644.86178154487
 20
21088.04884806778
 30
0.0
 41
1.0
 10
32644.76061847249
 20
21087.6323802988
 30
0.0
 41
1.0
 10
32644.75120394188
 20
21087.36939315706
 30
0.0
 41
1.0
 10
32644.74778433752
 20
21087.27386933198
 30
0.0
 41
1.0
  0
ARC
  5
348
330
1F
100
AcDbEntity
  8
9
  6
Continuous
 62
     7
370
    30
100
AcDbCircle
 10
32641.00119864599
 20
21087.40233972073
 30
0.0
 40
1.373690855685709
100
AcDbArc
 50
354.6337390541015
 51
86.78507455177437
  0
ARC
  5
349
330
1F
100
AcDbEntity
  8
9
  6
Continuous
 62
     7
370
    30
100
AcDbCircle
 10
32640.55479039809
 20
21087.35810974704
 30
0.0
 40
1.418614261419862
100
AcDbArc
 50
356.5956486345204
 51
86.36412516941711
  0
LINE
  5
34A
330
1F
100
AcDbEntity
  8
9
  6
Continuous
 62
     7
370
    30
100
AcDbLine
 10
32647.51497188069
 20
21088.77386864654
 30
0.0
 11
32645.62903435389
 21
21088.77386864654
 31
0.0
  0
ARC
  5
34B
330
1F
100
AcDbEntity
  8
9
  6
Continuous
 62
     7
370
    30
100
AcDbCircle
 10
32645.51497203719
 20
21085.27386944984
 30
0.0
 40
2.0
100
AcDbArc
 50
269.9999999999998
 51
0.0
  0
LINE
  5
34C
330
1F
100
AcDbEntity
  8
9
  6
Continuous
 62
     7
370
    30
100
AcDbLine
 10
32647.51497188069
 20
21085.77387001744
 30
0.0
 11
32645.62903435389
 21
21085.77387001744
 31
0.0
  0
LINE
  5
34D
330
1F
100
AcDbEntity
  8
9
  6
Continuous
 62
     7
370
    30
100
AcDbLine
 10
32646.8649720372
 20
21093.07402974395
 30
0.0
 11
32646.8649720372
 21
21092.67402974395
 31
0.0
  0
LINE
  5
34E
330
1F
100
AcDbEntity
  8
9
  6
Continuous
 62
     7
370
    30
100
AcDbLine
 10
32619.61497203719
 20
21094.39364498631
 30
0.0
 11
32619.61497203719
 21
21096.77402974391
 31
0.0
  0
ARC
  5
34F
330
1F
100
AcDbEntity
  8
9
  6
Continuous
 62
     7
370
    30
100
AcDbCircle
 10
32621.86497203719
 20
21093.07402974395
 30
0.0
 40
0.2000000000007276
100
AcDbArc
 50
89.99999999999991
 51
179.9999999999998
  0
LINE
  5
350
330
1F
100
AcDbEntity
  8
9
  6
Continuous
 62
     7
370
    30
100
AcDbLine
 10
32639.81497192249
 20
21092.47402974395
 30
0.0
 11
32639.81497192249
 21
21090.27386982374
 31
0.0
  0
LINE
  5
351
330
1F
100
AcDbEntity
  8
9
  6
Continuous
 62
     7
370
    30
100
AcDbLine
 10
32639.36497222119
 20
21085.87386798494
 30
0.0
 11
32639.36497222119
 21
21085.77387001744
 31
0.0
  0
ARC
  5
352
330
1F
100
AcDbEntity
  8
9
  6
Continuous
 62
     7
370
    30
100
AcDbCircle
 10
32638.66497203719
 20
21085.87386944984
 30
0.0
 40
0.7000000000007276
100
AcDbArc
 50
0.0
 51
89.99999999999991
  0
LINE
  5
353
330
1F
100
AcDbEntity
  8
9
  6
Continuous
 62
     7
370
    30
100
AcDbLine
 10
32637.78997549372
 20
21082.57403156907
 30
0.0
 11
32636.76497198129
 21
21082.57403117024
 31
0.0
  0
LINE
  5
354
330
1F
100
AcDbEntity
  8
9
  6
Continuous
 62
     7
370
    30
100
AcDbLine
 10
32638.31497214229
 20
21088.77386864654
 30
0.0
 11
32638.31497214229
 21
21087.37402969958
 31
0.0
  0
LINE
  5
355
330
1F
100
AcDbEntity
  8
9
  6
Continuous
 62
     7
370
    30
100
AcDbLine
 10
32628.71497215198
 20
21092.47402974399
 30
0.0
 11
32628.71497215196
 21
21090.27386982377
 31
0.0
  0
LINE
  5
356
330
1F
100
AcDbEntity
  8
9
  6
Continuous
 62
     7
370
    30
100
AcDbLine
 10
32630.73996858068
 20
21082.5740315691
 30
0.0
 11
32631.76497209312
 21
21082.57403117025
 31
0.0
  0
ARC
  5
357
330
1F
100
AcDbEntity
  8
9
  6
Continuous
 62
     7
370
    30
100
AcDbCircle
 10
32628.34781474971
 20
21086.87402969962
 30
0.0
 40
0.2999999999992724
100
AcDbArc
 50
224.9999999995084
 51
269.9999999999998
  0
ARC
  5
358
330
1F
100
AcDbEntity
  8
9
  6
Continuous
 62
     7
370
    30
100
AcDbCircle
 10
32627.94202346704
 20
21087.16033851058
 30
0.0
 40
1.38763278089391
100
AcDbArc
 50
175.3070321913848
 51
267.6527416119678
  0
LINE
  5
359
330
1F
100
AcDbEntity
  8
9
  6
Continuous
 62
     7
370
    30
100
AcDbLine
 10
32629.16497185324
 20
21085.87386798497
 30
0.0
 11
32629.16497185324
 21
21085.77387001747
 31
0.0
  0
ARC
  5
35A
330
1F
100
AcDbEntity
  8
9
  6
Continuous
 62
     7
370
    30
100
AcDbCircle
 10
32629.86497203723
 20
21085.87386944987
 30
0.0
 40
0.7000000000007276
100
AcDbArc
 50
89.99999999970224
 51
179.9999999997022
  0
ARC
  5
35B
330
1F
100
AcDbEntity
  8
9
  6
Continuous
 62
     7
370
    30
100
AcDbCircle
 10
32627.97515367634
 20
21087.35810974708
 30
0.0
 40
1.418614261419862
100
AcDbArc
 50
93.63587483013367
 51
183.4043513648922
  0
LINE
  5
35C
330
1F
100
AcDbEntity
  8
9
  6
Continuous
 62
     7
370
    30
100
AcDbLine
 10
32630.21497193215
 20
21088.77386864656
 30
0.0
 11
32630.21497193215
 21
21087.37402969961
 31
0.0
  0
LINE
  5
35D
330
1F
100
AcDbEntity
  8
9
  6
Continuous
 62
     7
370
    30
100
AcDbLine
 10
32621.01497219376
 20
21090.27386982382
 30
0.0
 11
32621.01497219375
 21
21088.77386864663
 31
0.0
  0
ARC
  5
35E
330
1F
100
AcDbEntity
  8
9
  6
Continuous
 62
     7
370
    30
100
AcDbCircle
 10
32621.86497203719
 20
21092.67402974395
 30
0.0
 40
0.2000000000007276
100
AcDbArc
 50
179.9999999999998
 51
269.9999999999998
  0
LINE
  5
35F
330
1F
100
AcDbEntity
  8
9
  6
Continuous
 62
     7
370
    30
100
AcDbLine
 10
32621.01497219375
 20
21088.77386864663
 30
0.0
 11
32622.90090972055
 21
21088.77386864661
 31
0.0
  0
SPLINE
  5
360
330
1F
100
AcDbEntity
  8
9
  6
Continuous
 62
     7
370
    30
100
AcDbSpline
210
0.0
220
0.0
230
1.0
 70
    12
 71
     3
 72
    12
 73
     8
 74
     0
 42
0.000000001
 43
0.00001
 40
0.0
 40
0.0
 40
0.0
 40
0.0
 40
0.205840282809383
 40
0.4116490113380446
 40
0.6184457918287852
 40
0.8292559119854885
 40
1.0
 40
1.0
 40
1.0
 40
1.0
 10
32623.78215973692
 20
21087.27386933206
 30
0.0
 41
1.0
 10
32623.77214326406
 20
21087.10844286677
 30
0.0
 41
1.0
 10
32623.75211185383
 20
21086.77761529524
 30
0.0
 41
1.0
 10
32623.59838391188
 20
21086.3362264428
 30
0.0
 41
1.0
 10
32623.37901409837
 20
21085.99953591495
 30
0.0
 41
1.0
 10
32623.1321034381
 20
21085.80496711483
 30
0.0
 41
1.0
 10
32622.9723837061
 20
21085.78348374538
 30
0.0
 41
1.0
 10
32622.90090972051
 20
21085.77387001752
 30
0.0
 41
1.0
  0
ARC
  5
361
330
1F
100
AcDbEntity
  8
9
  6
Continuous
 62
     7
370
    30
100
AcDbCircle
 10
32623.01497203723
 20
21085.27386944991
 30
0.0
 40
2.0
100
AcDbArc
 50
179.9999999995831
 51
269.9999999995828
  0
LINE
  5
362
330
1F
100
AcDbEntity
  8
9
  6
Continuous
 62
     7
370
    30
100
AcDbLine
 10
32621.01497219373
 20
21085.77387001753
 30
0.0
 11
32622.90090972053
 21
21085.77387001751
 31
0.0
  0
SPLINE
  5
363
330
1F
100
AcDbEntity
  8
9
  6
Continuous
 62
     7
370
    30
100
AcDbSpline
210
0.0
220
0.0
230
1.0
 70
    12
 71
     3
 72
    12
 73
     8
 74
     0
 42
0.000000001
 43
0.00001
 40
0.0
 40
0.0
 40
0.0
 40
0.0
 40
0.2270414180693609
 40
0.4545205376007232
 40
0.67146492600628
 40
0.8806674473517201
 40
1.0
 40
1.0
 40
1.0
 40
1.0
 10
32622.90090972053
 20
21088.77386864661
 30
0.0
 41
1.0
 10
32622.99666290132
 20
21088.75695899666
 30
0.0
 41
1.0
 10
32623.18835386053
 20
21088.72310709751
 30
0.0
 41
1.0
 10
32623.46229495639
 20
21088.44921698413
 30
0.0
 41
1.0
 10
32623.66816252957
 20
21088.04884806785
 30
0.0
 41
1.0
 10
32623.76932560195
 20
21087.63238029888
 30
0.0
 41
1.0
 10
32623.77874013256
 20
21087.36939315713
 30
0.0
 41
1.0
 10
32623.78215973692
 20
21087.27386933206
 30
0.0
 41
1.0
  0
ARC
  5
364
330
1F
100
AcDbEntity
  8
9
  6
Continuous
 62
     7
370
    30
100
AcDbCircle
 10
32627.52874542844
 20
21087.40233972078
 30
0.0
 40
1.373690855685709
100
AcDbArc
 50
93.21492544807414
 51
185.3662609455814
  0
ARC
  5
365
330
1F
100
AcDbEntity
  8
9
  6
Continuous
 62
     7
370
    30
100
AcDbCircle
 10
32627.56654750215
 20
21087.17792465568
 30
0.0
 40
1.408743357584171
100
AcDbArc
 50
176.0947579959828
 51
265.3240556089048
  0
LINE
  5
366
330
1F
100
AcDbEntity
  8
9
  6
Continuous
 62
     7
370
    30
100
AcDbLine
 10
32621.66497203719
 20
21093.07402974395
 30
0.0
 11
32621.66497203719
 21
21092.67402974395
 31
0.0
  0
ARC
  5
367
330
1F
100
AcDbEntity
  8
9
  6
Continuous
 62
     7
370
    30
100
AcDbCircle
 10
32640.18212932473
 20
21086.87402969958
 30
0.0
 40
0.2999999999992724
100
AcDbArc
 50
269.9999999999998
 51
314.999999999017
  0
LINE
  5
368
330
1F
100
AcDbEntity
  8
9
  6
Continuous
 62
     7
370
    30
100
AcDbLine
 10
32623.77828091453
 20
21087.37402969965
 30
0.0
 11
32622.26497203724
 21
21087.37402969967
 31
0.0
  0
LINE
  5
369
330
1F
100
AcDbEntity
  8
9
  6
Continuous
 62
     7
370
    30
100
AcDbLine
 10
32623.78215399601
 20
21087.27402969966
 30
0.0
 11
32622.26497203724
 21
21087.27402969966
 31
0.0
  0
ARC
  5
36A
330
1F
100
AcDbEntity
  8
9
  6
Continuous
 62
     7
370
    30
100
AcDbCircle
 10
32627.44070796853
 20
21087.07402969962
 30
0.0
 40
0.2000000000007276
100
AcDbArc
 50
44.99999999926305
 51
89.99999999999991
  0
LINE
  5
36B
330
1F
100
AcDbEntity
  8
9
  6
Continuous
 62
     7
370
    30
100
AcDbLine
 10
32627.58212932476
 20
21087.21545105585
 30
0.0
 11
32628.13568271535
 21
21086.66189766526
 31
0.0
  0
LINE
  5
36C
330
1F
100
AcDbEntity
  8
9
  6
Continuous
 62
     7
370
    30
100
AcDbLine
 10
32627.44070796853
 20
21087.27402969963
 30
0.0
 11
32626.55903328304
 21
21087.27402969963
 31
0.0
  0
LINE
  5
36D
330
1F
100
AcDbEntity
  8
9
  6
Continuous
 62
     7
370
    30
100
AcDbLine
 10
32622.26497203724
 20
21087.37402969967
 30
0.0
 11
32622.26497203724
 21
21087.27402969966
 31
0.0
  0
LINE
  5
36E
330
1F
100
AcDbEntity
  8
9
  6
Continuous
 62
     7
370
    30
100
AcDbLine
 10
32630.04013147342
 20
21083.27386867636
 30
0.0
 11
32630.73996897952
 21
21082.57403117026
 31
0.0
  0
LINE
  5
36F
330
1F
100
AcDbEntity
  8
9
  6
Continuous
 62
     7
370
    30
100
AcDbLine
 10
32644.75166315991
 20
21087.37402969959
 30
0.0
 11
32646.26497203719
 21
21087.37402969959
 31
0.0
  0
LINE
  5
370
330
1F
100
AcDbEntity
  8
9
  6
Continuous
 62
     7
370
    30
100
AcDbLine
 10
32644.74779007843
 20
21087.27402969958
 30
0.0
 11
32646.26497203719
 21
21087.27402969958
 31
0.0
  0
ARC
  5
371
330
1F
100
AcDbEntity
  8
9
  6
Continuous
 62
     7
370
    30
100
AcDbCircle
 10
32641.08923610591
 20
21087.07402969958
 30
0.0
 40
0.2000000000007276
100
AcDbArc
 50
89.99999999999991
 51
135.0000000007369
  0
LINE
  5
372
330
1F
100
AcDbEntity
  8
9
  6
Continuous
 62
     7
370
    30
100
AcDbLine
 10
32640.94781474967
 20
21087.21545105581
 30
0.0
 11
32640.39426135908
 21
21086.66189766522
 31
0.0
  0
LINE
  5
373
330
1F
100
AcDbEntity
  8
9
  6
Continuous
 62
     7
370
    30
100
AcDbLine
 10
32641.08923610591
 20
21087.27402969958
 30
0.0
 11
32641.97091079139
 21
21087.27402969958
 31
0.0
  0
LINE
  5
374
330
1F
100
AcDbEntity
  8
9
  6
Continuous
 62
     7
370
    30
100
AcDbLine
 10
32646.26497203719
 20
21087.37402969959
 30
0.0
 11
32646.26497203719
 21
21087.27402969958
 31
0.0
  0
LINE
  5
375
330
1F
100
AcDbEntity
  8
9
  6
Continuous
 62
     7
370
    30
100
AcDbLine
 10
32638.48981260099
 20
21083.27386867634
 30
0.0
 11
32637.78997509489
 21
21082.57403117024
 31
0.0
  0
LINE
  5
376
330
1F
100
AcDbEntity
  8
9
  6
Continuous
 62
     7
370
    30
100
AcDbLine
 10
32648.61497203719
 20
21093.27402974404
 30
0.0
 11
32648.91497203719
 21
21094.39364498631
 31
0.0
  0
LINE
  5
377
330
1F
100
AcDbEntity
  8
9
  6
Continuous
 62
     7
370
    30
100
AcDbLine
 10
32619.91497203719
 20
21093.27402974404
 30
0.0
 11
32619.61497203719
 21
21094.39364498631
 31
0.0
  0
LINE
  5
378
330
1F
100
AcDbEntity
  8
9
  6
Continuous
 62
     7
370
    30
100
AcDbLine
 10
32621.01497249986
 20
21085.77387001744
 30
0.0
 11
32621.01497249986
 21
21085.27386900414
 31
0.0
  0
LINE
  5
379
330
1F
100
AcDbEntity
  8
9
  6
Continuous
 62
     7
370
    30
100
AcDbLine
 10
32624.00287526309
 20
21133.31477658424
 30
0.0
 11
32644.52706881129
 21
21133.31477658424
 31
0.0
  0
LINE
  5
37A
330
1F
100
AcDbEntity
  8
9
  6
Continuous
 62
     7
370
    30
100
AcDbLine
 10
32625.26497203719
 20
21134.57687335844
 30
0.0
 11
32643.26497203719
 21
21134.57687335844
 31
0.0
  0
LINE
  5
37B
330
1F
100
AcDbEntity
  8
9
  6
Continuous
 62
     7
370
    30
100
AcDbLine
 10
32619.91497203719
 20
21093.27402974404
 30
0.0
 11
32648.61497203719
 21
21093.27402974404
 31
0.0
  0
LINE
  5
37C
330
1F
100
AcDbEntity
  8
9
  6
Continuous
 62
     7
370
    30
100
AcDbLine
 10
32636.76497198129
 20
21082.57403117024
 30
0.0
 11
32631.76497209312
 21
21082.57403117025
 31
0.0
  0
LINE
  5
37D
330
1F
100
AcDbEntity
  8
9
  6
Continuous
 62
     7
370
    30
100
AcDbLine
 10
32628.34781474971
 20
21086.57402969962
 30
0.0
 11
32640.18212932473
 21
21086.57402969958
 31
0.0
  0
LINE
  5
37E
330
1F
100
AcDbEntity
  8
9
  6
Continuous
 62
     7
370
    30
100
AcDbLine
 10
32627.45170665403
 20
21085.77387001748
 30
0.0
 11
32641.07823742039
 21
21085.77387001744
 31
0.0
  0
LINE
  5
37F
330
1F
100
AcDbEntity
  8
9
  6
Continuous
 62
     7
370
    30
100
AcDbLine
 10
32627.45170665405
 20
21088.77386864658
 30
0.0
 11
32641.07823742039
 21
21088.77386864654
 31
0.0
  0
LINE
  5
380
330
1F
100
AcDbEntity
  8
9
  6
Continuous
 62
     7
370
    30
100
AcDbLine
 10
32621.01497219376
 20
21090.27386982382
 30
0.0
 11
32647.51497188069
 21
21090.27386982374
 31
0.0
  0
LINE
  5
381
330
1F
100
AcDbEntity
  8
9
  6
Continuous
 62
     7
370
    30
100
AcDbLine
 10
32623.01497159022
 20
21083.27386867641
 30
0.0
 11
32645.51497248419
 21
21083.27386867634
 31
0.0
  0
LINE
  5
382
330
1F
100
AcDbEntity
  8
9
  6
Continuous
 62
     7
370
    30
100
AcDbLine
 10
32646.66497203719
 20
21092.47402974395
 30
0.0
 11
32621.86497203719
 21
21092.47402974395
 31
0.0
  0
LINE
  5
383
330
1F
100
AcDbEntity
  8
9
  6
Continuous
 62
     7
370
    30
100
AcDbLine
 10
32619.61497203719
 20
21096.77402974391
 30
0.0
 11
32648.91497203719
 21
21096.77402974391
 31
0.0
  0
LINE
  5
384
330
1F
100
AcDbEntity
  8
9
  6
Continuous
 62
     7
370
    30
100
AcDbLine
 10
32648.91497203719
 20
21094.39364498631
 30
0.0
 11
32619.61497203719
 21
21094.39364498631
 31
0.0
  0
LINE
  5
385
330
1F
100
AcDbEntity
  8
9
  6
Continuous
 62
     7
370
    30
100
AcDbLine
 10
32641.97331532837
 20
21087.37402969959
 30
0.0
 11
32626.55662874607
 21
21087.37402969964
 31
0.0
  0
LINE
  5
386
330
1F
100
AcDbEntity
  8
9
  6
Continuous
 62
     7
370
    30
100
AcDbLine
 10
32619.61128461058
 20
21096.80406142367
 30
0.0
 11
32642.03636236705
 21
21099.07687335844
 31
0.0
  0
LINE
  5
387
330
1F
100
AcDbEntity
  8
9
  6
Continuous
 62
     7
370
    30
100
AcDbLine
 10
32624.86337621738
 20
21096.77402974391
 30
0.0
 11
32647.90030511908
 21
21099.08542729258
 31
0.0
  0
LINE
  5
388
330
1F
100
AcDbEntity
  8
9
  6
Continuous
 62
     7
370
    30
100
AcDbLine
 10
32619.61497203719
 20
21096.77402974391
 30
0.0
 11
32619.33221839515
 21
21099.07687335844
 31
0.0
  0
LINE
  5
389
330
1F
100
AcDbEntity
  8
8
  6
Continuous
 62
     4
370
     9
100
AcDbLine
 10
32624.81384026175
 20
21122.07687335844
 30
0.0
 11
32625.20253348057
 21
21134.51443479948
 31
0.0
  0
LINE
  5
38A
330
1F
100
AcDbEntity
  8
9
  6
Continuous
 62
     7
370
    30
100
AcDbLine
 10
32624.00287526309
 20
21133.31477658424
 30
0.0
 11
32623.65169078725
 21
21122.07687335844
 31
0.0
  0
LINE
  5
38B
330
1F
100
AcDbEntity
  8
8
  6
Continuous
 62
     4
370
     9
100
AcDbLine
 10
32643.71610381263
 20
21122.07687335844
 30
0.0
 11
32643.32741059381
 21
21134.51443479948
 31
0.0
  0
LINE
  5
38C
330
1F
100
AcDbEntity
  8
9
  6
Continuous
 62
     7
370
    30
100
AcDbLine
 10
32644.52706881129
 20
21133.31477658424
 30
0.0
 11
32644.87825328713
 21
21122.07687335844
 31
0.0
  0
LINE
  5
38D
330
1F
100
AcDbEntity
  8
10
  6
HIDDEN
 62
     2
370
     9
100
AcDbLine
 10
32644.87825328713
 20
21122.07687335844
 30
0.0
 11
32644.98137828714
 21
21118.77687335844
 31
0.0
  0
LINE
  5
38E
330
1F
100
AcDbEntity
  8
10
  6
HIDDEN
 62
     2
370
     9
100
AcDbLine
 10
32623.65169078725
 20
21122.07687335844
 30
0.0
 11
32623.54856578724
 21
21118.77687335844
 31
0.0
  0
LINE
  5
38F
330
1F
100
AcDbEntity
  8
10
  6
HIDDEN
 62
     2
370
     9
100
AcDbLine
 10
32644.92512828714
 20
21120.57687335844
 30
0.0
 11
32623.60476642771
 21
21120.57687335844
 31
0.0
  0
LINE
  5
390
330
1F
100
AcDbEntity
  8
10
  6
HIDDEN
 62
     2
370
     9
100
AcDbLine
 10
32622.98099744098
 20
21118.77687335844
 30
0.0
 11
32645.54894663341
 21
21118.77687335844
 31
0.0
  0
ARC
  5
391
330
1F
100
AcDbEntity
  8
10
  6
HIDDEN
 62
     2
370
     9
100
AcDbCircle
 10
32646.41497203719
 20
21119.27687335844
 30
0.0
 40
1.0
100
AcDbArc
 50
210.000000000062
 51
269.9999999999998
  0
ARC
  5
392
330
1F
100
AcDbEntity
  8
10
  6
HIDDEN
 62
     2
370
     9
100
AcDbCircle
 10
32622.11497203719
 20
21119.27687335844
 30
0.0
 40
1.0
100
AcDbArc
 50
269.9999999999998
 51
330.0000000000415
  0
LINE
  5
393
330
1F
100
AcDbEntity
  8
10
  6
HIDDEN
 62
     2
370
     9
100
AcDbLine
 10
32643.76298115519
 20
21120.57687335844
 30
0.0
 11
32643.71610381263
 21
21122.07687335844
 31
0.0
  0
LINE
  5
394
330
1F
100
AcDbEntity
  8
10
  6
HIDDEN
 62
     2
370
     9
100
AcDbLine
 10
32624.7669629192
 20
21120.57687335844
 30
0.0
 11
32624.81384026175
 21
21122.07687335844
 31
0.0
  0
LINE
  5
395
330
1F
100
AcDbEntity
  8
10
  6
HIDDEN
 62
     2
370
     9
100
AcDbLine
 10
32643.76298115519
 20
21120.57687335844
 30
0.0
 11
32644.9627765826
 21
21119.37707793103
 31
0.0
  0
LINE
  5
396
330
1F
100
AcDbEntity
  8
10
  6
HIDDEN
 62
     2
370
     9
100
AcDbLine
 10
32624.7669629192
 20
21120.57687335844
 30
0.0
 11
32623.56716749178
 21
21119.37707793103
 31
0.0
  0
LINE
  5
397
330
1F
100
AcDbEntity
  8
10
  6
HIDDEN
 62
     2
370
     9
100
AcDbLine
 10
32619.31497203715
 20
21105.77402974399
 30
0.0
 11
32649.21497203724
 21
21105.77402974399
 31
0.0
  0
LINE
  5
398
330
1F
100
AcDbEntity
  8
10
  6
HIDDEN
 62
     2
370
     9
100
AcDbLine
 10
32628.14557736239
 20
21109.77691485215
 30
0.0
 11
32640.38436671199
 21
21109.77691485215
 31
0.0
  0
LINE
  5
399
330
1F
100
AcDbEntity
  8
10
  6
HIDDEN
 62
     2
370
     9
100
AcDbLine
 10
32628.14557736239
 20
21106.77691436045
 30
0.0
 11
32640.38436671199
 21
21106.77691436045
 31
0.0
  0
LINE
  5
39A
330
1F
100
AcDbEntity
  8
10
  6
HIDDEN
 62
     2
370
     9
100
AcDbLine
 10
32648.91497203719
 20
21111.27687334534
 30
0.0
 11
32619.61497203719
 21
21111.27687334534
 31
0.0
  0
LINE
  5
39B
330
1F
100
AcDbEntity
  8
10
  6
HIDDEN
 62
     2
370
     9
100
AcDbLine
 10
32617.26497203719
 20
21112.27687335844
 30
0.0
 11
32651.26497203719
 21
21112.27687335844
 31
0.0
  0
LINE
  5
39C
330
1F
100
AcDbEntity
  8
10
  6
HIDDEN
 62
     2
370
     9
100
AcDbLine
 10
32636.76497203719
 20
21118.14289876223
 30
0.0
 11
32631.76497203719
 21
21118.14289876223
 31
0.0
  0
LINE
  5
39D
330
1F
100
AcDbEntity
  8
10
  6
HIDDEN
 62
     2
370
     9
100
AcDbLine
 10
32650.03292122961
 20
21118.27687335844
 30
0.0
 11
32618.49702284477
 21
21118.27687335844
 31
0.0
  0
LINE
  5
39E
330
1F
100
AcDbEntity
  8
10
  6
HIDDEN
 62
     2
370
     9
100
AcDbLine
 10
32619.31497203715
 20
21105.77402974399
 30
0.0
 11
32619.31497203714
 21
21105.21733367238
 31
0.0
  0
LINE
  5
39F
330
1F
100
AcDbEntity
  8
10
  6
HIDDEN
 62
     2
370
     9
100
AcDbLine
 10
32619.31497203719
 20
21102.77402974391
 30
0.0
 11
32619.31497203719
 21
21102.21733367231
 31
0.0
  0
LINE
  5
3A0
330
1F
100
AcDbEntity
  8
10
  6
HIDDEN
 62
     2
370
     9
100
AcDbLine
 10
32620.11497203719
 20
21111.27687334534
 30
0.0
 11
32619.61497203719
 21
21110.41084794156
 31
0.0
  0
LINE
  5
3A1
330
1F
100
AcDbEntity
  8
10
  6
HIDDEN
 62
     2
370
     9
100
AcDbLine
 10
32648.41497203719
 20
21111.27687334534
 30
0.0
 11
32648.91497203719
 21
21110.41084794156
 31
0.0
  0
LINE
  5
3A2
330
1F
100
AcDbEntity
  8
10
  6
HIDDEN
 62
     2
370
     9
100
AcDbLine
 10
32619.61132115792
 20
21102.80376376942
 30
0.0
 11
32649.21497203719
 21
21105.77402974393
 31
0.0
  0
LINE
  5
3A3
330
1F
100
AcDbEntity
  8
10
  6
HIDDEN
 62
     2
370
     9
100
AcDbLine
 10
32619.31497203719
 20
21102.21733367233
 30
0.0
 11
32649.21497203719
 21
21105.21733367232
 31
0.0
  0
SPLINE
  5
3A4
330
1F
100
AcDbEntity
  8
10
  6
HIDDEN
 62
     2
370
     9
100
AcDbSpline
210
0.0
220
0.0
230
1.0
 70
    12
 71
     3
 72
    14
 73
    10
 74
     0
 42
0.000000001
 43
0.00001
 40
0.0
 40
0.0
 40
0.0
 40
0.0
 40
0.1088769686984931
 40
0.2172663573285982
 40
0.3685706574444105
 40
0.4825742753969225
 40
0.5996174274824865
 40
0.7976149977365948
 40
1.0
 40
1.0
 40
1.0
 40
1.0
 10
32640.37368257947
 20
21108.27691460632
 30
0.0
 41
1.0
 10
32640.36098928905
 20
21108.1506336201
 30
0.0
 41
1.0
 10
32640.33565955215
 20
21107.89863716755
 30
0.0
 41
1.0
 10
32640.1283607642
 20
21107.52875068139
 30
0.0
 41
1.0
 10
32639.82753192113
 20
21107.24670603068
 30
0.0
 41
1.0
 10
32639.46558888106
 20
21107.04706763754
 30
0.0
 41
1.0
 10
32639.02915395142
 20
21106.89242107918
 30
0.0
 41
1.0
 10
32638.47323866522
 20
21106.79236179904
 30
0.0
 41
1.0
 10
32638.02965144657
 20
21106.78210098631
 30
0.0
 41
1.0
 10
32637.80542740084
 20
21106.77691436045
 30
0.0
 41
1.0
  0
SPLINE
  5
3A5
330
1F
100
AcDbEntity
  8
10
  6
HIDDEN
 62
     2
370
     9
100
AcDbSpline
210
0.0
220
0.0
230
1.0
 70
    12
 71
     3
 72
    14
 73
    10
 74
     0
 42
0.000000001
 43
0.00001
 40
0.0
 40
0.0
 40
0.0
 40
0.0
 40
0.2170493941225676
 40
0.4388311995732112
 40
0.5988137766302898
 40
0.7597871991591737
 40
0.8750649674182215
 40
0.9755548291618868
 40
1.0
 40
1.0
 40
1.0
 40
1.0
 10
32637.80542740084
 20
21109.77691485219
 30
0.0
 41
1.0
 10
32638.04578989052
 20
21109.77094930062
 30
0.0
 41
1.0
 10
32638.53175558559
 20
21109.75888812826
 30
0.0
 41
1.0
 10
32639.17238717279
 20
21109.62969863782
 30
0.0
 41
1.0
 10
32639.70932197148
 20
21109.39377558028
 30
0.0
 41
1.0
 10
32640.08112954831
 20
21109.08771527164
 30
0.0
 41
1.0
 10
32640.30291242549
 20
21108.72283503503
 30
0.0
 41
1.0
 10
32640.3696317808
 20
21108.44925177764
 30
0.0
 41
1.0
 10
32640.37301969065
 20
21108.30511654673
 30
0.0
 41
1.0
 10
32640.37368257947
 20
21108.27691460632
 30
0.0
 41
1.0
  0
ARC
  5
3A6
330
1F
100
AcDbEntity
  8
10
  6
HIDDEN
 62
     2
370
     9
100
AcDbCircle
 10
32627.95050783859
 20
21108.13953684365
 30
0.0
 40
1.648956901139172
100
AcDbArc
 50
83.20607180965241
 51
175.2210394255246
  0
ARC
  5
3A7
330
1F
100
AcDbEntity
  8
10
  6
HIDDEN
 62
     2
370
     9
100
AcDbCircle
 10
32627.94296698189
 20
21108.40505083015
 30
0.0
 40
1.640694770587288
100
AcDbArc
 50
184.4792906218563
 51
277.0935981429728
  0
LINE
  5
3A8
330
1F
100
AcDbEntity
  8
10
  6
HIDDEN
 62
     2
370
     9
100
AcDbLine
 10
32619.61497203719
 20
21102.77402974391
 30
0.0
 11
32619.31497203719
 21
21105.21733367231
 31
0.0
  0
LINE
  5
3A9
330
1F
100
AcDbEntity
  8
10
  6
HIDDEN
 62
     2
370
     9
100
AcDbLine
 10
32619.31497203719
 20
21102.77402974391
 30
0.0
 11
32619.61497203719
 21
21102.77402974391
 31
0.0
  0
LINE
  5
3AA
330
1F
100
AcDbEntity
  8
10
  6
HIDDEN
 62
     2
370
     9
100
AcDbLine
 10
32619.61497203719
 20
21099.77402974391
 30
0.0
 11
32619.31497203719
 21
21102.21733367231
 31
0.0
  0
LINE
  5
3AB
330
1F
100
AcDbEntity
  8
10
  6
HIDDEN
 62
     2
370
     9
100
AcDbLine
 10
32619.61497203719
 20
21105.77402974399
 30
0.0
 11
32619.61497203719
 21
21112.27687335844
 31
0.0
  0
LINE
  5
3AC
330
1F
100
AcDbEntity
  8
10
  6
HIDDEN
 62
     2
370
     9
100
AcDbLine
 10
32620.11497203719
 20
21111.27687334534
 30
0.0
 11
32620.11497203719
 21
21112.27687335844
 31
0.0
  0
SPLINE
  5
3AD
330
1F
100
AcDbEntity
  8
10
  6
HIDDEN
 62
     2
370
     9
100
AcDbSpline
210
0.0
220
0.0
230
1.0
 70
    12
 71
     3
 72
    14
 73
    10
 74
     0
 42
0.000000001
 43
0.00001
 40
0.0
 40
0.0
 40
0.0
 40
0.0
 40
0.2170493941225676
 40
0.4388311995732112
 40
0.5988137766302898
 40
0.7597871991591737
 40
0.8750649674182215
 40
0.9755548291618868
 40
1.0
 40
1.0
 40
1.0
 40
1.0
 10
32630.72451667355
 20
21109.77691485219
 30
0.0
 41
1.0
 10
32630.48415418387
 20
21109.77094930062
 30
0.0
 41
1.0
 10
32629.99818848879
 20
21109.75888812826
 30
0.0
 41
1.0
 10
32629.3575569016
 20
21109.62969863782
 30
0.0
 41
1.0
 10
32628.8206221029
 20
21109.39377558028
 30
0.0
 41
1.0
 10
32628.44881452607
 20
21109.08771527164
 30
0.0
 41
1.0
 10
32628.22703164889
 20
21108.72283503503
 30
0.0
 41
1.0
 10
32628.16031229359
 20
21108.44925177764
 30
0.0
 41
1.0
 10
32628.15692438373
 20
21108.30511654673
 30
0.0
 41
1.0
 10
32628.15626149492
 20
21108.27691460632
 30
0.0
 41
1.0
  0
SPLINE
  5
3AE
330
1F
100
AcDbEntity
  8
10
  6
HIDDEN
 62
     2
370
     9
100
AcDbSpline
210
0.0
220
0.0
230
1.0
 70
    12
 71
     3
 72
    14
 73
    10
 74
     0
 42
0.000000001
 43
0.00001
 40
0.0
 40
0.0
 40
0.0
 40
0.0
 40
0.1088769686984931
 40
0.2172663573285982
 40
0.3685706574444105
 40
0.4825742753969225
 40
0.5996174274824865
 40
0.7976149977365948
 40
1.0
 40
1.0
 40
1.0
 40
1.0
 10
32628.15626149492
 20
21108.27691460632
 30
0.0
 41
1.0
 10
32628.16895478533
 20
21108.1506336201
 30
0.0
 41
1.0
 10
32628.19428452223
 20
21107.89863716755
 30
0.0
 41
1.0
 10
32628.40158331019
 20
21107.52875068139
 30
0.0
 41
1.0
 10
32628.70241215325
 20
21107.24670603068
 30
0.0
 41
1.0
 10
32629.06435519332
 20
21107.04706763754
 30
0.0
 41
1.0
 10
32629.50079012297
 20
21106.89242107918
 30
0.0
 41
1.0
 10
32630.05670540916
 20
21106.79236179904
 30
0.0
 41
1.0
 10
32630.50029262781
 20
21106.78210098631
 30
0.0
 41
1.0
 10
32630.72451667355
 20
21106.77691436045
 30
0.0
 41
1.0
  0
ARC
  5
3AF
330
1F
100
AcDbEntity
  8
10
  6
HIDDEN
 62
     2
370
     9
100
AcDbCircle
 10
32640.57943623579
 20
21108.13953684365
 30
0.0
 40
1.648956901139172
100
AcDbArc
 50
4.778960574464859
 51
96.79392819036255
  0
ARC
  5
3B0
330
1F
100
AcDbEntity
  8
10
  6
HIDDEN
 62
     2
370
     9
100
AcDbCircle
 10
32640.58697709249
 20
21108.40505083015
 30
0.0
 40
1.640694770587288
100
AcDbArc
 50
262.9064018570264
 51
355.520709378143
  0
LINE
  5
3B1
330
1F
100
AcDbEntity
  8
10
  6
HIDDEN
 62
     2
370
     9
100
AcDbLine
 10
32648.91497203719
 20
21105.77402974399
 30
0.0
 11
32648.91497203719
 21
21112.27687335844
 31
0.0
  0
LINE
  5
3B2
330
1F
100
AcDbEntity
  8
10
  6
HIDDEN
 62
     2
370
     9
100
AcDbLine
 10
32648.41497203719
 20
21111.27687334534
 30
0.0
 11
32648.41497203719
 21
21112.27687335844
 31
0.0
  0
LINE
  5
3B3
330
1F
100
AcDbEntity
  8
10
  6
HIDDEN
 62
     2
370
     9
100
AcDbLine
 10
32651.76497203719
 20
21114.62687335845
 30
0.0
 11
32650.51497203718
 21
21114.62687335845
 31
0.0
  0
LINE
  5
3B4
330
1F
100
AcDbEntity
  8
10
  6
HIDDEN
 62
     2
370
     9
100
AcDbLine
 10
32651.76497203719
 20
21114.02687335845
 30
0.0
 11
32650.5149720372
 21
21114.02687335845
 31
0.0
  0
LINE
  5
3B5
330
1F
100
AcDbEntity
  8
10
  6
HIDDEN
 62
     2
370
     9
100
AcDbLine
 10
32651.76497203719
 20
21113.12687335844
 30
0.0
 11
32650.51497203719
 21
21113.12687335844
 31
0.0
  0
LINE
  5
3B6
330
1F
100
AcDbEntity
  8
10
  6
HIDDEN
 62
     2
370
     9
100
AcDbLine
 10
32651.7649720372
 20
21117.02687335845
 30
0.0
 11
32650.51497203721
 21
21117.02687335845
 31
0.0
  0
LINE
  5
3B7
330
1F
100
AcDbEntity
  8
10
  6
HIDDEN
 62
     2
370
     9
100
AcDbLine
 10
32651.7649720372
 20
21116.12687335845
 30
0.0
 11
32650.51497203719
 21
21116.12687335845
 31
0.0
  0
LINE
  5
3B8
330
1F
100
AcDbEntity
  8
10
  6
HIDDEN
 62
     2
370
     9
100
AcDbLine
 10
32651.76497203719
 20
21115.52687335845
 30
0.0
 11
32650.51497203721
 21
21115.52687335845
 31
0.0
  0
LINE
  5
3B9
330
1F
100
AcDbEntity
  8
10
  6
HIDDEN
 62
     2
370
     9
100
AcDbLine
 10
32648.01497203719
 20
21113.12687335844
 30
0.0
 11
32636.76497203719
 21
21113.12687335844
 31
0.0
  0
LINE
  5
3BA
330
1F
100
AcDbEntity
  8
10
  6
HIDDEN
 62
     2
370
     9
100
AcDbLine
 10
32648.01497203719
 20
21114.02687335845
 30
0.0
 11
32636.76497203719
 21
21114.02687335845
 31
0.0
  0
LINE
  5
3BB
330
1F
100
AcDbEntity
  8
10
  6
HIDDEN
 62
     2
370
     9
100
AcDbLine
 10
32648.01497203719
 20
21114.62687335845
 30
0.0
 11
32636.76497203719
 21
21114.62687335845
 31
0.0
  0
LINE
  5
3BC
330
1F
100
AcDbEntity
  8
10
  6
HIDDEN
 62
     2
370
     9
100
AcDbLine
 10
32648.01497203719
 20
21116.12687335845
 30
0.0
 11
32636.76497203715
 21
21116.12687335845
 31
0.0
  0
LINE
  5
3BD
330
1F
100
AcDbEntity
  8
10
  6
HIDDEN
 62
     2
370
     9
100
AcDbLine
 10
32648.01497203719
 20
21115.52687335845
 30
0.0
 11
32636.76497203719
 21
21115.52687335845
 31
0.0
  0
LINE
  5
3BE
330
1F
100
AcDbEntity
  8
10
  6
HIDDEN
 62
     2
370
     9
100
AcDbLine
 10
32648.01497203719
 20
21117.02687335845
 30
0.0
 11
32636.76497203715
 21
21117.02687335845
 31
0.0
  0
LINE
  5
3BF
330
1F
100
AcDbEntity
  8
10
  6
HIDDEN
 62
     2
370
     9
100
AcDbLine
 10
32616.76497203719
 20
21115.52687335845
 30
0.0
 11
32618.01497203718
 21
21115.52687335845
 31
0.0
  0
LINE
  5
3C0
330
1F
100
AcDbEntity
  8
10
  6
HIDDEN
 62
     2
370
     9
100
AcDbLine
 10
32616.76497203719
 20
21116.12687335845
 30
0.0
 11
32618.0149720372
 21
21116.12687335845
 31
0.0
  0
LINE
  5
3C1
330
1F
100
AcDbEntity
  8
10
  6
HIDDEN
 62
     2
370
     9
100
AcDbLine
 10
32616.76497203719
 20
21117.02687335845
 30
0.0
 11
32618.01497203718
 21
21117.02687335845
 31
0.0
  0
LINE
  5
3C2
330
1F
100
AcDbEntity
  8
10
  6
HIDDEN
 62
     2
370
     9
100
AcDbLine
 10
32616.76497203719
 20
21113.12687335844
 30
0.0
 11
32618.01497203719
 21
21113.12687335844
 31
0.0
  0
LINE
  5
3C3
330
1F
100
AcDbEntity
  8
10
  6
HIDDEN
 62
     2
370
     9
100
AcDbLine
 10
32616.76497203719
 20
21114.02687335845
 30
0.0
 11
32618.01497203718
 21
21114.02687335845
 31
0.0
  0
LINE
  5
3C4
330
1F
100
AcDbEntity
  8
10
  6
HIDDEN
 62
     2
370
     9
100
AcDbLine
 10
32616.76497203719
 20
21114.62687335845
 30
0.0
 11
32618.0149720372
 21
21114.62687335845
 31
0.0
  0
LINE
  5
3C5
330
1F
100
AcDbEntity
  8
10
  6
HIDDEN
 62
     2
370
     9
100
AcDbLine
 10
32620.51497203719
 20
21117.02687335845
 30
0.0
 11
32631.76497203724
 21
21117.02687335845
 31
0.0
  0
LINE
  5
3C6
330
1F
100
AcDbEntity
  8
10
  6
HIDDEN
 62
     2
370
     9
100
AcDbLine
 10
32620.51497203719
 20
21115.52687335845
 30
0.0
 11
32631.76497203719
 21
21115.52687335845
 31
0.0
  0
LINE
  5
3C7
330
1F
100
AcDbEntity
  8
10
  6
HIDDEN
 62
     2
370
     9
100
AcDbLine
 10
32620.51497203719
 20
21116.12687335845
 30
0.0
 11
32631.76497203724
 21
21116.12687335845
 31
0.0
  0
LINE
  5
3C8
330
1F
100
AcDbEntity
  8
10
  6
HIDDEN
 62
     2
370
     9
100
AcDbLine
 10
32620.51497203719
 20
21114.62687335845
 30
0.0
 11
32631.76497203719
 21
21114.62687335845
 31
0.0
  0
LINE
  5
3C9
330
1F
100
AcDbEntity
  8
10
  6
HIDDEN
 62
     2
370
     9
100
AcDbLine
 10
32620.51497203719
 20
21114.02687335845
 30
0.0
 11
32631.76497203719
 21
21114.02687335845
 31
0.0
  0
LINE
  5
3CA
330
1F
100
AcDbEntity
  8
10
  6
HIDDEN
 62
     2
370
     9
100
AcDbLine
 10
32620.51497203719
 20
21113.12687335844
 30
0.0
 11
32631.76497203719
 21
21113.12687335844
 31
0.0
  0
LINE
  5
3CB
330
1F
100
AcDbEntity
  8
10
  6
HIDDEN
 62
     2
370
     9
100
AcDbLine
 10
32648.01497203719
 20
21112.78030263944
 30
0.0
 11
32636.76497203719
 21
21112.78030263944
 31
0.0
  0
LINE
  5
3CC
330
1F
100
AcDbEntity
  8
10
  6
HIDDEN
 62
     2
370
     9
100
AcDbLine
 10
32620.51497203719
 20
21112.78030263944
 30
0.0
 11
32631.76497203719
 21
21112.78030263944
 31
0.0
  0
LINE
  5
3CD
330
1F
100
AcDbEntity
  8
10
  6
HIDDEN
 62
     2
370
     9
100
AcDbLine
 10
32616.76497203719
 20
21113.12687335844
 30
0.0
 11
32616.76497203719
 21
21112.77687335844
 31
0.0
  0
LINE
  5
3CE
330
1F
100
AcDbEntity
  8
10
  6
HIDDEN
 62
     2
370
     9
100
AcDbLine
 10
32618.01497203719
 20
21112.77687335844
 30
0.0
 11
32618.01497203719
 21
21113.12687335844
 31
0.0
  0
LINE
  5
3CF
330
1F
100
AcDbEntity
  8
10
  6
HIDDEN
 62
     2
370
     9
100
AcDbLine
 10
32616.76497203719
 20
21112.78030263944
 30
0.0
 11
32618.01497203719
 21
21112.78030263944
 31
0.0
  0
LINE
  5
3D0
330
1F
100
AcDbEntity
  8
10
  6
HIDDEN
 62
     2
370
     9
100
AcDbLine
 10
32616.76497203719
 20
21112.77687335844
 30
0.0
 11
32617.26497203719
 21
21112.27687335844
 31
0.0
  0
SPLINE
  5
3D1
330
1F
100
AcDbEntity
  8
10
  6
HIDDEN
 62
     2
370
     9
100
AcDbSpline
210
0.0
220
0.0
230
1.0
 70
    12
 71
     3
 72
     8
 73
     4
 74
     0
 42
0.000000001
 43
0.00001
 40
0.0
 40
0.0
 40
0.0
 40
0.0
 40
0.0007108901684311
 40
0.0007108901684311
 40
0.0007108901684311
 40
0.0007108901684311
 10
32618.01497203719
 20
21112.78030263944
 30
0.0
 41
1.0
 10
32618.16082795615
 20
21112.61361016063
 30
0.0
 41
1.0
 10
32618.30670534236
 20
21112.44694272252
 30
0.0
 41
1.0
 10
32618.45260615798
 20
21112.28030263944
 30
0.0
 41
1.0
  0
LINE
  5
3D2
330
1F
100
AcDbEntity
  8
10
  6
HIDDEN
 62
     2
370
     9
100
AcDbLine
 10
32616.76497203719
 20
21117.27687335844
 30
0.0
 11
32616.76497203719
 21
21117.02687335845
 31
0.0
  0
LINE
  5
3D3
330
1F
100
AcDbEntity
  8
10
  6
HIDDEN
 62
     2
370
     9
100
AcDbLine
 10
32616.76497203719
 20
21116.12687335845
 30
0.0
 11
32616.76497203719
 21
21115.52687335845
 31
0.0
  0
ARC
  5
3D4
330
1F
100
AcDbEntity
  8
10
  6
HIDDEN
 62
     2
370
     9
100
AcDbCircle
 10
32616.57747203719
 20
21116.57687335844
 30
0.0
 40
0.4874999999992724
100
AcDbArc
 50
292.6198649480071
 51
67.38013505199247
  0
LINE
  5
3D5
330
1F
100
AcDbEntity
  8
10
  6
HIDDEN
 62
     2
370
     9
100
AcDbLine
 10
32618.01497203719
 20
21117.02687335845
 30
0.0
 11
32618.01497203719
 21
21117.27687335844
 31
0.0
  0
ARC
  5
3D6
330
1F
100
AcDbEntity
  8
10
  6
HIDDEN
 62
     2
370
     9
100
AcDbCircle
 10
32617.82747203719
 20
21116.57687335844
 30
0.0
 40
0.4874999999992724
100
AcDbArc
 50
292.6198649480071
 51
67.38013505182802
  0
LINE
  5
3D7
330
1F
100
AcDbEntity
  8
10
  6
HIDDEN
 62
     2
370
     9
100
AcDbLine
 10
32618.01497203719
 20
21115.52687335845
 30
0.0
 11
32618.01497203719
 21
21116.12687335844
 31
0.0
  0
LINE
  5
3D8
330
1F
100
AcDbEntity
  8
10
  6
HIDDEN
 62
     2
370
     9
100
AcDbLine
 10
32616.76497203719
 20
21114.62687335845
 30
0.0
 11
32616.76497203719
 21
21114.02687335845
 31
0.0
  0
ARC
  5
3D9
330
1F
100
AcDbEntity
  8
10
  6
HIDDEN
 62
     2
370
     9
100
AcDbCircle
 10
32616.57747203719
 20
21113.57687335844
 30
0.0
 40
0.4874999999992724
100
AcDbArc
 50
292.6198649480071
 51
67.38013505199247
  0
ARC
  5
3DA
330
1F
100
AcDbEntity
  8
10
  6
HIDDEN
 62
     2
370
     9
100
AcDbCircle
 10
32617.82747203719
 20
21113.57687335844
 30
0.0
 40
0.4874999999992724
100
AcDbArc
 50
292.6198649480071
 51
67.38013505182802
  0
LINE
  5
3DB
330
1F
100
AcDbEntity
  8
10
  6
HIDDEN
 62
     2
370
     9
100
AcDbLine
 10
32618.01497203719
 20
21114.02687335845
 30
0.0
 11
32618.01497203719
 21
21114.62687335845
 31
0.0
  0
ARC
  5
3DC
330
1F
100
AcDbEntity
  8
10
  6
HIDDEN
 62
     2
370
     9
100
AcDbCircle
 10
32616.57747203719
 20
21115.07687335844
 30
0.0
 40
0.4874999999992724
100
AcDbArc
 50
292.6198649480071
 51
67.38013505199247
  0
ARC
  5
3DD
330
1F
100
AcDbEntity
  8
10
  6
HIDDEN
 62
     2
370
     9
100
AcDbCircle
 10
32617.82747203719
 20
21115.07687335844
 30
0.0
 40
0.4874999999992724
100
AcDbArc
 50
292.6198649480071
 51
67.38013505182802
  0
LINE
  5
3DE
330
1F
100
AcDbEntity
  8
10
  6
HIDDEN
 62
     2
370
     9
100
AcDbLine
 10
32619.32875634402
 20
21112.27687335844
 30
0.0
 11
32619.32875634402
 21
21118.14289876223
 31
0.0
  0
LINE
  5
3DF
330
1F
100
AcDbEntity
  8
10
  6
HIDDEN
 62
     2
370
     9
100
AcDbLine
 10
32620.51497203719
 20
21113.12687335844
 30
0.0
 11
32620.51497203719
 21
21112.77687335844
 31
0.0
  0
SPLINE
  5
3E0
330
1F
100
AcDbEntity
  8
10
  6
HIDDEN
 62
     2
370
     9
100
AcDbSpline
210
0.0
220
0.0
230
1.0
 70
    12
 71
     3
 72
     8
 73
     4
 74
     0
 42
0.000000001
 43
0.00001
 40
0.0
 40
0.0
 40
0.0
 40
0.0
 40
0.0007108901684311
 40
0.0007108901684311
 40
0.0007108901684311
 40
0.0007108901684311
 10
32620.95260615798
 20
21112.27687335844
 30
0.0
 41
1.0
 10
32620.80670534236
 20
21112.44351344151
 30
0.0
 41
1.0
 10
32620.66082795615
 20
21112.61018087963
 30
0.0
 41
1.0
 10
32620.51497203719
 20
21112.77687335844
 30
0.0
 41
1.0
  0
LINE
  5
3E1
330
1F
100
AcDbEntity
  8
10
  6
HIDDEN
 62
     2
370
     9
100
AcDbLine
 10
32620.51497203719
 20
21117.27687335844
 30
0.0
 11
32620.51497203719
 21
21117.02687335845
 31
0.0
  0
LINE
  5
3E2
330
1F
100
AcDbEntity
  8
10
  6
HIDDEN
 62
     2
370
     9
100
AcDbLine
 10
32620.51497203719
 20
21116.12687335845
 30
0.0
 11
32620.51497203719
 21
21115.52687335845
 31
0.0
  0
ARC
  5
3E3
330
1F
100
AcDbEntity
  8
10
  6
HIDDEN
 62
     2
370
     9
100
AcDbCircle
 10
32620.32747203719
 20
21116.57687335844
 30
0.0
 40
0.4874999999992724
100
AcDbArc
 50
292.6198649480071
 51
67.38013505199247
  0
LINE
  5
3E4
330
1F
100
AcDbEntity
  8
10
  6
HIDDEN
 62
     2
370
     9
100
AcDbLine
 10
32620.51497203719
 20
21114.62687335845
 30
0.0
 11
32620.51497203719
 21
21114.02687335845
 31
0.0
  0
ARC
  5
3E5
330
1F
100
AcDbEntity
  8
10
  6
HIDDEN
 62
     2
370
     9
100
AcDbCircle
 10
32620.32747203719
 20
21113.57687335844
 30
0.0
 40
0.4874999999992724
100
AcDbArc
 50
292.6198649480071
 51
67.38013505199247
  0
ARC
  5
3E6
330
1F
100
AcDbEntity
  8
10
  6
HIDDEN
 62
     2
370
     9
100
AcDbCircle
 10
32620.32747203719
 20
21115.07687335844
 30
0.0
 40
0.4874999999992724
100
AcDbArc
 50
292.6198649480071
 51
67.38013505199247
  0
LINE
  5
3E7
330
1F
100
AcDbEntity
  8
10
  6
HIDDEN
 62
     2
370
     9
100
AcDbLine
 10
32636.76497203719
 20
21112.27687335844
 30
0.0
 11
32636.76497203719
 21
21118.14289876223
 31
0.0
  0
LINE
  5
3E8
330
1F
100
AcDbEntity
  8
10
  6
HIDDEN
 62
     2
370
     9
100
AcDbLine
 10
32648.01497203719
 20
21113.12687335844
 30
0.0
 11
32648.01497203719
 21
21112.77687335844
 31
0.0
  0
LINE
  5
3E9
330
1F
100
AcDbEntity
  8
10
  6
HIDDEN
 62
     2
370
     9
100
AcDbLine
 10
32649.20118773036
 20
21112.27687335844
 30
0.0
 11
32649.20118773036
 21
21118.14289876223
 31
0.0
  0
LINE
  5
3EA
330
1F
100
AcDbEntity
  8
10
  6
HIDDEN
 62
     2
370
     9
100
AcDbLine
 10
32650.51497203719
 20
21112.77687335844
 30
0.0
 11
32650.51497203719
 21
21113.12687335844
 31
0.0
  0
LINE
  5
3EB
330
1F
100
AcDbEntity
  8
10
  6
HIDDEN
 62
     2
370
     9
100
AcDbLine
 10
32651.76497203719
 20
21113.12687335844
 30
0.0
 11
32651.76497203719
 21
21112.77687335844
 31
0.0
  0
LINE
  5
3EC
330
1F
100
AcDbEntity
  8
10
  6
HIDDEN
 62
     2
370
     9
100
AcDbLine
 10
32651.76497203719
 20
21112.78030263944
 30
0.0
 11
32650.51497203719
 21
21112.78030263944
 31
0.0
  0
SPLINE
  5
3ED
330
1F
100
AcDbEntity
  8
10
  6
HIDDEN
 62
     2
370
     9
100
AcDbSpline
210
0.0
220
0.0
230
1.0
 70
    12
 71
     3
 72
     8
 73
     4
 74
     0
 42
0.000000001
 43
0.00001
 40
0.0
 40
0.0
 40
0.0
 40
0.0
 40
0.0007108901684311
 40
0.0007108901684311
 40
0.0007108901684311
 40
0.0007108901684311
 10
32647.5773379164
 20
21112.27687335844
 30
0.0
 41
1.0
 10
32647.72323873203
 20
21112.44351344151
 30
0.0
 41
1.0
 10
32647.86911611823
 20
21112.61018087963
 30
0.0
 41
1.0
 10
32648.01497203719
 20
21112.77687335844
 30
0.0
 41
1.0
  0
SPLINE
  5
3EE
330
1F
100
AcDbEntity
  8
10
  6
HIDDEN
 62
     2
370
     9
100
AcDbSpline
210
0.0
220
0.0
230
1.0
 70
    12
 71
     3
 72
     8
 73
     4
 74
     0
 42
0.000000001
 43
0.00001
 40
0.0
 40
0.0
 40
0.0
 40
0.0
 40
0.0007108901684311
 40
0.0007108901684311
 40
0.0007108901684311
 40
0.0007108901684311
 10
32650.51497203719
 20
21112.78030263944
 30
0.0
 41
1.0
 10
32650.36911611823
 20
21112.61361016063
 30
0.0
 41
1.0
 10
32650.22323873203
 20
21112.44694272252
 30
0.0
 41
1.0
 10
32650.0773379164
 20
21112.28030263944
 30
0.0
 41
1.0
  0
LINE
  5
3EF
330
1F
100
AcDbEntity
  8
10
  6
HIDDEN
 62
     2
370
     9
100
AcDbLine
 10
32651.76497203719
 20
21112.77687335844
 30
0.0
 11
32651.26497203719
 21
21112.27687335844
 31
0.0
  0
ARC
  5
3F0
330
1F
100
AcDbEntity
  8
10
  6
HIDDEN
 62
     2
370
     9
100
AcDbCircle
 10
32648.20247203719
 20
21113.57687335844
 30
0.0
 40
0.4874999999992724
100
AcDbArc
 50
112.6198649480075
 51
247.3801350519921
  0
ARC
  5
3F1
330
1F
100
AcDbEntity
  8
10
  6
HIDDEN
 62
     2
370
     9
100
AcDbCircle
 10
32648.20247203719
 20
21115.07687335844
 30
0.0
 40
0.4874999999992724
100
AcDbArc
 50
112.6198649480075
 51
247.3801350519921
  0
LINE
  5
3F2
330
1F
100
AcDbEntity
  8
10
  6
HIDDEN
 62
     2
370
     9
100
AcDbLine
 10
32648.01497203719
 20
21114.62687335845
 30
0.0
 11
32648.01497203719
 21
21114.02687335845
 31
0.0
  0
ARC
  5
3F3
330
1F
100
AcDbEntity
  8
10
  6
HIDDEN
 62
     2
370
     9
100
AcDbCircle
 10
32648.20247203719
 20
21116.57687335844
 30
0.0
 40
0.4874999999992724
100
AcDbArc
 50
112.6198649480075
 51
247.3801350519921
  0
LINE
  5
3F4
330
1F
100
AcDbEntity
  8
10
  6
HIDDEN
 62
     2
370
     9
100
AcDbLine
 10
32648.01497203719
 20
21116.12687335845
 30
0.0
 11
32648.01497203719
 21
21115.52687335845
 31
0.0
  0
LINE
  5
3F5
330
1F
100
AcDbEntity
  8
10
  6
HIDDEN
 62
     2
370
     9
100
AcDbLine
 10
32648.01497203719
 20
21117.27687335844
 30
0.0
 11
32648.01497203719
 21
21117.02687335845
 31
0.0
  0
ARC
  5
3F6
330
1F
100
AcDbEntity
  8
10
  6
HIDDEN
 62
     2
370
     9
100
AcDbCircle
 10
32650.70247203719
 20
21115.07687335844
 30
0.0
 40
0.4874999999992724
100
AcDbArc
 50
112.619864948172
 51
247.3801350519921
  0
LINE
  5
3F7
330
1F
100
AcDbEntity
  8
10
  6
HIDDEN
 62
     2
370
     9
100
AcDbLine
 10
32650.51497203719
 20
21114.02687335845
 30
0.0
 11
32650.51497203719
 21
21114.62687335845
 31
0.0
  0
ARC
  5
3F8
330
1F
100
AcDbEntity
  8
10
  6
HIDDEN
 62
     2
370
     9
100
AcDbCircle
 10
32650.70247203719
 20
21113.57687335844
 30
0.0
 40
0.4874999999992724
100
AcDbArc
 50
112.619864948172
 51
247.3801350519921
  0
LINE
  5
3F9
330
1F
100
AcDbEntity
  8
10
  6
HIDDEN
 62
     2
370
     9
100
AcDbLine
 10
32650.51497203719
 20
21115.52687335845
 30
0.0
 11
32650.51497203719
 21
21116.12687335844
 31
0.0
  0
ARC
  5
3FA
330
1F
100
AcDbEntity
  8
10
  6
HIDDEN
 62
     2
370
     9
100
AcDbCircle
 10
32650.70247203719
 20
21116.57687335844
 30
0.0
 40
0.4874999999992724
100
AcDbArc
 50
112.619864948172
 51
247.3801350519921
  0
LINE
  5
3FB
330
1F
100
AcDbEntity
  8
10
  6
HIDDEN
 62
     2
370
     9
100
AcDbLine
 10
32650.51497203719
 20
21117.02687335845
 30
0.0
 11
32650.51497203719
 21
21117.27687335844
 31
0.0
  0
ARC
  5
3FC
330
1F
100
AcDbEntity
  8
10
  6
HIDDEN
 62
     2
370
     9
100
AcDbCircle
 10
32651.95247203719
 20
21115.07687335844
 30
0.0
 40
0.4874999999992724
100
AcDbArc
 50
112.6198649480075
 51
247.3801350519921
  0
LINE
  5
3FD
330
1F
100
AcDbEntity
  8
10
  6
HIDDEN
 62
     2
370
     9
100
AcDbLine
 10
32651.76497203719
 20
21114.62687335844
 30
0.0
 11
32651.76497203719
 21
21114.02687335845
 31
0.0
  0
ARC
  5
3FE
330
1F
100
AcDbEntity
  8
10
  6
HIDDEN
 62
     2
370
     9
100
AcDbCircle
 10
32651.95247203719
 20
21113.57687335844
 30
0.0
 40
0.4874999999992724
100
AcDbArc
 50
112.6198649480075
 51
247.3801350519921
  0
LINE
  5
3FF
330
1F
100
AcDbEntity
  8
10
  6
HIDDEN
 62
     2
370
     9
100
AcDbLine
 10
32651.76497203719
 20
21116.12687335845
 30
0.0
 11
32651.76497203719
 21
21115.52687335845
 31
0.0
  0
ARC
  5
400
330
1F
100
AcDbEntity
  8
10
  6
HIDDEN
 62
     2
370
     9
100
AcDbCircle
 10
32651.95247203719
 20
21116.57687335844
 30
0.0
 40
0.4874999999992724
100
AcDbArc
 50
112.6198649480075
 51
247.3801350519921
  0
LINE
  5
401
330
1F
100
AcDbEntity
  8
10
  6
HIDDEN
 62
     2
370
     9
100
AcDbLine
 10
32651.76497203719
 20
21117.27687335844
 30
0.0
 11
32651.76497203719
 21
21117.02687335845
 31
0.0
  0
LINE
  5
402
330
1F
100
AcDbEntity
  8
10
  6
HIDDEN
 62
     2
370
     9
100
AcDbLine
 10
32616.76497203719
 20
21117.27687335844
 30
0.0
 11
32618.01497203719
 21
21117.27687335844
 31
0.0
  0
SPLINE
  5
403
330
1F
100
AcDbEntity
  8
10
  6
HIDDEN
 62
     2
370
     9
100
AcDbSpline
210
0.0
220
0.0
230
1.0
 70
    12
 71
     3
 72
     8
 73
     4
 74
     0
 42
0.000000001
 43
0.00001
 40
0.000000403112789
 40
0.000000403112789
 40
0.000000403112789
 40
0.000000403112789
 40
0.0017472208689273
 40
0.0017472208689273
 40
0.0017472208689273
 40
0.0017472208689273
 10
32618.01497203719
 20
21117.27687335844
 30
0.0
 41
1.0
 10
32618.45279479928
 20
21117.56576146078
 30
0.0
 41
1.0
 10
32618.89071305691
 20
21117.85445673712
 30
0.0
 41
1.0
 10
32619.32875634402
 20
21118.14289876223
 30
0.0
 41
1.0
  0
LINE
  5
404
330
1F
100
AcDbEntity
  8
10
  6
HIDDEN
 62
     2
370
     9
100
AcDbLine
 10
32618.49702284478
 20
21118.27687335844
 30
0.0
 11
32616.76497203719
 21
21117.27687335844
 31
0.0
  0
SPLINE
  5
405
330
1F
100
AcDbEntity
  8
10
  6
HIDDEN
 62
     2
370
     9
100
AcDbSpline
210
0.0
220
0.0
230
1.0
 70
    12
 71
     3
 72
     8
 73
     4
 74
     0
 42
0.000000001
 43
0.00001
 40
0.0000002658515791
 40
0.0000002658515791
 40
0.0000002658515791
 40
0.0000002658515791
 40
0.0017470836077175
 40
0.0017470836077175
 40
0.0017470836077175
 40
0.0017470836077175
 10
32621.82875634402
 20
21118.14289876223
 30
0.0
 41
1.0
 10
32621.39071305691
 20
21117.85445673712
 30
0.0
 41
1.0
 10
32620.95279479928
 20
21117.56576146078
 30
0.0
 41
1.0
 10
32620.51497203719
 20
21117.27687335844
 30
0.0
 41
1.0
  0
LINE
  5
406
330
1F
100
AcDbEntity
  8
10
  6
HIDDEN
 62
     2
370
     9
100
AcDbLine
 10
32619.32875634402
 20
21118.14289876223
 30
0.0
 11
32621.82875634402
 21
21118.14289876223
 31
0.0
  0
LINE
  5
407
330
1F
100
AcDbEntity
  8
10
  6
HIDDEN
 62
     2
370
     9
100
AcDbLine
 10
32651.76497203719
 20
21117.27687335844
 30
0.0
 11
32650.51497203719
 21
21117.27687335844
 31
0.0
  0
LINE
  5
408
330
1F
100
AcDbEntity
  8
10
  6
HIDDEN
 62
     2
370
     9
100
AcDbLine
 10
32648.01497203719
 20
21117.27687335853
 30
0.0
 11
32636.76497203715
 21
21117.27687335853
 31
0.0
  0
LINE
  5
409
330
1F
100
AcDbEntity
  8
10
  6
HIDDEN
 62
     2
370
     9
100
AcDbLine
 10
32649.20118773036
 20
21118.14289876223
 30
0.0
 11
32646.70118773036
 21
21118.14289876223
 31
0.0
  0
SPLINE
  5
40A
330
1F
100
AcDbEntity
  8
10
  6
HIDDEN
 62
     2
370
     9
100
AcDbSpline
210
0.0
220
0.0
230
1.0
 70
    12
 71
     3
 72
     8
 73
     4
 74
     0
 42
0.000000001
 43
0.00001
 40
0.0000002658515791
 40
0.0000002658515791
 40
0.0000002658515791
 40
0.0000002658515791
 40
0.0017470836077175
 40
0.0017470836077175
 40
0.0017470836077175
 40
0.0017470836077175
 10
32646.70118773036
 20
21118.14289876223
 30
0.0
 41
1.0
 10
32647.13923101747
 20
21117.85445673712
 30
0.0
 41
1.0
 10
32647.5771492751
 20
21117.56576146078
 30
0.0
 41
1.0
 10
32648.01497203719
 20
21117.27687335844
 30
0.0
 41
1.0
  0
LINE
  5
40B
330
1F
100
AcDbEntity
  8
10
  6
HIDDEN
 62
     2
370
     9
100
AcDbLine
 10
32650.03292122961
 20
21118.27687335844
 30
0.0
 11
32651.76497203719
 21
21117.27687335844
 31
0.0
  0
SPLINE
  5
40C
330
1F
100
AcDbEntity
  8
10
  6
HIDDEN
 62
     2
370
     9
100
AcDbSpline
210
0.0
220
0.0
230
1.0
 70
    12
 71
     3
 72
     8
 73
     4
 74
     0
 42
0.000000001
 43
0.00001
 40
0.000000403112789
 40
0.000000403112789
 40
0.000000403112789
 40
0.000000403112789
 40
0.0017472208689273
 40
0.0017472208689273
 40
0.0017472208689273
 40
0.0017472208689273
 10
32650.51497203719
 20
21117.27687335844
 30
0.0
 41
1.0
 10
32650.0771492751
 20
21117.56576146078
 30
0.0
 41
1.0
 10
32649.63923101747
 20
21117.85445673712
 30
0.0
 41
1.0
 10
32649.20118773036
 20
21118.14289876223
 30
0.0
 41
1.0
  0
LINE
  5
40D
330
1F
100
AcDbEntity
  8
10
  6
HIDDEN
 62
     2
370
     9
100
AcDbLine
 10
32631.76497203719
 20
21112.27687335844
 30
0.0
 11
32631.76497203719
 21
21118.14289876223
 31
0.0
  0
LINE
  5
40E
330
1F
100
AcDbEntity
  8
10
  6
HIDDEN
 62
     2
370
     9
100
AcDbLine
 10
32619.33221839515
 20
21099.07687335844
 30
0.0
 11
32619.31497203719
 21
21099.21733367231
 31
0.0
  0
LINE
  5
40F
330
1F
100
AcDbEntity
  8
10
  6
HIDDEN
 62
     2
370
     9
100
AcDbLine
 10
32647.90030511908
 20
21099.08542729258
 30
0.0
 11
32649.21497203719
 21
21099.21733367232
 31
0.0
  0
LINE
  5
410
330
1F
100
AcDbEntity
  8
10
  6
HIDDEN
 62
     2
370
     9
100
AcDbLine
 10
32642.03636236705
 20
21099.07687335844
 30
0.0
 11
32648.91497203719
 21
21099.77402974393
 31
0.0
  0
LINE
  5
411
330
1F
100
AcDbEntity
  8
10
  6
HIDDEN
 62
     2
370
     9
100
AcDbLine
 10
32619.31497203719
 20
21099.77402974391
 30
0.0
 11
32619.31497203719
 21
21099.21733367231
 31
0.0
  0
LINE
  5
412
330
1F
100
AcDbEntity
  8
10
  6
HIDDEN
 62
     2
370
     9
100
AcDbLine
 10
32649.21497203724
 20
21105.77402974399
 30
0.0
 11
32649.21497203724
 21
21105.21733367238
 31
0.0
  0
LINE
  5
413
330
1F
100
AcDbEntity
  8
10
  6
HIDDEN
 62
     2
370
     9
100
AcDbLine
 10
32649.21497203719
 20
21099.77402974391
 30
0.0
 11
32649.21497203719
 21
21099.21733367231
 31
0.0
  0
LINE
  5
414
330
1F
100
AcDbEntity
  8
10
  6
HIDDEN
 62
     2
370
     9
100
AcDbLine
 10
32649.2149720372
 20
21102.77402974391
 30
0.0
 11
32649.21497203719
 21
21102.21733367231
 31
0.0
  0
LINE
  5
415
330
1F
100
AcDbEntity
  8
10
  6
HIDDEN
 62
     2
370
     9
100
AcDbLine
 10
32619.61132115792
 20
21099.80376376942
 30
0.0
 11
32649.21497203719
 21
21102.77402974393
 31
0.0
  0
LINE
  5
416
330
1F
100
AcDbEntity
  8
10
  6
HIDDEN
 62
     2
370
     9
100
AcDbLine
 10
32619.31497203719
 20
21099.21733367232
 30
0.0
 11
32649.21497203719
 21
21102.21733367232
 31
0.0
  0
LINE
  5
417
330
1F
100
AcDbEntity
  8
10
  6
HIDDEN
 62
     2
370
     9
100
AcDbLine
 10
32619.31497203719
 20
21099.77402974391
 30
0.0
 11
32619.61497203719
 21
21099.77402974391
 31
0.0
  0
LINE
  5
418
330
1F
100
AcDbEntity
  8
10
  6
HIDDEN
 62
     2
370
     9
100
AcDbLine
 10
32648.91497203719
 20
21102.77402974391
 30
0.0
 11
32649.21497203719
 21
21105.21733367231
 31
0.0
  0
LINE
  5
419
330
1F
100
AcDbEntity
  8
10
  6
HIDDEN
 62
     2
370
     9
100
AcDbLine
 10
32649.21497203719
 20
21102.77402974391
 30
0.0
 11
32648.91497203719
 21
21102.77402974391
 31
0.0
  0
LINE
  5
41A
330
1F
100
AcDbEntity
  8
10
  6
HIDDEN
 62
     2
370
     9
100
AcDbLine
 10
32649.21497203719
 20
21099.77402974391
 30
0.0
 11
32648.91497203719
 21
21099.77402974391
 31
0.0
  0
LINE
  5
41B
330
1F
100
AcDbEntity
  8
10
  6
HIDDEN
 62
     2
370
     9
100
AcDbLine
 10
32648.91497203719
 20
21099.77402974391
 30
0.0
 11
32649.21497203719
 21
21102.21733367231
 31
0.0
  0
LINE
  5
41C
330
1F
100
AcDbEntity
  8
10
  6
HIDDEN
 62
     2
370
     9
100
AcDbLine
 10
32649.19772567923
 20
21099.07687335844
 30
0.0
 11
32649.21497203719
 21
21099.21733367231
 31
0.0
  0
LINE
  5
41D
330
1F
100
AcDbEntity
  8
9
  6
Continuous
 62
     7
370
    30
100
AcDbLine
 10
32648.91497203719
 20
21096.77402974391
 30
0.0
 11
32649.19772567923
 21
21099.07687335844
 31
0.0
  0
MTEXT
  5
41E
330
1F
100
AcDbEntity
  8
6
  6
Continuous
 62
     3
370
     9
100
AcDbMText
 10
32701.88124143868
 20
20914.92714981257
 30
0.0
 40
6.0
 41
98.90015999999999
 46
6.0
 71
     7
 72
     1
  1
{\fＭＳ ゴシック;A4 用紙、尺度：1/2}
 73
     1
 44
1.0
1001
ACAD
1000
ACAD_MTEXT_DEFINED_HEIGHT_BEGIN
1070
    46
1040
6.0
1000
ACAD_MTEXT_DEFINED_HEIGHT_END
  0
MTEXT
  5
41F
330
1F
100
AcDbEntity
  8
6
  6
Continuous
 62
     3
370
     9
100
AcDbMText
 10
32701.88124143868
 20
20924.42714981257
 30
0.0
 40
6.0
 41
190.75428
 46
6.0
 71
     7
 72
     1
  1
{\fＭＳ ゴシック;防護板 A 取付状態（ヘッドはKQRⅡ型）}
 73
     1
 44
1.0
1001
ACAD
1000
ACAD_MTEXT_DEFINED_HEIGHT_BEGIN
1070
    46
1040
6.0
1000
ACAD_MTEXT_DEFINED_HEIGHT_END
  0
MTEXT
  5
420
330
1F
100
AcDbEntity
  8
6
  6
Continuous
 62
     3
370
     9
100
AcDbMText
 10
32680.17633741239
 20
20568.31510620667
 30
0.0
 40
6.000000000000001
 41
121.05216
 46
6.000000000000001
 71
     7
 72
     1
  1
{\fＭＳ ゴシック;A4 用紙、印刷尺度：1/2}
 73
     1
 44
1.0
1001
ACAD
1000
ACAD_MTEXT_DEFINED_HEIGHT_BEGIN
1070
    46
1040
6.000000000000001
1000
ACAD_MTEXT_DEFINED_HEIGHT_END
  0
MTEXT
  5
421
330
1F
100
AcDbEntity
  8
6
  6
Continuous
 62
     3
370
     9
100
AcDbMText
 10
32680.17633741239
 20
20577.81510620667
 30
0.0
 40
6.000000000000002
 41
235.0582800000001
 46
6.000000000000002
 71
     7
 72
     1
  1
{\fＭＳ ゴシック;防護板 A 取付状態（断面図、ヘッドはKQRⅡ型）}
 73
     1
 44
1.0
1001
ACAD
1000
ACAD_MTEXT_DEFINED_HEIGHT_BEGIN
1070
    46
1040
6.000000000000002
1000
ACAD_MTEXT_DEFINED_HEIGHT_END
  0
MTEXT
  5
422
330
1F
100
AcDbEntity
  8
6
  6
Continuous
 62
     3
370
     9
100
AcDbMText
 10
33129.89601670563
 20
20567.12354096092
 30
0.0
 40
6.000000000000001
 41
121.05216
 46
6.000000000000001
 71
     7
 72
     1
  1
{\fＭＳ ゴシック;A4 用紙、印刷尺度：1/2}
 73
     1
 44
1.0
1001
ACAD
1000
ACAD_MTEXT_DEFINED_HEIGHT_BEGIN
1070
    46
1040
6.000000000000001
1000
ACAD_MTEXT_DEFINED_HEIGHT_END
  0
MTEXT
  5
423
330
1F
100
AcDbEntity
  8
6
  6
Continuous
 62
     3
370
     9
100
AcDbMText
 10
33129.89601670563
 20
20576.62354096092
 30
0.0
 40
6.000000000000002
 41
46.98780000000001
 46
6.000000000000002
 71
     7
 72
     1
  1
{\fＭＳ ゴシック;実寸：3/1}
 73
     1
 44
1.0
1001
ACAD
1000
ACAD_MTEXT_DEFINED_HEIGHT_BEGIN
1070
    46
1040
6.000000000000002
1000
ACAD_MTEXT_DEFINED_HEIGHT_END
  0
MTEXT
  5
424
330
1F
100
AcDbEntity
  8
6
  6
Continuous
 62
     3
370
     9
100
AcDbMText
 10
33129.89601670563
 20
20586.62354096092
 30
0.0
 40
6.0
 41
235.05828
 46
6.0
 71
     7
 72
     1
  1
{\fＭＳ ゴシック;防護板 A 取付状態（断面図、ヘッドはKQRⅡ型）}
 73
     1
 44
1.0
1001
ACAD
1000
ACAD_MTEXT_DEFINED_HEIGHT_BEGIN
1070
    46
1040
6.0
1000
ACAD_MTEXT_DEFINED_HEIGHT_END
  0
SPLINE
  5
425
330
1F
100
AcDbEntity
  8
9
  6
Continuous
 62
     7
370
    30
100
AcDbSpline
210
0.0
220
0.0
230
1.0
 70
    12
 71
     3
 72
     8
 73
     4
 74
     0
 42
0.000000001
 43
0.00001
 40
0.000000403112789
 40
0.000000403112789
 40
0.000000403112789
 40
0.000000403112789
 40
0.0017472208689273
 40
0.0017472208689273
 40
0.0017472208689273
 40
0.0017472208689273
 10
33141.13115722736
 20
20922.79675717653
 30
0.0
 41
1.0
 10
33139.81768894108
 20
20923.66342148357
 30
0.0
 41
1.0
 10
33138.50393416818
 20
20924.52950731257
 30
0.0
 41
1.0
 10
33137.18980430686
 20
20925.39483338789
 30
0.0
 41
1.0
  0
LINE
  5
426
330
1F
100
AcDbEntity
  8
9
  6
Continuous
 62
     7
370
    30
100
AcDbLine
 10
33139.6850048046
 20
20925.79675717653
 30
0.0
 11
33144.88115722736
 21
20922.79675717653
 31
0.0
  0
SPLINE
  5
427
330
1F
100
AcDbEntity
  8
9
  6
Continuous
 62
     7
370
    30
100
AcDbSpline
210
0.0
220
0.0
230
1.0
 70
    12
 71
     3
 72
     8
 73
     4
 74
     0
 42
0.000000001
 43
0.00001
 40
0.0000002658515791
 40
0.0000002658515791
 40
0.0000002658515791
 40
0.0000002658515791
 40
0.0017470836077175
 40
0.0017470836077175
 40
0.0017470836077175
 40
0.0017470836077175
 10
33129.68980430686
 20
20925.39483338789
 30
0.0
 41
1.0
 10
33131.00393416818
 20
20924.52950731257
 30
0.0
 41
1.0
 10
33132.31768894108
 20
20923.66342148357
 30
0.0
 41
1.0
 10
33133.63115722736
 20
20922.79675717653
 30
0.0
 41
1.0
  0
LINE
  5
428
330
1F
100
AcDbEntity
  8
9
  6
Continuous
 62
     7
370
    30
100
AcDbLine
 10
33137.18980430686
 20
20925.39483338789
 30
0.0
 11
33129.68980430686
 21
20925.39483338789
 31
0.0
  0
LINE
  5
429
330
1F
100
AcDbEntity
  8
9
  6
Continuous
 62
     7
370
    30
100
AcDbLine
 10
33133.63115722736
 20
20922.79675717679
 30
0.0
 11
33099.88115722722
 21
20922.79675717678
 31
0.0
  0
LINE
  5
42A
330
1F
100
AcDbEntity
  8
9
  6
Continuous
 62
     7
370
    30
100
AcDbLine
 10
33144.88115722736
 20
20922.79675717653
 30
0.0
 11
33141.13115722736
 21
20922.79675717653
 31
0.0
  0
LINE
  5
42B
330
1F
100
AcDbEntity
  8
9
  6
Continuous
 62
     7
370
    30
100
AcDbLine
 10
33047.57251014784
 20
20925.39483338789
 30
0.0
 11
33055.07251014784
 21
20925.39483338789
 31
0.0
  0
SPLINE
  5
42C
330
1F
100
AcDbEntity
  8
9
  6
Continuous
 62
     7
370
    30
100
AcDbSpline
210
0.0
220
0.0
230
1.0
 70
    12
 71
     3
 72
     8
 73
     4
 74
     0
 42
0.000000001
 43
0.00001
 40
0.0000002658515791
 40
0.0000002658515791
 40
0.0000002658515791
 40
0.0000002658515791
 40
0.0017470836077175
 40
0.0017470836077175
 40
0.0017470836077175
 40
0.0017470836077175
 10
33055.07251014784
 20
20925.39483338789
 30
0.0
 41
1.0
 10
33053.75838028652
 20
20924.52950731257
 30
0.0
 41
1.0
 10
33052.44462551363
 20
20923.66342148357
 30
0.0
 41
1.0
 10
33051.13115722736
 20
20922.79675717653
 30
0.0
 41
1.0
  0
LINE
  5
42D
330
1F
100
AcDbEntity
  8
9
  6
Continuous
 62
     7
370
    30
100
AcDbLine
 10
33045.07730965011
 20
20925.79675717653
 30
0.0
 11
33039.88115722736
 21
20922.79675717653
 31
0.0
  0
SPLINE
  5
42E
330
1F
100
AcDbEntity
  8
9
  6
Continuous
 62
     7
370
    30
100
AcDbSpline
210
0.0
220
0.0
230
1.0
 70
    12
 71
     3
 72
     8
 73
     4
 74
     0
 42
0.000000001
 43
0.00001
 40
0.000000403112789
 40
0.000000403112789
 40
0.000000403112789
 40
0.000000403112789
 40
0.0017472208689273
 40
0.0017472208689273
 40
0.0017472208689273
 40
0.0017472208689273
 10
33043.63115722736
 20
20922.79675717653
 30
0.0
 41
1.0
 10
33044.94462551363
 20
20923.66342148357
 30
0.0
 41
1.0
 10
33046.25838028652
 20
20924.52950731257
 30
0.0
 41
1.0
 10
33047.57251014784
 20
20925.39483338789
 30
0.0
 41
1.0
  0
LINE
  5
42F
330
1F
100
AcDbEntity
  8
9
  6
Continuous
 62
     7
370
    30
100
AcDbLine
 10
33039.88115722736
 20
20922.79675717653
 30
0.0
 11
33043.63115722736
 21
20922.79675717653
 31
0.0
  0
LINE
  5
430
330
1F
100
AcDbEntity
  8
9
  6
Continuous
 62
     7
370
    30
100
AcDbLine
 10
33144.88115722736
 20
20922.79675717653
 30
0.0
 11
33144.88115722736
 21
20922.04675717654
 31
0.0
  0
ARC
  5
431
330
1F
100
AcDbEntity
  8
9
  6
Continuous
 62
     7
370
    30
100
AcDbCircle
 10
33145.44365722736
 20
20920.69675717654
 30
0.0
 40
1.462499999999636
100
AcDbArc
 50
112.6198649480624
 51
247.3801350519373
  0
LINE
  5
432
330
1F
100
AcDbEntity
  8
9
  6
Continuous
 62
     7
370
    30
100
AcDbLine
 10
33144.88115722736
 20
20919.34675717655
 30
0.0
 11
33144.88115722736
 21
20917.54675717655
 31
0.0
  0
ARC
  5
433
330
1F
100
AcDbEntity
  8
9
  6
Continuous
 62
     7
370
    30
100
AcDbCircle
 10
33145.44365722736
 20
20911.69675717654
 30
0.0
 40
1.462499999999636
100
AcDbArc
 50
112.6198649480624
 51
247.3801350519373
  0
LINE
  5
434
330
1F
100
AcDbEntity
  8
9
  6
Continuous
 62
     7
370
    30
100
AcDbLine
 10
33144.88115722736
 20
20914.84675717654
 30
0.0
 11
33144.88115722736
 21
20913.04675717655
 31
0.0
  0
ARC
  5
435
330
1F
100
AcDbEntity
  8
9
  6
Continuous
 62
     7
370
    30
100
AcDbCircle
 10
33145.44365722736
 20
20916.19675717654
 30
0.0
 40
1.462499999999636
100
AcDbArc
 50
112.6198649480624
 51
247.3801350519373
  0
LINE
  5
436
330
1F
100
AcDbEntity
  8
9
  6
Continuous
 62
     7
370
    30
100
AcDbLine
 10
33141.13115722736
 20
20922.04675717654
 30
0.0
 11
33141.13115722736
 21
20922.79675717653
 31
0.0
  0
ARC
  5
437
330
1F
100
AcDbEntity
  8
9
  6
Continuous
 62
     7
370
    30
100
AcDbCircle
 10
33141.69365722736
 20
20920.69675717653
 30
0.0
 40
1.462499999999636
100
AcDbArc
 50
112.6198649480075
 51
247.3801350519373
  0
LINE
  5
438
330
1F
100
AcDbEntity
  8
9
  6
Continuous
 62
     7
370
    30
100
AcDbLine
 10
33141.13115722736
 20
20917.54675717654
 30
0.0
 11
33141.13115722736
 21
20919.34675717654
 31
0.0
  0
ARC
  5
439
330
1F
100
AcDbEntity
  8
9
  6
Continuous
 62
     7
370
    30
100
AcDbCircle
 10
33141.69365722736
 20
20911.69675717653
 30
0.0
 40
1.462499999999636
100
AcDbArc
 50
112.6198649480075
 51
247.3801350519373
  0
LINE
  5
43A
330
1F
100
AcDbEntity
  8
9
  6
Continuous
 62
     7
370
    30
100
AcDbLine
 10
33141.13115722736
 20
20913.04675717655
 30
0.0
 11
33141.13115722736
 21
20914.84675717655
 31
0.0
  0
ARC
  5
43B
330
1F
100
AcDbEntity
  8
9
  6
Continuous
 62
     7
370
    30
100
AcDbCircle
 10
33141.69365722736
 20
20916.19675717653
 30
0.0
 40
1.462499999999636
100
AcDbArc
 50
112.6198649480075
 51
247.3801350519373
  0
LINE
  5
43C
330
1F
100
AcDbEntity
  8
9
  6
Continuous
 62
     7
370
    30
100
AcDbLine
 10
33133.63115722736
 20
20922.79675717653
 30
0.0
 11
33133.63115722736
 21
20922.04675717655
 31
0.0
  0
LINE
  5
43D
330
1F
100
AcDbEntity
  8
9
  6
Continuous
 62
     7
370
    30
100
AcDbLine
 10
33133.63115722736
 20
20919.34675717655
 30
0.0
 11
33133.63115722736
 21
20917.54675717656
 31
0.0
  0
ARC
  5
43E
330
1F
100
AcDbEntity
  8
9
  6
Continuous
 62
     7
370
    30
100
AcDbCircle
 10
33134.19365722736
 20
20920.69675717654
 30
0.0
 40
1.462499999999636
100
AcDbArc
 50
112.6198649480624
 51
247.3801350519373
  0
LINE
  5
43F
330
1F
100
AcDbEntity
  8
9
  6
Continuous
 62
     7
370
    30
100
AcDbLine
 10
33133.63115722736
 20
20914.84675717655
 30
0.0
 11
33133.63115722736
 21
20913.04675717655
 31
0.0
  0
ARC
  5
440
330
1F
100
AcDbEntity
  8
9
  6
Continuous
 62
     7
370
    30
100
AcDbCircle
 10
33134.19365722736
 20
20916.19675717654
 30
0.0
 40
1.462499999999636
100
AcDbArc
 50
112.6198649480624
 51
247.3801350519373
  0
ARC
  5
441
330
1F
100
AcDbEntity
  8
9
  6
Continuous
 62
     7
370
    30
100
AcDbCircle
 10
33134.19365722736
 20
20911.69675717654
 30
0.0
 40
1.462499999999636
100
AcDbArc
 50
112.6198649480624
 51
247.3801350519373
  0
LINE
  5
442
330
1F
100
AcDbEntity
  8
9
  6
Continuous
 62
     7
370
    30
100
AcDbLine
 10
33144.88115722736
 20
20909.29675717653
 30
0.0
 11
33143.38115722736
 21
20907.79675717653
 31
0.0
  0
SPLINE
  5
443
330
1F
100
AcDbEntity
  8
9
  6
Continuous
 62
     7
370
    30
100
AcDbSpline
210
0.0
220
0.0
230
1.0
 70
    12
 71
     3
 72
     8
 73
     4
 74
     0
 42
0.000000001
 43
0.00001
 40
0.0
 40
0.0
 40
0.0
 40
0.0
 40
0.0007108901684311
 40
0.0007108901684311
 40
0.0007108901684311
 40
0.0007108901684311
 10
33141.13115722736
 20
20909.30704501953
 30
0.0
 41
1.0
 10
33140.69358947047
 20
20908.8069675831
 30
0.0
 41
1.0
 10
33140.25595731185
 20
20908.30696526875
 30
0.0
 41
1.0
 10
33139.81825486499
 20
20907.80704501953
 30
0.0
 41
1.0
  0
SPLINE
  5
444
330
1F
100
AcDbEntity
  8
9
  6
Continuous
 62
     7
370
    30
100
AcDbSpline
210
0.0
220
0.0
230
1.0
 70
    12
 71
     3
 72
     8
 73
     4
 74
     0
 42
0.000000001
 43
0.00001
 40
0.0
 40
0.0
 40
0.0
 40
0.0
 40
0.0007108901684311
 40
0.0007108901684311
 40
0.0007108901684311
 40
0.0007108901684311
 10
33132.31825486499
 20
20907.79675717653
 30
0.0
 41
1.0
 10
33132.75595731185
 20
20908.29667742575
 30
0.0
 41
1.0
 10
33133.19358947047
 20
20908.7966797401
 30
0.0
 41
1.0
 10
33133.63115722736
 20
20909.29675717653
 30
0.0
 41
1.0
  0
LINE
  5
445
330
1F
100
AcDbEntity
  8
9
  6
Continuous
 62
     7
370
    30
100
AcDbLine
 10
33144.88115722736
 20
20909.30704501953
 30
0.0
 11
33141.13115722736
 21
20909.30704501953
 31
0.0
  0
LINE
  5
446
330
1F
100
AcDbEntity
  8
9
  6
Continuous
 62
     7
370
    30
100
AcDbLine
 10
33144.88115722736
 20
20910.34675717654
 30
0.0
 11
33144.88115722736
 21
20909.29675717653
 31
0.0
  0
LINE
  5
447
330
1F
100
AcDbEntity
  8
9
  6
Continuous
 62
     7
370
    30
100
AcDbLine
 10
33141.13115722736
 20
20909.29675717653
 30
0.0
 11
33141.13115722736
 21
20910.34675717654
 31
0.0
  0
LINE
  5
448
330
1F
100
AcDbEntity
  8
9
  6
Continuous
 62
     7
370
    30
100
AcDbLine
 10
33137.18980430686
 20
20907.79675717653
 30
0.0
 11
33137.18980430686
 21
20925.39483338789
 31
0.0
  0
LINE
  5
449
330
1F
100
AcDbEntity
  8
9
  6
Continuous
 62
     7
370
    30
100
AcDbLine
 10
33133.63115722736
 20
20910.34675717654
 30
0.0
 11
33133.63115722736
 21
20909.29675717653
 31
0.0
  0
LINE
  5
44A
330
1F
100
AcDbEntity
  8
9
  6
Continuous
 62
     7
370
    30
100
AcDbLine
 10
33099.88115722736
 20
20907.79675717653
 30
0.0
 11
33099.88115722736
 21
20925.39483338789
 31
0.0
  0
LINE
  5
44B
330
1F
100
AcDbEntity
  8
9
  6
Continuous
 62
     7
370
    30
100
AcDbLine
 10
33084.88115722736
 20
20907.79675717653
 30
0.0
 11
33084.88115722736
 21
20925.39483338789
 31
0.0
  0
ARC
  5
44C
330
1F
100
AcDbEntity
  8
9
  6
Continuous
 62
     7
370
    30
100
AcDbCircle
 10
33050.56865722736
 20
20916.19675717654
 30
0.0
 40
1.462499999999636
100
AcDbArc
 50
292.6198649480619
 51
67.38013505193764
  0
ARC
  5
44D
330
1F
100
AcDbEntity
  8
9
  6
Continuous
 62
     7
370
    30
100
AcDbCircle
 10
33050.56865722736
 20
20911.69675717654
 30
0.0
 40
1.462499999999636
100
AcDbArc
 50
292.6198649480619
 51
67.38013505193764
  0
LINE
  5
44E
330
1F
100
AcDbEntity
  8
9
  6
Continuous
 62
     7
370
    30
100
AcDbLine
 10
33051.13115722736
 20
20914.84675717655
 30
0.0
 11
33051.13115722736
 21
20913.04675717655
 31
0.0
  0
ARC
  5
44F
330
1F
100
AcDbEntity
  8
9
  6
Continuous
 62
     7
370
    30
100
AcDbCircle
 10
33050.56865722736
 20
20920.69675717654
 30
0.0
 40
1.462499999999636
100
AcDbArc
 50
292.6198649480619
 51
67.38013505193764
  0
LINE
  5
450
330
1F
100
AcDbEntity
  8
9
  6
Continuous
 62
     7
370
    30
100
AcDbLine
 10
33051.13115722736
 20
20919.34675717655
 30
0.0
 11
33051.13115722736
 21
20917.54675717656
 31
0.0
  0
LINE
  5
451
330
1F
100
AcDbEntity
  8
9
  6
Continuous
 62
     7
370
    30
100
AcDbLine
 10
33051.13115722736
 20
20922.79675717653
 30
0.0
 11
33051.13115722736
 21
20922.04675717655
 31
0.0
  0
SPLINE
  5
452
330
1F
100
AcDbEntity
  8
9
  6
Continuous
 62
     7
370
    30
100
AcDbSpline
210
0.0
220
0.0
230
1.0
 70
    12
 71
     3
 72
     8
 73
     4
 74
     0
 42
0.000000001
 43
0.00001
 40
0.0
 40
0.0
 40
0.0
 40
0.0
 40
0.0007108901684311
 40
0.0007108901684311
 40
0.0007108901684311
 40
0.0007108901684311
 10
33052.44405958972
 20
20907.79675717653
 30
0.0
 41
1.0
 10
33052.00635714285
 20
20908.29667742575
 30
0.0
 41
1.0
 10
33051.56872498423
 20
20908.7966797401
 30
0.0
 41
1.0
 10
33051.13115722736
 20
20909.29675717653
 30
0.0
 41
1.0
  0
LINE
  5
453
330
1F
100
AcDbEntity
  8
9
  6
Continuous
 62
     7
370
    30
100
AcDbLine
 10
33051.13115722736
 20
20910.34675717654
 30
0.0
 11
33051.13115722736
 21
20909.29675717653
 31
0.0
  0
LINE
  5
454
330
1F
100
AcDbEntity
  8
9
  6
Continuous
 62
     7
370
    30
100
AcDbLine
 10
33047.57251014784
 20
20907.79675717653
 30
0.0
 11
33047.57251014784
 21
20925.39483338789
 31
0.0
  0
ARC
  5
455
330
1F
100
AcDbEntity
  8
9
  6
Continuous
 62
     7
370
    30
100
AcDbCircle
 10
33043.06865722735
 20
20916.19675717653
 30
0.0
 40
1.462499999999636
100
AcDbArc
 50
292.6198649480619
 51
67.38013505199247
  0
ARC
  5
456
330
1F
100
AcDbEntity
  8
9
  6
Continuous
 62
     7
370
    30
100
AcDbCircle
 10
33039.31865722735
 20
20916.19675717654
 30
0.0
 40
1.462499999999636
100
AcDbArc
 50
292.6198649480619
 51
67.38013505193764
  0
LINE
  5
457
330
1F
100
AcDbEntity
  8
9
  6
Continuous
 62
     7
370
    30
100
AcDbLine
 10
33043.63115722736
 20
20913.04675717655
 30
0.0
 11
33043.63115722736
 21
20914.84675717655
 31
0.0
  0
ARC
  5
458
330
1F
100
AcDbEntity
  8
9
  6
Continuous
 62
     7
370
    30
100
AcDbCircle
 10
33043.06865722735
 20
20911.69675717653
 30
0.0
 40
1.462499999999636
100
AcDbArc
 50
292.6198649480619
 51
67.38013505199247
  0
ARC
  5
459
330
1F
100
AcDbEntity
  8
9
  6
Continuous
 62
     7
370
    30
100
AcDbCircle
 10
33039.31865722735
 20
20911.69675717654
 30
0.0
 40
1.462499999999636
100
AcDbArc
 50
292.6198649480619
 51
67.38013505193764
  0
LINE
  5
45A
330
1F
100
AcDbEntity
  8
9
  6
Continuous
 62
     7
370
    30
100
AcDbLine
 10
33039.88115722736
 20
20914.84675717655
 30
0.0
 11
33039.88115722736
 21
20913.04675717655
 31
0.0
  0
LINE
  5
45B
330
1F
100
AcDbEntity
  8
9
  6
Continuous
 62
     7
370
    30
100
AcDbLine
 10
33043.63115722736
 20
20917.54675717654
 30
0.0
 11
33043.63115722736
 21
20919.34675717654
 31
0.0
  0
ARC
  5
45C
330
1F
100
AcDbEntity
  8
9
  6
Continuous
 62
     7
370
    30
100
AcDbCircle
 10
33043.06865722735
 20
20920.69675717653
 30
0.0
 40
1.462499999999636
100
AcDbArc
 50
292.6198649480619
 51
67.38013505199247
  0
LINE
  5
45D
330
1F
100
AcDbEntity
  8
9
  6
Continuous
 62
     7
370
    30
100
AcDbLine
 10
33043.63115722736
 20
20922.04675717654
 30
0.0
 11
33043.63115722736
 21
20922.79675717653
 31
0.0
  0
ARC
  5
45E
330
1F
100
AcDbEntity
  8
9
  6
Continuous
 62
     7
370
    30
100
AcDbCircle
 10
33039.31865722735
 20
20920.69675717654
 30
0.0
 40
1.462499999999636
100
AcDbArc
 50
292.6198649480619
 51
67.38013505193764
  0
LINE
  5
45F
330
1F
100
AcDbEntity
  8
9
  6
Continuous
 62
     7
370
    30
100
AcDbLine
 10
33039.88115722736
 20
20919.34675717655
 30
0.0
 11
33039.88115722736
 21
20917.54675717654
 31
0.0
  0
LINE
  5
460
330
1F
100
AcDbEntity
  8
9
  6
Continuous
 62
     7
370
    30
100
AcDbLine
 10
33039.88115722736
 20
20922.79675717653
 30
0.0
 11
33039.88115722736
 21
20922.04675717654
 31
0.0
  0
SPLINE
  5
461
330
1F
100
AcDbEntity
  8
9
  6
Continuous
 62
     7
370
    30
100
AcDbSpline
210
0.0
220
0.0
230
1.0
 70
    12
 71
     3
 72
     8
 73
     4
 74
     0
 42
0.000000001
 43
0.00001
 40
0.0
 40
0.0
 40
0.0
 40
0.0
 40
0.0007108901684311
 40
0.0007108901684311
 40
0.0007108901684311
 40
0.0007108901684311
 10
33043.63115722736
 20
20909.30704501953
 30
0.0
 41
1.0
 10
33044.06872498423
 20
20908.8069675831
 30
0.0
 41
1.0
 10
33044.50635714285
 20
20908.30696526875
 30
0.0
 41
1.0
 10
33044.94405958972
 20
20907.80704501953
 30
0.0
 41
1.0
  0
LINE
  5
462
330
1F
100
AcDbEntity
  8
9
  6
Continuous
 62
     7
370
    30
100
AcDbLine
 10
33039.88115722736
 20
20909.29675717653
 30
0.0
 11
33041.38115722736
 21
20907.79675717653
 31
0.0
  0
LINE
  5
463
330
1F
100
AcDbEntity
  8
9
  6
Continuous
 62
     7
370
    30
100
AcDbLine
 10
33039.88115722736
 20
20909.30704501953
 30
0.0
 11
33043.63115722736
 21
20909.30704501953
 31
0.0
  0
LINE
  5
464
330
1F
100
AcDbEntity
  8
9
  6
Continuous
 62
     7
370
    30
100
AcDbLine
 10
33043.63115722736
 20
20909.29675717653
 30
0.0
 11
33043.63115722736
 21
20910.34675717654
 31
0.0
  0
LINE
  5
465
330
1F
100
AcDbEntity
  8
9
  6
Continuous
 62
     7
370
    30
100
AcDbLine
 10
33039.88115722736
 20
20910.34675717654
 30
0.0
 11
33039.88115722736
 21
20909.29675717653
 31
0.0
  0
LINE
  5
466
330
1F
100
AcDbEntity
  8
9
  6
Continuous
 62
     7
370
    30
100
AcDbLine
 10
33051.13115722736
 20
20909.30704501953
 30
0.0
 11
33084.88115722736
 21
20909.30704501954
 31
0.0
  0
LINE
  5
467
330
1F
100
AcDbEntity
  8
9
  6
Continuous
 62
     7
370
    30
100
AcDbLine
 10
33133.63115722736
 20
20909.30704501953
 30
0.0
 11
33099.88115722736
 21
20909.30704501954
 31
0.0
  0
LINE
  5
468
330
1F
100
AcDbEntity
  8
9
  6
Continuous
 62
     7
370
    30
100
AcDbLine
 10
33051.13115722736
 20
20910.34675717654
 30
0.0
 11
33084.88115722736
 21
20910.34675717654
 31
0.0
  0
LINE
  5
469
330
1F
100
AcDbEntity
  8
9
  6
Continuous
 62
     7
370
    30
100
AcDbLine
 10
33051.13115722736
 20
20913.04675717655
 30
0.0
 11
33084.88115722736
 21
20913.04675717655
 31
0.0
  0
LINE
  5
46A
330
1F
100
AcDbEntity
  8
9
  6
Continuous
 62
     7
370
    30
100
AcDbLine
 10
33051.13115722736
 20
20914.84675717655
 30
0.0
 11
33084.88115722736
 21
20914.84675717655
 31
0.0
  0
LINE
  5
46B
330
1F
100
AcDbEntity
  8
9
  6
Continuous
 62
     7
370
    30
100
AcDbLine
 10
33051.13115722736
 20
20919.34675717655
 30
0.0
 11
33084.88115722749
 21
20919.34675717655
 31
0.0
  0
LINE
  5
46C
330
1F
100
AcDbEntity
  8
9
  6
Continuous
 62
     7
370
    30
100
AcDbLine
 10
33051.13115722736
 20
20917.54675717655
 30
0.0
 11
33084.88115722736
 21
20917.54675717655
 31
0.0
  0
LINE
  5
46D
330
1F
100
AcDbEntity
  8
9
  6
Continuous
 62
     7
370
    30
100
AcDbLine
 10
33051.13115722736
 20
20922.04675717654
 30
0.0
 11
33084.88115722749
 21
20922.04675717654
 31
0.0
  0
LINE
  5
46E
330
1F
100
AcDbEntity
  8
9
  6
Continuous
 62
     7
370
    30
100
AcDbLine
 10
33039.88115722736
 20
20914.84675717655
 30
0.0
 11
33043.63115722737
 21
20914.84675717655
 31
0.0
  0
LINE
  5
46F
330
1F
100
AcDbEntity
  8
9
  6
Continuous
 62
     7
370
    30
100
AcDbLine
 10
33039.88115722736
 20
20913.04675717655
 30
0.0
 11
33043.63115722733
 21
20913.04675717654
 31
0.0
  0
LINE
  5
470
330
1F
100
AcDbEntity
  8
9
  6
Continuous
 62
     7
370
    30
100
AcDbLine
 10
33039.88115722736
 20
20910.34675717654
 30
0.0
 11
33043.63115722736
 21
20910.34675717654
 31
0.0
  0
LINE
  5
471
330
1F
100
AcDbEntity
  8
9
  6
Continuous
 62
     7
370
    30
100
AcDbLine
 10
33039.88115722734
 20
20922.04675717655
 30
0.0
 11
33043.63115722731
 21
20922.04675717655
 31
0.0
  0
LINE
  5
472
330
1F
100
AcDbEntity
  8
9
  6
Continuous
 62
     7
370
    30
100
AcDbLine
 10
33039.88115722734
 20
20919.34675717655
 30
0.0
 11
33043.63115722736
 21
20919.34675717655
 31
0.0
  0
LINE
  5
473
330
1F
100
AcDbEntity
  8
9
  6
Continuous
 62
     7
370
    30
100
AcDbLine
 10
33039.88115722736
 20
20917.54675717655
 30
0.0
 11
33043.63115722731
 21
20917.54675717655
 31
0.0
  0
LINE
  5
474
330
1F
100
AcDbEntity
  8
9
  6
Continuous
 62
     7
370
    30
100
AcDbLine
 10
33133.63115722736
 20
20922.04675717654
 30
0.0
 11
33099.88115722722
 21
20922.04675717654
 31
0.0
  0
LINE
  5
475
330
1F
100
AcDbEntity
  8
9
  6
Continuous
 62
     7
370
    30
100
AcDbLine
 10
33133.63115722736
 20
20917.54675717655
 30
0.0
 11
33099.88115722736
 21
20917.54675717655
 31
0.0
  0
LINE
  5
476
330
1F
100
AcDbEntity
  8
9
  6
Continuous
 62
     7
370
    30
100
AcDbLine
 10
33133.63115722736
 20
20919.34675717655
 30
0.0
 11
33099.88115722722
 21
20919.34675717655
 31
0.0
  0
LINE
  5
477
330
1F
100
AcDbEntity
  8
9
  6
Continuous
 62
     7
370
    30
100
AcDbLine
 10
33133.63115722736
 20
20914.84675717655
 30
0.0
 11
33099.88115722736
 21
20914.84675717655
 31
0.0
  0
LINE
  5
478
330
1F
100
AcDbEntity
  8
9
  6
Continuous
 62
     7
370
    30
100
AcDbLine
 10
33133.63115722736
 20
20913.04675717655
 30
0.0
 11
33099.88115722736
 21
20913.04675717655
 31
0.0
  0
LINE
  5
479
330
1F
100
AcDbEntity
  8
9
  6
Continuous
 62
     7
370
    30
100
AcDbLine
 10
33133.63115722736
 20
20910.34675717654
 30
0.0
 11
33099.88115722736
 21
20910.34675717654
 31
0.0
  0
LINE
  5
47A
330
1F
100
AcDbEntity
  8
9
  6
Continuous
 62
     7
370
    30
100
AcDbLine
 10
33144.88115722736
 20
20917.54675717655
 30
0.0
 11
33141.1311572274
 21
20917.54675717655
 31
0.0
  0
LINE
  5
47B
330
1F
100
AcDbEntity
  8
9
  6
Continuous
 62
     7
370
    30
100
AcDbLine
 10
33144.88115722736
 20
20919.34675717655
 30
0.0
 11
33141.13115722734
 21
20919.34675717655
 31
0.0
  0
LINE
  5
47C
330
1F
100
AcDbEntity
  8
9
  6
Continuous
 62
     7
370
    30
100
AcDbLine
 10
33144.88115722736
 20
20922.04675717655
 30
0.0
 11
33141.13115722739
 21
20922.04675717655
 31
0.0
  0
LINE
  5
47D
330
1F
100
AcDbEntity
  8
9
  6
Continuous
 62
     7
370
    30
100
AcDbLine
 10
33144.88115722736
 20
20910.34675717654
 30
0.0
 11
33141.13115722735
 21
20910.34675717654
 31
0.0
  0
LINE
  5
47E
330
1F
100
AcDbEntity
  8
9
  6
Continuous
 62
     7
370
    30
100
AcDbLine
 10
33144.88115722736
 20
20913.04675717655
 30
0.0
 11
33141.13115722738
 21
20913.04675717654
 31
0.0
  0
LINE
  5
47F
330
1F
100
AcDbEntity
  8
9
  6
Continuous
 62
     7
370
    30
100
AcDbLine
 10
33144.88115722736
 20
20914.84675717655
 30
0.0
 11
33141.13115722733
 21
20914.84675717655
 31
0.0
  0
LINE
  5
480
330
1F
100
AcDbEntity
  8
9
  6
Continuous
 62
     7
370
    30
100
AcDbLine
 10
33119.38115722736
 20
20974.69675717652
 30
0.0
 11
33123.16744754965
 21
20970.91046685393
 31
0.0
  0
LINE
  5
481
330
1F
100
AcDbEntity
  8
9
  6
Continuous
 62
     7
370
    30
100
AcDbLine
 10
33123.16744754965
 20
20970.91046685393
 30
0.0
 11
33124.53037597721
 21
20927.29675717652
 31
0.0
  0
LINE
  5
482
330
1F
100
AcDbEntity
  8
9
  6
Continuous
 62
     7
370
    30
100
AcDbLine
 10
33065.38115722736
 20
20974.69675717652
 30
0.0
 11
33061.59486690505
 21
20970.91046685393
 31
0.0
  0
LINE
  5
483
330
1F
100
AcDbEntity
  8
9
  6
Continuous
 62
     7
370
    30
100
AcDbLine
 10
33061.59486690505
 20
20970.91046685393
 30
0.0
 11
33060.2319384775
 21
20927.29675717652
 31
0.0
  0
LINE
  5
484
330
1F
100
AcDbEntity
  8
9
  6
Continuous
 62
     7
370
    30
100
AcDbLine
 10
33134.83115722735
 20
20904.79675713723
 30
0.0
 11
33134.83115722735
 21
20907.79675717652
 31
0.0
  0
LINE
  5
485
330
1F
100
AcDbEntity
  8
9
  6
Continuous
 62
     7
370
    30
100
AcDbLine
 10
33136.33115722735
 20
20888.28822633316
 30
0.0
 11
33136.33115722735
 21
20907.79675717653
 31
0.0
  0
ARC
  5
486
330
1F
100
AcDbEntity
  8
9
  6
Continuous
 62
     7
370
    30
100
AcDbCircle
 10
33111.34717239325
 20
20896.18128959166
 30
0.0
 40
4.922084311763683
100
AcDbArc
 50
262.9064018570264
 51
355.5207093781008
  0
ARC
  5
487
330
1F
100
AcDbEntity
  8
9
  6
Continuous
 62
     7
370
    30
100
AcDbCircle
 10
33111.32454982316
 20
20895.38474763216
 30
0.0
 40
4.946870703415698
100
AcDbArc
 50
4.778960574510359
 51
96.79392819035758
  0
LINE
  5
488
330
1F
100
AcDbEntity
  8
9
  6
Continuous
 62
     7
370
    30
100
AcDbLine
 10
33136.33115722735
 20
20870.28822633294
 30
0.0
 11
33137.23115722735
 21
20877.61813811813
 31
0.0
  0
LINE
  5
489
330
1F
100
AcDbEntity
  8
9
  6
Continuous
 62
     7
370
    30
100
AcDbLine
 10
33137.23115722735
 20
20870.28822633294
 30
0.0
 11
33136.33115722735
 21
20870.28822633294
 31
0.0
  0
LINE
  5
48A
330
1F
100
AcDbEntity
  8
9
  6
Continuous
 62
     7
370
    30
100
AcDbLine
 10
33137.23115722735
 20
20879.28822633294
 30
0.0
 11
33136.33115722735
 21
20879.28822633294
 31
0.0
  0
LINE
  5
48B
330
1F
100
AcDbEntity
  8
9
  6
Continuous
 62
     7
370
    30
100
AcDbLine
 10
33136.33115722735
 20
20854.14707206014
 30
0.0
 11
33136.33115722736
 21
20861.28822633294
 31
0.0
  0
LINE
  5
48C
330
1F
100
AcDbEntity
  8
9
  6
Continuous
 62
     7
370
    30
100
AcDbLine
 10
33136.33115722735
 20
20861.28822633294
 30
0.0
 11
33137.23115722735
 21
20868.61813811813
 31
0.0
  0
ARC
  5
48D
330
1F
100
AcDbEntity
  8
9
  6
Continuous
 62
     7
370
    30
100
AcDbCircle
 10
33129.58115722736
 20
20850.18822633305
 30
0.0
 40
0.6000000000003638
100
AcDbArc
 50
0.0
 51
89.99999999999991
  0
LINE
  5
48E
330
1F
100
AcDbEntity
  8
9
  6
Continuous
 62
     7
370
    30
100
AcDbLine
 10
33136.33115722735
 20
20879.28822633294
 30
0.0
 11
33137.23115722735
 21
20886.61813811813
 31
0.0
  0
LINE
  5
48F
330
1F
100
AcDbEntity
  8
9
  6
Continuous
 62
     7
370
    30
100
AcDbLine
 10
33132.13115675785
 20
20841.78774657242
 30
0.0
 11
33132.13115675785
 21
20837.28774304082
 31
0.0
  0
LINE
  5
490
330
1F
100
AcDbEntity
  8
9
  6
Continuous
 62
     7
370
    30
100
AcDbLine
 10
33132.13115675785
 20
20828.28774715352
 30
0.0
 11
33132.13115675785
 21
20826.78774411362
 31
0.0
  0
ARC
  5
491
330
1F
100
AcDbEntity
  8
9
  6
Continuous
 62
     7
370
    30
100
AcDbCircle
 10
33129.58115722736
 20
20848.98822633306
 30
0.0
 40
0.6000000000003638
100
AcDbArc
 50
269.9999999999998
 51
0.0
  0
SPLINE
  5
492
330
1F
100
AcDbEntity
  8
9
  6
Continuous
 62
     7
370
    30
100
AcDbSpline
210
0.0
220
0.0
230
1.0
 70
    12
 71
     3
 72
    12
 73
     8
 74
     0
 42
0.000000001
 43
0.00001
 40
0.0
 40
0.0
 40
0.0
 40
0.0
 40
0.205840282809383
 40
0.4116490113380446
 40
0.6184457918287852
 40
0.8292559119854885
 40
1.0
 40
1.0
 40
1.0
 40
1.0
 10
33123.82959412834
 20
20832.78774509717
 30
0.0
 41
1.0
 10
33123.85964354689
 20
20832.29146570131
 30
0.0
 41
1.0
 10
33123.91973777758
 20
20831.2989829867
 30
0.0
 41
1.0
 10
33124.38092160344
 20
20829.97481642939
 30
0.0
 41
1.0
 10
33125.03903104395
 20
20828.96474484583
 30
0.0
 41
1.0
 10
33125.77976302477
 20
20828.38103844546
 30
0.0
 41
1.0
 10
33126.25892222074
 20
20828.31658833713
 30
0.0
 41
1.0
 10
33126.47334417751
 20
20828.28774715353
 30
0.0
 41
1.0
  0
ARC
  5
493
330
1F
100
AcDbEntity
  8
9
  6
Continuous
 62
     7
370
    30
100
AcDbCircle
 10
33112.47643083266
 20
20832.49991106811
 30
0.0
 40
4.226230072752514
100
AcDbArc
 50
274.6759443906892
 51
3.905242003581043
  0
ARC
  5
494
330
1F
100
AcDbEntity
  8
9
  6
Continuous
 62
     7
370
    30
100
AcDbCircle
 10
33111.35000293796
 20
20832.44715263281
 30
0.0
 40
4.162898342681729
100
AcDbArc
 50
272.3472583875813
 51
4.692967808315773
  0
SPLINE
  5
495
330
1F
100
AcDbEntity
  8
9
  6
Continuous
 62
     7
370
    30
100
AcDbSpline
210
0.0
220
0.0
230
1.0
 70
    12
 71
     3
 72
    12
 73
     8
 74
     0
 42
0.000000001
 43
0.00001
 40
0.0
 40
0.0
 40
0.0
 40
0.0
 40
0.2270414180693609
 40
0.4545205376007232
 40
0.67146492600628
 40
0.8806674473517201
 40
1.0
 40
1.0
 40
1.0
 40
1.0
 10
33126.47334417751
 20
20837.2877430408
 30
0.0
 41
1.0
 10
33126.18608463515
 20
20837.23701409096
 30
0.0
 41
1.0
 10
33125.61101175754
 20
20837.13545839352
 30
0.0
 41
1.0
 10
33124.78918846993
 20
20836.31378805338
 30
0.0
 41
1.0
 10
33124.1715857504
 20
20835.11268130455
 30
0.0
 41
1.0
 10
33123.86809653325
 20
20833.86327799763
 30
0.0
 41
1.0
 10
33123.8398529414
 20
20833.07431657238
 30
0.0
 41
1.0
 10
33123.82959412834
 20
20832.78774509717
 30
0.0
 41
1.0
  0
ARC
  5
496
330
1F
100
AcDbEntity
  8
9
  6
Continuous
 62
     7
370
    30
100
AcDbCircle
 10
33112.58983705375
 20
20833.17315626342
 30
0.0
 40
4.121072567055307
100
AcDbArc
 50
354.6337390540103
 51
86.78507455167053
  0
ARC
  5
497
330
1F
100
AcDbEntity
  8
9
  6
Continuous
 62
     7
370
    30
100
AcDbCircle
 10
33111.25061231005
 20
20833.04046634232
 30
0.0
 40
4.255842784259585
100
AcDbArc
 50
356.595648634624
 51
86.36412516946909
  0
LINE
  5
498
330
1F
100
AcDbEntity
  8
9
  6
Continuous
 62
     7
370
    30
100
AcDbLine
 10
33132.13115675785
 20
20837.28774304082
 30
0.0
 11
33126.47334417746
 21
20837.28774304082
 31
0.0
  0
ARC
  5
499
330
1F
100
AcDbEntity
  8
9
  6
Continuous
 62
     7
370
    30
100
AcDbCircle
 10
33126.13115722736
 20
20826.78774545071
 30
0.0
 40
6.0
100
AcDbArc
 50
269.9999999999998
 51
0.0
  0
LINE
  5
49A
330
1F
100
AcDbEntity
  8
9
  6
Continuous
 62
     7
370
    30
100
AcDbLine
 10
33132.13115675785
 20
20828.28774715352
 30
0.0
 11
33126.47334417746
 21
20828.28774715352
 31
0.0
  0
LINE
  5
49B
330
1F
100
AcDbEntity
  8
9
  6
Continuous
 62
     7
370
    30
100
AcDbLine
 10
33130.18115722737
 20
20850.18822633305
 30
0.0
 11
33130.18115722737
 21
20848.98822633306
 31
0.0
  0
SPLINE
  5
49C
330
1F
100
AcDbEntity
  8
9
  6
Continuous
 62
     7
370
    30
100
AcDbSpline
210
0.0
220
0.0
230
1.0
 70
    12
 71
     3
 72
    14
 73
    10
 74
     0
 42
0.000000001
 43
0.00001
 40
0.0
 40
0.0
 40
0.0
 40
0.0
 40
0.1088769686984931
 40
0.2172663573285982
 40
0.3685706574444105
 40
0.4825742753969225
 40
0.5996174274824865
 40
0.7976149977365948
 40
1.0
 40
1.0
 40
1.0
 40
1.0
 10
33074.05502560053
 20
20895.79688092017
 30
0.0
 41
1.0
 10
33074.09310547177
 20
20895.4180379615
 30
0.0
 41
1.0
 10
33074.16909468246
 20
20894.66204860386
 30
0.0
 41
1.0
 10
33074.79099104633
 20
20893.55238914539
 30
0.0
 41
1.0
 10
33075.69347757554
 20
20892.70625519324
 30
0.0
 41
1.0
 10
33076.77930669575
 20
20892.10734001382
 30
0.0
 41
1.0
 10
33078.08861148467
 20
20891.64340033875
 30
0.0
 41
1.0
 10
33079.75635734326
 20
20891.34322249832
 30
0.0
 41
1.0
 10
33081.08711899922
 20
20891.31244006015
 30
0.0
 41
1.0
 10
33081.75979113642
 20
20891.29688018257
 30
0.0
 41
1.0
  0
SPLINE
  5
49D
330
1F
100
AcDbEntity
  8
9
  6
Continuous
 62
     7
370
    30
100
AcDbSpline
210
0.0
220
0.0
230
1.0
 70
    12
 71
     3
 72
    14
 73
    10
 74
     0
 42
0.000000001
 43
0.00001
 40
0.0
 40
0.0
 40
0.0
 40
0.0
 40
0.2170493941225676
 40
0.4388311995732112
 40
0.5988137766302898
 40
0.7597871991591737
 40
0.8750649674182215
 40
0.9755548291618868
 40
1.0
 40
1.0
 40
1.0
 40
1.0
 10
33081.75979113642
 20
20900.29688165778
 30
0.0
 41
1.0
 10
33081.03870366737
 20
20900.27898500306
 30
0.0
 41
1.0
 10
33079.58080658215
 20
20900.24280148599
 30
0.0
 41
1.0
 10
33077.65891182057
 20
20899.85523301466
 30
0.0
 41
1.0
 10
33076.04810742449
 20
20899.14746384205
 30
0.0
 41
1.0
 10
33074.93268469399
 20
20898.22928291613
 30
0.0
 41
1.0
 10
33074.26733606246
 20
20897.1346422063
 30
0.0
 41
1.0
 10
33074.06717799654
 20
20896.31389243412
 30
0.0
 41
1.0
 10
33074.05701426696
 20
20895.88148674139
 30
0.0
 41
1.0
 10
33074.05502560053
 20
20895.79688092017
 30
0.0
 41
1.0
  0
LINE
  5
49E
330
1F
100
AcDbEntity
  8
9
  6
Continuous
 62
     7
370
    30
100
AcDbLine
 10
33049.93115722735
 20
20904.79675713723
 30
0.0
 11
33049.93115722735
 21
20907.79675717652
 31
0.0
  0
LINE
  5
49F
330
1F
100
AcDbEntity
  8
9
  6
Continuous
 62
     7
370
    30
100
AcDbLine
 10
33048.43115722735
 20
20888.28822633316
 30
0.0
 11
33048.43115722735
 21
20907.79675717653
 31
0.0
  0
LINE
  5
4A0
330
1F
100
AcDbEntity
  8
9
  6
Continuous
 62
     7
370
    30
100
AcDbLine
 10
33048.43115722734
 20
20870.28822633294
 30
0.0
 11
33047.53115722735
 21
20877.61813811813
 31
0.0
  0
LINE
  5
4A1
330
1F
100
AcDbEntity
  8
9
  6
Continuous
 62
     7
370
    30
100
AcDbLine
 10
33047.53115722735
 20
20870.28822633294
 30
0.0
 11
33048.43115722734
 21
20870.28822633294
 31
0.0
  0
LINE
  5
4A2
330
1F
100
AcDbEntity
  8
9
  6
Continuous
 62
     7
370
    30
100
AcDbLine
 10
33047.53115722735
 20
20879.28822633294
 30
0.0
 11
33048.43115722734
 21
20879.28822633294
 31
0.0
  0
LINE
  5
4A3
330
1F
100
AcDbEntity
  8
9
  6
Continuous
 62
     7
370
    30
100
AcDbLine
 10
33048.43115722734
 20
20854.14707206014
 30
0.0
 11
33048.43115722734
 21
20861.28822633294
 31
0.0
  0
ARC
  5
4A4
330
1F
100
AcDbEntity
  8
9
  6
Continuous
 62
     7
370
    30
100
AcDbCircle
 10
33055.18115722734
 20
20850.18822633305
 30
0.0
 40
0.6000000000003638
100
AcDbArc
 50
89.99999999999991
 51
179.9999999999998
  0
LINE
  5
4A5
330
1F
100
AcDbEntity
  8
9
  6
Continuous
 62
     7
370
    30
100
AcDbLine
 10
33048.43115722734
 20
20861.28822633294
 30
0.0
 11
33047.53115722735
 21
20868.61813811813
 31
0.0
  0
LINE
  5
4A6
330
1F
100
AcDbEntity
  8
9
  6
Continuous
 62
     7
370
    30
100
AcDbLine
 10
33048.43115722734
 20
20879.28822633294
 30
0.0
 11
33047.53115722735
 21
20886.61813811813
 31
0.0
  0
ARC
  5
4A7
330
1F
100
AcDbEntity
  8
9
  6
Continuous
 62
     7
370
    30
100
AcDbCircle
 10
33073.41514206145
 20
20896.18128959166
 30
0.0
 40
4.922084311763683
100
AcDbArc
 50
184.4792906218985
 51
277.0935981429728
  0
ARC
  5
4A8
330
1F
100
AcDbEntity
  8
9
  6
Continuous
 62
     7
370
    30
100
AcDbCircle
 10
33073.43776463156
 20
20895.38474763216
 30
0.0
 40
4.946870703415698
100
AcDbArc
 50
83.20607180972613
 51
175.2210394254896
  0
LINE
  5
4A9
330
1F
100
AcDbEntity
  8
9
  6
Continuous
 62
     7
370
    30
100
AcDbLine
 10
33109.03115688325
 20
20848.38822633306
 30
0.0
 11
33109.03115688325
 21
20841.78774657242
 31
0.0
  0
LINE
  5
4AA
330
1F
100
AcDbEntity
  8
9
  6
Continuous
 62
     7
370
    30
100
AcDbLine
 10
33107.68115777936
 20
20828.58774105601
 30
0.0
 11
33107.68115777936
 21
20828.28774715352
 31
0.0
  0
ARC
  5
4AB
330
1F
100
AcDbEntity
  8
9
  6
Continuous
 62
     7
370
    30
100
AcDbCircle
 10
33105.58115722735
 20
20828.58774545072
 30
0.0
 40
2.100000000000364
100
AcDbArc
 50
0.0
 51
89.99999999999991
  0
LINE
  5
4AC
330
1F
100
AcDbEntity
  8
9
  6
Continuous
 62
     7
370
    30
100
AcDbLine
 10
33102.95616759695
 20
20818.68823180842
 30
0.0
 11
33099.88115705964
 21
20818.68823061191
 31
0.0
  0
LINE
  5
4AD
330
1F
100
AcDbEntity
  8
9
  6
Continuous
 62
     7
370
    30
100
AcDbLine
 10
33104.53115754265
 20
20837.28774304082
 30
0.0
 11
33104.53115754265
 21
20833.08822619995
 31
0.0
  0
LINE
  5
4AE
330
1F
100
AcDbEntity
  8
9
  6
Continuous
 62
     7
370
    30
100
AcDbLine
 10
33075.73115757171
 20
20848.38822633317
 30
0.0
 11
33075.73115757167
 21
20841.78774657253
 31
0.0
  0
LINE
  5
4AF
330
1F
100
AcDbEntity
  8
9
  6
Continuous
 62
     7
370
    30
100
AcDbLine
 10
33081.80614685782
 20
20818.6882318085
 30
0.0
 11
33084.88115739513
 21
20818.68823061196
 31
0.0
  0
ARC
  5
4B0
330
1F
100
AcDbEntity
  8
9
  6
Continuous
 62
     7
370
    30
100
AcDbCircle
 10
33074.6296853649
 20
20831.58822620007
 30
0.0
 40
0.8999999999996362
100
AcDbArc
 50
225.0000000001634
 51
269.9999999999998
  0
ARC
  5
4B1
330
1F
100
AcDbEntity
  8
9
  6
Continuous
 62
     7
370
    30
100
AcDbCircle
 10
33073.41231151691
 20
20832.44715263294
 30
0.0
 40
4.162898342681729
100
AcDbArc
 50
175.307032191285
 51
267.6527416120198
  0
LINE
  5
4B2
330
1F
100
AcDbEntity
  8
9
  6
Continuous
 62
     7
370
    30
100
AcDbLine
 10
33077.08115667548
 20
20828.58774105612
 30
0.0
 11
33077.08115667548
 21
20828.28774715362
 31
0.0
  0
ARC
  5
4B3
330
1F
100
AcDbEntity
  8
9
  6
Continuous
 62
     7
370
    30
100
AcDbCircle
 10
33079.18115722747
 20
20828.58774545081
 30
0.0
 40
2.100000000000364
100
AcDbArc
 50
89.99999999960298
 51
179.9999999996029
  0
ARC
  5
4B4
330
1F
100
AcDbEntity
  8
9
  6
Continuous
 62
     7
370
    30
100
AcDbCircle
 10
33073.51170214481
 20
20833.04046634244
 30
0.0
 40
4.255842784259585
100
AcDbArc
 50
93.63587483023143
 51
183.4043513649353
  0
LINE
  5
4B5
330
1F
100
AcDbEntity
  8
9
  6
Continuous
 62
     7
370
    30
100
AcDbLine
 10
33080.23115691224
 20
20837.2877430409
 30
0.0
 11
33080.23115691221
 21
20833.08822620003
 31
0.0
  0
LINE
  5
4B6
330
1F
100
AcDbEntity
  8
9
  6
Continuous
 62
     7
370
    30
100
AcDbLine
 10
33052.63115769706
 20
20841.78774657268
 30
0.0
 11
33052.63115769703
 21
20837.28774304108
 31
0.0
  0
ARC
  5
4B7
330
1F
100
AcDbEntity
  8
9
  6
Continuous
 62
     7
370
    30
100
AcDbCircle
 10
33055.18115722734
 20
20848.98822633306
 30
0.0
 40
0.6000000000003638
100
AcDbArc
 50
179.9999999999998
 51
269.9999999999998
  0
LINE
  5
4B8
330
1F
100
AcDbEntity
  8
9
  6
Continuous
 62
     7
370
    30
100
AcDbLine
 10
33052.63115769703
 20
20837.28774304108
 30
0.0
 11
33058.28897027743
 21
20837.28774304104
 31
0.0
  0
SPLINE
  5
4B9
330
1F
100
AcDbEntity
  8
9
  6
Continuous
 62
     7
370
    30
100
AcDbSpline
210
0.0
220
0.0
230
1.0
 70
    12
 71
     3
 72
    12
 73
     8
 74
     0
 42
0.000000001
 43
0.00001
 40
0.0
 40
0.0
 40
0.0
 40
0.0
 40
0.205840282809383
 40
0.4116490113380446
 40
0.6184457918287852
 40
0.8292559119854885
 40
1.0
 40
1.0
 40
1.0
 40
1.0
 10
33060.93272032653
 20
20832.78774509738
 30
0.0
 41
1.0
 10
33060.90267090796
 20
20832.29146570151
 30
0.0
 41
1.0
 10
33060.84257667727
 20
20831.29898298691
 30
0.0
 41
1.0
 10
33060.38139285141
 20
20829.97481642961
 30
0.0
 41
1.0
 10
33059.72328341089
 20
20828.96474484605
 30
0.0
 41
1.0
 10
33058.98255143006
 20
20828.38103844568
 30
0.0
 41
1.0
 10
33058.50339223409
 20
20828.31658833735
 30
0.0
 41
1.0
 10
33058.28897027732
 20
20828.28774715376
 30
0.0
 41
1.0
  0
ARC
  5
4BA
330
1F
100
AcDbEntity
  8
9
  6
Continuous
 62
     7
370
    30
100
AcDbCircle
 10
33058.63115722746
 20
20826.78774545094
 30
0.0
 40
6.0
100
AcDbArc
 50
179.9999999995831
 51
269.9999999995828
  0
LINE
  5
4BB
330
1F
100
AcDbEntity
  8
9
  6
Continuous
 62
     7
370
    30
100
AcDbLine
 10
33052.63115769697
 20
20828.28774715378
 30
0.0
 11
33058.28897027738
 21
20828.28774715375
 31
0.0
  0
SPLINE
  5
4BC
330
1F
100
AcDbEntity
  8
9
  6
Continuous
 62
     7
370
    30
100
AcDbSpline
210
0.0
220
0.0
230
1.0
 70
    12
 71
     3
 72
    12
 73
     8
 74
     0
 42
0.000000001
 43
0.00001
 40
0.0
 40
0.0
 40
0.0
 40
0.0
 40
0.2270414180693609
 40
0.4545205376007232
 40
0.67146492600628
 40
0.8806674473517201
 40
1.0
 40
1.0
 40
1.0
 40
1.0
 10
33058.28897027738
 20
20837.28774304104
 30
0.0
 41
1.0
 10
33058.57622981974
 20
20837.23701409118
 30
0.0
 41
1.0
 10
33059.15130269736
 20
20837.13545839375
 30
0.0
 41
1.0
 10
33059.97312598495
 20
20836.3137880536
 30
0.0
 41
1.0
 10
33060.59072870448
 20
20835.11268130476
 30
0.0
 41
1.0
 10
33060.89421792162
 20
20833.86327799784
 30
0.0
 41
1.0
 10
33060.92246151346
 20
20833.07431657259
 30
0.0
 41
1.0
 10
33060.93272032653
 20
20832.78774509738
 30
0.0
 41
1.0
  0
ARC
  5
4BD
330
1F
100
AcDbEntity
  8
9
  6
Continuous
 62
     7
370
    30
100
AcDbCircle
 10
33072.17247740111
 20
20833.17315626355
 30
0.0
 40
4.121072567055307
100
AcDbArc
 50
93.21492544812746
 51
185.3662609455767
  0
ARC
  5
4BE
330
1F
100
AcDbEntity
  8
9
  6
Continuous
 62
     7
370
    30
100
AcDbCircle
 10
33072.28588362221
 20
20832.49991106825
 30
0.0
 40
4.226230072752514
100
AcDbArc
 50
176.0947579959761
 51
265.3240556089088
  0
LINE
  5
4BF
330
1F
100
AcDbEntity
  8
9
  6
Continuous
 62
     7
370
    30
100
AcDbLine
 10
33054.58115722735
 20
20850.18822633305
 30
0.0
 11
33054.58115722735
 21
20848.98822633306
 31
0.0
  0
ARC
  5
4C0
330
1F
100
AcDbEntity
  8
9
  6
Continuous
 62
     7
370
    30
100
AcDbCircle
 10
33110.13262908995
 20
20831.58822619995
 30
0.0
 40
0.8999999999996362
100
AcDbArc
 50
269.9999999999998
 51
314.9999999996721
  0
SPLINE
  5
4C1
330
1F
100
AcDbEntity
  8
9
  6
Continuous
 62
     7
370
    30
100
AcDbSpline
210
0.0
220
0.0
230
1.0
 70
    12
 71
     3
 72
    14
 73
    10
 74
     0
 42
0.000000001
 43
0.00001
 40
0.0
 40
0.0
 40
0.0
 40
0.0
 40
0.2170493941225676
 40
0.4388311995732112
 40
0.5988137766302898
 40
0.7597871991591737
 40
0.8750649674182215
 40
0.9755548291618868
 40
1.0
 40
1.0
 40
1.0
 40
1.0
 10
33103.00252331829
 20
20900.29688165778
 30
0.0
 41
1.0
 10
33103.72361078733
 20
20900.27898500306
 30
0.0
 41
1.0
 10
33105.18150787256
 20
20900.24280148599
 30
0.0
 41
1.0
 10
33107.10340263414
 20
20899.85523301466
 30
0.0
 41
1.0
 10
33108.71420703021
 20
20899.14746384205
 30
0.0
 41
1.0
 10
33109.82962976072
 20
20898.22928291613
 30
0.0
 41
1.0
 10
33110.49497839225
 20
20897.1346422063
 30
0.0
 41
1.0
 10
33110.69513645817
 20
20896.31389243412
 30
0.0
 41
1.0
 10
33110.70530018774
 20
20895.88148674139
 30
0.0
 41
1.0
 10
33110.70728885418
 20
20895.79688092017
 30
0.0
 41
1.0
  0
SPLINE
  5
4C2
330
1F
100
AcDbEntity
  8
9
  6
Continuous
 62
     7
370
    30
100
AcDbSpline
210
0.0
220
0.0
230
1.0
 70
    12
 71
     3
 72
    14
 73
    10
 74
     0
 42
0.000000001
 43
0.00001
 40
0.0
 40
0.0
 40
0.0
 40
0.0
 40
0.1088769686984931
 40
0.2172663573285982
 40
0.3685706574444105
 40
0.4825742753969225
 40
0.5996174274824865
 40
0.7976149977365948
 40
1.0
 40
1.0
 40
1.0
 40
1.0
 10
33110.70728885418
 20
20895.79688092017
 30
0.0
 41
1.0
 10
33110.66920898293
 20
20895.4180379615
 30
0.0
 41
1.0
 10
33110.59321977224
 20
20894.66204860386
 30
0.0
 41
1.0
 10
33109.97132340837
 20
20893.55238914539
 30
0.0
 41
1.0
 10
33109.06883687917
 20
20892.70625519324
 30
0.0
 41
1.0
 10
33107.98300775896
 20
20892.10734001382
 30
0.0
 41
1.0
 10
33106.67370297004
 20
20891.64340033875
 30
0.0
 41
1.0
 10
33105.00595711145
 20
20891.34322249832
 30
0.0
 41
1.0
 10
33103.67519545549
 20
20891.31244006015
 30
0.0
 41
1.0
 10
33103.00252331829
 20
20891.29688018257
 30
0.0
 41
1.0
  0
LINE
  5
4C3
330
1F
100
AcDbEntity
  8
9
  6
Continuous
 62
     7
370
    30
100
AcDbLine
 10
33060.92108385936
 20
20833.08822620017
 30
0.0
 11
33056.3811572275
 21
20833.0882262002
 31
0.0
  0
LINE
  5
4C4
330
1F
100
AcDbEntity
  8
9
  6
Continuous
 62
     7
370
    30
100
AcDbLine
 10
33060.9327031038
 20
20832.78822620017
 30
0.0
 11
33056.3811572275
 21
20832.78822620021
 31
0.0
  0
ARC
  5
4C5
330
1F
100
AcDbEntity
  8
9
  6
Continuous
 62
     7
370
    30
100
AcDbCircle
 10
33071.90836502136
 20
20832.18822620007
 30
0.0
 40
0.6000000000003638
100
AcDbArc
 50
44.9999999995087
 51
89.99999999999991
  0
LINE
  5
4C6
330
1F
100
AcDbEntity
  8
9
  6
Continuous
 62
     7
370
    30
100
AcDbLine
 10
33072.33262909007
 20
20832.61249026877
 30
0.0
 11
33073.99328926183
 21
20830.951830097
 31
0.0
  0
LINE
  5
4C7
330
1F
100
AcDbEntity
  8
9
  6
Continuous
 62
     7
370
    30
100
AcDbLine
 10
33071.90836502136
 20
20832.7882262001
 30
0.0
 11
33069.2633409649
 21
20832.78822620011
 31
0.0
  0
LINE
  5
4C8
330
1F
100
AcDbEntity
  8
9
  6
Continuous
 62
     7
370
    30
100
AcDbLine
 10
33056.3811572275
 20
20833.08822620021
 30
0.0
 11
33056.3811572275
 21
20832.78822620021
 31
0.0
  0
LINE
  5
4C9
330
1F
100
AcDbEntity
  8
9
  6
Continuous
 62
     7
370
    30
100
AcDbLine
 10
33079.70663553603
 20
20820.7877431303
 30
0.0
 11
33081.80614805433
 21
20818.68823061198
 31
0.0
  0
ARC
  5
4CA
330
1F
100
AcDbEntity
  8
9
  6
Continuous
 62
     7
370
    30
100
AcDbCircle
 10
33055.93115722735
 20
20928.79675717652
 30
0.0
 40
3.0
100
AcDbArc
 50
269.9999999999998
 51
330.0000000000067
  0
LINE
  5
4CB
330
1F
100
AcDbEntity
  8
9
  6
Continuous
 62
     7
370
    30
100
AcDbLine
 10
33123.8412305955
 20
20833.08822619996
 30
0.0
 11
33128.38115722736
 21
20833.08822619996
 31
0.0
  0
LINE
  5
4CC
330
1F
100
AcDbEntity
  8
9
  6
Continuous
 62
     7
370
    30
100
AcDbLine
 10
33123.82961135107
 20
20832.78822619997
 30
0.0
 11
33128.38115722736
 21
20832.78822619997
 31
0.0
  0
ARC
  5
4CD
330
1F
100
AcDbEntity
  8
9
  6
Continuous
 62
     7
370
    30
100
AcDbCircle
 10
33112.8539494335
 20
20832.18822619993
 30
0.0
 40
0.6000000000003638
100
AcDbArc
 50
89.99999999999991
 51
135.0
  0
LINE
  5
4CE
330
1F
100
AcDbEntity
  8
9
  6
Continuous
 62
     7
370
    30
100
AcDbLine
 10
33112.42968536478
 20
20832.61249026864
 30
0.0
 11
33110.76902519302
 21
20830.95183009688
 31
0.0
  0
LINE
  5
4CF
330
1F
100
AcDbEntity
  8
9
  6
Continuous
 62
     7
370
    30
100
AcDbLine
 10
33112.8539494335
 20
20832.78822619997
 30
0.0
 11
33115.49897348996
 21
20832.78822619995
 31
0.0
  0
LINE
  5
4D0
330
1F
100
AcDbEntity
  8
9
  6
Continuous
 62
     7
370
    30
100
AcDbLine
 10
33128.38115722736
 20
20833.08822619997
 30
0.0
 11
33128.38115722736
 21
20832.78822619997
 31
0.0
  0
LINE
  5
4D1
330
1F
100
AcDbEntity
  8
9
  6
Continuous
 62
     7
370
    30
100
AcDbLine
 10
33105.05567891875
 20
20820.78774313021
 30
0.0
 11
33102.95616640044
 21
20818.68823061191
 31
0.0
  0
ARC
  5
4D2
330
1F
100
AcDbEntity
  8
9
  6
Continuous
 62
     7
370
    30
100
AcDbCircle
 10
33128.83115722735
 20
20928.79675717652
 30
0.0
 40
3.0
100
AcDbArc
 50
210.000000000062
 51
269.9999999999998
  0
LINE
  5
4D3
330
1F
100
AcDbEntity
  8
9
  6
Continuous
 62
     7
370
    30
100
AcDbLine
 10
33047.53115722734
 20
20877.61813811819
 30
0.0
 11
33137.23115722735
 21
20886.61813811817
 31
0.0
  0
LINE
  5
4D4
330
1F
100
AcDbEntity
  8
9
  6
Continuous
 62
     7
370
    30
100
AcDbLine
 10
33048.42020458955
 20
20879.37742840948
 30
0.0
 11
33137.23115722735
 21
20888.288226333
 31
0.0
  0
LINE
  5
4D5
330
1F
100
AcDbEntity
  8
9
  6
Continuous
 62
     7
370
    30
100
AcDbLine
 10
33047.53115722735
 20
20868.61813811817
 30
0.0
 11
33137.23115722735
 21
20877.61813811817
 31
0.0
  0
LINE
  5
4D6
330
1F
100
AcDbEntity
  8
9
  6
Continuous
 62
     7
370
    30
100
AcDbLine
 10
33048.42020458955
 20
20870.37742840948
 30
0.0
 11
33137.23115722735
 21
20879.288226333
 31
0.0
  0
LINE
  5
4D7
330
1F
100
AcDbEntity
  8
9
  6
Continuous
 62
     7
370
    30
100
AcDbLine
 10
33064.17636976791
 20
20861.28822633294
 30
0.0
 11
33137.23115722735
 21
20868.61813811817
 31
0.0
  0
LINE
  5
4D8
330
1F
100
AcDbEntity
  8
9
  6
Continuous
 62
     7
370
    30
100
AcDbLine
 10
33048.42009494751
 20
20861.3783213722
 30
0.0
 11
33136.33115722735
 21
20870.288226333
 31
0.0
  0
LINE
  5
4D9
330
1F
100
AcDbEntity
  8
9
  6
Continuous
 62
     7
370
    30
100
AcDbLine
 10
33137.23115722736
 20
20879.28822633294
 30
0.0
 11
33137.23115722735
 21
20877.61813811813
 31
0.0
  0
LINE
  5
4DA
330
1F
100
AcDbEntity
  8
9
  6
Continuous
 62
     7
370
    30
100
AcDbLine
 10
33137.23115722735
 20
20870.28822633294
 30
0.0
 11
33137.23115722735
 21
20868.61813811813
 31
0.0
  0
LINE
  5
4DB
330
1F
100
AcDbEntity
  8
9
  6
Continuous
 62
     7
370
    30
100
AcDbLine
 10
33134.83115722735
 20
20904.79675713722
 30
0.0
 11
33136.33115722735
 21
20902.1986809259
 31
0.0
  0
LINE
  5
4DC
330
1F
100
AcDbEntity
  8
9
  6
Continuous
 62
     7
370
    30
100
AcDbLine
 10
33135.43115722735
 20
20850.78822633332
 30
0.0
 11
33136.33115722735
 21
20854.14707206013
 31
0.0
  0
LINE
  5
4DD
330
1F
100
AcDbEntity
  8
9
  6
Continuous
 62
     7
370
    30
100
AcDbLine
 10
33137.23115722748
 20
20888.28822633317
 30
0.0
 11
33137.23115722749
 21
20886.61813811836
 31
0.0
  0
LINE
  5
4DE
330
1F
100
AcDbEntity
  8
9
  6
Continuous
 62
     7
370
    30
100
AcDbLine
 10
33049.93115722735
 20
20904.79675713722
 30
0.0
 11
33048.43115722735
 21
20902.1986809259
 31
0.0
  0
LINE
  5
4DF
330
1F
100
AcDbEntity
  8
9
  6
Continuous
 62
     7
370
    30
100
AcDbLine
 10
33047.53115722735
 20
20870.28822633294
 30
0.0
 11
33047.53115722735
 21
20868.61813811813
 31
0.0
  0
LINE
  5
4E0
330
1F
100
AcDbEntity
  8
9
  6
Continuous
 62
     7
370
    30
100
AcDbLine
 10
33047.53115722735
 20
20879.28822633294
 30
0.0
 11
33047.53115722735
 21
20877.61813811813
 31
0.0
  0
LINE
  5
4E1
330
1F
100
AcDbEntity
  8
9
  6
Continuous
 62
     7
370
    30
100
AcDbLine
 10
33047.53115722722
 20
20888.28822633317
 30
0.0
 11
33047.53115722721
 21
20886.61813811836
 31
0.0
  0
LINE
  5
4E2
330
1F
100
AcDbEntity
  8
9
  6
Continuous
 62
     7
370
    30
100
AcDbLine
 10
33049.33115722735
 20
20850.78822633332
 30
0.0
 11
33048.43115722735
 21
20854.14707206013
 31
0.0
  0
LINE
  5
4E3
330
1F
100
AcDbEntity
  8
9
  6
Continuous
 62
     7
370
    30
100
AcDbLine
 10
33052.63115861534
 20
20828.28774715352
 30
0.0
 11
33052.63115861534
 21
20826.78774411362
 31
0.0
  0
LINE
  5
4E4
330
1F
100
AcDbEntity
  8
8
  6
Continuous
 62
     4
370
     9
100
AcDbLine
 10
33063.88712987336
 20
20932.69675717653
 30
0.0
 11
33060.28774359112
 21
20929.0973708943
 31
0.0
  0
LINE
  5
4E5
330
1F
100
AcDbEntity
  8
8
  6
Continuous
 62
     4
370
     9
100
AcDbLine
 10
33120.87518458135
 20
20932.69675717653
 30
0.0
 11
33124.47457086358
 21
20929.09737089429
 31
0.0
  0
LINE
  5
4E6
330
1F
100
AcDbEntity
  8
8
  6
Continuous
 62
     4
370
     9
100
AcDbLine
 10
33063.88712987336
 20
20932.69675717653
 30
0.0
 11
33065.1938415575
 21
20974.50944149965
 31
0.0
  0
LINE
  5
4E7
330
1F
100
AcDbEntity
  8
8
  6
Continuous
 62
     4
370
     9
100
AcDbLine
 10
33120.87518458134
 20
20932.69675717653
 30
0.0
 11
33119.5684728972
 21
20974.50944149964
 31
0.0
  0
LINE
  5
4E8
330
1F
100
AcDbEntity
  8
9
  6
Continuous
 62
     7
370
    30
100
AcDbLine
 10
33139.6850048046
 20
20925.79675717653
 30
0.0
 11
33045.0773096501
 21
20925.79675717653
 31
0.0
  0
LINE
  5
4E9
330
1F
100
AcDbEntity
  8
9
  6
Continuous
 62
     7
370
    30
100
AcDbLine
 10
33099.88115722736
 20
20925.39483338789
 30
0.0
 11
33084.88115722736
 21
20925.39483338789
 31
0.0
  0
LINE
  5
4EA
330
1F
100
AcDbEntity
  8
9
  6
Continuous
 62
     7
370
    30
100
AcDbLine
 10
33041.38115722736
 20
20907.79675717653
 30
0.0
 11
33143.38115722736
 21
20907.79675717653
 31
0.0
  0
LINE
  5
4EB
330
1F
100
AcDbEntity
  8
9
  6
Continuous
 62
     7
370
    30
100
AcDbLine
 10
33061.59486690505
 20
20970.91046685393
 30
0.0
 11
33123.16744754965
 21
20970.91046685393
 31
0.0
  0
LINE
  5
4EC
330
1F
100
AcDbEntity
  8
9
  6
Continuous
 62
     7
370
    30
100
AcDbLine
 10
33058.5292334387
 20
20927.29675717652
 30
0.0
 11
33126.233081016
 21
20927.29675717652
 31
0.0
  0
LINE
  5
4ED
330
1F
100
AcDbEntity
  8
9
  6
Continuous
 62
     7
370
    30
100
AcDbLine
 10
33065.38115722736
 20
20974.69675717652
 30
0.0
 11
33119.38115722736
 21
20974.69675717652
 31
0.0
  0
LINE
  5
4EE
330
1F
100
AcDbEntity
  8
9
  6
Continuous
 62
     7
370
    30
100
AcDbLine
 10
33136.33115722735
 20
20904.79675713722
 30
0.0
 11
33048.43115722735
 21
20904.79675713722
 31
0.0
  0
LINE
  5
4EF
330
1F
100
AcDbEntity
  8
9
  6
Continuous
 62
     7
370
    30
100
AcDbLine
 10
33074.02297320295
 20
20891.29688018257
 30
0.0
 11
33110.73934125176
 21
20891.29688018257
 31
0.0
  0
LINE
  5
4F0
330
1F
100
AcDbEntity
  8
9
  6
Continuous
 62
     7
370
    30
100
AcDbLine
 10
33074.02297320295
 20
20900.29688165766
 30
0.0
 11
33110.73934125176
 21
20900.29688165766
 31
0.0
  0
LINE
  5
4F1
330
1F
100
AcDbEntity
  8
9
  6
Continuous
 62
     7
370
    30
100
AcDbLine
 10
33047.53115722722
 20
20888.28822633317
 30
0.0
 11
33137.23115722749
 21
20888.28822633317
 31
0.0
  0
LINE
  5
4F2
330
1F
100
AcDbEntity
  8
9
  6
Continuous
 62
     7
370
    30
100
AcDbLine
 10
33049.33115722735
 20
20850.78822633332
 30
0.0
 11
33135.43115722735
 21
20850.78822633332
 31
0.0
  0
LINE
  5
4F3
330
1F
100
AcDbEntity
  8
9
  6
Continuous
 62
     7
370
    30
100
AcDbLine
 10
33099.88115705964
 20
20818.68823061191
 30
0.0
 11
33084.88115739513
 21
20818.68823061196
 31
0.0
  0
LINE
  5
4F4
330
1F
100
AcDbEntity
  8
9
  6
Continuous
 62
     7
370
    30
100
AcDbLine
 10
33074.6296853649
 20
20830.68822620007
 30
0.0
 11
33110.13262908995
 21
20830.68822619995
 31
0.0
  0
LINE
  5
4F5
330
1F
100
AcDbEntity
  8
9
  6
Continuous
 62
     7
370
    30
100
AcDbLine
 10
33071.94136107787
 20
20828.28774715365
 30
0.0
 11
33112.82095337696
 21
20828.28774715352
 31
0.0
  0
LINE
  5
4F6
330
1F
100
AcDbEntity
  8
9
  6
Continuous
 62
     7
370
    30
100
AcDbLine
 10
33071.94136107793
 20
20837.28774304095
 30
0.0
 11
33112.82095337696
 21
20837.28774304082
 31
0.0
  0
LINE
  5
4F7
330
1F
100
AcDbEntity
  8
9
  6
Continuous
 62
     7
370
    30
100
AcDbLine
 10
33052.63115769706
 20
20841.78774657268
 30
0.0
 11
33132.13115675785
 21
20841.78774657242
 31
0.0
  0
LINE
  5
4F8
330
1F
100
AcDbEntity
  8
9
  6
Continuous
 62
     7
370
    30
100
AcDbLine
 10
33058.63115588643
 20
20820.78774313044
 30
0.0
 11
33126.13115856835
 21
20820.78774313021
 31
0.0
  0
LINE
  5
4F9
330
1F
100
AcDbEntity
  8
9
  6
Continuous
 62
     7
370
    30
100
AcDbLine
 10
33129.58115722736
 20
20848.38822633306
 30
0.0
 11
33055.18115722734
 21
20848.38822633306
 31
0.0
  0
LINE
  5
4FA
330
1F
100
AcDbEntity
  8
9
  6
Continuous
 62
     7
370
    30
100
AcDbLine
 10
33048.43115722734
 20
20861.28822633294
 30
0.0
 11
33136.33115722736
 21
20861.28822633294
 31
0.0
  0
LINE
  5
4FB
330
1F
100
AcDbEntity
  8
9
  6
Continuous
 62
     7
370
    30
100
AcDbLine
 10
33136.33115722735
 20
20854.14707206013
 30
0.0
 11
33048.43115722735
 21
20854.14707206013
 31
0.0
  0
LINE
  5
4FC
330
1F
100
AcDbEntity
  8
9
  6
Continuous
 62
     7
370
    30
100
AcDbLine
 10
33115.50618710088
 20
20833.08822619996
 30
0.0
 11
33069.25612735398
 21
20833.08822620011
 31
0.0
  0
LINE
  5
4FD
330
1F
100
AcDbEntity
  8
9
  6
Continuous
 62
     7
370
    30
100
AcDbLine
 10
33124.36162597719
 20
20932.69675717653
 30
0.0
 11
33060.40054039891
 21
20932.69675717653
 31
0.0
  0
LINE
  5
4FE
330
1F
100
AcDbEntity
  8
9
  6
Continuous
 62
     7
370
    30
100
AcDbLine
 10
32970.36471283597
 20
20868.19675717653
 30
0.0
 11
33047.58289630123
 21
20868.19675717653
 31
0.0
  0
LINE
  5
4FF
330
1F
100
AcDbEntity
  8
9
  6
Continuous
 62
     7
370
    30
100
AcDbLine
 10
33137.17941815346
 20
20868.19675717653
 30
0.0
 11
33203.15114923849
 21
20868.19675717653
 31
0.0
  0
VIEWPORT
  5
6A
330
1B
100
AcDbEntity
 67
     1
  8
0
100
AcDbViewport
 10
21000.0
 20
14850.0
 30
0.0
 40
42000.0
 41
29700.0
 68
     1
 69
     1
 12
21000.0
 22
14850.0
 13
0.0
 23
0.0
 14
0.5
 24
0.5
 15
0.5
 25
0.5
 16
0.0
 26
0.0
 36
1.0
 17
0.0
 27
0.0
 37
0.0
 42
50.0
 43
0.0
 44
0.0
 45
9.0
 50
0.0
 51
0.0
 72
   100
 90
   557152
  1

281
     0
 71
     1
 74
     0
110
0.0
120
0.0
130
0.0
111
1.0
121
0.0
131
0.0
112
0.0
122
1.0
132
0.0
 79
     0
146
0.0
170
     0
 61
     5
292
     1
282
     1
141
0.0
142
0.0
 63
   256
  0
ENDSEC
  0
SECTION
  2
OBJECTS
  0
DICTIONARY
  5
C
330
0
100
AcDbDictionary
281
     1
  3
ACAD_DETAILVIEWSTYLE
350
504
  3
ACAD_GROUP
350
D
  3
ACAD_LAYOUT
350
1A
  3
ACAD_MATERIAL
350
43
  3
ACAD_MLEADERSTYLE
350
503
  3
ACAD_MLINESTYLE
350
17
  3
ACAD_PLOTSETTINGS
350
19
  3
ACAD_PLOTSTYLENAME
350
E
  3
ACAD_SCALELIST
350
47
  3
ACAD_SECTIONVIEWSTYLE
350
505
  3
ACAD_TABLESTYLE
350
502
  3
ACAD_VISUALSTYLE
350
2A
  3
AcDbVariableDictionary
350
500
  0
SUN
  5
69
330
29
100
AcDbSun
 90
        1
290
     0
 63
     7
421
 16777215
 40
1.0
291
     1
 91
  2455826
 92
 54000000
292
     0
 70
     2
 71
   256
280
     1
  0
DICTIONARY
  5
504
102
{ACAD_REACTORS
330
C
102
}
330
C
100
AcDbDictionary
281
     1
  0
DICTIONARY
  5
D
102
{ACAD_REACTORS
330
C
102
}
330
C
100
AcDbDictionary
281
     1
  0
DICTIONARY
  5
1A
102
{ACAD_REACTORS
330
C
102
}
330
C
100
AcDbDictionary
281
     1
  3
Layout1
350
1E
  3
Layout2
350
26
  3
Model
350
22
  0
DICTIONARY
  5
43
102
{ACAD_REACTORS
330
C
102
}
330
C
100
AcDbDictionary
281
     1
  3
ByBlock
350
45
  3
ByLayer
350
44
  3
Global
350
46
  0
DICTIONARY
  5
503
102
{ACAD_REACTORS
330
C
102
}
330
C
100
AcDbDictionary
281
     1
  0
DICTIONARY
  5
17
102
{ACAD_REACTORS
330
C
102
}
330
C
100
AcDbDictionary
281
     1
  3
Standard
350
18
  0
DICTIONARY
  5
19
102
{ACAD_REACTORS
330
C
102
}
330
C
100
AcDbDictionary
281
     1
  0
ACDBDICTIONARYWDFLT
  5
E
102
{ACAD_REACTORS
330
C
102
}
330
C
100
AcDbDictionary
281
     1
  3
Normal
350
F
100
AcDbDictionaryWithDefault
340
F
  0
DICTIONARY
  5
47
102
{ACAD_REACTORS
330
C
102
}
330
C
100
AcDbDictionary
281
     1
  3
A0
350
48
  3
A1
350
49
  3
A2
350
4A
  3
A3
350
4B
  3
A4
350
4C
  3
A5
350
4D
  3
A6
350
4E
  3
A7
350
4F
  3
A8
350
50
  3
A9
350
51
  3
B0
350
52
  3
B1
350
53
  3
B2
350
54
  3
B3
350
55
  3
B4
350
56
  3
B5
350
57
  3
B6
350
58
  3
B7
350
59
  3
B8
350
5A
  3
B9
350
5B
  3
C0
350
5C
  3
C1
350
5D
  3
C2
350
5E
  3
C3
350
5F
  3
C4
350
60
  3
C5
350
61
  3
C6
350
62
  3
C7
350
63
  3
C8
350
64
  3
C9
350
65
  3
D0
350
66
  3
D1
350
67
  3
D2
350
68
  0
DICTIONARY
  5
505
102
{ACAD_REACTORS
330
C
102
}
330
C
100
AcDbDictionary
281
     1
  0
DICTIONARY
  5
502
102
{ACAD_REACTORS
330
C
102
}
330
C
100
AcDbDictionary
281
     1
  0
DICTIONARY
  5
2A
102
{ACAD_REACTORS
330
C
102
}
330
C
100
AcDbDictionary
281
     1
  3
2dWireframe
350
2F
  3
Basic
350
32
  3
Brighten
350
36
  3
ColorChange
350
3A
  3
Conceptual
350
34
  3
Dim
350
35
  3
EdgeColorOff
350
3D
  3
Facepattern
350
39
  3
Flat
350
2B
  3
FlatWithEdges
350
2C
  3
Gouraud
350
2D
  3
GouraudWithEdges
350
2E
  3
Hidden
350
31
  3
JitterOff
350
3B
  3
Linepattern
350
38
  3
OverhangOff
350
3C
  3
Realistic
350
33
  3
Shaded
350
42
  3
Shaded with edges
350
41
  3
Shades of Gray
350
3E
  3
Sketchy
350
3F
  3
Thicken
350
37
  3
Wireframe
350
30
  3
X-Ray
350
40
  0
DICTIONARY
  5
500
102
{ACAD_REACTORS
330
C
102
}
330
C
100
AcDbDictionary
281
     1
  3
CANNOSCALE
350
501
  0
LAYOUT
  5
1E
102
{ACAD_REACTORS
330
1A
102
}
330
1A
100
AcDbPlotSettings
  1

  2
none_device
  4

  6

 40
0.0
 41
0.0
 42
0.0
 43
0.0
 44
0.0
 45
0.0
 46
0.0
 47
0.0
 48
0.0
 49
0.0
140
0.0
141
0.0
142
1.0
143
1.0
 70
   688
 72
     0
 73
     0
 74
     5
  7

 75
    16
 76
     0
 77
     2
 78
   300
147
1.0
148
0.0
149
0.0
100
AcDbLayout
  1
Layout1
 70
     1
 71
     1
 10
0.0
 20
0.0
 11
420.0
 21
297.0
 12
0.0
 22
0.0
 32
0.0
 14
0.0
 24
0.0
 34
0.0
 15
420.0
 25
297.0
 35
0.0
146
0.0
 13
0.0
 23
0.0
 33
0.0
 16
1.0
 26
0.0
 36
0.0
 17
0.0
 27
1.0
 37
0.0
 76
     0
330
1B
331
6A
  0
LAYOUT
  5
26
102
{ACAD_REACTORS
330
1A
102
}
330
1A
100
AcDbPlotSettings
  1

  2
none_device
  4

  6

 40
0.0
 41
0.0
 42
0.0
 43
0.0
 44
0.0
 45
0.0
 46
0.0
 47
0.0
 48
0.0
 49
0.0
140
0.0
141
0.0
142
1.0
143
1.0
 70
   688
 72
     0
 73
     0
 74
     5
  7

 75
    16
 76
     0
 77
     2
 78
   300
147
1.0
148
0.0
149
0.0
100
AcDbLayout
  1
Layout2
 70
     1
 71
     2
 10
0.0
 20
0.0
 11
0.0
 21
0.0
 12
0.0
 22
0.0
 32
0.0
 14
0.0
 24
0.0
 34
0.0
 15
0.0
 25
0.0
 35
0.0
146
0.0
 13
0.0
 23
0.0
 33
0.0
 16
1.0
 26
0.0
 36
0.0
 17
0.0
 27
1.0
 37
0.0
 76
     0
330
23
  0
LAYOUT
  5
22
102
{ACAD_REACTORS
330
1A
102
}
330
1A
100
AcDbPlotSettings
  1

  2
none_device
  4
Letter_(8.50_x_11.00_Inches)
  6

 40
6.35
 41
6.35
 42
6.35000508
 43
6.35000508
 44
215.9
 45
279.4
 46
0.0
 47
0.0
 48
0.0
 49
0.0
140
0.0
141
0.0
142
1.0
143
1.0
 70
  1712
 72
     0
 73
     0
 74
     0
  7

 75
     0
 76
     0
 77
     2
 78
   300
147
1.0
148
0.0
149
0.0
100
AcDbLayout
  1
Model
 70
     1
 71
     0
 10
0.0
 20
0.0
 11
420.0
 21
297.0
 12
0.0
 22
0.0
 32
0.0
 14
31955.51497473719
 24
20554.72513991531
 34
0.0
 15
33314.69601670563
 25
21237.22513991531
 35
0.0
146
0.0
 13
0.0
 23
0.0
 33
0.0
 16
1.0
 26
0.0
 36
0.0
 17
0.0
 27
1.0
 37
0.0
 76
     0
330
1F
331
29
  0
MATERIAL
  5
45
102
{ACAD_REACTORS
330
43
102
}
330
43
100
AcDbMaterial
  1
ByBlock
 72
     1
 94
      127
  0
MATERIAL
  5
44
102
{ACAD_REACTORS
330
43
102
}
330
43
100
AcDbMaterial
  1
ByLayer
 72
     1
 94
      127
  0
MATERIAL
  5
46
102
{ACAD_REACTORS
330
43
102
}
330
43
100
AcDbMaterial
  1
Global
 72
     1
 94
      127
  0
MLINESTYLE
  5
18
102
{ACAD_REACTORS
330
17
102
}
330
17
100
AcDbMlineStyle
  2
Standard
 70
     0
  3

 62
   256
 51
90.0
 52
90.0
 71
     2
 49
0.5
 62
   256
  6
BYLAYER
 49
-0.5
 62
   256
  6
BYLAYER
  0
ACDBPLACEHOLDER
  5
F
102
{ACAD_REACTORS
330
E
102
}
330
E
  0
SCALE
  5
48
102
{ACAD_REACTORS
330
47
102
}
330
47
100
AcDbScale
 70
     0
300
1:1
140
1.0
141
1.0
290
     1
  0
SCALE
  5
49
102
{ACAD_REACTORS
330
47
102
}
330
47
100
AcDbScale
 70
     0
300
1:2
140
1.0
141
2.0
290
     0
  0
SCALE
  5
4A
102
{ACAD_REACTORS
330
47
102
}
330
47
100
AcDbScale
 70
     0
300
1:4
140
1.0
141
4.0
290
     0
  0
SCALE
  5
4B
102
{ACAD_REACTORS
330
47
102
}
330
47
100
AcDbScale
 70
     0
300
1:5
140
1.0
141
5.0
290
     0
  0
SCALE
  5
4C
102
{ACAD_REACTORS
330
47
102
}
330
47
100
AcDbScale
 70
     0
300
1:8
140
1.0
141
8.0
290
     0
  0
SCALE
  5
4D
102
{ACAD_REACTORS
330
47
102
}
330
47
100
AcDbScale
 70
     0
300
1:10
140
1.0
141
10.0
290
     0
  0
SCALE
  5
4E
102
{ACAD_REACTORS
330
47
102
}
330
47
100
AcDbScale
 70
     0
300
1:16
140
1.0
141
16.0
290
     0
  0
SCALE
  5
4F
102
{ACAD_REACTORS
330
47
102
}
330
47
100
AcDbScale
 70
     0
300
1:20
140
1.0
141
20.0
290
     0
  0
SCALE
  5
50
102
{ACAD_REACTORS
330
47
102
}
330
47
100
AcDbScale
 70
     0
300
1:30
140
1.0
141
30.0
290
     0
  0
SCALE
  5
51
102
{ACAD_REACTORS
330
47
102
}
330
47
100
AcDbScale
 70
     0
300
1:40
140
1.0
141
40.0
290
     0
  0
SCALE
  5
52
102
{ACAD_REACTORS
330
47
102
}
330
47
100
AcDbScale
 70
     0
300
1:50
140
1.0
141
50.0
290
     0
  0
SCALE
  5
53
102
{ACAD_REACTORS
330
47
102
}
330
47
100
AcDbScale
 70
     0
300
1:100
140
1.0
141
100.0
290
     0
  0
SCALE
  5
54
102
{ACAD_REACTORS
330
47
102
}
330
47
100
AcDbScale
 70
     0
300
2:1
140
2.0
141
1.0
290
     0
  0
SCALE
  5
55
102
{ACAD_REACTORS
330
47
102
}
330
47
100
AcDbScale
 70
     0
300
4:1
140
4.0
141
1.0
290
     0
  0
SCALE
  5
56
102
{ACAD_REACTORS
330
47
102
}
330
47
100
AcDbScale
 70
     0
300
8:1
140
8.0
141
1.0
290
     0
  0
SCALE
  5
57
102
{ACAD_REACTORS
330
47
102
}
330
47
100
AcDbScale
 70
     0
300
10:1
140
10.0
141
1.0
290
     0
  0
SCALE
  5
58
102
{ACAD_REACTORS
330
47
102
}
330
47
100
AcDbScale
 70
     0
300
100:1
140
100.0
141
1.0
290
     0
  0
SCALE
  5
59
102
{ACAD_REACTORS
330
47
102
}
330
47
100
AcDbScale
 70
     0
300
1/128" = 1'-0"
140
0.0078125
141
12.0
290
     0
  0
SCALE
  5
5A
102
{ACAD_REACTORS
330
47
102
}
330
47
100
AcDbScale
 70
     0
300
1/64" = 1'-0"
140
0.015625
141
12.0
290
     0
  0
SCALE
  5
5B
102
{ACAD_REACTORS
330
47
102
}
330
47
100
AcDbScale
 70
     0
300
1/32" = 1'-0"
140
0.03125
141
12.0
290
     0
  0
SCALE
  5
5C
102
{ACAD_REACTORS
330
47
102
}
330
47
100
AcDbScale
 70
     0
300
1/16" = 1'-0"
140
0.0625
141
12.0
290
     0
  0
SCALE
  5
5D
102
{ACAD_REACTORS
330
47
102
}
330
47
100
AcDbScale
 70
     0
300
3/32" = 1'-0"
140
0.09375
141
12.0
290
     0
  0
SCALE
  5
5E
102
{ACAD_REACTORS
330
47
102
}
330
47
100
AcDbScale
 70
     0
300
1/8" = 1'-0"
140
0.125
141
12.0
290
     0
  0
SCALE
  5
5F
102
{ACAD_REACTORS
330
47
102
}
330
47
100
AcDbScale
 70
     0
300
3/16" = 1'-0"
140
0.1875
141
12.0
290
     0
  0
SCALE
  5
60
102
{ACAD_REACTORS
330
47
102
}
330
47
100
AcDbScale
 70
     0
300
1/4" = 1'-0"
140
0.25
141
12.0
290
     0
  0
SCALE
  5
61
102
{ACAD_REACTORS
330
47
102
}
330
47
100
AcDbScale
 70
     0
300
3/8" = 1'-0"
140
0.375
141
12.0
290
     0
  0
SCALE
  5
62
102
{ACAD_REACTORS
330
47
102
}
330
47
100
AcDbScale
 70
     0
300
1/2" = 1'-0"
140
0.5
141
12.0
290
     0
  0
SCALE
  5
63
102
{ACAD_REACTORS
330
47
102
}
330
47
100
AcDbScale
 70
     0
300
3/4" = 1'-0"
140
0.75
141
12.0
290
     0
  0
SCALE
  5
64
102
{ACAD_REACTORS
330
47
102
}
330
47
100
AcDbScale
 70
     0
300
1" = 1'-0"
140
1.0
141
12.0
290
     0
  0
SCALE
  5
65
102
{ACAD_REACTORS
330
47
102
}
330
47
100
AcDbScale
 70
     0
300
1-1/2" = 1'-0"
140
1.5
141
12.0
290
     0
  0
SCALE
  5
66
102
{ACAD_REACTORS
330
47
102
}
330
47
100
AcDbScale
 70
     0
300
3" = 1'-0"
140
3.0
141
12.0
290
     0
  0
SCALE
  5
67
102
{ACAD_REACTORS
330
47
102
}
330
47
100
AcDbScale
 70
     0
300
6" = 1'-0"
140
6.0
141
12.0
290
     0
  0
SCALE
  5
68
102
{ACAD_REACTORS
330
47
102
}
330
47
100
AcDbScale
 70
     0
300
1'-0" = 1'-0"
140
12.0
141
12.0
290
     0
  0
VISUALSTYLE
  5
2F
102
{ACAD_REACTORS
330
2A
102
}
330
2A
100
AcDbVisualStyle
  2
2dWireframe
 70
     4
177
     3
291
     0
 70
    58
 90
        0
176
     1
 90
        2
176
     1
 90
        0
176
     1
 90
        0
176
     1
 40
0.6
176
     1
 40
30.0
176
     1
 62
     7
420
 16777215
176
     1
 90
        1
176
     1
 90
        4
176
     1
 62
     7
176
     1
 62
   257
176
     1
 90
        1
176
     1
 90
        1
176
     1
 40
1.0
176
     1
 90
        0
176
     1
 62
   257
176
     1
 40
1.0
176
     1
 90
        1
176
     1
 90
        6
176
     1
 90
        2
176
     1
 62
     7
176
     1
 90
        5
176
     1
 90
        0
176
     1
 90
        0
176
     1
290
     0
176
     1
 90
        1
176
     1
 40
0.0
176
     1
 90
        0
176
     1
290
     1
176
     1
290
     1
176
     1
290
     0
176
     1
290
     0
176
     1
290
     0
176
     1
290
     0
176
     1
290
     0
176
     1
290
     0
176
     1
290
     0
176
     1
 90
       50
176
     1
 40
0.0
176
     1
 40
1.0
176
     1
 90
        0
176
     1
 62
    18
420
        0
176
     1
 90
       50
176
     1
 90
        3
176
     1
 62
     5
420
      255
176
     1
290
     0
176
     1
 90
       50
176
     1
 90
       50
176
     1
 90
       50
176
     1
290
     0
176
     1
 90
       50
176
     1
 62
   256
176
     0
 40
1.0
176
     0
 90
        2
176
     1
  1
strokes_ogs.tif
176
     1
290
     0
176
     1
 40
1.0
176
     1
 40
1.0
176
     1
  0
VISUALSTYLE
  5
32
102
{ACAD_REACTORS
330
2A
102
}
330
2A
100
AcDbVisualStyle
  2
Basic
 70
     7
177
     3
291
     1
 70
    58
 90
        1
176
     1
 90
        0
176
     1
 90
        1
176
     1
 90
        0
176
     1
 40
0.6
176
     1
 40
30.0
176
     1
 62
     7
420
 16777215
176
     1
 90
        0
176
     1
 90
        4
176
     1
 62
     7
176
     1
 62
   257
176
     1
 90
        1
176
     1
 90
        1
176
     1
 40
1.0
176
     1
 90
        8
176
     1
 62
     7
176
     1
 40
1.0
176
     1
 90
        1
176
     1
 90
        6
176
     1
 90
        2
176
     1
 62
     7
176
     1
 90
        5
176
     1
 90
        0
176
     1
 90
        0
176
     1
290
     0
176
     1
 90
        1
176
     1
 40
0.0
176
     1
 90
        0
176
     1
290
     0
176
     1
290
     1
176
     1
290
     1
176
     1
290
     0
176
     1
290
     0
176
     1
290
     0
176
     1
290
     0
176
     1
290
     0
176
     1
290
     0
176
     1
 90
       50
176
     1
 40
0.0
176
     1
 40
1.0
176
     1
 90
        0
176
     1
 62
    18
420
        0
176
     1
 90
       50
176
     1
 90
        3
176
     1
 62
     5
420
      255
176
     1
290
     0
176
     1
 90
       50
176
     1
 90
       50
176
     1
 90
       50
176
     1
290
     0
176
     1
 90
       50
176
     1
 62
   256
176
     0
 40
1.0
176
     0
 90
        2
176
     1
  1
strokes_ogs.tif
176
     1
290
     0
176
     1
 40
1.0
176
     1
 40
1.0
176
     1
  0
VISUALSTYLE
  5
36
102
{ACAD_REACTORS
330
2A
102
}
330
2A
100
AcDbVisualStyle
  2
Brighten
 70
    12
177
     3
291
     1
 70
    58
 90
        2
176
     1
 90
        2
176
     1
 90
        0
176
     1
 90
        0
176
     1
 40
0.6
176
     1
 40
30.0
176
     1
 62
     7
420
 16777215
176
     1
 90
        1
176
     1
 90
        4
176
     1
 62
     7
176
     1
 62
   257
176
     1
 90
        1
176
     1
 90
        1
176
     1
 40
1.0
176
     1
 90
        8
176
     1
 62
     7
176
     1
 40
1.0
176
     1
 90
        1
176
     1
 90
        6
176
     1
 90
        2
176
     1
 62
     7
176
     1
 90
        5
176
     1
 90
        0
176
     1
 90
        0
176
     1
290
     0
176
     1
 90
        1
176
     1
 40
50.0
176
     1
 90
        0
176
     1
290
     0
176
     1
290
     1
176
     1
290
     1
176
     1
290
     0
176
     1
290
     0
176
     1
290
     0
176
     1
290
     0
176
     1
290
     0
176
     1
290
     0
176
     1
 90
       50
176
     1
 40
0.0
176
     1
 40
1.0
176
     1
 90
        0
176
     1
 62
    18
420
        0
176
     1
 90
       50
176
     1
 90
        3
176
     1
 62
     5
420
      255
176
     1
290
     0
176
     1
 90
       50
176
     1
 90
       50
176
     1
 90
       50
176
     1
290
     0
176
     1
 90
       50
176
     1
 62
   256
176
     0
 40
1.0
176
     0
 90
        2
176
     1
  1
strokes_ogs.tif
176
     1
290
     0
176
     1
 40
1.0
176
     1
 40
1.0
176
     1
  0
VISUALSTYLE
  5
3A
102
{ACAD_REACTORS
330
2A
102
}
330
2A
100
AcDbVisualStyle
  2
ColorChange
 70
    16
177
     3
291
     1
 70
    58
 90
        2
176
     1
 90
        2
176
     1
 90
        3
176
     1
 90
        0
176
     1
 40
0.6
176
     1
 40
30.0
176
     1
 62
     8
420
  8421504
176
     1
 90
        1
176
     1
 90
        4
176
     1
 62
     7
176
     1
 62
   257
176
     1
 90
        1
176
     1
 90
        1
176
     1
 40
1.0
176
     1
 90
        8
176
     1
 62
     8
420
  8421504
176
     1
 40
1.0
176
     1
 90
        1
176
     1
 90
        6
176
     1
 90
        2
176
     1
 62
     7
176
     1
 90
        5
176
     1
 90
        0
176
     1
 90
        0
176
     1
290
     0
176
     1
 90
        1
176
     1
 40
0.0
176
     1
 90
        0
176
     1
290
     0
176
     1
290
     1
176
     1
290
     1
176
     1
290
     0
176
     1
290
     0
176
     1
290
     0
176
     1
290
     0
176
     1
290
     0
176
     1
290
     0
176
     1
 90
       50
176
     1
 40
0.0
176
     1
 40
1.0
176
     1
 90
        0
176
     1
 62
    18
420
        0
176
     1
 90
       50
176
     1
 90
        3
176
     1
 62
     5
420
      255
176
     1
290
     0
176
     1
 90
       50
176
     1
 90
       50
176
     1
 90
       50
176
     1
290
     0
176
     1
 90
       50
176
     1
 62
   256
176
     0
 40
1.0
176
     0
 90
        2
176
     1
  1
strokes_ogs.tif
176
     1
290
     0
176
     1
 40
1.0
176
     1
 40
1.0
176
     1
  0
VISUALSTYLE
  5
34
102
{ACAD_REACTORS
330
2A
102
}
330
2A
100
AcDbVisualStyle
  2
Conceptual
 70
     9
177
     3
291
     0
 70
    58
 90
        3
176
     1
 90
        2
176
     1
 90
        0
176
     1
 90
        0
176
     1
 40
0.6
176
     1
 40
30.0
176
     1
 62
     7
420
 16777215
176
     1
 90
        2
176
     1
 90
        2
176
     1
 62
     7
176
     1
 62
   257
176
     1
 90
        1
176
     1
 90
        1
176
     1
 40
179.0
176
     1
 90
        8
176
     1
 62
     7
176
     1
 40
1.0
176
     1
 90
        1
176
     1
 90
        6
176
     1
 90
        2
176
     1
 62
     7
176
     1
 90
        3
176
     1
 90
        0
176
     1
 90
        0
176
     1
290
     0
176
     1
 90
        1
176
     1
 40
0.0
176
     1
 90
        0
176
     1
290
     0
176
     1
290
     1
176
     1
290
     1
176
     1
290
     0
176
     1
290
     0
176
     1
290
     0
176
     1
290
     0
176
     1
290
     0
176
     1
290
     0
176
     1
 90
       50
176
     1
 40
0.0
176
     1
 40
1.0
176
     1
 90
        0
176
     1
 62
    18
420
        0
176
     1
 90
       50
176
     1
 90
        3
176
     1
 62
     5
420
      255
176
     1
290
     0
176
     1
 90
       50
176
     1
 90
       50
176
     1
 90
       50
176
     1
290
     0
176
     1
 90
       50
176
     1
 62
   256
176
     0
 40
1.0
176
     0
 90
        2
176
     1
  1
strokes_ogs.tif
176
     1
290
     0
176
     1
 40
1.0
176
     1
 40
1.0
176
     1
  0
VISUALSTYLE
  5
35
102
{ACAD_REACTORS
330
2A
102
}
330
2A
100
AcDbVisualStyle
  2
Dim
 70
    11
177
     3
291
     1
 70
    58
 90
        2
176
     1
 90
        2
176
     1
 90
        0
176
     1
 90
        0
176
     1
 40
0.6
176
     1
 40
30.0
176
     1
 62
     7
420
 16777215
176
     1
 90
        1
176
     1
 90
        4
176
     1
 62
     7
176
     1
 62
   257
176
     1
 90
        1
176
     1
 90
        1
176
     1
 40
1.0
176
     1
 90
        8
176
     1
 62
     7
176
     1
 40
1.0
176
     1
 90
        1
176
     1
 90
        6
176
     1
 90
        2
176
     1
 62
     7
176
     1
 90
        5
176
     1
 90
        0
176
     1
 90
        0
176
     1
290
     0
176
     1
 90
        1
176
     1
 40
-50.0
176
     1
 90
        0
176
     1
290
     0
176
     1
290
     1
176
     1
290
     1
176
     1
290
     0
176
     1
290
     0
176
     1
290
     0
176
     1
290
     0
176
     1
290
     0
176
     1
290
     0
176
     1
 90
       50
176
     1
 40
0.0
176
     1
 40
1.0
176
     1
 90
        0
176
     1
 62
    18
420
        0
176
     1
 90
       50
176
     1
 90
        3
176
     1
 62
     5
420
      255
176
     1
290
     0
176
     1
 90
       50
176
     1
 90
       50
176
     1
 90
       50
176
     1
290
     0
176
     1
 90
       50
176
     1
 62
   256
176
     0
 40
1.0
176
     0
 90
        2
176
     1
  1
strokes_ogs.tif
176
     1
290
     0
176
     1
 40
1.0
176
     1
 40
1.0
176
     1
  0
VISUALSTYLE
  5
3D
102
{ACAD_REACTORS
330
2A
102
}
330
2A
100
AcDbVisualStyle
  2
EdgeColorOff
 70
    22
177
     3
291
     1
 70
    58
 90
        2
176
     0
 90
        2
176
     0
 90
        0
176
     0
 90
        0
176
     0
 40
0.6
176
     0
 40
30.0
176
     0
 62
     7
420
 16777215
176
     0
 90
        1
176
     0
 90
        4
176
     0
 62
     7
176
     0
 62
   257
176
     0
 90
        1
176
     0
 90
        1
176
     0
 40
1.0
176
     0
 90
        8
176
     2
 62
     7
176
     0
 40
1.0
176
     0
 90
        1
176
     0
 90
        6
176
     0
 90
        2
176
     0
 62
     7
176
     0
 90
        5
176
     0
 90
        0
176
     0
 90
        0
176
     0
290
     0
176
     0
 90
        1
176
     0
 40
0.0
176
     0
 90
        0
176
     0
290
     0
176
     0
290
     1
176
     0
290
     1
176
     0
290
     0
176
     0
290
     0
176
     0
290
     0
176
     0
290
     0
176
     0
290
     0
176
     0
290
     0
176
     0
 90
       50
176
     0
 40
0.0
176
     0
 40
1.0
176
     0
 90
        0
176
     0
 62
    18
420
        0
176
     0
 90
       50
176
     0
 90
        3
176
     0
 62
     5
420
      255
176
     0
290
     0
176
     0
 90
       50
176
     0
 90
       50
176
     0
 90
       50
176
     0
290
     0
176
     0
 90
       50
176
     0
 62
   256
176
     0
 40
1.0
176
     0
 90
        2
176
     0
  1
strokes_ogs.tif
176
     0
290
     0
176
     0
 40
1.0
176
     0
 40
1.0
176
     0
  0
VISUALSTYLE
  5
39
102
{ACAD_REACTORS
330
2A
102
}
330
2A
100
AcDbVisualStyle
  2
Facepattern
 70
    15
177
     3
291
     1
 70
    58
 90
        2
176
     1
 90
        2
176
     1
 90
        0
176
     1
 90
        0
176
     1
 40
0.6
176
     1
 40
30.0
176
     1
 62
     7
420
 16777215
176
     1
 90
        1
176
     1
 90
        4
176
     1
 62
     7
176
     1
 62
   257
176
     1
 90
        1
176
     1
 90
        1
176
     1
 40
1.0
176
     1
 90
        8
176
     1
 62
     7
176
     1
 40
1.0
176
     1
 90
        1
176
     1
 90
        6
176
     1
 90
        2
176
     1
 62
     7
176
     1
 90
        5
176
     1
 90
        0
176
     1
 90
        0
176
     1
290
     0
176
     1
 90
        1
176
     1
 40
0.0
176
     1
 90
        0
176
     1
290
     0
176
     1
290
     1
176
     1
290
     1
176
     1
290
     0
176
     1
290
     0
176
     1
290
     0
176
     1
290
     0
176
     1
290
     0
176
     1
290
     0
176
     1
 90
       50
176
     1
 40
0.0
176
     1
 40
1.0
176
     1
 90
        0
176
     1
 62
    18
420
        0
176
     1
 90
       50
176
     1
 90
        3
176
     1
 62
     5
420
      255
176
     1
290
     0
176
     1
 90
       50
176
     1
 90
       50
176
     1
 90
       50
176
     1
290
     0
176
     1
 90
       50
176
     1
 62
   256
176
     0
 40
1.0
176
     0
 90
        2
176
     1
  1
strokes_ogs.tif
176
     1
290
     0
176
     1
 40
1.0
176
     1
 40
1.0
176
     1
  0
VISUALSTYLE
  5
2B
102
{ACAD_REACTORS
330
2A
102
}
330
2A
100
AcDbVisualStyle
  2
Flat
 70
     0
177
     3
291
     1
 70
    58
 90
        2
176
     1
 90
        1
176
     1
 90
        1
176
     1
 90
        2
176
     1
 40
0.6
176
     1
 40
30.0
176
     1
 62
     7
420
 16777215
176
     1
 90
        0
176
     1
 90
        0
176
     1
 62
     7
176
     1
 62
   257
176
     1
 90
        1
176
     1
 90
        1
176
     1
 40
1.0
176
     1
 90
        8
176
     1
 62
     7
176
     1
 40
1.0
176
     1
 90
        1
176
     1
 90
        6
176
     1
 90
        2
176
     1
 62
     7
176
     1
 90
        5
176
     1
 90
        0
176
     1
 90
        0
176
     1
290
     0
176
     1
 90
       13
176
     1
 40
0.0
176
     1
 90
        0
176
     1
290
     0
176
     1
290
     1
176
     1
290
     1
176
     1
290
     0
176
     1
290
     0
176
     1
290
     0
176
     1
290
     0
176
     1
290
     0
176
     1
290
     0
176
     1
 90
       50
176
     1
 40
0.0
176
     1
 40
1.0
176
     1
 90
        0
176
     1
 62
    18
420
        0
176
     1
 90
       50
176
     1
 90
        3
176
     1
 62
     5
420
      255
176
     1
290
     0
176
     1
 90
       50
176
     1
 90
       50
176
     1
 90
       50
176
     1
290
     0
176
     1
 90
       50
176
     1
 62
   256
176
     0
 40
1.0
176
     0
 90
        2
176
     1
  1
strokes_ogs.tif
176
     1
290
     0
176
     1
 40
1.0
176
     1
 40
1.0
176
     1
  0
VISUALSTYLE
  5
2C
102
{ACAD_REACTORS
330
2A
102
}
330
2A
100
AcDbVisualStyle
  2
FlatWithEdges
 70
     1
177
     3
291
     1
 70
    58
 90
        2
176
     1
 90
        1
176
     1
 90
        1
176
     1
 90
        2
176
     1
 40
0.6
176
     1
 40
30.0
176
     1
 62
     7
420
 16777215
176
     1
 90
        1
176
     1
 90
        0
176
     1
 62
     7
176
     1
 62
   257
176
     1
 90
        1
176
     1
 90
        1
176
     1
 40
1.0
176
     1
 90
        0
176
     1
 62
   257
176
     1
 40
1.0
176
     1
 90
        1
176
     1
 90
        6
176
     1
 90
        2
176
     1
 62
     7
176
     1
 90
        5
176
     1
 90
        0
176
     1
 90
        0
176
     1
290
     0
176
     1
 90
       13
176
     1
 40
0.0
176
     1
 90
        0
176
     1
290
     0
176
     1
290
     1
176
     1
290
     1
176
     1
290
     0
176
     1
290
     0
176
     1
290
     0
176
     1
290
     0
176
     1
290
     0
176
     1
290
     0
176
     1
 90
       50
176
     1
 40
0.0
176
     1
 40
1.0
176
     1
 90
        0
176
     1
 62
    18
420
        0
176
     1
 90
       50
176
     1
 90
        3
176
     1
 62
     5
420
      255
176
     1
290
     0
176
     1
 90
       50
176
     1
 90
       50
176
     1
 90
       50
176
     1
290
     0
176
     1
 90
       50
176
     1
 62
   256
176
     0
 40
1.0
176
     0
 90
        2
176
     1
  1
strokes_ogs.tif
176
     1
290
     0
176
     1
 40
1.0
176
     1
 40
1.0
176
     1
  0
VISUALSTYLE
  5
2D
102
{ACAD_REACTORS
330
2A
102
}
330
2A
100
AcDbVisualStyle
  2
Gouraud
 70
     2
177
     3
291
     1
 70
    58
 90
        2
176
     1
 90
        2
176
     1
 90
        1
176
     1
 90
        2
176
     1
 40
0.6
176
     1
 40
30.0
176
     1
 62
     7
420
 16777215
176
     1
 90
        0
176
     1
 90
        0
176
     1
 62
     7
176
     1
 62
   257
176
     1
 90
        1
176
     1
 90
        1
176
     1
 40
1.0
176
     1
 90
        0
176
     1
 62
     7
176
     1
 40
1.0
176
     1
 90
        1
176
     1
 90
        6
176
     1
 90
        2
176
     1
 62
     7
176
     1
 90
        5
176
     1
 90
        0
176
     1
 90
        0
176
     1
290
     0
176
     1
 90
       13
176
     1
 40
0.0
176
     1
 90
        0
176
     1
290
     0
176
     1
290
     1
176
     1
290
     1
176
     1
290
     0
176
     1
290
     0
176
     1
290
     0
176
     1
290
     0
176
     1
290
     0
176
     1
290
     0
176
     1
 90
       50
176
     1
 40
0.0
176
     1
 40
1.0
176
     1
 90
        0
176
     1
 62
    18
420
        0
176
     1
 90
       50
176
     1
 90
        3
176
     1
 62
     5
420
      255
176
     1
290
     0
176
     1
 90
       50
176
     1
 90
       50
176
     1
 90
       50
176
     1
290
     0
176
     1
 90
       50
176
     1
 62
   256
176
     0
 40
1.0
176
     0
 90
        2
176
     1
  1
strokes_ogs.tif
176
     1
290
     0
176
     1
 40
1.0
176
     1
 40
1.0
176
     1
  0
VISUALSTYLE
  5
2E
102
{ACAD_REACTORS
330
2A
102
}
330
2A
100
AcDbVisualStyle
  2
GouraudWithEdges
 70
     3
177
     3
291
     1
 70
    58
 90
        2
176
     1
 90
        2
176
     1
 90
        1
176
     1
 90
        2
176
     1
 40
0.6
176
     1
 40
30.0
176
     1
 62
     7
420
 16777215
176
     1
 90
        1
176
     1
 90
        0
176
     1
 62
     7
176
     1
 62
   257
176
     1
 90
        1
176
     1
 90
        1
176
     1
 40
1.0
176
     1
 90
        0
176
     1
 62
   257
176
     1
 40
1.0
176
     1
 90
        1
176
     1
 90
        6
176
     1
 90
        2
176
     1
 62
     7
176
     1
 90
        5
176
     1
 90
        0
176
     1
 90
        0
176
     1
290
     0
176
     1
 90
       13
176
     1
 40
0.0
176
     1
 90
        0
176
     1
290
     0
176
     1
290
     1
176
     1
290
     1
176
     1
290
     0
176
     1
290
     0
176
     1
290
     0
176
     1
290
     0
176
     1
290
     0
176
     1
290
     0
176
     1
 90
       50
176
     1
 40
0.0
176
     1
 40
1.0
176
     1
 90
        0
176
     1
 62
    18
420
        0
176
     1
 90
       50
176
     1
 90
        3
176
     1
 62
     5
420
      255
176
     1
290
     0
176
     1
 90
       50
176
     1
 90
       50
176
     1
 90
       50
176
     1
290
     0
176
     1
 90
       50
176
     1
 62
   256
176
     0
 40
1.0
176
     0
 90
        2
176
     1
  1
strokes_ogs.tif
176
     1
290
     0
176
     1
 40
1.0
176
     1
 40
1.0
176
     1
  0
VISUALSTYLE
  5
31
102
{ACAD_REACTORS
330
2A
102
}
330
2A
100
AcDbVisualStyle
  2
Hidden
 70
     6
177
     3
291
     0
 70
    58
 90
        1
176
     1
 90
        2
176
     1
 90
        2
176
     1
 90
        0
176
     1
 40
0.6
176
     1
 40
30.0
176
     1
 62
     7
420
 16777215
176
     1
 90
        2
176
     1
 90
        2
176
     1
 62
     7
176
     1
 62
   257
176
     1
 90
        2
176
     1
 90
        1
176
     1
 40
40.0
176
     1
 90
        0
176
     1
 62
   257
176
     1
 40
1.0
176
     1
 90
        1
176
     1
 90
        6
176
     1
 90
        2
176
     1
 62
     7
176
     1
 90
        3
176
     1
 90
        0
176
     1
 90
        0
176
     1
290
     0
176
     1
 90
        1
176
     1
 40
0.0
176
     1
 90
        0
176
     1
290
     0
176
     1
290
     1
176
     1
290
     1
176
     1
290
     0
176
     1
290
     0
176
     1
290
     0
176
     1
290
     0
176
     1
290
     0
176
     1
290
     0
176
     1
 90
       50
176
     1
 40
0.0
176
     1
 40
1.0
176
     1
 90
        0
176
     1
 62
    18
420
        0
176
     1
 90
       50
176
     1
 90
        3
176
     1
 62
     5
420
      255
176
     1
290
     0
176
     1
 90
       50
176
     1
 90
       50
176
     1
 90
       50
176
     1
290
     0
176
     1
 90
       50
176
     1
 62
   256
176
     0
 40
1.0
176
     0
 90
        2
176
     1
  1
strokes_ogs.tif
176
     1
290
     0
176
     1
 40
1.0
176
     1
 40
1.0
176
     1
  0
VISUALSTYLE
  5
3B
102
{ACAD_REACTORS
330
2A
102
}
330
2A
100
AcDbVisualStyle
  2
JitterOff
 70
    20
177
     3
291
     1
 70
    58
 90
        2
176
     0
 90
        2
176
     0
 90
        0
176
     0
 90
        0
176
     0
 40
0.6
176
     0
 40
30.0
176
     0
 62
     7
420
 16777215
176
     0
 90
        1
176
     0
 90
        4
176
     0
 62
     7
176
     0
 62
   257
176
     0
 90
        1
176
     0
 90
        1
176
     0
 40
1.0
176
     0
 90
       10
176
     2
 62
     7
176
     0
 40
1.0
176
     0
 90
        1
176
     0
 90
        6
176
     0
 90
        2
176
     0
 62
     7
176
     0
 90
        5
176
     0
 90
        0
176
     0
 90
        0
176
     0
290
     0
176
     0
 90
        1
176
     0
 40
0.0
176
     0
 90
        0
176
     0
290
     0
176
     0
290
     1
176
     0
290
     1
176
     0
290
     0
176
     0
290
     0
176
     0
290
     0
176
     0
290
     0
176
     0
290
     0
176
     0
290
     0
176
     0
 90
       50
176
     0
 40
0.0
176
     0
 40
1.0
176
     0
 90
        0
176
     0
 62
    18
420
        0
176
     0
 90
       50
176
     0
 90
        3
176
     0
 62
     5
420
      255
176
     0
290
     0
176
     0
 90
       50
176
     0
 90
       50
176
     0
 90
       50
176
     0
290
     0
176
     0
 90
       50
176
     0
 62
   256
176
     0
 40
1.0
176
     0
 90
        2
176
     0
  1
strokes_ogs.tif
176
     0
290
     0
176
     0
 40
1.0
176
     0
 40
1.0
176
     0
  0
VISUALSTYLE
  5
38
102
{ACAD_REACTORS
330
2A
102
}
330
2A
100
AcDbVisualStyle
  2
Linepattern
 70
    14
177
     3
291
     1
 70
    58
 90
        2
176
     1
 90
        2
176
     1
 90
        0
176
     1
 90
        0
176
     1
 40
0.6
176
     1
 40
30.0
176
     1
 62
     7
420
 16777215
176
     1
 90
        1
176
     1
 90
        4
176
     1
 62
     7
176
     1
 62
   257
176
     1
 90
        7
176
     1
 90
        7
176
     1
 40
1.0
176
     1
 90
        8
176
     1
 62
     7
176
     1
 40
1.0
176
     1
 90
        1
176
     1
 90
        6
176
     1
 90
        2
176
     1
 62
     7
176
     1
 90
        5
176
     1
 90
        0
176
     1
 90
        0
176
     1
290
     0
176
     1
 90
        1
176
     1
 40
0.0
176
     1
 90
        0
176
     1
290
     0
176
     1
290
     1
176
     1
290
     1
176
     1
290
     0
176
     1
290
     0
176
     1
290
     0
176
     1
290
     0
176
     1
290
     0
176
     1
290
     0
176
     1
 90
       50
176
     1
 40
0.0
176
     1
 40
1.0
176
     1
 90
        0
176
     1
 62
    18
420
        0
176
     1
 90
       50
176
     1
 90
        3
176
     1
 62
     5
420
      255
176
     1
290
     0
176
     1
 90
       50
176
     1
 90
       50
176
     1
 90
       50
176
     1
290
     0
176
     1
 90
       50
176
     1
 62
   256
176
     0
 40
1.0
176
     0
 90
        2
176
     1
  1
strokes_ogs.tif
176
     1
290
     0
176
     1
 40
1.0
176
     1
 40
1.0
176
     1
  0
VISUALSTYLE
  5
3C
102
{ACAD_REACTORS
330
2A
102
}
330
2A
100
AcDbVisualStyle
  2
OverhangOff
 70
    21
177
     3
291
     1
 70
    58
 90
        2
176
     0
 90
        2
176
     0
 90
        0
176
     0
 90
        0
176
     0
 40
0.6
176
     0
 40
30.0
176
     0
 62
     7
420
 16777215
176
     0
 90
        1
176
     0
 90
        4
176
     0
 62
     7
176
     0
 62
   257
176
     0
 90
        1
176
     0
 90
        1
176
     0
 40
1.0
176
     0
 90
        9
176
     2
 62
     7
176
     0
 40
1.0
176
     0
 90
        1
176
     0
 90
        6
176
     0
 90
        2
176
     0
 62
     7
176
     0
 90
        5
176
     0
 90
        0
176
     0
 90
        0
176
     0
290
     0
176
     0
 90
        1
176
     0
 40
0.0
176
     0
 90
        0
176
     0
290
     0
176
     0
290
     1
176
     0
290
     1
176
     0
290
     0
176
     0
290
     0
176
     0
290
     0
176
     0
290
     0
176
     0
290
     0
176
     0
290
     0
176
     0
 90
       50
176
     0
 40
0.0
176
     0
 40
1.0
176
     0
 90
        0
176
     0
 62
    18
420
        0
176
     0
 90
       50
176
     0
 90
        3
176
     0
 62
     5
420
      255
176
     0
290
     0
176
     0
 90
       50
176
     0
 90
       50
176
     0
 90
       50
176
     0
290
     0
176
     0
 90
       50
176
     0
 62
   256
176
     0
 40
1.0
176
     0
 90
        2
176
     0
  1
strokes_ogs.tif
176
     0
290
     0
176
     0
 40
1.0
176
     0
 40
1.0
176
     0
  0
VISUALSTYLE
  5
33
102
{ACAD_REACTORS
330
2A
102
}
330
2A
100
AcDbVisualStyle
  2
Realistic
 70
     8
177
     3
291
     0
 70
    58
 90
        2
176
     1
 90
        3
176
     1
 90
        0
176
     1
 90
        2
176
     1
 40
0.6
176
     1
 40
30.0
176
     1
 62
     7
420
 16777215
176
     1
 90
        0
176
     1
 90
        0
176
     1
 62
     7
176
     1
 62
   257
176
     1
 90
        1
176
     1
 90
        1
176
     1
 40
1.0
176
     1
 90
        8
176
     1
 62
   257
176
     1
 40
1.0
176
     1
 90
        1
176
     1
 90
        6
176
     1
 90
        2
176
     1
 62
     7
176
     1
 90
        3
176
     1
 90
        0
176
     1
 90
        0
176
     1
290
     0
176
     1
 90
       13
176
     1
 40
0.0
176
     1
 90
        0
176
     1
290
     0
176
     1
290
     1
176
     1
290
     1
176
     1
290
     0
176
     1
290
     0
176
     1
290
     0
176
     1
290
     0
176
     1
290
     0
176
     1
290
     0
176
     1
 90
       50
176
     1
 40
0.0
176
     1
 40
1.0
176
     1
 90
        0
176
     1
 62
    18
420
        0
176
     1
 90
       50
176
     1
 90
        3
176
     1
 62
     5
420
      255
176
     1
290
     0
176
     1
 90
       50
176
     1
 90
       50
176
     1
 90
       50
176
     1
290
     0
176
     1
 90
       50
176
     1
 62
   256
176
     0
 40
1.0
176
     0
 90
        2
176
     1
  1
strokes_ogs.tif
176
     1
290
     0
176
     1
 40
1.0
176
     1
 40
1.0
176
     1
  0
VISUALSTYLE
  5
42
102
{ACAD_REACTORS
330
2A
102
}
330
2A
100
AcDbVisualStyle
  2
Shaded
 70
    27
177
     3
291
     0
 70
    58
 90
        2
176
     1
 90
        2
176
     1
 90
        1
176
     1
 90
        2
176
     1
 40
0.6
176
     1
 40
30.0
176
     1
 62
     7
420
 16777215
176
     1
 90
        0
176
     1
 90
        4
176
     1
 62
     7
176
     1
 62
   257
176
     1
 90
        1
176
     1
 90
        1
176
     1
 40
1.0
176
     1
 90
        8
176
     1
 62
   257
176
     1
 40
1.0
176
     1
 90
        1
176
     1
 90
        6
176
     1
 90
        2
176
     1
 62
     8
420
  7895160
176
     1
 90
        3
176
     1
 90
        0
176
     1
 90
        0
176
     1
290
     0
176
     1
 90
        5
176
     1
 40
0.0
176
     1
 90
        0
176
     1
290
     0
176
     1
290
     1
176
     1
290
     1
176
     1
290
     0
176
     1
290
     0
176
     1
290
     0
176
     1
290
     0
176
     1
290
     0
176
     1
290
     0
176
     1
 90
       50
176
     1
 40
0.0
176
     1
 40
1.0
176
     1
 90
        0
176
     1
 62
    18
420
        0
176
     1
 90
       50
176
     1
 90
        3
176
     1
 62
     5
420
      255
176
     1
290
     0
176
     1
 90
       50
176
     1
 90
       50
176
     1
 90
       50
176
     1
290
     0
176
     1
 90
       50
176
     1
 62
   256
176
     0
 40
1.0
176
     0
 90
        2
176
     1
  1
strokes_ogs.tif
176
     1
290
     0
176
     1
 40
1.0
176
     1
 40
1.0
176
     1
  0
VISUALSTYLE
  5
41
102
{ACAD_REACTORS
330
2A
102
}
330
2A
100
AcDbVisualStyle
  2
Shaded with edges
 70
    26
177
     3
291
     0
 70
    58
 90
        2
176
     1
 90
        2
176
     1
 90
        1
176
     1
 90
        2
176
     1
 40
0.6
176
     1
 40
30.0
176
     1
 62
     7
420
 16777215
176
     1
 90
        1
176
     1
 90
       10
176
     1
 62
     7
176
     1
 62
   257
176
     1
 90
        2
176
     1
 90
        1
176
     1
 40
1.0
176
     1
 90
        8
176
     1
 62
   257
176
     1
 40
1.0
176
     1
 90
        1
176
     1
 90
        6
176
     1
 90
        2
176
     1
 62
     7
176
     1
 90
        3
176
     1
 90
        0
176
     1
 90
        0
176
     1
290
     0
176
     1
 90
        5
176
     1
 40
0.0
176
     1
 90
        0
176
     1
290
     0
176
     1
290
     1
176
     1
290
     1
176
     1
290
     0
176
     1
290
     0
176
     1
290
     0
176
     1
290
     0
176
     1
290
     0
176
     1
290
     0
176
     1
 90
       50
176
     1
 40
0.0
176
     1
 40
1.0
176
     1
 90
        0
176
     1
 62
    18
420
        0
176
     1
 90
       50
176
     1
 90
        3
176
     1
 62
     5
420
      255
176
     1
290
     0
176
     1
 90
       50
176
     1
 90
       50
176
     1
 90
       50
176
     1
290
     0
176
     1
 90
       50
176
     1
 62
   256
176
     0
 40
1.0
176
     0
 90
        2
176
     1
  1
strokes_ogs.tif
176
     1
290
     0
176
     1
 40
1.0
176
     1
 40
1.0
176
     1
  0
VISUALSTYLE
  5
3E
102
{ACAD_REACTORS
330
2A
102
}
330
2A
100
AcDbVisualStyle
  2
Shades of Gray
 70
    23
177
     3
291
     0
 70
    58
 90
        2
176
     1
 90
        2
176
     1
 90
        3
176
     1
 90
        0
176
     1
 40
0.6
176
     1
 40
30.0
176
     1
 62
     7
420
 16777215
176
     1
 90
        2
176
     1
 90
        2
176
     1
 62
     7
176
     1
 62
     7
176
     1
 90
        1
176
     1
 90
        1
176
     1
 40
40.0
176
     1
 90
        8
176
     1
 62
     7
176
     1
 40
1.0
176
     1
 90
        1
176
     1
 90
        6
176
     1
 90
        2
176
     1
 62
     7
176
     1
 90
        3
176
     1
 90
        0
176
     1
 90
        0
176
     1
290
     0
176
     1
 90
        1
176
     1
 40
0.0
176
     1
 90
        0
176
     1
290
     0
176
     1
290
     1
176
     1
290
     1
176
     1
290
     0
176
     1
290
     0
176
     1
290
     0
176
     1
290
     0
176
     1
290
     0
176
     1
290
     0
176
     1
 90
       50
176
     1
 40
0.0
176
     1
 40
1.0
176
     1
 90
        0
176
     1
 62
    18
420
        0
176
     1
 90
       50
176
     1
 90
        3
176
     1
 62
     5
420
      255
176
     1
290
     0
176
     1
 90
       50
176
     1
 90
       50
176
     1
 90
       50
176
     1
290
     0
176
     1
 90
       50
176
     1
 62
   256
176
     0
 40
1.0
176
     0
 90
        2
176
     1
  1
strokes_ogs.tif
176
     1
290
     0
176
     1
 40
1.0
176
     1
 40
1.0
176
     1
  0
VISUALSTYLE
  5
3F
102
{ACAD_REACTORS
330
2A
102
}
330
2A
100
AcDbVisualStyle
  2
Sketchy
 70
    24
177
     3
291
     0
 70
    58
 90
        1
176
     1
 90
        2
176
     1
 90
        2
176
     1
 90
        0
176
     1
 40
0.6
176
     1
 40
30.0
176
     1
 62
     7
420
 16777215
176
     1
 90
        2
176
     1
 90
        2
176
     1
 62
     7
176
     1
 62
     7
176
     1
 90
        1
176
     1
 90
        1
176
     1
 40
40.0
176
     1
 90
       11
176
     1
 62
     7
176
     1
 40
1.0
176
     1
 90
        1
176
     1
 90
        6
176
     1
 90
        2
176
     1
 62
     7
176
     1
 90
        6
176
     1
 90
        0
176
     1
 90
        0
176
     1
290
     0
176
     1
 90
        1
176
     1
 40
0.0
176
     1
 90
        0
176
     1
290
     0
176
     1
290
     1
176
     1
290
     1
176
     1
290
     0
176
     1
290
     0
176
     1
290
     0
176
     1
290
     0
176
     1
290
     0
176
     1
290
     0
176
     1
 90
       50
176
     1
 40
0.0
176
     1
 40
1.0
176
     1
 90
        0
176
     1
 62
    18
420
        0
176
     1
 90
       50
176
     1
 90
        3
176
     1
 62
     5
420
      255
176
     1
290
     0
176
     1
 90
       50
176
     1
 90
       50
176
     1
 90
       50
176
     1
290
     0
176
     1
 90
       50
176
     1
 62
   256
176
     0
 40
1.0
176
     0
 90
        2
176
     1
  1
strokes_ogs.tif
176
     1
290
     0
176
     1
 40
1.0
176
     1
 40
1.0
176
     1
  0
VISUALSTYLE
  5
37
102
{ACAD_REACTORS
330
2A
102
}
330
2A
100
AcDbVisualStyle
  2
Thicken
 70
    13
177
     3
291
     1
 70
    58
 90
        2
176
     1
 90
        2
176
     1
 90
        0
176
     1
 90
        0
176
     1
 40
0.6
176
     1
 40
30.0
176
     1
 62
     7
420
 16777215
176
     1
 90
        1
176
     1
 90
        4
176
     1
 62
     7
176
     1
 62
   257
176
     1
 90
        1
176
     1
 90
        1
176
     1
 40
1.0
176
     1
 90
       12
176
     1
 62
     7
176
     1
 40
1.0
176
     1
 90
        1
176
     1
 90
        6
176
     1
 90
        2
176
     1
 62
     7
176
     1
 90
        5
176
     1
 90
        0
176
     1
 90
        0
176
     1
290
     0
176
     1
 90
        1
176
     1
 40
0.0
176
     1
 90
        0
176
     1
290
     0
176
     1
290
     1
176
     1
290
     1
176
     1
290
     0
176
     1
290
     0
176
     1
290
     0
176
     1
290
     0
176
     1
290
     0
176
     1
290
     0
176
     1
 90
       50
176
     1
 40
0.0
176
     1
 40
1.0
176
     1
 90
        0
176
     1
 62
    18
420
        0
176
     1
 90
       50
176
     1
 90
        3
176
     1
 62
     5
420
      255
176
     1
290
     0
176
     1
 90
       50
176
     1
 90
       50
176
     1
 90
       50
176
     1
290
     0
176
     1
 90
       50
176
     1
 62
   256
176
     0
 40
1.0
176
     0
 90
        2
176
     1
  1
strokes_ogs.tif
176
     1
290
     0
176
     1
 40
1.0
176
     1
 40
1.0
176
     1
  0
VISUALSTYLE
  5
30
102
{ACAD_REACTORS
330
2A
102
}
330
2A
100
AcDbVisualStyle
  2
Wireframe
 70
     5
177
     3
291
     0
 70
    58
 90
        0
176
     1
 90
        2
176
     1
 90
        0
176
     1
 90
        0
176
     1
 40
0.6
176
     1
 40
30.0
176
     1
 62
     7
420
 16777215
176
     1
 90
        1
176
     1
 90
        4
176
     1
 62
     7
176
     1
 62
   257
176
     1
 90
        1
176
     1
 90
        1
176
     1
 40
1.0
176
     1
 90
        0
176
     1
 62
   257
176
     1
 40
1.0
176
     1
 90
        1
176
     1
 90
        6
176
     1
 90
        2
176
     1
 62
     7
176
     1
 90
        3
176
     1
 90
        0
176
     1
 90
        0
176
     1
290
     0
176
     1
 90
        1
176
     1
 40
0.0
176
     1
 90
        0
176
     1
290
     0
176
     1
290
     1
176
     1
290
     1
176
     1
290
     0
176
     1
290
     0
176
     1
290
     0
176
     1
290
     0
176
     1
290
     0
176
     1
290
     0
176
     1
 90
       50
176
     1
 40
0.0
176
     1
 40
1.0
176
     1
 90
        0
176
     1
 62
    18
420
        0
176
     1
 90
       50
176
     1
 90
        3
176
     1
 62
     5
420
      255
176
     1
290
     0
176
     1
 90
       50
176
     1
 90
       50
176
     1
 90
       50
176
     1
290
     0
176
     1
 90
       50
176
     1
 62
   256
176
     0
 40
1.0
176
     0
 90
        2
176
     1
  1
strokes_ogs.tif
176
     1
290
     0
176
     1
 40
1.0
176
     1
 40
1.0
176
     1
  0
VISUALSTYLE
  5
40
102
{ACAD_REACTORS
330
2A
102
}
330
2A
100
AcDbVisualStyle
  2
X-Ray
 70
    25
177
     3
291
     0
 70
    58
 90
        2
176
     1
 90
        2
176
     1
 90
        1
176
     1
 90
        1
176
     1
 40
0.5
176
     1
 40
30.0
176
     1
 62
     7
420
 16777215
176
     1
 90
        1
176
     1
 90
        0
176
     1
 62
     7
176
     1
 62
   257
176
     1
 90
        1
176
     1
 90
        1
176
     1
 40
1.0
176
     1
 90
        8
176
     1
 62
     7
176
     1
 40
1.0
176
     1
 90
        1
176
     1
 90
        6
176
     1
 90
        2
176
     1
 62
     7
176
     1
 90
        3
176
     1
 90
        0
176
     1
 90
        0
176
     1
290
     0
176
     1
 90
       13
176
     1
 40
0.0
176
     1
 90
        0
176
     1
290
     0
176
     1
290
     1
176
     1
290
     1
176
     1
290
     0
176
     1
290
     0
176
     1
290
     0
176
     1
290
     0
176
     1
290
     0
176
     1
290
     0
176
     1
 90
       50
176
     1
 40
0.0
176
     1
 40
1.0
176
     1
 90
        0
176
     1
 62
    18
420
        0
176
     1
 90
       50
176
     1
 90
        3
176
     1
 62
     5
420
      255
176
     1
290
     0
176
     1
 90
       50
176
     1
 90
       50
176
     1
 90
       50
176
     1
290
     0
176
     1
 90
       50
176
     1
 62
   256
176
     0
 40
1.0
176
     0
 90
        2
176
     1
  1
strokes_ogs.tif
176
     1
290
     0
176
     1
 40
1.0
176
     1
 40
1.0
176
     1
  0
DICTIONARYVAR
  5
501
102
{ACAD_REACTORS
330
500
102
}
330
500
100
DictionaryVariables
280
     0
  1
1:1
  0
ENDSEC
  0
EOF
