  0
SECTION
  2
HEADER
  9
$ACADVER
  1
AC1015
  9
$ACADMAINTVER
 70
     6
  9
$DWGCODEPAGE
  3
ANSI_932
  9
$INSBASE
 10
0.0
 20
0.0
 30
0.0
  9
$EXTMIN
 10
0.0
 20
0.0
 30
0.0
  9
$EXTMAX
 10
180.9999992759999
 20
282.9999999999999
 30
0.0
  9
$LIMMIN
 10
0.0
 20
0.0
  9
$LIMMAX
 10
210.0
 20
297.0
  9
$ORTHOMODE
 70
     0
  9
$REGENMODE
 70
     1
  9
$FILLMODE
 70
     1
  9
$QTEXTMODE
 70
     0
  9
$MIRRTEXT
 70
     1
  9
$LTSCALE
 40
0.25
  9
$ATTMODE
 70
     1
  9
$TEXTSIZE
 40
5.0
  9
$TRACEWID
 40
0.05
  9
$TEXTSTYLE
  7
Standard
  9
$CLAYER
  8
0
  9
$CELTYPE
  6
ByLayer
  9
$CECOLOR
 62
   256
  9
$CELTSCALE
 40
1.0
  9
$DISPSILH
 70
     0
  9
$DIMSCALE
 40
1.0
  9
$DIMASZ
 40
2.3
  9
$DIMEXO
 40
1.0
  9
$DIMDLI
 40
30.0
  9
$DIMRND
 40
0.0
  9
$DIMDLE
 40
0.0
  9
$DIMEXE
 40
1.0
  9
$DIMTP
 40
0.0
  9
$DIMTM
 40
0.0
  9
$DIMTXT
 40
3.3
  9
$DIMCEN
 40
0.09
  9
$DIMTSZ
 40
0.0
  9
$DIMTOL
 70
     0
  9
$DIMLIM
 70
     0
  9
$DIMTIH
 70
     0
  9
$DIMTOH
 70
     0
  9
$DIMSE1
 70
     0
  9
$DIMSE2
 70
     0
  9
$DIMTAD
 70
     3
  9
$DIMZIN
 70
     8
  9
$DIMBLK
  1

  9
$DIMASO
 70
     1
  9
$DIMSHO
 70
     1
  9
$DIMPOST
  1

  9
$DIMAPOST
  1

  9
$DIMALT
 70
     0
  9
$DIMALTD
 70
     2
  9
$DIMALTF
 40
25.4
  9
$DIMLFAC
 40
1.0
  9
$DIMTOFL
 70
     1
  9
$DIMTVP
 40
0.7
  9
$DIMTIX
 70
     0
  9
$DIMSOXD
 70
     0
  9
$DIMSAH
 70
     0
  9
$DIMBLK1
  1

  9
$DIMBLK2
  1

  9
$DIMSTYLE
  2
Standard
  9
$DIMCLRD
 70
     0
  9
$DIMCLRE
 70
     0
  9
$DIMCLRT
 70
     0
  9
$DIMTFAC
 40
0.5
  9
$DIMGAP
 40
0.09
  9
$DIMJUST
 70
     0
  9
$DIMSD1
 70
     0
  9
$DIMSD2
 70
     0
  9
$DIMTOLJ
 70
     1
  9
$DIMTZIN
 70
     8
  9
$DIMALTZ
 70
     0
  9
$DIMALTTZ
 70
     0
  9
$DIMUPT
 70
     1
  9
$DIMDEC
 70
     2
  9
$DIMTDEC
 70
     4
  9
$DIMALTU
 70
     2
  9
$DIMALTTD
 70
     2
  9
$DIMTXSTY
  7
Standard
  9
$DIMAUNIT
 70
     0
  9
$DIMADEC
 70
     0
  9
$DIMALTRND
 40
0.0
  9
$DIMAZIN
 70
     0
  9
$DIMDSEP
 70
    46
  9
$DIMATFIT
 70
     2
  9
$DIMFRAC
 70
     0
  9
$DIMLDRBLK
  1

  9
$DIMLUNIT
 70
     2
  9
$DIMLWD
 70
    -2
  9
$DIMLWE
 70
    -2
  9
$DIMTMOVE
 70
     2
  9
$LUNITS
 70
     2
  9
$LUPREC
 70
     4
  9
$SKETCHINC
 40
0.1
  9
$FILLETRAD
 40
0.5
  9
$AUNITS
 70
     0
  9
$AUPREC
 70
     0
  9
$MENU
  1
.
  9
$ELEVATION
 40
0.0
  9
$PELEVATION
 40
0.0
  9
$THICKNESS
 40
0.0
  9
$LIMCHECK
 70
     0
  9
$CHAMFERA
 40
0.0
  9
$CHAMFERB
 40
0.0
  9
$CHAMFERC
 40
0.0
  9
$CHAMFERD
 40
0.0
  9
$SKPOLY
 70
     0
  9
$TDCREATE
 40
2459369.03505787
  9
$TDUCREATE
 40
2459368.66005787
  9
$TDUPDATE
 40
2459368.66006838
  9
$TDUUPDATE
 40
2459368.28506838
  9
$TDINDWG
 40
0.0000000116
  9
$TDUSRTIMER
 40
0.0000000116
  9
$USRTIMER
 70
     1
  9
$ANGBASE
 50
0.0
  9
$ANGDIR
 70
     0
  9
$PDMODE
 70
     0
  9
$PDSIZE
 40
0.0
  9
$PLINEWID
 40
0.0
  9
$SPLFRAME
 70
     0
  9
$SPLINETYPE
 70
     6
  9
$SPLINESEGS
 70
     8
  9
$HANDSEED
  5
2DB
  9
$SURFTAB1
 70
     6
  9
$SURFTAB2
 70
     6
  9
$SURFTYPE
 70
     6
  9
$SURFU
 70
     6
  9
$SURFV
 70
     6
  9
$UCSBASE
  2

  9
$UCSNAME
  2

  9
$UCSORG
 10
0.0
 20
0.0
 30
0.0
  9
$UCSXDIR
 10
1.0
 20
0.0
 30
0.0
  9
$UCSYDIR
 10
0.0
 20
1.0
 30
0.0
  9
$UCSORTHOREF
  2

  9
$UCSORTHOVIEW
 70
     0
  9
$UCSORGTOP
 10
0.0
 20
0.0
 30
0.0
  9
$UCSORGBOTTOM
 10
0.0
 20
0.0
 30
0.0
  9
$UCSORGLEFT
 10
0.0
 20
0.0
 30
0.0
  9
$UCSORGRIGHT
 10
0.0
 20
0.0
 30
0.0
  9
$UCSORGFRONT
 10
0.0
 20
0.0
 30
0.0
  9
$UCSORGBACK
 10
0.0
 20
0.0
 30
0.0
  9
$PUCSBASE
  2

  9
$PUCSNAME
  2

  9
$PUCSORG
 10
0.0
 20
0.0
 30
0.0
  9
$PUCSXDIR
 10
1.0
 20
0.0
 30
0.0
  9
$PUCSYDIR
 10
0.0
 20
1.0
 30
0.0
  9
$PUCSORTHOREF
  2

  9
$PUCSORTHOVIEW
 70
     0
  9
$PUCSORGTOP
 10
0.0
 20
0.0
 30
0.0
  9
$PUCSORGBOTTOM
 10
0.0
 20
0.0
 30
0.0
  9
$PUCSORGLEFT
 10
0.0
 20
0.0
 30
0.0
  9
$PUCSORGRIGHT
 10
0.0
 20
0.0
 30
0.0
  9
$PUCSORGFRONT
 10
0.0
 20
0.0
 30
0.0
  9
$PUCSORGBACK
 10
0.0
 20
0.0
 30
0.0
  9
$USERI1
 70
     0
  9
$USERI2
 70
     0
  9
$USERI3
 70
     0
  9
$USERI4
 70
     0
  9
$USERI5
 70
     0
  9
$USERR1
 40
0.0
  9
$USERR2
 40
0.0
  9
$USERR3
 40
0.0
  9
$USERR4
 40
0.0
  9
$USERR5
 40
0.0
  9
$WORLDVIEW
 70
     1
  9
$SHADEDGE
 70
     3
  9
$SHADEDIF
 70
    70
  9
$TILEMODE
 70
     1
  9
$MAXACTVP
 70
    64
  9
$PINSBASE
 10
0.0
 20
0.0
 30
0.0
  9
$PLIMCHECK
 70
     0
  9
$PEXTMIN
 10
0.0
 20
0.0
 30
0.0
  9
$PEXTMAX
 10
210.0
 20
297.0
 30
0.0
  9
$PLIMMIN
 10
0.0
 20
0.0
  9
$PLIMMAX
 10
210.0
 20
297.0
  9
$UNITMODE
 70
     0
  9
$VISRETAIN
 70
     1
  9
$PLINEGEN
 70
     0
  9
$PSLTSCALE
 70
     1
  9
$TREEDEPTH
 70
  3020
  9
$CMLSTYLE
  2
Standard
  9
$CMLJUST
 70
     0
  9
$CMLSCALE
 40
1.0
  9
$PROXYGRAPHICS
 70
     1
  9
$MEASUREMENT
 70
     1
  9
$CELWEIGHT
370
    -1
  9
$ENDCAPS
280
     0
  9
$JOINSTYLE
280
     0
  9
$LWDISPLAY
290
     0
  9
$INSUNITS
 70
     4
  9
$HYPERLINKBASE
  1

  9
$STYLESHEET
  1

  9
$XEDIT
290
     1
  9
$CEPSNTYPE
380
     0
  9
$PSTYLEMODE
290
     1
  9
$FINGERPRINTGUID
  2
{4C159362-3030-41B7-96F1-BD2708D54021}
  9
$VERSIONGUID
  2
{FAEB1C32-E019-11D5-929B-00C0DF256EC4}
  9
$EXTNAMES
290
     1
  9
$PSVPSCALE
 40
0.0
  9
$OLESTARTUP
290
     0
  0
ENDSEC
  0
SECTION
  2
CLASSES
  0
CLASS
  1
ACDBDICTIONARYWDFLT
  2
AcDbDictionaryWithDefault
  3
ObjectDBX Classes
 90
        0
280
     0
281
     0
  0
CLASS
  1
VISUALSTYLE
  2
AcDbVisualStyle
  3
ObjectDBX Classes
 90
     4095
280
     0
281
     0
  0
CLASS
  1
MATERIAL
  2
AcDbMaterial
  3
ObjectDBX Classes
 90
     1153
280
     0
281
     0
  0
CLASS
  1
SCALE
  2
AcDbScale
  3
ObjectDBX Classes
 90
     1153
280
     0
281
     0
  0
CLASS
  1
SUN
  2
AcDbSun
  3
SCENEOE
 90
     1153
280
     0
281
     0
  0
CLASS
  1
DICTIONARYVAR
  2
AcDbDictionaryVar
  3
ObjectDBX Classes
 90
        0
280
     0
281
     0
  0
CLASS
  1
ACDBPLACEHOLDER
  2
AcDbPlaceHolder
  3
ObjectDBX Classes
 90
        0
280
     0
281
     0
  0
CLASS
  1
LAYOUT
  2
AcDbLayout
  3
ObjectDBX Classes
 90
        0
280
     0
281
     0
  0
ENDSEC
  0
SECTION
  2
TABLES
  0
TABLE
  2
VPORT
  5
8
102
{ACAD_XDICTIONARY
360
2A1
102
}
330
0
100
AcDbSymbolTable
 70
     1
  0
VPORT
  5
29
330
8
100
AcDbSymbolTableRecord
100
AcDbViewportTableRecord
  2
*Active
 70
     0
 10
0.0
 20
0.0
 11
1.0
 21
1.0
 12
10.42990654205607
 22
4.5
 13
0.0
 23
0.0
 14
0.5
 24
0.5
 15
0.5
 25
0.5
 16
0.0
 26
0.0
 36
1.0
 17
0.0
 27
0.0
 37
0.0
 40
9.0
 41
1.972972972850329
 42
50.0
 43
0.0
 44
0.0
 50
0.0
 51
0.0
 71
     0
 72
   100
 73
     1
 74
     3
 75
     0
 76
     0
 77
     0
 78
     0
281
     0
 65
     1
110
0.0
120
0.0
130
0.0
111
1.0
121
0.0
131
0.0
112
0.0
122
1.0
132
0.0
 79
     0
146
0.0
  0
ENDTAB
  0
TABLE
  2
LTYPE
  5
5
330
0
100
AcDbSymbolTable
 70
     9
  0
LTYPE
  5
14
330
5
100
AcDbSymbolTableRecord
100
AcDbLinetypeTableRecord
  2
ByBlock
 70
     0
  3

 72
    65
 73
     0
 40
0.0
  0
LTYPE
  5
15
330
5
100
AcDbSymbolTableRecord
100
AcDbLinetypeTableRecord
  2
ByLayer
 70
     0
  3

 72
    65
 73
     0
 40
0.0
  0
LTYPE
  5
16
330
5
100
AcDbSymbolTableRecord
100
AcDbLinetypeTableRecord
  2
Continuous
 70
     0
  3
Solid line
 72
    65
 73
     0
 40
0.0
  0
LTYPE
  5
B9
330
5
100
AcDbSymbolTableRecord
100
AcDbLinetypeTableRecord
  2
DOT
 70
     0
  3
DOT
 72
    65
 73
     2
 40
4.0
 49
6.0
 74
     0
 49
-2.0
 74
     0
  0
LTYPE
  5
BA
330
5
100
AcDbSymbolTableRecord
100
AcDbLinetypeTableRecord
  2
HIDDEN
 70
     0
  3
HIDDEN
 72
    65
 73
     2
 40
4.2
 49
8.4
 74
     0
 49
-4.2
 74
     0
  0
LTYPE
  5
BB
330
5
100
AcDbSymbolTableRecord
100
AcDbLinetypeTableRecord
  2
DASHDOT
 70
     0
  3
DASHDOT
 72
    65
 73
     4
 40
14.5
 49
30.0
 74
     0
 49
-9.0
 74
     0
 49
2.5
 74
     0
 49
-9.0
 74
     0
  0
LTYPE
  5
BC
330
5
100
AcDbSymbolTableRecord
100
AcDbLinetypeTableRecord
  2
PHANTOM
 70
     0
  3
PHANTOM
 72
    65
 73
     6
 40
12.0
 49
30.0
 74
     0
 49
-9.0
 74
     0
 49
2.5
 74
     0
 49
-5.0
 74
     0
 49
2.5
 74
     0
 49
-9.0
 74
     0
  0
LTYPE
  5
BD
330
5
100
AcDbSymbolTableRecord
100
AcDbLinetypeTableRecord
  2
ACAD_ISO14W100
 70
     0
  3
ACAD_ISO14W100
 72
    65
 73
     8
 40
1.5
 49
12.0
 74
     0
 49
-3.0
 74
     0
 49
0.5
 74
     0
 49
-3.0
 74
     0
 49
0.5
 74
     0
 49
-3.0
 74
     0
 49
0.5
 74
     0
 49
-3.0
 74
     0
  0
LTYPE
  5
BE
330
5
100
AcDbSymbolTableRecord
100
AcDbLinetypeTableRecord
  2
ACAD_ISO06W100
 70
     0
  3
ACAD_ISO06W100
 72
    65
 73
     8
 40
13.5
 49
24.0
 74
     0
 49
-3.0
 74
     0
 49
0.5
 74
     0
 49
-3.0
 74
     0
 49
0.5
 74
     0
 49
-3.0
 74
     0
 49
0.5
 74
     0
 49
-3.0
 74
     0
  0
LTYPE
  5
BF
330
5
100
AcDbSymbolTableRecord
100
AcDbLinetypeTableRecord
  2
ACAD_ISO11W100
 70
     0
  3
ACAD_ISO11W100
 72
    65
 73
     6
 40
15.5
 49
12.0
 74
     0
 49
-3.0
 74
     0
 49
12.0
 74
     0
 49
-3.0
 74
     0
 49
0.5
 74
     0
 49
-3.0
 74
     0
  0
LTYPE
  5
C0
330
5
100
AcDbSymbolTableRecord
100
AcDbLinetypeTableRecord
  2
ACAD_ISO13W100
 70
     0
  3
ACAD_ISO13W100
 72
    65
 73
     8
 40
13.0
 49
12.0
 74
     0
 49
-3.0
 74
     0
 49
12.0
 74
     0
 49
-3.0
 74
     0
 49
0.5
 74
     0
 49
-3.0
 74
     0
 49
0.5
 74
     0
 49
-3.0
 74
     0
  0
ENDTAB
  0
TABLE
  2
LAYER
  5
2
330
0
100
AcDbSymbolTable
 70
    35
  0
LAYER
  5
10
330
2
100
AcDbSymbolTableRecord
100
AcDbLayerTableRecord
  2
0
 70
     0
 62
     7
  6
Continuous
370
    -3
390
F
  0
LAYER
  5
C1
330
2
100
AcDbSymbolTableRecord
100
AcDbLayerTableRecord
  2
1
 70
     0
 62
     6
  6
Continuous
370
    53
390
F
  0
LAYER
  5
C2
330
2
100
AcDbSymbolTableRecord
100
AcDbLayerTableRecord
  2
2
 70
     0
 62
     2
  6
HIDDEN
370
    25
390
F
  0
LAYER
  5
C3
330
2
100
AcDbSymbolTableRecord
100
AcDbLayerTableRecord
  2
3
 70
     0
 62
     1
  6
DASHDOT
370
    25
390
F
  0
LAYER
  5
C4
330
2
100
AcDbSymbolTableRecord
100
AcDbLayerTableRecord
  2
4
 70
     0
 62
     2
  6
PHANTOM
370
    25
390
F
  0
LAYER
  5
C5
330
2
100
AcDbSymbolTableRecord
100
AcDbLayerTableRecord
  2
5
 70
     0
 62
     4
  6
Continuous
370
    25
390
F
  0
LAYER
  5
C6
330
2
100
AcDbSymbolTableRecord
100
AcDbLayerTableRecord
  2
6
 70
     0
 62
     3
  6
Continuous
370
    25
390
F
  0
LAYER
  5
C7
330
2
100
AcDbSymbolTableRecord
100
AcDbLayerTableRecord
  2
7
 70
     0
 62
     3
  6
Continuous
370
    25
390
F
  0
LAYER
  5
C8
330
2
100
AcDbSymbolTableRecord
100
AcDbLayerTableRecord
  2
8
 70
     0
 62
     4
  6
Continuous
370
    25
390
F
  0
LAYER
  5
C9
330
2
100
AcDbSymbolTableRecord
100
AcDbLayerTableRecord
  2
9
 70
     0
 62
     7
  6
Continuous
370
    35
390
F
  0
LAYER
  5
CA
330
2
100
AcDbSymbolTableRecord
100
AcDbLayerTableRecord
  2
10
 70
     0
 62
     6
  6
Continuous
370
    53
390
F
  0
LAYER
  5
CB
330
2
100
AcDbSymbolTableRecord
100
AcDbLayerTableRecord
  2
11
 70
     0
 62
     2
  6
HIDDEN
370
    25
390
F
  0
LAYER
  5
CC
330
2
100
AcDbSymbolTableRecord
100
AcDbLayerTableRecord
  2
12
 70
     0
 62
     5
  6
Continuous
370
    53
390
F
  0
LAYER
  5
CD
330
2
100
AcDbSymbolTableRecord
100
AcDbLayerTableRecord
  2
13
 70
     0
 62
     7
  6
Continuous
370
     9
390
F
  0
LAYER
  5
CE
330
2
100
AcDbSymbolTableRecord
100
AcDbLayerTableRecord
  2
14
 70
     0
 62
     7
  6
Continuous
370
     9
390
F
  0
LAYER
  5
CF
330
2
100
AcDbSymbolTableRecord
100
AcDbLayerTableRecord
  2
15
 70
     0
 62
     7
  6
Continuous
370
    35
390
F
  0
LAYER
  5
D0
330
2
100
AcDbSymbolTableRecord
100
AcDbLayerTableRecord
  2
16
 70
     0
 62
     7
  6
HIDDEN
370
     9
390
F
  0
LAYER
  5
D1
330
2
100
AcDbSymbolTableRecord
100
AcDbLayerTableRecord
  2
17
 70
     0
 62
     7
  6
Continuous
370
     9
390
F
  0
LAYER
  5
D2
330
2
100
AcDbSymbolTableRecord
100
AcDbLayerTableRecord
  2
18
 70
     0
 62
     4
  6
Continuous
370
     9
390
F
  0
LAYER
  5
D3
330
2
100
AcDbSymbolTableRecord
100
AcDbLayerTableRecord
  2
19
 70
     0
 62
     7
  6
Continuous
370
     9
390
F
  0
LAYER
  5
D4
330
2
100
AcDbSymbolTableRecord
100
AcDbLayerTableRecord
  2
20
 70
     0
 62
     6
  6
PHANTOM
370
     9
390
F
  0
LAYER
  5
D5
330
2
100
AcDbSymbolTableRecord
100
AcDbLayerTableRecord
  2
21
 70
     0
 62
     1
  6
Continuous
370
     9
390
F
  0
LAYER
  5
D6
330
2
100
AcDbSymbolTableRecord
100
AcDbLayerTableRecord
  2
22
 70
     0
 62
     7
  6
Continuous
370
     9
390
F
  0
LAYER
  5
D7
330
2
100
AcDbSymbolTableRecord
100
AcDbLayerTableRecord
  2
23
 70
     0
 62
     4
  6
Continuous
370
     9
390
F
  0
LAYER
  5
D8
330
2
100
AcDbSymbolTableRecord
100
AcDbLayerTableRecord
  2
24
 70
     0
 62
     1
  6
DASHDOT
370
     9
390
F
  0
LAYER
  5
D9
330
2
100
AcDbSymbolTableRecord
100
AcDbLayerTableRecord
  2
25
 70
     0
 62
     1
  6
HIDDEN
370
     9
390
F
  0
LAYER
  5
DA
330
2
100
AcDbSymbolTableRecord
100
AcDbLayerTableRecord
  2
26
 70
     0
 62
     2
  6
Continuous
370
     9
390
F
  0
LAYER
  5
DB
330
2
100
AcDbSymbolTableRecord
100
AcDbLayerTableRecord
  2
27
 70
     0
 62
     5
  6
HIDDEN
370
     9
390
F
  0
LAYER
  5
DC
330
2
100
AcDbSymbolTableRecord
100
AcDbLayerTableRecord
  2
28
 70
     0
 62
     3
  6
Continuous
370
     9
390
F
  0
LAYER
  5
DD
330
2
100
AcDbSymbolTableRecord
100
AcDbLayerTableRecord
  2
29
 70
     0
 62
     7
  6
HIDDEN
370
    50
390
F
  0
LAYER
  5
DE
330
2
100
AcDbSymbolTableRecord
100
AcDbLayerTableRecord
  2
30
 70
     0
 62
     7
  6
DASHDOT
370
    50
390
F
  0
LAYER
  5
DF
330
2
100
AcDbSymbolTableRecord
100
AcDbLayerTableRecord
  2
31
 70
     0
 62
     7
  6
Continuous
370
     9
390
F
  0
LAYER
  5
E0
330
2
100
AcDbSymbolTableRecord
100
AcDbLayerTableRecord
  2
32
 70
     0
 62
     7
  6
Continuous
370
     9
390
F
  0
LAYER
  5
E1
330
2
100
AcDbSymbolTableRecord
100
AcDbLayerTableRecord
  2
33
 70
     0
 62
     1
  6
DASHDOT
370
     9
390
F
  0
LAYER
  5
E2
330
2
100
AcDbSymbolTableRecord
100
AcDbLayerTableRecord
  2
34
 70
     0
 62
     7
  6
Continuous
370
     9
390
F
  0
ENDTAB
  0
TABLE
  2
STYLE
  5
3
330
0
100
AcDbSymbolTable
 70
     2
  0
STYLE
  5
11
330
3
100
AcDbSymbolTableRecord
100
AcDbTextStyleTableRecord
  2
Standard
 70
     0
 40
0.0
 41
1.0
 50
0.0
 71
     0
 42
5.0
  3
txt
  4
bigfont
  0
STYLE
  5
6C
330
3
100
AcDbSymbolTableRecord
100
AcDbTextStyleTableRecord
  2
T_STANDARD
 70
     4
 40
10.0
 41
1.0
 50
0.0
 71
     0
 42
5.0
  3
txt
  4
bigfont
1001
ACAD
1000

1071
      256
  0
ENDTAB
  0
TABLE
  2
VIEW
  5
6
330
0
100
AcDbSymbolTable
 70
     0
  0
ENDTAB
  0
TABLE
  2
UCS
  5
7
330
0
100
AcDbSymbolTable
 70
     0
  0
ENDTAB
  0
TABLE
  2
APPID
  5
9
330
0
100
AcDbSymbolTable
 70
     2
  0
APPID
  5
12
330
9
100
AcDbSymbolTableRecord
100
AcDbRegAppTableRecord
  2
ACAD
 70
     0
  0
APPID
  5
6B
330
9
100
AcDbSymbolTableRecord
100
AcDbRegAppTableRecord
  2
ODA
 70
     0
  0
ENDTAB
  0
TABLE
  2
DIMSTYLE
  5
A
330
0
100
AcDbSymbolTable
 70
     1
100
AcDbDimStyleTable
  0
DIMSTYLE
105
27
330
A
100
AcDbSymbolTableRecord
100
AcDbDimStyleTableRecord
  2
Standard
 70
     0
178
     0
340
11
  0
ENDTAB
  0
TABLE
  2
BLOCK_RECORD
  5
1
330
0
100
AcDbSymbolTable
 70
    17
  0
BLOCK_RECORD
  5
1F
330
1
100
AcDbSymbolTableRecord
100
AcDbBlockTableRecord
  2
*Model_Space
340
22
  0
BLOCK_RECORD
  5
1B
330
1
100
AcDbSymbolTableRecord
100
AcDbBlockTableRecord
  2
*Paper_Space
340
1E
  0
BLOCK_RECORD
  5
23
330
1
100
AcDbSymbolTableRecord
100
AcDbBlockTableRecord
  2
*Paper_Space0
340
26
  0
BLOCK_RECORD
  5
6D
330
1
100
AcDbSymbolTableRecord
100
AcDbBlockTableRecord
  2
_ORIGIN
340
0
  0
BLOCK_RECORD
  5
72
330
1
100
AcDbSymbolTableRecord
100
AcDbBlockTableRecord
  2
_DOTBLANK
340
0
  0
BLOCK_RECORD
  5
77
330
1
100
AcDbSymbolTableRecord
100
AcDbBlockTableRecord
  2
_DOT
340
0
  0
BLOCK_RECORD
  5
7C
330
1
100
AcDbSymbolTableRecord
100
AcDbBlockTableRecord
  2
_OPEN
340
0
102
{BLKREFS
331
F5
331
292
102
}
  0
BLOCK_RECORD
  5
82
330
1
100
AcDbSymbolTableRecord
100
AcDbBlockTableRecord
  2
_CLOSED
340
0
  0
BLOCK_RECORD
  5
89
330
1
100
AcDbSymbolTableRecord
100
AcDbBlockTableRecord
  2
_CLOSEDBLANK
340
0
  0
BLOCK_RECORD
  5
8F
330
1
100
AcDbSymbolTableRecord
100
AcDbBlockTableRecord
  2
_ARROWFILLED
340
0
  0
BLOCK_RECORD
  5
93
330
1
100
AcDbSymbolTableRecord
100
AcDbBlockTableRecord
  2
_BOXBLANK
340
0
  0
BLOCK_RECORD
  5
9B
330
1
100
AcDbSymbolTableRecord
100
AcDbBlockTableRecord
  2
_BOXFILLED
340
0
  0
BLOCK_RECORD
  5
A0
330
1
100
AcDbSymbolTableRecord
100
AcDbBlockTableRecord
  2
_INTEGRAL
340
0
  0
BLOCK_RECORD
  5
A5
330
1
100
AcDbSymbolTableRecord
100
AcDbBlockTableRecord
  2
_OBLIQUE
340
0
  0
BLOCK_RECORD
  5
A9
330
1
100
AcDbSymbolTableRecord
100
AcDbBlockTableRecord
  2
_NONE
340
0
  0
BLOCK_RECORD
  5
AC
330
1
100
AcDbSymbolTableRecord
100
AcDbBlockTableRecord
  2
MARK_OPEN
340
0
  0
BLOCK_RECORD
  5
B1
330
1
100
AcDbSymbolTableRecord
100
AcDbBlockTableRecord
  2
MARK_ORIGIN
340
0
  0
BLOCK_RECORD
  5
B5
330
1
100
AcDbSymbolTableRecord
100
AcDbBlockTableRecord
  2
MARK_DOT
340
0
  0
BLOCK_RECORD
  5
E3
330
1
100
AcDbSymbolTableRecord
100
AcDbBlockTableRecord
  2
*G16
340
0
102
{BLKREFS
331
EA
102
}
  0
ENDTAB
  0
ENDSEC
  0
SECTION
  2
BLOCKS
  0
BLOCK
  5
20
330
1F
100
AcDbEntity
  8
0
100
AcDbBlockBegin
  2
*Model_Space
 70
     0
 10
0.0
 20
0.0
 30
0.0
  3
*Model_Space
  1
*Model_Space
  0
ENDBLK
  5
21
330
1F
100
AcDbEntity
  8
0
100
AcDbBlockEnd
  0
BLOCK
  5
1C
330
1B
100
AcDbEntity
 67
     1
  8
0
100
AcDbBlockBegin
  2
*Paper_Space
 70
     0
 10
0.0
 20
0.0
 30
0.0
  3
*Paper_Space
  1
*Paper_Space
  0
ENDBLK
  5
1D
330
1B
100
AcDbEntity
 67
     1
  8
0
100
AcDbBlockEnd
  0
BLOCK
  5
24
330
23
100
AcDbEntity
  8
0
100
AcDbBlockBegin
  2
*Paper_Space0
 70
     0
 10
0.0
 20
0.0
 30
0.0
  3
*Paper_Space0
  1
*Paper_Space0
  0
ENDBLK
  5
25
330
23
100
AcDbEntity
  8
0
100
AcDbBlockEnd
  0
BLOCK
  5
70
330
6D
100
AcDbEntity
  8
0
100
AcDbBlockBegin
  2
_ORIGIN
 70
     0
 10
0.0
 20
0.0
 30
0.0
  3
_ORIGIN
  1
_ORIGIN
  0
CIRCLE
  5
6E
330
6D
100
AcDbEntity
  8
0
 62
     0
100
AcDbCircle
 10
0.0
 20
0.0
 30
0.0
 40
0.5
  0
LINE
  5
6F
330
6D
100
AcDbEntity
  8
0
 62
     0
100
AcDbLine
 10
0.0
 20
0.0
 30
0.0
 11
-1.0
 21
0.0
 31
0.0
  0
ENDBLK
  5
71
330
6D
100
AcDbEntity
  8
0
100
AcDbBlockEnd
  0
BLOCK
  5
75
330
72
100
AcDbEntity
  8
0
100
AcDbBlockBegin
  2
_DOTBLANK
 70
     0
 10
0.0
 20
0.0
 30
0.0
  3
_DOTBLANK
  1
_DOTBLANK
  0
CIRCLE
  5
73
330
72
100
AcDbEntity
  8
0
 62
     0
100
AcDbCircle
 10
0.0
 20
0.0
 30
0.0
 40
0.5
  0
LINE
  5
74
330
72
100
AcDbEntity
  8
0
 62
     0
100
AcDbLine
 10
-0.5
 20
0.0
 30
0.0
 11
-1.0
 21
0.0
 31
0.0
  0
ENDBLK
  5
76
330
72
100
AcDbEntity
  8
0
100
AcDbBlockEnd
  0
BLOCK
  5
7A
330
77
100
AcDbEntity
  8
0
100
AcDbBlockBegin
  2
_DOT
 70
     0
 10
0.0
 20
0.0
 30
0.0
  3
_DOT
  1
_DOT
  0
LWPOLYLINE
  5
78
330
77
100
AcDbEntity
  8
0
 62
     0
100
AcDbPolyline
 90
        2
 70
     1
 43
0.5
 10
-0.25
 20
0.0
 42
1.0
 10
0.25
 20
0.0
 42
1.0
  0
LINE
  5
79
330
77
100
AcDbEntity
  8
0
 62
     0
100
AcDbLine
 10
-0.5
 20
0.0
 30
0.0
 11
-1.0
 21
0.0
 31
0.0
  0
ENDBLK
  5
7B
330
77
100
AcDbEntity
  8
0
100
AcDbBlockEnd
  0
BLOCK
  5
80
330
7C
100
AcDbEntity
  8
0
100
AcDbBlockBegin
  2
_OPEN
 70
     0
 10
0.0
 20
0.0
 30
0.0
  3
_OPEN
  1
_OPEN
  0
LINE
  5
7D
330
7C
100
AcDbEntity
  8
0
 62
     0
100
AcDbLine
 10
0.0
 20
0.0
 30
0.0
 11
-1.0
 21
0.1666666666666667
 31
0.0
  0
LINE
  5
7E
330
7C
100
AcDbEntity
  8
0
 62
     0
100
AcDbLine
 10
0.0
 20
0.0
 30
0.0
 11
-1.0
 21
-0.1666666666666667
 31
0.0
  0
LINE
  5
7F
330
7C
100
AcDbEntity
  8
0
 62
     0
100
AcDbLine
 10
0.0
 20
0.0
 30
0.0
 11
-1.0
 21
0.0
 31
0.0
  0
ENDBLK
  5
81
330
7C
100
AcDbEntity
  8
0
100
AcDbBlockEnd
  0
BLOCK
  5
87
330
82
100
AcDbEntity
  8
0
100
AcDbBlockBegin
  2
_CLOSED
 70
     0
 10
0.0
 20
0.0
 30
0.0
  3
_CLOSED
  1
_CLOSED
  0
LINE
  5
83
330
82
100
AcDbEntity
  8
0
 62
     0
100
AcDbLine
 10
0.0
 20
0.0
 30
0.0
 11
-1.0
 21
0.1666666666666667
 31
0.0
  0
LINE
  5
84
330
82
100
AcDbEntity
  8
0
 62
     0
100
AcDbLine
 10
0.0
 20
0.0
 30
0.0
 11
-1.0
 21
-0.1666666666666667
 31
0.0
  0
LINE
  5
85
330
82
100
AcDbEntity
  8
0
 62
     0
100
AcDbLine
 10
-1.0
 20
0.1666666666666667
 30
0.0
 11
-1.0
 21
-0.1666666666666667
 31
0.0
  0
LINE
  5
86
330
82
100
AcDbEntity
  8
0
 62
     0
100
AcDbLine
 10
0.0
 20
0.0
 30
0.0
 11
-1.0
 21
0.0
 31
0.0
  0
ENDBLK
  5
88
330
82
100
AcDbEntity
  8
0
100
AcDbBlockEnd
  0
BLOCK
  5
8D
330
89
100
AcDbEntity
  8
0
100
AcDbBlockBegin
  2
_CLOSEDBLANK
 70
     0
 10
0.0
 20
0.0
 30
0.0
  3
_CLOSEDBLANK
  1
_CLOSEDBLANK
  0
LINE
  5
8A
330
89
100
AcDbEntity
  8
0
 62
     0
100
AcDbLine
 10
0.0
 20
0.0
 30
0.0
 11
-1.0
 21
0.1666666666666667
 31
0.0
  0
LINE
  5
8B
330
89
100
AcDbEntity
  8
0
 62
     0
100
AcDbLine
 10
0.0
 20
0.0
 30
0.0
 11
-1.0
 21
-0.1666666666666667
 31
0.0
  0
LINE
  5
8C
330
89
100
AcDbEntity
  8
0
 62
     0
100
AcDbLine
 10
-1.0
 20
0.1666666666666667
 30
0.0
 11
-1.0
 21
-0.1666666666666667
 31
0.0
  0
ENDBLK
  5
8E
330
89
100
AcDbEntity
  8
0
100
AcDbBlockEnd
  0
BLOCK
  5
91
330
8F
100
AcDbEntity
  8
0
100
AcDbBlockBegin
  2
_ARROWFILLED
 70
     0
 10
0.0
 20
0.0
 30
0.0
  3
_ARROWFILLED
  1
_ARROWFILLED
  0
SOLID
  5
90
330
8F
100
AcDbEntity
  8
0
 62
     0
100
AcDbTrace
 10
0.0
 20
0.0
 30
0.0
 11
-1.0
 21
-0.1666666666666667
 31
0.0
 12
-1.0
 22
0.1666666666666667
 32
0.0
 13
0.0
 23
0.0
 33
0.0
  0
ENDBLK
  5
92
330
8F
100
AcDbEntity
  8
0
100
AcDbBlockEnd
  0
BLOCK
  5
99
330
93
100
AcDbEntity
  8
0
100
AcDbBlockBegin
  2
_BOXBLANK
 70
     0
 10
0.0
 20
0.0
 30
0.0
  3
_BOXBLANK
  1
_BOXBLANK
  0
LINE
  5
94
330
93
100
AcDbEntity
  8
0
 62
     0
100
AcDbLine
 10
-0.5
 20
-0.5
 30
0.0
 11
0.5
 21
-0.5
 31
0.0
  0
LINE
  5
95
330
93
100
AcDbEntity
  8
0
 62
     0
100
AcDbLine
 10
0.5
 20
-0.5
 30
0.0
 11
0.5
 21
0.5
 31
0.0
  0
LINE
  5
96
330
93
100
AcDbEntity
  8
0
 62
     0
100
AcDbLine
 10
0.5
 20
0.5
 30
0.0
 11
-0.5
 21
0.5
 31
0.0
  0
LINE
  5
97
330
93
100
AcDbEntity
  8
0
 62
     0
100
AcDbLine
 10
-0.5
 20
0.5
 30
0.0
 11
-0.5
 21
-0.5
 31
0.0
  0
LINE
  5
98
330
93
100
AcDbEntity
  8
0
 62
     0
100
AcDbLine
 10
-0.5
 20
0.0
 30
0.0
 11
-1.0
 21
0.0
 31
0.0
  0
ENDBLK
  5
9A
330
93
100
AcDbEntity
  8
0
100
AcDbBlockEnd
  0
BLOCK
  5
9E
330
9B
100
AcDbEntity
  8
0
100
AcDbBlockBegin
  2
_BOXFILLED
 70
     0
 10
0.0
 20
0.0
 30
0.0
  3
_BOXFILLED
  1
_BOXFILLED
  0
SOLID
  5
9C
330
9B
100
AcDbEntity
  8
0
 62
     0
100
AcDbTrace
 10
-0.5
 20
0.5
 30
0.0
 11
0.5
 21
0.5
 31
0.0
 12
-0.5
 22
-0.5
 32
0.0
 13
0.5
 23
-0.5
 33
0.0
  0
LINE
  5
9D
330
9B
100
AcDbEntity
  8
0
 62
     0
100
AcDbLine
 10
-0.5
 20
0.0
 30
0.0
 11
-1.0
 21
0.0
 31
0.0
  0
ENDBLK
  5
9F
330
9B
100
AcDbEntity
  8
0
100
AcDbBlockEnd
  0
BLOCK
  5
A3
330
A0
100
AcDbEntity
  8
0
100
AcDbBlockBegin
  2
_INTEGRAL
 70
     0
 10
0.0
 20
0.0
 30
0.0
  3
_INTEGRAL
  1
_INTEGRAL
  0
ARC
  5
A1
330
A0
100
AcDbEntity
  8
0
 62
     0
100
AcDbCircle
 10
0.444888
 20
-0.0913346
 30
0.0
 40
0.4541666
100
AcDbArc
 50
101.9999999999999
 51
167.9999999999998
  0
ARC
  5
A2
330
A0
100
AcDbEntity
  8
0
 62
     0
100
AcDbCircle
 10
-0.444888
 20
0.0913346
 30
0.0
 40
0.4541666
100
AcDbArc
 50
281.9999999999997
 51
347.9999999999997
  0
ENDBLK
  5
A4
330
A0
100
AcDbEntity
  8
0
100
AcDbBlockEnd
  0
BLOCK
  5
A7
330
A5
100
AcDbEntity
  8
0
100
AcDbBlockBegin
  2
_OBLIQUE
 70
     0
 10
0.0
 20
0.0
 30
0.0
  3
_OBLIQUE
  1
_OBLIQUE
  0
LINE
  5
A6
330
A5
100
AcDbEntity
  8
0
 62
     0
100
AcDbLine
 10
-0.5
 20
-0.5
 30
0.0
 11
0.5
 21
0.5
 31
0.0
  0
ENDBLK
  5
A8
330
A5
100
AcDbEntity
  8
0
100
AcDbBlockEnd
  0
BLOCK
  5
AA
330
A9
100
AcDbEntity
  8
0
100
AcDbBlockBegin
  2
_NONE
 70
     0
 10
0.0
 20
0.0
 30
0.0
  3
_NONE
  1
_NONE
  0
ENDBLK
  5
AB
330
A9
100
AcDbEntity
  8
0
100
AcDbBlockEnd
  0
BLOCK
  5
AF
330
AC
100
AcDbEntity
  8
0
100
AcDbBlockBegin
  2
MARK_OPEN
 70
     0
 10
0.0
 20
0.0
 30
0.0
  3
MARK_OPEN
  1
MARK_OPEN
  0
LINE
  5
AD
330
AC
100
AcDbEntity
  8
0
 62
     0
100
AcDbLine
 10
0.0
 20
0.0
 30
0.0
 11
-1.0
 21
0.1666666666666667
 31
0.0
  0
LINE
  5
AE
330
AC
100
AcDbEntity
  8
0
 62
     0
100
AcDbLine
 10
0.0
 20
0.0
 30
0.0
 11
-1.0
 21
-0.1666666666666667
 31
0.0
  0
ENDBLK
  5
B0
330
AC
100
AcDbEntity
  8
0
100
AcDbBlockEnd
  0
BLOCK
  5
B3
330
B1
100
AcDbEntity
  8
0
100
AcDbBlockBegin
  2
MARK_ORIGIN
 70
     0
 10
0.0
 20
0.0
 30
0.0
  3
MARK_ORIGIN
  1
MARK_ORIGIN
  0
CIRCLE
  5
B2
330
B1
100
AcDbEntity
  8
0
 62
     0
100
AcDbCircle
 10
0.0
 20
0.0
 30
0.0
 40
0.5
  0
ENDBLK
  5
B4
330
B1
100
AcDbEntity
  8
0
100
AcDbBlockEnd
  0
BLOCK
  5
B7
330
B5
100
AcDbEntity
  8
0
100
AcDbBlockBegin
  2
MARK_DOT
 70
     0
 10
0.0
 20
0.0
 30
0.0
  3
MARK_DOT
  1
MARK_DOT
  0
LWPOLYLINE
  5
B6
330
B5
100
AcDbEntity
  8
0
 62
     0
100
AcDbPolyline
 90
        2
 70
     1
 43
0.5
 10
-0.25
 20
0.0
 42
1.0
 10
0.25
 20
0.0
 42
1.0
  0
ENDBLK
  5
B8
330
B5
100
AcDbEntity
  8
0
100
AcDbBlockEnd
  0
BLOCK
  5
E4
330
E3
100
AcDbEntity
  8
0
100
AcDbBlockBegin
  2
*G16
 70
     1
 10
0.0
 20
0.0
 30
0.0
  3
*G16
  1
*G16
  0
LINE
  5
E6
330
E3
100
AcDbEntity
  8
12
  6
Continuous
 62
     5
370
    53
100
AcDbLine
 10
180.9999992759999
 20
0.0
 30
0.0
 11
180.9999992759999
 21
282.9999999999999
 31
0.0
  0
LINE
  5
E7
330
E3
100
AcDbEntity
  8
12
  6
Continuous
 62
     5
370
    53
100
AcDbLine
 10
0.0
 20
282.9999999999999
 30
0.0
 11
180.9999992759999
 21
282.9999999999999
 31
0.0
  0
LINE
  5
E8
330
E3
100
AcDbEntity
  8
12
  6
Continuous
 62
     5
370
    53
100
AcDbLine
 10
180.9999992759999
 20
0.0
 30
0.0
 11
0.0
 21
0.0
 31
0.0
  0
LINE
  5
E9
330
E3
100
AcDbEntity
  8
12
  6
Continuous
 62
     5
370
    53
100
AcDbLine
 10
0.0
 20
0.0
 30
0.0
 11
0.0
 21
282.9999999999999
 31
0.0
  0
ENDBLK
  5
E5
330
E3
100
AcDbEntity
  8
0
100
AcDbBlockEnd
  0
ENDSEC
  0
SECTION
  2
ENTITIES
  0
INSERT
  5
EA
330
1F
100
AcDbEntity
  8
0
100
AcDbBlockReference
  2
*G16
 10
0.0
 20
0.0
 30
0.0
  0
LINE
  5
EB
330
1F
100
AcDbEntity
  8
9
  6
Continuous
 62
     7
370
    35
100
AcDbLine
 10
140.9999992759999
 20
276.9999999999999
 30
0.0
 11
180.9999992759999
 21
276.9999999999999
 31
0.0
  0
LINE
  5
EC
330
1F
100
AcDbEntity
  8
9
  6
Continuous
 62
     7
370
    35
100
AcDbLine
 10
140.9999992759999
 20
270.9999999999999
 30
0.0
 11
180.9999992759999
 21
270.9999999999999
 31
0.0
  0
MTEXT
  5
ED
330
1F
100
AcDbEntity
  8
6
  6
Continuous
 62
     3
370
     9
100
AcDbMText
 10
165.9999992759999
 20
279.9999999999999
 30
0.0
 40
3.3
 41
18.04110721644
 71
     5
 72
     1
  1
{\fＭＳ Ｐゴシック;\W0.714286;名      称}
 73
     1
 44
1.0
1001
ACAD
1000
ACAD_MTEXT_DEFINED_HEIGHT_BEGIN
1070
    46
1040
3.3
1000
ACAD_MTEXT_DEFINED_HEIGHT_END
  0
MTEXT
  5
EE
330
1F
100
AcDbEntity
  8
6
  6
Continuous
 62
     3
370
     9
100
AcDbMText
 10
145.9999992759999
 20
273.9999999999999
 30
0.0
 40
3.3
 41
1.007490402996
 71
     5
 72
     1
  1
{\fＭＳ Ｐゴシック;\W0.714286;1}
 73
     1
 44
1.0
1001
ACAD
1000
ACAD_MTEXT_DEFINED_HEIGHT_BEGIN
1070
    46
1040
3.3
1000
ACAD_MTEXT_DEFINED_HEIGHT_END
  0
MTEXT
  5
EF
330
1F
100
AcDbEntity
  8
6
  6
Continuous
 62
     3
370
     9
100
AcDbMText
 10
145.9999992759999
 20
279.9999999999999
 30
0.0
 40
3.3
 41
9.258200846135999
 71
     5
 72
     1
  1
{\fＭＳ Ｐゴシック;\W0.714286;番号}
 73
     1
 44
1.0
1001
ACAD
1000
ACAD_MTEXT_DEFINED_HEIGHT_BEGIN
1070
    46
1040
3.3
1000
ACAD_MTEXT_DEFINED_HEIGHT_END
  0
LINE
  5
F0
330
1F
100
AcDbEntity
  8
9
  6
Continuous
 62
     7
370
    35
100
AcDbLine
 10
140.9999992759999
 20
264.9999999999999
 30
0.0
 11
180.9999992759999
 21
264.9999999999999
 31
0.0
  0
LINE
  5
F1
330
1F
100
AcDbEntity
  8
9
  6
Continuous
 62
     7
370
    35
100
AcDbLine
 10
140.9999992759999
 20
264.9999999999999
 30
0.0
 11
140.9999992759999
 21
282.9999999999999
 31
0.0
  0
LINE
  5
F2
330
1F
100
AcDbEntity
  8
9
  6
Continuous
 62
     7
370
    35
100
AcDbLine
 10
150.9999992759999
 20
282.9999999999999
 30
0.0
 11
150.9999992759999
 21
264.9999999999999
 31
0.0
  0
MTEXT
  5
F3
330
1F
100
AcDbEntity
  8
6
  6
Continuous
 62
     3
370
     9
100
AcDbMText
 10
145.9999992759999
 20
267.9999999999999
 30
0.0
 40
3.3
 41
1.937996489484
 71
     5
 72
     1
  1
{\fＭＳ Ｐゴシック;\W0.714286;2}
 73
     1
 44
1.0
1001
ACAD
1000
ACAD_MTEXT_DEFINED_HEIGHT_BEGIN
1070
    46
1040
3.3
1000
ACAD_MTEXT_DEFINED_HEIGHT_END
  0
CIRCLE
  5
F4
330
1F
100
AcDbEntity
  8
6
  6
Continuous
 62
     3
370
    25
100
AcDbCircle
 10
127.7036363854261
 20
50.99728485067783
 30
0.0
 40
3.03709606549592
  0
INSERT
  5
F5
330
1F
100
AcDbEntity
  8
6
  6
Continuous
 62
     3
370
    25
100
AcDbBlockReference
  2
_OPEN
 10
113.2493351216817
 20
73.34118545437218
 30
0.0
 41
2.3
 42
2.3
 43
2.3
 50
122.8988859076959
  0
POLYLINE
  5
F6
330
1F
100
AcDbEntity
  8
6
  6
Continuous
 62
     3
370
    25
100
AcDb2dPolyline
 66
     1
 10
0.0
 20
0.0
 30
0.0
  0
VERTEX
  5
F7
330
F6
100
AcDbEntity
  8
6
  6
Continuous
 62
     3
370
    25
100
AcDbVertex
100
AcDb2dVertex
 10
113.2493351216817
 20
73.34118545437218
 30
0.0
  0
VERTEX
  5
F8
330
F6
100
AcDbEntity
  8
6
  6
Continuous
 62
     3
370
    25
100
AcDbVertex
100
AcDb2dVertex
 10
126.0540129847113
 20
53.54732311448197
 30
0.0
  0
SEQEND
  5
F9
330
F6
100
AcDbEntity
  8
6
  6
Continuous
 62
     3
370
    25
  0
MTEXT
  5
FA
330
1F
100
AcDbEntity
  8
6
  6
Continuous
 62
     3
370
     9
100
AcDbMText
 10
127.7036363854261
 20
50.99728485067783
 30
0.0
 40
3.3
 41
1.937996489484
 71
     5
 72
     1
  1
{\fＭＳ Ｐゴシック;\W0.714286;2}
 73
     1
 44
1.0
1001
ACAD
1000
ACAD_MTEXT_DEFINED_HEIGHT_BEGIN
1070
    46
1040
3.3
1000
ACAD_MTEXT_DEFINED_HEIGHT_END
  0
POLYLINE
  5
FB
330
1F
100
AcDbEntity
  8
4
  6
PHANTOM
 62
     2
370
    25
100
AcDb2dPolyline
 66
     1
 10
0.0
 20
0.0
 30
0.0
  0
VERTEX
  5
FC
330
FB
100
AcDbEntity
  8
4
  6
PHANTOM
 62
     2
370
    25
100
AcDbVertex
100
AcDb2dVertex
 10
107.4999996379997
 20
183.5499999999997
 30
0.0
  0
VERTEX
  5
FD
330
FB
100
AcDbEntity
  8
4
  6
PHANTOM
 62
     2
370
    25
100
AcDbVertex
100
AcDb2dVertex
 10
107.4999996379997
 20
204.3877176511456
 30
0.0
  0
SEQEND
  5
FE
330
FB
100
AcDbEntity
  8
4
  6
PHANTOM
 62
     2
370
    25
  0
ARC
  5
FF
330
1F
100
AcDbEntity
  8
4
  6
PHANTOM
 62
     2
370
    25
100
AcDbCircle
 10
98.99999963799996
 20
209.1127176511461
 30
0.0
 40
9.724999999999966
100
AcDbArc
 50
209.06891016108
 51
330.9310898389157
  0
ARC
  5
100
330
1F
100
AcDbEntity
  8
4
  6
PHANTOM
 62
     2
370
    25
100
AcDbCircle
 10
81.99999963799951
 20
199.6627176511458
 30
0.0
 40
9.725000000000023
100
AcDbArc
 50
29.06891016107854
 51
150.9310898389221
  0
POLYLINE
  5
101
330
1F
100
AcDbEntity
  8
4
  6
PHANTOM
 62
     2
370
    25
100
AcDb2dPolyline
 66
     1
 10
0.0
 20
0.0
 30
0.0
  0
VERTEX
  5
102
330
101
100
AcDbEntity
  8
4
  6
PHANTOM
 62
     2
370
    25
100
AcDbVertex
100
AcDb2dVertex
 10
73.49999963799974
 20
204.3877176511453
 30
0.0
  0
VERTEX
  5
103
330
101
100
AcDbEntity
  8
4
  6
PHANTOM
 62
     2
370
    25
100
AcDbVertex
100
AcDb2dVertex
 10
73.49999963799974
 20
183.5499999999997
 30
0.0
  0
SEQEND
  5
104
330
101
100
AcDbEntity
  8
4
  6
PHANTOM
 62
     2
370
    25
  0
ARC
  5
105
330
1F
100
AcDbEntity
  8
4
  6
PHANTOM
 62
     2
370
    25
100
AcDbCircle
 10
109.4999996380011
 20
154.0960160262164
 30
0.0
 40
5.000000000001307
100
AcDbArc
 50
89.99999999999991
 51
179.9999999999844
  0
ARC
  5
106
330
1F
100
AcDbEntity
  8
4
  6
PHANTOM
 62
     2
370
    25
100
AcDbCircle
 10
109.4999996379975
 20
161.0960160262201
 30
0.0
 40
2.000000000002444
100
AcDbArc
 50
269.9999999999998
 51
359.999999999928
  0
POLYLINE
  5
107
330
1F
100
AcDbEntity
  8
4
  6
PHANTOM
 62
     2
370
    25
100
AcDb2dPolyline
 66
     1
 10
0.0
 20
0.0
 30
0.0
  0
VERTEX
  5
108
330
107
100
AcDbEntity
  8
4
  6
PHANTOM
 62
     2
370
    25
100
AcDbVertex
100
AcDb2dVertex
 10
111.4999996379997
 20
161.0960160262176
 30
0.0
  0
VERTEX
  5
109
330
107
100
AcDbEntity
  8
4
  6
PHANTOM
 62
     2
370
    25
100
AcDbVertex
100
AcDb2dVertex
 10
111.4999996379997
 20
181.5499999999997
 30
0.0
  0
SEQEND
  5
10A
330
107
100
AcDbEntity
  8
4
  6
PHANTOM
 62
     2
370
    25
  0
ARC
  5
10B
330
1F
100
AcDbEntity
  8
4
  6
PHANTOM
 62
     2
370
    25
100
AcDbCircle
 10
109.4999996380013
 20
181.5500000000003
 30
0.0
 40
1.999999999998465
100
AcDbArc
 50
359.9999999999834
 51
89.99999999999991
  0
POLYLINE
  5
10C
330
1F
100
AcDbEntity
  8
4
  6
PHANTOM
 62
     2
370
    25
100
AcDb2dPolyline
 66
     1
 10
0.0
 20
0.0
 30
0.0
  0
VERTEX
  5
10D
330
10C
100
AcDbEntity
  8
4
  6
PHANTOM
 62
     2
370
    25
100
AcDbVertex
100
AcDb2dVertex
 10
109.4999996379997
 20
183.5499999999997
 30
0.0
  0
VERTEX
  5
10E
330
10C
100
AcDbEntity
  8
4
  6
PHANTOM
 62
     2
370
    25
100
AcDbVertex
100
AcDb2dVertex
 10
71.49999963799974
 20
183.5499999999997
 30
0.0
  0
SEQEND
  5
10F
330
10C
100
AcDbEntity
  8
4
  6
PHANTOM
 62
     2
370
    25
  0
ARC
  5
110
330
1F
100
AcDbEntity
  8
4
  6
PHANTOM
 62
     2
370
    25
100
AcDbCircle
 10
71.49999963799928
 20
181.5499999999977
 30
0.0
 40
2.00000000000199
100
AcDbArc
 50
89.99999999999991
 51
179.9999999999414
  0
POLYLINE
  5
111
330
1F
100
AcDbEntity
  8
4
  6
PHANTOM
 62
     2
370
    25
100
AcDb2dPolyline
 66
     1
 10
0.0
 20
0.0
 30
0.0
  0
VERTEX
  5
112
330
111
100
AcDbEntity
  8
4
  6
PHANTOM
 62
     2
370
    25
100
AcDbVertex
100
AcDb2dVertex
 10
69.49999963799974
 20
181.5499999999997
 30
0.0
  0
VERTEX
  5
113
330
111
100
AcDbEntity
  8
4
  6
PHANTOM
 62
     2
370
    25
100
AcDbVertex
100
AcDb2dVertex
 10
69.49999963799974
 20
161.0960160262176
 30
0.0
  0
SEQEND
  5
114
330
111
100
AcDbEntity
  8
4
  6
PHANTOM
 62
     2
370
    25
  0
ARC
  5
115
330
1F
100
AcDbEntity
  8
4
  6
PHANTOM
 62
     2
370
    25
100
AcDbCircle
 10
71.49999963800406
 20
161.0960160262222
 30
0.0
 40
2.00000000000432
100
AcDbArc
 50
180.0000000001299
 51
269.9999999999998
  0
ARC
  5
116
330
1F
100
AcDbEntity
  8
4
  6
PHANTOM
 62
     2
370
    25
100
AcDbCircle
 10
71.49999963799564
 20
154.096016026215
 30
0.0
 40
5.0000000000027
100
AcDbArc
 50
0.0000000000312661
 51
89.99999999999991
  0
ARC
  5
117
330
1F
100
AcDbEntity
  8
4
  6
PHANTOM
 62
     2
370
    25
100
AcDbCircle
 10
98.99999963800019
 20
199.6627176511453
 30
0.0
 40
9.724999999999795
100
AcDbArc
 50
29.06891016108342
 51
150.931089838919
  0
ARC
  5
118
330
1F
100
AcDbEntity
  8
4
  6
PHANTOM
 62
     2
370
    25
100
AcDbCircle
 10
77.99999963800155
 20
143.9394510942773
 30
0.0
 40
1.500000000001819
100
AcDbArc
 50
180.0000000000518
 51
269.9999999999998
  0
POLYLINE
  5
119
330
1F
100
AcDbEntity
  8
4
  6
PHANTOM
 62
     2
370
    25
100
AcDb2dPolyline
 66
     1
 10
0.0
 20
0.0
 30
0.0
  0
VERTEX
  5
11A
330
119
100
AcDbEntity
  8
4
  6
PHANTOM
 62
     2
370
    25
100
AcDbVertex
100
AcDb2dVertex
 10
77.99999963799974
 20
142.439451094276
 30
0.0
  0
VERTEX
  5
11B
330
119
100
AcDbEntity
  8
4
  6
PHANTOM
 62
     2
370
    25
100
AcDbVertex
100
AcDb2dVertex
 10
101.0940508089961
 20
142.439451094276
 30
0.0
  0
VERTEX
  5
11C
330
119
100
AcDbEntity
  8
4
  6
PHANTOM
 62
     2
370
    25
100
AcDbVertex
100
AcDb2dVertex
 10
102.9999996379997
 20
142.439451094276
 30
0.0
  0
SEQEND
  5
11D
330
119
100
AcDbEntity
  8
4
  6
PHANTOM
 62
     2
370
    25
  0
ARC
  5
11E
330
1F
100
AcDbEntity
  8
4
  6
PHANTOM
 62
     2
370
    25
100
AcDbCircle
 10
102.9999996379934
 20
143.9394510942823
 30
0.0
 40
1.500000000006366
100
AcDbArc
 50
269.9999999999998
 51
359.9999999997564
  0
POLYLINE
  5
11F
330
1F
100
AcDbEntity
  8
4
  6
PHANTOM
 62
     2
370
    25
100
AcDb2dPolyline
 66
     1
 10
0.0
 20
0.0
 30
0.0
  0
VERTEX
  5
120
330
11F
100
AcDbEntity
  8
4
  6
PHANTOM
 62
     2
370
    25
100
AcDbVertex
100
AcDb2dVertex
 10
76.49999963799974
 20
154.0960160262177
 30
0.0
  0
VERTEX
  5
121
330
11F
100
AcDbEntity
  8
4
  6
PHANTOM
 62
     2
370
    25
100
AcDbVertex
100
AcDb2dVertex
 10
76.49999963799974
 20
143.939451094276
 30
0.0
  0
SEQEND
  5
122
330
11F
100
AcDbEntity
  8
4
  6
PHANTOM
 62
     2
370
    25
  0
POLYLINE
  5
123
330
1F
100
AcDbEntity
  8
4
  6
PHANTOM
 62
     2
370
    25
100
AcDb2dPolyline
 66
     1
 10
0.0
 20
0.0
 30
0.0
  0
VERTEX
  5
124
330
123
100
AcDbEntity
  8
4
  6
PHANTOM
 62
     2
370
    25
100
AcDbVertex
100
AcDb2dVertex
 10
104.4999996379997
 20
143.939451094276
 30
0.0
  0
VERTEX
  5
125
330
123
100
AcDbEntity
  8
4
  6
PHANTOM
 62
     2
370
    25
100
AcDbVertex
100
AcDb2dVertex
 10
104.4999996379997
 20
154.0960160262177
 30
0.0
  0
SEQEND
  5
126
330
123
100
AcDbEntity
  8
4
  6
PHANTOM
 62
     2
370
    25
  0
MTEXT
  5
127
330
1F
100
AcDbEntity
  8
6
  6
Continuous
 62
     3
370
     9
100
AcDbMText
 10
141.2350753329811
 20
6.921153856491173
 30
0.0
 40
3.3
 41
52.02800938262399
 71
     7
 72
     1
  1
{\fＭＳ Ｐゴシック;\W0.714286;DP-O ガードS,D取付状態}
 73
     1
 44
1.0
1001
ACAD
1000
ACAD_MTEXT_DEFINED_HEIGHT_BEGIN
1070
    46
1040
3.3
1000
ACAD_MTEXT_DEFINED_HEIGHT_END
  0
MTEXT
  5
128
330
1F
100
AcDbEntity
  8
6
  6
Continuous
 62
     3
370
     9
100
AcDbMText
 10
140.9192755943272
 20
2.12711020778718
 30
0.0
 40
3.3
 41
19.14566480112
 71
     7
 72
     1
  1
{\fＭＳ Ｐゴシック;\W0.714286;尺度　1/1}
 73
     1
 44
1.0
1001
ACAD
1000
ACAD_MTEXT_DEFINED_HEIGHT_BEGIN
1070
    46
1040
3.3
1000
ACAD_MTEXT_DEFINED_HEIGHT_END
  0
MTEXT
  5
129
330
1F
100
AcDbEntity
  8
6
  6
Continuous
 62
     3
370
     9
100
AcDbMText
 10
165.9999992759999
 20
273.9999999999999
 30
0.0
 40
3.3
 41
28.07584551604799
 71
     5
 72
     1
  1
{\fＭＳ Ｐゴシック;\W0.714286;DP-O型ヘッド}
 73
     1
 44
1.0
1001
ACAD
1000
ACAD_MTEXT_DEFINED_HEIGHT_BEGIN
1070
    46
1040
3.3
1000
ACAD_MTEXT_DEFINED_HEIGHT_END
  0
MTEXT
  5
12A
330
1F
100
AcDbEntity
  8
6
  6
Continuous
 62
     3
370
     9
100
AcDbMText
 10
165.9999992759999
 20
267.9999999999999
 30
0.0
 40
3.3
 41
19.142317656924
 71
     5
 72
     1
  1
{\fＭＳ Ｐゴシック;\W0.714286;ガードS,D}
 73
     1
 44
1.0
1001
ACAD
1000
ACAD_MTEXT_DEFINED_HEIGHT_BEGIN
1070
    46
1040
3.3
1000
ACAD_MTEXT_DEFINED_HEIGHT_END
  0
LINE
  5
12B
330
1F
100
AcDbEntity
  8
9
  6
Continuous
 62
     7
370
    35
100
AcDbLine
 10
71.67364781566675
 20
85.81802615111927
 30
0.0
 11
71.49999963799974
 21
86.80283390413159
 31
0.0
  0
LINE
  5
12C
330
1F
100
AcDbEntity
  8
9
  6
Continuous
 62
     7
370
    35
100
AcDbLine
 10
109.4999996379997
 20
86.80283390413159
 30
0.0
 11
107.5874883015258
 21
87.14006125366221
 31
0.0
  0
LINE
  5
12D
330
1F
100
AcDbEntity
  8
9
  6
Continuous
 62
     7
370
    35
100
AcDbLine
 10
88.24559492525259
 20
88.4400696531561
 30
0.0
 11
92.75440435074688
 21
88.4400696531561
 31
0.0
  0
LINE
  5
12E
330
1F
100
AcDbEntity
  8
9
  6
Continuous
 62
     7
370
    35
100
AcDbLine
 10
80.07880758023384
 20
88.4400696531561
 30
0.0
 11
82.33321229298144
 21
88.4400696531561
 31
0.0
  0
ARC
  5
12F
330
1F
100
AcDbEntity
  8
9
  6
Continuous
 62
     7
370
    35
100
AcDbCircle
 10
82.33321229298144
 20
87.44006965315565
 30
0.0
 40
1.0
100
AcDbArc
 50
47.91894748810089
 51
146.3490341754165
  0
ARC
  5
130
330
1F
100
AcDbEntity
  8
9
  6
Continuous
 62
     7
370
    35
100
AcDbCircle
 10
79.5339915508107
 20
87.08456965315644
 30
0.0
 40
1.355500000000006
100
AcDbArc
 50
70.26879749381762
 51
125.0000000000075
  0
LINE
  5
131
330
1F
100
AcDbEntity
  8
9
  6
Continuous
 62
     7
370
    35
100
AcDbLine
 10
80.70771219125572
 20
86.80283390413159
 30
0.0
 11
81.50078363538069
 21
87.99420188467182
 31
0.0
  0
LINE
  5
132
330
1F
100
AcDbEntity
  8
9
  6
Continuous
 62
     7
370
    35
100
AcDbLine
 10
80.97943258744817
 20
85.64006125366221
 30
0.0
 11
80.85482022471206
 21
85.81802615111927
 31
0.0
  0
ARC
  5
133
330
1F
100
AcDbEntity
  8
9
  6
Continuous
 62
     7
370
    35
100
AcDbCircle
 10
73.74999963800019
 20
93.43945109427612
 30
0.0
 40
12.5
100
AcDbArc
 50
343.7397952916897
 51
16.26020470830996
  0
LINE
  5
134
330
1F
100
AcDbEntity
  8
9
  6
Continuous
 62
     7
370
    35
100
AcDbLine
 10
87.08648393370595
 20
88.4400696531561
 30
0.0
 11
83.18174043040517
 21
88.4400696531561
 31
0.0
  0
LINE
  5
135
330
1F
100
AcDbEntity
  8
9
  6
Continuous
 62
     7
370
    35
100
AcDbLine
 10
82.04910607688407
 20
86.80283390413159
 30
0.0
 11
83.18174043040517
 21
88.4400696531561
 31
0.0
  0
ARC
  5
136
330
1F
100
AcDbEntity
  8
9
  6
Continuous
 62
     7
370
    35
100
AcDbCircle
 10
84.49999963799974
 20
87.82756066693263
 30
0.0
 40
1.0
100
AcDbArc
 50
37.77114094107834
 51
40.21909874454356
  0
ARC
  5
137
330
1F
100
AcDbEntity
  8
9
  6
Continuous
 62
     7
370
    35
100
AcDbCircle
 10
87.28617205723367
 20
87.14127941806781
 30
0.0
 40
0.1000000000000227
100
AcDbArc
 50
13.29012998977947
 51
164.2012849265698
  0
ARC
  5
138
330
1F
100
AcDbEntity
  8
9
  6
Continuous
 62
     7
370
    35
100
AcDbCircle
 10
87.08648393370595
 20
87.94006965315519
 30
0.0
 40
0.5
100
AcDbArc
 50
13.29012998989008
 51
164.2012849264903
  0
LINE
  5
139
330
1F
100
AcDbEntity
  8
9
  6
Continuous
 62
     7
370
    35
100
AcDbLine
 10
87.8688674789937
 20
86.80283390413159
 30
0.0
 11
87.5730931775388
 21
88.05501069811588
 31
0.0
  0
LINE
  5
13A
330
1F
100
AcDbEntity
  8
9
  6
Continuous
 62
     7
370
    35
100
AcDbLine
 10
86.24507672851814
 20
86.80283390413159
 30
0.0
 11
86.60537188395665
 21
88.07619898719575
 31
0.0
  0
LINE
  5
13B
330
1F
100
AcDbEntity
  8
9
  6
Continuous
 62
     7
370
    35
100
AcDbLine
 10
87.08648393370595
 20
86.80283390413159
 30
0.0
 11
87.18994964728427
 21
87.16850528487565
 31
0.0
  0
LINE
  5
13C
330
1F
100
AcDbEntity
  8
9
  6
Continuous
 62
     7
370
    35
100
AcDbLine
 10
87.46886747899362
 20
86.80283390413159
 30
0.0
 11
87.3834939060007
 21
87.16426762705986
 31
0.0
  0
LINE
  5
13D
330
1F
100
AcDbEntity
  8
9
  6
Continuous
 62
     7
370
    35
100
AcDbLine
 10
88.07745485276746
 20
86.80283390413159
 30
0.0
 11
88.24559492525259
 21
88.4400696531561
 31
0.0
  0
LINE
  5
13E
330
1F
100
AcDbEntity
  8
9
  6
Continuous
 62
     7
370
    35
100
AcDbLine
 10
100.9211916957656
 20
88.4400696531561
 30
0.0
 11
98.66678698301845
 21
88.4400696531561
 31
0.0
  0
LINE
  5
13F
330
1F
100
AcDbEntity
  8
9
  6
Continuous
 62
     7
370
    35
100
AcDbLine
 10
100.2922870847437
 20
86.80283390413159
 30
0.0
 11
99.49921564061876
 21
87.99420188467182
 31
0.0
  0
ARC
  5
140
330
1F
100
AcDbEntity
  8
9
  6
Continuous
 62
     7
370
    35
100
AcDbCircle
 10
107.2499996379997
 20
93.43945109427612
 30
0.0
 40
12.5
100
AcDbArc
 50
163.73979529169
 51
196.2602047083096
  0
LINE
  5
141
330
1F
100
AcDbEntity
  8
9
  6
Continuous
 62
     7
370
    35
100
AcDbLine
 10
93.91351534229398
 20
88.4400696531561
 30
0.0
 11
97.81825884559476
 21
88.4400696531561
 31
0.0
  0
LINE
  5
142
330
1F
100
AcDbEntity
  8
9
  6
Continuous
 62
     7
370
    35
100
AcDbLine
 10
92.75440435074688
 20
88.4400696531561
 30
0.0
 11
92.92254442323247
 21
86.80283390413159
 31
0.0
  0
ARC
  5
143
330
1F
100
AcDbEntity
  8
9
  6
Continuous
 62
     7
370
    35
100
AcDbCircle
 10
93.91351534229398
 20
87.94006965315519
 30
0.0
 40
0.5
100
AcDbArc
 50
15.79871507352389
 51
166.7098700101099
  0
LINE
  5
144
330
1F
100
AcDbEntity
  8
9
  6
Continuous
 62
     7
370
    35
100
AcDbLine
 10
93.53113179700631
 20
86.80283390413159
 30
0.0
 11
93.61650536999923
 21
87.16426762705986
 31
0.0
  0
LINE
  5
145
330
1F
100
AcDbEntity
  8
9
  6
Continuous
 62
     7
370
    35
100
AcDbLine
 10
93.13113179700622
 20
86.80283390413159
 30
0.0
 11
93.42690609846113
 21
88.05501069811588
 31
0.0
  0
ARC
  5
146
330
1F
100
AcDbEntity
  8
9
  6
Continuous
 62
     7
370
    35
100
AcDbCircle
 10
93.7138272187658
 20
87.14127941806781
 30
0.0
 40
0.1000000000000227
100
AcDbArc
 50
15.79871507335928
 51
166.7098700101606
  0
LINE
  5
147
330
1F
100
AcDbEntity
  8
9
  6
Continuous
 62
     7
370
    35
100
AcDbLine
 10
94.75492254748178
 20
86.80283390413159
 30
0.0
 11
94.39462739204282
 21
88.07619898719575
 31
0.0
  0
LINE
  5
148
330
1F
100
AcDbEntity
  8
9
  6
Continuous
 62
     7
370
    35
100
AcDbLine
 10
93.91351534229398
 20
86.80283390413159
 30
0.0
 11
93.81004962871566
 21
87.16850528487565
 31
0.0
  0
ARC
  5
149
330
1F
100
AcDbEntity
  8
9
  6
Continuous
 62
     7
370
    35
100
AcDbCircle
 10
96.49999963799974
 20
87.82756066693263
 30
0.0
 40
1.0
100
AcDbArc
 50
139.7809012554565
 51
142.2288590589217
  0
ARC
  5
14A
330
1F
100
AcDbEntity
  8
9
  6
Continuous
 62
     7
370
    35
100
AcDbCircle
 10
98.66678698301845
 20
87.44006965315565
 30
0.0
 40
1.0
100
AcDbArc
 50
33.65096582459793
 51
132.0810525119172
  0
LINE
  5
14B
330
1F
100
AcDbEntity
  8
9
  6
Continuous
 62
     7
370
    35
100
AcDbLine
 10
98.95089319911582
 20
86.80283390413159
 30
0.0
 11
97.81825884559476
 21
88.4400696531561
 31
0.0
  0
ARC
  5
14C
330
1F
100
AcDbEntity
  8
9
  6
Continuous
 62
     7
370
    35
100
AcDbCircle
 10
101.4660077251892
 20
87.08456965315644
 30
0.0
 40
1.355500000000006
100
AcDbArc
 50
54.99999999999251
 51
109.7312025061824
  0
LINE
  5
14D
330
1F
100
AcDbEntity
  8
9
  6
Continuous
 62
     7
370
    35
100
AcDbLine
 10
100.0205666885513
 20
85.64006125366221
 30
0.0
 11
100.1451790512874
 21
85.81802615111927
 31
0.0
  0
LINE
  5
14E
330
1F
100
AcDbEntity
  8
9
  6
Continuous
 62
     7
370
    35
100
AcDbLine
 10
109.3263514603331
 20
85.81802615111927
 30
0.0
 11
109.4999996379997
 21
86.80283390413159
 31
0.0
  0
ARC
  5
14F
330
1F
100
AcDbEntity
  8
9
  6
Continuous
 62
     7
370
    35
100
AcDbCircle
 10
98.49999963799974
 20
119.4394510942761
 30
0.0
 40
28.0
100
AcDbArc
 50
179.9999999999998
 51
202.0243128370427
  0
LINE
  5
150
330
1F
100
AcDbEntity
  8
9
  6
Continuous
 62
     7
370
    35
100
AcDbLine
 10
68.49999963799974
 20
121.4394510942761
 30
0.0
 11
68.49999963799974
 21
119.2809956490714
 31
0.0
  0
LINE
  5
151
330
1F
100
AcDbEntity
  8
9
  6
Continuous
 62
     7
370
    35
100
AcDbLine
 10
70.49999963799974
 20
119.4394510942761
 30
0.0
 11
70.49999963799974
 21
121.4394510942761
 31
0.0
  0
LINE
  5
152
330
1F
100
AcDbEntity
  8
9
  6
Continuous
 62
     7
370
    35
100
AcDbLine
 10
72.49999963799974
 20
119.4394510942761
 30
0.0
 11
72.49999963799974
 21
121.4394510942761
 31
0.0
  0
ARC
  5
153
330
1F
100
AcDbEntity
  8
9
  6
Continuous
 62
     7
370
    35
100
AcDbCircle
 10
82.49999963799974
 20
119.4394510942761
 30
0.0
 40
28.0
100
AcDbArc
 50
337.9756871629565
 51
0.0
  0
LINE
  5
154
330
1F
100
AcDbEntity
  8
8
  6
Continuous
 62
     4
370
    25
100
AcDbLine
 10
81.42143121472554
 20
152.8608826710019
 30
0.0
 11
80.9865053097401
 21
138.9439492036959
 31
0.0
  0
LINE
  5
155
330
1F
100
AcDbEntity
  8
9
  6
Continuous
 62
     7
370
    35
100
AcDbLine
 10
80.22194541008776
 20
151.6613968663637
 30
0.0
 11
79.83648528367394
 21
139.3272892123846
 31
0.0
  0
LINE
  5
156
330
1F
100
AcDbEntity
  8
9
  6
Continuous
 62
     7
370
    35
100
AcDbLine
 10
101.1635139923255
 20
139.3272892123846
 30
0.0
 11
100.7780538659121
 21
151.6613968663637
 31
0.0
  0
LINE
  5
157
330
1F
100
AcDbEntity
  8
8
  6
Continuous
 62
     4
370
    25
100
AcDbLine
 10
99.57856806127435
 20
152.8608826710019
 30
0.0
 11
100.0134939662598
 21
138.9439492036959
 31
0.0
  0
LINE
  5
158
330
1F
100
AcDbEntity
  8
9
  6
Continuous
 62
     7
370
    35
100
AcDbLine
 10
101.1635139923255
 20
139.3272892123846
 30
0.0
 11
79.83648528367394
 21
139.3272892123846
 31
0.0
  0
LINE
  5
159
330
1F
100
AcDbEntity
  8
9
  6
Continuous
 62
     7
370
    35
100
AcDbLine
 10
79.83648528367394
 20
139.3272892123846
 30
0.0
 11
80.99999963799974
 21
138.9394510942761
 31
0.0
  0
LINE
  5
15A
330
1F
100
AcDbEntity
  8
9
  6
Continuous
 62
     7
370
    35
100
AcDbLine
 10
108.4999996379997
 20
119.4394510942761
 30
0.0
 11
108.4999996379997
 21
121.4394510942761
 31
0.0
  0
LINE
  5
15B
330
1F
100
AcDbEntity
  8
9
  6
Continuous
 62
     7
370
    35
100
AcDbLine
 10
101.1635139923255
 20
139.3272892123846
 30
0.0
 11
99.99999963799971
 21
138.9394510942761
 31
0.0
  0
LINE
  5
15C
330
1F
100
AcDbEntity
  8
9
  6
Continuous
 62
     7
370
    35
100
AcDbLine
 10
100.7780538659121
 20
151.6613968663637
 30
0.0
 11
80.22194541008776
 21
151.6613968663637
 31
0.0
  0
LINE
  5
15D
330
1F
100
AcDbEntity
  8
9
  6
Continuous
 62
     7
370
    35
100
AcDbLine
 10
98.99999963799971
 20
153.4394510942761
 30
0.0
 11
81.99999963799974
 21
153.4394510942761
 31
0.0
  0
LINE
  5
15E
330
1F
100
AcDbEntity
  8
9
  6
Continuous
 62
     7
370
    35
100
AcDbLine
 10
81.99999963799974
 20
153.4394510942761
 30
0.0
 11
80.22194541008776
 21
151.6613968663637
 31
0.0
  0
LINE
  5
15F
330
1F
100
AcDbEntity
  8
9
  6
Continuous
 62
     7
370
    35
100
AcDbLine
 10
98.99999963799971
 20
153.4394510942761
 30
0.0
 11
100.7780538659121
 21
151.6613968663637
 31
0.0
  0
LINE
  5
160
330
1F
100
AcDbEntity
  8
9
  6
Continuous
 62
     7
370
    35
100
AcDbLine
 10
110.4999996379997
 20
119.4394510942761
 30
0.0
 11
110.4999996379997
 21
121.4394510942761
 31
0.0
  0
LINE
  5
161
330
1F
100
AcDbEntity
  8
9
  6
Continuous
 62
     7
370
    35
100
AcDbLine
 10
112.4999996379997
 20
121.4394510942761
 30
0.0
 11
112.4999996379997
 21
119.2809956490714
 31
0.0
  0
LINE
  5
162
330
1F
100
AcDbEntity
  8
9
  6
Continuous
 62
     7
370
    35
100
AcDbLine
 10
96.49999963799974
 20
128.639451094276
 30
0.0
 11
84.49999963799974
 21
128.639451094276
 31
0.0
  0
LINE
  5
163
330
1F
100
AcDbEntity
  8
9
  6
Continuous
 62
     7
370
    35
100
AcDbLine
 10
71.49999963799974
 20
86.80283390413159
 30
0.0
 11
73.41251097447366
 21
87.14006125366221
 31
0.0
  0
LINE
  5
164
330
1F
100
AcDbEntity
  8
9
  6
Continuous
 62
     7
370
    35
100
AcDbLine
 10
100.0205666885513
 20
85.64006125366221
 30
0.0
 11
80.97943258744817
 21
85.64006125366221
 31
0.0
  0
ARC
  5
165
330
1F
100
AcDbEntity
  8
9
  6
Continuous
 62
     7
370
    35
100
AcDbCircle
 10
85.43930468567532
 20
120.2854991568477
 30
0.0
 40
11.0
100
AcDbArc
 50
128.1196922672785
 51
129.1125601043213
  0
MTEXT
  5
166
330
1F
100
AcDbEntity
  8
9
  6
Continuous
 62
     7
370
     9
100
AcDbMText
 10
72.62235086401438
 20
72.8938126668711
 30
0.0
 40
4.4
 41
12.317483743488
 71
     7
 72
     1
  1
{\fＭＳ Ｐゴシック;\W0.510204;　　　　}
 73
     1
 44
1.0
1001
ACAD
1000
ACAD_MTEXT_DEFINED_HEIGHT_BEGIN
1070
    46
1040
4.4
1000
ACAD_MTEXT_DEFINED_HEIGHT_END
  0
ARC
  5
167
330
1F
100
AcDbEntity
  8
9
  6
Continuous
 62
     7
370
    35
100
AcDbCircle
 10
90.49999963799951
 20
99.93945109427591
 30
0.0
 40
35.0
100
AcDbArc
 50
179.9999999999996
 51
245.2923958900027
  0
ARC
  5
168
330
1F
100
AcDbEntity
  8
9
  6
Continuous
 62
     7
370
    35
100
AcDbCircle
 10
90.49999963799951
 20
99.93945109427591
 30
0.0
 40
31.0
100
AcDbArc
 50
181.8485716452261
 51
238.9270490278468
  0
LINE
  5
169
330
1F
100
AcDbEntity
  8
9
  6
Continuous
 62
     7
370
    35
100
AcDbLine
 10
78.49999963799951
 20
71.35623923836295
 30
0.0
 11
78.49999963799951
 21
98.93945109427591
 31
0.0
  0
LINE
  5
16A
330
1F
100
AcDbEntity
  8
9
  6
Continuous
 62
     7
370
    35
100
AcDbLine
 10
76.99999963799951
 20
67.6478113093408
 30
0.0
 11
76.99999963799951
 21
100.4394510942759
 31
0.0
  0
LINE
  5
16B
330
1F
100
AcDbEntity
  8
9
  6
Continuous
 62
     7
370
    35
100
AcDbLine
 10
75.99999963799951
 20
67.6478113093408
 30
0.0
 11
75.99999963799951
 21
100.4394510942759
 31
0.0
  0
LINE
  5
16C
330
1F
100
AcDbEntity
  8
9
  6
Continuous
 62
     7
370
    35
100
AcDbLine
 10
74.49999963799951
 20
73.3876149995724
 30
0.0
 11
74.49999963799951
 21
98.9394510942758
 31
0.0
  0
LINE
  5
16D
330
1F
100
AcDbEntity
  8
9
  6
Continuous
 62
     7
370
    35
100
AcDbLine
 10
104.9999996379995
 20
67.6478113093408
 30
0.0
 11
104.9999996379995
 21
100.4394510942759
 31
0.0
  0
LINE
  5
16E
330
1F
100
AcDbEntity
  8
9
  6
Continuous
 62
     7
370
    35
100
AcDbLine
 10
103.9999996379995
 20
67.6478113093408
 30
0.0
 11
103.9999996379995
 21
100.4394510942759
 31
0.0
  0
LINE
  5
16F
330
1F
100
AcDbEntity
  8
9
  6
Continuous
 62
     7
370
    35
100
AcDbLine
 10
102.4999996379995
 20
71.35623923836295
 30
0.0
 11
102.4999996379995
 21
98.93945109427591
 31
0.0
  0
ARC
  5
170
330
1F
100
AcDbEntity
  8
9
  6
Continuous
 62
     7
370
    35
100
AcDbCircle
 10
90.49999963799951
 20
99.93945109427591
 30
0.0
 40
31.0
100
AcDbArc
 50
301.072950972152
 51
358.1514283547723
  0
ARC
  5
171
330
1F
100
AcDbEntity
  8
9
  6
Continuous
 62
     7
370
    35
100
AcDbCircle
 10
90.49999963799951
 20
99.93945109427591
 30
0.0
 40
35.0
100
AcDbArc
 50
294.707604109996
 51
0.0
  0
LINE
  5
172
330
1F
100
AcDbEntity
  8
9
  6
Continuous
 62
     7
370
    35
100
AcDbLine
 10
106.4999996379995
 20
73.3876149995724
 30
0.0
 11
106.4999996379995
 21
98.9394510942758
 31
0.0
  0
ARC
  5
173
330
1F
100
AcDbEntity
  8
9
  6
Continuous
 62
     7
370
    35
100
AcDbCircle
 10
90.49999963799951
 20
99.93945109427591
 30
0.0
 40
31.0
100
AcDbArc
 50
247.2260275993402
 51
292.7739724006586
  0
ARC
  5
174
330
1F
100
AcDbEntity
  8
9
  6
Continuous
 62
     7
370
    35
100
AcDbCircle
 10
90.49999963799951
 20
99.93945109427591
 30
0.0
 40
35.0
100
AcDbArc
 50
247.3119088491273
 51
292.6880911508714
  0
LINE
  5
175
330
1F
100
AcDbEntity
  8
9
  6
Continuous
 62
     7
370
    35
100
AcDbLine
 10
76.99999963799951
 20
67.6478113093408
 30
0.0
 11
78.49999963799951
 21
71.35623923836295
 31
0.0
  0
LINE
  5
176
330
1F
100
AcDbEntity
  8
9
  6
Continuous
 62
     7
370
    35
100
AcDbLine
 10
75.99999963799951
 20
67.6478113093408
 30
0.0
 11
74.49999963799951
 21
73.3876149995724
 31
0.0
  0
LINE
  5
177
330
1F
100
AcDbEntity
  8
9
  6
Continuous
 62
     7
370
    35
100
AcDbLine
 10
76.99999963799951
 20
67.6478113093408
 30
0.0
 11
75.99999963799951
 21
67.6478113093408
 31
0.0
  0
LINE
  5
178
330
1F
100
AcDbEntity
  8
9
  6
Continuous
 62
     7
370
    35
100
AcDbLine
 10
104.9999996379995
 20
67.6478113093408
 30
0.0
 11
106.4999996379995
 21
73.3876149995724
 31
0.0
  0
LINE
  5
179
330
1F
100
AcDbEntity
  8
9
  6
Continuous
 62
     7
370
    35
100
AcDbLine
 10
103.9999996379995
 20
67.6478113093408
 30
0.0
 11
102.4999996379995
 21
71.35623923836295
 31
0.0
  0
LINE
  5
17A
330
1F
100
AcDbEntity
  8
9
  6
Continuous
 62
     7
370
    35
100
AcDbLine
 10
103.9999996379995
 20
67.6478113093408
 30
0.0
 11
104.9999996379995
 21
67.6478113093408
 31
0.0
  0
LINE
  5
17B
330
1F
100
AcDbEntity
  8
9
  6
Continuous
 62
     7
370
    35
100
AcDbLine
 10
125.4857110070713
 20
100.4394510942759
 30
0.0
 11
55.51428826892788
 21
100.4394510942759
 31
0.0
  0
LINE
  5
17C
330
1F
100
AcDbEntity
  8
9
  6
Continuous
 62
     7
370
    35
100
AcDbLine
 10
125.4857110070713
 20
101.4394510942759
 30
0.0
 11
55.51428826892788
 21
101.4394510942759
 31
0.0
  0
LINE
  5
17D
330
1F
100
AcDbEntity
  8
9
  6
Continuous
 62
     7
370
    35
100
AcDbLine
 10
102.4999996379995
 20
98.93945109427591
 30
0.0
 11
78.49999963799951
 21
98.93945109427591
 31
0.0
  0
LINE
  5
17E
330
1F
100
AcDbEntity
  8
9
  6
Continuous
 62
     7
370
    35
100
AcDbLine
 10
102.4999996379995
 20
102.9394510942759
 30
0.0
 11
78.49999963799951
 21
102.9394510942759
 31
0.0
  0
LINE
  5
17F
330
1F
100
AcDbEntity
  8
9
  6
Continuous
 62
     7
370
    35
100
AcDbLine
 10
111.4999996379995
 20
138.9394510942759
 30
0.0
 11
69.49999963799951
 21
138.9394510942759
 31
0.0
  0
LINE
  5
180
330
1F
100
AcDbEntity
  8
9
  6
Continuous
 62
     7
370
    35
100
AcDbLine
 10
59.49999963799951
 20
102.9394510942759
 30
0.0
 11
59.49999963799951
 21
121.7240891701138
 31
0.0
  0
LINE
  5
181
330
1F
100
AcDbEntity
  8
9
  6
Continuous
 62
     7
370
    35
100
AcDbLine
 10
55.49999963799951
 20
99.93945109427591
 30
0.0
 11
55.49999963799951
 21
126.9394510942759
 31
0.0
  0
LINE
  5
182
330
1F
100
AcDbEntity
  8
9
  6
Continuous
 62
     7
370
    35
100
AcDbLine
 10
75.99999963799951
 20
101.4394510942759
 30
0.0
 11
75.99999963799951
 21
131.2681025484026
 31
0.0
  0
LINE
  5
183
330
1F
100
AcDbEntity
  8
9
  6
Continuous
 62
     7
370
    35
100
AcDbLine
 10
76.99999963799951
 20
101.4394510942759
 30
0.0
 11
76.99999963799951
 21
131.2681025484026
 31
0.0
  0
LINE
  5
184
330
1F
100
AcDbEntity
  8
9
  6
Continuous
 62
     7
370
    35
100
AcDbLine
 10
74.49999963799951
 20
102.9394510942759
 30
0.0
 11
74.49999963799951
 21
128.9394510942759
 31
0.0
  0
LINE
  5
185
330
1F
100
AcDbEntity
  8
9
  6
Continuous
 62
     7
370
    35
100
AcDbLine
 10
78.49999963799951
 20
102.9394510942759
 30
0.0
 11
78.49999963799951
 21
128.9394510942759
 31
0.0
  0
LINE
  5
186
330
1F
100
AcDbEntity
  8
9
  6
Continuous
 62
     7
370
    35
100
AcDbLine
 10
74.49999963799951
 20
102.9394510942759
 30
0.0
 11
59.49999963799951
 21
102.9394510942758
 31
0.0
  0
LINE
  5
187
330
1F
100
AcDbEntity
  8
9
  6
Continuous
 62
     7
370
    35
100
AcDbLine
 10
74.49999963799974
 20
98.93945109427591
 30
0.0
 11
59.51613286834026
 21
98.93945109427591
 31
0.0
  0
LINE
  5
188
330
1F
100
AcDbEntity
  8
9
  6
Continuous
 62
     7
370
    35
100
AcDbLine
 10
55.51801826085011
 20
101.4173380517339
 30
0.0
 11
59.49999963799951
 21
102.9394510942759
 31
0.0
  0
LINE
  5
189
330
1F
100
AcDbEntity
  8
9
  6
Continuous
 62
     7
370
    35
100
AcDbLine
 10
55.56431505795035
 20
100.4612256250691
 30
0.0
 11
59.51613286834026
 21
98.9394510942758
 31
0.0
  0
LINE
  5
18A
330
1F
100
AcDbEntity
  8
9
  6
Continuous
 62
     7
370
    35
100
AcDbLine
 10
76.99999963799951
 20
101.4394510942759
 30
0.0
 11
78.49999963799951
 21
102.9394510942759
 31
0.0
  0
LINE
  5
18B
330
1F
100
AcDbEntity
  8
9
  6
Continuous
 62
     7
370
    35
100
AcDbLine
 10
75.99999963799951
 20
101.4394510942759
 30
0.0
 11
74.49999963799951
 21
102.9394510942759
 31
0.0
  0
LINE
  5
18C
330
1F
100
AcDbEntity
  8
9
  6
Continuous
 62
     7
370
    35
100
AcDbLine
 10
76.99999963799951
 20
100.4394510942759
 30
0.0
 11
78.49999963799951
 21
98.93945109427591
 31
0.0
  0
LINE
  5
18D
330
1F
100
AcDbEntity
  8
9
  6
Continuous
 62
     7
370
    35
100
AcDbLine
 10
74.49999963799951
 20
98.93945109427591
 30
0.0
 11
75.99999963799951
 21
100.4394510942759
 31
0.0
  0
ARC
  5
18E
330
1F
100
AcDbEntity
  8
9
  6
Continuous
 62
     7
370
    35
100
AcDbCircle
 10
60.8999996379996
 20
126.9394510942759
 30
0.0
 40
5.400000000000006
100
AcDbArc
 50
54.94886325255669
 51
21.73846079152069
  0
ARC
  5
18F
330
1F
100
AcDbEntity
  8
9
  6
Continuous
 62
     7
370
    35
100
AcDbCircle
 10
66.60786731988946
 20
131.4394510942759
 30
0.0
 40
2.593976908265773
100
AcDbArc
 50
151.1913768942259
 51
254.5301850743577
  0
LINE
  5
190
330
1F
100
AcDbEntity
  8
9
  6
Continuous
 62
     7
370
    35
100
AcDbLine
 10
64.3349361285384
 20
132.6894510942759
 30
0.0
 11
67.01436661785738
 21
137.3303608371251
 31
0.0
  0
LINE
  5
191
330
1F
100
AcDbEntity
  8
9
  6
Continuous
 62
     7
370
    35
100
AcDbLine
 10
69.49999963799951
 20
138.9394510942759
 30
0.0
 11
57.9654922068446
 21
131.4725147532703
 31
0.0
  0
CIRCLE
  5
192
330
1F
100
AcDbEntity
  8
9
  6
Continuous
 62
     7
370
    35
100
AcDbCircle
 10
60.8999996379996
 20
126.9394510942759
 30
0.0
 40
4.0
  0
LINE
  5
193
330
1F
100
AcDbEntity
  8
9
  6
Continuous
 62
     7
370
    35
100
AcDbLine
 10
74.99999963799951
 20
129.7156682456514
 30
0.0
 11
74.99999963799951
 21
138.9394510942759
 31
0.0
  0
LINE
  5
194
330
1F
100
AcDbEntity
  8
9
  6
Continuous
 62
     7
370
    35
100
AcDbLine
 10
74.49999963799951
 20
128.9394510942759
 30
0.0
 11
65.91597411959356
 21
128.9394510942759
 31
0.0
  0
LINE
  5
195
330
1F
100
AcDbEntity
  8
9
  6
Continuous
 62
     7
370
    35
100
AcDbLine
 10
76.99999963799951
 20
131.2681025484026
 30
0.0
 11
78.49999963799951
 21
128.9394510942759
 31
0.0
  0
LINE
  5
196
330
1F
100
AcDbEntity
  8
9
  6
Continuous
 62
     7
370
    35
100
AcDbLine
 10
75.99999963799951
 20
131.2681025484026
 30
0.0
 11
76.99999963799951
 21
131.2681025484026
 31
0.0
  0
LINE
  5
197
330
1F
100
AcDbEntity
  8
9
  6
Continuous
 62
     7
370
    35
100
AcDbLine
 10
74.49999963799951
 20
128.9394510942759
 30
0.0
 11
75.99999963799951
 21
131.2681025484026
 31
0.0
  0
LINE
  5
198
330
1F
100
AcDbEntity
  8
9
  6
Continuous
 62
     7
370
    35
100
AcDbLine
 10
121.4999996379995
 20
102.9394510942759
 30
0.0
 11
121.4999996379995
 21
121.7240891701138
 31
0.0
  0
LINE
  5
199
330
1F
100
AcDbEntity
  8
9
  6
Continuous
 62
     7
370
    35
100
AcDbLine
 10
125.4999996379995
 20
99.93945109427591
 30
0.0
 11
125.4999996379995
 21
126.9394510942759
 31
0.0
  0
LINE
  5
19A
330
1F
100
AcDbEntity
  8
9
  6
Continuous
 62
     7
370
    35
100
AcDbLine
 10
102.4999996379995
 20
102.9394510942759
 30
0.0
 11
102.4999996379995
 21
128.9394510942759
 31
0.0
  0
LINE
  5
19B
330
1F
100
AcDbEntity
  8
9
  6
Continuous
 62
     7
370
    35
100
AcDbLine
 10
106.4999996379995
 20
102.9394510942759
 30
0.0
 11
106.4999996379995
 21
128.9394510942759
 31
0.0
  0
LINE
  5
19C
330
1F
100
AcDbEntity
  8
9
  6
Continuous
 62
     7
370
    35
100
AcDbLine
 10
103.9999996379995
 20
101.4394510942759
 30
0.0
 11
103.9999996379995
 21
131.2681025484026
 31
0.0
  0
LINE
  5
19D
330
1F
100
AcDbEntity
  8
9
  6
Continuous
 62
     7
370
    35
100
AcDbLine
 10
104.9999996379995
 20
101.4394510942759
 30
0.0
 11
104.9999996379995
 21
131.2681025484026
 31
0.0
  0
LINE
  5
19E
330
1F
100
AcDbEntity
  8
9
  6
Continuous
 62
     7
370
    35
100
AcDbLine
 10
121.483866407659
 20
98.9394510942758
 30
0.0
 11
106.4999996379995
 21
98.93945109427591
 31
0.0
  0
LINE
  5
19F
330
1F
100
AcDbEntity
  8
9
  6
Continuous
 62
     7
370
    35
100
AcDbLine
 10
121.4999996379995
 20
102.9394510942759
 30
0.0
 11
106.4999996379995
 21
102.9394510942759
 31
0.0
  0
LINE
  5
1A0
330
1F
100
AcDbEntity
  8
9
  6
Continuous
 62
     7
370
    35
100
AcDbLine
 10
104.9999996379995
 20
101.4394510942759
 30
0.0
 11
106.4999996379995
 21
102.9394510942759
 31
0.0
  0
LINE
  5
1A1
330
1F
100
AcDbEntity
  8
9
  6
Continuous
 62
     7
370
    35
100
AcDbLine
 10
103.9999996379995
 20
101.4394510942759
 30
0.0
 11
102.4999996379995
 21
102.9394510942759
 31
0.0
  0
LINE
  5
1A2
330
1F
100
AcDbEntity
  8
9
  6
Continuous
 62
     7
370
    35
100
AcDbLine
 10
106.4999996379995
 20
98.93945109427591
 30
0.0
 11
104.9999996379995
 21
100.4394510942759
 31
0.0
  0
LINE
  5
1A3
330
1F
100
AcDbEntity
  8
9
  6
Continuous
 62
     7
370
    35
100
AcDbLine
 10
103.9999996379995
 20
100.4394510942759
 30
0.0
 11
102.4999996379995
 21
98.93945109427591
 31
0.0
  0
LINE
  5
1A4
330
1F
100
AcDbEntity
  8
9
  6
Continuous
 62
     7
370
    35
100
AcDbLine
 10
125.4819810151489
 20
101.4173380517339
 30
0.0
 11
121.4999996379995
 21
102.9394510942759
 31
0.0
  0
LINE
  5
1A5
330
1F
100
AcDbEntity
  8
9
  6
Continuous
 62
     7
370
    35
100
AcDbLine
 10
125.4356842180491
 20
100.4612256250691
 30
0.0
 11
121.483866407659
 21
98.9394510942758
 31
0.0
  0
ARC
  5
1A6
330
1F
100
AcDbEntity
  8
9
  6
Continuous
 62
     7
370
    35
100
AcDbCircle
 10
120.0999996379996
 20
126.9394510942759
 30
0.0
 40
5.399999999999977
100
AcDbArc
 50
157.3801350519562
 51
125.0511367474433
  0
LINE
  5
1A7
330
1F
100
AcDbEntity
  8
9
  6
Continuous
 62
     7
370
    35
100
AcDbLine
 10
114.4999996379995
 20
128.9394510942759
 30
0.0
 11
106.4999996379995
 21
128.9394510942759
 31
0.0
  0
LINE
  5
1A8
330
1F
100
AcDbEntity
  8
9
  6
Continuous
 62
     7
370
    35
100
AcDbLine
 10
111.4999996379995
 20
138.9394510942759
 30
0.0
 11
123.0345070691546
 21
131.4725147532703
 31
0.0
  0
LINE
  5
1A9
330
1F
100
AcDbEntity
  8
9
  6
Continuous
 62
     7
370
    35
100
AcDbLine
 10
105.9999996379995
 20
129.7156682456514
 30
0.0
 11
105.9999996379995
 21
138.9394510942759
 31
0.0
  0
LINE
  5
1AA
330
1F
100
AcDbEntity
  8
9
  6
Continuous
 62
     7
370
    35
100
AcDbLine
 10
106.4999996379995
 20
128.9394510942759
 30
0.0
 11
104.9999996379995
 21
131.2681025484026
 31
0.0
  0
LINE
  5
1AB
330
1F
100
AcDbEntity
  8
9
  6
Continuous
 62
     7
370
    35
100
AcDbLine
 10
103.9999996379995
 20
131.2681025484026
 30
0.0
 11
102.4999996379995
 21
128.9394510942759
 31
0.0
  0
LINE
  5
1AC
330
1F
100
AcDbEntity
  8
9
  6
Continuous
 62
     7
370
    35
100
AcDbLine
 10
104.9999996379995
 20
131.2681025484026
 30
0.0
 11
103.9999996379995
 21
131.2681025484026
 31
0.0
  0
LINE
  5
1AD
330
1F
100
AcDbEntity
  8
9
  6
Continuous
 62
     7
370
    35
100
AcDbLine
 10
116.6650631474606
 20
132.6894510942759
 30
0.0
 11
113.9856326581421
 21
137.3303608371251
 31
0.0
  0
ARC
  5
1AE
330
1F
100
AcDbEntity
  8
9
  6
Continuous
 62
     7
370
    35
100
AcDbCircle
 10
114.4999996379995
 20
131.4394510942759
 30
0.0
 40
2.5
100
AcDbArc
 50
269.9999999999998
 51
29.99999999999989
  0
POLYLINE
  5
1AF
330
1F
100
AcDbEntity
  8
9
  6
Continuous
 62
     7
370
    35
100
AcDb2dPolyline
 66
     1
 10
0.0
 20
0.0
 30
0.0
  0
VERTEX
  5
1B0
330
1AF
100
AcDbEntity
  8
9
  6
Continuous
 62
     7
370
    35
100
AcDbVertex
100
AcDb2dVertex
 10
62.88608456401198
 20
130.3794498204688
 30
0.0
  0
VERTEX
  5
1B1
330
1AF
100
AcDbEntity
  8
9
  6
Continuous
 62
     7
370
    35
100
AcDbVertex
100
AcDb2dVertex
 10
63.55648171092002
 20
129.2182879007747
 30
0.0
  0
SEQEND
  5
1B2
330
1AF
100
AcDbEntity
  8
9
  6
Continuous
 62
     7
370
    35
  0
LINE
  5
1B3
330
1F
100
AcDbEntity
  8
9
  6
Continuous
 62
     7
370
    35
100
AcDbLine
 10
64.81443443277635
 20
126.9394498730001
 30
0.0
 11
64.2711130183011
 21
127.8805101677115
 31
0.0
  0
LINE
  5
1B4
330
1F
100
AcDbEntity
  8
9
  6
Continuous
 62
     7
370
    35
100
AcDbLine
 10
63.40053849535661
 20
129.3883894732262
 30
0.0
 11
62.85721706861432
 21
130.3294497891848
 31
0.0
  0
LINE
  5
1B5
330
1F
100
AcDbEntity
  8
9
  6
Continuous
 62
     7
370
    35
100
AcDbLine
 10
62.85721707481571
 20
123.5494498624938
 30
0.0
 11
63.40053849535661
 21
124.4905101677114
 31
0.0
  0
LINE
  5
1B6
330
1F
100
AcDbEntity
  8
9
  6
Continuous
 62
     7
370
    35
100
AcDbLine
 10
64.2711130183011
 20
125.9983894732262
 30
0.0
 11
64.81443451002701
 21
126.9394499017397
 31
0.0
  0
POLYLINE
  5
1B7
330
1F
100
AcDbEntity
  8
9
  6
Continuous
 62
     7
370
    35
100
AcDb2dPolyline
 66
     1
 10
0.0
 20
0.0
 30
0.0
  0
VERTEX
  5
1B8
330
1B7
100
AcDbEntity
  8
9
  6
Continuous
 62
     7
370
    35
100
AcDbVertex
100
AcDb2dVertex
 10
64.20177234311609
 20
128.1006117401627
 30
0.0
  0
VERTEX
  5
1B9
330
1B7
100
AcDbEntity
  8
9
  6
Continuous
 62
     7
370
    35
100
AcDbVertex
100
AcDb2dVertex
 10
64.87216949002413
 20
126.9394498204688
 30
0.0
  0
VERTEX
  5
1BA
330
1B7
100
AcDbEntity
  8
9
  6
Continuous
 62
     7
370
    35
100
AcDbVertex
100
AcDb2dVertex
 10
64.20177234311609
 20
125.7782879007748
 30
0.0
  0
SEQEND
  5
1BB
330
1B7
100
AcDbEntity
  8
9
  6
Continuous
 62
     7
370
    35
  0
LINE
  5
1BC
330
1F
100
AcDbEntity
  8
9
  6
Continuous
 62
     7
370
    35
100
AcDbLine
 10
58.94278222544676
 20
123.5494498204688
 30
0.0
 11
60.02942511505535
 21
123.5494498204688
 31
0.0
  0
LINE
  5
1BD
330
1F
100
AcDbEntity
  8
9
  6
Continuous
 62
     7
370
    35
100
AcDbLine
 10
61.77057416094408
 20
123.5494498204688
 30
0.0
 11
62.85721705055244
 21
123.5494498204688
 31
0.0
  0
POLYLINE
  5
1BE
330
1F
100
AcDbEntity
  8
9
  6
Continuous
 62
     7
370
    35
100
AcDb2dPolyline
 66
     1
 10
0.0
 20
0.0
 30
0.0
  0
VERTEX
  5
1BF
330
1BE
100
AcDbEntity
  8
9
  6
Continuous
 62
     7
370
    35
100
AcDbVertex
100
AcDb2dVertex
 10
63.55648171092002
 20
124.6606117401627
 30
0.0
  0
VERTEX
  5
1C0
330
1BE
100
AcDbEntity
  8
9
  6
Continuous
 62
     7
370
    35
100
AcDbVertex
100
AcDb2dVertex
 10
62.88608456401198
 20
123.499449820469
 30
0.0
  0
VERTEX
  5
1C1
330
1BE
100
AcDbEntity
  8
9
  6
Continuous
 62
     7
370
    35
100
AcDbVertex
100
AcDb2dVertex
 10
61.54529027019657
 20
123.499449820469
 30
0.0
  0
SEQEND
  5
1C2
330
1BE
100
AcDbEntity
  8
9
  6
Continuous
 62
     7
370
    35
  0
LINE
  5
1C3
330
1F
100
AcDbEntity
  8
9
  6
Continuous
 62
     7
370
    35
100
AcDbLine
 10
58.94278222544676
 20
123.5494498204688
 30
0.0
 11
58.39946078064258
 21
124.4905101677114
 31
0.0
  0
LINE
  5
1C4
330
1F
100
AcDbEntity
  8
9
  6
Continuous
 62
     7
370
    35
100
AcDbLine
 10
57.5288862576981
 20
125.9983894732262
 30
0.0
 11
56.98556477105603
 21
126.9394498929344
 31
0.0
  0
POLYLINE
  5
1C5
330
1F
100
AcDbEntity
  8
9
  6
Continuous
 62
     7
370
    35
100
AcDb2dPolyline
 66
     1
 10
0.0
 20
0.0
 30
0.0
  0
VERTEX
  5
1C6
330
1C5
100
AcDbEntity
  8
9
  6
Continuous
 62
     7
370
    35
100
AcDbVertex
100
AcDb2dVertex
 10
60.25470900580285
 20
123.499449820469
 30
0.0
  0
VERTEX
  5
1C7
330
1C5
100
AcDbEntity
  8
9
  6
Continuous
 62
     7
370
    35
100
AcDbVertex
100
AcDb2dVertex
 10
58.91391471198722
 20
123.499449820469
 30
0.0
  0
VERTEX
  5
1C8
330
1C5
100
AcDbEntity
  8
9
  6
Continuous
 62
     7
370
    35
100
AcDbVertex
100
AcDb2dVertex
 10
58.2435175650794
 20
124.6606117401627
 30
0.0
  0
SEQEND
  5
1C9
330
1C5
100
AcDbEntity
  8
9
  6
Continuous
 62
     7
370
    35
  0
POLYLINE
  5
1CA
330
1F
100
AcDbEntity
  8
9
  6
Continuous
 62
     7
370
    35
100
AcDb2dPolyline
 66
     1
 10
0.0
 20
0.0
 30
0.0
  0
VERTEX
  5
1CB
330
1CA
100
AcDbEntity
  8
9
  6
Continuous
 62
     7
370
    35
100
AcDbVertex
100
AcDb2dVertex
 10
57.59822693288311
 20
125.7782879007748
 30
0.0
  0
VERTEX
  5
1CC
330
1CA
100
AcDbEntity
  8
9
  6
Continuous
 62
     7
370
    35
100
AcDbVertex
100
AcDb2dVertex
 10
56.92782978597506
 20
126.9394498204688
 30
0.0
  0
VERTEX
  5
1CD
330
1CA
100
AcDbEntity
  8
9
  6
Continuous
 62
     7
370
    35
100
AcDbVertex
100
AcDb2dVertex
 10
57.59822693288334
 20
128.1006117401632
 30
0.0
  0
SEQEND
  5
1CE
330
1CA
100
AcDbEntity
  8
9
  6
Continuous
 62
     7
370
    35
  0
LINE
  5
1CF
330
1F
100
AcDbEntity
  8
9
  6
Continuous
 62
     7
370
    35
100
AcDbLine
 10
56.98556481289415
 20
126.9394498204688
 30
0.0
 11
57.5288862576981
 21
127.8805101677113
 31
0.0
  0
LINE
  5
1D0
330
1F
100
AcDbEntity
  8
9
  6
Continuous
 62
     7
370
    35
100
AcDbLine
 10
58.39946078064258
 20
129.3883894732262
 30
0.0
 11
58.94278222544676
 21
130.3294498204688
 31
0.0
  0
POLYLINE
  5
1D1
330
1F
100
AcDbEntity
  8
9
  6
Continuous
 62
     7
370
    35
100
AcDb2dPolyline
 66
     1
 10
0.0
 20
0.0
 30
0.0
  0
VERTEX
  5
1D2
330
1D1
100
AcDbEntity
  8
9
  6
Continuous
 62
     7
370
    35
100
AcDbVertex
100
AcDb2dVertex
 10
58.24351756507895
 20
129.2182879007743
 30
0.0
  0
VERTEX
  5
1D3
330
1D1
100
AcDbEntity
  8
9
  6
Continuous
 62
     7
370
    35
100
AcDbVertex
100
AcDb2dVertex
 10
58.91391471198722
 20
130.3794498204688
 30
0.0
  0
VERTEX
  5
1D4
330
1D1
100
AcDbEntity
  8
9
  6
Continuous
 62
     7
370
    35
100
AcDbVertex
100
AcDb2dVertex
 10
60.25470900580399
 20
130.3794498204688
 30
0.0
  0
SEQEND
  5
1D5
330
1D1
100
AcDbEntity
  8
9
  6
Continuous
 62
     7
370
    35
  0
POLYLINE
  5
1D6
330
1F
100
AcDbEntity
  8
9
  6
Continuous
 62
     7
370
    35
100
AcDb2dPolyline
 66
     1
 10
0.0
 20
0.0
 30
0.0
  0
VERTEX
  5
1D7
330
1D6
100
AcDbEntity
  8
9
  6
Continuous
 62
     7
370
    35
100
AcDbVertex
100
AcDb2dVertex
 10
61.54529027019521
 20
130.3794498204688
 30
0.0
  0
VERTEX
  5
1D8
330
1D6
100
AcDbEntity
  8
9
  6
Continuous
 62
     7
370
    35
100
AcDbVertex
100
AcDb2dVertex
 10
62.88608456401198
 20
130.3794498204688
 30
0.0
  0
SEQEND
  5
1D9
330
1D6
100
AcDbEntity
  8
9
  6
Continuous
 62
     7
370
    35
  0
LINE
  5
1DA
330
1F
100
AcDbEntity
  8
9
  6
Continuous
 62
     7
370
    35
100
AcDbLine
 10
58.94278222544676
 20
130.3294498204688
 30
0.0
 11
60.02942511505535
 21
130.3294498204688
 31
0.0
  0
LINE
  5
1DB
330
1F
100
AcDbEntity
  8
9
  6
Continuous
 62
     7
370
    35
100
AcDbLine
 10
61.77057416094408
 20
130.3294498204688
 30
0.0
 11
62.85721705055244
 21
130.3294498204688
 31
0.0
  0
LINE
  5
1DC
330
1F
100
AcDbEntity
  8
9
  6
Continuous
 62
     7
370
    35
100
AcDbLine
 10
61.41972312217172
 20
127.4591733046409
 30
0.0
 11
61.82480172050805
 21
127.2702822512678
 31
0.0
  0
LINE
  5
1DD
330
1F
100
AcDbEntity
  8
9
  6
Continuous
 62
     7
370
    35
100
AcDbLine
 10
61.41972312217172
 20
127.4591733046409
 30
0.0
 11
61.23083194869241
 21
127.8642518718456
 31
0.0
  0
LINE
  5
1DE
330
1F
100
AcDbEntity
  8
9
  6
Continuous
 62
     7
370
    35
100
AcDbLine
 10
61.41972312217172
 20
126.4197263362967
 30
0.0
 11
61.82480172050805
 21
126.6086173896698
 31
0.0
  0
LINE
  5
1DF
330
1F
100
AcDbEntity
  8
9
  6
Continuous
 62
     7
370
    35
100
AcDbLine
 10
61.41972312217172
 20
126.4197263362967
 30
0.0
 11
61.23083194869241
 21
126.014647769092
 31
0.0
  0
LINE
  5
1E0
330
1F
100
AcDbEntity
  8
9
  6
Continuous
 62
     7
370
    35
100
AcDbLine
 10
60.38027615382771
 20
127.4591733046409
 30
0.0
 11
59.97519755549138
 21
127.2702822512678
 31
0.0
  0
LINE
  5
1E1
330
1F
100
AcDbEntity
  8
9
  6
Continuous
 62
     7
370
    35
100
AcDbLine
 10
60.38027615382771
 20
127.4591733046409
 30
0.0
 11
60.56916732730679
 21
127.8642518718456
 31
0.0
  0
LINE
  5
1E2
330
1F
100
AcDbEntity
  8
9
  6
Continuous
 62
     7
370
    35
100
AcDbLine
 10
60.38027615382771
 20
126.4197263362967
 30
0.0
 11
59.97519755549138
 21
126.6086173896698
 31
0.0
  0
LINE
  5
1E3
330
1F
100
AcDbEntity
  8
9
  6
Continuous
 62
     7
370
    35
100
AcDbLine
 10
60.38027615382771
 20
126.4197263362967
 30
0.0
 11
60.56916732730679
 21
126.014647769092
 31
0.0
  0
LINE
  5
1E4
330
1F
100
AcDbEntity
  8
9
  6
Continuous
 62
     7
370
    35
100
AcDbLine
 10
61.23083197487426
 20
126.01464774291
 30
0.0
 11
61.40319284767361
 21
124.8394498204688
 31
0.0
  0
LINE
  5
1E5
330
1F
100
AcDbEntity
  8
9
  6
Continuous
 62
     7
370
    35
100
AcDbLine
 10
60.56916730112493
 20
126.01464774291
 30
0.0
 11
60.39680642832582
 21
124.8394498204688
 31
0.0
  0
LINE
  5
1E6
330
1F
100
AcDbEntity
  8
9
  6
Continuous
 62
     7
370
    35
100
AcDbLine
 10
60.39680642832582
 20
124.8394498204688
 30
0.0
 11
61.40319284767361
 21
124.8394498204688
 31
0.0
  0
LINE
  5
1E7
330
1F
100
AcDbEntity
  8
9
  6
Continuous
 62
     7
370
    35
100
AcDbLine
 10
61.82480171555835
 20
127.2702821573434
 30
0.0
 11
62.99999963799974
 21
127.4426430301426
 31
0.0
  0
LINE
  5
1E8
330
1F
100
AcDbEntity
  8
9
  6
Continuous
 62
     7
370
    35
100
AcDbLine
 10
61.82480171555835
 20
126.6086174835941
 30
0.0
 11
62.99999963799974
 21
126.436256610795
 31
0.0
  0
LINE
  5
1E9
330
1F
100
AcDbEntity
  8
9
  6
Continuous
 62
     7
370
    35
100
AcDbLine
 10
60.56916730112493
 20
127.8642518980274
 30
0.0
 11
60.39680642832582
 21
129.0394498204688
 31
0.0
  0
LINE
  5
1EA
330
1F
100
AcDbEntity
  8
9
  6
Continuous
 62
     7
370
    35
100
AcDbLine
 10
61.23083197487426
 20
127.8642518980274
 30
0.0
 11
61.40319284767361
 21
129.0394498204688
 31
0.0
  0
LINE
  5
1EB
330
1F
100
AcDbEntity
  8
9
  6
Continuous
 62
     7
370
    35
100
AcDbLine
 10
59.97519756044085
 20
126.6086174835941
 30
0.0
 11
58.79999963799969
 21
126.436256610795
 31
0.0
  0
LINE
  5
1EC
330
1F
100
AcDbEntity
  8
9
  6
Continuous
 62
     7
370
    35
100
AcDbLine
 10
59.97519756044085
 20
127.2702821573434
 30
0.0
 11
58.79999963799969
 21
127.4426430301426
 31
0.0
  0
LINE
  5
1ED
330
1F
100
AcDbEntity
  8
9
  6
Continuous
 62
     7
370
    35
100
AcDbLine
 10
60.39680642832582
 20
129.0394498204688
 30
0.0
 11
61.40319284767361
 21
129.0394498204688
 31
0.0
  0
LINE
  5
1EE
330
1F
100
AcDbEntity
  8
9
  6
Continuous
 62
     7
370
    35
100
AcDbLine
 10
62.99999963799974
 20
127.4426430301426
 30
0.0
 11
62.99999963799974
 21
126.436256610795
 31
0.0
  0
LINE
  5
1EF
330
1F
100
AcDbEntity
  8
9
  6
Continuous
 62
     7
370
    35
100
AcDbLine
 10
58.79999963799969
 20
127.4426430301426
 30
0.0
 11
58.79999963799969
 21
126.436256610795
 31
0.0
  0
LINE
  5
1F0
330
1F
100
AcDbEntity
  8
9
  6
Continuous
 62
     7
370
    35
100
AcDbLine
 10
59.75499963799962
 20
126.5763220280802
 30
0.0
 11
59.75499963799962
 21
127.3025775736097
 31
0.0
  0
LINE
  5
1F1
330
1F
100
AcDbEntity
  8
9
  6
Continuous
 62
     7
370
    35
100
AcDbLine
 10
61.26312743038829
 20
125.7944498204688
 30
0.0
 11
60.53687188485878
 21
125.7944498204688
 31
0.0
  0
LINE
  5
1F2
330
1F
100
AcDbEntity
  8
9
  6
Continuous
 62
     7
370
    35
100
AcDbLine
 10
62.04499963799958
 20
127.3025776128574
 30
0.0
 11
62.04499963799981
 21
126.5763220673279
 31
0.0
  0
LINE
  5
1F3
330
1F
100
AcDbEntity
  8
9
  6
Continuous
 62
     7
370
    35
100
AcDbLine
 10
60.5368718456109
 20
128.0844498204686
 30
0.0
 11
61.26312739114064
 21
128.0844498204686
 31
0.0
  0
LINE
  5
1F4
330
1F
100
AcDbEntity
  8
9
  6
Continuous
 62
     7
370
    35
100
AcDbLine
 10
59.97519761500143
 20
127.2702822790178
 30
0.0
 11
59.75499963799962
 21
127.4904803529279
 31
0.0
  0
LINE
  5
1F5
330
1F
100
AcDbEntity
  8
9
  6
Continuous
 62
     7
370
    35
100
AcDbLine
 10
58.79999963799969
 20
127.4426430301426
 30
0.0
 11
59.75499963799962
 21
127.4904803529279
 31
0.0
  0
LINE
  5
1F6
330
1F
100
AcDbEntity
  8
9
  6
Continuous
 62
     7
370
    35
100
AcDbLine
 10
60.1600783218928
 20
127.6793713858177
 30
0.0
 11
59.75499972355669
 21
127.4904803324445
 31
0.0
  0
LINE
  5
1F7
330
1F
100
AcDbEntity
  8
9
  6
Continuous
 62
     7
370
    35
100
AcDbLine
 10
60.56916717945069
 20
127.8642518434668
 30
0.0
 11
60.34896910554039
 21
128.0844498204688
 31
0.0
  0
LINE
  5
1F8
330
1F
100
AcDbEntity
  8
9
  6
Continuous
 62
     7
370
    35
100
AcDbLine
 10
60.39680642832582
 20
129.0394498204688
 30
0.0
 11
60.34896910554039
 21
128.0844498204688
 31
0.0
  0
LINE
  5
1F9
330
1F
100
AcDbEntity
  8
9
  6
Continuous
 62
     7
370
    35
100
AcDbLine
 10
60.16007807265078
 20
127.6793711365756
 30
0.0
 11
60.3489691260238
 21
128.0844497349118
 31
0.0
  0
LINE
  5
1FA
330
1F
100
AcDbEntity
  8
9
  6
Continuous
 62
     7
370
    35
100
AcDbLine
 10
60.38027605154275
 20
127.4591730852904
 30
0.0
 11
60.16007830776562
 21
127.67937137923
 31
0.0
  0
LINE
  5
1FB
330
1F
100
AcDbEntity
  8
9
  6
Continuous
 62
     7
370
    35
100
AcDbLine
 10
61.23083209654874
 20
127.8642518434668
 30
0.0
 11
61.45103017045881
 21
128.0844498204686
 31
0.0
  0
LINE
  5
1FC
330
1F
100
AcDbEntity
  8
9
  6
Continuous
 62
     7
370
    35
100
AcDbLine
 10
61.40319284767361
 20
129.0394498204688
 30
0.0
 11
61.45103017045881
 21
128.0844498204686
 31
0.0
  0
LINE
  5
1FD
330
1F
100
AcDbEntity
  8
9
  6
Continuous
 62
     7
370
    35
100
AcDbLine
 10
61.63992120334865
 20
127.6793711365756
 30
0.0
 11
61.4510301499754
 21
128.0844497349118
 31
0.0
  0
LINE
  5
1FE
330
1F
100
AcDbEntity
  8
9
  6
Continuous
 62
     7
370
    35
100
AcDbLine
 10
61.82480166099776
 20
127.2702822790178
 30
0.0
 11
62.04499963799981
 21
127.4904803529279
 31
0.0
  0
LINE
  5
1FF
330
1F
100
AcDbEntity
  8
9
  6
Continuous
 62
     7
370
    35
100
AcDbLine
 10
62.99999963799974
 20
127.4426430301424
 30
0.0
 11
62.04499963799981
 21
127.4904803529279
 31
0.0
  0
LINE
  5
200
330
1F
100
AcDbEntity
  8
9
  6
Continuous
 62
     7
370
    35
100
AcDbLine
 10
61.6399209541064
 20
127.6793713858177
 30
0.0
 11
62.04499955244273
 21
127.4904803324445
 31
0.0
  0
LINE
  5
201
330
1F
100
AcDbEntity
  8
9
  6
Continuous
 62
     7
370
    35
100
AcDbLine
 10
61.41972290282138
 20
127.4591734069257
 30
0.0
 11
61.63992119676095
 21
127.6793711507028
 31
0.0
  0
LINE
  5
202
330
1F
100
AcDbEntity
  8
9
  6
Continuous
 62
     7
370
    35
100
AcDbLine
 10
61.82480166099776
 20
126.6086173619198
 30
0.0
 11
62.04499963799981
 21
126.3884192880098
 31
0.0
  0
LINE
  5
203
330
1F
100
AcDbEntity
  8
9
  6
Continuous
 62
     7
370
    35
100
AcDbLine
 10
62.99999963799974
 20
126.436256610795
 30
0.0
 11
62.04499963799981
 21
126.3884192880098
 31
0.0
  0
LINE
  5
204
330
1F
100
AcDbEntity
  8
9
  6
Continuous
 62
     7
370
    35
100
AcDbLine
 10
61.6399209541064
 20
126.1995282551198
 30
0.0
 11
62.04499955244273
 21
126.3884193084931
 31
0.0
  0
LINE
  5
205
330
1F
100
AcDbEntity
  8
9
  6
Continuous
 62
     7
370
    35
100
AcDbLine
 10
61.23083209654874
 20
126.0146477974707
 30
0.0
 11
61.45103017045881
 21
125.7944498204688
 31
0.0
  0
LINE
  5
206
330
1F
100
AcDbEntity
  8
9
  6
Continuous
 62
     7
370
    35
100
AcDbLine
 10
61.40319284767361
 20
124.8394498204688
 30
0.0
 11
61.45103017045881
 21
125.7944498204688
 31
0.0
  0
LINE
  5
207
330
1F
100
AcDbEntity
  8
9
  6
Continuous
 62
     7
370
    35
100
AcDbLine
 10
61.63992120334865
 20
126.199528504362
 30
0.0
 11
61.4510301499754
 21
125.7944499060258
 31
0.0
  0
LINE
  5
208
330
1F
100
AcDbEntity
  8
9
  6
Continuous
 62
     7
370
    35
100
AcDbLine
 10
61.41972322445645
 20
126.4197265556471
 30
0.0
 11
61.63992096823381
 21
126.1995282617075
 31
0.0
  0
LINE
  5
209
330
1F
100
AcDbEntity
  8
9
  6
Continuous
 62
     7
370
    35
100
AcDbLine
 10
60.56916717945069
 20
126.0146477974707
 30
0.0
 11
60.34896910554039
 21
125.7944498204688
 31
0.0
  0
LINE
  5
20A
330
1F
100
AcDbEntity
  8
9
  6
Continuous
 62
     7
370
    35
100
AcDbLine
 10
60.39680642832582
 20
124.8394498204688
 30
0.0
 11
60.34896910554039
 21
125.7944498204688
 31
0.0
  0
LINE
  5
20B
330
1F
100
AcDbEntity
  8
9
  6
Continuous
 62
     7
370
    35
100
AcDbLine
 10
60.16007807265078
 20
126.199528504362
 30
0.0
 11
60.3489691260238
 21
125.7944499060258
 31
0.0
  0
LINE
  5
20C
330
1F
100
AcDbEntity
  8
9
  6
Continuous
 62
     7
370
    35
100
AcDbLine
 10
59.97519761500143
 20
126.6086173619198
 30
0.0
 11
59.75499963799962
 21
126.3884192880098
 31
0.0
  0
LINE
  5
20D
330
1F
100
AcDbEntity
  8
9
  6
Continuous
 62
     7
370
    35
100
AcDbLine
 10
58.79999963799969
 20
126.436256610795
 30
0.0
 11
59.75499963799962
 21
126.3884192880098
 31
0.0
  0
LINE
  5
20E
330
1F
100
AcDbEntity
  8
9
  6
Continuous
 62
     7
370
    35
100
AcDbLine
 10
60.1600783218928
 20
126.1995282551198
 30
0.0
 11
59.75499972355669
 21
126.3884193084931
 31
0.0
  0
LINE
  5
20F
330
1F
100
AcDbEntity
  8
9
  6
Continuous
 62
     7
370
    35
100
AcDbLine
 10
60.38027637317805
 20
126.4197262340118
 30
0.0
 11
60.16007807923847
 21
126.1995284902346
 31
0.0
  0
CIRCLE
  5
210
330
1F
100
AcDbEntity
  8
9
  6
Continuous
 62
     7
370
    35
100
AcDbCircle
 10
60.8999996379996
 20
126.9394498204688
 30
0.0
 40
3.499999999999972
  0
POLYLINE
  5
211
330
1F
100
AcDbEntity
  8
9
  6
Continuous
 62
     7
370
    35
100
AcDb2dPolyline
 66
     1
 10
0.0
 20
0.0
 30
0.0
  0
VERTEX
  5
212
330
211
100
AcDbEntity
  8
9
  6
Continuous
 62
     7
370
    35
100
AcDbVertex
100
AcDb2dVertex
 10
122.086084564012
 20
130.3794498204688
 30
0.0
  0
VERTEX
  5
213
330
211
100
AcDbEntity
  8
9
  6
Continuous
 62
     7
370
    35
100
AcDbVertex
100
AcDb2dVertex
 10
122.75648171092
 20
129.2182879007747
 30
0.0
  0
SEQEND
  5
214
330
211
100
AcDbEntity
  8
9
  6
Continuous
 62
     7
370
    35
  0
LINE
  5
215
330
1F
100
AcDbEntity
  8
9
  6
Continuous
 62
     7
370
    35
100
AcDbLine
 10
124.0144344327764
 20
126.9394498730001
 30
0.0
 11
123.4711130183011
 21
127.8805101677115
 31
0.0
  0
LINE
  5
216
330
1F
100
AcDbEntity
  8
9
  6
Continuous
 62
     7
370
    35
100
AcDbLine
 10
122.6005384953566
 20
129.3883894732262
 30
0.0
 11
122.0572170686143
 21
130.3294497891848
 31
0.0
  0
LINE
  5
217
330
1F
100
AcDbEntity
  8
9
  6
Continuous
 62
     7
370
    35
100
AcDbLine
 10
122.0572170748157
 20
123.5494498624938
 30
0.0
 11
122.6005384953566
 21
124.4905101677114
 31
0.0
  0
LINE
  5
218
330
1F
100
AcDbEntity
  8
9
  6
Continuous
 62
     7
370
    35
100
AcDbLine
 10
123.4711130183011
 20
125.9983894732262
 30
0.0
 11
124.014434510027
 21
126.9394499017397
 31
0.0
  0
POLYLINE
  5
219
330
1F
100
AcDbEntity
  8
9
  6
Continuous
 62
     7
370
    35
100
AcDb2dPolyline
 66
     1
 10
0.0
 20
0.0
 30
0.0
  0
VERTEX
  5
21A
330
219
100
AcDbEntity
  8
9
  6
Continuous
 62
     7
370
    35
100
AcDbVertex
100
AcDb2dVertex
 10
123.4017723431161
 20
128.1006117401627
 30
0.0
  0
VERTEX
  5
21B
330
219
100
AcDbEntity
  8
9
  6
Continuous
 62
     7
370
    35
100
AcDbVertex
100
AcDb2dVertex
 10
124.0721694900242
 20
126.9394498204688
 30
0.0
  0
VERTEX
  5
21C
330
219
100
AcDbEntity
  8
9
  6
Continuous
 62
     7
370
    35
100
AcDbVertex
100
AcDb2dVertex
 10
123.4017723431161
 20
125.7782879007748
 30
0.0
  0
SEQEND
  5
21D
330
219
100
AcDbEntity
  8
9
  6
Continuous
 62
     7
370
    35
  0
LINE
  5
21E
330
1F
100
AcDbEntity
  8
9
  6
Continuous
 62
     7
370
    35
100
AcDbLine
 10
118.1427822254468
 20
123.5494498204688
 30
0.0
 11
119.2294251150554
 21
123.5494498204688
 31
0.0
  0
LINE
  5
21F
330
1F
100
AcDbEntity
  8
9
  6
Continuous
 62
     7
370
    35
100
AcDbLine
 10
120.9705741609441
 20
123.5494498204688
 30
0.0
 11
122.0572170505525
 21
123.5494498204688
 31
0.0
  0
POLYLINE
  5
220
330
1F
100
AcDbEntity
  8
9
  6
Continuous
 62
     7
370
    35
100
AcDb2dPolyline
 66
     1
 10
0.0
 20
0.0
 30
0.0
  0
VERTEX
  5
221
330
220
100
AcDbEntity
  8
9
  6
Continuous
 62
     7
370
    35
100
AcDbVertex
100
AcDb2dVertex
 10
122.75648171092
 20
124.6606117401627
 30
0.0
  0
VERTEX
  5
222
330
220
100
AcDbEntity
  8
9
  6
Continuous
 62
     7
370
    35
100
AcDbVertex
100
AcDb2dVertex
 10
122.086084564012
 20
123.499449820469
 30
0.0
  0
VERTEX
  5
223
330
220
100
AcDbEntity
  8
9
  6
Continuous
 62
     7
370
    35
100
AcDbVertex
100
AcDb2dVertex
 10
120.7452902701966
 20
123.499449820469
 30
0.0
  0
SEQEND
  5
224
330
220
100
AcDbEntity
  8
9
  6
Continuous
 62
     7
370
    35
  0
LINE
  5
225
330
1F
100
AcDbEntity
  8
9
  6
Continuous
 62
     7
370
    35
100
AcDbLine
 10
118.1427822254468
 20
123.5494498204688
 30
0.0
 11
117.5994607806426
 21
124.4905101677114
 31
0.0
  0
LINE
  5
226
330
1F
100
AcDbEntity
  8
9
  6
Continuous
 62
     7
370
    35
100
AcDbLine
 10
116.7288862576981
 20
125.9983894732262
 30
0.0
 11
116.1855647710561
 21
126.9394498929344
 31
0.0
  0
POLYLINE
  5
227
330
1F
100
AcDbEntity
  8
9
  6
Continuous
 62
     7
370
    35
100
AcDb2dPolyline
 66
     1
 10
0.0
 20
0.0
 30
0.0
  0
VERTEX
  5
228
330
227
100
AcDbEntity
  8
9
  6
Continuous
 62
     7
370
    35
100
AcDbVertex
100
AcDb2dVertex
 10
119.4547090058029
 20
123.499449820469
 30
0.0
  0
VERTEX
  5
229
330
227
100
AcDbEntity
  8
9
  6
Continuous
 62
     7
370
    35
100
AcDbVertex
100
AcDb2dVertex
 10
118.1139147119872
 20
123.499449820469
 30
0.0
  0
VERTEX
  5
22A
330
227
100
AcDbEntity
  8
9
  6
Continuous
 62
     7
370
    35
100
AcDbVertex
100
AcDb2dVertex
 10
117.4435175650792
 20
124.6606117401627
 30
0.0
  0
SEQEND
  5
22B
330
227
100
AcDbEntity
  8
9
  6
Continuous
 62
     7
370
    35
  0
POLYLINE
  5
22C
330
1F
100
AcDbEntity
  8
9
  6
Continuous
 62
     7
370
    35
100
AcDb2dPolyline
 66
     1
 10
0.0
 20
0.0
 30
0.0
  0
VERTEX
  5
22D
330
22C
100
AcDbEntity
  8
9
  6
Continuous
 62
     7
370
    35
100
AcDbVertex
100
AcDb2dVertex
 10
116.7982269328831
 20
125.7782879007748
 30
0.0
  0
VERTEX
  5
22E
330
22C
100
AcDbEntity
  8
9
  6
Continuous
 62
     7
370
    35
100
AcDbVertex
100
AcDb2dVertex
 10
116.1278297859751
 20
126.9394498204688
 30
0.0
  0
VERTEX
  5
22F
330
22C
100
AcDbEntity
  8
9
  6
Continuous
 62
     7
370
    35
100
AcDbVertex
100
AcDb2dVertex
 10
116.7982269328834
 20
128.1006117401632
 30
0.0
  0
SEQEND
  5
230
330
22C
100
AcDbEntity
  8
9
  6
Continuous
 62
     7
370
    35
  0
LINE
  5
231
330
1F
100
AcDbEntity
  8
9
  6
Continuous
 62
     7
370
    35
100
AcDbLine
 10
116.1855648128939
 20
126.9394498204688
 30
0.0
 11
116.7288862576981
 21
127.8805101677113
 31
0.0
  0
LINE
  5
232
330
1F
100
AcDbEntity
  8
9
  6
Continuous
 62
     7
370
    35
100
AcDbLine
 10
117.5994607806426
 20
129.3883894732262
 30
0.0
 11
118.1427822254468
 21
130.3294498204688
 31
0.0
  0
POLYLINE
  5
233
330
1F
100
AcDbEntity
  8
9
  6
Continuous
 62
     7
370
    35
100
AcDb2dPolyline
 66
     1
 10
0.0
 20
0.0
 30
0.0
  0
VERTEX
  5
234
330
233
100
AcDbEntity
  8
9
  6
Continuous
 62
     7
370
    35
100
AcDbVertex
100
AcDb2dVertex
 10
117.443517565079
 20
129.2182879007743
 30
0.0
  0
VERTEX
  5
235
330
233
100
AcDbEntity
  8
9
  6
Continuous
 62
     7
370
    35
100
AcDbVertex
100
AcDb2dVertex
 10
118.1139147119872
 20
130.3794498204688
 30
0.0
  0
VERTEX
  5
236
330
233
100
AcDbEntity
  8
9
  6
Continuous
 62
     7
370
    35
100
AcDbVertex
100
AcDb2dVertex
 10
119.454709005804
 20
130.3794498204688
 30
0.0
  0
SEQEND
  5
237
330
233
100
AcDbEntity
  8
9
  6
Continuous
 62
     7
370
    35
  0
POLYLINE
  5
238
330
1F
100
AcDbEntity
  8
9
  6
Continuous
 62
     7
370
    35
100
AcDb2dPolyline
 66
     1
 10
0.0
 20
0.0
 30
0.0
  0
VERTEX
  5
239
330
238
100
AcDbEntity
  8
9
  6
Continuous
 62
     7
370
    35
100
AcDbVertex
100
AcDb2dVertex
 10
120.7452902701952
 20
130.3794498204688
 30
0.0
  0
VERTEX
  5
23A
330
238
100
AcDbEntity
  8
9
  6
Continuous
 62
     7
370
    35
100
AcDbVertex
100
AcDb2dVertex
 10
122.086084564012
 20
130.3794498204688
 30
0.0
  0
SEQEND
  5
23B
330
238
100
AcDbEntity
  8
9
  6
Continuous
 62
     7
370
    35
  0
LINE
  5
23C
330
1F
100
AcDbEntity
  8
9
  6
Continuous
 62
     7
370
    35
100
AcDbLine
 10
118.1427822254468
 20
130.3294498204688
 30
0.0
 11
119.2294251150554
 21
130.3294498204688
 31
0.0
  0
LINE
  5
23D
330
1F
100
AcDbEntity
  8
9
  6
Continuous
 62
     7
370
    35
100
AcDbLine
 10
120.9705741609441
 20
130.3294498204688
 30
0.0
 11
122.0572170505525
 21
130.3294498204688
 31
0.0
  0
LINE
  5
23E
330
1F
100
AcDbEntity
  8
9
  6
Continuous
 62
     7
370
    35
100
AcDbLine
 10
120.6197231221717
 20
127.4591733046409
 30
0.0
 11
121.0248017205078
 21
127.2702822512678
 31
0.0
  0
LINE
  5
23F
330
1F
100
AcDbEntity
  8
9
  6
Continuous
 62
     7
370
    35
100
AcDbLine
 10
120.6197231221717
 20
127.4591733046409
 30
0.0
 11
120.4308319486924
 21
127.8642518718456
 31
0.0
  0
LINE
  5
240
330
1F
100
AcDbEntity
  8
9
  6
Continuous
 62
     7
370
    35
100
AcDbLine
 10
120.6197231221717
 20
126.4197263362967
 30
0.0
 11
121.0248017205078
 21
126.6086173896698
 31
0.0
  0
LINE
  5
241
330
1F
100
AcDbEntity
  8
9
  6
Continuous
 62
     7
370
    35
100
AcDbLine
 10
120.6197231221717
 20
126.4197263362967
 30
0.0
 11
120.4308319486924
 21
126.014647769092
 31
0.0
  0
LINE
  5
242
330
1F
100
AcDbEntity
  8
9
  6
Continuous
 62
     7
370
    35
100
AcDbLine
 10
119.5802761538275
 20
127.4591733046409
 30
0.0
 11
119.1751975554914
 21
127.2702822512678
 31
0.0
  0
LINE
  5
243
330
1F
100
AcDbEntity
  8
9
  6
Continuous
 62
     7
370
    35
100
AcDbLine
 10
119.5802761538275
 20
127.4591733046409
 30
0.0
 11
119.7691673273068
 21
127.8642518718456
 31
0.0
  0
LINE
  5
244
330
1F
100
AcDbEntity
  8
9
  6
Continuous
 62
     7
370
    35
100
AcDbLine
 10
119.5802761538275
 20
126.4197263362967
 30
0.0
 11
119.1751975554914
 21
126.6086173896698
 31
0.0
  0
LINE
  5
245
330
1F
100
AcDbEntity
  8
9
  6
Continuous
 62
     7
370
    35
100
AcDbLine
 10
119.5802761538275
 20
126.4197263362967
 30
0.0
 11
119.7691673273068
 21
126.014647769092
 31
0.0
  0
LINE
  5
246
330
1F
100
AcDbEntity
  8
9
  6
Continuous
 62
     7
370
    35
100
AcDbLine
 10
120.4308319748743
 20
126.01464774291
 30
0.0
 11
120.6031928476734
 21
124.8394498204688
 31
0.0
  0
LINE
  5
247
330
1F
100
AcDbEntity
  8
9
  6
Continuous
 62
     7
370
    35
100
AcDbLine
 10
119.769167301125
 20
126.01464774291
 30
0.0
 11
119.5968064283258
 21
124.8394498204688
 31
0.0
  0
LINE
  5
248
330
1F
100
AcDbEntity
  8
9
  6
Continuous
 62
     7
370
    35
100
AcDbLine
 10
119.5968064283258
 20
124.8394498204688
 30
0.0
 11
120.6031928476734
 21
124.8394498204688
 31
0.0
  0
LINE
  5
249
330
1F
100
AcDbEntity
  8
9
  6
Continuous
 62
     7
370
    35
100
AcDbLine
 10
121.0248017155584
 20
127.2702821573434
 30
0.0
 11
122.1999996379998
 21
127.4426430301426
 31
0.0
  0
LINE
  5
24A
330
1F
100
AcDbEntity
  8
9
  6
Continuous
 62
     7
370
    35
100
AcDbLine
 10
121.0248017155584
 20
126.6086174835941
 30
0.0
 11
122.1999996379998
 21
126.436256610795
 31
0.0
  0
LINE
  5
24B
330
1F
100
AcDbEntity
  8
9
  6
Continuous
 62
     7
370
    35
100
AcDbLine
 10
119.769167301125
 20
127.8642518980274
 30
0.0
 11
119.5968064283258
 21
129.0394498204688
 31
0.0
  0
LINE
  5
24C
330
1F
100
AcDbEntity
  8
9
  6
Continuous
 62
     7
370
    35
100
AcDbLine
 10
120.4308319748743
 20
127.8642518980274
 30
0.0
 11
120.6031928476734
 21
129.0394498204688
 31
0.0
  0
LINE
  5
24D
330
1F
100
AcDbEntity
  8
9
  6
Continuous
 62
     7
370
    35
100
AcDbLine
 10
119.1751975604409
 20
126.6086174835941
 30
0.0
 11
117.9999996379995
 21
126.436256610795
 31
0.0
  0
LINE
  5
24E
330
1F
100
AcDbEntity
  8
9
  6
Continuous
 62
     7
370
    35
100
AcDbLine
 10
119.1751975604409
 20
127.2702821573434
 30
0.0
 11
117.9999996379995
 21
127.4426430301426
 31
0.0
  0
LINE
  5
24F
330
1F
100
AcDbEntity
  8
9
  6
Continuous
 62
     7
370
    35
100
AcDbLine
 10
119.5968064283258
 20
129.0394498204688
 30
0.0
 11
120.6031928476734
 21
129.0394498204688
 31
0.0
  0
LINE
  5
250
330
1F
100
AcDbEntity
  8
9
  6
Continuous
 62
     7
370
    35
100
AcDbLine
 10
122.1999996379998
 20
127.4426430301426
 30
0.0
 11
122.1999996379998
 21
126.436256610795
 31
0.0
  0
LINE
  5
251
330
1F
100
AcDbEntity
  8
9
  6
Continuous
 62
     7
370
    35
100
AcDbLine
 10
117.9999996379995
 20
127.4426430301426
 30
0.0
 11
117.9999996379995
 21
126.436256610795
 31
0.0
  0
LINE
  5
252
330
1F
100
AcDbEntity
  8
9
  6
Continuous
 62
     7
370
    35
100
AcDbLine
 10
118.9549996379996
 20
126.5763220280802
 30
0.0
 11
118.9549996379996
 21
127.3025775736097
 31
0.0
  0
LINE
  5
253
330
1F
100
AcDbEntity
  8
9
  6
Continuous
 62
     7
370
    35
100
AcDbLine
 10
120.4631274303881
 20
125.7944498204688
 30
0.0
 11
119.7368718848586
 21
125.7944498204688
 31
0.0
  0
LINE
  5
254
330
1F
100
AcDbEntity
  8
9
  6
Continuous
 62
     7
370
    35
100
AcDbLine
 10
121.2449996379996
 20
127.3025776128574
 30
0.0
 11
121.2449996379996
 21
126.5763220673279
 31
0.0
  0
LINE
  5
255
330
1F
100
AcDbEntity
  8
9
  6
Continuous
 62
     7
370
    35
100
AcDbLine
 10
119.7368718456109
 20
128.0844498204686
 30
0.0
 11
120.4631273911407
 21
128.0844498204686
 31
0.0
  0
LINE
  5
256
330
1F
100
AcDbEntity
  8
9
  6
Continuous
 62
     7
370
    35
100
AcDbLine
 10
119.1751976150015
 20
127.2702822790178
 30
0.0
 11
118.9549996379996
 21
127.4904803529279
 31
0.0
  0
LINE
  5
257
330
1F
100
AcDbEntity
  8
9
  6
Continuous
 62
     7
370
    35
100
AcDbLine
 10
117.9999996379995
 20
127.4426430301426
 30
0.0
 11
118.9549996379996
 21
127.4904803529279
 31
0.0
  0
LINE
  5
258
330
1F
100
AcDbEntity
  8
9
  6
Continuous
 62
     7
370
    35
100
AcDbLine
 10
119.3600783218928
 20
127.6793713858177
 30
0.0
 11
118.9549997235565
 21
127.4904803324445
 31
0.0
  0
LINE
  5
259
330
1F
100
AcDbEntity
  8
9
  6
Continuous
 62
     7
370
    35
100
AcDbLine
 10
119.7691671794505
 20
127.8642518434668
 30
0.0
 11
119.5489691055404
 21
128.0844498204688
 31
0.0
  0
LINE
  5
25A
330
1F
100
AcDbEntity
  8
9
  6
Continuous
 62
     7
370
    35
100
AcDbLine
 10
119.5968064283258
 20
129.0394498204688
 30
0.0
 11
119.5489691055404
 21
128.0844498204688
 31
0.0
  0
LINE
  5
25B
330
1F
100
AcDbEntity
  8
9
  6
Continuous
 62
     7
370
    35
100
AcDbLine
 10
119.3600780726508
 20
127.6793711365756
 30
0.0
 11
119.5489691260238
 21
128.0844497349118
 31
0.0
  0
LINE
  5
25C
330
1F
100
AcDbEntity
  8
9
  6
Continuous
 62
     7
370
    35
100
AcDbLine
 10
119.5802760515428
 20
127.4591730852904
 30
0.0
 11
119.3600783077656
 21
127.67937137923
 31
0.0
  0
LINE
  5
25D
330
1F
100
AcDbEntity
  8
9
  6
Continuous
 62
     7
370
    35
100
AcDbLine
 10
120.4308320965488
 20
127.8642518434668
 30
0.0
 11
120.6510301704588
 21
128.0844498204686
 31
0.0
  0
LINE
  5
25E
330
1F
100
AcDbEntity
  8
9
  6
Continuous
 62
     7
370
    35
100
AcDbLine
 10
120.6031928476734
 20
129.0394498204688
 30
0.0
 11
120.6510301704588
 21
128.0844498204686
 31
0.0
  0
LINE
  5
25F
330
1F
100
AcDbEntity
  8
9
  6
Continuous
 62
     7
370
    35
100
AcDbLine
 10
120.8399212033484
 20
127.6793711365756
 30
0.0
 11
120.6510301499754
 21
128.0844497349118
 31
0.0
  0
LINE
  5
260
330
1F
100
AcDbEntity
  8
9
  6
Continuous
 62
     7
370
    35
100
AcDbLine
 10
121.0248016609978
 20
127.2702822790178
 30
0.0
 11
121.2449996379996
 21
127.4904803529279
 31
0.0
  0
LINE
  5
261
330
1F
100
AcDbEntity
  8
9
  6
Continuous
 62
     7
370
    35
100
AcDbLine
 10
122.1999996379998
 20
127.4426430301424
 30
0.0
 11
121.2449996379996
 21
127.4904803529279
 31
0.0
  0
LINE
  5
262
330
1F
100
AcDbEntity
  8
9
  6
Continuous
 62
     7
370
    35
100
AcDbLine
 10
120.8399209541064
 20
127.6793713858177
 30
0.0
 11
121.2449995524427
 21
127.4904803324445
 31
0.0
  0
LINE
  5
263
330
1F
100
AcDbEntity
  8
9
  6
Continuous
 62
     7
370
    35
100
AcDbLine
 10
120.6197229028214
 20
127.4591734069257
 30
0.0
 11
120.839921196761
 21
127.6793711507028
 31
0.0
  0
LINE
  5
264
330
1F
100
AcDbEntity
  8
9
  6
Continuous
 62
     7
370
    35
100
AcDbLine
 10
121.0248016609978
 20
126.6086173619198
 30
0.0
 11
121.2449996379996
 21
126.3884192880098
 31
0.0
  0
LINE
  5
265
330
1F
100
AcDbEntity
  8
9
  6
Continuous
 62
     7
370
    35
100
AcDbLine
 10
122.1999996379998
 20
126.436256610795
 30
0.0
 11
121.2449996379996
 21
126.3884192880098
 31
0.0
  0
LINE
  5
266
330
1F
100
AcDbEntity
  8
9
  6
Continuous
 62
     7
370
    35
100
AcDbLine
 10
120.8399209541064
 20
126.1995282551198
 30
0.0
 11
121.2449995524427
 21
126.3884193084931
 31
0.0
  0
LINE
  5
267
330
1F
100
AcDbEntity
  8
9
  6
Continuous
 62
     7
370
    35
100
AcDbLine
 10
120.4308320965488
 20
126.0146477974707
 30
0.0
 11
120.6510301704588
 21
125.7944498204688
 31
0.0
  0
LINE
  5
268
330
1F
100
AcDbEntity
  8
9
  6
Continuous
 62
     7
370
    35
100
AcDbLine
 10
120.6031928476734
 20
124.8394498204688
 30
0.0
 11
120.6510301704588
 21
125.7944498204688
 31
0.0
  0
LINE
  5
269
330
1F
100
AcDbEntity
  8
9
  6
Continuous
 62
     7
370
    35
100
AcDbLine
 10
120.8399212033484
 20
126.199528504362
 30
0.0
 11
120.6510301499754
 21
125.7944499060258
 31
0.0
  0
LINE
  5
26A
330
1F
100
AcDbEntity
  8
9
  6
Continuous
 62
     7
370
    35
100
AcDbLine
 10
120.6197232244565
 20
126.4197265556471
 30
0.0
 11
120.8399209682338
 21
126.1995282617075
 31
0.0
  0
LINE
  5
26B
330
1F
100
AcDbEntity
  8
9
  6
Continuous
 62
     7
370
    35
100
AcDbLine
 10
119.7691671794505
 20
126.0146477974707
 30
0.0
 11
119.5489691055404
 21
125.7944498204688
 31
0.0
  0
LINE
  5
26C
330
1F
100
AcDbEntity
  8
9
  6
Continuous
 62
     7
370
    35
100
AcDbLine
 10
119.5968064283258
 20
124.8394498204688
 30
0.0
 11
119.5489691055404
 21
125.7944498204688
 31
0.0
  0
LINE
  5
26D
330
1F
100
AcDbEntity
  8
9
  6
Continuous
 62
     7
370
    35
100
AcDbLine
 10
119.3600780726508
 20
126.199528504362
 30
0.0
 11
119.5489691260238
 21
125.7944499060258
 31
0.0
  0
LINE
  5
26E
330
1F
100
AcDbEntity
  8
9
  6
Continuous
 62
     7
370
    35
100
AcDbLine
 10
119.1751976150015
 20
126.6086173619198
 30
0.0
 11
118.9549996379996
 21
126.3884192880098
 31
0.0
  0
LINE
  5
26F
330
1F
100
AcDbEntity
  8
9
  6
Continuous
 62
     7
370
    35
100
AcDbLine
 10
117.9999996379995
 20
126.436256610795
 30
0.0
 11
118.9549996379996
 21
126.3884192880098
 31
0.0
  0
LINE
  5
270
330
1F
100
AcDbEntity
  8
9
  6
Continuous
 62
     7
370
    35
100
AcDbLine
 10
119.3600783218928
 20
126.1995282551198
 30
0.0
 11
118.9549997235565
 21
126.3884193084931
 31
0.0
  0
LINE
  5
271
330
1F
100
AcDbEntity
  8
9
  6
Continuous
 62
     7
370
    35
100
AcDbLine
 10
119.5802763731781
 20
126.4197262340118
 30
0.0
 11
119.3600780792385
 21
126.1995284902346
 31
0.0
  0
CIRCLE
  5
272
330
1F
100
AcDbEntity
  8
9
  6
Continuous
 62
     7
370
    35
100
AcDbCircle
 10
120.0999996379996
 20
126.9394498204688
 30
0.0
 40
3.499999999999943
  0
CIRCLE
  5
273
330
1F
100
AcDbEntity
  8
9
  6
Continuous
 62
     7
370
    35
100
AcDbCircle
 10
120.0999996379996
 20
126.9394510942759
 30
0.0
 40
4.0
  0
LINE
  5
274
330
1F
100
AcDbEntity
  8
9
  6
Continuous
 62
     7
370
    35
100
AcDbLine
 10
102.4999996379995
 20
128.9394510942759
 30
0.0
 11
78.49999963799951
 21
128.9394510942759
 31
0.0
  0
ARC
  5
275
330
1F
100
AcDbEntity
  8
9
  6
Continuous
 62
     7
370
    35
100
AcDbCircle
 10
85.49999963799974
 20
121.4394510942761
 30
0.0
 40
17.0
100
AcDbArc
 50
153.8210312959883
 51
179.9999999999998
  0
ARC
  5
276
330
1F
100
AcDbEntity
  8
9
  6
Continuous
 62
     7
370
    35
100
AcDbCircle
 10
85.49999963799974
 20
121.4394510942761
 30
0.0
 40
15.0
100
AcDbArc
 50
150.000000000001
 51
179.9999999999998
  0
ARC
  5
277
330
1F
100
AcDbEntity
  8
9
  6
Continuous
 62
     7
370
    35
100
AcDbCircle
 10
95.49999963799974
 20
121.4394510942761
 30
0.0
 40
15.0
100
AcDbArc
 50
0.0
 51
29.99999999999898
  0
ARC
  5
278
330
1F
100
AcDbEntity
  8
9
  6
Continuous
 62
     7
370
    35
100
AcDbCircle
 10
95.49999963799974
 20
121.4394510942761
 30
0.0
 40
17.0
100
AcDbArc
 50
0.0
 51
26.17896870401167
  0
ARC
  5
279
330
1F
100
AcDbEntity
  8
9
  6
Continuous
 62
     7
370
    35
100
AcDbCircle
 10
97.71124642152245
 20
120.8377933714314
 30
0.0
 40
10.80551655320164
100
AcDbArc
 50
3.191914576130574
 51
35.57467435151131
  0
ARC
  5
27A
330
1F
100
AcDbEntity
  8
9
  6
Continuous
 62
     7
370
    35
100
AcDbCircle
 10
83.28875285447748
 20
120.8377933714314
 30
0.0
 40
10.80551655320164
100
AcDbArc
 50
144.4253256484972
 51
176.8080854238696
  0
LINE
  5
27B
330
1F
100
AcDbEntity
  8
9
  6
Continuous
 62
     7
370
    35
100
AcDbLine
 10
84.49999963799974
 20
128.639451094276
 30
0.0
 11
83.98038439572926
 21
128.9394510942759
 31
0.0
  0
LINE
  5
27C
330
1F
100
AcDbEntity
  8
9
  6
Continuous
 62
     7
370
    35
100
AcDbLine
 10
96.49999963799974
 20
128.639451094276
 30
0.0
 11
97.01961488027024
 21
128.9394510942759
 31
0.0
  0
ARC
  5
27D
330
1F
100
AcDbEntity
  8
9
  6
Continuous
 62
     7
370
    35
100
AcDbCircle
 10
98.49999963799974
 20
119.4394510942761
 30
0.0
 40
26.0
100
AcDbArc
 50
179.9999999999998
 51
202.6485318368291
  0
ARC
  5
27E
330
1F
100
AcDbEntity
  8
9
  6
Continuous
 62
     7
370
    35
100
AcDbCircle
 10
82.49999963799974
 20
119.4394510942761
 30
0.0
 40
26.0
100
AcDbArc
 50
337.3801350519574
 51
0.0
  0
ARC
  5
27F
330
1F
100
AcDbEntity
  8
9
  6
Continuous
 62
     7
370
    35
100
AcDbCircle
 10
82.49999963799974
 20
119.2809956490714
 30
0.0
 40
30.0
100
AcDbArc
 50
326.9945947808005
 51
0.0
  0
LINE
  5
280
330
1F
100
AcDbEntity
  8
9
  6
Continuous
 62
     7
370
    35
100
AcDbLine
 10
102.4999996379995
 20
96.47148057017526
 30
0.0
 11
95.73641880606283
 21
88.47327291948658
 31
0.0
  0
ARC
  5
281
330
1F
100
AcDbEntity
  8
9
  6
Continuous
 62
     7
370
    35
100
AcDbCircle
 10
98.49999963799974
 20
119.2809956490714
 30
0.0
 40
30.0
100
AcDbArc
 50
179.9999999999998
 51
213.0054052191981
  0
LINE
  5
282
330
1F
100
AcDbEntity
  8
9
  6
Continuous
 62
     7
370
    35
100
AcDbLine
 10
78.49999963799951
 20
96.47148057017581
 30
0.0
 11
85.26358046993664
 21
88.47327291948658
 31
0.0
  0
ARC
  5
283
330
1F
100
AcDbEntity
  8
9
  6
Continuous
 62
     7
370
    35
100
AcDbCircle
 10
82.49999963799974
 20
119.4394510942761
 30
0.0
 40
24.0
100
AcDbArc
 50
316.5674634422087
 51
326.4426902380774
  0
ARC
  5
284
330
1F
100
AcDbEntity
  8
9
  6
Continuous
 62
     7
370
    35
100
AcDbCircle
 10
98.49999963799974
 20
119.4394510942761
 30
0.0
 40
24.0
100
AcDbArc
 50
213.557309761919
 51
223.4325365577896
  0
LINE
  5
285
330
1F
100
AcDbEntity
  8
9
  6
Continuous
 62
     7
370
    35
100
AcDbLine
 10
102.4999996379995
 20
88.01532067642458
 30
0.0
 11
102.243490584663
 21
88.19493024918982
 31
0.0
  0
LINE
  5
286
330
1F
100
AcDbEntity
  8
9
  6
Continuous
 62
     7
370
    35
100
AcDbLine
 10
106.4999996379995
 20
87.14006125366221
 30
0.0
 11
107.5874883015271
 21
87.14006125366221
 31
0.0
  0
LINE
  5
287
330
1F
100
AcDbEntity
  8
9
  6
Continuous
 62
     7
370
    35
100
AcDbLine
 10
102.4999996379995
 20
86.99893288501563
 30
0.0
 11
100.9211916957656
 21
88.4400696531561
 31
0.0
  0
LINE
  5
288
330
1F
100
AcDbEntity
  8
9
  6
Continuous
 62
     7
370
    35
100
AcDbLine
 10
106.4999996379995
 20
86.80283390413159
 30
0.0
 11
109.4999996379997
 21
86.80283390413159
 31
0.0
  0
LINE
  5
289
330
1F
100
AcDbEntity
  8
9
  6
Continuous
 62
     7
370
    35
100
AcDbLine
 10
109.3263514603331
 20
85.81802615111927
 30
0.0
 11
106.4999996379995
 21
85.81802615111927
 31
0.0
  0
LINE
  5
28A
330
1F
100
AcDbEntity
  8
9
  6
Continuous
 62
     7
370
    35
100
AcDbLine
 10
78.49999963799951
 20
88.015320676424
 30
0.0
 11
78.75650869133688
 21
88.19493024918982
 31
0.0
  0
LINE
  5
28B
330
1F
100
AcDbEntity
  8
9
  6
Continuous
 62
     7
370
    35
100
AcDbLine
 10
73.41251097447366
 20
87.14006125366221
 30
0.0
 11
74.49999963799951
 21
87.14006125366221
 31
0.0
  0
LINE
  5
28C
330
1F
100
AcDbEntity
  8
9
  6
Continuous
 62
     7
370
    35
100
AcDbLine
 10
102.4999996379995
 20
85.81802615111927
 30
0.0
 11
78.49999963799951
 21
85.81802615111927
 31
0.0
  0
LINE
  5
28D
330
1F
100
AcDbEntity
  8
9
  6
Continuous
 62
     7
370
    35
100
AcDbLine
 10
74.49999963799951
 20
85.81802615111927
 30
0.0
 11
71.67364781566675
 21
85.81802615111927
 31
0.0
  0
LINE
  5
28E
330
1F
100
AcDbEntity
  8
9
  6
Continuous
 62
     7
370
    35
100
AcDbLine
 10
71.49999963799974
 20
86.80283390413159
 30
0.0
 11
74.49999963799951
 21
86.80283390413159
 31
0.0
  0
LINE
  5
28F
330
1F
100
AcDbEntity
  8
9
  6
Continuous
 62
     7
370
    35
100
AcDbLine
 10
78.49999963799951
 20
86.80283390413159
 30
0.0
 11
102.4999996379995
 21
86.80283390413159
 31
0.0
  0
LINE
  5
290
330
1F
100
AcDbEntity
  8
9
  6
Continuous
 62
     7
370
    35
100
AcDbLine
 10
78.49999963799951
 20
86.99893288501482
 30
0.0
 11
80.07880758023384
 21
88.4400696531561
 31
0.0
  0
CIRCLE
  5
291
330
1F
100
AcDbEntity
  8
6
  6
Continuous
 62
     3
370
    25
100
AcDbCircle
 10
101.6522378379088
 20
50.99728485067783
 30
0.0
 40
3.03709606549592
  0
INSERT
  5
292
330
1F
100
AcDbEntity
  8
6
  6
Continuous
 62
     3
370
    25
100
AcDbBlockReference
  2
_OPEN
 10
86.39654241586916
 20
85.64006125366221
 30
0.0
 41
2.3
 42
2.3
 43
2.3
 50
113.7673305372768
  0
POLYLINE
  5
293
330
1F
100
AcDbEntity
  8
6
  6
Continuous
 62
     3
370
    25
100
AcDb2dPolyline
 66
     1
 10
0.0
 20
0.0
 30
0.0
  0
VERTEX
  5
294
330
293
100
AcDbEntity
  8
6
  6
Continuous
 62
     3
370
    25
100
AcDbVertex
100
AcDb2dVertex
 10
86.39654241586916
 20
85.64006125366221
 30
0.0
  0
VERTEX
  5
295
330
293
100
AcDbEntity
  8
6
  6
Continuous
 62
     3
370
    25
100
AcDbVertex
100
AcDb2dVertex
 10
100.4282166599988
 20
53.77680363404278
 30
0.0
  0
SEQEND
  5
296
330
293
100
AcDbEntity
  8
6
  6
Continuous
 62
     3
370
    25
  0
MTEXT
  5
297
330
1F
100
AcDbEntity
  8
6
  6
Continuous
 62
     3
370
     9
100
AcDbMText
 10
101.6522378379088
 20
50.99728485067783
 30
0.0
 40
3.3
 41
1.007490402996
 71
     5
 72
     1
  1
{\fＭＳ Ｐゴシック;\W0.714286;1}
 73
     1
 44
1.0
1001
ACAD
1000
ACAD_MTEXT_DEFINED_HEIGHT_BEGIN
1070
    46
1040
3.3
1000
ACAD_MTEXT_DEFINED_HEIGHT_END
  0
VIEWPORT
  5
6A
102
{ACAD_XDICTIONARY
360
29F
102
}
330
1B
100
AcDbEntity
 67
     1
  8
0
100
AcDbViewport
 10
105.0
 20
148.5
 30
0.0
 40
210.0
 41
297.0
 68
     1
 69
     1
 12
105.0
 22
148.5
 13
0.0
 23
0.0
 14
0.5
 24
0.5
 15
0.5
 25
0.5
 16
0.0
 26
0.0
 36
1.0
 17
0.0
 27
0.0
 37
0.0
 42
50.0
 43
0.0
 44
0.0
 45
9.0
 50
0.0
 51
0.0
 72
   100
 90
   557152
  1

281
     0
 71
     1
 74
     0
110
0.0
120
0.0
130
0.0
111
1.0
121
0.0
131
0.0
112
0.0
122
1.0
132
0.0
 79
     0
146
0.0
  0
ENDSEC
  0
SECTION
  2
OBJECTS
  0
DICTIONARY
  5
C
330
0
100
AcDbDictionary
281
     1
  3
ACAD_GROUP
350
D
  3
ACAD_LAYOUT
350
1A
  3
ACAD_MATERIAL
350
43
  3
ACAD_MLEADERSTYLE
350
29A
  3
ACAD_MLINESTYLE
350
17
  3
ACAD_PLOTSETTINGS
350
19
  3
ACAD_PLOTSTYLENAME
350
E
  3
ACAD_SCALELIST
350
47
  3
ACAD_VISUALSTYLE
350
2A
  3
AcDbVariableDictionary
350
298
  0
DICTIONARY
  5
2A1
330
8
100
AcDbDictionary
280
     1
281
     1
  3
ACAD_XREC_ROUNDTRIP
360
2A2
  0
DICTIONARY
  5
29F
330
6A
100
AcDbDictionary
280
     1
281
     1
  3
ACAD_XREC_ROUNDTRIP
360
2A0
  0
DICTIONARY
  5
D
102
{ACAD_REACTORS
330
C
102
}
330
C
100
AcDbDictionary
281
     1
  0
DICTIONARY
  5
1A
102
{ACAD_REACTORS
330
C
102
}
330
C
100
AcDbDictionary
281
     1
  3
Layout1
350
1E
  3
Layout2
350
26
  3
Model
350
22
  0
DICTIONARY
  5
43
102
{ACAD_REACTORS
330
C
102
}
330
C
100
AcDbDictionary
281
     1
  3
ByBlock
350
45
  3
ByLayer
350
44
  3
Global
350
46
  0
DICTIONARY
  5
29A
102
{ACAD_REACTORS
330
C
102
}
330
C
100
AcDbDictionary
281
     1
  0
DICTIONARY
  5
17
102
{ACAD_REACTORS
330
C
102
}
330
C
100
AcDbDictionary
281
     1
  3
Standard
350
18
  0
DICTIONARY
  5
19
102
{ACAD_REACTORS
330
C
102
}
330
C
100
AcDbDictionary
281
     1
  0
ACDBDICTIONARYWDFLT
  5
E
102
{ACAD_REACTORS
330
C
102
}
330
C
100
AcDbDictionary
281
     1
  3
Normal
350
F
100
AcDbDictionaryWithDefault
340
F
  0
DICTIONARY
  5
47
102
{ACAD_REACTORS
330
C
102
}
330
C
100
AcDbDictionary
281
     1
  3
A0
350
48
  3
A1
350
49
  3
A2
350
4A
  3
A3
350
4B
  3
A4
350
4C
  3
A5
350
4D
  3
A6
350
4E
  3
A7
350
4F
  3
A8
350
50
  3
A9
350
51
  3
B0
350
52
  3
B1
350
53
  3
B2
350
54
  3
B3
350
55
  3
B4
350
56
  3
B5
350
57
  3
B6
350
58
  3
B7
350
59
  3
B8
350
5A
  3
B9
350
5B
  3
C0
350
5C
  3
C1
350
5D
  3
C2
350
5E
  3
C3
350
5F
  3
C4
350
60
  3
C5
350
61
  3
C6
350
62
  3
C7
350
63
  3
C8
350
64
  3
C9
350
65
  3
D0
350
66
  3
D1
350
67
  3
D2
350
68
  0
DICTIONARY
  5
2A
102
{ACAD_REACTORS
330
C
102
}
330
C
100
AcDbDictionary
281
     1
  3
2dWireframe
350
2F
  3
Basic
350
32
  3
Brighten
350
36
  3
ColorChange
350
3A
  3
Conceptual
350
34
  3
Dim
350
35
  3
EdgeColorOff
350
3D
  3
Facepattern
350
39
  3
Flat
350
2B
  3
FlatWithEdges
350
2C
  3
Gouraud
350
2D
  3
GouraudWithEdges
350
2E
  3
Hidden
350
31
  3
JitterOff
350
3B
  3
Linepattern
350
38
  3
OverhangOff
350
3C
  3
Realistic
350
33
  3
Shaded
350
42
  3
Shaded with edges
350
41
  3
Shades of Gray
350
3E
  3
Sketchy
350
3F
  3
Thicken
350
37
  3
Wireframe
350
30
  3
X-Ray
350
40
  0
DICTIONARY
  5
298
102
{ACAD_REACTORS
330
C
102
}
330
C
100
AcDbDictionary
281
     1
  3
CANNOSCALE
350
2A3
  3
DIMASSOC
350
29B
  3
HIDETEXT
350
29E
  3
MSLTSCALE
350
2A4
  0
XRECORD
  5
2A2
102
{ACAD_REACTORS
330
2A1
102
}
330
2A1
100
AcDbXrecord
280
     1
102
VTR_0.000_0.000_1.000_1.000_GRIDDISPLAY
 70
     3
102
VTR_0.000_0.000_1.000_1.000_GRIDMAJOR
 70
     5
102
VTR_0.000_0.000_1.000_1.000_DEFAULTLIGHTING
280
     1
102
VTR_0.000_0.000_1.000_1.000_DEFAULTLIGHTINGTYPE
 70
     1
102
VTR_0.000_0.000_1.000_1.000_BRIGHTNESS
141
0.0
102
VTR_0.000_0.000_1.000_1.000_CONTRAST
142
0.0
  0
XRECORD
  5
2A0
102
{ACAD_REACTORS
330
29F
102
}
330
29F
100
AcDbXrecord
280
     1
102
GRIDDISPLAY
 70
     2
102
GRIDMAJOR
 70
     5
102
DEFAULTLIGHTING
280
     1
102
DEFAULTLIGHTINGTYPE
 70
     1
102
BRIGHTNESS
141
0.0
102
CONTRAST
142
0.0
  0
LAYOUT
  5
1E
102
{ACAD_REACTORS
330
1A
102
}
330
1A
100
AcDbPlotSettings
  1

  2
none_device
  4

  6

 40
0.0
 41
0.0
 42
0.0
 43
0.0
 44
0.0
 45
0.0
 46
0.0
 47
0.0
 48
0.0
 49
0.0
140
0.0
141
0.0
142
1.0
143
1.0
 70
   688
 72
     0
 73
     0
 74
     5
  7

 75
    16
147
1.0
148
0.0
149
0.0
100
AcDbLayout
  1
Layout1
 70
     1
 71
     1
 10
0.0
 20
0.0
 11
210.0
 21
297.0
 12
0.0
 22
0.0
 32
0.0
 14
0.0
 24
0.0
 34
0.0
 15
210.0
 25
297.0
 35
0.0
146
0.0
 13
0.0
 23
0.0
 33
0.0
 16
1.0
 26
0.0
 36
0.0
 17
0.0
 27
1.0
 37
0.0
 76
     0
330
1B
331
6A
  0
LAYOUT
  5
26
102
{ACAD_REACTORS
330
1A
102
}
330
1A
100
AcDbPlotSettings
  1

  2
none_device
  4

  6

 40
0.0
 41
0.0
 42
0.0
 43
0.0
 44
0.0
 45
0.0
 46
0.0
 47
0.0
 48
0.0
 49
0.0
140
0.0
141
0.0
142
1.0
143
1.0
 70
   688
 72
     0
 73
     0
 74
     5
  7

 75
    16
147
1.0
148
0.0
149
0.0
100
AcDbLayout
  1
Layout2
 70
     1
 71
     2
 10
0.0
 20
0.0
 11
0.0
 21
0.0
 12
0.0
 22
0.0
 32
0.0
 14
0.0
 24
0.0
 34
0.0
 15
0.0
 25
0.0
 35
0.0
146
0.0
 13
0.0
 23
0.0
 33
0.0
 16
1.0
 26
0.0
 36
0.0
 17
0.0
 27
1.0
 37
0.0
 76
     0
330
23
  0
LAYOUT
  5
22
102
{ACAD_REACTORS
330
1A
102
}
330
1A
100
AcDbPlotSettings
  1

  2
none_device
  4
Letter_(8.50_x_11.00_Inches)
  6

 40
6.35
 41
6.35
 42
6.35000508
 43
6.35000508
 44
215.9
 45
279.4
 46
0.0
 47
0.0
 48
0.0
 49
0.0
140
0.0
141
0.0
142
1.0
143
1.0
 70
  1712
 72
     0
 73
     0
 74
     0
  7

 75
     0
147
1.0
148
0.0
149
0.0
100
AcDbLayout
  1
Model
 70
     1
 71
     0
 10
0.0
 20
0.0
 11
210.0
 21
297.0
 12
0.0
 22
0.0
 32
0.0
 14
0.0
 24
0.0
 34
0.0
 15
180.9999992759999
 25
282.9999999999999
 35
0.0
146
0.0
 13
0.0
 23
0.0
 33
0.0
 16
1.0
 26
0.0
 36
0.0
 17
0.0
 27
1.0
 37
0.0
 76
     0
330
1F
331
29
  0
MATERIAL
  5
45
102
{ACAD_REACTORS
330
43
102
}
102
{ACAD_XDICTIONARY
360
2D7
102
}
330
43
100
AcDbMaterial
  1
ByBlock
  0
MATERIAL
  5
44
102
{ACAD_REACTORS
330
43
102
}
102
{ACAD_XDICTIONARY
360
2D5
102
}
330
43
100
AcDbMaterial
  1
ByLayer
  0
MATERIAL
  5
46
102
{ACAD_REACTORS
330
43
102
}
102
{ACAD_XDICTIONARY
360
2D9
102
}
330
43
100
AcDbMaterial
  1
Global
  0
MLINESTYLE
  5
18
102
{ACAD_REACTORS
330
17
102
}
330
17
100
AcDbMlineStyle
  2
Standard
 70
     0
  3

 62
   256
 51
90.0
 52
90.0
 71
     2
 49
0.5
 62
   256
  6
BYLAYER
 49
-0.5
 62
   256
  6
BYLAYER
  0
ACDBPLACEHOLDER
  5
F
102
{ACAD_REACTORS
330
E
102
}
330
E
  0
SCALE
  5
48
102
{ACAD_REACTORS
330
47
102
}
330
47
100
AcDbScale
 70
     0
300
1:1
140
1.0
141
1.0
290
     1
  0
SCALE
  5
49
102
{ACAD_REACTORS
330
47
102
}
330
47
100
AcDbScale
 70
     0
300
1:2
140
1.0
141
2.0
290
     0
  0
SCALE
  5
4A
102
{ACAD_REACTORS
330
47
102
}
330
47
100
AcDbScale
 70
     0
300
1:4
140
1.0
141
4.0
290
     0
  0
SCALE
  5
4B
102
{ACAD_REACTORS
330
47
102
}
330
47
100
AcDbScale
 70
     0
300
1:5
140
1.0
141
5.0
290
     0
  0
SCALE
  5
4C
102
{ACAD_REACTORS
330
47
102
}
330
47
100
AcDbScale
 70
     0
300
1:8
140
1.0
141
8.0
290
     0
  0
SCALE
  5
4D
102
{ACAD_REACTORS
330
47
102
}
330
47
100
AcDbScale
 70
     0
300
1:10
140
1.0
141
10.0
290
     0
  0
SCALE
  5
4E
102
{ACAD_REACTORS
330
47
102
}
330
47
100
AcDbScale
 70
     0
300
1:16
140
1.0
141
16.0
290
     0
  0
SCALE
  5
4F
102
{ACAD_REACTORS
330
47
102
}
330
47
100
AcDbScale
 70
     0
300
1:20
140
1.0
141
20.0
290
     0
  0
SCALE
  5
50
102
{ACAD_REACTORS
330
47
102
}
330
47
100
AcDbScale
 70
     0
300
1:30
140
1.0
141
30.0
290
     0
  0
SCALE
  5
51
102
{ACAD_REACTORS
330
47
102
}
330
47
100
AcDbScale
 70
     0
300
1:40
140
1.0
141
40.0
290
     0
  0
SCALE
  5
52
102
{ACAD_REACTORS
330
47
102
}
330
47
100
AcDbScale
 70
     0
300
1:50
140
1.0
141
50.0
290
     0
  0
SCALE
  5
53
102
{ACAD_REACTORS
330
47
102
}
330
47
100
AcDbScale
 70
     0
300
1:100
140
1.0
141
100.0
290
     0
  0
SCALE
  5
54
102
{ACAD_REACTORS
330
47
102
}
330
47
100
AcDbScale
 70
     0
300
2:1
140
2.0
141
1.0
290
     0
  0
SCALE
  5
55
102
{ACAD_REACTORS
330
47
102
}
330
47
100
AcDbScale
 70
     0
300
4:1
140
4.0
141
1.0
290
     0
  0
SCALE
  5
56
102
{ACAD_REACTORS
330
47
102
}
330
47
100
AcDbScale
 70
     0
300
8:1
140
8.0
141
1.0
290
     0
  0
SCALE
  5
57
102
{ACAD_REACTORS
330
47
102
}
330
47
100
AcDbScale
 70
     0
300
10:1
140
10.0
141
1.0
290
     0
  0
SCALE
  5
58
102
{ACAD_REACTORS
330
47
102
}
330
47
100
AcDbScale
 70
     0
300
100:1
140
100.0
141
1.0
290
     0
  0
SCALE
  5
59
102
{ACAD_REACTORS
330
47
102
}
330
47
100
AcDbScale
 70
     0
300
1/128" = 1'-0"
140
0.0078125
141
12.0
290
     0
  0
SCALE
  5
5A
102
{ACAD_REACTORS
330
47
102
}
330
47
100
AcDbScale
 70
     0
300
1/64" = 1'-0"
140
0.015625
141
12.0
290
     0
  0
SCALE
  5
5B
102
{ACAD_REACTORS
330
47
102
}
330
47
100
AcDbScale
 70
     0
300
1/32" = 1'-0"
140
0.03125
141
12.0
290
     0
  0
SCALE
  5
5C
102
{ACAD_REACTORS
330
47
102
}
330
47
100
AcDbScale
 70
     0
300
1/16" = 1'-0"
140
0.0625
141
12.0
290
     0
  0
SCALE
  5
5D
102
{ACAD_REACTORS
330
47
102
}
330
47
100
AcDbScale
 70
     0
300
3/32" = 1'-0"
140
0.09375
141
12.0
290
     0
  0
SCALE
  5
5E
102
{ACAD_REACTORS
330
47
102
}
330
47
100
AcDbScale
 70
     0
300
1/8" = 1'-0"
140
0.125
141
12.0
290
     0
  0
SCALE
  5
5F
102
{ACAD_REACTORS
330
47
102
}
330
47
100
AcDbScale
 70
     0
300
3/16" = 1'-0"
140
0.1875
141
12.0
290
     0
  0
SCALE
  5
60
102
{ACAD_REACTORS
330
47
102
}
330
47
100
AcDbScale
 70
     0
300
1/4" = 1'-0"
140
0.25
141
12.0
290
     0
  0
SCALE
  5
61
102
{ACAD_REACTORS
330
47
102
}
330
47
100
AcDbScale
 70
     0
300
3/8" = 1'-0"
140
0.375
141
12.0
290
     0
  0
SCALE
  5
62
102
{ACAD_REACTORS
330
47
102
}
330
47
100
AcDbScale
 70
     0
300
1/2" = 1'-0"
140
0.5
141
12.0
290
     0
  0
SCALE
  5
63
102
{ACAD_REACTORS
330
47
102
}
330
47
100
AcDbScale
 70
     0
300
3/4" = 1'-0"
140
0.75
141
12.0
290
     0
  0
SCALE
  5
64
102
{ACAD_REACTORS
330
47
102
}
330
47
100
AcDbScale
 70
     0
300
1" = 1'-0"
140
1.0
141
12.0
290
     0
  0
SCALE
  5
65
102
{ACAD_REACTORS
330
47
102
}
330
47
100
AcDbScale
 70
     0
300
1-1/2" = 1'-0"
140
1.5
141
12.0
290
     0
  0
SCALE
  5
66
102
{ACAD_REACTORS
330
47
102
}
330
47
100
AcDbScale
 70
     0
300
3" = 1'-0"
140
3.0
141
12.0
290
     0
  0
SCALE
  5
67
102
{ACAD_REACTORS
330
47
102
}
330
47
100
AcDbScale
 70
     0
300
6" = 1'-0"
140
6.0
141
12.0
290
     0
  0
SCALE
  5
68
102
{ACAD_REACTORS
330
47
102
}
330
47
100
AcDbScale
 70
     0
300
1'-0" = 1'-0"
140
12.0
141
12.0
290
     0
  0
VISUALSTYLE
  5
2F
102
{ACAD_REACTORS
330
2A
102
}
102
{ACAD_XDICTIONARY
360
2AD
102
}
330
2A
100
AcDbVisualStyle
  2
2dWireframe
 70
     4
 71
     0
 72
     2
 73
     0
 90
        0
 40
0.6
 41
30.0
 62
     5
 63
     7
 74
     1
 91
        4
 64
     7
 65
   257
 75
     1
175
     1
 42
1.0
 92
        0
 66
   257
 43
1.0
 76
     1
 77
     6
 78
     2
 67
     7
 79
     5
170
     0
171
     0
290
     0
174
     0
 93
        1
 44
0.0
173
     0
291
     0
 45
0.0
1001
ACAD
1000
AcDbSavedByObjectVersion
1070
     0
  0
VISUALSTYLE
  5
32
102
{ACAD_REACTORS
330
2A
102
}
102
{ACAD_XDICTIONARY
360
2B3
102
}
330
2A
100
AcDbVisualStyle
  2
Basic
 70
     7
 71
     1
 72
     0
 73
     1
 90
        0
 40
0.6
 41
30.0
 62
     5
 63
     7
 74
     0
 91
        4
 64
     7
 65
   257
 75
     1
175
     1
 42
1.0
 92
        8
 66
     7
 43
1.0
 76
     1
 77
     6
 78
     2
 67
     7
 79
     5
170
     0
171
     0
290
     0
174
     0
 93
        1
 44
0.0
173
     0
291
     1
 45
0.0
1001
ACAD
1000
AcDbSavedByObjectVersion
1070
     0
  0
VISUALSTYLE
  5
36
102
{ACAD_REACTORS
330
2A
102
}
102
{ACAD_XDICTIONARY
360
2BB
102
}
330
2A
100
AcDbVisualStyle
  2
Brighten
 70
    12
 71
     2
 72
     2
 73
     0
 90
        0
 40
0.6
 41
30.0
 62
     5
 63
     7
 74
     1
 91
        4
 64
     7
 65
   257
 75
     1
175
     1
 42
1.0
 92
        8
 66
     7
 43
1.0
 76
     1
 77
     6
 78
     2
 67
     7
 79
     5
170
     0
171
     0
290
     0
174
     0
 93
        1
 44
50.0
173
     0
291
     1
 45
0.0
1001
ACAD
1000
AcDbSavedByObjectVersion
1070
     0
  0
VISUALSTYLE
  5
3A
102
{ACAD_REACTORS
330
2A
102
}
102
{ACAD_XDICTIONARY
360
2C3
102
}
330
2A
100
AcDbVisualStyle
  2
ColorChange
 70
    16
 71
     2
 72
     2
 73
     3
 90
        0
 40
0.6
 41
30.0
 62
     5
 63
     8
 74
     1
 91
        4
 64
     7
 65
   257
 75
     1
175
     1
 42
1.0
 92
        8
 66
     8
 43
1.0
 76
     1
 77
     6
 78
     2
 67
     7
 79
     5
170
     0
171
     0
290
     0
174
     0
 93
        1
 44
0.0
173
     0
291
     1
 45
0.0
1001
ACAD
1000
AcDbSavedByObjectVersion
1070
     0
  0
VISUALSTYLE
  5
34
102
{ACAD_REACTORS
330
2A
102
}
102
{ACAD_XDICTIONARY
360
2B7
102
}
330
2A
100
AcDbVisualStyle
  2
Conceptual
 70
     9
 71
     3
 72
     2
 73
     0
 90
        0
 40
0.6
 41
30.0
 62
     5
 63
     7
 74
     2
 91
        2
 64
     7
 65
   257
 75
     1
175
     1
 42
179.0
 92
        8
 66
     7
 43
1.0
 76
     1
 77
     6
 78
     2
 67
     7
 79
     3
170
     0
171
     0
290
     0
174
     0
 93
        1
 44
0.0
173
     0
291
     0
 45
0.0
1001
ACAD
1000
AcDbSavedByObjectVersion
1070
     0
  0
VISUALSTYLE
  5
35
102
{ACAD_REACTORS
330
2A
102
}
102
{ACAD_XDICTIONARY
360
2B9
102
}
330
2A
100
AcDbVisualStyle
  2
Dim
 70
    11
 71
     2
 72
     2
 73
     0
 90
        0
 40
0.6
 41
30.0
 62
     5
 63
     7
 74
     1
 91
        4
 64
     7
 65
   257
 75
     1
175
     1
 42
1.0
 92
        8
 66
     7
 43
1.0
 76
     1
 77
     6
 78
     2
 67
     7
 79
     5
170
     0
171
     0
290
     0
174
     0
 93
        1
 44
-50.0
173
     0
291
     1
 45
0.0
1001
ACAD
1000
AcDbSavedByObjectVersion
1070
     0
  0
VISUALSTYLE
  5
3D
102
{ACAD_REACTORS
330
2A
102
}
102
{ACAD_XDICTIONARY
360
2C9
102
}
330
2A
100
AcDbVisualStyle
  2
EdgeColorOff
 70
    22
 71
     2
 72
     2
 73
     0
 90
        0
 40
0.6
 41
30.0
 62
     5
 63
     7
 74
     1
 91
        4
 64
     7
 65
   257
 75
     1
175
     1
 42
1.0
 92
        8
 66
     7
 43
1.0
 76
     1
 77
     6
 78
     2
 67
     7
 79
     5
170
     0
171
     0
290
     0
174
     0
 93
        1
 44
0.0
173
     0
291
     1
 45
0.0
1001
ACAD
1000
AcDbSavedByObjectVersion
1070
     0
  0
VISUALSTYLE
  5
39
102
{ACAD_REACTORS
330
2A
102
}
102
{ACAD_XDICTIONARY
360
2C1
102
}
330
2A
100
AcDbVisualStyle
  2
Facepattern
 70
    15
 71
     2
 72
     2
 73
     0
 90
        0
 40
0.6
 41
30.0
 62
     5
 63
     7
 74
     1
 91
        4
 64
     7
 65
   257
 75
     1
175
     1
 42
1.0
 92
        8
 66
     7
 43
1.0
 76
     1
 77
     6
 78
     2
 67
     7
 79
     5
170
     0
171
     0
290
     0
174
     0
 93
        1
 44
0.0
173
     0
291
     1
 45
0.0
1001
ACAD
1000
AcDbSavedByObjectVersion
1070
     0
  0
VISUALSTYLE
  5
2B
102
{ACAD_REACTORS
330
2A
102
}
102
{ACAD_XDICTIONARY
360
2A5
102
}
330
2A
100
AcDbVisualStyle
  2
Flat
 70
     0
 71
     2
 72
     1
 73
     1
 90
        2
 40
0.6
 41
30.0
 62
     5
 63
     7
 74
     0
 91
        0
 64
     7
 65
   257
 75
     1
175
     1
 42
1.0
 92
        8
 66
     7
 43
1.0
 76
     1
 77
     6
 78
     2
 67
     7
 79
     5
170
     0
171
     0
290
     0
174
     0
 93
       13
 44
0.0
173
     0
291
     1
 45
0.0
1001
ACAD
1000
AcDbSavedByObjectVersion
1070
     0
  0
VISUALSTYLE
  5
2C
102
{ACAD_REACTORS
330
2A
102
}
102
{ACAD_XDICTIONARY
360
2A7
102
}
330
2A
100
AcDbVisualStyle
  2
FlatWithEdges
 70
     1
 71
     2
 72
     1
 73
     1
 90
        2
 40
0.6
 41
30.0
 62
     5
 63
     7
 74
     1
 91
        0
 64
     7
 65
   257
 75
     1
175
     1
 42
1.0
 92
        0
 66
   257
 43
1.0
 76
     1
 77
     6
 78
     2
 67
     7
 79
     5
170
     0
171
     0
290
     0
174
     0
 93
       13
 44
0.0
173
     0
291
     1
 45
0.0
1001
ACAD
1000
AcDbSavedByObjectVersion
1070
     0
  0
VISUALSTYLE
  5
2D
102
{ACAD_REACTORS
330
2A
102
}
102
{ACAD_XDICTIONARY
360
2A9
102
}
330
2A
100
AcDbVisualStyle
  2
Gouraud
 70
     2
 71
     2
 72
     2
 73
     1
 90
        2
 40
0.6
 41
30.0
 62
     5
 63
     7
 74
     0
 91
        0
 64
     7
 65
   257
 75
     1
175
     1
 42
1.0
 92
        0
 66
     7
 43
1.0
 76
     1
 77
     6
 78
     2
 67
     7
 79
     5
170
     0
171
     0
290
     0
174
     0
 93
       13
 44
0.0
173
     0
291
     1
 45
0.0
1001
ACAD
1000
AcDbSavedByObjectVersion
1070
     0
  0
VISUALSTYLE
  5
2E
102
{ACAD_REACTORS
330
2A
102
}
102
{ACAD_XDICTIONARY
360
2AB
102
}
330
2A
100
AcDbVisualStyle
  2
GouraudWithEdges
 70
     3
 71
     2
 72
     2
 73
     1
 90
        2
 40
0.6
 41
30.0
 62
     5
 63
     7
 74
     1
 91
        0
 64
     7
 65
   257
 75
     1
175
     1
 42
1.0
 92
        0
 66
   257
 43
1.0
 76
     1
 77
     6
 78
     2
 67
     7
 79
     5
170
     0
171
     0
290
     0
174
     0
 93
       13
 44
0.0
173
     0
291
     1
 45
0.0
1001
ACAD
1000
AcDbSavedByObjectVersion
1070
     0
  0
VISUALSTYLE
  5
31
102
{ACAD_REACTORS
330
2A
102
}
102
{ACAD_XDICTIONARY
360
2B1
102
}
330
2A
100
AcDbVisualStyle
  2
Hidden
 70
     6
 71
     1
 72
     2
 73
     2
 90
        0
 40
0.6
 41
30.0
 62
     5
 63
     7
 74
     2
 91
        2
 64
     7
 65
   257
 75
     2
175
     1
 42
40.0
 92
        0
 66
   257
 43
1.0
 76
     1
 77
     6
 78
     2
 67
     7
 79
     3
170
     0
171
     0
290
     0
174
     0
 93
        1
 44
0.0
173
     0
291
     0
 45
0.0
1001
ACAD
1000
AcDbSavedByObjectVersion
1070
     0
  0
VISUALSTYLE
  5
3B
102
{ACAD_REACTORS
330
2A
102
}
102
{ACAD_XDICTIONARY
360
2C5
102
}
330
2A
100
AcDbVisualStyle
  2
JitterOff
 70
    20
 71
     2
 72
     2
 73
     0
 90
        0
 40
0.6
 41
30.0
 62
     5
 63
     7
 74
     1
 91
        4
 64
     7
 65
   257
 75
     1
175
     1
 42
1.0
 92
       10
 66
     7
 43
1.0
 76
     1
 77
     6
 78
     2
 67
     7
 79
     5
170
     0
171
     0
290
     0
174
     0
 93
        1
 44
0.0
173
     0
291
     1
 45
0.0
1001
ACAD
1000
AcDbSavedByObjectVersion
1070
     0
  0
VISUALSTYLE
  5
38
102
{ACAD_REACTORS
330
2A
102
}
102
{ACAD_XDICTIONARY
360
2BF
102
}
330
2A
100
AcDbVisualStyle
  2
Linepattern
 70
    14
 71
     2
 72
     2
 73
     0
 90
        0
 40
0.6
 41
30.0
 62
     5
 63
     7
 74
     1
 91
        4
 64
     7
 65
   257
 75
     7
175
     7
 42
1.0
 92
        8
 66
     7
 43
1.0
 76
     1
 77
     6
 78
     2
 67
     7
 79
     5
170
     0
171
     0
290
     0
174
     0
 93
        1
 44
0.0
173
     0
291
     1
 45
0.0
1001
ACAD
1000
AcDbSavedByObjectVersion
1070
     0
  0
VISUALSTYLE
  5
3C
102
{ACAD_REACTORS
330
2A
102
}
102
{ACAD_XDICTIONARY
360
2C7
102
}
330
2A
100
AcDbVisualStyle
  2
OverhangOff
 70
    21
 71
     2
 72
     2
 73
     0
 90
        0
 40
0.6
 41
30.0
 62
     5
 63
     7
 74
     1
 91
        4
 64
     7
 65
   257
 75
     1
175
     1
 42
1.0
 92
        9
 66
     7
 43
1.0
 76
     1
 77
     6
 78
     2
 67
     7
 79
     5
170
     0
171
     0
290
     0
174
     0
 93
        1
 44
0.0
173
     0
291
     1
 45
0.0
1001
ACAD
1000
AcDbSavedByObjectVersion
1070
     0
  0
VISUALSTYLE
  5
33
102
{ACAD_REACTORS
330
2A
102
}
102
{ACAD_XDICTIONARY
360
2B5
102
}
330
2A
100
AcDbVisualStyle
  2
Realistic
 70
     8
 71
     2
 72
     3
 73
     0
 90
        2
 40
0.6
 41
30.0
 62
     5
 63
     7
 74
     0
 91
        0
 64
     7
 65
   257
 75
     1
175
     1
 42
1.0
 92
        8
 66
   257
 43
1.0
 76
     1
 77
     6
 78
     2
 67
     7
 79
     3
170
     0
171
     0
290
     0
174
     0
 93
       13
 44
0.0
173
     0
291
     0
 45
0.0
1001
ACAD
1000
AcDbSavedByObjectVersion
1070
     0
  0
VISUALSTYLE
  5
42
102
{ACAD_REACTORS
330
2A
102
}
102
{ACAD_XDICTIONARY
360
2D3
102
}
330
2A
100
AcDbVisualStyle
  2
Shaded
 70
    27
 71
     2
 72
     2
 73
     1
 90
        2
 40
0.6
 41
30.0
 62
     5
 63
     7
 74
     0
 91
        4
 64
     7
 65
   257
 75
     1
175
     1
 42
1.0
 92
        8
 66
   257
 43
1.0
 76
     1
 77
     6
 78
     2
 67
     8
 79
     3
170
     0
171
     0
290
     0
174
     0
 93
        5
 44
0.0
173
     0
291
     0
 45
0.0
1001
ACAD
1000
AcDbSavedByObjectVersion
1070
     0
  0
VISUALSTYLE
  5
41
102
{ACAD_REACTORS
330
2A
102
}
102
{ACAD_XDICTIONARY
360
2D1
102
}
330
2A
100
AcDbVisualStyle
  2
Shaded with edges
 70
    26
 71
     2
 72
     2
 73
     1
 90
        2
 40
0.6
 41
30.0
 62
     5
 63
     7
 74
     1
 91
       10
 64
     7
 65
   257
 75
     2
175
     1
 42
1.0
 92
        8
 66
   257
 43
1.0
 76
     1
 77
     6
 78
     2
 67
     7
 79
     3
170
     0
171
     0
290
     0
174
     0
 93
        5
 44
0.0
173
     0
291
     0
 45
0.0
1001
ACAD
1000
AcDbSavedByObjectVersion
1070
     0
  0
VISUALSTYLE
  5
3E
102
{ACAD_REACTORS
330
2A
102
}
102
{ACAD_XDICTIONARY
360
2CB
102
}
330
2A
100
AcDbVisualStyle
  2
Shades of Gray
 70
    23
 71
     2
 72
     2
 73
     3
 90
        0
 40
0.6
 41
30.0
 62
     5
 63
     7
 74
     2
 91
        2
 64
     7
 65
     7
 75
     1
175
     1
 42
40.0
 92
        8
 66
     7
 43
1.0
 76
     1
 77
     6
 78
     2
 67
     7
 79
     3
170
     0
171
     0
290
     0
174
     0
 93
        1
 44
0.0
173
     0
291
     0
 45
0.0
1001
ACAD
1000
AcDbSavedByObjectVersion
1070
     0
  0
VISUALSTYLE
  5
3F
102
{ACAD_REACTORS
330
2A
102
}
102
{ACAD_XDICTIONARY
360
2CD
102
}
330
2A
100
AcDbVisualStyle
  2
Sketchy
 70
    24
 71
     1
 72
     2
 73
     2
 90
        0
 40
0.6
 41
30.0
 62
     5
 63
     7
 74
     2
 91
        2
 64
     7
 65
     7
 75
     1
175
     1
 42
40.0
 92
       11
 66
     7
 43
1.0
 76
     1
 77
     6
 78
     2
 67
     7
 79
     6
170
     0
171
     0
290
     0
174
     0
 93
        1
 44
0.0
173
     0
291
     0
 45
0.0
1001
ACAD
1000
AcDbSavedByObjectVersion
1070
     0
  0
VISUALSTYLE
  5
37
102
{ACAD_REACTORS
330
2A
102
}
102
{ACAD_XDICTIONARY
360
2BD
102
}
330
2A
100
AcDbVisualStyle
  2
Thicken
 70
    13
 71
     2
 72
     2
 73
     0
 90
        0
 40
0.6
 41
30.0
 62
     5
 63
     7
 74
     1
 91
        4
 64
     7
 65
   257
 75
     1
175
     1
 42
1.0
 92
       12
 66
     7
 43
1.0
 76
     1
 77
     6
 78
     2
 67
     7
 79
     5
170
     0
171
     0
290
     0
174
     0
 93
        1
 44
0.0
173
     0
291
     1
 45
0.0
1001
ACAD
1000
AcDbSavedByObjectVersion
1070
     0
  0
VISUALSTYLE
  5
30
102
{ACAD_REACTORS
330
2A
102
}
102
{ACAD_XDICTIONARY
360
2AF
102
}
330
2A
100
AcDbVisualStyle
  2
Wireframe
 70
     5
 71
     0
 72
     2
 73
     0
 90
        0
 40
0.6
 41
30.0
 62
     5
 63
     7
 74
     1
 91
        4
 64
     7
 65
   257
 75
     1
175
     1
 42
1.0
 92
        0
 66
   257
 43
1.0
 76
     1
 77
     6
 78
     2
 67
     7
 79
     3
170
     0
171
     0
290
     0
174
     0
 93
        1
 44
0.0
173
     0
291
     0
 45
0.0
1001
ACAD
1000
AcDbSavedByObjectVersion
1070
     0
  0
VISUALSTYLE
  5
40
102
{ACAD_REACTORS
330
2A
102
}
102
{ACAD_XDICTIONARY
360
2CF
102
}
330
2A
100
AcDbVisualStyle
  2
X-Ray
 70
    25
 71
     2
 72
     2
 73
     1
 90
        1
 40
0.5
 41
30.0
 62
     5
 63
     7
 74
     1
 91
        0
 64
     7
 65
   257
 75
     1
175
     1
 42
1.0
 92
        8
 66
     7
 43
1.0
 76
     1
 77
     6
 78
     2
 67
     7
 79
     3
170
     0
171
     0
290
     0
174
     0
 93
       13
 44
0.0
173
     0
291
     0
 45
0.0
1001
ACAD
1000
AcDbSavedByObjectVersion
1070
     0
  0
DICTIONARYVAR
  5
2A3
102
{ACAD_REACTORS
330
298
102
}
330
298
100
DictionaryVariables
280
     0
  1
1:1
  0
DICTIONARYVAR
  5
29B
102
{ACAD_REACTORS
330
298
102
}
330
298
100
DictionaryVariables
280
     0
  1
1
  0
DICTIONARYVAR
  5
29E
102
{ACAD_REACTORS
330
298
102
}
330
298
100
DictionaryVariables
280
     0
  1
1
  0
DICTIONARYVAR
  5
2A4
102
{ACAD_REACTORS
330
298
102
}
330
298
100
DictionaryVariables
280
     0
  1
1
  0
DICTIONARY
  5
2D7
330
45
100
AcDbDictionary
280
     1
281
     1
  3
ACAD_XREC_ROUNDTRIP
360
2D8
  0
DICTIONARY
  5
2D5
330
44
100
AcDbDictionary
280
     1
281
     1
  3
ACAD_XREC_ROUNDTRIP
360
2D6
  0
DICTIONARY
  5
2D9
330
46
100
AcDbDictionary
280
     1
281
     1
  3
ACAD_XREC_ROUNDTRIP
360
2DA
  0
DICTIONARY
  5
2AD
330
2F
100
AcDbDictionary
280
     1
281
     1
  3
ACAD_XREC_ROUNDTRIP
360
2AE
  0
DICTIONARY
  5
2B3
330
32
100
AcDbDictionary
280
     1
281
     1
  3
ACAD_XREC_ROUNDTRIP
360
2B4
  0
DICTIONARY
  5
2BB
330
36
100
AcDbDictionary
280
     1
281
     1
  3
ACAD_XREC_ROUNDTRIP
360
2BC
  0
DICTIONARY
  5
2C3
330
3A
100
AcDbDictionary
280
     1
281
     1
  3
ACAD_XREC_ROUNDTRIP
360
2C4
  0
DICTIONARY
  5
2B7
330
34
100
AcDbDictionary
280
     1
281
     1
  3
ACAD_XREC_ROUNDTRIP
360
2B8
  0
DICTIONARY
  5
2B9
330
35
100
AcDbDictionary
280
     1
281
     1
  3
ACAD_XREC_ROUNDTRIP
360
2BA
  0
DICTIONARY
  5
2C9
330
3D
100
AcDbDictionary
280
     1
281
     1
  3
ACAD_XREC_ROUNDTRIP
360
2CA
  0
DICTIONARY
  5
2C1
330
39
100
AcDbDictionary
280
     1
281
     1
  3
ACAD_XREC_ROUNDTRIP
360
2C2
  0
DICTIONARY
  5
2A5
330
2B
100
AcDbDictionary
280
     1
281
     1
  3
ACAD_XREC_ROUNDTRIP
360
2A6
  0
DICTIONARY
  5
2A7
330
2C
100
AcDbDictionary
280
     1
281
     1
  3
ACAD_XREC_ROUNDTRIP
360
2A8
  0
DICTIONARY
  5
2A9
330
2D
100
AcDbDictionary
280
     1
281
     1
  3
ACAD_XREC_ROUNDTRIP
360
2AA
  0
DICTIONARY
  5
2AB
330
2E
100
AcDbDictionary
280
     1
281
     1
  3
ACAD_XREC_ROUNDTRIP
360
2AC
  0
DICTIONARY
  5
2B1
330
31
100
AcDbDictionary
280
     1
281
     1
  3
ACAD_XREC_ROUNDTRIP
360
2B2
  0
DICTIONARY
  5
2C5
330
3B
100
AcDbDictionary
280
     1
281
     1
  3
ACAD_XREC_ROUNDTRIP
360
2C6
  0
DICTIONARY
  5
2BF
330
38
100
AcDbDictionary
280
     1
281
     1
  3
ACAD_XREC_ROUNDTRIP
360
2C0
  0
DICTIONARY
  5
2C7
330
3C
100
AcDbDictionary
280
     1
281
     1
  3
ACAD_XREC_ROUNDTRIP
360
2C8
  0
DICTIONARY
  5
2B5
330
33
100
AcDbDictionary
280
     1
281
     1
  3
ACAD_XREC_ROUNDTRIP
360
2B6
  0
DICTIONARY
  5
2D3
330
42
100
AcDbDictionary
280
     1
281
     1
  3
ACAD_XREC_ROUNDTRIP
360
2D4
  0
DICTIONARY
  5
2D1
330
41
100
AcDbDictionary
280
     1
281
     1
  3
ACAD_XREC_ROUNDTRIP
360
2D2
  0
DICTIONARY
  5
2CB
330
3E
100
AcDbDictionary
280
     1
281
     1
  3
ACAD_XREC_ROUNDTRIP
360
2CC
  0
DICTIONARY
  5
2CD
330
3F
100
AcDbDictionary
280
     1
281
     1
  3
ACAD_XREC_ROUNDTRIP
360
2CE
  0
DICTIONARY
  5
2BD
330
37
100
AcDbDictionary
280
     1
281
     1
  3
ACAD_XREC_ROUNDTRIP
360
2BE
  0
DICTIONARY
  5
2AF
330
30
100
AcDbDictionary
280
     1
281
     1
  3
ACAD_XREC_ROUNDTRIP
360
2B0
  0
DICTIONARY
  5
2CF
330
40
100
AcDbDictionary
280
     1
281
     1
  3
ACAD_XREC_ROUNDTRIP
360
2D0
  0
XRECORD
  5
2D8
102
{ACAD_REACTORS
330
2D7
102
}
330
2D7
100
AcDbXrecord
280
     1
102
MATERIAL
148
0.0
149
0.0
149
0.0
 93
        0
 94
      127
282
     0
 72
     1
 77
     1
171
     1
175
     1
179
     1
273
     0
  0
XRECORD
  5
2D6
102
{ACAD_REACTORS
330
2D5
102
}
330
2D5
100
AcDbXrecord
280
     1
102
MATERIAL
148
0.0
149
0.0
149
0.0
 93
        0
 94
      127
282
     0
 72
     1
 77
     1
171
     1
175
     1
179
     1
273
     0
  0
XRECORD
  5
2DA
102
{ACAD_REACTORS
330
2D9
102
}
330
2D9
100
AcDbXrecord
280
     1
102
MATERIAL
148
0.0
149
0.0
149
0.0
 93
        0
 94
      127
282
     0
 72
     1
 77
     1
171
     1
175
     1
179
     1
273
     0
  0
XRECORD
  5
2AE
102
{ACAD_REACTORS
330
2AD
102
}
330
2AD
100
AcDbXrecord
280
     1
102
RTVSPropertyOp0
 70
     1
102
RTVSPropertyOp1
 70
     1
102
RTVSPropertyOp2
 70
     1
102
RTVSPropertyOp3
 70
     1
102
RTVSPropertyOp4
 70
     1
102
RTVSPropertyOp5
 70
     1
102
RTVSPropertyOp6
 70
     1
102
RTVSPropertyOp7
 70
     1
102
RTVSPropertyOp8
 70
     1
102
RTVSPropertyOp9
 70
     1
102
RTVSPropertyOp10
 70
     1
102
RTVSPropertyOp11
 70
     1
102
RTVSPropertyOp12
 70
     1
102
RTVSPropertyOp13
 70
     1
102
RTVSPropertyOp14
 70
     1
102
RTVSPropertyOp15
 70
     1
102
RTVSPropertyOp16
 70
     1
102
RTVSPropertyOp17
 70
     1
102
RTVSPropertyOp18
 70
     1
102
RTVSPropertyOp19
 70
     1
102
RTVSPropertyOp20
 70
     1
102
RTVSPropertyOp21
 70
     1
102
RTVSPropertyOp22
 70
     1
102
RTVSPropertyOp23
 70
     1
102
RTVSPropertyOp24
 70
     1
102
RTVSPropertyOp25
 70
     1
102
RTVSPropertyOp26
 70
     1
102
RTVSPropertyOp27
 70
     1
102
RTVSPropertyOp28
 70
     1
102
RTVSPropertyOp29
 70
     1
102
RTVSPropertyOp30
 70
     1
102
RTVSPropertyOp31
 70
     1
102
RTVSPropertyOp32
 70
     1
102
RTVSPropertyOp33
 70
     1
102
RTVSPropertyOp34
 70
     1
102
RTVSPropertyOp35
 70
     1
102
RTVSPropertyOp36
 70
     1
102
RTVSPropertyOp37
 70
     1
102
RTVSPropertyOp38
 70
     1
102
RTVSPropertyOp39
 70
     1
102
RTVSPropertyOp40
 70
     1
102
RTVSPropertyOp41
 70
     1
102
RTVSPropertyOp42
 70
     1
102
RTVSPropertyOp43
 70
     1
102
RTVSPropertyOp44
 70
     1
102
RTVSPropertyOp45
 70
     1
102
RTVSPropertyOp46
 70
     1
102
RTVSPropertyOp47
 70
     1
102
RTVSPropertyOp48
 70
     1
102
RTVSPropertyOp49
 70
     1
102
RTVSPropertyOp50
 70
     1
102
RTVSPropertyOp51
 70
     0
102
RTVSPropertyOp52
 70
     0
102
RTVSPropertyOp53
 70
     1
102
RTVSPropertyOp54
 70
     1
102
RTVSPropertyOp55
 70
     1
102
RTVSPropertyOp56
 70
     1
102
RTVSPropertyOp57
 70
     1
102
RTVSPost2010Prop28
280
     1
102
RTVSPost2010PropOp28
 70
     1
102
RTVSPost2010Prop29
280
     1
102
RTVSPost2010PropOp29
 70
     1
102
RTVSPost2010Prop30
280
     0
102
RTVSPost2010PropOp30
 70
     1
102
RTVSPost2010Prop31
280
     0
102
RTVSPost2010PropOp31
 70
     1
102
RTVSPost2010Prop32
280
     0
102
RTVSPost2010PropOp32
 70
     1
102
RTVSPost2010Prop33
280
     0
102
RTVSPost2010PropOp33
 70
     1
102
RTVSPost2010Prop34
280
     0
102
RTVSPost2010PropOp34
 70
     1
102
RTVSPost2010Prop35
280
     0
102
RTVSPost2010PropOp35
 70
     1
102
RTVSPost2010Prop36
280
     0
102
RTVSPost2010PropOp36
 70
     1
102
RTVSPost2010Prop37
 90
       50
102
RTVSPost2010PropOp37
 70
     1
102
RTVSPost2010Prop38
140
0.0
102
RTVSPost2010PropOp38
 70
     1
102
RTVSPost2010Prop39
140
1.0
102
RTVSPost2010PropOp39
 70
     1
102
RTVSPost2010Prop40
 90
        0
102
RTVSPost2010PropOp40
 70
     1
102
RTVSPost2010Prop41ColorIndex
 90
       18
102
RTVSPost2010Prop41ColorRGB
 90
        0
102
RTVSPost2010PropOp41
 70
     1
102
RTVSPost2010Prop42
 90
       50
102
RTVSPost2010PropOp42
 70
     1
102
RTVSPost2010Prop43
 90
        3
102
RTVSPost2010PropOp43
 70
     1
102
RTVSPost2010Prop44ColorIndex
 90
        5
102
RTVSPost2010Prop44ColorRGB
 90
      255
102
RTVSPost2010PropOp44
 70
     1
102
RTVSPost2010Prop45
280
     0
102
RTVSPost2010PropOp45
 70
     1
102
RTVSPost2010Prop46
 90
       50
102
RTVSPost2010PropOp46
 70
     1
102
RTVSPost2010Prop47
 90
       50
102
RTVSPost2010PropOp47
 70
     1
102
RTVSPost2010Prop48
 90
       50
102
RTVSPost2010PropOp48
 70
     1
102
RTVSPost2010Prop49
280
     0
102
RTVSPost2010PropOp49
 70
     1
102
RTVSPost2010Prop50
 90
       50
102
RTVSPost2010PropOp50
 70
     1
102
RTVSPost2010Prop51ColorIndex
 90
      256
102
RTVSPost2010Prop51ColorRGB
 90
-16777216
102
RTVSPost2010PropOp51
 70
     0
102
RTVSPost2010Prop52
140
1.0
102
RTVSPost2010PropOp52
 70
     0
102
RTVSPost2010Prop53
 90
        2
102
RTVSPost2010PropOp53
 70
     1
102
RTVSPost2010Prop54
  1
strokes_ogs.tif
102
RTVSPost2010PropOp54
 70
     1
102
RTVSPost2010Prop55
280
     0
102
RTVSPost2010PropOp55
 70
     1
102
RTVSPost2010Prop56
140
1.0
102
RTVSPost2010PropOp56
 70
     1
102
RTVSPost2010Prop57
140
1.0
102
RTVSPost2010PropOp57
 70
     1
  0
XRECORD
  5
2B4
102
{ACAD_REACTORS
330
2B3
102
}
330
2B3
100
AcDbXrecord
280
     1
102
RTVSPropertyOp0
 70
     1
102
RTVSPropertyOp1
 70
     1
102
RTVSPropertyOp2
 70
     1
102
RTVSPropertyOp3
 70
     1
102
RTVSPropertyOp4
 70
     1
102
RTVSPropertyOp5
 70
     1
102
RTVSPropertyOp6
 70
     1
102
RTVSPropertyOp7
 70
     1
102
RTVSPropertyOp8
 70
     1
102
RTVSPropertyOp9
 70
     1
102
RTVSPropertyOp10
 70
     1
102
RTVSPropertyOp11
 70
     1
102
RTVSPropertyOp12
 70
     1
102
RTVSPropertyOp13
 70
     1
102
RTVSPropertyOp14
 70
     1
102
RTVSPropertyOp15
 70
     1
102
RTVSPropertyOp16
 70
     1
102
RTVSPropertyOp17
 70
     1
102
RTVSPropertyOp18
 70
     1
102
RTVSPropertyOp19
 70
     1
102
RTVSPropertyOp20
 70
     1
102
RTVSPropertyOp21
 70
     1
102
RTVSPropertyOp22
 70
     1
102
RTVSPropertyOp23
 70
     1
102
RTVSPropertyOp24
 70
     1
102
RTVSPropertyOp25
 70
     1
102
RTVSPropertyOp26
 70
     1
102
RTVSPropertyOp27
 70
     1
102
RTVSPropertyOp28
 70
     1
102
RTVSPropertyOp29
 70
     1
102
RTVSPropertyOp30
 70
     1
102
RTVSPropertyOp31
 70
     1
102
RTVSPropertyOp32
 70
     1
102
RTVSPropertyOp33
 70
     1
102
RTVSPropertyOp34
 70
     1
102
RTVSPropertyOp35
 70
     1
102
RTVSPropertyOp36
 70
     1
102
RTVSPropertyOp37
 70
     1
102
RTVSPropertyOp38
 70
     1
102
RTVSPropertyOp39
 70
     1
102
RTVSPropertyOp40
 70
     1
102
RTVSPropertyOp41
 70
     1
102
RTVSPropertyOp42
 70
     1
102
RTVSPropertyOp43
 70
     1
102
RTVSPropertyOp44
 70
     1
102
RTVSPropertyOp45
 70
     1
102
RTVSPropertyOp46
 70
     1
102
RTVSPropertyOp47
 70
     1
102
RTVSPropertyOp48
 70
     1
102
RTVSPropertyOp49
 70
     1
102
RTVSPropertyOp50
 70
     1
102
RTVSPropertyOp51
 70
     0
102
RTVSPropertyOp52
 70
     0
102
RTVSPropertyOp53
 70
     1
102
RTVSPropertyOp54
 70
     1
102
RTVSPropertyOp55
 70
     1
102
RTVSPropertyOp56
 70
     1
102
RTVSPropertyOp57
 70
     1
102
RTVSPost2010Prop28
280
     0
102
RTVSPost2010PropOp28
 70
     1
102
RTVSPost2010Prop29
280
     1
102
RTVSPost2010PropOp29
 70
     1
102
RTVSPost2010Prop30
280
     1
102
RTVSPost2010PropOp30
 70
     1
102
RTVSPost2010Prop31
280
     0
102
RTVSPost2010PropOp31
 70
     1
102
RTVSPost2010Prop32
280
     0
102
RTVSPost2010PropOp32
 70
     1
102
RTVSPost2010Prop33
280
     0
102
RTVSPost2010PropOp33
 70
     1
102
RTVSPost2010Prop34
280
     0
102
RTVSPost2010PropOp34
 70
     1
102
RTVSPost2010Prop35
280
     0
102
RTVSPost2010PropOp35
 70
     1
102
RTVSPost2010Prop36
280
     0
102
RTVSPost2010PropOp36
 70
     1
102
RTVSPost2010Prop37
 90
       50
102
RTVSPost2010PropOp37
 70
     1
102
RTVSPost2010Prop38
140
0.0
102
RTVSPost2010PropOp38
 70
     1
102
RTVSPost2010Prop39
140
1.0
102
RTVSPost2010PropOp39
 70
     1
102
RTVSPost2010Prop40
 90
        0
102
RTVSPost2010PropOp40
 70
     1
102
RTVSPost2010Prop41ColorIndex
 90
       18
102
RTVSPost2010Prop41ColorRGB
 90
        0
102
RTVSPost2010PropOp41
 70
     1
102
RTVSPost2010Prop42
 90
       50
102
RTVSPost2010PropOp42
 70
     1
102
RTVSPost2010Prop43
 90
        3
102
RTVSPost2010PropOp43
 70
     1
102
RTVSPost2010Prop44ColorIndex
 90
        5
102
RTVSPost2010Prop44ColorRGB
 90
      255
102
RTVSPost2010PropOp44
 70
     1
102
RTVSPost2010Prop45
280
     0
102
RTVSPost2010PropOp45
 70
     1
102
RTVSPost2010Prop46
 90
       50
102
RTVSPost2010PropOp46
 70
     1
102
RTVSPost2010Prop47
 90
       50
102
RTVSPost2010PropOp47
 70
     1
102
RTVSPost2010Prop48
 90
       50
102
RTVSPost2010PropOp48
 70
     1
102
RTVSPost2010Prop49
280
     0
102
RTVSPost2010PropOp49
 70
     1
102
RTVSPost2010Prop50
 90
       50
102
RTVSPost2010PropOp50
 70
     1
102
RTVSPost2010Prop51ColorIndex
 90
      256
102
RTVSPost2010Prop51ColorRGB
 90
-16777216
102
RTVSPost2010PropOp51
 70
     0
102
RTVSPost2010Prop52
140
1.0
102
RTVSPost2010PropOp52
 70
     0
102
RTVSPost2010Prop53
 90
        2
102
RTVSPost2010PropOp53
 70
     1
102
RTVSPost2010Prop54
  1
strokes_ogs.tif
102
RTVSPost2010PropOp54
 70
     1
102
RTVSPost2010Prop55
280
     0
102
RTVSPost2010PropOp55
 70
     1
102
RTVSPost2010Prop56
140
1.0
102
RTVSPost2010PropOp56
 70
     1
102
RTVSPost2010Prop57
140
1.0
102
RTVSPost2010PropOp57
 70
     1
  0
XRECORD
  5
2BC
102
{ACAD_REACTORS
330
2BB
102
}
330
2BB
100
AcDbXrecord
280
     1
102
RTVSPropertyOp0
 70
     1
102
RTVSPropertyOp1
 70
     1
102
RTVSPropertyOp2
 70
     1
102
RTVSPropertyOp3
 70
     1
102
RTVSPropertyOp4
 70
     1
102
RTVSPropertyOp5
 70
     1
102
RTVSPropertyOp6
 70
     1
102
RTVSPropertyOp7
 70
     1
102
RTVSPropertyOp8
 70
     1
102
RTVSPropertyOp9
 70
     1
102
RTVSPropertyOp10
 70
     1
102
RTVSPropertyOp11
 70
     1
102
RTVSPropertyOp12
 70
     1
102
RTVSPropertyOp13
 70
     1
102
RTVSPropertyOp14
 70
     1
102
RTVSPropertyOp15
 70
     1
102
RTVSPropertyOp16
 70
     1
102
RTVSPropertyOp17
 70
     1
102
RTVSPropertyOp18
 70
     1
102
RTVSPropertyOp19
 70
     1
102
RTVSPropertyOp20
 70
     1
102
RTVSPropertyOp21
 70
     1
102
RTVSPropertyOp22
 70
     1
102
RTVSPropertyOp23
 70
     1
102
RTVSPropertyOp24
 70
     1
102
RTVSPropertyOp25
 70
     1
102
RTVSPropertyOp26
 70
     1
102
RTVSPropertyOp27
 70
     1
102
RTVSPropertyOp28
 70
     1
102
RTVSPropertyOp29
 70
     1
102
RTVSPropertyOp30
 70
     1
102
RTVSPropertyOp31
 70
     1
102
RTVSPropertyOp32
 70
     1
102
RTVSPropertyOp33
 70
     1
102
RTVSPropertyOp34
 70
     1
102
RTVSPropertyOp35
 70
     1
102
RTVSPropertyOp36
 70
     1
102
RTVSPropertyOp37
 70
     1
102
RTVSPropertyOp38
 70
     1
102
RTVSPropertyOp39
 70
     1
102
RTVSPropertyOp40
 70
     1
102
RTVSPropertyOp41
 70
     1
102
RTVSPropertyOp42
 70
     1
102
RTVSPropertyOp43
 70
     1
102
RTVSPropertyOp44
 70
     1
102
RTVSPropertyOp45
 70
     1
102
RTVSPropertyOp46
 70
     1
102
RTVSPropertyOp47
 70
     1
102
RTVSPropertyOp48
 70
     1
102
RTVSPropertyOp49
 70
     1
102
RTVSPropertyOp50
 70
     1
102
RTVSPropertyOp51
 70
     0
102
RTVSPropertyOp52
 70
     0
102
RTVSPropertyOp53
 70
     1
102
RTVSPropertyOp54
 70
     1
102
RTVSPropertyOp55
 70
     1
102
RTVSPropertyOp56
 70
     1
102
RTVSPropertyOp57
 70
     1
102
RTVSPost2010Prop28
280
     0
102
RTVSPost2010PropOp28
 70
     1
102
RTVSPost2010Prop29
280
     1
102
RTVSPost2010PropOp29
 70
     1
102
RTVSPost2010Prop30
280
     1
102
RTVSPost2010PropOp30
 70
     1
102
RTVSPost2010Prop31
280
     0
102
RTVSPost2010PropOp31
 70
     1
102
RTVSPost2010Prop32
280
     0
102
RTVSPost2010PropOp32
 70
     1
102
RTVSPost2010Prop33
280
     0
102
RTVSPost2010PropOp33
 70
     1
102
RTVSPost2010Prop34
280
     0
102
RTVSPost2010PropOp34
 70
     1
102
RTVSPost2010Prop35
280
     0
102
RTVSPost2010PropOp35
 70
     1
102
RTVSPost2010Prop36
280
     0
102
RTVSPost2010PropOp36
 70
     1
102
RTVSPost2010Prop37
 90
       50
102
RTVSPost2010PropOp37
 70
     1
102
RTVSPost2010Prop38
140
0.0
102
RTVSPost2010PropOp38
 70
     1
102
RTVSPost2010Prop39
140
1.0
102
RTVSPost2010PropOp39
 70
     1
102
RTVSPost2010Prop40
 90
        0
102
RTVSPost2010PropOp40
 70
     1
102
RTVSPost2010Prop41ColorIndex
 90
       18
102
RTVSPost2010Prop41ColorRGB
 90
        0
102
RTVSPost2010PropOp41
 70
     1
102
RTVSPost2010Prop42
 90
       50
102
RTVSPost2010PropOp42
 70
     1
102
RTVSPost2010Prop43
 90
        3
102
RTVSPost2010PropOp43
 70
     1
102
RTVSPost2010Prop44ColorIndex
 90
        5
102
RTVSPost2010Prop44ColorRGB
 90
      255
102
RTVSPost2010PropOp44
 70
     1
102
RTVSPost2010Prop45
280
     0
102
RTVSPost2010PropOp45
 70
     1
102
RTVSPost2010Prop46
 90
       50
102
RTVSPost2010PropOp46
 70
     1
102
RTVSPost2010Prop47
 90
       50
102
RTVSPost2010PropOp47
 70
     1
102
RTVSPost2010Prop48
 90
       50
102
RTVSPost2010PropOp48
 70
     1
102
RTVSPost2010Prop49
280
     0
102
RTVSPost2010PropOp49
 70
     1
102
RTVSPost2010Prop50
 90
       50
102
RTVSPost2010PropOp50
 70
     1
102
RTVSPost2010Prop51ColorIndex
 90
      256
102
RTVSPost2010Prop51ColorRGB
 90
-16777216
102
RTVSPost2010PropOp51
 70
     0
102
RTVSPost2010Prop52
140
1.0
102
RTVSPost2010PropOp52
 70
     0
102
RTVSPost2010Prop53
 90
        2
102
RTVSPost2010PropOp53
 70
     1
102
RTVSPost2010Prop54
  1
strokes_ogs.tif
102
RTVSPost2010PropOp54
 70
     1
102
RTVSPost2010Prop55
280
     0
102
RTVSPost2010PropOp55
 70
     1
102
RTVSPost2010Prop56
140
1.0
102
RTVSPost2010PropOp56
 70
     1
102
RTVSPost2010Prop57
140
1.0
102
RTVSPost2010PropOp57
 70
     1
  0
XRECORD
  5
2C4
102
{ACAD_REACTORS
330
2C3
102
}
330
2C3
100
AcDbXrecord
280
     1
102
RTVSPropertyOp0
 70
     1
102
RTVSPropertyOp1
 70
     1
102
RTVSPropertyOp2
 70
     1
102
RTVSPropertyOp3
 70
     1
102
RTVSPropertyOp4
 70
     1
102
RTVSPropertyOp5
 70
     1
102
RTVSPropertyOp6
 70
     1
102
RTVSPropertyOp7
 70
     1
102
RTVSPropertyOp8
 70
     1
102
RTVSPropertyOp9
 70
     1
102
RTVSPropertyOp10
 70
     1
102
RTVSPropertyOp11
 70
     1
102
RTVSPropertyOp12
 70
     1
102
RTVSPropertyOp13
 70
     1
102
RTVSPropertyOp14
 70
     1
102
RTVSPropertyOp15
 70
     1
102
RTVSPropertyOp16
 70
     1
102
RTVSPropertyOp17
 70
     1
102
RTVSPropertyOp18
 70
     1
102
RTVSPropertyOp19
 70
     1
102
RTVSPropertyOp20
 70
     1
102
RTVSPropertyOp21
 70
     1
102
RTVSPropertyOp22
 70
     1
102
RTVSPropertyOp23
 70
     1
102
RTVSPropertyOp24
 70
     1
102
RTVSPropertyOp25
 70
     1
102
RTVSPropertyOp26
 70
     1
102
RTVSPropertyOp27
 70
     1
102
RTVSPropertyOp28
 70
     1
102
RTVSPropertyOp29
 70
     1
102
RTVSPropertyOp30
 70
     1
102
RTVSPropertyOp31
 70
     1
102
RTVSPropertyOp32
 70
     1
102
RTVSPropertyOp33
 70
     1
102
RTVSPropertyOp34
 70
     1
102
RTVSPropertyOp35
 70
     1
102
RTVSPropertyOp36
 70
     1
102
RTVSPropertyOp37
 70
     1
102
RTVSPropertyOp38
 70
     1
102
RTVSPropertyOp39
 70
     1
102
RTVSPropertyOp40
 70
     1
102
RTVSPropertyOp41
 70
     1
102
RTVSPropertyOp42
 70
     1
102
RTVSPropertyOp43
 70
     1
102
RTVSPropertyOp44
 70
     1
102
RTVSPropertyOp45
 70
     1
102
RTVSPropertyOp46
 70
     1
102
RTVSPropertyOp47
 70
     1
102
RTVSPropertyOp48
 70
     1
102
RTVSPropertyOp49
 70
     1
102
RTVSPropertyOp50
 70
     1
102
RTVSPropertyOp51
 70
     0
102
RTVSPropertyOp52
 70
     0
102
RTVSPropertyOp53
 70
     1
102
RTVSPropertyOp54
 70
     1
102
RTVSPropertyOp55
 70
     1
102
RTVSPropertyOp56
 70
     1
102
RTVSPropertyOp57
 70
     1
102
RTVSPost2010Prop28
280
     0
102
RTVSPost2010PropOp28
 70
     1
102
RTVSPost2010Prop29
280
     1
102
RTVSPost2010PropOp29
 70
     1
102
RTVSPost2010Prop30
280
     1
102
RTVSPost2010PropOp30
 70
     1
102
RTVSPost2010Prop31
280
     0
102
RTVSPost2010PropOp31
 70
     1
102
RTVSPost2010Prop32
280
     0
102
RTVSPost2010PropOp32
 70
     1
102
RTVSPost2010Prop33
280
     0
102
RTVSPost2010PropOp33
 70
     1
102
RTVSPost2010Prop34
280
     0
102
RTVSPost2010PropOp34
 70
     1
102
RTVSPost2010Prop35
280
     0
102
RTVSPost2010PropOp35
 70
     1
102
RTVSPost2010Prop36
280
     0
102
RTVSPost2010PropOp36
 70
     1
102
RTVSPost2010Prop37
 90
       50
102
RTVSPost2010PropOp37
 70
     1
102
RTVSPost2010Prop38
140
0.0
102
RTVSPost2010PropOp38
 70
     1
102
RTVSPost2010Prop39
140
1.0
102
RTVSPost2010PropOp39
 70
     1
102
RTVSPost2010Prop40
 90
        0
102
RTVSPost2010PropOp40
 70
     1
102
RTVSPost2010Prop41ColorIndex
 90
       18
102
RTVSPost2010Prop41ColorRGB
 90
        0
102
RTVSPost2010PropOp41
 70
     1
102
RTVSPost2010Prop42
 90
       50
102
RTVSPost2010PropOp42
 70
     1
102
RTVSPost2010Prop43
 90
        3
102
RTVSPost2010PropOp43
 70
     1
102
RTVSPost2010Prop44ColorIndex
 90
        5
102
RTVSPost2010Prop44ColorRGB
 90
      255
102
RTVSPost2010PropOp44
 70
     1
102
RTVSPost2010Prop45
280
     0
102
RTVSPost2010PropOp45
 70
     1
102
RTVSPost2010Prop46
 90
       50
102
RTVSPost2010PropOp46
 70
     1
102
RTVSPost2010Prop47
 90
       50
102
RTVSPost2010PropOp47
 70
     1
102
RTVSPost2010Prop48
 90
       50
102
RTVSPost2010PropOp48
 70
     1
102
RTVSPost2010Prop49
280
     0
102
RTVSPost2010PropOp49
 70
     1
102
RTVSPost2010Prop50
 90
       50
102
RTVSPost2010PropOp50
 70
     1
102
RTVSPost2010Prop51ColorIndex
 90
      256
102
RTVSPost2010Prop51ColorRGB
 90
-16777216
102
RTVSPost2010PropOp51
 70
     0
102
RTVSPost2010Prop52
140
1.0
102
RTVSPost2010PropOp52
 70
     0
102
RTVSPost2010Prop53
 90
        2
102
RTVSPost2010PropOp53
 70
     1
102
RTVSPost2010Prop54
  1
strokes_ogs.tif
102
RTVSPost2010PropOp54
 70
     1
102
RTVSPost2010Prop55
280
     0
102
RTVSPost2010PropOp55
 70
     1
102
RTVSPost2010Prop56
140
1.0
102
RTVSPost2010PropOp56
 70
     1
102
RTVSPost2010Prop57
140
1.0
102
RTVSPost2010PropOp57
 70
     1
  0
XRECORD
  5
2B8
102
{ACAD_REACTORS
330
2B7
102
}
330
2B7
100
AcDbXrecord
280
     1
102
RTVSPropertyOp0
 70
     1
102
RTVSPropertyOp1
 70
     1
102
RTVSPropertyOp2
 70
     1
102
RTVSPropertyOp3
 70
     1
102
RTVSPropertyOp4
 70
     1
102
RTVSPropertyOp5
 70
     1
102
RTVSPropertyOp6
 70
     1
102
RTVSPropertyOp7
 70
     1
102
RTVSPropertyOp8
 70
     1
102
RTVSPropertyOp9
 70
     1
102
RTVSPropertyOp10
 70
     1
102
RTVSPropertyOp11
 70
     1
102
RTVSPropertyOp12
 70
     1
102
RTVSPropertyOp13
 70
     1
102
RTVSPropertyOp14
 70
     1
102
RTVSPropertyOp15
 70
     1
102
RTVSPropertyOp16
 70
     1
102
RTVSPropertyOp17
 70
     1
102
RTVSPropertyOp18
 70
     1
102
RTVSPropertyOp19
 70
     1
102
RTVSPropertyOp20
 70
     1
102
RTVSPropertyOp21
 70
     1
102
RTVSPropertyOp22
 70
     1
102
RTVSPropertyOp23
 70
     1
102
RTVSPropertyOp24
 70
     1
102
RTVSPropertyOp25
 70
     1
102
RTVSPropertyOp26
 70
     1
102
RTVSPropertyOp27
 70
     1
102
RTVSPropertyOp28
 70
     1
102
RTVSPropertyOp29
 70
     1
102
RTVSPropertyOp30
 70
     1
102
RTVSPropertyOp31
 70
     1
102
RTVSPropertyOp32
 70
     1
102
RTVSPropertyOp33
 70
     1
102
RTVSPropertyOp34
 70
     1
102
RTVSPropertyOp35
 70
     1
102
RTVSPropertyOp36
 70
     1
102
RTVSPropertyOp37
 70
     1
102
RTVSPropertyOp38
 70
     1
102
RTVSPropertyOp39
 70
     1
102
RTVSPropertyOp40
 70
     1
102
RTVSPropertyOp41
 70
     1
102
RTVSPropertyOp42
 70
     1
102
RTVSPropertyOp43
 70
     1
102
RTVSPropertyOp44
 70
     1
102
RTVSPropertyOp45
 70
     1
102
RTVSPropertyOp46
 70
     1
102
RTVSPropertyOp47
 70
     1
102
RTVSPropertyOp48
 70
     1
102
RTVSPropertyOp49
 70
     1
102
RTVSPropertyOp50
 70
     1
102
RTVSPropertyOp51
 70
     0
102
RTVSPropertyOp52
 70
     0
102
RTVSPropertyOp53
 70
     1
102
RTVSPropertyOp54
 70
     1
102
RTVSPropertyOp55
 70
     1
102
RTVSPropertyOp56
 70
     1
102
RTVSPropertyOp57
 70
     1
102
RTVSPost2010Prop28
280
     0
102
RTVSPost2010PropOp28
 70
     1
102
RTVSPost2010Prop29
280
     1
102
RTVSPost2010PropOp29
 70
     1
102
RTVSPost2010Prop30
280
     1
102
RTVSPost2010PropOp30
 70
     1
102
RTVSPost2010Prop31
280
     0
102
RTVSPost2010PropOp31
 70
     1
102
RTVSPost2010Prop32
280
     0
102
RTVSPost2010PropOp32
 70
     1
102
RTVSPost2010Prop33
280
     0
102
RTVSPost2010PropOp33
 70
     1
102
RTVSPost2010Prop34
280
     0
102
RTVSPost2010PropOp34
 70
     1
102
RTVSPost2010Prop35
280
     0
102
RTVSPost2010PropOp35
 70
     1
102
RTVSPost2010Prop36
280
     0
102
RTVSPost2010PropOp36
 70
     1
102
RTVSPost2010Prop37
 90
       50
102
RTVSPost2010PropOp37
 70
     1
102
RTVSPost2010Prop38
140
0.0
102
RTVSPost2010PropOp38
 70
     1
102
RTVSPost2010Prop39
140
1.0
102
RTVSPost2010PropOp39
 70
     1
102
RTVSPost2010Prop40
 90
        0
102
RTVSPost2010PropOp40
 70
     1
102
RTVSPost2010Prop41ColorIndex
 90
       18
102
RTVSPost2010Prop41ColorRGB
 90
        0
102
RTVSPost2010PropOp41
 70
     1
102
RTVSPost2010Prop42
 90
       50
102
RTVSPost2010PropOp42
 70
     1
102
RTVSPost2010Prop43
 90
        3
102
RTVSPost2010PropOp43
 70
     1
102
RTVSPost2010Prop44ColorIndex
 90
        5
102
RTVSPost2010Prop44ColorRGB
 90
      255
102
RTVSPost2010PropOp44
 70
     1
102
RTVSPost2010Prop45
280
     0
102
RTVSPost2010PropOp45
 70
     1
102
RTVSPost2010Prop46
 90
       50
102
RTVSPost2010PropOp46
 70
     1
102
RTVSPost2010Prop47
 90
       50
102
RTVSPost2010PropOp47
 70
     1
102
RTVSPost2010Prop48
 90
       50
102
RTVSPost2010PropOp48
 70
     1
102
RTVSPost2010Prop49
280
     0
102
RTVSPost2010PropOp49
 70
     1
102
RTVSPost2010Prop50
 90
       50
102
RTVSPost2010PropOp50
 70
     1
102
RTVSPost2010Prop51ColorIndex
 90
      256
102
RTVSPost2010Prop51ColorRGB
 90
-16777216
102
RTVSPost2010PropOp51
 70
     0
102
RTVSPost2010Prop52
140
1.0
102
RTVSPost2010PropOp52
 70
     0
102
RTVSPost2010Prop53
 90
        2
102
RTVSPost2010PropOp53
 70
     1
102
RTVSPost2010Prop54
  1
strokes_ogs.tif
102
RTVSPost2010PropOp54
 70
     1
102
RTVSPost2010Prop55
280
     0
102
RTVSPost2010PropOp55
 70
     1
102
RTVSPost2010Prop56
140
1.0
102
RTVSPost2010PropOp56
 70
     1
102
RTVSPost2010Prop57
140
1.0
102
RTVSPost2010PropOp57
 70
     1
  0
XRECORD
  5
2BA
102
{ACAD_REACTORS
330
2B9
102
}
330
2B9
100
AcDbXrecord
280
     1
102
RTVSPropertyOp0
 70
     1
102
RTVSPropertyOp1
 70
     1
102
RTVSPropertyOp2
 70
     1
102
RTVSPropertyOp3
 70
     1
102
RTVSPropertyOp4
 70
     1
102
RTVSPropertyOp5
 70
     1
102
RTVSPropertyOp6
 70
     1
102
RTVSPropertyOp7
 70
     1
102
RTVSPropertyOp8
 70
     1
102
RTVSPropertyOp9
 70
     1
102
RTVSPropertyOp10
 70
     1
102
RTVSPropertyOp11
 70
     1
102
RTVSPropertyOp12
 70
     1
102
RTVSPropertyOp13
 70
     1
102
RTVSPropertyOp14
 70
     1
102
RTVSPropertyOp15
 70
     1
102
RTVSPropertyOp16
 70
     1
102
RTVSPropertyOp17
 70
     1
102
RTVSPropertyOp18
 70
     1
102
RTVSPropertyOp19
 70
     1
102
RTVSPropertyOp20
 70
     1
102
RTVSPropertyOp21
 70
     1
102
RTVSPropertyOp22
 70
     1
102
RTVSPropertyOp23
 70
     1
102
RTVSPropertyOp24
 70
     1
102
RTVSPropertyOp25
 70
     1
102
RTVSPropertyOp26
 70
     1
102
RTVSPropertyOp27
 70
     1
102
RTVSPropertyOp28
 70
     1
102
RTVSPropertyOp29
 70
     1
102
RTVSPropertyOp30
 70
     1
102
RTVSPropertyOp31
 70
     1
102
RTVSPropertyOp32
 70
     1
102
RTVSPropertyOp33
 70
     1
102
RTVSPropertyOp34
 70
     1
102
RTVSPropertyOp35
 70
     1
102
RTVSPropertyOp36
 70
     1
102
RTVSPropertyOp37
 70
     1
102
RTVSPropertyOp38
 70
     1
102
RTVSPropertyOp39
 70
     1
102
RTVSPropertyOp40
 70
     1
102
RTVSPropertyOp41
 70
     1
102
RTVSPropertyOp42
 70
     1
102
RTVSPropertyOp43
 70
     1
102
RTVSPropertyOp44
 70
     1
102
RTVSPropertyOp45
 70
     1
102
RTVSPropertyOp46
 70
     1
102
RTVSPropertyOp47
 70
     1
102
RTVSPropertyOp48
 70
     1
102
RTVSPropertyOp49
 70
     1
102
RTVSPropertyOp50
 70
     1
102
RTVSPropertyOp51
 70
     0
102
RTVSPropertyOp52
 70
     0
102
RTVSPropertyOp53
 70
     1
102
RTVSPropertyOp54
 70
     1
102
RTVSPropertyOp55
 70
     1
102
RTVSPropertyOp56
 70
     1
102
RTVSPropertyOp57
 70
     1
102
RTVSPost2010Prop28
280
     0
102
RTVSPost2010PropOp28
 70
     1
102
RTVSPost2010Prop29
280
     1
102
RTVSPost2010PropOp29
 70
     1
102
RTVSPost2010Prop30
280
     1
102
RTVSPost2010PropOp30
 70
     1
102
RTVSPost2010Prop31
280
     0
102
RTVSPost2010PropOp31
 70
     1
102
RTVSPost2010Prop32
280
     0
102
RTVSPost2010PropOp32
 70
     1
102
RTVSPost2010Prop33
280
     0
102
RTVSPost2010PropOp33
 70
     1
102
RTVSPost2010Prop34
280
     0
102
RTVSPost2010PropOp34
 70
     1
102
RTVSPost2010Prop35
280
     0
102
RTVSPost2010PropOp35
 70
     1
102
RTVSPost2010Prop36
280
     0
102
RTVSPost2010PropOp36
 70
     1
102
RTVSPost2010Prop37
 90
       50
102
RTVSPost2010PropOp37
 70
     1
102
RTVSPost2010Prop38
140
0.0
102
RTVSPost2010PropOp38
 70
     1
102
RTVSPost2010Prop39
140
1.0
102
RTVSPost2010PropOp39
 70
     1
102
RTVSPost2010Prop40
 90
        0
102
RTVSPost2010PropOp40
 70
     1
102
RTVSPost2010Prop41ColorIndex
 90
       18
102
RTVSPost2010Prop41ColorRGB
 90
        0
102
RTVSPost2010PropOp41
 70
     1
102
RTVSPost2010Prop42
 90
       50
102
RTVSPost2010PropOp42
 70
     1
102
RTVSPost2010Prop43
 90
        3
102
RTVSPost2010PropOp43
 70
     1
102
RTVSPost2010Prop44ColorIndex
 90
        5
102
RTVSPost2010Prop44ColorRGB
 90
      255
102
RTVSPost2010PropOp44
 70
     1
102
RTVSPost2010Prop45
280
     0
102
RTVSPost2010PropOp45
 70
     1
102
RTVSPost2010Prop46
 90
       50
102
RTVSPost2010PropOp46
 70
     1
102
RTVSPost2010Prop47
 90
       50
102
RTVSPost2010PropOp47
 70
     1
102
RTVSPost2010Prop48
 90
       50
102
RTVSPost2010PropOp48
 70
     1
102
RTVSPost2010Prop49
280
     0
102
RTVSPost2010PropOp49
 70
     1
102
RTVSPost2010Prop50
 90
       50
102
RTVSPost2010PropOp50
 70
     1
102
RTVSPost2010Prop51ColorIndex
 90
      256
102
RTVSPost2010Prop51ColorRGB
 90
-16777216
102
RTVSPost2010PropOp51
 70
     0
102
RTVSPost2010Prop52
140
1.0
102
RTVSPost2010PropOp52
 70
     0
102
RTVSPost2010Prop53
 90
        2
102
RTVSPost2010PropOp53
 70
     1
102
RTVSPost2010Prop54
  1
strokes_ogs.tif
102
RTVSPost2010PropOp54
 70
     1
102
RTVSPost2010Prop55
280
     0
102
RTVSPost2010PropOp55
 70
     1
102
RTVSPost2010Prop56
140
1.0
102
RTVSPost2010PropOp56
 70
     1
102
RTVSPost2010Prop57
140
1.0
102
RTVSPost2010PropOp57
 70
     1
  0
XRECORD
  5
2CA
102
{ACAD_REACTORS
330
2C9
102
}
330
2C9
100
AcDbXrecord
280
     1
102
RTVSPropertyOp0
 70
     0
102
RTVSPropertyOp1
 70
     0
102
RTVSPropertyOp2
 70
     0
102
RTVSPropertyOp3
 70
     0
102
RTVSPropertyOp4
 70
     0
102
RTVSPropertyOp5
 70
     0
102
RTVSPropertyOp6
 70
     0
102
RTVSPropertyOp7
 70
     0
102
RTVSPropertyOp8
 70
     0
102
RTVSPropertyOp9
 70
     0
102
RTVSPropertyOp10
 70
     0
102
RTVSPropertyOp11
 70
     0
102
RTVSPropertyOp12
 70
     0
102
RTVSPropertyOp13
 70
     0
102
RTVSPropertyOp14
 70
     2
102
RTVSPropertyOp15
 70
     0
102
RTVSPropertyOp16
 70
     0
102
RTVSPropertyOp17
 70
     0
102
RTVSPropertyOp18
 70
     0
102
RTVSPropertyOp19
 70
     0
102
RTVSPropertyOp20
 70
     0
102
RTVSPropertyOp21
 70
     0
102
RTVSPropertyOp22
 70
     0
102
RTVSPropertyOp23
 70
     0
102
RTVSPropertyOp24
 70
     0
102
RTVSPropertyOp25
 70
     0
102
RTVSPropertyOp26
 70
     0
102
RTVSPropertyOp27
 70
     0
102
RTVSPropertyOp28
 70
     0
102
RTVSPropertyOp29
 70
     0
102
RTVSPropertyOp30
 70
     0
102
RTVSPropertyOp31
 70
     0
102
RTVSPropertyOp32
 70
     0
102
RTVSPropertyOp33
 70
     0
102
RTVSPropertyOp34
 70
     0
102
RTVSPropertyOp35
 70
     0
102
RTVSPropertyOp36
 70
     0
102
RTVSPropertyOp37
 70
     0
102
RTVSPropertyOp38
 70
     0
102
RTVSPropertyOp39
 70
     0
102
RTVSPropertyOp40
 70
     0
102
RTVSPropertyOp41
 70
     0
102
RTVSPropertyOp42
 70
     0
102
RTVSPropertyOp43
 70
     0
102
RTVSPropertyOp44
 70
     0
102
RTVSPropertyOp45
 70
     0
102
RTVSPropertyOp46
 70
     0
102
RTVSPropertyOp47
 70
     0
102
RTVSPropertyOp48
 70
     0
102
RTVSPropertyOp49
 70
     0
102
RTVSPropertyOp50
 70
     0
102
RTVSPropertyOp51
 70
     0
102
RTVSPropertyOp52
 70
     0
102
RTVSPropertyOp53
 70
     0
102
RTVSPropertyOp54
 70
     0
102
RTVSPropertyOp55
 70
     0
102
RTVSPropertyOp56
 70
     0
102
RTVSPropertyOp57
 70
     0
102
RTVSPost2010Prop28
280
     0
102
RTVSPost2010PropOp28
 70
     0
102
RTVSPost2010Prop29
280
     1
102
RTVSPost2010PropOp29
 70
     0
102
RTVSPost2010Prop30
280
     1
102
RTVSPost2010PropOp30
 70
     0
102
RTVSPost2010Prop31
280
     0
102
RTVSPost2010PropOp31
 70
     0
102
RTVSPost2010Prop32
280
     0
102
RTVSPost2010PropOp32
 70
     0
102
RTVSPost2010Prop33
280
     0
102
RTVSPost2010PropOp33
 70
     0
102
RTVSPost2010Prop34
280
     0
102
RTVSPost2010PropOp34
 70
     0
102
RTVSPost2010Prop35
280
     0
102
RTVSPost2010PropOp35
 70
     0
102
RTVSPost2010Prop36
280
     0
102
RTVSPost2010PropOp36
 70
     0
102
RTVSPost2010Prop37
 90
       50
102
RTVSPost2010PropOp37
 70
     0
102
RTVSPost2010Prop38
140
0.0
102
RTVSPost2010PropOp38
 70
     0
102
RTVSPost2010Prop39
140
1.0
102
RTVSPost2010PropOp39
 70
     0
102
RTVSPost2010Prop40
 90
        0
102
RTVSPost2010PropOp40
 70
     0
102
RTVSPost2010Prop41ColorIndex
 90
       18
102
RTVSPost2010Prop41ColorRGB
 90
        0
102
RTVSPost2010PropOp41
 70
     0
102
RTVSPost2010Prop42
 90
       50
102
RTVSPost2010PropOp42
 70
     0
102
RTVSPost2010Prop43
 90
        3
102
RTVSPost2010PropOp43
 70
     0
102
RTVSPost2010Prop44ColorIndex
 90
        5
102
RTVSPost2010Prop44ColorRGB
 90
      255
102
RTVSPost2010PropOp44
 70
     0
102
RTVSPost2010Prop45
280
     0
102
RTVSPost2010PropOp45
 70
     0
102
RTVSPost2010Prop46
 90
       50
102
RTVSPost2010PropOp46
 70
     0
102
RTVSPost2010Prop47
 90
       50
102
RTVSPost2010PropOp47
 70
     0
102
RTVSPost2010Prop48
 90
       50
102
RTVSPost2010PropOp48
 70
     0
102
RTVSPost2010Prop49
280
     0
102
RTVSPost2010PropOp49
 70
     0
102
RTVSPost2010Prop50
 90
       50
102
RTVSPost2010PropOp50
 70
     0
102
RTVSPost2010Prop51ColorIndex
 90
      256
102
RTVSPost2010Prop51ColorRGB
 90
-16777216
102
RTVSPost2010PropOp51
 70
     0
102
RTVSPost2010Prop52
140
1.0
102
RTVSPost2010PropOp52
 70
     0
102
RTVSPost2010Prop53
 90
        2
102
RTVSPost2010PropOp53
 70
     0
102
RTVSPost2010Prop54
  1
strokes_ogs.tif
102
RTVSPost2010PropOp54
 70
     0
102
RTVSPost2010Prop55
280
     0
102
RTVSPost2010PropOp55
 70
     0
102
RTVSPost2010Prop56
140
1.0
102
RTVSPost2010PropOp56
 70
     0
102
RTVSPost2010Prop57
140
1.0
102
RTVSPost2010PropOp57
 70
     0
  0
XRECORD
  5
2C2
102
{ACAD_REACTORS
330
2C1
102
}
330
2C1
100
AcDbXrecord
280
     1
102
RTVSPropertyOp0
 70
     1
102
RTVSPropertyOp1
 70
     1
102
RTVSPropertyOp2
 70
     1
102
RTVSPropertyOp3
 70
     1
102
RTVSPropertyOp4
 70
     1
102
RTVSPropertyOp5
 70
     1
102
RTVSPropertyOp6
 70
     1
102
RTVSPropertyOp7
 70
     1
102
RTVSPropertyOp8
 70
     1
102
RTVSPropertyOp9
 70
     1
102
RTVSPropertyOp10
 70
     1
102
RTVSPropertyOp11
 70
     1
102
RTVSPropertyOp12
 70
     1
102
RTVSPropertyOp13
 70
     1
102
RTVSPropertyOp14
 70
     1
102
RTVSPropertyOp15
 70
     1
102
RTVSPropertyOp16
 70
     1
102
RTVSPropertyOp17
 70
     1
102
RTVSPropertyOp18
 70
     1
102
RTVSPropertyOp19
 70
     1
102
RTVSPropertyOp20
 70
     1
102
RTVSPropertyOp21
 70
     1
102
RTVSPropertyOp22
 70
     1
102
RTVSPropertyOp23
 70
     1
102
RTVSPropertyOp24
 70
     1
102
RTVSPropertyOp25
 70
     1
102
RTVSPropertyOp26
 70
     1
102
RTVSPropertyOp27
 70
     1
102
RTVSPropertyOp28
 70
     1
102
RTVSPropertyOp29
 70
     1
102
RTVSPropertyOp30
 70
     1
102
RTVSPropertyOp31
 70
     1
102
RTVSPropertyOp32
 70
     1
102
RTVSPropertyOp33
 70
     1
102
RTVSPropertyOp34
 70
     1
102
RTVSPropertyOp35
 70
     1
102
RTVSPropertyOp36
 70
     1
102
RTVSPropertyOp37
 70
     1
102
RTVSPropertyOp38
 70
     1
102
RTVSPropertyOp39
 70
     1
102
RTVSPropertyOp40
 70
     1
102
RTVSPropertyOp41
 70
     1
102
RTVSPropertyOp42
 70
     1
102
RTVSPropertyOp43
 70
     1
102
RTVSPropertyOp44
 70
     1
102
RTVSPropertyOp45
 70
     1
102
RTVSPropertyOp46
 70
     1
102
RTVSPropertyOp47
 70
     1
102
RTVSPropertyOp48
 70
     1
102
RTVSPropertyOp49
 70
     1
102
RTVSPropertyOp50
 70
     1
102
RTVSPropertyOp51
 70
     0
102
RTVSPropertyOp52
 70
     0
102
RTVSPropertyOp53
 70
     1
102
RTVSPropertyOp54
 70
     1
102
RTVSPropertyOp55
 70
     1
102
RTVSPropertyOp56
 70
     1
102
RTVSPropertyOp57
 70
     1
102
RTVSPost2010Prop28
280
     0
102
RTVSPost2010PropOp28
 70
     1
102
RTVSPost2010Prop29
280
     1
102
RTVSPost2010PropOp29
 70
     1
102
RTVSPost2010Prop30
280
     1
102
RTVSPost2010PropOp30
 70
     1
102
RTVSPost2010Prop31
280
     0
102
RTVSPost2010PropOp31
 70
     1
102
RTVSPost2010Prop32
280
     0
102
RTVSPost2010PropOp32
 70
     1
102
RTVSPost2010Prop33
280
     0
102
RTVSPost2010PropOp33
 70
     1
102
RTVSPost2010Prop34
280
     0
102
RTVSPost2010PropOp34
 70
     1
102
RTVSPost2010Prop35
280
     0
102
RTVSPost2010PropOp35
 70
     1
102
RTVSPost2010Prop36
280
     0
102
RTVSPost2010PropOp36
 70
     1
102
RTVSPost2010Prop37
 90
       50
102
RTVSPost2010PropOp37
 70
     1
102
RTVSPost2010Prop38
140
0.0
102
RTVSPost2010PropOp38
 70
     1
102
RTVSPost2010Prop39
140
1.0
102
RTVSPost2010PropOp39
 70
     1
102
RTVSPost2010Prop40
 90
        0
102
RTVSPost2010PropOp40
 70
     1
102
RTVSPost2010Prop41ColorIndex
 90
       18
102
RTVSPost2010Prop41ColorRGB
 90
        0
102
RTVSPost2010PropOp41
 70
     1
102
RTVSPost2010Prop42
 90
       50
102
RTVSPost2010PropOp42
 70
     1
102
RTVSPost2010Prop43
 90
        3
102
RTVSPost2010PropOp43
 70
     1
102
RTVSPost2010Prop44ColorIndex
 90
        5
102
RTVSPost2010Prop44ColorRGB
 90
      255
102
RTVSPost2010PropOp44
 70
     1
102
RTVSPost2010Prop45
280
     0
102
RTVSPost2010PropOp45
 70
     1
102
RTVSPost2010Prop46
 90
       50
102
RTVSPost2010PropOp46
 70
     1
102
RTVSPost2010Prop47
 90
       50
102
RTVSPost2010PropOp47
 70
     1
102
RTVSPost2010Prop48
 90
       50
102
RTVSPost2010PropOp48
 70
     1
102
RTVSPost2010Prop49
280
     0
102
RTVSPost2010PropOp49
 70
     1
102
RTVSPost2010Prop50
 90
       50
102
RTVSPost2010PropOp50
 70
     1
102
RTVSPost2010Prop51ColorIndex
 90
      256
102
RTVSPost2010Prop51ColorRGB
 90
-16777216
102
RTVSPost2010PropOp51
 70
     0
102
RTVSPost2010Prop52
140
1.0
102
RTVSPost2010PropOp52
 70
     0
102
RTVSPost2010Prop53
 90
        2
102
RTVSPost2010PropOp53
 70
     1
102
RTVSPost2010Prop54
  1
strokes_ogs.tif
102
RTVSPost2010PropOp54
 70
     1
102
RTVSPost2010Prop55
280
     0
102
RTVSPost2010PropOp55
 70
     1
102
RTVSPost2010Prop56
140
1.0
102
RTVSPost2010PropOp56
 70
     1
102
RTVSPost2010Prop57
140
1.0
102
RTVSPost2010PropOp57
 70
     1
  0
XRECORD
  5
2A6
102
{ACAD_REACTORS
330
2A5
102
}
330
2A5
100
AcDbXrecord
280
     1
102
RTVSPropertyOp0
 70
     1
102
RTVSPropertyOp1
 70
     1
102
RTVSPropertyOp2
 70
     1
102
RTVSPropertyOp3
 70
     1
102
RTVSPropertyOp4
 70
     1
102
RTVSPropertyOp5
 70
     1
102
RTVSPropertyOp6
 70
     1
102
RTVSPropertyOp7
 70
     1
102
RTVSPropertyOp8
 70
     1
102
RTVSPropertyOp9
 70
     1
102
RTVSPropertyOp10
 70
     1
102
RTVSPropertyOp11
 70
     1
102
RTVSPropertyOp12
 70
     1
102
RTVSPropertyOp13
 70
     1
102
RTVSPropertyOp14
 70
     1
102
RTVSPropertyOp15
 70
     1
102
RTVSPropertyOp16
 70
     1
102
RTVSPropertyOp17
 70
     1
102
RTVSPropertyOp18
 70
     1
102
RTVSPropertyOp19
 70
     1
102
RTVSPropertyOp20
 70
     1
102
RTVSPropertyOp21
 70
     1
102
RTVSPropertyOp22
 70
     1
102
RTVSPropertyOp23
 70
     1
102
RTVSPropertyOp24
 70
     1
102
RTVSPropertyOp25
 70
     1
102
RTVSPropertyOp26
 70
     1
102
RTVSPropertyOp27
 70
     1
102
RTVSPropertyOp28
 70
     1
102
RTVSPropertyOp29
 70
     1
102
RTVSPropertyOp30
 70
     1
102
RTVSPropertyOp31
 70
     1
102
RTVSPropertyOp32
 70
     1
102
RTVSPropertyOp33
 70
     1
102
RTVSPropertyOp34
 70
     1
102
RTVSPropertyOp35
 70
     1
102
RTVSPropertyOp36
 70
     1
102
RTVSPropertyOp37
 70
     1
102
RTVSPropertyOp38
 70
     1
102
RTVSPropertyOp39
 70
     1
102
RTVSPropertyOp40
 70
     1
102
RTVSPropertyOp41
 70
     1
102
RTVSPropertyOp42
 70
     1
102
RTVSPropertyOp43
 70
     1
102
RTVSPropertyOp44
 70
     1
102
RTVSPropertyOp45
 70
     1
102
RTVSPropertyOp46
 70
     1
102
RTVSPropertyOp47
 70
     1
102
RTVSPropertyOp48
 70
     1
102
RTVSPropertyOp49
 70
     1
102
RTVSPropertyOp50
 70
     1
102
RTVSPropertyOp51
 70
     0
102
RTVSPropertyOp52
 70
     0
102
RTVSPropertyOp53
 70
     1
102
RTVSPropertyOp54
 70
     1
102
RTVSPropertyOp55
 70
     1
102
RTVSPropertyOp56
 70
     1
102
RTVSPropertyOp57
 70
     1
102
RTVSPost2010Prop28
280
     0
102
RTVSPost2010PropOp28
 70
     1
102
RTVSPost2010Prop29
280
     1
102
RTVSPost2010PropOp29
 70
     1
102
RTVSPost2010Prop30
280
     1
102
RTVSPost2010PropOp30
 70
     1
102
RTVSPost2010Prop31
280
     0
102
RTVSPost2010PropOp31
 70
     1
102
RTVSPost2010Prop32
280
     0
102
RTVSPost2010PropOp32
 70
     1
102
RTVSPost2010Prop33
280
     0
102
RTVSPost2010PropOp33
 70
     1
102
RTVSPost2010Prop34
280
     0
102
RTVSPost2010PropOp34
 70
     1
102
RTVSPost2010Prop35
280
     0
102
RTVSPost2010PropOp35
 70
     1
102
RTVSPost2010Prop36
280
     0
102
RTVSPost2010PropOp36
 70
     1
102
RTVSPost2010Prop37
 90
       50
102
RTVSPost2010PropOp37
 70
     1
102
RTVSPost2010Prop38
140
0.0
102
RTVSPost2010PropOp38
 70
     1
102
RTVSPost2010Prop39
140
1.0
102
RTVSPost2010PropOp39
 70
     1
102
RTVSPost2010Prop40
 90
        0
102
RTVSPost2010PropOp40
 70
     1
102
RTVSPost2010Prop41ColorIndex
 90
       18
102
RTVSPost2010Prop41ColorRGB
 90
        0
102
RTVSPost2010PropOp41
 70
     1
102
RTVSPost2010Prop42
 90
       50
102
RTVSPost2010PropOp42
 70
     1
102
RTVSPost2010Prop43
 90
        3
102
RTVSPost2010PropOp43
 70
     1
102
RTVSPost2010Prop44ColorIndex
 90
        5
102
RTVSPost2010Prop44ColorRGB
 90
      255
102
RTVSPost2010PropOp44
 70
     1
102
RTVSPost2010Prop45
280
     0
102
RTVSPost2010PropOp45
 70
     1
102
RTVSPost2010Prop46
 90
       50
102
RTVSPost2010PropOp46
 70
     1
102
RTVSPost2010Prop47
 90
       50
102
RTVSPost2010PropOp47
 70
     1
102
RTVSPost2010Prop48
 90
       50
102
RTVSPost2010PropOp48
 70
     1
102
RTVSPost2010Prop49
280
     0
102
RTVSPost2010PropOp49
 70
     1
102
RTVSPost2010Prop50
 90
       50
102
RTVSPost2010PropOp50
 70
     1
102
RTVSPost2010Prop51ColorIndex
 90
      256
102
RTVSPost2010Prop51ColorRGB
 90
-16777216
102
RTVSPost2010PropOp51
 70
     0
102
RTVSPost2010Prop52
140
1.0
102
RTVSPost2010PropOp52
 70
     0
102
RTVSPost2010Prop53
 90
        2
102
RTVSPost2010PropOp53
 70
     1
102
RTVSPost2010Prop54
  1
strokes_ogs.tif
102
RTVSPost2010PropOp54
 70
     1
102
RTVSPost2010Prop55
280
     0
102
RTVSPost2010PropOp55
 70
     1
102
RTVSPost2010Prop56
140
1.0
102
RTVSPost2010PropOp56
 70
     1
102
RTVSPost2010Prop57
140
1.0
102
RTVSPost2010PropOp57
 70
     1
  0
XRECORD
  5
2A8
102
{ACAD_REACTORS
330
2A7
102
}
330
2A7
100
AcDbXrecord
280
     1
102
RTVSPropertyOp0
 70
     1
102
RTVSPropertyOp1
 70
     1
102
RTVSPropertyOp2
 70
     1
102
RTVSPropertyOp3
 70
     1
102
RTVSPropertyOp4
 70
     1
102
RTVSPropertyOp5
 70
     1
102
RTVSPropertyOp6
 70
     1
102
RTVSPropertyOp7
 70
     1
102
RTVSPropertyOp8
 70
     1
102
RTVSPropertyOp9
 70
     1
102
RTVSPropertyOp10
 70
     1
102
RTVSPropertyOp11
 70
     1
102
RTVSPropertyOp12
 70
     1
102
RTVSPropertyOp13
 70
     1
102
RTVSPropertyOp14
 70
     1
102
RTVSPropertyOp15
 70
     1
102
RTVSPropertyOp16
 70
     1
102
RTVSPropertyOp17
 70
     1
102
RTVSPropertyOp18
 70
     1
102
RTVSPropertyOp19
 70
     1
102
RTVSPropertyOp20
 70
     1
102
RTVSPropertyOp21
 70
     1
102
RTVSPropertyOp22
 70
     1
102
RTVSPropertyOp23
 70
     1
102
RTVSPropertyOp24
 70
     1
102
RTVSPropertyOp25
 70
     1
102
RTVSPropertyOp26
 70
     1
102
RTVSPropertyOp27
 70
     1
102
RTVSPropertyOp28
 70
     1
102
RTVSPropertyOp29
 70
     1
102
RTVSPropertyOp30
 70
     1
102
RTVSPropertyOp31
 70
     1
102
RTVSPropertyOp32
 70
     1
102
RTVSPropertyOp33
 70
     1
102
RTVSPropertyOp34
 70
     1
102
RTVSPropertyOp35
 70
     1
102
RTVSPropertyOp36
 70
     1
102
RTVSPropertyOp37
 70
     1
102
RTVSPropertyOp38
 70
     1
102
RTVSPropertyOp39
 70
     1
102
RTVSPropertyOp40
 70
     1
102
RTVSPropertyOp41
 70
     1
102
RTVSPropertyOp42
 70
     1
102
RTVSPropertyOp43
 70
     1
102
RTVSPropertyOp44
 70
     1
102
RTVSPropertyOp45
 70
     1
102
RTVSPropertyOp46
 70
     1
102
RTVSPropertyOp47
 70
     1
102
RTVSPropertyOp48
 70
     1
102
RTVSPropertyOp49
 70
     1
102
RTVSPropertyOp50
 70
     1
102
RTVSPropertyOp51
 70
     0
102
RTVSPropertyOp52
 70
     0
102
RTVSPropertyOp53
 70
     1
102
RTVSPropertyOp54
 70
     1
102
RTVSPropertyOp55
 70
     1
102
RTVSPropertyOp56
 70
     1
102
RTVSPropertyOp57
 70
     1
102
RTVSPost2010Prop28
280
     0
102
RTVSPost2010PropOp28
 70
     1
102
RTVSPost2010Prop29
280
     1
102
RTVSPost2010PropOp29
 70
     1
102
RTVSPost2010Prop30
280
     1
102
RTVSPost2010PropOp30
 70
     1
102
RTVSPost2010Prop31
280
     0
102
RTVSPost2010PropOp31
 70
     1
102
RTVSPost2010Prop32
280
     0
102
RTVSPost2010PropOp32
 70
     1
102
RTVSPost2010Prop33
280
     0
102
RTVSPost2010PropOp33
 70
     1
102
RTVSPost2010Prop34
280
     0
102
RTVSPost2010PropOp34
 70
     1
102
RTVSPost2010Prop35
280
     0
102
RTVSPost2010PropOp35
 70
     1
102
RTVSPost2010Prop36
280
     0
102
RTVSPost2010PropOp36
 70
     1
102
RTVSPost2010Prop37
 90
       50
102
RTVSPost2010PropOp37
 70
     1
102
RTVSPost2010Prop38
140
0.0
102
RTVSPost2010PropOp38
 70
     1
102
RTVSPost2010Prop39
140
1.0
102
RTVSPost2010PropOp39
 70
     1
102
RTVSPost2010Prop40
 90
        0
102
RTVSPost2010PropOp40
 70
     1
102
RTVSPost2010Prop41ColorIndex
 90
       18
102
RTVSPost2010Prop41ColorRGB
 90
        0
102
RTVSPost2010PropOp41
 70
     1
102
RTVSPost2010Prop42
 90
       50
102
RTVSPost2010PropOp42
 70
     1
102
RTVSPost2010Prop43
 90
        3
102
RTVSPost2010PropOp43
 70
     1
102
RTVSPost2010Prop44ColorIndex
 90
        5
102
RTVSPost2010Prop44ColorRGB
 90
      255
102
RTVSPost2010PropOp44
 70
     1
102
RTVSPost2010Prop45
280
     0
102
RTVSPost2010PropOp45
 70
     1
102
RTVSPost2010Prop46
 90
       50
102
RTVSPost2010PropOp46
 70
     1
102
RTVSPost2010Prop47
 90
       50
102
RTVSPost2010PropOp47
 70
     1
102
RTVSPost2010Prop48
 90
       50
102
RTVSPost2010PropOp48
 70
     1
102
RTVSPost2010Prop49
280
     0
102
RTVSPost2010PropOp49
 70
     1
102
RTVSPost2010Prop50
 90
       50
102
RTVSPost2010PropOp50
 70
     1
102
RTVSPost2010Prop51ColorIndex
 90
      256
102
RTVSPost2010Prop51ColorRGB
 90
-16777216
102
RTVSPost2010PropOp51
 70
     0
102
RTVSPost2010Prop52
140
1.0
102
RTVSPost2010PropOp52
 70
     0
102
RTVSPost2010Prop53
 90
        2
102
RTVSPost2010PropOp53
 70
     1
102
RTVSPost2010Prop54
  1
strokes_ogs.tif
102
RTVSPost2010PropOp54
 70
     1
102
RTVSPost2010Prop55
280
     0
102
RTVSPost2010PropOp55
 70
     1
102
RTVSPost2010Prop56
140
1.0
102
RTVSPost2010PropOp56
 70
     1
102
RTVSPost2010Prop57
140
1.0
102
RTVSPost2010PropOp57
 70
     1
  0
XRECORD
  5
2AA
102
{ACAD_REACTORS
330
2A9
102
}
330
2A9
100
AcDbXrecord
280
     1
102
RTVSPropertyOp0
 70
     1
102
RTVSPropertyOp1
 70
     1
102
RTVSPropertyOp2
 70
     1
102
RTVSPropertyOp3
 70
     1
102
RTVSPropertyOp4
 70
     1
102
RTVSPropertyOp5
 70
     1
102
RTVSPropertyOp6
 70
     1
102
RTVSPropertyOp7
 70
     1
102
RTVSPropertyOp8
 70
     1
102
RTVSPropertyOp9
 70
     1
102
RTVSPropertyOp10
 70
     1
102
RTVSPropertyOp11
 70
     1
102
RTVSPropertyOp12
 70
     1
102
RTVSPropertyOp13
 70
     1
102
RTVSPropertyOp14
 70
     1
102
RTVSPropertyOp15
 70
     1
102
RTVSPropertyOp16
 70
     1
102
RTVSPropertyOp17
 70
     1
102
RTVSPropertyOp18
 70
     1
102
RTVSPropertyOp19
 70
     1
102
RTVSPropertyOp20
 70
     1
102
RTVSPropertyOp21
 70
     1
102
RTVSPropertyOp22
 70
     1
102
RTVSPropertyOp23
 70
     1
102
RTVSPropertyOp24
 70
     1
102
RTVSPropertyOp25
 70
     1
102
RTVSPropertyOp26
 70
     1
102
RTVSPropertyOp27
 70
     1
102
RTVSPropertyOp28
 70
     1
102
RTVSPropertyOp29
 70
     1
102
RTVSPropertyOp30
 70
     1
102
RTVSPropertyOp31
 70
     1
102
RTVSPropertyOp32
 70
     1
102
RTVSPropertyOp33
 70
     1
102
RTVSPropertyOp34
 70
     1
102
RTVSPropertyOp35
 70
     1
102
RTVSPropertyOp36
 70
     1
102
RTVSPropertyOp37
 70
     1
102
RTVSPropertyOp38
 70
     1
102
RTVSPropertyOp39
 70
     1
102
RTVSPropertyOp40
 70
     1
102
RTVSPropertyOp41
 70
     1
102
RTVSPropertyOp42
 70
     1
102
RTVSPropertyOp43
 70
     1
102
RTVSPropertyOp44
 70
     1
102
RTVSPropertyOp45
 70
     1
102
RTVSPropertyOp46
 70
     1
102
RTVSPropertyOp47
 70
     1
102
RTVSPropertyOp48
 70
     1
102
RTVSPropertyOp49
 70
     1
102
RTVSPropertyOp50
 70
     1
102
RTVSPropertyOp51
 70
     0
102
RTVSPropertyOp52
 70
     0
102
RTVSPropertyOp53
 70
     1
102
RTVSPropertyOp54
 70
     1
102
RTVSPropertyOp55
 70
     1
102
RTVSPropertyOp56
 70
     1
102
RTVSPropertyOp57
 70
     1
102
RTVSPost2010Prop28
280
     0
102
RTVSPost2010PropOp28
 70
     1
102
RTVSPost2010Prop29
280
     1
102
RTVSPost2010PropOp29
 70
     1
102
RTVSPost2010Prop30
280
     1
102
RTVSPost2010PropOp30
 70
     1
102
RTVSPost2010Prop31
280
     0
102
RTVSPost2010PropOp31
 70
     1
102
RTVSPost2010Prop32
280
     0
102
RTVSPost2010PropOp32
 70
     1
102
RTVSPost2010Prop33
280
     0
102
RTVSPost2010PropOp33
 70
     1
102
RTVSPost2010Prop34
280
     0
102
RTVSPost2010PropOp34
 70
     1
102
RTVSPost2010Prop35
280
     0
102
RTVSPost2010PropOp35
 70
     1
102
RTVSPost2010Prop36
280
     0
102
RTVSPost2010PropOp36
 70
     1
102
RTVSPost2010Prop37
 90
       50
102
RTVSPost2010PropOp37
 70
     1
102
RTVSPost2010Prop38
140
0.0
102
RTVSPost2010PropOp38
 70
     1
102
RTVSPost2010Prop39
140
1.0
102
RTVSPost2010PropOp39
 70
     1
102
RTVSPost2010Prop40
 90
        0
102
RTVSPost2010PropOp40
 70
     1
102
RTVSPost2010Prop41ColorIndex
 90
       18
102
RTVSPost2010Prop41ColorRGB
 90
        0
102
RTVSPost2010PropOp41
 70
     1
102
RTVSPost2010Prop42
 90
       50
102
RTVSPost2010PropOp42
 70
     1
102
RTVSPost2010Prop43
 90
        3
102
RTVSPost2010PropOp43
 70
     1
102
RTVSPost2010Prop44ColorIndex
 90
        5
102
RTVSPost2010Prop44ColorRGB
 90
      255
102
RTVSPost2010PropOp44
 70
     1
102
RTVSPost2010Prop45
280
     0
102
RTVSPost2010PropOp45
 70
     1
102
RTVSPost2010Prop46
 90
       50
102
RTVSPost2010PropOp46
 70
     1
102
RTVSPost2010Prop47
 90
       50
102
RTVSPost2010PropOp47
 70
     1
102
RTVSPost2010Prop48
 90
       50
102
RTVSPost2010PropOp48
 70
     1
102
RTVSPost2010Prop49
280
     0
102
RTVSPost2010PropOp49
 70
     1
102
RTVSPost2010Prop50
 90
       50
102
RTVSPost2010PropOp50
 70
     1
102
RTVSPost2010Prop51ColorIndex
 90
      256
102
RTVSPost2010Prop51ColorRGB
 90
-16777216
102
RTVSPost2010PropOp51
 70
     0
102
RTVSPost2010Prop52
140
1.0
102
RTVSPost2010PropOp52
 70
     0
102
RTVSPost2010Prop53
 90
        2
102
RTVSPost2010PropOp53
 70
     1
102
RTVSPost2010Prop54
  1
strokes_ogs.tif
102
RTVSPost2010PropOp54
 70
     1
102
RTVSPost2010Prop55
280
     0
102
RTVSPost2010PropOp55
 70
     1
102
RTVSPost2010Prop56
140
1.0
102
RTVSPost2010PropOp56
 70
     1
102
RTVSPost2010Prop57
140
1.0
102
RTVSPost2010PropOp57
 70
     1
  0
XRECORD
  5
2AC
102
{ACAD_REACTORS
330
2AB
102
}
330
2AB
100
AcDbXrecord
280
     1
102
RTVSPropertyOp0
 70
     1
102
RTVSPropertyOp1
 70
     1
102
RTVSPropertyOp2
 70
     1
102
RTVSPropertyOp3
 70
     1
102
RTVSPropertyOp4
 70
     1
102
RTVSPropertyOp5
 70
     1
102
RTVSPropertyOp6
 70
     1
102
RTVSPropertyOp7
 70
     1
102
RTVSPropertyOp8
 70
     1
102
RTVSPropertyOp9
 70
     1
102
RTVSPropertyOp10
 70
     1
102
RTVSPropertyOp11
 70
     1
102
RTVSPropertyOp12
 70
     1
102
RTVSPropertyOp13
 70
     1
102
RTVSPropertyOp14
 70
     1
102
RTVSPropertyOp15
 70
     1
102
RTVSPropertyOp16
 70
     1
102
RTVSPropertyOp17
 70
     1
102
RTVSPropertyOp18
 70
     1
102
RTVSPropertyOp19
 70
     1
102
RTVSPropertyOp20
 70
     1
102
RTVSPropertyOp21
 70
     1
102
RTVSPropertyOp22
 70
     1
102
RTVSPropertyOp23
 70
     1
102
RTVSPropertyOp24
 70
     1
102
RTVSPropertyOp25
 70
     1
102
RTVSPropertyOp26
 70
     1
102
RTVSPropertyOp27
 70
     1
102
RTVSPropertyOp28
 70
     1
102
RTVSPropertyOp29
 70
     1
102
RTVSPropertyOp30
 70
     1
102
RTVSPropertyOp31
 70
     1
102
RTVSPropertyOp32
 70
     1
102
RTVSPropertyOp33
 70
     1
102
RTVSPropertyOp34
 70
     1
102
RTVSPropertyOp35
 70
     1
102
RTVSPropertyOp36
 70
     1
102
RTVSPropertyOp37
 70
     1
102
RTVSPropertyOp38
 70
     1
102
RTVSPropertyOp39
 70
     1
102
RTVSPropertyOp40
 70
     1
102
RTVSPropertyOp41
 70
     1
102
RTVSPropertyOp42
 70
     1
102
RTVSPropertyOp43
 70
     1
102
RTVSPropertyOp44
 70
     1
102
RTVSPropertyOp45
 70
     1
102
RTVSPropertyOp46
 70
     1
102
RTVSPropertyOp47
 70
     1
102
RTVSPropertyOp48
 70
     1
102
RTVSPropertyOp49
 70
     1
102
RTVSPropertyOp50
 70
     1
102
RTVSPropertyOp51
 70
     0
102
RTVSPropertyOp52
 70
     0
102
RTVSPropertyOp53
 70
     1
102
RTVSPropertyOp54
 70
     1
102
RTVSPropertyOp55
 70
     1
102
RTVSPropertyOp56
 70
     1
102
RTVSPropertyOp57
 70
     1
102
RTVSPost2010Prop28
280
     0
102
RTVSPost2010PropOp28
 70
     1
102
RTVSPost2010Prop29
280
     1
102
RTVSPost2010PropOp29
 70
     1
102
RTVSPost2010Prop30
280
     1
102
RTVSPost2010PropOp30
 70
     1
102
RTVSPost2010Prop31
280
     0
102
RTVSPost2010PropOp31
 70
     1
102
RTVSPost2010Prop32
280
     0
102
RTVSPost2010PropOp32
 70
     1
102
RTVSPost2010Prop33
280
     0
102
RTVSPost2010PropOp33
 70
     1
102
RTVSPost2010Prop34
280
     0
102
RTVSPost2010PropOp34
 70
     1
102
RTVSPost2010Prop35
280
     0
102
RTVSPost2010PropOp35
 70
     1
102
RTVSPost2010Prop36
280
     0
102
RTVSPost2010PropOp36
 70
     1
102
RTVSPost2010Prop37
 90
       50
102
RTVSPost2010PropOp37
 70
     1
102
RTVSPost2010Prop38
140
0.0
102
RTVSPost2010PropOp38
 70
     1
102
RTVSPost2010Prop39
140
1.0
102
RTVSPost2010PropOp39
 70
     1
102
RTVSPost2010Prop40
 90
        0
102
RTVSPost2010PropOp40
 70
     1
102
RTVSPost2010Prop41ColorIndex
 90
       18
102
RTVSPost2010Prop41ColorRGB
 90
        0
102
RTVSPost2010PropOp41
 70
     1
102
RTVSPost2010Prop42
 90
       50
102
RTVSPost2010PropOp42
 70
     1
102
RTVSPost2010Prop43
 90
        3
102
RTVSPost2010PropOp43
 70
     1
102
RTVSPost2010Prop44ColorIndex
 90
        5
102
RTVSPost2010Prop44ColorRGB
 90
      255
102
RTVSPost2010PropOp44
 70
     1
102
RTVSPost2010Prop45
280
     0
102
RTVSPost2010PropOp45
 70
     1
102
RTVSPost2010Prop46
 90
       50
102
RTVSPost2010PropOp46
 70
     1
102
RTVSPost2010Prop47
 90
       50
102
RTVSPost2010PropOp47
 70
     1
102
RTVSPost2010Prop48
 90
       50
102
RTVSPost2010PropOp48
 70
     1
102
RTVSPost2010Prop49
280
     0
102
RTVSPost2010PropOp49
 70
     1
102
RTVSPost2010Prop50
 90
       50
102
RTVSPost2010PropOp50
 70
     1
102
RTVSPost2010Prop51ColorIndex
 90
      256
102
RTVSPost2010Prop51ColorRGB
 90
-16777216
102
RTVSPost2010PropOp51
 70
     0
102
RTVSPost2010Prop52
140
1.0
102
RTVSPost2010PropOp52
 70
     0
102
RTVSPost2010Prop53
 90
        2
102
RTVSPost2010PropOp53
 70
     1
102
RTVSPost2010Prop54
  1
strokes_ogs.tif
102
RTVSPost2010PropOp54
 70
     1
102
RTVSPost2010Prop55
280
     0
102
RTVSPost2010PropOp55
 70
     1
102
RTVSPost2010Prop56
140
1.0
102
RTVSPost2010PropOp56
 70
     1
102
RTVSPost2010Prop57
140
1.0
102
RTVSPost2010PropOp57
 70
     1
  0
XRECORD
  5
2B2
102
{ACAD_REACTORS
330
2B1
102
}
330
2B1
100
AcDbXrecord
280
     1
102
RTVSPropertyOp0
 70
     1
102
RTVSPropertyOp1
 70
     1
102
RTVSPropertyOp2
 70
     1
102
RTVSPropertyOp3
 70
     1
102
RTVSPropertyOp4
 70
     1
102
RTVSPropertyOp5
 70
     1
102
RTVSPropertyOp6
 70
     1
102
RTVSPropertyOp7
 70
     1
102
RTVSPropertyOp8
 70
     1
102
RTVSPropertyOp9
 70
     1
102
RTVSPropertyOp10
 70
     1
102
RTVSPropertyOp11
 70
     1
102
RTVSPropertyOp12
 70
     1
102
RTVSPropertyOp13
 70
     1
102
RTVSPropertyOp14
 70
     1
102
RTVSPropertyOp15
 70
     1
102
RTVSPropertyOp16
 70
     1
102
RTVSPropertyOp17
 70
     1
102
RTVSPropertyOp18
 70
     1
102
RTVSPropertyOp19
 70
     1
102
RTVSPropertyOp20
 70
     1
102
RTVSPropertyOp21
 70
     1
102
RTVSPropertyOp22
 70
     1
102
RTVSPropertyOp23
 70
     1
102
RTVSPropertyOp24
 70
     1
102
RTVSPropertyOp25
 70
     1
102
RTVSPropertyOp26
 70
     1
102
RTVSPropertyOp27
 70
     1
102
RTVSPropertyOp28
 70
     1
102
RTVSPropertyOp29
 70
     1
102
RTVSPropertyOp30
 70
     1
102
RTVSPropertyOp31
 70
     1
102
RTVSPropertyOp32
 70
     1
102
RTVSPropertyOp33
 70
     1
102
RTVSPropertyOp34
 70
     1
102
RTVSPropertyOp35
 70
     1
102
RTVSPropertyOp36
 70
     1
102
RTVSPropertyOp37
 70
     1
102
RTVSPropertyOp38
 70
     1
102
RTVSPropertyOp39
 70
     1
102
RTVSPropertyOp40
 70
     1
102
RTVSPropertyOp41
 70
     1
102
RTVSPropertyOp42
 70
     1
102
RTVSPropertyOp43
 70
     1
102
RTVSPropertyOp44
 70
     1
102
RTVSPropertyOp45
 70
     1
102
RTVSPropertyOp46
 70
     1
102
RTVSPropertyOp47
 70
     1
102
RTVSPropertyOp48
 70
     1
102
RTVSPropertyOp49
 70
     1
102
RTVSPropertyOp50
 70
     1
102
RTVSPropertyOp51
 70
     0
102
RTVSPropertyOp52
 70
     0
102
RTVSPropertyOp53
 70
     1
102
RTVSPropertyOp54
 70
     1
102
RTVSPropertyOp55
 70
     1
102
RTVSPropertyOp56
 70
     1
102
RTVSPropertyOp57
 70
     1
102
RTVSPost2010Prop28
280
     0
102
RTVSPost2010PropOp28
 70
     1
102
RTVSPost2010Prop29
280
     1
102
RTVSPost2010PropOp29
 70
     1
102
RTVSPost2010Prop30
280
     1
102
RTVSPost2010PropOp30
 70
     1
102
RTVSPost2010Prop31
280
     0
102
RTVSPost2010PropOp31
 70
     1
102
RTVSPost2010Prop32
280
     0
102
RTVSPost2010PropOp32
 70
     1
102
RTVSPost2010Prop33
280
     0
102
RTVSPost2010PropOp33
 70
     1
102
RTVSPost2010Prop34
280
     0
102
RTVSPost2010PropOp34
 70
     1
102
RTVSPost2010Prop35
280
     0
102
RTVSPost2010PropOp35
 70
     1
102
RTVSPost2010Prop36
280
     0
102
RTVSPost2010PropOp36
 70
     1
102
RTVSPost2010Prop37
 90
       50
102
RTVSPost2010PropOp37
 70
     1
102
RTVSPost2010Prop38
140
0.0
102
RTVSPost2010PropOp38
 70
     1
102
RTVSPost2010Prop39
140
1.0
102
RTVSPost2010PropOp39
 70
     1
102
RTVSPost2010Prop40
 90
        0
102
RTVSPost2010PropOp40
 70
     1
102
RTVSPost2010Prop41ColorIndex
 90
       18
102
RTVSPost2010Prop41ColorRGB
 90
        0
102
RTVSPost2010PropOp41
 70
     1
102
RTVSPost2010Prop42
 90
       50
102
RTVSPost2010PropOp42
 70
     1
102
RTVSPost2010Prop43
 90
        3
102
RTVSPost2010PropOp43
 70
     1
102
RTVSPost2010Prop44ColorIndex
 90
        5
102
RTVSPost2010Prop44ColorRGB
 90
      255
102
RTVSPost2010PropOp44
 70
     1
102
RTVSPost2010Prop45
280
     0
102
RTVSPost2010PropOp45
 70
     1
102
RTVSPost2010Prop46
 90
       50
102
RTVSPost2010PropOp46
 70
     1
102
RTVSPost2010Prop47
 90
       50
102
RTVSPost2010PropOp47
 70
     1
102
RTVSPost2010Prop48
 90
       50
102
RTVSPost2010PropOp48
 70
     1
102
RTVSPost2010Prop49
280
     0
102
RTVSPost2010PropOp49
 70
     1
102
RTVSPost2010Prop50
 90
       50
102
RTVSPost2010PropOp50
 70
     1
102
RTVSPost2010Prop51ColorIndex
 90
      256
102
RTVSPost2010Prop51ColorRGB
 90
-16777216
102
RTVSPost2010PropOp51
 70
     0
102
RTVSPost2010Prop52
140
1.0
102
RTVSPost2010PropOp52
 70
     0
102
RTVSPost2010Prop53
 90
        2
102
RTVSPost2010PropOp53
 70
     1
102
RTVSPost2010Prop54
  1
strokes_ogs.tif
102
RTVSPost2010PropOp54
 70
     1
102
RTVSPost2010Prop55
280
     0
102
RTVSPost2010PropOp55
 70
     1
102
RTVSPost2010Prop56
140
1.0
102
RTVSPost2010PropOp56
 70
     1
102
RTVSPost2010Prop57
140
1.0
102
RTVSPost2010PropOp57
 70
     1
  0
XRECORD
  5
2C6
102
{ACAD_REACTORS
330
2C5
102
}
330
2C5
100
AcDbXrecord
280
     1
102
RTVSPropertyOp0
 70
     0
102
RTVSPropertyOp1
 70
     0
102
RTVSPropertyOp2
 70
     0
102
RTVSPropertyOp3
 70
     0
102
RTVSPropertyOp4
 70
     0
102
RTVSPropertyOp5
 70
     0
102
RTVSPropertyOp6
 70
     0
102
RTVSPropertyOp7
 70
     0
102
RTVSPropertyOp8
 70
     0
102
RTVSPropertyOp9
 70
     0
102
RTVSPropertyOp10
 70
     0
102
RTVSPropertyOp11
 70
     0
102
RTVSPropertyOp12
 70
     0
102
RTVSPropertyOp13
 70
     0
102
RTVSPropertyOp14
 70
     2
102
RTVSPropertyOp15
 70
     0
102
RTVSPropertyOp16
 70
     0
102
RTVSPropertyOp17
 70
     0
102
RTVSPropertyOp18
 70
     0
102
RTVSPropertyOp19
 70
     0
102
RTVSPropertyOp20
 70
     0
102
RTVSPropertyOp21
 70
     0
102
RTVSPropertyOp22
 70
     0
102
RTVSPropertyOp23
 70
     0
102
RTVSPropertyOp24
 70
     0
102
RTVSPropertyOp25
 70
     0
102
RTVSPropertyOp26
 70
     0
102
RTVSPropertyOp27
 70
     0
102
RTVSPropertyOp28
 70
     0
102
RTVSPropertyOp29
 70
     0
102
RTVSPropertyOp30
 70
     0
102
RTVSPropertyOp31
 70
     0
102
RTVSPropertyOp32
 70
     0
102
RTVSPropertyOp33
 70
     0
102
RTVSPropertyOp34
 70
     0
102
RTVSPropertyOp35
 70
     0
102
RTVSPropertyOp36
 70
     0
102
RTVSPropertyOp37
 70
     0
102
RTVSPropertyOp38
 70
     0
102
RTVSPropertyOp39
 70
     0
102
RTVSPropertyOp40
 70
     0
102
RTVSPropertyOp41
 70
     0
102
RTVSPropertyOp42
 70
     0
102
RTVSPropertyOp43
 70
     0
102
RTVSPropertyOp44
 70
     0
102
RTVSPropertyOp45
 70
     0
102
RTVSPropertyOp46
 70
     0
102
RTVSPropertyOp47
 70
     0
102
RTVSPropertyOp48
 70
     0
102
RTVSPropertyOp49
 70
     0
102
RTVSPropertyOp50
 70
     0
102
RTVSPropertyOp51
 70
     0
102
RTVSPropertyOp52
 70
     0
102
RTVSPropertyOp53
 70
     0
102
RTVSPropertyOp54
 70
     0
102
RTVSPropertyOp55
 70
     0
102
RTVSPropertyOp56
 70
     0
102
RTVSPropertyOp57
 70
     0
102
RTVSPost2010Prop28
280
     0
102
RTVSPost2010PropOp28
 70
     0
102
RTVSPost2010Prop29
280
     1
102
RTVSPost2010PropOp29
 70
     0
102
RTVSPost2010Prop30
280
     1
102
RTVSPost2010PropOp30
 70
     0
102
RTVSPost2010Prop31
280
     0
102
RTVSPost2010PropOp31
 70
     0
102
RTVSPost2010Prop32
280
     0
102
RTVSPost2010PropOp32
 70
     0
102
RTVSPost2010Prop33
280
     0
102
RTVSPost2010PropOp33
 70
     0
102
RTVSPost2010Prop34
280
     0
102
RTVSPost2010PropOp34
 70
     0
102
RTVSPost2010Prop35
280
     0
102
RTVSPost2010PropOp35
 70
     0
102
RTVSPost2010Prop36
280
     0
102
RTVSPost2010PropOp36
 70
     0
102
RTVSPost2010Prop37
 90
       50
102
RTVSPost2010PropOp37
 70
     0
102
RTVSPost2010Prop38
140
0.0
102
RTVSPost2010PropOp38
 70
     0
102
RTVSPost2010Prop39
140
1.0
102
RTVSPost2010PropOp39
 70
     0
102
RTVSPost2010Prop40
 90
        0
102
RTVSPost2010PropOp40
 70
     0
102
RTVSPost2010Prop41ColorIndex
 90
       18
102
RTVSPost2010Prop41ColorRGB
 90
        0
102
RTVSPost2010PropOp41
 70
     0
102
RTVSPost2010Prop42
 90
       50
102
RTVSPost2010PropOp42
 70
     0
102
RTVSPost2010Prop43
 90
        3
102
RTVSPost2010PropOp43
 70
     0
102
RTVSPost2010Prop44ColorIndex
 90
        5
102
RTVSPost2010Prop44ColorRGB
 90
      255
102
RTVSPost2010PropOp44
 70
     0
102
RTVSPost2010Prop45
280
     0
102
RTVSPost2010PropOp45
 70
     0
102
RTVSPost2010Prop46
 90
       50
102
RTVSPost2010PropOp46
 70
     0
102
RTVSPost2010Prop47
 90
       50
102
RTVSPost2010PropOp47
 70
     0
102
RTVSPost2010Prop48
 90
       50
102
RTVSPost2010PropOp48
 70
     0
102
RTVSPost2010Prop49
280
     0
102
RTVSPost2010PropOp49
 70
     0
102
RTVSPost2010Prop50
 90
       50
102
RTVSPost2010PropOp50
 70
     0
102
RTVSPost2010Prop51ColorIndex
 90
      256
102
RTVSPost2010Prop51ColorRGB
 90
-16777216
102
RTVSPost2010PropOp51
 70
     0
102
RTVSPost2010Prop52
140
1.0
102
RTVSPost2010PropOp52
 70
     0
102
RTVSPost2010Prop53
 90
        2
102
RTVSPost2010PropOp53
 70
     0
102
RTVSPost2010Prop54
  1
strokes_ogs.tif
102
RTVSPost2010PropOp54
 70
     0
102
RTVSPost2010Prop55
280
     0
102
RTVSPost2010PropOp55
 70
     0
102
RTVSPost2010Prop56
140
1.0
102
RTVSPost2010PropOp56
 70
     0
102
RTVSPost2010Prop57
140
1.0
102
RTVSPost2010PropOp57
 70
     0
  0
XRECORD
  5
2C0
102
{ACAD_REACTORS
330
2BF
102
}
330
2BF
100
AcDbXrecord
280
     1
102
RTVSPropertyOp0
 70
     1
102
RTVSPropertyOp1
 70
     1
102
RTVSPropertyOp2
 70
     1
102
RTVSPropertyOp3
 70
     1
102
RTVSPropertyOp4
 70
     1
102
RTVSPropertyOp5
 70
     1
102
RTVSPropertyOp6
 70
     1
102
RTVSPropertyOp7
 70
     1
102
RTVSPropertyOp8
 70
     1
102
RTVSPropertyOp9
 70
     1
102
RTVSPropertyOp10
 70
     1
102
RTVSPropertyOp11
 70
     1
102
RTVSPropertyOp12
 70
     1
102
RTVSPropertyOp13
 70
     1
102
RTVSPropertyOp14
 70
     1
102
RTVSPropertyOp15
 70
     1
102
RTVSPropertyOp16
 70
     1
102
RTVSPropertyOp17
 70
     1
102
RTVSPropertyOp18
 70
     1
102
RTVSPropertyOp19
 70
     1
102
RTVSPropertyOp20
 70
     1
102
RTVSPropertyOp21
 70
     1
102
RTVSPropertyOp22
 70
     1
102
RTVSPropertyOp23
 70
     1
102
RTVSPropertyOp24
 70
     1
102
RTVSPropertyOp25
 70
     1
102
RTVSPropertyOp26
 70
     1
102
RTVSPropertyOp27
 70
     1
102
RTVSPropertyOp28
 70
     1
102
RTVSPropertyOp29
 70
     1
102
RTVSPropertyOp30
 70
     1
102
RTVSPropertyOp31
 70
     1
102
RTVSPropertyOp32
 70
     1
102
RTVSPropertyOp33
 70
     1
102
RTVSPropertyOp34
 70
     1
102
RTVSPropertyOp35
 70
     1
102
RTVSPropertyOp36
 70
     1
102
RTVSPropertyOp37
 70
     1
102
RTVSPropertyOp38
 70
     1
102
RTVSPropertyOp39
 70
     1
102
RTVSPropertyOp40
 70
     1
102
RTVSPropertyOp41
 70
     1
102
RTVSPropertyOp42
 70
     1
102
RTVSPropertyOp43
 70
     1
102
RTVSPropertyOp44
 70
     1
102
RTVSPropertyOp45
 70
     1
102
RTVSPropertyOp46
 70
     1
102
RTVSPropertyOp47
 70
     1
102
RTVSPropertyOp48
 70
     1
102
RTVSPropertyOp49
 70
     1
102
RTVSPropertyOp50
 70
     1
102
RTVSPropertyOp51
 70
     0
102
RTVSPropertyOp52
 70
     0
102
RTVSPropertyOp53
 70
     1
102
RTVSPropertyOp54
 70
     1
102
RTVSPropertyOp55
 70
     1
102
RTVSPropertyOp56
 70
     1
102
RTVSPropertyOp57
 70
     1
102
RTVSPost2010Prop28
280
     0
102
RTVSPost2010PropOp28
 70
     1
102
RTVSPost2010Prop29
280
     1
102
RTVSPost2010PropOp29
 70
     1
102
RTVSPost2010Prop30
280
     1
102
RTVSPost2010PropOp30
 70
     1
102
RTVSPost2010Prop31
280
     0
102
RTVSPost2010PropOp31
 70
     1
102
RTVSPost2010Prop32
280
     0
102
RTVSPost2010PropOp32
 70
     1
102
RTVSPost2010Prop33
280
     0
102
RTVSPost2010PropOp33
 70
     1
102
RTVSPost2010Prop34
280
     0
102
RTVSPost2010PropOp34
 70
     1
102
RTVSPost2010Prop35
280
     0
102
RTVSPost2010PropOp35
 70
     1
102
RTVSPost2010Prop36
280
     0
102
RTVSPost2010PropOp36
 70
     1
102
RTVSPost2010Prop37
 90
       50
102
RTVSPost2010PropOp37
 70
     1
102
RTVSPost2010Prop38
140
0.0
102
RTVSPost2010PropOp38
 70
     1
102
RTVSPost2010Prop39
140
1.0
102
RTVSPost2010PropOp39
 70
     1
102
RTVSPost2010Prop40
 90
        0
102
RTVSPost2010PropOp40
 70
     1
102
RTVSPost2010Prop41ColorIndex
 90
       18
102
RTVSPost2010Prop41ColorRGB
 90
        0
102
RTVSPost2010PropOp41
 70
     1
102
RTVSPost2010Prop42
 90
       50
102
RTVSPost2010PropOp42
 70
     1
102
RTVSPost2010Prop43
 90
        3
102
RTVSPost2010PropOp43
 70
     1
102
RTVSPost2010Prop44ColorIndex
 90
        5
102
RTVSPost2010Prop44ColorRGB
 90
      255
102
RTVSPost2010PropOp44
 70
     1
102
RTVSPost2010Prop45
280
     0
102
RTVSPost2010PropOp45
 70
     1
102
RTVSPost2010Prop46
 90
       50
102
RTVSPost2010PropOp46
 70
     1
102
RTVSPost2010Prop47
 90
       50
102
RTVSPost2010PropOp47
 70
     1
102
RTVSPost2010Prop48
 90
       50
102
RTVSPost2010PropOp48
 70
     1
102
RTVSPost2010Prop49
280
     0
102
RTVSPost2010PropOp49
 70
     1
102
RTVSPost2010Prop50
 90
       50
102
RTVSPost2010PropOp50
 70
     1
102
RTVSPost2010Prop51ColorIndex
 90
      256
102
RTVSPost2010Prop51ColorRGB
 90
-16777216
102
RTVSPost2010PropOp51
 70
     0
102
RTVSPost2010Prop52
140
1.0
102
RTVSPost2010PropOp52
 70
     0
102
RTVSPost2010Prop53
 90
        2
102
RTVSPost2010PropOp53
 70
     1
102
RTVSPost2010Prop54
  1
strokes_ogs.tif
102
RTVSPost2010PropOp54
 70
     1
102
RTVSPost2010Prop55
280
     0
102
RTVSPost2010PropOp55
 70
     1
102
RTVSPost2010Prop56
140
1.0
102
RTVSPost2010PropOp56
 70
     1
102
RTVSPost2010Prop57
140
1.0
102
RTVSPost2010PropOp57
 70
     1
  0
XRECORD
  5
2C8
102
{ACAD_REACTORS
330
2C7
102
}
330
2C7
100
AcDbXrecord
280
     1
102
RTVSPropertyOp0
 70
     0
102
RTVSPropertyOp1
 70
     0
102
RTVSPropertyOp2
 70
     0
102
RTVSPropertyOp3
 70
     0
102
RTVSPropertyOp4
 70
     0
102
RTVSPropertyOp5
 70
     0
102
RTVSPropertyOp6
 70
     0
102
RTVSPropertyOp7
 70
     0
102
RTVSPropertyOp8
 70
     0
102
RTVSPropertyOp9
 70
     0
102
RTVSPropertyOp10
 70
     0
102
RTVSPropertyOp11
 70
     0
102
RTVSPropertyOp12
 70
     0
102
RTVSPropertyOp13
 70
     0
102
RTVSPropertyOp14
 70
     2
102
RTVSPropertyOp15
 70
     0
102
RTVSPropertyOp16
 70
     0
102
RTVSPropertyOp17
 70
     0
102
RTVSPropertyOp18
 70
     0
102
RTVSPropertyOp19
 70
     0
102
RTVSPropertyOp20
 70
     0
102
RTVSPropertyOp21
 70
     0
102
RTVSPropertyOp22
 70
     0
102
RTVSPropertyOp23
 70
     0
102
RTVSPropertyOp24
 70
     0
102
RTVSPropertyOp25
 70
     0
102
RTVSPropertyOp26
 70
     0
102
RTVSPropertyOp27
 70
     0
102
RTVSPropertyOp28
 70
     0
102
RTVSPropertyOp29
 70
     0
102
RTVSPropertyOp30
 70
     0
102
RTVSPropertyOp31
 70
     0
102
RTVSPropertyOp32
 70
     0
102
RTVSPropertyOp33
 70
     0
102
RTVSPropertyOp34
 70
     0
102
RTVSPropertyOp35
 70
     0
102
RTVSPropertyOp36
 70
     0
102
RTVSPropertyOp37
 70
     0
102
RTVSPropertyOp38
 70
     0
102
RTVSPropertyOp39
 70
     0
102
RTVSPropertyOp40
 70
     0
102
RTVSPropertyOp41
 70
     0
102
RTVSPropertyOp42
 70
     0
102
RTVSPropertyOp43
 70
     0
102
RTVSPropertyOp44
 70
     0
102
RTVSPropertyOp45
 70
     0
102
RTVSPropertyOp46
 70
     0
102
RTVSPropertyOp47
 70
     0
102
RTVSPropertyOp48
 70
     0
102
RTVSPropertyOp49
 70
     0
102
RTVSPropertyOp50
 70
     0
102
RTVSPropertyOp51
 70
     0
102
RTVSPropertyOp52
 70
     0
102
RTVSPropertyOp53
 70
     0
102
RTVSPropertyOp54
 70
     0
102
RTVSPropertyOp55
 70
     0
102
RTVSPropertyOp56
 70
     0
102
RTVSPropertyOp57
 70
     0
102
RTVSPost2010Prop28
280
     0
102
RTVSPost2010PropOp28
 70
     0
102
RTVSPost2010Prop29
280
     1
102
RTVSPost2010PropOp29
 70
     0
102
RTVSPost2010Prop30
280
     1
102
RTVSPost2010PropOp30
 70
     0
102
RTVSPost2010Prop31
280
     0
102
RTVSPost2010PropOp31
 70
     0
102
RTVSPost2010Prop32
280
     0
102
RTVSPost2010PropOp32
 70
     0
102
RTVSPost2010Prop33
280
     0
102
RTVSPost2010PropOp33
 70
     0
102
RTVSPost2010Prop34
280
     0
102
RTVSPost2010PropOp34
 70
     0
102
RTVSPost2010Prop35
280
     0
102
RTVSPost2010PropOp35
 70
     0
102
RTVSPost2010Prop36
280
     0
102
RTVSPost2010PropOp36
 70
     0
102
RTVSPost2010Prop37
 90
       50
102
RTVSPost2010PropOp37
 70
     0
102
RTVSPost2010Prop38
140
0.0
102
RTVSPost2010PropOp38
 70
     0
102
RTVSPost2010Prop39
140
1.0
102
RTVSPost2010PropOp39
 70
     0
102
RTVSPost2010Prop40
 90
        0
102
RTVSPost2010PropOp40
 70
     0
102
RTVSPost2010Prop41ColorIndex
 90
       18
102
RTVSPost2010Prop41ColorRGB
 90
        0
102
RTVSPost2010PropOp41
 70
     0
102
RTVSPost2010Prop42
 90
       50
102
RTVSPost2010PropOp42
 70
     0
102
RTVSPost2010Prop43
 90
        3
102
RTVSPost2010PropOp43
 70
     0
102
RTVSPost2010Prop44ColorIndex
 90
        5
102
RTVSPost2010Prop44ColorRGB
 90
      255
102
RTVSPost2010PropOp44
 70
     0
102
RTVSPost2010Prop45
280
     0
102
RTVSPost2010PropOp45
 70
     0
102
RTVSPost2010Prop46
 90
       50
102
RTVSPost2010PropOp46
 70
     0
102
RTVSPost2010Prop47
 90
       50
102
RTVSPost2010PropOp47
 70
     0
102
RTVSPost2010Prop48
 90
       50
102
RTVSPost2010PropOp48
 70
     0
102
RTVSPost2010Prop49
280
     0
102
RTVSPost2010PropOp49
 70
     0
102
RTVSPost2010Prop50
 90
       50
102
RTVSPost2010PropOp50
 70
     0
102
RTVSPost2010Prop51ColorIndex
 90
      256
102
RTVSPost2010Prop51ColorRGB
 90
-16777216
102
RTVSPost2010PropOp51
 70
     0
102
RTVSPost2010Prop52
140
1.0
102
RTVSPost2010PropOp52
 70
     0
102
RTVSPost2010Prop53
 90
        2
102
RTVSPost2010PropOp53
 70
     0
102
RTVSPost2010Prop54
  1
strokes_ogs.tif
102
RTVSPost2010PropOp54
 70
     0
102
RTVSPost2010Prop55
280
     0
102
RTVSPost2010PropOp55
 70
     0
102
RTVSPost2010Prop56
140
1.0
102
RTVSPost2010PropOp56
 70
     0
102
RTVSPost2010Prop57
140
1.0
102
RTVSPost2010PropOp57
 70
     0
  0
XRECORD
  5
2B6
102
{ACAD_REACTORS
330
2B5
102
}
330
2B5
100
AcDbXrecord
280
     1
102
RTVSPropertyOp0
 70
     1
102
RTVSPropertyOp1
 70
     1
102
RTVSPropertyOp2
 70
     1
102
RTVSPropertyOp3
 70
     1
102
RTVSPropertyOp4
 70
     1
102
RTVSPropertyOp5
 70
     1
102
RTVSPropertyOp6
 70
     1
102
RTVSPropertyOp7
 70
     1
102
RTVSPropertyOp8
 70
     1
102
RTVSPropertyOp9
 70
     1
102
RTVSPropertyOp10
 70
     1
102
RTVSPropertyOp11
 70
     1
102
RTVSPropertyOp12
 70
     1
102
RTVSPropertyOp13
 70
     1
102
RTVSPropertyOp14
 70
     1
102
RTVSPropertyOp15
 70
     1
102
RTVSPropertyOp16
 70
     1
102
RTVSPropertyOp17
 70
     1
102
RTVSPropertyOp18
 70
     1
102
RTVSPropertyOp19
 70
     1
102
RTVSPropertyOp20
 70
     1
102
RTVSPropertyOp21
 70
     1
102
RTVSPropertyOp22
 70
     1
102
RTVSPropertyOp23
 70
     1
102
RTVSPropertyOp24
 70
     1
102
RTVSPropertyOp25
 70
     1
102
RTVSPropertyOp26
 70
     1
102
RTVSPropertyOp27
 70
     1
102
RTVSPropertyOp28
 70
     1
102
RTVSPropertyOp29
 70
     1
102
RTVSPropertyOp30
 70
     1
102
RTVSPropertyOp31
 70
     1
102
RTVSPropertyOp32
 70
     1
102
RTVSPropertyOp33
 70
     1
102
RTVSPropertyOp34
 70
     1
102
RTVSPropertyOp35
 70
     1
102
RTVSPropertyOp36
 70
     1
102
RTVSPropertyOp37
 70
     1
102
RTVSPropertyOp38
 70
     1
102
RTVSPropertyOp39
 70
     1
102
RTVSPropertyOp40
 70
     1
102
RTVSPropertyOp41
 70
     1
102
RTVSPropertyOp42
 70
     1
102
RTVSPropertyOp43
 70
     1
102
RTVSPropertyOp44
 70
     1
102
RTVSPropertyOp45
 70
     1
102
RTVSPropertyOp46
 70
     1
102
RTVSPropertyOp47
 70
     1
102
RTVSPropertyOp48
 70
     1
102
RTVSPropertyOp49
 70
     1
102
RTVSPropertyOp50
 70
     1
102
RTVSPropertyOp51
 70
     0
102
RTVSPropertyOp52
 70
     0
102
RTVSPropertyOp53
 70
     1
102
RTVSPropertyOp54
 70
     1
102
RTVSPropertyOp55
 70
     1
102
RTVSPropertyOp56
 70
     1
102
RTVSPropertyOp57
 70
     1
102
RTVSPost2010Prop28
280
     0
102
RTVSPost2010PropOp28
 70
     1
102
RTVSPost2010Prop29
280
     1
102
RTVSPost2010PropOp29
 70
     1
102
RTVSPost2010Prop30
280
     1
102
RTVSPost2010PropOp30
 70
     1
102
RTVSPost2010Prop31
280
     0
102
RTVSPost2010PropOp31
 70
     1
102
RTVSPost2010Prop32
280
     0
102
RTVSPost2010PropOp32
 70
     1
102
RTVSPost2010Prop33
280
     0
102
RTVSPost2010PropOp33
 70
     1
102
RTVSPost2010Prop34
280
     0
102
RTVSPost2010PropOp34
 70
     1
102
RTVSPost2010Prop35
280
     0
102
RTVSPost2010PropOp35
 70
     1
102
RTVSPost2010Prop36
280
     0
102
RTVSPost2010PropOp36
 70
     1
102
RTVSPost2010Prop37
 90
       50
102
RTVSPost2010PropOp37
 70
     1
102
RTVSPost2010Prop38
140
0.0
102
RTVSPost2010PropOp38
 70
     1
102
RTVSPost2010Prop39
140
1.0
102
RTVSPost2010PropOp39
 70
     1
102
RTVSPost2010Prop40
 90
        0
102
RTVSPost2010PropOp40
 70
     1
102
RTVSPost2010Prop41ColorIndex
 90
       18
102
RTVSPost2010Prop41ColorRGB
 90
        0
102
RTVSPost2010PropOp41
 70
     1
102
RTVSPost2010Prop42
 90
       50
102
RTVSPost2010PropOp42
 70
     1
102
RTVSPost2010Prop43
 90
        3
102
RTVSPost2010PropOp43
 70
     1
102
RTVSPost2010Prop44ColorIndex
 90
        5
102
RTVSPost2010Prop44ColorRGB
 90
      255
102
RTVSPost2010PropOp44
 70
     1
102
RTVSPost2010Prop45
280
     0
102
RTVSPost2010PropOp45
 70
     1
102
RTVSPost2010Prop46
 90
       50
102
RTVSPost2010PropOp46
 70
     1
102
RTVSPost2010Prop47
 90
       50
102
RTVSPost2010PropOp47
 70
     1
102
RTVSPost2010Prop48
 90
       50
102
RTVSPost2010PropOp48
 70
     1
102
RTVSPost2010Prop49
280
     0
102
RTVSPost2010PropOp49
 70
     1
102
RTVSPost2010Prop50
 90
       50
102
RTVSPost2010PropOp50
 70
     1
102
RTVSPost2010Prop51ColorIndex
 90
      256
102
RTVSPost2010Prop51ColorRGB
 90
-16777216
102
RTVSPost2010PropOp51
 70
     0
102
RTVSPost2010Prop52
140
1.0
102
RTVSPost2010PropOp52
 70
     0
102
RTVSPost2010Prop53
 90
        2
102
RTVSPost2010PropOp53
 70
     1
102
RTVSPost2010Prop54
  1
strokes_ogs.tif
102
RTVSPost2010PropOp54
 70
     1
102
RTVSPost2010Prop55
280
     0
102
RTVSPost2010PropOp55
 70
     1
102
RTVSPost2010Prop56
140
1.0
102
RTVSPost2010PropOp56
 70
     1
102
RTVSPost2010Prop57
140
1.0
102
RTVSPost2010PropOp57
 70
     1
  0
XRECORD
  5
2D4
102
{ACAD_REACTORS
330
2D3
102
}
330
2D3
100
AcDbXrecord
280
     1
102
RTVSPropertyOp0
 70
     1
102
RTVSPropertyOp1
 70
     1
102
RTVSPropertyOp2
 70
     1
102
RTVSPropertyOp3
 70
     1
102
RTVSPropertyOp4
 70
     1
102
RTVSPropertyOp5
 70
     1
102
RTVSPropertyOp6
 70
     1
102
RTVSPropertyOp7
 70
     1
102
RTVSPropertyOp8
 70
     1
102
RTVSPropertyOp9
 70
     1
102
RTVSPropertyOp10
 70
     1
102
RTVSPropertyOp11
 70
     1
102
RTVSPropertyOp12
 70
     1
102
RTVSPropertyOp13
 70
     1
102
RTVSPropertyOp14
 70
     1
102
RTVSPropertyOp15
 70
     1
102
RTVSPropertyOp16
 70
     1
102
RTVSPropertyOp17
 70
     1
102
RTVSPropertyOp18
 70
     1
102
RTVSPropertyOp19
 70
     1
102
RTVSPropertyOp20
 70
     1
102
RTVSPropertyOp21
 70
     1
102
RTVSPropertyOp22
 70
     1
102
RTVSPropertyOp23
 70
     1
102
RTVSPropertyOp24
 70
     1
102
RTVSPropertyOp25
 70
     1
102
RTVSPropertyOp26
 70
     1
102
RTVSPropertyOp27
 70
     1
102
RTVSPropertyOp28
 70
     1
102
RTVSPropertyOp29
 70
     1
102
RTVSPropertyOp30
 70
     1
102
RTVSPropertyOp31
 70
     1
102
RTVSPropertyOp32
 70
     1
102
RTVSPropertyOp33
 70
     1
102
RTVSPropertyOp34
 70
     1
102
RTVSPropertyOp35
 70
     1
102
RTVSPropertyOp36
 70
     1
102
RTVSPropertyOp37
 70
     1
102
RTVSPropertyOp38
 70
     1
102
RTVSPropertyOp39
 70
     1
102
RTVSPropertyOp40
 70
     1
102
RTVSPropertyOp41
 70
     1
102
RTVSPropertyOp42
 70
     1
102
RTVSPropertyOp43
 70
     1
102
RTVSPropertyOp44
 70
     1
102
RTVSPropertyOp45
 70
     1
102
RTVSPropertyOp46
 70
     1
102
RTVSPropertyOp47
 70
     1
102
RTVSPropertyOp48
 70
     1
102
RTVSPropertyOp49
 70
     1
102
RTVSPropertyOp50
 70
     1
102
RTVSPropertyOp51
 70
     0
102
RTVSPropertyOp52
 70
     0
102
RTVSPropertyOp53
 70
     1
102
RTVSPropertyOp54
 70
     1
102
RTVSPropertyOp55
 70
     1
102
RTVSPropertyOp56
 70
     1
102
RTVSPropertyOp57
 70
     1
102
RTVSPost2010Prop28
280
     0
102
RTVSPost2010PropOp28
 70
     1
102
RTVSPost2010Prop29
280
     1
102
RTVSPost2010PropOp29
 70
     1
102
RTVSPost2010Prop30
280
     1
102
RTVSPost2010PropOp30
 70
     1
102
RTVSPost2010Prop31
280
     0
102
RTVSPost2010PropOp31
 70
     1
102
RTVSPost2010Prop32
280
     0
102
RTVSPost2010PropOp32
 70
     1
102
RTVSPost2010Prop33
280
     0
102
RTVSPost2010PropOp33
 70
     1
102
RTVSPost2010Prop34
280
     0
102
RTVSPost2010PropOp34
 70
     1
102
RTVSPost2010Prop35
280
     0
102
RTVSPost2010PropOp35
 70
     1
102
RTVSPost2010Prop36
280
     0
102
RTVSPost2010PropOp36
 70
     1
102
RTVSPost2010Prop37
 90
       50
102
RTVSPost2010PropOp37
 70
     1
102
RTVSPost2010Prop38
140
0.0
102
RTVSPost2010PropOp38
 70
     1
102
RTVSPost2010Prop39
140
1.0
102
RTVSPost2010PropOp39
 70
     1
102
RTVSPost2010Prop40
 90
        0
102
RTVSPost2010PropOp40
 70
     1
102
RTVSPost2010Prop41ColorIndex
 90
       18
102
RTVSPost2010Prop41ColorRGB
 90
        0
102
RTVSPost2010PropOp41
 70
     1
102
RTVSPost2010Prop42
 90
       50
102
RTVSPost2010PropOp42
 70
     1
102
RTVSPost2010Prop43
 90
        3
102
RTVSPost2010PropOp43
 70
     1
102
RTVSPost2010Prop44ColorIndex
 90
        5
102
RTVSPost2010Prop44ColorRGB
 90
      255
102
RTVSPost2010PropOp44
 70
     1
102
RTVSPost2010Prop45
280
     0
102
RTVSPost2010PropOp45
 70
     1
102
RTVSPost2010Prop46
 90
       50
102
RTVSPost2010PropOp46
 70
     1
102
RTVSPost2010Prop47
 90
       50
102
RTVSPost2010PropOp47
 70
     1
102
RTVSPost2010Prop48
 90
       50
102
RTVSPost2010PropOp48
 70
     1
102
RTVSPost2010Prop49
280
     0
102
RTVSPost2010PropOp49
 70
     1
102
RTVSPost2010Prop50
 90
       50
102
RTVSPost2010PropOp50
 70
     1
102
RTVSPost2010Prop51ColorIndex
 90
      256
102
RTVSPost2010Prop51ColorRGB
 90
-16777216
102
RTVSPost2010PropOp51
 70
     0
102
RTVSPost2010Prop52
140
1.0
102
RTVSPost2010PropOp52
 70
     0
102
RTVSPost2010Prop53
 90
        2
102
RTVSPost2010PropOp53
 70
     1
102
RTVSPost2010Prop54
  1
strokes_ogs.tif
102
RTVSPost2010PropOp54
 70
     1
102
RTVSPost2010Prop55
280
     0
102
RTVSPost2010PropOp55
 70
     1
102
RTVSPost2010Prop56
140
1.0
102
RTVSPost2010PropOp56
 70
     1
102
RTVSPost2010Prop57
140
1.0
102
RTVSPost2010PropOp57
 70
     1
  0
XRECORD
  5
2D2
102
{ACAD_REACTORS
330
2D1
102
}
330
2D1
100
AcDbXrecord
280
     1
102
RTVSPropertyOp0
 70
     1
102
RTVSPropertyOp1
 70
     1
102
RTVSPropertyOp2
 70
     1
102
RTVSPropertyOp3
 70
     1
102
RTVSPropertyOp4
 70
     1
102
RTVSPropertyOp5
 70
     1
102
RTVSPropertyOp6
 70
     1
102
RTVSPropertyOp7
 70
     1
102
RTVSPropertyOp8
 70
     1
102
RTVSPropertyOp9
 70
     1
102
RTVSPropertyOp10
 70
     1
102
RTVSPropertyOp11
 70
     1
102
RTVSPropertyOp12
 70
     1
102
RTVSPropertyOp13
 70
     1
102
RTVSPropertyOp14
 70
     1
102
RTVSPropertyOp15
 70
     1
102
RTVSPropertyOp16
 70
     1
102
RTVSPropertyOp17
 70
     1
102
RTVSPropertyOp18
 70
     1
102
RTVSPropertyOp19
 70
     1
102
RTVSPropertyOp20
 70
     1
102
RTVSPropertyOp21
 70
     1
102
RTVSPropertyOp22
 70
     1
102
RTVSPropertyOp23
 70
     1
102
RTVSPropertyOp24
 70
     1
102
RTVSPropertyOp25
 70
     1
102
RTVSPropertyOp26
 70
     1
102
RTVSPropertyOp27
 70
     1
102
RTVSPropertyOp28
 70
     1
102
RTVSPropertyOp29
 70
     1
102
RTVSPropertyOp30
 70
     1
102
RTVSPropertyOp31
 70
     1
102
RTVSPropertyOp32
 70
     1
102
RTVSPropertyOp33
 70
     1
102
RTVSPropertyOp34
 70
     1
102
RTVSPropertyOp35
 70
     1
102
RTVSPropertyOp36
 70
     1
102
RTVSPropertyOp37
 70
     1
102
RTVSPropertyOp38
 70
     1
102
RTVSPropertyOp39
 70
     1
102
RTVSPropertyOp40
 70
     1
102
RTVSPropertyOp41
 70
     1
102
RTVSPropertyOp42
 70
     1
102
RTVSPropertyOp43
 70
     1
102
RTVSPropertyOp44
 70
     1
102
RTVSPropertyOp45
 70
     1
102
RTVSPropertyOp46
 70
     1
102
RTVSPropertyOp47
 70
     1
102
RTVSPropertyOp48
 70
     1
102
RTVSPropertyOp49
 70
     1
102
RTVSPropertyOp50
 70
     1
102
RTVSPropertyOp51
 70
     0
102
RTVSPropertyOp52
 70
     0
102
RTVSPropertyOp53
 70
     1
102
RTVSPropertyOp54
 70
     1
102
RTVSPropertyOp55
 70
     1
102
RTVSPropertyOp56
 70
     1
102
RTVSPropertyOp57
 70
     1
102
RTVSPost2010Prop28
280
     0
102
RTVSPost2010PropOp28
 70
     1
102
RTVSPost2010Prop29
280
     1
102
RTVSPost2010PropOp29
 70
     1
102
RTVSPost2010Prop30
280
     1
102
RTVSPost2010PropOp30
 70
     1
102
RTVSPost2010Prop31
280
     0
102
RTVSPost2010PropOp31
 70
     1
102
RTVSPost2010Prop32
280
     0
102
RTVSPost2010PropOp32
 70
     1
102
RTVSPost2010Prop33
280
     0
102
RTVSPost2010PropOp33
 70
     1
102
RTVSPost2010Prop34
280
     0
102
RTVSPost2010PropOp34
 70
     1
102
RTVSPost2010Prop35
280
     0
102
RTVSPost2010PropOp35
 70
     1
102
RTVSPost2010Prop36
280
     0
102
RTVSPost2010PropOp36
 70
     1
102
RTVSPost2010Prop37
 90
       50
102
RTVSPost2010PropOp37
 70
     1
102
RTVSPost2010Prop38
140
0.0
102
RTVSPost2010PropOp38
 70
     1
102
RTVSPost2010Prop39
140
1.0
102
RTVSPost2010PropOp39
 70
     1
102
RTVSPost2010Prop40
 90
        0
102
RTVSPost2010PropOp40
 70
     1
102
RTVSPost2010Prop41ColorIndex
 90
       18
102
RTVSPost2010Prop41ColorRGB
 90
        0
102
RTVSPost2010PropOp41
 70
     1
102
RTVSPost2010Prop42
 90
       50
102
RTVSPost2010PropOp42
 70
     1
102
RTVSPost2010Prop43
 90
        3
102
RTVSPost2010PropOp43
 70
     1
102
RTVSPost2010Prop44ColorIndex
 90
        5
102
RTVSPost2010Prop44ColorRGB
 90
      255
102
RTVSPost2010PropOp44
 70
     1
102
RTVSPost2010Prop45
280
     0
102
RTVSPost2010PropOp45
 70
     1
102
RTVSPost2010Prop46
 90
       50
102
RTVSPost2010PropOp46
 70
     1
102
RTVSPost2010Prop47
 90
       50
102
RTVSPost2010PropOp47
 70
     1
102
RTVSPost2010Prop48
 90
       50
102
RTVSPost2010PropOp48
 70
     1
102
RTVSPost2010Prop49
280
     0
102
RTVSPost2010PropOp49
 70
     1
102
RTVSPost2010Prop50
 90
       50
102
RTVSPost2010PropOp50
 70
     1
102
RTVSPost2010Prop51ColorIndex
 90
      256
102
RTVSPost2010Prop51ColorRGB
 90
-16777216
102
RTVSPost2010PropOp51
 70
     0
102
RTVSPost2010Prop52
140
1.0
102
RTVSPost2010PropOp52
 70
     0
102
RTVSPost2010Prop53
 90
        2
102
RTVSPost2010PropOp53
 70
     1
102
RTVSPost2010Prop54
  1
strokes_ogs.tif
102
RTVSPost2010PropOp54
 70
     1
102
RTVSPost2010Prop55
280
     0
102
RTVSPost2010PropOp55
 70
     1
102
RTVSPost2010Prop56
140
1.0
102
RTVSPost2010PropOp56
 70
     1
102
RTVSPost2010Prop57
140
1.0
102
RTVSPost2010PropOp57
 70
     1
  0
XRECORD
  5
2CC
102
{ACAD_REACTORS
330
2CB
102
}
330
2CB
100
AcDbXrecord
280
     1
102
RTVSPropertyOp0
 70
     1
102
RTVSPropertyOp1
 70
     1
102
RTVSPropertyOp2
 70
     1
102
RTVSPropertyOp3
 70
     1
102
RTVSPropertyOp4
 70
     1
102
RTVSPropertyOp5
 70
     1
102
RTVSPropertyOp6
 70
     1
102
RTVSPropertyOp7
 70
     1
102
RTVSPropertyOp8
 70
     1
102
RTVSPropertyOp9
 70
     1
102
RTVSPropertyOp10
 70
     1
102
RTVSPropertyOp11
 70
     1
102
RTVSPropertyOp12
 70
     1
102
RTVSPropertyOp13
 70
     1
102
RTVSPropertyOp14
 70
     1
102
RTVSPropertyOp15
 70
     1
102
RTVSPropertyOp16
 70
     1
102
RTVSPropertyOp17
 70
     1
102
RTVSPropertyOp18
 70
     1
102
RTVSPropertyOp19
 70
     1
102
RTVSPropertyOp20
 70
     1
102
RTVSPropertyOp21
 70
     1
102
RTVSPropertyOp22
 70
     1
102
RTVSPropertyOp23
 70
     1
102
RTVSPropertyOp24
 70
     1
102
RTVSPropertyOp25
 70
     1
102
RTVSPropertyOp26
 70
     1
102
RTVSPropertyOp27
 70
     1
102
RTVSPropertyOp28
 70
     1
102
RTVSPropertyOp29
 70
     1
102
RTVSPropertyOp30
 70
     1
102
RTVSPropertyOp31
 70
     1
102
RTVSPropertyOp32
 70
     1
102
RTVSPropertyOp33
 70
     1
102
RTVSPropertyOp34
 70
     1
102
RTVSPropertyOp35
 70
     1
102
RTVSPropertyOp36
 70
     1
102
RTVSPropertyOp37
 70
     1
102
RTVSPropertyOp38
 70
     1
102
RTVSPropertyOp39
 70
     1
102
RTVSPropertyOp40
 70
     1
102
RTVSPropertyOp41
 70
     1
102
RTVSPropertyOp42
 70
     1
102
RTVSPropertyOp43
 70
     1
102
RTVSPropertyOp44
 70
     1
102
RTVSPropertyOp45
 70
     1
102
RTVSPropertyOp46
 70
     1
102
RTVSPropertyOp47
 70
     1
102
RTVSPropertyOp48
 70
     1
102
RTVSPropertyOp49
 70
     1
102
RTVSPropertyOp50
 70
     1
102
RTVSPropertyOp51
 70
     0
102
RTVSPropertyOp52
 70
     0
102
RTVSPropertyOp53
 70
     1
102
RTVSPropertyOp54
 70
     1
102
RTVSPropertyOp55
 70
     1
102
RTVSPropertyOp56
 70
     1
102
RTVSPropertyOp57
 70
     1
102
RTVSPost2010Prop28
280
     0
102
RTVSPost2010PropOp28
 70
     1
102
RTVSPost2010Prop29
280
     1
102
RTVSPost2010PropOp29
 70
     1
102
RTVSPost2010Prop30
280
     1
102
RTVSPost2010PropOp30
 70
     1
102
RTVSPost2010Prop31
280
     0
102
RTVSPost2010PropOp31
 70
     1
102
RTVSPost2010Prop32
280
     0
102
RTVSPost2010PropOp32
 70
     1
102
RTVSPost2010Prop33
280
     0
102
RTVSPost2010PropOp33
 70
     1
102
RTVSPost2010Prop34
280
     0
102
RTVSPost2010PropOp34
 70
     1
102
RTVSPost2010Prop35
280
     0
102
RTVSPost2010PropOp35
 70
     1
102
RTVSPost2010Prop36
280
     0
102
RTVSPost2010PropOp36
 70
     1
102
RTVSPost2010Prop37
 90
       50
102
RTVSPost2010PropOp37
 70
     1
102
RTVSPost2010Prop38
140
0.0
102
RTVSPost2010PropOp38
 70
     1
102
RTVSPost2010Prop39
140
1.0
102
RTVSPost2010PropOp39
 70
     1
102
RTVSPost2010Prop40
 90
        0
102
RTVSPost2010PropOp40
 70
     1
102
RTVSPost2010Prop41ColorIndex
 90
       18
102
RTVSPost2010Prop41ColorRGB
 90
        0
102
RTVSPost2010PropOp41
 70
     1
102
RTVSPost2010Prop42
 90
       50
102
RTVSPost2010PropOp42
 70
     1
102
RTVSPost2010Prop43
 90
        3
102
RTVSPost2010PropOp43
 70
     1
102
RTVSPost2010Prop44ColorIndex
 90
        5
102
RTVSPost2010Prop44ColorRGB
 90
      255
102
RTVSPost2010PropOp44
 70
     1
102
RTVSPost2010Prop45
280
     0
102
RTVSPost2010PropOp45
 70
     1
102
RTVSPost2010Prop46
 90
       50
102
RTVSPost2010PropOp46
 70
     1
102
RTVSPost2010Prop47
 90
       50
102
RTVSPost2010PropOp47
 70
     1
102
RTVSPost2010Prop48
 90
       50
102
RTVSPost2010PropOp48
 70
     1
102
RTVSPost2010Prop49
280
     0
102
RTVSPost2010PropOp49
 70
     1
102
RTVSPost2010Prop50
 90
       50
102
RTVSPost2010PropOp50
 70
     1
102
RTVSPost2010Prop51ColorIndex
 90
      256
102
RTVSPost2010Prop51ColorRGB
 90
-16777216
102
RTVSPost2010PropOp51
 70
     0
102
RTVSPost2010Prop52
140
1.0
102
RTVSPost2010PropOp52
 70
     0
102
RTVSPost2010Prop53
 90
        2
102
RTVSPost2010PropOp53
 70
     1
102
RTVSPost2010Prop54
  1
strokes_ogs.tif
102
RTVSPost2010PropOp54
 70
     1
102
RTVSPost2010Prop55
280
     0
102
RTVSPost2010PropOp55
 70
     1
102
RTVSPost2010Prop56
140
1.0
102
RTVSPost2010PropOp56
 70
     1
102
RTVSPost2010Prop57
140
1.0
102
RTVSPost2010PropOp57
 70
     1
  0
XRECORD
  5
2CE
102
{ACAD_REACTORS
330
2CD
102
}
330
2CD
100
AcDbXrecord
280
     1
102
RTVSPropertyOp0
 70
     1
102
RTVSPropertyOp1
 70
     1
102
RTVSPropertyOp2
 70
     1
102
RTVSPropertyOp3
 70
     1
102
RTVSPropertyOp4
 70
     1
102
RTVSPropertyOp5
 70
     1
102
RTVSPropertyOp6
 70
     1
102
RTVSPropertyOp7
 70
     1
102
RTVSPropertyOp8
 70
     1
102
RTVSPropertyOp9
 70
     1
102
RTVSPropertyOp10
 70
     1
102
RTVSPropertyOp11
 70
     1
102
RTVSPropertyOp12
 70
     1
102
RTVSPropertyOp13
 70
     1
102
RTVSPropertyOp14
 70
     1
102
RTVSPropertyOp15
 70
     1
102
RTVSPropertyOp16
 70
     1
102
RTVSPropertyOp17
 70
     1
102
RTVSPropertyOp18
 70
     1
102
RTVSPropertyOp19
 70
     1
102
RTVSPropertyOp20
 70
     1
102
RTVSPropertyOp21
 70
     1
102
RTVSPropertyOp22
 70
     1
102
RTVSPropertyOp23
 70
     1
102
RTVSPropertyOp24
 70
     1
102
RTVSPropertyOp25
 70
     1
102
RTVSPropertyOp26
 70
     1
102
RTVSPropertyOp27
 70
     1
102
RTVSPropertyOp28
 70
     1
102
RTVSPropertyOp29
 70
     1
102
RTVSPropertyOp30
 70
     1
102
RTVSPropertyOp31
 70
     1
102
RTVSPropertyOp32
 70
     1
102
RTVSPropertyOp33
 70
     1
102
RTVSPropertyOp34
 70
     1
102
RTVSPropertyOp35
 70
     1
102
RTVSPropertyOp36
 70
     1
102
RTVSPropertyOp37
 70
     1
102
RTVSPropertyOp38
 70
     1
102
RTVSPropertyOp39
 70
     1
102
RTVSPropertyOp40
 70
     1
102
RTVSPropertyOp41
 70
     1
102
RTVSPropertyOp42
 70
     1
102
RTVSPropertyOp43
 70
     1
102
RTVSPropertyOp44
 70
     1
102
RTVSPropertyOp45
 70
     1
102
RTVSPropertyOp46
 70
     1
102
RTVSPropertyOp47
 70
     1
102
RTVSPropertyOp48
 70
     1
102
RTVSPropertyOp49
 70
     1
102
RTVSPropertyOp50
 70
     1
102
RTVSPropertyOp51
 70
     0
102
RTVSPropertyOp52
 70
     0
102
RTVSPropertyOp53
 70
     1
102
RTVSPropertyOp54
 70
     1
102
RTVSPropertyOp55
 70
     1
102
RTVSPropertyOp56
 70
     1
102
RTVSPropertyOp57
 70
     1
102
RTVSPost2010Prop28
280
     0
102
RTVSPost2010PropOp28
 70
     1
102
RTVSPost2010Prop29
280
     1
102
RTVSPost2010PropOp29
 70
     1
102
RTVSPost2010Prop30
280
     1
102
RTVSPost2010PropOp30
 70
     1
102
RTVSPost2010Prop31
280
     0
102
RTVSPost2010PropOp31
 70
     1
102
RTVSPost2010Prop32
280
     0
102
RTVSPost2010PropOp32
 70
     1
102
RTVSPost2010Prop33
280
     0
102
RTVSPost2010PropOp33
 70
     1
102
RTVSPost2010Prop34
280
     0
102
RTVSPost2010PropOp34
 70
     1
102
RTVSPost2010Prop35
280
     0
102
RTVSPost2010PropOp35
 70
     1
102
RTVSPost2010Prop36
280
     0
102
RTVSPost2010PropOp36
 70
     1
102
RTVSPost2010Prop37
 90
       50
102
RTVSPost2010PropOp37
 70
     1
102
RTVSPost2010Prop38
140
0.0
102
RTVSPost2010PropOp38
 70
     1
102
RTVSPost2010Prop39
140
1.0
102
RTVSPost2010PropOp39
 70
     1
102
RTVSPost2010Prop40
 90
        0
102
RTVSPost2010PropOp40
 70
     1
102
RTVSPost2010Prop41ColorIndex
 90
       18
102
RTVSPost2010Prop41ColorRGB
 90
        0
102
RTVSPost2010PropOp41
 70
     1
102
RTVSPost2010Prop42
 90
       50
102
RTVSPost2010PropOp42
 70
     1
102
RTVSPost2010Prop43
 90
        3
102
RTVSPost2010PropOp43
 70
     1
102
RTVSPost2010Prop44ColorIndex
 90
        5
102
RTVSPost2010Prop44ColorRGB
 90
      255
102
RTVSPost2010PropOp44
 70
     1
102
RTVSPost2010Prop45
280
     0
102
RTVSPost2010PropOp45
 70
     1
102
RTVSPost2010Prop46
 90
       50
102
RTVSPost2010PropOp46
 70
     1
102
RTVSPost2010Prop47
 90
       50
102
RTVSPost2010PropOp47
 70
     1
102
RTVSPost2010Prop48
 90
       50
102
RTVSPost2010PropOp48
 70
     1
102
RTVSPost2010Prop49
280
     0
102
RTVSPost2010PropOp49
 70
     1
102
RTVSPost2010Prop50
 90
       50
102
RTVSPost2010PropOp50
 70
     1
102
RTVSPost2010Prop51ColorIndex
 90
      256
102
RTVSPost2010Prop51ColorRGB
 90
-16777216
102
RTVSPost2010PropOp51
 70
     0
102
RTVSPost2010Prop52
140
1.0
102
RTVSPost2010PropOp52
 70
     0
102
RTVSPost2010Prop53
 90
        2
102
RTVSPost2010PropOp53
 70
     1
102
RTVSPost2010Prop54
  1
strokes_ogs.tif
102
RTVSPost2010PropOp54
 70
     1
102
RTVSPost2010Prop55
280
     0
102
RTVSPost2010PropOp55
 70
     1
102
RTVSPost2010Prop56
140
1.0
102
RTVSPost2010PropOp56
 70
     1
102
RTVSPost2010Prop57
140
1.0
102
RTVSPost2010PropOp57
 70
     1
  0
XRECORD
  5
2BE
102
{ACAD_REACTORS
330
2BD
102
}
330
2BD
100
AcDbXrecord
280
     1
102
RTVSPropertyOp0
 70
     1
102
RTVSPropertyOp1
 70
     1
102
RTVSPropertyOp2
 70
     1
102
RTVSPropertyOp3
 70
     1
102
RTVSPropertyOp4
 70
     1
102
RTVSPropertyOp5
 70
     1
102
RTVSPropertyOp6
 70
     1
102
RTVSPropertyOp7
 70
     1
102
RTVSPropertyOp8
 70
     1
102
RTVSPropertyOp9
 70
     1
102
RTVSPropertyOp10
 70
     1
102
RTVSPropertyOp11
 70
     1
102
RTVSPropertyOp12
 70
     1
102
RTVSPropertyOp13
 70
     1
102
RTVSPropertyOp14
 70
     1
102
RTVSPropertyOp15
 70
     1
102
RTVSPropertyOp16
 70
     1
102
RTVSPropertyOp17
 70
     1
102
RTVSPropertyOp18
 70
     1
102
RTVSPropertyOp19
 70
     1
102
RTVSPropertyOp20
 70
     1
102
RTVSPropertyOp21
 70
     1
102
RTVSPropertyOp22
 70
     1
102
RTVSPropertyOp23
 70
     1
102
RTVSPropertyOp24
 70
     1
102
RTVSPropertyOp25
 70
     1
102
RTVSPropertyOp26
 70
     1
102
RTVSPropertyOp27
 70
     1
102
RTVSPropertyOp28
 70
     1
102
RTVSPropertyOp29
 70
     1
102
RTVSPropertyOp30
 70
     1
102
RTVSPropertyOp31
 70
     1
102
RTVSPropertyOp32
 70
     1
102
RTVSPropertyOp33
 70
     1
102
RTVSPropertyOp34
 70
     1
102
RTVSPropertyOp35
 70
     1
102
RTVSPropertyOp36
 70
     1
102
RTVSPropertyOp37
 70
     1
102
RTVSPropertyOp38
 70
     1
102
RTVSPropertyOp39
 70
     1
102
RTVSPropertyOp40
 70
     1
102
RTVSPropertyOp41
 70
     1
102
RTVSPropertyOp42
 70
     1
102
RTVSPropertyOp43
 70
     1
102
RTVSPropertyOp44
 70
     1
102
RTVSPropertyOp45
 70
     1
102
RTVSPropertyOp46
 70
     1
102
RTVSPropertyOp47
 70
     1
102
RTVSPropertyOp48
 70
     1
102
RTVSPropertyOp49
 70
     1
102
RTVSPropertyOp50
 70
     1
102
RTVSPropertyOp51
 70
     0
102
RTVSPropertyOp52
 70
     0
102
RTVSPropertyOp53
 70
     1
102
RTVSPropertyOp54
 70
     1
102
RTVSPropertyOp55
 70
     1
102
RTVSPropertyOp56
 70
     1
102
RTVSPropertyOp57
 70
     1
102
RTVSPost2010Prop28
280
     0
102
RTVSPost2010PropOp28
 70
     1
102
RTVSPost2010Prop29
280
     1
102
RTVSPost2010PropOp29
 70
     1
102
RTVSPost2010Prop30
280
     1
102
RTVSPost2010PropOp30
 70
     1
102
RTVSPost2010Prop31
280
     0
102
RTVSPost2010PropOp31
 70
     1
102
RTVSPost2010Prop32
280
     0
102
RTVSPost2010PropOp32
 70
     1
102
RTVSPost2010Prop33
280
     0
102
RTVSPost2010PropOp33
 70
     1
102
RTVSPost2010Prop34
280
     0
102
RTVSPost2010PropOp34
 70
     1
102
RTVSPost2010Prop35
280
     0
102
RTVSPost2010PropOp35
 70
     1
102
RTVSPost2010Prop36
280
     0
102
RTVSPost2010PropOp36
 70
     1
102
RTVSPost2010Prop37
 90
       50
102
RTVSPost2010PropOp37
 70
     1
102
RTVSPost2010Prop38
140
0.0
102
RTVSPost2010PropOp38
 70
     1
102
RTVSPost2010Prop39
140
1.0
102
RTVSPost2010PropOp39
 70
     1
102
RTVSPost2010Prop40
 90
        0
102
RTVSPost2010PropOp40
 70
     1
102
RTVSPost2010Prop41ColorIndex
 90
       18
102
RTVSPost2010Prop41ColorRGB
 90
        0
102
RTVSPost2010PropOp41
 70
     1
102
RTVSPost2010Prop42
 90
       50
102
RTVSPost2010PropOp42
 70
     1
102
RTVSPost2010Prop43
 90
        3
102
RTVSPost2010PropOp43
 70
     1
102
RTVSPost2010Prop44ColorIndex
 90
        5
102
RTVSPost2010Prop44ColorRGB
 90
      255
102
RTVSPost2010PropOp44
 70
     1
102
RTVSPost2010Prop45
280
     0
102
RTVSPost2010PropOp45
 70
     1
102
RTVSPost2010Prop46
 90
       50
102
RTVSPost2010PropOp46
 70
     1
102
RTVSPost2010Prop47
 90
       50
102
RTVSPost2010PropOp47
 70
     1
102
RTVSPost2010Prop48
 90
       50
102
RTVSPost2010PropOp48
 70
     1
102
RTVSPost2010Prop49
280
     0
102
RTVSPost2010PropOp49
 70
     1
102
RTVSPost2010Prop50
 90
       50
102
RTVSPost2010PropOp50
 70
     1
102
RTVSPost2010Prop51ColorIndex
 90
      256
102
RTVSPost2010Prop51ColorRGB
 90
-16777216
102
RTVSPost2010PropOp51
 70
     0
102
RTVSPost2010Prop52
140
1.0
102
RTVSPost2010PropOp52
 70
     0
102
RTVSPost2010Prop53
 90
        2
102
RTVSPost2010PropOp53
 70
     1
102
RTVSPost2010Prop54
  1
strokes_ogs.tif
102
RTVSPost2010PropOp54
 70
     1
102
RTVSPost2010Prop55
280
     0
102
RTVSPost2010PropOp55
 70
     1
102
RTVSPost2010Prop56
140
1.0
102
RTVSPost2010PropOp56
 70
     1
102
RTVSPost2010Prop57
140
1.0
102
RTVSPost2010PropOp57
 70
     1
  0
XRECORD
  5
2B0
102
{ACAD_REACTORS
330
2AF
102
}
330
2AF
100
AcDbXrecord
280
     1
102
RTVSPropertyOp0
 70
     1
102
RTVSPropertyOp1
 70
     1
102
RTVSPropertyOp2
 70
     1
102
RTVSPropertyOp3
 70
     1
102
RTVSPropertyOp4
 70
     1
102
RTVSPropertyOp5
 70
     1
102
RTVSPropertyOp6
 70
     1
102
RTVSPropertyOp7
 70
     1
102
RTVSPropertyOp8
 70
     1
102
RTVSPropertyOp9
 70
     1
102
RTVSPropertyOp10
 70
     1
102
RTVSPropertyOp11
 70
     1
102
RTVSPropertyOp12
 70
     1
102
RTVSPropertyOp13
 70
     1
102
RTVSPropertyOp14
 70
     1
102
RTVSPropertyOp15
 70
     1
102
RTVSPropertyOp16
 70
     1
102
RTVSPropertyOp17
 70
     1
102
RTVSPropertyOp18
 70
     1
102
RTVSPropertyOp19
 70
     1
102
RTVSPropertyOp20
 70
     1
102
RTVSPropertyOp21
 70
     1
102
RTVSPropertyOp22
 70
     1
102
RTVSPropertyOp23
 70
     1
102
RTVSPropertyOp24
 70
     1
102
RTVSPropertyOp25
 70
     1
102
RTVSPropertyOp26
 70
     1
102
RTVSPropertyOp27
 70
     1
102
RTVSPropertyOp28
 70
     1
102
RTVSPropertyOp29
 70
     1
102
RTVSPropertyOp30
 70
     1
102
RTVSPropertyOp31
 70
     1
102
RTVSPropertyOp32
 70
     1
102
RTVSPropertyOp33
 70
     1
102
RTVSPropertyOp34
 70
     1
102
RTVSPropertyOp35
 70
     1
102
RTVSPropertyOp36
 70
     1
102
RTVSPropertyOp37
 70
     1
102
RTVSPropertyOp38
 70
     1
102
RTVSPropertyOp39
 70
     1
102
RTVSPropertyOp40
 70
     1
102
RTVSPropertyOp41
 70
     1
102
RTVSPropertyOp42
 70
     1
102
RTVSPropertyOp43
 70
     1
102
RTVSPropertyOp44
 70
     1
102
RTVSPropertyOp45
 70
     1
102
RTVSPropertyOp46
 70
     1
102
RTVSPropertyOp47
 70
     1
102
RTVSPropertyOp48
 70
     1
102
RTVSPropertyOp49
 70
     1
102
RTVSPropertyOp50
 70
     1
102
RTVSPropertyOp51
 70
     0
102
RTVSPropertyOp52
 70
     0
102
RTVSPropertyOp53
 70
     1
102
RTVSPropertyOp54
 70
     1
102
RTVSPropertyOp55
 70
     1
102
RTVSPropertyOp56
 70
     1
102
RTVSPropertyOp57
 70
     1
102
RTVSPost2010Prop28
280
     0
102
RTVSPost2010PropOp28
 70
     1
102
RTVSPost2010Prop29
280
     1
102
RTVSPost2010PropOp29
 70
     1
102
RTVSPost2010Prop30
280
     1
102
RTVSPost2010PropOp30
 70
     1
102
RTVSPost2010Prop31
280
     0
102
RTVSPost2010PropOp31
 70
     1
102
RTVSPost2010Prop32
280
     0
102
RTVSPost2010PropOp32
 70
     1
102
RTVSPost2010Prop33
280
     0
102
RTVSPost2010PropOp33
 70
     1
102
RTVSPost2010Prop34
280
     0
102
RTVSPost2010PropOp34
 70
     1
102
RTVSPost2010Prop35
280
     0
102
RTVSPost2010PropOp35
 70
     1
102
RTVSPost2010Prop36
280
     0
102
RTVSPost2010PropOp36
 70
     1
102
RTVSPost2010Prop37
 90
       50
102
RTVSPost2010PropOp37
 70
     1
102
RTVSPost2010Prop38
140
0.0
102
RTVSPost2010PropOp38
 70
     1
102
RTVSPost2010Prop39
140
1.0
102
RTVSPost2010PropOp39
 70
     1
102
RTVSPost2010Prop40
 90
        0
102
RTVSPost2010PropOp40
 70
     1
102
RTVSPost2010Prop41ColorIndex
 90
       18
102
RTVSPost2010Prop41ColorRGB
 90
        0
102
RTVSPost2010PropOp41
 70
     1
102
RTVSPost2010Prop42
 90
       50
102
RTVSPost2010PropOp42
 70
     1
102
RTVSPost2010Prop43
 90
        3
102
RTVSPost2010PropOp43
 70
     1
102
RTVSPost2010Prop44ColorIndex
 90
        5
102
RTVSPost2010Prop44ColorRGB
 90
      255
102
RTVSPost2010PropOp44
 70
     1
102
RTVSPost2010Prop45
280
     0
102
RTVSPost2010PropOp45
 70
     1
102
RTVSPost2010Prop46
 90
       50
102
RTVSPost2010PropOp46
 70
     1
102
RTVSPost2010Prop47
 90
       50
102
RTVSPost2010PropOp47
 70
     1
102
RTVSPost2010Prop48
 90
       50
102
RTVSPost2010PropOp48
 70
     1
102
RTVSPost2010Prop49
280
     0
102
RTVSPost2010PropOp49
 70
     1
102
RTVSPost2010Prop50
 90
       50
102
RTVSPost2010PropOp50
 70
     1
102
RTVSPost2010Prop51ColorIndex
 90
      256
102
RTVSPost2010Prop51ColorRGB
 90
-16777216
102
RTVSPost2010PropOp51
 70
     0
102
RTVSPost2010Prop52
140
1.0
102
RTVSPost2010PropOp52
 70
     0
102
RTVSPost2010Prop53
 90
        2
102
RTVSPost2010PropOp53
 70
     1
102
RTVSPost2010Prop54
  1
strokes_ogs.tif
102
RTVSPost2010PropOp54
 70
     1
102
RTVSPost2010Prop55
280
     0
102
RTVSPost2010PropOp55
 70
     1
102
RTVSPost2010Prop56
140
1.0
102
RTVSPost2010PropOp56
 70
     1
102
RTVSPost2010Prop57
140
1.0
102
RTVSPost2010PropOp57
 70
     1
  0
XRECORD
  5
2D0
102
{ACAD_REACTORS
330
2CF
102
}
330
2CF
100
AcDbXrecord
280
     1
102
RTVSPropertyOp0
 70
     1
102
RTVSPropertyOp1
 70
     1
102
RTVSPropertyOp2
 70
     1
102
RTVSPropertyOp3
 70
     1
102
RTVSPropertyOp4
 70
     1
102
RTVSPropertyOp5
 70
     1
102
RTVSPropertyOp6
 70
     1
102
RTVSPropertyOp7
 70
     1
102
RTVSPropertyOp8
 70
     1
102
RTVSPropertyOp9
 70
     1
102
RTVSPropertyOp10
 70
     1
102
RTVSPropertyOp11
 70
     1
102
RTVSPropertyOp12
 70
     1
102
RTVSPropertyOp13
 70
     1
102
RTVSPropertyOp14
 70
     1
102
RTVSPropertyOp15
 70
     1
102
RTVSPropertyOp16
 70
     1
102
RTVSPropertyOp17
 70
     1
102
RTVSPropertyOp18
 70
     1
102
RTVSPropertyOp19
 70
     1
102
RTVSPropertyOp20
 70
     1
102
RTVSPropertyOp21
 70
     1
102
RTVSPropertyOp22
 70
     1
102
RTVSPropertyOp23
 70
     1
102
RTVSPropertyOp24
 70
     1
102
RTVSPropertyOp25
 70
     1
102
RTVSPropertyOp26
 70
     1
102
RTVSPropertyOp27
 70
     1
102
RTVSPropertyOp28
 70
     1
102
RTVSPropertyOp29
 70
     1
102
RTVSPropertyOp30
 70
     1
102
RTVSPropertyOp31
 70
     1
102
RTVSPropertyOp32
 70
     1
102
RTVSPropertyOp33
 70
     1
102
RTVSPropertyOp34
 70
     1
102
RTVSPropertyOp35
 70
     1
102
RTVSPropertyOp36
 70
     1
102
RTVSPropertyOp37
 70
     1
102
RTVSPropertyOp38
 70
     1
102
RTVSPropertyOp39
 70
     1
102
RTVSPropertyOp40
 70
     1
102
RTVSPropertyOp41
 70
     1
102
RTVSPropertyOp42
 70
     1
102
RTVSPropertyOp43
 70
     1
102
RTVSPropertyOp44
 70
     1
102
RTVSPropertyOp45
 70
     1
102
RTVSPropertyOp46
 70
     1
102
RTVSPropertyOp47
 70
     1
102
RTVSPropertyOp48
 70
     1
102
RTVSPropertyOp49
 70
     1
102
RTVSPropertyOp50
 70
     1
102
RTVSPropertyOp51
 70
     0
102
RTVSPropertyOp52
 70
     0
102
RTVSPropertyOp53
 70
     1
102
RTVSPropertyOp54
 70
     1
102
RTVSPropertyOp55
 70
     1
102
RTVSPropertyOp56
 70
     1
102
RTVSPropertyOp57
 70
     1
102
RTVSPost2010Prop28
280
     0
102
RTVSPost2010PropOp28
 70
     1
102
RTVSPost2010Prop29
280
     1
102
RTVSPost2010PropOp29
 70
     1
102
RTVSPost2010Prop30
280
     1
102
RTVSPost2010PropOp30
 70
     1
102
RTVSPost2010Prop31
280
     0
102
RTVSPost2010PropOp31
 70
     1
102
RTVSPost2010Prop32
280
     0
102
RTVSPost2010PropOp32
 70
     1
102
RTVSPost2010Prop33
280
     0
102
RTVSPost2010PropOp33
 70
     1
102
RTVSPost2010Prop34
280
     0
102
RTVSPost2010PropOp34
 70
     1
102
RTVSPost2010Prop35
280
     0
102
RTVSPost2010PropOp35
 70
     1
102
RTVSPost2010Prop36
280
     0
102
RTVSPost2010PropOp36
 70
     1
102
RTVSPost2010Prop37
 90
       50
102
RTVSPost2010PropOp37
 70
     1
102
RTVSPost2010Prop38
140
0.0
102
RTVSPost2010PropOp38
 70
     1
102
RTVSPost2010Prop39
140
1.0
102
RTVSPost2010PropOp39
 70
     1
102
RTVSPost2010Prop40
 90
        0
102
RTVSPost2010PropOp40
 70
     1
102
RTVSPost2010Prop41ColorIndex
 90
       18
102
RTVSPost2010Prop41ColorRGB
 90
        0
102
RTVSPost2010PropOp41
 70
     1
102
RTVSPost2010Prop42
 90
       50
102
RTVSPost2010PropOp42
 70
     1
102
RTVSPost2010Prop43
 90
        3
102
RTVSPost2010PropOp43
 70
     1
102
RTVSPost2010Prop44ColorIndex
 90
        5
102
RTVSPost2010Prop44ColorRGB
 90
      255
102
RTVSPost2010PropOp44
 70
     1
102
RTVSPost2010Prop45
280
     0
102
RTVSPost2010PropOp45
 70
     1
102
RTVSPost2010Prop46
 90
       50
102
RTVSPost2010PropOp46
 70
     1
102
RTVSPost2010Prop47
 90
       50
102
RTVSPost2010PropOp47
 70
     1
102
RTVSPost2010Prop48
 90
       50
102
RTVSPost2010PropOp48
 70
     1
102
RTVSPost2010Prop49
280
     0
102
RTVSPost2010PropOp49
 70
     1
102
RTVSPost2010Prop50
 90
       50
102
RTVSPost2010PropOp50
 70
     1
102
RTVSPost2010Prop51ColorIndex
 90
      256
102
RTVSPost2010Prop51ColorRGB
 90
-16777216
102
RTVSPost2010PropOp51
 70
     0
102
RTVSPost2010Prop52
140
1.0
102
RTVSPost2010PropOp52
 70
     0
102
RTVSPost2010Prop53
 90
        2
102
RTVSPost2010PropOp53
 70
     1
102
RTVSPost2010Prop54
  1
strokes_ogs.tif
102
RTVSPost2010PropOp54
 70
     1
102
RTVSPost2010Prop55
280
     0
102
RTVSPost2010PropOp55
 70
     1
102
RTVSPost2010Prop56
140
1.0
102
RTVSPost2010PropOp56
 70
     1
102
RTVSPost2010Prop57
140
1.0
102
RTVSPost2010PropOp57
 70
     1
  0
ENDSEC
  0
EOF
