  0
SECTION
  2
HEADER
  9
$ACADVER
  1
AC1015
  9
$ACADMAINTVER
 70
     6
  9
$DWGCODEPAGE
  3
ANSI_932
  9
$INSBASE
 10
0.0
 20
0.0
 30
0.0
  9
$EXTMIN
 10
0.0
 20
0.0
 30
0.0
  9
$EXTMAX
 10
723.9999980000002
 20
546.0000000000001
 30
0.0
  9
$LIMMIN
 10
0.0
 20
0.0
  9
$LIMMAX
 10
420.0
 20
297.0
  9
$ORTHOMODE
 70
     0
  9
$REGENMODE
 70
     1
  9
$FILLMODE
 70
     1
  9
$QTEXTMODE
 70
     0
  9
$MIRRTEXT
 70
     1
  9
$LTSCALE
 40
0.5
  9
$ATTMODE
 70
     1
  9
$TEXTSIZE
 40
10.0
  9
$TRACEWID
 40
0.05
  9
$TEXTSTYLE
  7
Standard
  9
$CLAYER
  8
0
  9
$CELTYPE
  6
ByLayer
  9
$CECOLOR
 62
   256
  9
$CELTSCALE
 40
1.0
  9
$DISPSILH
 70
     0
  9
$DIMSCALE
 40
1.0
  9
$DIMASZ
 40
2.3
  9
$DIMEXO
 40
1.0
  9
$DIMDLI
 40
30.0
  9
$DIMRND
 40
0.0
  9
$DIMDLE
 40
0.0
  9
$DIMEXE
 40
1.0
  9
$DIMTP
 40
0.0
  9
$DIMTM
 40
0.0
  9
$DIMTXT
 40
3.3
  9
$DIMCEN
 40
0.09
  9
$DIMTSZ
 40
0.0
  9
$DIMTOL
 70
     0
  9
$DIMLIM
 70
     0
  9
$DIMTIH
 70
     0
  9
$DIMTOH
 70
     0
  9
$DIMSE1
 70
     0
  9
$DIMSE2
 70
     0
  9
$DIMTAD
 70
     3
  9
$DIMZIN
 70
     8
  9
$DIMBLK
  1

  9
$DIMASO
 70
     1
  9
$DIMSHO
 70
     1
  9
$DIMPOST
  1

  9
$DIMAPOST
  1

  9
$DIMALT
 70
     0
  9
$DIMALTD
 70
     2
  9
$DIMALTF
 40
25.4
  9
$DIMLFAC
 40
1.0
  9
$DIMTOFL
 70
     1
  9
$DIMTVP
 40
0.7
  9
$DIMTIX
 70
     0
  9
$DIMSOXD
 70
     0
  9
$DIMSAH
 70
     0
  9
$DIMBLK1
  1

  9
$DIMBLK2
  1

  9
$DIMSTYLE
  2
Standard
  9
$DIMCLRD
 70
     0
  9
$DIMCLRE
 70
     0
  9
$DIMCLRT
 70
     0
  9
$DIMTFAC
 40
0.5
  9
$DIMGAP
 40
0.09
  9
$DIMJUST
 70
     0
  9
$DIMSD1
 70
     0
  9
$DIMSD2
 70
     0
  9
$DIMTOLJ
 70
     1
  9
$DIMTZIN
 70
     8
  9
$DIMALTZ
 70
     0
  9
$DIMALTTZ
 70
     0
  9
$DIMUPT
 70
     1
  9
$DIMDEC
 70
     2
  9
$DIMTDEC
 70
     4
  9
$DIMALTU
 70
     2
  9
$DIMALTTD
 70
     2
  9
$DIMTXSTY
  7
Standard
  9
$DIMAUNIT
 70
     0
  9
$DIMADEC
 70
     0
  9
$DIMALTRND
 40
0.0
  9
$DIMAZIN
 70
     0
  9
$DIMDSEP
 70
    46
  9
$DIMATFIT
 70
     2
  9
$DIMFRAC
 70
     0
  9
$DIMLDRBLK
  1

  9
$DIMLUNIT
 70
     2
  9
$DIMLWD
 70
    -2
  9
$DIMLWE
 70
    -2
  9
$DIMTMOVE
 70
     2
  9
$LUNITS
 70
     2
  9
$LUPREC
 70
     4
  9
$SKETCHINC
 40
0.1
  9
$FILLETRAD
 40
0.5
  9
$AUNITS
 70
     0
  9
$AUPREC
 70
     0
  9
$MENU
  1
.
  9
$ELEVATION
 40
0.0
  9
$PELEVATION
 40
0.0
  9
$THICKNESS
 40
0.0
  9
$LIMCHECK
 70
     0
  9
$CHAMFERA
 40
0.0
  9
$CHAMFERB
 40
0.0
  9
$CHAMFERC
 40
0.0
  9
$CHAMFERD
 40
0.0
  9
$SKPOLY
 70
     0
  9
$TDCREATE
 40
2459334.027997685
  9
$TDUCREATE
 40
2459333.652997685
  9
$TDUPDATE
 40
2459333.652997813
  9
$TDUUPDATE
 40
2459333.277997813
  9
$TDINDWG
 40
0.0000000116
  9
$TDUSRTIMER
 40
0.0000000116
  9
$USRTIMER
 70
     1
  9
$ANGBASE
 50
0.0
  9
$ANGDIR
 70
     0
  9
$PDMODE
 70
     0
  9
$PDSIZE
 40
0.0
  9
$PLINEWID
 40
0.0
  9
$SPLFRAME
 70
     0
  9
$SPLINETYPE
 70
     6
  9
$SPLINESEGS
 70
     8
  9
$HANDSEED
  5
4BF
  9
$SURFTAB1
 70
     6
  9
$SURFTAB2
 70
     6
  9
$SURFTYPE
 70
     6
  9
$SURFU
 70
     6
  9
$SURFV
 70
     6
  9
$UCSBASE
  2

  9
$UCSNAME
  2

  9
$UCSORG
 10
0.0
 20
0.0
 30
0.0
  9
$UCSXDIR
 10
1.0
 20
0.0
 30
0.0
  9
$UCSYDIR
 10
0.0
 20
1.0
 30
0.0
  9
$UCSORTHOREF
  2

  9
$UCSORTHOVIEW
 70
     0
  9
$UCSORGTOP
 10
0.0
 20
0.0
 30
0.0
  9
$UCSORGBOTTOM
 10
0.0
 20
0.0
 30
0.0
  9
$UCSORGLEFT
 10
0.0
 20
0.0
 30
0.0
  9
$UCSORGRIGHT
 10
0.0
 20
0.0
 30
0.0
  9
$UCSORGFRONT
 10
0.0
 20
0.0
 30
0.0
  9
$UCSORGBACK
 10
0.0
 20
0.0
 30
0.0
  9
$PUCSBASE
  2

  9
$PUCSNAME
  2

  9
$PUCSORG
 10
0.0
 20
0.0
 30
0.0
  9
$PUCSXDIR
 10
1.0
 20
0.0
 30
0.0
  9
$PUCSYDIR
 10
0.0
 20
1.0
 30
0.0
  9
$PUCSORTHOREF
  2

  9
$PUCSORTHOVIEW
 70
     0
  9
$PUCSORGTOP
 10
0.0
 20
0.0
 30
0.0
  9
$PUCSORGBOTTOM
 10
0.0
 20
0.0
 30
0.0
  9
$PUCSORGLEFT
 10
0.0
 20
0.0
 30
0.0
  9
$PUCSORGRIGHT
 10
0.0
 20
0.0
 30
0.0
  9
$PUCSORGFRONT
 10
0.0
 20
0.0
 30
0.0
  9
$PUCSORGBACK
 10
0.0
 20
0.0
 30
0.0
  9
$USERI1
 70
     0
  9
$USERI2
 70
     0
  9
$USERI3
 70
     0
  9
$USERI4
 70
     0
  9
$USERI5
 70
     0
  9
$USERR1
 40
0.0
  9
$USERR2
 40
0.0
  9
$USERR3
 40
0.0
  9
$USERR4
 40
0.0
  9
$USERR5
 40
0.0
  9
$WORLDVIEW
 70
     1
  9
$SHADEDGE
 70
     3
  9
$SHADEDIF
 70
    70
  9
$TILEMODE
 70
     1
  9
$MAXACTVP
 70
    64
  9
$PINSBASE
 10
0.0
 20
0.0
 30
0.0
  9
$PLIMCHECK
 70
     0
  9
$PEXTMIN
 10
0.0
 20
0.0
 30
0.0
  9
$PEXTMAX
 10
420.0
 20
297.0
 30
0.0
  9
$PLIMMIN
 10
0.0
 20
0.0
  9
$PLIMMAX
 10
420.0
 20
297.0
  9
$UNITMODE
 70
     0
  9
$VISRETAIN
 70
     1
  9
$PLINEGEN
 70
     0
  9
$PSLTSCALE
 70
     1
  9
$TREEDEPTH
 70
  3020
  9
$CMLSTYLE
  2
Standard
  9
$CMLJUST
 70
     0
  9
$CMLSCALE
 40
1.0
  9
$PROXYGRAPHICS
 70
     1
  9
$MEASUREMENT
 70
     1
  9
$CELWEIGHT
370
    -1
  9
$ENDCAPS
280
     0
  9
$JOINSTYLE
280
     0
  9
$LWDISPLAY
290
     0
  9
$INSUNITS
 70
     4
  9
$HYPERLINKBASE
  1

  9
$STYLESHEET
  1

  9
$XEDIT
290
     1
  9
$CEPSNTYPE
380
     0
  9
$PSTYLEMODE
290
     1
  9
$FINGERPRINTGUID
  2
{D48EE1F4-E6C7-4B6C-A4FA-F08AC9A20B6C}
  9
$VERSIONGUID
  2
{FAEB1C32-E019-11D5-929B-00C0DF256EC4}
  9
$EXTNAMES
290
     1
  9
$PSVPSCALE
 40
0.0
  9
$OLESTARTUP
290
     0
  0
ENDSEC
  0
SECTION
  2
CLASSES
  0
CLASS
  1
ACDBDICTIONARYWDFLT
  2
AcDbDictionaryWithDefault
  3
ObjectDBX Classes
 90
        0
280
     0
281
     0
  0
CLASS
  1
VISUALSTYLE
  2
AcDbVisualStyle
  3
ObjectDBX Classes
 90
     4095
280
     0
281
     0
  0
CLASS
  1
MATERIAL
  2
AcDbMaterial
  3
ObjectDBX Classes
 90
     1153
280
     0
281
     0
  0
CLASS
  1
SCALE
  2
AcDbScale
  3
ObjectDBX Classes
 90
     1153
280
     0
281
     0
  0
CLASS
  1
SUN
  2
AcDbSun
  3
SCENEOE
 90
     1153
280
     0
281
     0
  0
CLASS
  1
DICTIONARYVAR
  2
AcDbDictionaryVar
  3
ObjectDBX Classes
 90
        0
280
     0
281
     0
  0
CLASS
  1
ACDBPLACEHOLDER
  2
AcDbPlaceHolder
  3
ObjectDBX Classes
 90
        0
280
     0
281
     0
  0
CLASS
  1
LAYOUT
  2
AcDbLayout
  3
ObjectDBX Classes
 90
        0
280
     0
281
     0
  0
ENDSEC
  0
SECTION
  2
TABLES
  0
TABLE
  2
VPORT
  5
8
102
{ACAD_XDICTIONARY
360
485
102
}
330
0
100
AcDbSymbolTable
 70
     1
  0
VPORT
  5
29
330
8
100
AcDbSymbolTableRecord
100
AcDbViewportTableRecord
  2
*Active
 70
     0
 10
0.0
 20
0.0
 11
1.0
 21
1.0
 12
10.42990654205607
 22
4.5
 13
0.0
 23
0.0
 14
0.5
 24
0.5
 15
0.5
 25
0.5
 16
0.0
 26
0.0
 36
1.0
 17
0.0
 27
0.0
 37
0.0
 40
9.0
 41
1.972972972850329
 42
50.0
 43
0.0
 44
0.0
 50
0.0
 51
0.0
 71
     0
 72
   100
 73
     1
 74
     3
 75
     0
 76
     0
 77
     0
 78
     0
281
     0
 65
     1
110
0.0
120
0.0
130
0.0
111
1.0
121
0.0
131
0.0
112
0.0
122
1.0
132
0.0
 79
     0
146
0.0
  0
ENDTAB
  0
TABLE
  2
LTYPE
  5
5
330
0
100
AcDbSymbolTable
 70
     9
  0
LTYPE
  5
14
330
5
100
AcDbSymbolTableRecord
100
AcDbLinetypeTableRecord
  2
ByBlock
 70
     0
  3

 72
    65
 73
     0
 40
0.0
  0
LTYPE
  5
15
330
5
100
AcDbSymbolTableRecord
100
AcDbLinetypeTableRecord
  2
ByLayer
 70
     0
  3

 72
    65
 73
     0
 40
0.0
  0
LTYPE
  5
16
330
5
100
AcDbSymbolTableRecord
100
AcDbLinetypeTableRecord
  2
Continuous
 70
     0
  3
Solid line
 72
    65
 73
     0
 40
0.0
  0
LTYPE
  5
B9
330
5
100
AcDbSymbolTableRecord
100
AcDbLinetypeTableRecord
  2
DOT
 70
     0
  3
DOT
 72
    65
 73
     2
 40
4.0
 49
6.0
 74
     0
 49
-2.0
 74
     0
  0
LTYPE
  5
BA
330
5
100
AcDbSymbolTableRecord
100
AcDbLinetypeTableRecord
  2
HIDDEN
 70
     0
  3
HIDDEN
 72
    65
 73
     2
 40
4.2
 49
8.4
 74
     0
 49
-4.2
 74
     0
  0
LTYPE
  5
BB
330
5
100
AcDbSymbolTableRecord
100
AcDbLinetypeTableRecord
  2
DASHDOT
 70
     0
  3
DASHDOT
 72
    65
 73
     4
 40
14.5
 49
30.0
 74
     0
 49
-9.0
 74
     0
 49
2.5
 74
     0
 49
-9.0
 74
     0
  0
LTYPE
  5
BC
330
5
100
AcDbSymbolTableRecord
100
AcDbLinetypeTableRecord
  2
PHANTOM
 70
     0
  3
PHANTOM
 72
    65
 73
     6
 40
12.0
 49
30.0
 74
     0
 49
-9.0
 74
     0
 49
2.5
 74
     0
 49
-5.0
 74
     0
 49
2.5
 74
     0
 49
-9.0
 74
     0
  0
LTYPE
  5
BD
330
5
100
AcDbSymbolTableRecord
100
AcDbLinetypeTableRecord
  2
ACAD_ISO14W100
 70
     0
  3
ACAD_ISO14W100
 72
    65
 73
     8
 40
1.5
 49
12.0
 74
     0
 49
-3.0
 74
     0
 49
0.5
 74
     0
 49
-3.0
 74
     0
 49
0.5
 74
     0
 49
-3.0
 74
     0
 49
0.5
 74
     0
 49
-3.0
 74
     0
  0
LTYPE
  5
BE
330
5
100
AcDbSymbolTableRecord
100
AcDbLinetypeTableRecord
  2
ACAD_ISO06W100
 70
     0
  3
ACAD_ISO06W100
 72
    65
 73
     8
 40
13.5
 49
24.0
 74
     0
 49
-3.0
 74
     0
 49
0.5
 74
     0
 49
-3.0
 74
     0
 49
0.5
 74
     0
 49
-3.0
 74
     0
 49
0.5
 74
     0
 49
-3.0
 74
     0
  0
LTYPE
  5
BF
330
5
100
AcDbSymbolTableRecord
100
AcDbLinetypeTableRecord
  2
ACAD_ISO11W100
 70
     0
  3
ACAD_ISO11W100
 72
    65
 73
     6
 40
15.5
 49
12.0
 74
     0
 49
-3.0
 74
     0
 49
12.0
 74
     0
 49
-3.0
 74
     0
 49
0.5
 74
     0
 49
-3.0
 74
     0
  0
LTYPE
  5
C0
330
5
100
AcDbSymbolTableRecord
100
AcDbLinetypeTableRecord
  2
ACAD_ISO13W100
 70
     0
  3
ACAD_ISO13W100
 72
    65
 73
     8
 40
13.0
 49
12.0
 74
     0
 49
-3.0
 74
     0
 49
12.0
 74
     0
 49
-3.0
 74
     0
 49
0.5
 74
     0
 49
-3.0
 74
     0
 49
0.5
 74
     0
 49
-3.0
 74
     0
  0
ENDTAB
  0
TABLE
  2
LAYER
  5
2
330
0
100
AcDbSymbolTable
 70
    35
  0
LAYER
  5
10
330
2
100
AcDbSymbolTableRecord
100
AcDbLayerTableRecord
  2
0
 70
     0
 62
     7
  6
Continuous
370
    -3
390
F
  0
LAYER
  5
C1
330
2
100
AcDbSymbolTableRecord
100
AcDbLayerTableRecord
  2
1
 70
     0
 62
     6
  6
Continuous
370
    53
390
F
  0
LAYER
  5
C2
330
2
100
AcDbSymbolTableRecord
100
AcDbLayerTableRecord
  2
2
 70
     0
 62
     2
  6
HIDDEN
370
    25
390
F
  0
LAYER
  5
C3
330
2
100
AcDbSymbolTableRecord
100
AcDbLayerTableRecord
  2
3
 70
     0
 62
     1
  6
DASHDOT
370
    25
390
F
  0
LAYER
  5
C4
330
2
100
AcDbSymbolTableRecord
100
AcDbLayerTableRecord
  2
4
 70
     0
 62
     2
  6
PHANTOM
370
    25
390
F
  0
LAYER
  5
C5
330
2
100
AcDbSymbolTableRecord
100
AcDbLayerTableRecord
  2
5
 70
     0
 62
     4
  6
Continuous
370
    25
390
F
  0
LAYER
  5
C6
330
2
100
AcDbSymbolTableRecord
100
AcDbLayerTableRecord
  2
6
 70
     0
 62
     3
  6
Continuous
370
    25
390
F
  0
LAYER
  5
C7
330
2
100
AcDbSymbolTableRecord
100
AcDbLayerTableRecord
  2
7
 70
     0
 62
     3
  6
Continuous
370
    25
390
F
  0
LAYER
  5
C8
330
2
100
AcDbSymbolTableRecord
100
AcDbLayerTableRecord
  2
8
 70
     0
 62
     4
  6
Continuous
370
    25
390
F
  0
LAYER
  5
C9
330
2
100
AcDbSymbolTableRecord
100
AcDbLayerTableRecord
  2
9
 70
     0
 62
     7
  6
Continuous
370
    35
390
F
  0
LAYER
  5
CA
330
2
100
AcDbSymbolTableRecord
100
AcDbLayerTableRecord
  2
10
 70
     0
 62
     6
  6
Continuous
370
    53
390
F
  0
LAYER
  5
CB
330
2
100
AcDbSymbolTableRecord
100
AcDbLayerTableRecord
  2
11
 70
     0
 62
     2
  6
HIDDEN
370
    25
390
F
  0
LAYER
  5
CC
330
2
100
AcDbSymbolTableRecord
100
AcDbLayerTableRecord
  2
12
 70
     0
 62
     5
  6
Continuous
370
    53
390
F
  0
LAYER
  5
CD
330
2
100
AcDbSymbolTableRecord
100
AcDbLayerTableRecord
  2
13
 70
     0
 62
     7
  6
Continuous
370
     9
390
F
  0
LAYER
  5
CE
330
2
100
AcDbSymbolTableRecord
100
AcDbLayerTableRecord
  2
14
 70
     0
 62
     7
  6
Continuous
370
     9
390
F
  0
LAYER
  5
CF
330
2
100
AcDbSymbolTableRecord
100
AcDbLayerTableRecord
  2
15
 70
     0
 62
     7
  6
Continuous
370
    35
390
F
  0
LAYER
  5
D0
330
2
100
AcDbSymbolTableRecord
100
AcDbLayerTableRecord
  2
16
 70
     0
 62
     7
  6
HIDDEN
370
     9
390
F
  0
LAYER
  5
D1
330
2
100
AcDbSymbolTableRecord
100
AcDbLayerTableRecord
  2
17
 70
     0
 62
     7
  6
Continuous
370
     9
390
F
  0
LAYER
  5
D2
330
2
100
AcDbSymbolTableRecord
100
AcDbLayerTableRecord
  2
18
 70
     0
 62
     4
  6
Continuous
370
     9
390
F
  0
LAYER
  5
D3
330
2
100
AcDbSymbolTableRecord
100
AcDbLayerTableRecord
  2
19
 70
     0
 62
     7
  6
Continuous
370
     9
390
F
  0
LAYER
  5
D4
330
2
100
AcDbSymbolTableRecord
100
AcDbLayerTableRecord
  2
20
 70
     0
 62
     6
  6
PHANTOM
370
     9
390
F
  0
LAYER
  5
D5
330
2
100
AcDbSymbolTableRecord
100
AcDbLayerTableRecord
  2
21
 70
     0
 62
     1
  6
Continuous
370
     9
390
F
  0
LAYER
  5
D6
330
2
100
AcDbSymbolTableRecord
100
AcDbLayerTableRecord
  2
22
 70
     0
 62
     7
  6
Continuous
370
     9
390
F
  0
LAYER
  5
D7
330
2
100
AcDbSymbolTableRecord
100
AcDbLayerTableRecord
  2
23
 70
     0
 62
     4
  6
Continuous
370
     9
390
F
  0
LAYER
  5
D8
330
2
100
AcDbSymbolTableRecord
100
AcDbLayerTableRecord
  2
24
 70
     0
 62
     1
  6
DASHDOT
370
     9
390
F
  0
LAYER
  5
D9
330
2
100
AcDbSymbolTableRecord
100
AcDbLayerTableRecord
  2
25
 70
     0
 62
     1
  6
HIDDEN
370
     9
390
F
  0
LAYER
  5
DA
330
2
100
AcDbSymbolTableRecord
100
AcDbLayerTableRecord
  2
26
 70
     0
 62
     2
  6
Continuous
370
     9
390
F
  0
LAYER
  5
DB
330
2
100
AcDbSymbolTableRecord
100
AcDbLayerTableRecord
  2
27
 70
     0
 62
     5
  6
HIDDEN
370
     9
390
F
  0
LAYER
  5
DC
330
2
100
AcDbSymbolTableRecord
100
AcDbLayerTableRecord
  2
28
 70
     0
 62
     3
  6
Continuous
370
     9
390
F
  0
LAYER
  5
DD
330
2
100
AcDbSymbolTableRecord
100
AcDbLayerTableRecord
  2
29
 70
     0
 62
     7
  6
HIDDEN
370
    50
390
F
  0
LAYER
  5
DE
330
2
100
AcDbSymbolTableRecord
100
AcDbLayerTableRecord
  2
30
 70
     0
 62
     7
  6
DASHDOT
370
    50
390
F
  0
LAYER
  5
DF
330
2
100
AcDbSymbolTableRecord
100
AcDbLayerTableRecord
  2
31
 70
     0
 62
     7
  6
Continuous
370
     9
390
F
  0
LAYER
  5
E0
330
2
100
AcDbSymbolTableRecord
100
AcDbLayerTableRecord
  2
32
 70
     0
 62
     7
  6
Continuous
370
     9
390
F
  0
LAYER
  5
E1
330
2
100
AcDbSymbolTableRecord
100
AcDbLayerTableRecord
  2
33
 70
     0
 62
     1
  6
DASHDOT
370
     9
390
F
  0
LAYER
  5
E2
330
2
100
AcDbSymbolTableRecord
100
AcDbLayerTableRecord
  2
34
 70
     0
 62
     7
  6
Continuous
370
     9
390
F
  0
ENDTAB
  0
TABLE
  2
STYLE
  5
3
330
0
100
AcDbSymbolTable
 70
     2
  0
STYLE
  5
11
330
3
100
AcDbSymbolTableRecord
100
AcDbTextStyleTableRecord
  2
Standard
 70
     0
 40
0.0
 41
1.0
 50
0.0
 71
     0
 42
10.0
  3
txt
  4
bigfont
  0
STYLE
  5
6C
330
3
100
AcDbSymbolTableRecord
100
AcDbTextStyleTableRecord
  2
T_STANDARD
 70
     4
 40
10.0
 41
1.0
 50
0.0
 71
     0
 42
10.0
  3
txt
  4
bigfont
1001
ACAD
1000

1071
      256
  0
ENDTAB
  0
TABLE
  2
VIEW
  5
6
330
0
100
AcDbSymbolTable
 70
     0
  0
ENDTAB
  0
TABLE
  2
UCS
  5
7
330
0
100
AcDbSymbolTable
 70
     0
  0
ENDTAB
  0
TABLE
  2
APPID
  5
9
330
0
100
AcDbSymbolTable
 70
     2
  0
APPID
  5
12
330
9
100
AcDbSymbolTableRecord
100
AcDbRegAppTableRecord
  2
ACAD
 70
     0
  0
APPID
  5
6B
330
9
100
AcDbSymbolTableRecord
100
AcDbRegAppTableRecord
  2
ODA
 70
     0
  0
ENDTAB
  0
TABLE
  2
DIMSTYLE
  5
A
330
0
100
AcDbSymbolTable
 70
     1
100
AcDbDimStyleTable
  0
DIMSTYLE
105
27
330
A
100
AcDbSymbolTableRecord
100
AcDbDimStyleTableRecord
  2
Standard
 70
     0
178
     0
340
11
  0
ENDTAB
  0
TABLE
  2
BLOCK_RECORD
  5
1
330
0
100
AcDbSymbolTable
 70
    16
  0
BLOCK_RECORD
  5
1F
330
1
100
AcDbSymbolTableRecord
100
AcDbBlockTableRecord
  2
*Model_Space
340
22
  0
BLOCK_RECORD
  5
1B
330
1
100
AcDbSymbolTableRecord
100
AcDbBlockTableRecord
  2
*Paper_Space
340
1E
  0
BLOCK_RECORD
  5
23
330
1
100
AcDbSymbolTableRecord
100
AcDbBlockTableRecord
  2
*Paper_Space0
340
26
  0
BLOCK_RECORD
  5
6D
330
1
100
AcDbSymbolTableRecord
100
AcDbBlockTableRecord
  2
_ORIGIN
340
0
  0
BLOCK_RECORD
  5
72
330
1
100
AcDbSymbolTableRecord
100
AcDbBlockTableRecord
  2
_DOTBLANK
340
0
  0
BLOCK_RECORD
  5
77
330
1
100
AcDbSymbolTableRecord
100
AcDbBlockTableRecord
  2
_DOT
340
0
  0
BLOCK_RECORD
  5
7C
330
1
100
AcDbSymbolTableRecord
100
AcDbBlockTableRecord
  2
_OPEN
340
0
  0
BLOCK_RECORD
  5
82
330
1
100
AcDbSymbolTableRecord
100
AcDbBlockTableRecord
  2
_CLOSED
340
0
  0
BLOCK_RECORD
  5
89
330
1
100
AcDbSymbolTableRecord
100
AcDbBlockTableRecord
  2
_CLOSEDBLANK
340
0
  0
BLOCK_RECORD
  5
8F
330
1
100
AcDbSymbolTableRecord
100
AcDbBlockTableRecord
  2
_ARROWFILLED
340
0
  0
BLOCK_RECORD
  5
93
330
1
100
AcDbSymbolTableRecord
100
AcDbBlockTableRecord
  2
_BOXBLANK
340
0
  0
BLOCK_RECORD
  5
9B
330
1
100
AcDbSymbolTableRecord
100
AcDbBlockTableRecord
  2
_BOXFILLED
340
0
  0
BLOCK_RECORD
  5
A0
330
1
100
AcDbSymbolTableRecord
100
AcDbBlockTableRecord
  2
_INTEGRAL
340
0
  0
BLOCK_RECORD
  5
A5
330
1
100
AcDbSymbolTableRecord
100
AcDbBlockTableRecord
  2
_OBLIQUE
340
0
  0
BLOCK_RECORD
  5
A9
330
1
100
AcDbSymbolTableRecord
100
AcDbBlockTableRecord
  2
_NONE
340
0
  0
BLOCK_RECORD
  5
AC
330
1
100
AcDbSymbolTableRecord
100
AcDbBlockTableRecord
  2
MARK_OPEN
340
0
  0
BLOCK_RECORD
  5
B1
330
1
100
AcDbSymbolTableRecord
100
AcDbBlockTableRecord
  2
MARK_ORIGIN
340
0
  0
BLOCK_RECORD
  5
B5
330
1
100
AcDbSymbolTableRecord
100
AcDbBlockTableRecord
  2
MARK_DOT
340
0
  0
ENDTAB
  0
ENDSEC
  0
SECTION
  2
BLOCKS
  0
BLOCK
  5
20
330
1F
100
AcDbEntity
  8
0
100
AcDbBlockBegin
  2
*Model_Space
 70
     0
 10
0.0
 20
0.0
 30
0.0
  3
*Model_Space
  1
*Model_Space
  0
ENDBLK
  5
21
330
1F
100
AcDbEntity
  8
0
100
AcDbBlockEnd
  0
BLOCK
  5
1C
330
1B
100
AcDbEntity
 67
     1
  8
0
100
AcDbBlockBegin
  2
*Paper_Space
 70
     0
 10
0.0
 20
0.0
 30
0.0
  3
*Paper_Space
  1
*Paper_Space
  0
ENDBLK
  5
1D
330
1B
100
AcDbEntity
 67
     1
  8
0
100
AcDbBlockEnd
  0
BLOCK
  5
24
330
23
100
AcDbEntity
  8
0
100
AcDbBlockBegin
  2
*Paper_Space0
 70
     0
 10
0.0
 20
0.0
 30
0.0
  3
*Paper_Space0
  1
*Paper_Space0
  0
ENDBLK
  5
25
330
23
100
AcDbEntity
  8
0
100
AcDbBlockEnd
  0
BLOCK
  5
70
330
6D
100
AcDbEntity
  8
0
100
AcDbBlockBegin
  2
_ORIGIN
 70
     0
 10
0.0
 20
0.0
 30
0.0
  3
_ORIGIN
  1
_ORIGIN
  0
CIRCLE
  5
6E
330
6D
100
AcDbEntity
  8
0
 62
     0
100
AcDbCircle
 10
0.0
 20
0.0
 30
0.0
 40
0.5
  0
LINE
  5
6F
330
6D
100
AcDbEntity
  8
0
 62
     0
100
AcDbLine
 10
0.0
 20
0.0
 30
0.0
 11
-1.0
 21
0.0
 31
0.0
  0
ENDBLK
  5
71
330
6D
100
AcDbEntity
  8
0
100
AcDbBlockEnd
  0
BLOCK
  5
75
330
72
100
AcDbEntity
  8
0
100
AcDbBlockBegin
  2
_DOTBLANK
 70
     0
 10
0.0
 20
0.0
 30
0.0
  3
_DOTBLANK
  1
_DOTBLANK
  0
CIRCLE
  5
73
330
72
100
AcDbEntity
  8
0
 62
     0
100
AcDbCircle
 10
0.0
 20
0.0
 30
0.0
 40
0.5
  0
LINE
  5
74
330
72
100
AcDbEntity
  8
0
 62
     0
100
AcDbLine
 10
-0.5
 20
0.0
 30
0.0
 11
-1.0
 21
0.0
 31
0.0
  0
ENDBLK
  5
76
330
72
100
AcDbEntity
  8
0
100
AcDbBlockEnd
  0
BLOCK
  5
7A
330
77
100
AcDbEntity
  8
0
100
AcDbBlockBegin
  2
_DOT
 70
     0
 10
0.0
 20
0.0
 30
0.0
  3
_DOT
  1
_DOT
  0
LWPOLYLINE
  5
78
330
77
100
AcDbEntity
  8
0
 62
     0
100
AcDbPolyline
 90
        2
 70
     1
 43
0.5
 10
-0.25
 20
0.0
 42
1.0
 10
0.25
 20
0.0
 42
1.0
  0
LINE
  5
79
330
77
100
AcDbEntity
  8
0
 62
     0
100
AcDbLine
 10
-0.5
 20
0.0
 30
0.0
 11
-1.0
 21
0.0
 31
0.0
  0
ENDBLK
  5
7B
330
77
100
AcDbEntity
  8
0
100
AcDbBlockEnd
  0
BLOCK
  5
80
330
7C
100
AcDbEntity
  8
0
100
AcDbBlockBegin
  2
_OPEN
 70
     0
 10
0.0
 20
0.0
 30
0.0
  3
_OPEN
  1
_OPEN
  0
LINE
  5
7D
330
7C
100
AcDbEntity
  8
0
 62
     0
100
AcDbLine
 10
0.0
 20
0.0
 30
0.0
 11
-1.0
 21
0.1666666666666667
 31
0.0
  0
LINE
  5
7E
330
7C
100
AcDbEntity
  8
0
 62
     0
100
AcDbLine
 10
0.0
 20
0.0
 30
0.0
 11
-1.0
 21
-0.1666666666666667
 31
0.0
  0
LINE
  5
7F
330
7C
100
AcDbEntity
  8
0
 62
     0
100
AcDbLine
 10
0.0
 20
0.0
 30
0.0
 11
-1.0
 21
0.0
 31
0.0
  0
ENDBLK
  5
81
330
7C
100
AcDbEntity
  8
0
100
AcDbBlockEnd
  0
BLOCK
  5
87
330
82
100
AcDbEntity
  8
0
100
AcDbBlockBegin
  2
_CLOSED
 70
     0
 10
0.0
 20
0.0
 30
0.0
  3
_CLOSED
  1
_CLOSED
  0
LINE
  5
83
330
82
100
AcDbEntity
  8
0
 62
     0
100
AcDbLine
 10
0.0
 20
0.0
 30
0.0
 11
-1.0
 21
0.1666666666666667
 31
0.0
  0
LINE
  5
84
330
82
100
AcDbEntity
  8
0
 62
     0
100
AcDbLine
 10
0.0
 20
0.0
 30
0.0
 11
-1.0
 21
-0.1666666666666667
 31
0.0
  0
LINE
  5
85
330
82
100
AcDbEntity
  8
0
 62
     0
100
AcDbLine
 10
-1.0
 20
0.1666666666666667
 30
0.0
 11
-1.0
 21
-0.1666666666666667
 31
0.0
  0
LINE
  5
86
330
82
100
AcDbEntity
  8
0
 62
     0
100
AcDbLine
 10
0.0
 20
0.0
 30
0.0
 11
-1.0
 21
0.0
 31
0.0
  0
ENDBLK
  5
88
330
82
100
AcDbEntity
  8
0
100
AcDbBlockEnd
  0
BLOCK
  5
8D
330
89
100
AcDbEntity
  8
0
100
AcDbBlockBegin
  2
_CLOSEDBLANK
 70
     0
 10
0.0
 20
0.0
 30
0.0
  3
_CLOSEDBLANK
  1
_CLOSEDBLANK
  0
LINE
  5
8A
330
89
100
AcDbEntity
  8
0
 62
     0
100
AcDbLine
 10
0.0
 20
0.0
 30
0.0
 11
-1.0
 21
0.1666666666666667
 31
0.0
  0
LINE
  5
8B
330
89
100
AcDbEntity
  8
0
 62
     0
100
AcDbLine
 10
0.0
 20
0.0
 30
0.0
 11
-1.0
 21
-0.1666666666666667
 31
0.0
  0
LINE
  5
8C
330
89
100
AcDbEntity
  8
0
 62
     0
100
AcDbLine
 10
-1.0
 20
0.1666666666666667
 30
0.0
 11
-1.0
 21
-0.1666666666666667
 31
0.0
  0
ENDBLK
  5
8E
330
89
100
AcDbEntity
  8
0
100
AcDbBlockEnd
  0
BLOCK
  5
91
330
8F
100
AcDbEntity
  8
0
100
AcDbBlockBegin
  2
_ARROWFILLED
 70
     0
 10
0.0
 20
0.0
 30
0.0
  3
_ARROWFILLED
  1
_ARROWFILLED
  0
SOLID
  5
90
330
8F
100
AcDbEntity
  8
0
 62
     0
100
AcDbTrace
 10
0.0
 20
0.0
 30
0.0
 11
-1.0
 21
-0.1666666666666667
 31
0.0
 12
-1.0
 22
0.1666666666666667
 32
0.0
 13
0.0
 23
0.0
 33
0.0
  0
ENDBLK
  5
92
330
8F
100
AcDbEntity
  8
0
100
AcDbBlockEnd
  0
BLOCK
  5
99
330
93
100
AcDbEntity
  8
0
100
AcDbBlockBegin
  2
_BOXBLANK
 70
     0
 10
0.0
 20
0.0
 30
0.0
  3
_BOXBLANK
  1
_BOXBLANK
  0
LINE
  5
94
330
93
100
AcDbEntity
  8
0
 62
     0
100
AcDbLine
 10
-0.5
 20
-0.5
 30
0.0
 11
0.5
 21
-0.5
 31
0.0
  0
LINE
  5
95
330
93
100
AcDbEntity
  8
0
 62
     0
100
AcDbLine
 10
0.5
 20
-0.5
 30
0.0
 11
0.5
 21
0.5
 31
0.0
  0
LINE
  5
96
330
93
100
AcDbEntity
  8
0
 62
     0
100
AcDbLine
 10
0.5
 20
0.5
 30
0.0
 11
-0.5
 21
0.5
 31
0.0
  0
LINE
  5
97
330
93
100
AcDbEntity
  8
0
 62
     0
100
AcDbLine
 10
-0.5
 20
0.5
 30
0.0
 11
-0.5
 21
-0.5
 31
0.0
  0
LINE
  5
98
330
93
100
AcDbEntity
  8
0
 62
     0
100
AcDbLine
 10
-0.5
 20
0.0
 30
0.0
 11
-1.0
 21
0.0
 31
0.0
  0
ENDBLK
  5
9A
330
93
100
AcDbEntity
  8
0
100
AcDbBlockEnd
  0
BLOCK
  5
9E
330
9B
100
AcDbEntity
  8
0
100
AcDbBlockBegin
  2
_BOXFILLED
 70
     0
 10
0.0
 20
0.0
 30
0.0
  3
_BOXFILLED
  1
_BOXFILLED
  0
SOLID
  5
9C
330
9B
100
AcDbEntity
  8
0
 62
     0
100
AcDbTrace
 10
-0.5
 20
0.5
 30
0.0
 11
0.5
 21
0.5
 31
0.0
 12
-0.5
 22
-0.5
 32
0.0
 13
0.5
 23
-0.5
 33
0.0
  0
LINE
  5
9D
330
9B
100
AcDbEntity
  8
0
 62
     0
100
AcDbLine
 10
-0.5
 20
0.0
 30
0.0
 11
-1.0
 21
0.0
 31
0.0
  0
ENDBLK
  5
9F
330
9B
100
AcDbEntity
  8
0
100
AcDbBlockEnd
  0
BLOCK
  5
A3
330
A0
100
AcDbEntity
  8
0
100
AcDbBlockBegin
  2
_INTEGRAL
 70
     0
 10
0.0
 20
0.0
 30
0.0
  3
_INTEGRAL
  1
_INTEGRAL
  0
ARC
  5
A1
330
A0
100
AcDbEntity
  8
0
 62
     0
100
AcDbCircle
 10
0.444888
 20
-0.0913346
 30
0.0
 40
0.4541666
100
AcDbArc
 50
101.9999999999999
 51
167.9999999999998
  0
ARC
  5
A2
330
A0
100
AcDbEntity
  8
0
 62
     0
100
AcDbCircle
 10
-0.444888
 20
0.0913346
 30
0.0
 40
0.4541666
100
AcDbArc
 50
281.9999999999997
 51
347.9999999999997
  0
ENDBLK
  5
A4
330
A0
100
AcDbEntity
  8
0
100
AcDbBlockEnd
  0
BLOCK
  5
A7
330
A5
100
AcDbEntity
  8
0
100
AcDbBlockBegin
  2
_OBLIQUE
 70
     0
 10
0.0
 20
0.0
 30
0.0
  3
_OBLIQUE
  1
_OBLIQUE
  0
LINE
  5
A6
330
A5
100
AcDbEntity
  8
0
 62
     0
100
AcDbLine
 10
-0.5
 20
-0.5
 30
0.0
 11
0.5
 21
0.5
 31
0.0
  0
ENDBLK
  5
A8
330
A5
100
AcDbEntity
  8
0
100
AcDbBlockEnd
  0
BLOCK
  5
AA
330
A9
100
AcDbEntity
  8
0
100
AcDbBlockBegin
  2
_NONE
 70
     0
 10
0.0
 20
0.0
 30
0.0
  3
_NONE
  1
_NONE
  0
ENDBLK
  5
AB
330
A9
100
AcDbEntity
  8
0
100
AcDbBlockEnd
  0
BLOCK
  5
AF
330
AC
100
AcDbEntity
  8
0
100
AcDbBlockBegin
  2
MARK_OPEN
 70
     0
 10
0.0
 20
0.0
 30
0.0
  3
MARK_OPEN
  1
MARK_OPEN
  0
LINE
  5
AD
330
AC
100
AcDbEntity
  8
0
 62
     0
100
AcDbLine
 10
0.0
 20
0.0
 30
0.0
 11
-1.0
 21
0.1666666666666667
 31
0.0
  0
LINE
  5
AE
330
AC
100
AcDbEntity
  8
0
 62
     0
100
AcDbLine
 10
0.0
 20
0.0
 30
0.0
 11
-1.0
 21
-0.1666666666666667
 31
0.0
  0
ENDBLK
  5
B0
330
AC
100
AcDbEntity
  8
0
100
AcDbBlockEnd
  0
BLOCK
  5
B3
330
B1
100
AcDbEntity
  8
0
100
AcDbBlockBegin
  2
MARK_ORIGIN
 70
     0
 10
0.0
 20
0.0
 30
0.0
  3
MARK_ORIGIN
  1
MARK_ORIGIN
  0
CIRCLE
  5
B2
330
B1
100
AcDbEntity
  8
0
 62
     0
100
AcDbCircle
 10
0.0
 20
0.0
 30
0.0
 40
0.5
  0
ENDBLK
  5
B4
330
B1
100
AcDbEntity
  8
0
100
AcDbBlockEnd
  0
BLOCK
  5
B7
330
B5
100
AcDbEntity
  8
0
100
AcDbBlockBegin
  2
MARK_DOT
 70
     0
 10
0.0
 20
0.0
 30
0.0
  3
MARK_DOT
  1
MARK_DOT
  0
LWPOLYLINE
  5
B6
330
B5
100
AcDbEntity
  8
0
 62
     0
100
AcDbPolyline
 90
        2
 70
     1
 43
0.5
 10
-0.25
 20
0.0
 42
1.0
 10
0.25
 20
0.0
 42
1.0
  0
ENDBLK
  5
B8
330
B5
100
AcDbEntity
  8
0
100
AcDbBlockEnd
  0
ENDSEC
  0
SECTION
  2
ENTITIES
  0
POLYLINE
  5
E3
330
1F
100
AcDbEntity
  8
12
  6
Continuous
 62
     5
370
    53
100
AcDb2dPolyline
 66
     1
 10
0.0
 20
0.0
 30
0.0
  0
VERTEX
  5
E4
330
E3
100
AcDbEntity
  8
12
  6
Continuous
 62
     5
370
    53
100
AcDbVertex
100
AcDb2dVertex
 10
361.9999990000001
 20
0.0
 30
0.0
  0
VERTEX
  5
E5
330
E3
100
AcDbEntity
  8
12
  6
Continuous
 62
     5
370
    53
100
AcDbVertex
100
AcDb2dVertex
 10
0.0
 20
0.0
 30
0.0
  0
VERTEX
  5
E6
330
E3
100
AcDbEntity
  8
12
  6
Continuous
 62
     5
370
    53
100
AcDbVertex
100
AcDb2dVertex
 10
0.0
 20
546.0
 30
0.0
  0
VERTEX
  5
E7
330
E3
100
AcDbEntity
  8
12
  6
Continuous
 62
     5
370
    53
100
AcDbVertex
100
AcDb2dVertex
 10
361.9999990000001
 20
546.0
 30
0.0
  0
VERTEX
  5
E8
330
E3
100
AcDbEntity
  8
12
  6
Continuous
 62
     5
370
    53
100
AcDbVertex
100
AcDb2dVertex
 10
361.9999990000001
 20
0.0
 30
0.0
  0
SEQEND
  5
E9
330
E3
100
AcDbEntity
  8
12
  6
Continuous
 62
     5
370
    53
  0
POLYLINE
  5
EA
330
1F
100
AcDbEntity
  8
9
  6
Continuous
 62
     7
370
    35
100
AcDb2dPolyline
 66
     1
 10
0.0
 20
0.0
 30
0.0
  0
VERTEX
  5
EB
330
EA
100
AcDbEntity
  8
9
  6
Continuous
 62
     7
370
    35
100
AcDbVertex
100
AcDb2dVertex
 10
40.6392912498784
 20
328.0931150000001
 30
0.0
  0
VERTEX
  5
EC
330
EA
100
AcDbEntity
  8
9
  6
Continuous
 62
     7
370
    35
100
AcDbVertex
100
AcDb2dVertex
 10
188.6392912498784
 20
328.0931150000001
 30
0.0
  0
SEQEND
  5
ED
330
EA
100
AcDbEntity
  8
9
  6
Continuous
 62
     7
370
    35
  0
ARC
  5
EE
330
1F
100
AcDbEntity
  8
9
  6
Continuous
 62
     7
370
    35
100
AcDbCircle
 10
188.639291249882
 20
325.0931150000031
 30
0.0
 40
2.99999999999693
100
AcDbArc
 50
359.9999999999432
 51
89.99999999999991
  0
POLYLINE
  5
EF
330
1F
100
AcDbEntity
  8
9
  6
Continuous
 62
     7
370
    35
100
AcDb2dPolyline
 66
     1
 10
0.0
 20
0.0
 30
0.0
  0
VERTEX
  5
F0
330
EF
100
AcDbEntity
  8
9
  6
Continuous
 62
     7
370
    35
100
AcDbVertex
100
AcDb2dVertex
 10
191.6392912498784
 20
325.0931150000001
 30
0.0
  0
VERTEX
  5
F1
330
EF
100
AcDbEntity
  8
9
  6
Continuous
 62
     7
370
    35
100
AcDbVertex
100
AcDb2dVertex
 10
191.6392912498784
 20
133.0931150000001
 30
0.0
  0
SEQEND
  5
F2
330
EF
100
AcDbEntity
  8
9
  6
Continuous
 62
     7
370
    35
  0
ARC
  5
F3
330
1F
100
AcDbEntity
  8
9
  6
Continuous
 62
     7
370
    35
100
AcDbCircle
 10
188.6392912498768
 20
133.0931150000017
 30
0.0
 40
3.000000000001535
100
AcDbArc
 50
269.9999999999998
 51
359.9999999999692
  0
POLYLINE
  5
F4
330
1F
100
AcDbEntity
  8
9
  6
Continuous
 62
     7
370
    35
100
AcDb2dPolyline
 66
     1
 10
0.0
 20
0.0
 30
0.0
  0
VERTEX
  5
F5
330
F4
100
AcDbEntity
  8
9
  6
Continuous
 62
     7
370
    35
100
AcDbVertex
100
AcDb2dVertex
 10
188.6392912498784
 20
130.0931150000001
 30
0.0
  0
VERTEX
  5
F6
330
F4
100
AcDbEntity
  8
9
  6
Continuous
 62
     7
370
    35
100
AcDbVertex
100
AcDb2dVertex
 10
40.6392912498784
 20
130.0931150000001
 30
0.0
  0
SEQEND
  5
F7
330
F4
100
AcDbEntity
  8
9
  6
Continuous
 62
     7
370
    35
  0
ARC
  5
F8
330
1F
100
AcDbEntity
  8
9
  6
Continuous
 62
     7
370
    35
100
AcDbCircle
 10
40.63929124987908
 20
133.0931150000008
 30
0.0
 40
3.000000000000654
100
AcDbArc
 50
180.0000000000127
 51
269.9999999999998
  0
POLYLINE
  5
F9
330
1F
100
AcDbEntity
  8
9
  6
Continuous
 62
     7
370
    35
100
AcDb2dPolyline
 66
     1
 10
0.0
 20
0.0
 30
0.0
  0
VERTEX
  5
FA
330
F9
100
AcDbEntity
  8
9
  6
Continuous
 62
     7
370
    35
100
AcDbVertex
100
AcDb2dVertex
 10
37.6392912498784
 20
133.0931150000001
 30
0.0
  0
VERTEX
  5
FB
330
F9
100
AcDbEntity
  8
9
  6
Continuous
 62
     7
370
    35
100
AcDbVertex
100
AcDb2dVertex
 10
37.6392912498784
 20
325.0931150000001
 30
0.0
  0
SEQEND
  5
FC
330
F9
100
AcDbEntity
  8
9
  6
Continuous
 62
     7
370
    35
  0
ARC
  5
FD
330
1F
100
AcDbEntity
  8
9
  6
Continuous
 62
     7
370
    35
100
AcDbCircle
 10
40.63929124987385
 20
325.0931150000042
 30
0.0
 40
2.999999999995417
100
AcDbArc
 50
89.99999999999991
 51
180.0000000000778
  0
POLYLINE
  5
FE
330
1F
100
AcDbEntity
  8
9
  6
Continuous
 62
     7
370
    35
100
AcDb2dPolyline
 66
     1
 10
0.0
 20
0.0
 30
0.0
  0
VERTEX
  5
FF
330
FE
100
AcDbEntity
  8
9
  6
Continuous
 62
     7
370
    35
100
AcDbVertex
100
AcDb2dVertex
 10
187.6392912498784
 20
260.0931150000001
 30
0.0
  0
VERTEX
  5
100
330
FE
100
AcDbEntity
  8
9
  6
Continuous
 62
     7
370
    35
100
AcDbVertex
100
AcDb2dVertex
 10
187.6392912498784
 20
198.0931150000001
 30
0.0
  0
SEQEND
  5
101
330
FE
100
AcDbEntity
  8
9
  6
Continuous
 62
     7
370
    35
  0
ARC
  5
102
330
1F
100
AcDbEntity
  8
9
  6
Continuous
 62
     7
370
    35
100
AcDbCircle
 10
183.6392912498779
 20
198.0931149999998
 30
0.0
 40
4.000000000000455
100
AcDbArc
 50
269.9999999999998
 51
0.0000000000048853
  0
POLYLINE
  5
103
330
1F
100
AcDbEntity
  8
9
  6
Continuous
 62
     7
370
    35
100
AcDb2dPolyline
 66
     1
 10
0.0
 20
0.0
 30
0.0
  0
VERTEX
  5
104
330
103
100
AcDbEntity
  8
9
  6
Continuous
 62
     7
370
    35
100
AcDbVertex
100
AcDb2dVertex
 10
183.6392912498784
 20
194.0931150000001
 30
0.0
  0
VERTEX
  5
105
330
103
100
AcDbEntity
  8
9
  6
Continuous
 62
     7
370
    35
100
AcDbVertex
100
AcDb2dVertex
 10
179.6392912498784
 20
194.0931150000001
 30
0.0
  0
SEQEND
  5
106
330
103
100
AcDbEntity
  8
9
  6
Continuous
 62
     7
370
    35
  0
ARC
  5
107
330
1F
100
AcDbEntity
  8
9
  6
Continuous
 62
     7
370
    35
100
AcDbCircle
 10
179.63929124988
 20
198.0931150000015
 30
0.0
 40
4.000000000001364
100
AcDbArc
 50
180.0000000000192
 51
269.9999999999998
  0
POLYLINE
  5
108
330
1F
100
AcDbEntity
  8
9
  6
Continuous
 62
     7
370
    35
100
AcDb2dPolyline
 66
     1
 10
0.0
 20
0.0
 30
0.0
  0
VERTEX
  5
109
330
108
100
AcDbEntity
  8
9
  6
Continuous
 62
     7
370
    35
100
AcDbVertex
100
AcDb2dVertex
 10
175.6392912498784
 20
198.0931150000001
 30
0.0
  0
VERTEX
  5
10A
330
108
100
AcDbEntity
  8
9
  6
Continuous
 62
     7
370
    35
100
AcDbVertex
100
AcDb2dVertex
 10
175.6392912498784
 20
260.0931150000001
 30
0.0
  0
SEQEND
  5
10B
330
108
100
AcDbEntity
  8
9
  6
Continuous
 62
     7
370
    35
  0
ARC
  5
10C
330
1F
100
AcDbEntity
  8
9
  6
Continuous
 62
     7
370
    35
100
AcDbCircle
 10
179.6392912498798
 20
260.0931150000026
 30
0.0
 40
4.000000000001279
100
AcDbArc
 50
89.99999999999991
 51
180.0000000000354
  0
POLYLINE
  5
10D
330
1F
100
AcDbEntity
  8
9
  6
Continuous
 62
     7
370
    35
100
AcDb2dPolyline
 66
     1
 10
0.0
 20
0.0
 30
0.0
  0
VERTEX
  5
10E
330
10D
100
AcDbEntity
  8
9
  6
Continuous
 62
     7
370
    35
100
AcDbVertex
100
AcDb2dVertex
 10
179.6392912498784
 20
264.0931150000001
 30
0.0
  0
VERTEX
  5
10F
330
10D
100
AcDbEntity
  8
9
  6
Continuous
 62
     7
370
    35
100
AcDbVertex
100
AcDb2dVertex
 10
183.6392912498784
 20
264.0931150000001
 30
0.0
  0
SEQEND
  5
110
330
10D
100
AcDbEntity
  8
9
  6
Continuous
 62
     7
370
    35
  0
ARC
  5
111
330
1F
100
AcDbEntity
  8
9
  6
Continuous
 62
     7
370
    35
100
AcDbCircle
 10
183.6392912498757
 20
260.0931149999981
 30
0.0
 40
4.000000000002046
100
AcDbArc
 50
0.000000000029312
 51
89.99999999999991
  0
ARC
  5
112
330
1F
100
AcDbEntity
  8
4
  6
PHANTOM
 62
     2
370
    25
100
AcDbCircle
 10
84.13929124987794
 20
345.5692269772042
 30
0.0
 40
12.07142857142694
100
AcDbArc
 50
45.23972989607129
 51
134.7602701039264
  0
ARC
  5
113
330
1F
100
AcDbEntity
  8
4
  6
PHANTOM
 62
     2
370
    25
100
AcDbCircle
 10
84.1392912498784
 20
362.7120841200583
 30
0.0
 40
12.0714285714283
100
AcDbArc
 50
225.2397298960786
 51
314.76027010392
  0
ARC
  5
114
330
1F
100
AcDbEntity
  8
4
  6
PHANTOM
 62
     2
370
    25
100
AcDbCircle
 10
67.1392912498784
 20
345.5692269772032
 30
0.0
 40
12.07142857142749
100
AcDbArc
 50
45.23972989607586
 51
134.7602701039241
  0
ARC
  5
115
330
1F
100
AcDbEntity
  8
4
  6
PHANTOM
 62
     2
370
    25
100
AcDbCircle
 10
84.1392912498784
 20
111.9280376318418
 30
0.0
 40
12.07142857142853
100
AcDbArc
 50
225.2397298960801
 51
314.7602701039192
  0
ARC
  5
116
330
1F
100
AcDbEntity
  8
4
  6
PHANTOM
 62
     2
370
    25
100
AcDbCircle
 10
84.1392912498784
 20
94.78518048898468
 30
0.0
 40
12.07142857142859
100
AcDbArc
 50
45.23972989608042
 51
134.7602701039188
  0
ARC
  5
117
330
1F
100
AcDbEntity
  8
4
  6
PHANTOM
 62
     2
370
    25
100
AcDbCircle
 10
67.13929124987862
 20
111.9280376318418
 30
0.0
 40
12.07142857142853
100
AcDbArc
 50
225.2397298960793
 51
314.7602701039177
  0
POLYLINE
  5
118
330
1F
100
AcDbEntity
  8
9
  6
Continuous
 62
     7
370
    35
100
AcDb2dPolyline
 66
     1
 10
0.0
 20
0.0
 30
0.0
  0
VERTEX
  5
119
330
118
100
AcDbEntity
  8
9
  6
Continuous
 62
     7
370
    35
100
AcDbVertex
100
AcDb2dVertex
 10
265.6748982019767
 20
328.0931150000001
 30
0.0
  0
VERTEX
  5
11A
330
118
100
AcDbEntity
  8
9
  6
Continuous
 62
     7
370
    35
100
AcDbVertex
100
AcDb2dVertex
 10
315.6748982019767
 20
328.0931150000001
 30
0.0
  0
SEQEND
  5
11B
330
118
100
AcDbEntity
  8
9
  6
Continuous
 62
     7
370
    35
  0
ARC
  5
11C
330
1F
100
AcDbEntity
  8
9
  6
Continuous
 62
     7
370
    35
100
AcDbCircle
 10
315.6748982019803
 20
325.0931150000041
 30
0.0
 40
2.999999999996021
100
AcDbArc
 50
359.9999999999237
 51
89.99999999999991
  0
POLYLINE
  5
11D
330
1F
100
AcDbEntity
  8
9
  6
Continuous
 62
     7
370
    35
100
AcDb2dPolyline
 66
     1
 10
0.0
 20
0.0
 30
0.0
  0
VERTEX
  5
11E
330
11D
100
AcDbEntity
  8
9
  6
Continuous
 62
     7
370
    35
100
AcDbVertex
100
AcDb2dVertex
 10
318.6748982019767
 20
325.0931150000001
 30
0.0
  0
VERTEX
  5
11F
330
11D
100
AcDbEntity
  8
9
  6
Continuous
 62
     7
370
    35
100
AcDbVertex
100
AcDb2dVertex
 10
318.6748982019767
 20
133.0931150000001
 30
0.0
  0
SEQEND
  5
120
330
11D
100
AcDbEntity
  8
9
  6
Continuous
 62
     7
370
    35
  0
ARC
  5
121
330
1F
100
AcDbEntity
  8
9
  6
Continuous
 62
     7
370
    35
100
AcDbCircle
 10
315.6748982019803
 20
133.0931149999969
 30
0.0
 40
2.999999999996646
100
AcDbArc
 50
269.9999999999998
 51
0.0000000000607952
  0
POLYLINE
  5
122
330
1F
100
AcDbEntity
  8
9
  6
Continuous
 62
     7
370
    35
100
AcDb2dPolyline
 66
     1
 10
0.0
 20
0.0
 30
0.0
  0
VERTEX
  5
123
330
122
100
AcDbEntity
  8
9
  6
Continuous
 62
     7
370
    35
100
AcDbVertex
100
AcDb2dVertex
 10
315.6748982019767
 20
130.0931150000001
 30
0.0
  0
VERTEX
  5
124
330
122
100
AcDbEntity
  8
9
  6
Continuous
 62
     7
370
    35
100
AcDbVertex
100
AcDb2dVertex
 10
265.6748982019767
 20
130.0931150000001
 30
0.0
  0
SEQEND
  5
125
330
122
100
AcDbEntity
  8
9
  6
Continuous
 62
     7
370
    35
  0
ARC
  5
126
330
1F
100
AcDbEntity
  8
9
  6
Continuous
 62
     7
370
    35
100
AcDbCircle
 10
265.6748982019799
 20
133.0931150000038
 30
0.0
 40
3.000000000003524
100
AcDbArc
 50
180.0000000000691
 51
269.9999999999998
  0
POLYLINE
  5
127
330
1F
100
AcDbEntity
  8
9
  6
Continuous
 62
     7
370
    35
100
AcDb2dPolyline
 66
     1
 10
0.0
 20
0.0
 30
0.0
  0
VERTEX
  5
128
330
127
100
AcDbEntity
  8
9
  6
Continuous
 62
     7
370
    35
100
AcDbVertex
100
AcDb2dVertex
 10
262.6748982019767
 20
133.0931150000001
 30
0.0
  0
VERTEX
  5
129
330
127
100
AcDbEntity
  8
9
  6
Continuous
 62
     7
370
    35
100
AcDbVertex
100
AcDb2dVertex
 10
262.6748982019767
 20
325.0931150000001
 30
0.0
  0
SEQEND
  5
12A
330
127
100
AcDbEntity
  8
9
  6
Continuous
 62
     7
370
    35
  0
ARC
  5
12B
330
1F
100
AcDbEntity
  8
9
  6
Continuous
 62
     7
370
    35
100
AcDbCircle
 10
265.6748982019808
 20
325.0931149999971
 30
0.0
 40
3.000000000003922
100
AcDbArc
 50
89.99999999999991
 51
179.9999999999414
  0
LINE
  5
12C
330
1F
100
AcDbEntity
  8
9
  6
Continuous
 62
     7
370
    35
100
AcDbLine
 10
262.6748982019767
 20
264.0931150000001
 30
0.0
 11
243.6748982019769
 21
264.0931150000001
 31
0.0
  0
LINE
  5
12D
330
1F
100
AcDbEntity
  8
9
  6
Continuous
 62
     7
370
    35
100
AcDbLine
 10
238.6748982019769
 20
259.0931150000001
 30
0.0
 11
238.6748982019769
 21
199.0931150000001
 31
0.0
  0
LINE
  5
12E
330
1F
100
AcDbEntity
  8
9
  6
Continuous
 62
     7
370
    35
100
AcDbLine
 10
243.6748982019769
 20
194.0931150000001
 30
0.0
 11
262.6748982019767
 21
194.0931150000001
 31
0.0
  0
POLYLINE
  5
12F
330
1F
100
AcDbEntity
  8
9
  6
Continuous
 62
     7
370
    35
100
AcDb2dPolyline
 66
     1
 10
0.0
 20
0.0
 30
0.0
  0
VERTEX
  5
130
330
12F
100
AcDbEntity
  8
9
  6
Continuous
 62
     7
370
    35
100
AcDbVertex
100
AcDb2dVertex
 10
262.6748982019767
 20
254.0931150000001
 30
0.0
  0
VERTEX
  5
131
330
12F
100
AcDbEntity
  8
9
  6
Continuous
 62
     7
370
    35
100
AcDbVertex
100
AcDb2dVertex
 10
251.1748982019767
 20
254.093115
 30
0.0
  0
SEQEND
  5
132
330
12F
100
AcDbEntity
  8
9
  6
Continuous
 62
     7
370
    35
  0
ARC
  5
133
330
1F
100
AcDbEntity
  8
9
  6
Continuous
 62
     7
370
    35
100
AcDbCircle
 10
251.1748982019794
 20
251.5931149999985
 30
0.0
 40
2.500000000001421
100
AcDbArc
 50
89.99999999999991
 51
179.9999999999661
  0
POLYLINE
  5
134
330
1F
100
AcDbEntity
  8
9
  6
Continuous
 62
     7
370
    35
100
AcDb2dPolyline
 66
     1
 10
0.0
 20
0.0
 30
0.0
  0
VERTEX
  5
135
330
134
100
AcDbEntity
  8
9
  6
Continuous
 62
     7
370
    35
100
AcDbVertex
100
AcDb2dVertex
 10
248.6748982019769
 20
251.593115
 30
0.0
  0
VERTEX
  5
136
330
134
100
AcDbEntity
  8
9
  6
Continuous
 62
     7
370
    35
100
AcDbVertex
100
AcDb2dVertex
 10
248.6748982019769
 20
206.5931150000001
 30
0.0
  0
SEQEND
  5
137
330
134
100
AcDbEntity
  8
9
  6
Continuous
 62
     7
370
    35
  0
ARC
  5
138
330
1F
100
AcDbEntity
  8
9
  6
Continuous
 62
     7
370
    35
100
AcDbCircle
 10
251.1748982019726
 20
206.5931149999997
 30
0.0
 40
2.49999999999568
100
AcDbArc
 50
179.9999999999896
 51
269.9999999999998
  0
POLYLINE
  5
139
330
1F
100
AcDbEntity
  8
9
  6
Continuous
 62
     7
370
    35
100
AcDb2dPolyline
 66
     1
 10
0.0
 20
0.0
 30
0.0
  0
VERTEX
  5
13A
330
139
100
AcDbEntity
  8
9
  6
Continuous
 62
     7
370
    35
100
AcDbVertex
100
AcDb2dVertex
 10
251.1748982019767
 20
204.0931150000001
 30
0.0
  0
VERTEX
  5
13B
330
139
100
AcDbEntity
  8
9
  6
Continuous
 62
     7
370
    35
100
AcDbVertex
100
AcDb2dVertex
 10
262.6748982019767
 20
204.0931150000001
 30
0.0
  0
SEQEND
  5
13C
330
139
100
AcDbEntity
  8
9
  6
Continuous
 62
     7
370
    35
  0
ARC
  5
13D
330
1F
100
AcDbEntity
  8
9
  6
Continuous
 62
     7
370
    35
100
AcDbCircle
 10
243.6748982019769
 20
199.0931150000001
 30
0.0
 40
5.0
100
AcDbArc
 50
179.9999999999998
 51
269.9999999999998
  0
ARC
  5
13E
330
1F
100
AcDbEntity
  8
9
  6
Continuous
 62
     7
370
    35
100
AcDbCircle
 10
243.6748982019769
 20
259.0931150000001
 30
0.0
 40
5.0
100
AcDbArc
 50
89.99999999999991
 51
179.9999999999998
  0
ARC
  5
13F
330
1F
100
AcDbEntity
  8
2
  6
HIDDEN
 62
     2
370
    25
100
AcDbCircle
 10
282.1748982019762
 20
345.5692350510192
 30
0.0
 40
12.0714224489815
100
AcDbArc
 50
45.23970107866392
 51
134.7602989213323
  0
ARC
  5
140
330
1F
100
AcDbEntity
  8
2
  6
HIDDEN
 62
     2
370
    25
100
AcDbCircle
 10
299.1748982019781
 20
362.7120749489775
 30
0.0
 40
12.0714224489804
100
AcDbArc
 50
225.2397010786499
 51
314.7602989213387
  0
ARC
  5
141
330
1F
100
AcDbEntity
  8
2
  6
HIDDEN
 62
     2
370
    25
100
AcDbCircle
 10
299.1748982019772
 20
345.5692350510192
 30
0.0
 40
12.07142244898182
100
AcDbArc
 50
45.23970107866774
 51
134.7602989213345
  0
ARC
  5
142
330
1F
100
AcDbEntity
  8
2
  6
HIDDEN
 62
     2
370
    25
100
AcDbCircle
 10
282.1748982019772
 20
111.9280289489786
 30
0.0
 40
12.07142244898077
100
AcDbArc
 50
225.2397010786574
 51
314.7602989213388
  0
ARC
  5
143
330
1F
100
AcDbEntity
  8
2
  6
HIDDEN
 62
     2
370
    25
100
AcDbCircle
 10
299.1748982019772
 20
94.785189051021
 30
0.0
 40
12.07142244898096
100
AcDbArc
 50
45.23970107866164
 51
134.7602989213414
  0
ARC
  5
144
330
1F
100
AcDbEntity
  8
2
  6
HIDDEN
 62
     2
370
    25
100
AcDbCircle
 10
299.1748982019758
 20
111.9280289489786
 30
0.0
 40
12.07142244898117
100
AcDbArc
 50
225.2397010786621
 51
314.7602989213433
  0
LINE
  5
145
330
1F
100
AcDbEntity
  8
9
  6
Continuous
 62
     7
370
    35
100
AcDbLine
 10
37.6392912498784
 20
430.818074
 30
0.0
 11
57.6392912498784
 21
430.818074
 31
0.0
  0
POLYLINE
  5
146
330
1F
100
AcDbEntity
  8
9
  6
Continuous
 62
     7
370
    35
100
AcDb2dPolyline
 66
     1
 10
0.0
 20
0.0
 30
0.0
  0
VERTEX
  5
147
330
146
100
AcDbEntity
  8
9
  6
Continuous
 62
     7
370
    35
100
AcDbVertex
100
AcDb2dVertex
 10
40.6392912498784
 20
458.818074
 30
0.0
  0
VERTEX
  5
148
330
146
100
AcDbEntity
  8
9
  6
Continuous
 62
     7
370
    35
100
AcDbVertex
100
AcDb2dVertex
 10
188.6392912498784
 20
458.818074
 30
0.0
  0
SEQEND
  5
149
330
146
100
AcDbEntity
  8
9
  6
Continuous
 62
     7
370
    35
  0
ARC
  5
14A
330
1F
100
AcDbEntity
  8
9
  6
Continuous
 62
     7
370
    35
100
AcDbCircle
 10
188.6392912498875
 20
455.8180740000109
 30
0.0
 40
2.9999999999892
100
AcDbArc
 50
359.9999999997912
 51
89.99999999999991
  0
POLYLINE
  5
14B
330
1F
100
AcDbEntity
  8
9
  6
Continuous
 62
     7
370
    35
100
AcDb2dPolyline
 66
     1
 10
0.0
 20
0.0
 30
0.0
  0
VERTEX
  5
14C
330
14B
100
AcDbEntity
  8
9
  6
Continuous
 62
     7
370
    35
100
AcDbVertex
100
AcDb2dVertex
 10
191.6392912498784
 20
455.818074
 30
0.0
  0
VERTEX
  5
14D
330
14B
100
AcDbEntity
  8
9
  6
Continuous
 62
     7
370
    35
100
AcDbVertex
100
AcDb2dVertex
 10
191.6392912498784
 20
405.818074
 30
0.0
  0
SEQEND
  5
14E
330
14B
100
AcDbEntity
  8
9
  6
Continuous
 62
     7
370
    35
  0
ARC
  5
14F
330
1F
100
AcDbEntity
  8
9
  6
Continuous
 62
     7
370
    35
100
AcDbCircle
 10
188.6392912498727
 20
405.8180740000051
 30
0.0
 40
3.000000000005656
100
AcDbArc
 50
269.9999999999998
 51
359.9999999999019
  0
POLYLINE
  5
150
330
1F
100
AcDbEntity
  8
9
  6
Continuous
 62
     7
370
    35
100
AcDb2dPolyline
 66
     1
 10
0.0
 20
0.0
 30
0.0
  0
VERTEX
  5
151
330
150
100
AcDbEntity
  8
9
  6
Continuous
 62
     7
370
    35
100
AcDbVertex
100
AcDb2dVertex
 10
188.6392912498784
 20
402.818074
 30
0.0
  0
VERTEX
  5
152
330
150
100
AcDbEntity
  8
9
  6
Continuous
 62
     7
370
    35
100
AcDbVertex
100
AcDb2dVertex
 10
40.6392912498784
 20
402.818074
 30
0.0
  0
SEQEND
  5
153
330
150
100
AcDbEntity
  8
9
  6
Continuous
 62
     7
370
    35
  0
ARC
  5
154
330
1F
100
AcDbEntity
  8
9
  6
Continuous
 62
     7
370
    35
100
AcDbCircle
 10
40.63929124987908
 20
405.8180740000024
 30
0.0
 40
3.000000000002387
100
AcDbArc
 50
180.0000000000452
 51
269.9999999999998
  0
POLYLINE
  5
155
330
1F
100
AcDbEntity
  8
9
  6
Continuous
 62
     7
370
    35
100
AcDb2dPolyline
 66
     1
 10
0.0
 20
0.0
 30
0.0
  0
VERTEX
  5
156
330
155
100
AcDbEntity
  8
9
  6
Continuous
 62
     7
370
    35
100
AcDbVertex
100
AcDb2dVertex
 10
37.6392912498784
 20
405.818074
 30
0.0
  0
VERTEX
  5
157
330
155
100
AcDbEntity
  8
9
  6
Continuous
 62
     7
370
    35
100
AcDbVertex
100
AcDb2dVertex
 10
37.6392912498784
 20
455.818074
 30
0.0
  0
SEQEND
  5
158
330
155
100
AcDbEntity
  8
9
  6
Continuous
 62
     7
370
    35
  0
ARC
  5
159
330
1F
100
AcDbEntity
  8
9
  6
Continuous
 62
     7
370
    35
100
AcDbCircle
 10
40.6392912498759
 20
455.8180740000018
 30
0.0
 40
2.999999999997492
100
AcDbArc
 50
89.99999999999991
 51
180.0000000000344
  0
CIRCLE
  5
15A
330
1F
100
AcDbEntity
  8
9
  6
Continuous
 62
     7
370
    35
100
AcDbCircle
 10
75.6392912498784
 20
430.818074
 30
0.0
 40
18.0
  0
LINE
  5
15B
330
1F
100
AcDbEntity
  8
9
  6
Continuous
 62
     7
370
    35
100
AcDbLine
 10
93.6392912498784
 20
447.818074
 30
0.0
 11
93.6392912498784
 21
430.818074
 31
0.0
  0
ARC
  5
15C
330
1F
100
AcDbEntity
  8
9
  6
Continuous
 62
     7
370
    35
100
AcDbCircle
 10
91.13929124992683
 20
440.5089706315277
 30
0.0
 40
0.4999999999564461
100
AcDbArc
 50
267.2878392782109
 51
0.000000005263131
  0
POLYLINE
  5
15D
330
1F
100
AcDbEntity
  8
9
  6
Continuous
 62
     7
370
    35
100
AcDb2dPolyline
 66
     1
 10
0.0
 20
0.0
 30
0.0
  0
VERTEX
  5
15E
330
15D
100
AcDbEntity
  8
9
  6
Continuous
 62
     7
370
    35
100
AcDbVertex
100
AcDb2dVertex
 10
91.6392912498784
 20
440.5089706315737
 30
0.0
  0
VERTEX
  5
15F
330
15D
100
AcDbEntity
  8
9
  6
Continuous
 62
     7
370
    35
100
AcDbVertex
100
AcDb2dVertex
 10
91.6392912498784
 20
447.818074
 30
0.0
  0
VERTEX
  5
160
330
15D
100
AcDbEntity
  8
9
  6
Continuous
 62
     7
370
    35
100
AcDbVertex
100
AcDb2dVertex
 10
191.6392912498784
 20
447.818074
 30
0.0
  0
SEQEND
  5
161
330
15D
100
AcDbEntity
  8
9
  6
Continuous
 62
     7
370
    35
  0
POLYLINE
  5
162
330
1F
100
AcDbEntity
  8
9
  6
Continuous
 62
     7
370
    35
100
AcDb2dPolyline
 66
     1
 10
0.0
 20
0.0
 30
0.0
  0
VERTEX
  5
163
330
162
100
AcDbEntity
  8
9
  6
Continuous
 62
     7
370
    35
100
AcDbVertex
100
AcDb2dVertex
 10
175.6392912498784
 20
402.818074
 30
0.0
  0
VERTEX
  5
164
330
162
100
AcDbEntity
  8
9
  6
Continuous
 62
     7
370
    35
100
AcDbVertex
100
AcDb2dVertex
 10
175.6392912498784
 20
382.818074
 30
0.0
  0
SEQEND
  5
165
330
162
100
AcDbEntity
  8
9
  6
Continuous
 62
     7
370
    35
  0
ARC
  5
166
330
1F
100
AcDbEntity
  8
9
  6
Continuous
 62
     7
370
    35
100
AcDbCircle
 10
179.6392912498825
 20
382.8180740000034
 30
0.0
 40
4.000000000004064
100
AcDbArc
 50
180.0000000000485
 51
269.9999999999998
  0
POLYLINE
  5
167
330
1F
100
AcDbEntity
  8
9
  6
Continuous
 62
     7
370
    35
100
AcDb2dPolyline
 66
     1
 10
0.0
 20
0.0
 30
0.0
  0
VERTEX
  5
168
330
167
100
AcDbEntity
  8
9
  6
Continuous
 62
     7
370
    35
100
AcDbVertex
100
AcDb2dVertex
 10
179.6392912498784
 20
378.818074
 30
0.0
  0
VERTEX
  5
169
330
167
100
AcDbEntity
  8
9
  6
Continuous
 62
     7
370
    35
100
AcDbVertex
100
AcDb2dVertex
 10
183.6392912498784
 20
378.818074
 30
0.0
  0
SEQEND
  5
16A
330
167
100
AcDbEntity
  8
9
  6
Continuous
 62
     7
370
    35
  0
ARC
  5
16B
330
1F
100
AcDbEntity
  8
9
  6
Continuous
 62
     7
370
    35
100
AcDbCircle
 10
183.6392912498784
 20
382.8180740000005
 30
0.0
 40
4.000000000000455
100
AcDbArc
 50
269.9999999999998
 51
359.9999999999931
  0
POLYLINE
  5
16C
330
1F
100
AcDbEntity
  8
9
  6
Continuous
 62
     7
370
    35
100
AcDb2dPolyline
 66
     1
 10
0.0
 20
0.0
 30
0.0
  0
VERTEX
  5
16D
330
16C
100
AcDbEntity
  8
9
  6
Continuous
 62
     7
370
    35
100
AcDbVertex
100
AcDb2dVertex
 10
187.6392912498784
 20
382.818074
 30
0.0
  0
VERTEX
  5
16E
330
16C
100
AcDbEntity
  8
9
  6
Continuous
 62
     7
370
    35
100
AcDbVertex
100
AcDb2dVertex
 10
187.6392912498784
 20
402.818074
 30
0.0
  0
SEQEND
  5
16F
330
16C
100
AcDbEntity
  8
9
  6
Continuous
 62
     7
370
    35
  0
LINE
  5
170
330
1F
100
AcDbEntity
  8
9
  6
Continuous
 62
     7
370
    35
100
AcDbLine
 10
163.1392912498784
 20
402.818074
 30
0.0
 11
163.1392912498784
 21
402.318074
 31
0.0
  0
LINE
  5
171
330
1F
100
AcDbEntity
  8
9
  6
Continuous
 62
     7
370
    35
100
AcDbLine
 10
163.1392912498784
 20
402.318074
 30
0.0
 11
66.1392912498784
 21
402.318074
 31
0.0
  0
LINE
  5
172
330
1F
100
AcDbEntity
  8
9
  6
Continuous
 62
     7
370
    35
100
AcDbLine
 10
66.1392912498784
 20
402.318074
 30
0.0
 11
66.1392912498784
 21
402.818074
 31
0.0
  0
ARC
  5
173
330
1F
100
AcDbEntity
  8
9
  6
Continuous
 62
     7
370
    35
100
AcDbCircle
 10
69.6892912498788
 20
402.4572553233711
 30
0.0
 40
1.800000000000011
100
AcDbArc
 50
184.4347056949076
 51
230.7033501036643
  0
ARC
  5
174
330
1F
100
AcDbEntity
  8
9
  6
Continuous
 62
     7
370
    35
100
AcDbCircle
 10
71.58929124987867
 20
402.4572553233711
 30
0.0
 40
1.800000000000011
100
AcDbArc
 50
309.2964802390696
 51
355.5652943050916
  0
ARC
  5
175
330
1F
100
AcDbEntity
  8
9
  6
Continuous
 62
     7
370
    35
100
AcDbCircle
 10
70.63929124987862
 20
403.6180740000001
 30
0.0
 40
3.300000000000011
100
AcDbArc
 50
230.7034272206028
 51
309.2964802390768
  0
ARC
  5
176
330
1F
100
AcDbEntity
  8
9
  6
Continuous
 62
     7
370
    35
100
AcDbCircle
 10
157.6892912498788
 20
402.4572553233711
 30
0.0
 40
1.800000000000011
100
AcDbArc
 50
184.4347056949076
 51
230.7033501036643
  0
ARC
  5
177
330
1F
100
AcDbEntity
  8
9
  6
Continuous
 62
     7
370
    35
100
AcDbCircle
 10
159.5892912498789
 20
402.4572553233711
 30
0.0
 40
1.800000000000011
100
AcDbArc
 50
309.2964802390696
 51
355.5652943050916
  0
ARC
  5
178
330
1F
100
AcDbEntity
  8
9
  6
Continuous
 62
     7
370
    35
100
AcDbCircle
 10
158.6392912498789
 20
403.6180740000001
 30
0.0
 40
3.300000000000011
100
AcDbArc
 50
230.7034272205997
 51
309.2964802390737
  0
LINE
  5
179
330
1F
100
AcDbEntity
  8
4
  6
PHANTOM
 62
     2
370
    25
100
AcDbLine
 10
273.6748982019767
 20
130.0931150000001
 30
0.0
 11
273.6748982019767
 21
103.3566089999999
 31
0.0
  0
LINE
  5
17A
330
1F
100
AcDbEntity
  8
4
  6
PHANTOM
 62
     2
370
    25
100
AcDbLine
 10
273.6748982019767
 20
328.0931150000001
 30
0.0
 11
273.6748982019767
 21
354.1406549999999
 31
0.0
  0
LINE
  5
17B
330
1F
100
AcDbEntity
  8
9
  6
Continuous
 62
     7
370
    35
100
AcDbLine
 10
294.9071312490105
 20
218.8608819529666
 30
0.0
 11
298.4426651549434
 21
215.3253480470338
 31
0.0
  0
CIRCLE
  5
17C
330
1F
100
AcDbEntity
  8
9
  6
Continuous
 62
     7
370
    35
100
AcDbCircle
 10
296.6748982019767
 20
217.0931150000001
 30
0.0
 40
2.5
  0
CIRCLE
  5
17D
330
1F
100
AcDbEntity
  8
9
  6
Continuous
 62
     7
370
    35
100
AcDbCircle
 10
296.6748982019767
 20
241.0931150000001
 30
0.0
 40
2.5
  0
CIRCLE
  5
17E
330
1F
100
AcDbEntity
  8
9
  6
Continuous
 62
     7
370
    35
100
AcDbCircle
 10
296.6748982019767
 20
217.0931150000001
 30
0.0
 40
4.0
  0
CIRCLE
  5
17F
330
1F
100
AcDbEntity
  8
9
  6
Continuous
 62
     7
370
    35
100
AcDbCircle
 10
296.6748982019767
 20
241.0931150000001
 30
0.0
 40
4.0
  0
LINE
  5
180
330
1F
100
AcDbEntity
  8
9
  6
Continuous
 62
     7
370
    35
100
AcDbLine
 10
294.9071312490105
 20
215.3253480470338
 30
0.0
 11
298.4426651549434
 21
218.8608819529666
 31
0.0
  0
LINE
  5
181
330
1F
100
AcDbEntity
  8
9
  6
Continuous
 62
     7
370
    35
100
AcDbLine
 10
294.9071312490105
 20
239.3253480470337
 30
0.0
 11
298.4426651549434
 21
242.8608819529666
 31
0.0
  0
LINE
  5
182
330
1F
100
AcDbEntity
  8
9
  6
Continuous
 62
     7
370
    35
100
AcDbLine
 10
294.9071312490105
 20
242.8608819529666
 30
0.0
 11
298.4426651549434
 21
239.3253480470337
 31
0.0
  0
LINE
  5
183
330
1F
100
AcDbEntity
  8
9
  6
Continuous
 62
     7
370
    35
100
AcDbLine
 10
262.1748982019767
 20
277.5931150000001
 30
0.0
 11
262.6748982019767
 21
277.5931150000001
 31
0.0
  0
LINE
  5
184
330
1F
100
AcDbEntity
  8
9
  6
Continuous
 62
     7
370
    35
100
AcDbLine
 10
262.1748982019767
 20
180.5931150000001
 30
0.0
 11
262.6748982019767
 21
180.5931150000001
 31
0.0
  0
LINE
  5
185
330
1F
100
AcDbEntity
  8
9
  6
Continuous
 62
     7
370
    35
100
AcDbLine
 10
262.1748982019767
 20
277.5931150000001
 30
0.0
 11
262.1748982019767
 21
264.0931150000001
 31
0.0
  0
LINE
  5
186
330
1F
100
AcDbEntity
  8
9
  6
Continuous
 62
     7
370
    35
100
AcDbLine
 10
262.1748982019767
 20
194.0931150000001
 30
0.0
 11
262.1748982019767
 21
180.5931150000001
 31
0.0
  0
ARC
  5
187
330
1F
100
AcDbEntity
  8
9
  6
Continuous
 62
     7
370
    35
100
AcDbCircle
 10
262.314079525348
 20
274.5431149999998
 30
0.0
 40
1.800000000000011
100
AcDbArc
 50
94.4347056949113
 51
140.7033501036647
  0
ARC
  5
188
330
1F
100
AcDbEntity
  8
9
  6
Continuous
 62
     7
370
    35
100
AcDbCircle
 10
262.314079525348
 20
272.643115
 30
0.0
 40
1.800000000000011
100
AcDbArc
 50
219.2964802390678
 51
265.5652943050883
  0
ARC
  5
189
330
1F
100
AcDbEntity
  8
9
  6
Continuous
 62
     7
370
    35
100
AcDbCircle
 10
263.4748982019769
 20
273.5931149999999
 30
0.0
 40
3.300000000000011
100
AcDbArc
 50
140.7034272205988
 51
219.2964802390738
  0
ARC
  5
18A
330
1F
100
AcDbEntity
  8
9
  6
Continuous
 62
     7
370
    35
100
AcDbCircle
 10
262.314079525348
 20
186.5431149999996
 30
0.0
 40
1.800000000000011
100
AcDbArc
 50
94.4347056949113
 51
140.7033501036647
  0
ARC
  5
18B
330
1F
100
AcDbEntity
  8
9
  6
Continuous
 62
     7
370
    35
100
AcDbCircle
 10
262.314079525348
 20
184.6431149999997
 30
0.0
 40
1.800000000000011
100
AcDbArc
 50
219.2964802390678
 51
265.5652943050883
  0
ARC
  5
18C
330
1F
100
AcDbEntity
  8
9
  6
Continuous
 62
     7
370
    35
100
AcDbCircle
 10
263.4748982019769
 20
185.5931149999997
 30
0.0
 40
3.300000000000011
100
AcDbArc
 50
140.7034272205988
 51
219.2964802390738
  0
LINE
  5
18D
330
1F
100
AcDbEntity
  8
4
  6
PHANTOM
 62
     2
370
    25
100
AcDbLine
 10
92.6392912498784
 20
130.0931150000001
 30
0.0
 11
92.6392912498784
 21
103.3566090604133
 31
0.0
  0
LINE
  5
18E
330
1F
100
AcDbEntity
  8
4
  6
PHANTOM
 62
     2
370
    25
100
AcDbLine
 10
58.6392912498784
 20
130.0931150000001
 30
0.0
 11
58.6392912498784
 21
103.3566090604131
 31
0.0
  0
LINE
  5
18F
330
1F
100
AcDbEntity
  8
4
  6
PHANTOM
 62
     2
370
    25
100
AcDbLine
 10
58.6392912498784
 20
328.0931150000001
 30
0.0
 11
58.6392912498784
 21
354.1406555486303
 31
0.0
  0
LINE
  5
190
330
1F
100
AcDbEntity
  8
4
  6
PHANTOM
 62
     2
370
    25
100
AcDbLine
 10
92.6392912498784
 20
328.0931150000001
 30
0.0
 11
92.6392912498784
 21
354.1406555486301
 31
0.0
  0
POLYLINE
  5
191
330
1F
100
AcDbEntity
  8
9
  6
Continuous
 62
     7
370
    35
100
AcDb2dPolyline
 66
     1
 10
0.0
 20
0.0
 30
0.0
  0
VERTEX
  5
192
330
191
100
AcDbEntity
  8
9
  6
Continuous
 62
     7
370
    35
100
AcDbVertex
100
AcDb2dVertex
 10
66.1392912498784
 20
277.5931150000001
 30
0.0
  0
VERTEX
  5
193
330
191
100
AcDbEntity
  8
9
  6
Continuous
 62
     7
370
    35
100
AcDbVertex
100
AcDb2dVertex
 10
66.1392912498784
 20
181.6662770271237
 30
0.0
  0
VERTEX
  5
194
330
191
100
AcDbEntity
  8
9
  6
Continuous
 62
     7
370
    35
100
AcDbVertex
100
AcDb2dVertex
 10
163.1392912498782
 20
181.6662770271237
 30
0.0
  0
VERTEX
  5
195
330
191
100
AcDbEntity
  8
9
  6
Continuous
 62
     7
370
    35
100
AcDbVertex
100
AcDb2dVertex
 10
163.1392912498782
 20
277.5931150000001
 30
0.0
  0
VERTEX
  5
196
330
191
100
AcDbEntity
  8
9
  6
Continuous
 62
     7
370
    35
100
AcDbVertex
100
AcDb2dVertex
 10
66.1392912498784
 20
277.5931150000001
 30
0.0
  0
SEQEND
  5
197
330
191
100
AcDbEntity
  8
9
  6
Continuous
 62
     7
370
    35
  0
LINE
  5
198
330
1F
100
AcDbEntity
  8
9
  6
Continuous
 62
     7
370
    35
100
AcDbLine
 10
158.6392912498782
 20
190.6662770271234
 30
0.0
 11
158.6392912498782
 21
268.5931150000001
 31
0.0
  0
LINE
  5
199
330
1F
100
AcDbEntity
  8
9
  6
Continuous
 62
     7
370
    35
100
AcDbLine
 10
70.63929124987817
 20
190.5931150000001
 30
0.0
 11
70.63929124987817
 21
268.5931150000001
 31
0.0
  0
LINE
  5
19A
330
1F
100
AcDbEntity
  8
9
  6
Continuous
 62
     7
370
    35
100
AcDbLine
 10
153.6398265467537
 20
185.5931150000001
 30
0.0
 11
75.63929124987817
 21
185.5931150000001
 31
0.0
  0
LINE
  5
19B
330
1F
100
AcDbEntity
  8
9
  6
Continuous
 62
     7
370
    35
100
AcDbLine
 10
153.6392912498782
 20
273.5931150000001
 30
0.0
 11
75.63929124987817
 21
273.5931150000001
 31
0.0
  0
ARC
  5
19C
330
1F
100
AcDbEntity
  8
9
  6
Continuous
 62
     7
370
    35
100
AcDbCircle
 10
70.63929124987817
 20
273.5931150000001
 30
0.0
 40
4.999999999999972
100
AcDbArc
 50
269.9999999999998
 51
0.0
  0
ARC
  5
19D
330
1F
100
AcDbEntity
  8
9
  6
Continuous
 62
     7
370
    35
100
AcDbCircle
 10
158.6392912498782
 20
273.5931150000001
 30
0.0
 40
4.999999999999972
100
AcDbArc
 50
179.9999999999998
 51
269.9999999999998
  0
ARC
  5
19E
330
1F
100
AcDbEntity
  8
9
  6
Continuous
 62
     7
370
    35
100
AcDbCircle
 10
70.63929124987817
 20
185.5931150000001
 30
0.0
 40
4.999999999999972
100
AcDbArc
 50
0.0
 51
89.99999999999991
  0
ARC
  5
19F
330
1F
100
AcDbEntity
  8
9
  6
Continuous
 62
     7
370
    35
100
AcDbCircle
 10
158.6392912498782
 20
185.6662770271236
 30
0.0
 40
4.999999999999972
100
AcDbArc
 50
89.99999999999991
 51
180.838404994877
  0
CIRCLE
  5
1A0
330
1F
100
AcDbEntity
  8
9
  6
Continuous
 62
     7
370
    35
100
AcDbCircle
 10
158.6392912498782
 20
273.5931150000001
 30
0.0
 40
2.744610977126968
  0
CIRCLE
  5
1A1
330
1F
100
AcDbEntity
  8
9
  6
Continuous
 62
     7
370
    35
100
AcDbCircle
 10
158.6392912498782
 20
185.5931150000001
 30
0.0
 40
2.744610977126968
  0
CIRCLE
  5
1A2
330
1F
100
AcDbEntity
  8
9
  6
Continuous
 62
     7
370
    35
100
AcDbCircle
 10
70.63929124987817
 20
185.5931150000001
 30
0.0
 40
2.744610977126968
  0
CIRCLE
  5
1A3
330
1F
100
AcDbEntity
  8
9
  6
Continuous
 62
     7
370
    35
100
AcDbCircle
 10
70.63929124987817
 20
273.5931150000001
 30
0.0
 40
2.744610977126968
  0
POLYLINE
  5
1A4
330
1F
100
AcDbEntity
  8
12
  6
Continuous
 62
     5
370
    53
100
AcDb2dPolyline
 66
     1
 10
0.0
 20
0.0
 30
0.0
  0
VERTEX
  5
1A5
330
1A4
100
AcDbEntity
  8
12
  6
Continuous
 62
     5
370
    53
100
AcDbVertex
100
AcDb2dVertex
 10
723.9999980000002
 20
0.0
 30
0.0
  0
VERTEX
  5
1A6
330
1A4
100
AcDbEntity
  8
12
  6
Continuous
 62
     5
370
    53
100
AcDbVertex
100
AcDb2dVertex
 10
361.9999990000001
 20
0.0
 30
0.0
  0
VERTEX
  5
1A7
330
1A4
100
AcDbEntity
  8
12
  6
Continuous
 62
     5
370
    53
100
AcDbVertex
100
AcDb2dVertex
 10
361.9999990000001
 20
546.0000000000001
 30
0.0
  0
VERTEX
  5
1A8
330
1A4
100
AcDbEntity
  8
12
  6
Continuous
 62
     5
370
    53
100
AcDbVertex
100
AcDb2dVertex
 10
723.9999980000002
 20
546.0000000000001
 30
0.0
  0
VERTEX
  5
1A9
330
1A4
100
AcDbEntity
  8
12
  6
Continuous
 62
     5
370
    53
100
AcDbVertex
100
AcDb2dVertex
 10
723.9999980000002
 20
0.0
 30
0.0
  0
SEQEND
  5
1AA
330
1A4
100
AcDbEntity
  8
12
  6
Continuous
 62
     5
370
    53
  0
POLYLINE
  5
1AB
330
1F
100
AcDbEntity
  8
9
  6
Continuous
 62
     7
370
    35
100
AcDb2dPolyline
 66
     1
 10
0.0
 20
0.0
 30
0.0
  0
VERTEX
  5
1AC
330
1AB
100
AcDbEntity
  8
9
  6
Continuous
 62
     7
370
    35
100
AcDbVertex
100
AcDb2dVertex
 10
402.6392902498785
 20
328.0931150000002
 30
0.0
  0
VERTEX
  5
1AD
330
1AB
100
AcDbEntity
  8
9
  6
Continuous
 62
     7
370
    35
100
AcDbVertex
100
AcDb2dVertex
 10
550.6392902498785
 20
328.0931150000002
 30
0.0
  0
SEQEND
  5
1AE
330
1AB
100
AcDbEntity
  8
9
  6
Continuous
 62
     7
370
    35
  0
ARC
  5
1AF
330
1F
100
AcDbEntity
  8
9
  6
Continuous
 62
     7
370
    35
100
AcDbCircle
 10
550.6392902498822
 20
325.093115000003
 30
0.0
 40
2.99999999999693
100
AcDbArc
 50
359.9999999999475
 51
89.99999999999991
  0
POLYLINE
  5
1B0
330
1F
100
AcDbEntity
  8
9
  6
Continuous
 62
     7
370
    35
100
AcDb2dPolyline
 66
     1
 10
0.0
 20
0.0
 30
0.0
  0
VERTEX
  5
1B1
330
1B0
100
AcDbEntity
  8
9
  6
Continuous
 62
     7
370
    35
100
AcDbVertex
100
AcDb2dVertex
 10
553.6392902498785
 20
325.0931150000002
 30
0.0
  0
VERTEX
  5
1B2
330
1B0
100
AcDbEntity
  8
9
  6
Continuous
 62
     7
370
    35
100
AcDbVertex
100
AcDb2dVertex
 10
553.6392902498785
 20
133.0931150000001
 30
0.0
  0
SEQEND
  5
1B3
330
1B0
100
AcDbEntity
  8
9
  6
Continuous
 62
     7
370
    35
  0
ARC
  5
1B4
330
1F
100
AcDbEntity
  8
9
  6
Continuous
 62
     7
370
    35
100
AcDbCircle
 10
550.6392902498769
 20
133.0931150000017
 30
0.0
 40
3.000000000001535
100
AcDbArc
 50
269.9999999999998
 51
359.9999999999692
  0
POLYLINE
  5
1B5
330
1F
100
AcDbEntity
  8
9
  6
Continuous
 62
     7
370
    35
100
AcDb2dPolyline
 66
     1
 10
0.0
 20
0.0
 30
0.0
  0
VERTEX
  5
1B6
330
1B5
100
AcDbEntity
  8
9
  6
Continuous
 62
     7
370
    35
100
AcDbVertex
100
AcDb2dVertex
 10
550.6392902498785
 20
130.0931150000001
 30
0.0
  0
VERTEX
  5
1B7
330
1B5
100
AcDbEntity
  8
9
  6
Continuous
 62
     7
370
    35
100
AcDbVertex
100
AcDb2dVertex
 10
402.6392902498785
 20
130.0931150000001
 30
0.0
  0
SEQEND
  5
1B8
330
1B5
100
AcDbEntity
  8
9
  6
Continuous
 62
     7
370
    35
  0
ARC
  5
1B9
330
1F
100
AcDbEntity
  8
9
  6
Continuous
 62
     7
370
    35
100
AcDbCircle
 10
402.6392902498792
 20
133.0931150000008
 30
0.0
 40
3.000000000000654
100
AcDbArc
 50
180.0000000000127
 51
269.9999999999998
  0
POLYLINE
  5
1BA
330
1F
100
AcDbEntity
  8
9
  6
Continuous
 62
     7
370
    35
100
AcDb2dPolyline
 66
     1
 10
0.0
 20
0.0
 30
0.0
  0
VERTEX
  5
1BB
330
1BA
100
AcDbEntity
  8
9
  6
Continuous
 62
     7
370
    35
100
AcDbVertex
100
AcDb2dVertex
 10
399.6392902498785
 20
133.0931150000001
 30
0.0
  0
VERTEX
  5
1BC
330
1BA
100
AcDbEntity
  8
9
  6
Continuous
 62
     7
370
    35
100
AcDbVertex
100
AcDb2dVertex
 10
399.6392902498785
 20
325.0931150000002
 30
0.0
  0
SEQEND
  5
1BD
330
1BA
100
AcDbEntity
  8
9
  6
Continuous
 62
     7
370
    35
  0
ARC
  5
1BE
330
1F
100
AcDbEntity
  8
9
  6
Continuous
 62
     7
370
    35
100
AcDbCircle
 10
402.639290249874
 20
325.0931150000043
 30
0.0
 40
2.999999999995417
100
AcDbArc
 50
89.99999999999991
 51
180.0000000000778
  0
POLYLINE
  5
1BF
330
1F
100
AcDbEntity
  8
9
  6
Continuous
 62
     7
370
    35
100
AcDb2dPolyline
 66
     1
 10
0.0
 20
0.0
 30
0.0
  0
VERTEX
  5
1C0
330
1BF
100
AcDbEntity
  8
9
  6
Continuous
 62
     7
370
    35
100
AcDbVertex
100
AcDb2dVertex
 10
549.6392902498785
 20
260.0931150000002
 30
0.0
  0
VERTEX
  5
1C1
330
1BF
100
AcDbEntity
  8
9
  6
Continuous
 62
     7
370
    35
100
AcDbVertex
100
AcDb2dVertex
 10
549.6392902498785
 20
198.0931150000001
 30
0.0
  0
SEQEND
  5
1C2
330
1BF
100
AcDbEntity
  8
9
  6
Continuous
 62
     7
370
    35
  0
ARC
  5
1C3
330
1F
100
AcDbEntity
  8
9
  6
Continuous
 62
     7
370
    35
100
AcDbCircle
 10
545.6392902498781
 20
198.0931149999998
 30
0.0
 40
4.000000000000455
100
AcDbArc
 50
269.9999999999998
 51
0.0000000000048853
  0
POLYLINE
  5
1C4
330
1F
100
AcDbEntity
  8
9
  6
Continuous
 62
     7
370
    35
100
AcDb2dPolyline
 66
     1
 10
0.0
 20
0.0
 30
0.0
  0
VERTEX
  5
1C5
330
1C4
100
AcDbEntity
  8
9
  6
Continuous
 62
     7
370
    35
100
AcDbVertex
100
AcDb2dVertex
 10
545.6392902498785
 20
194.0931150000001
 30
0.0
  0
VERTEX
  5
1C6
330
1C4
100
AcDbEntity
  8
9
  6
Continuous
 62
     7
370
    35
100
AcDbVertex
100
AcDb2dVertex
 10
541.6392902498785
 20
194.0931150000001
 30
0.0
  0
SEQEND
  5
1C7
330
1C4
100
AcDbEntity
  8
9
  6
Continuous
 62
     7
370
    35
  0
ARC
  5
1C8
330
1F
100
AcDbEntity
  8
9
  6
Continuous
 62
     7
370
    35
100
AcDbCircle
 10
541.6392902498801
 20
198.0931150000015
 30
0.0
 40
4.000000000001364
100
AcDbArc
 50
180.0000000000192
 51
269.9999999999998
  0
POLYLINE
  5
1C9
330
1F
100
AcDbEntity
  8
9
  6
Continuous
 62
     7
370
    35
100
AcDb2dPolyline
 66
     1
 10
0.0
 20
0.0
 30
0.0
  0
VERTEX
  5
1CA
330
1C9
100
AcDbEntity
  8
9
  6
Continuous
 62
     7
370
    35
100
AcDbVertex
100
AcDb2dVertex
 10
537.6392902498785
 20
198.0931150000001
 30
0.0
  0
VERTEX
  5
1CB
330
1C9
100
AcDbEntity
  8
9
  6
Continuous
 62
     7
370
    35
100
AcDbVertex
100
AcDb2dVertex
 10
537.6392902498785
 20
260.0931150000002
 30
0.0
  0
SEQEND
  5
1CC
330
1C9
100
AcDbEntity
  8
9
  6
Continuous
 62
     7
370
    35
  0
ARC
  5
1CD
330
1F
100
AcDbEntity
  8
9
  6
Continuous
 62
     7
370
    35
100
AcDbCircle
 10
541.6392902498799
 20
260.0931150000025
 30
0.0
 40
4.000000000001279
100
AcDbArc
 50
89.99999999999991
 51
180.0000000000322
  0
POLYLINE
  5
1CE
330
1F
100
AcDbEntity
  8
9
  6
Continuous
 62
     7
370
    35
100
AcDb2dPolyline
 66
     1
 10
0.0
 20
0.0
 30
0.0
  0
VERTEX
  5
1CF
330
1CE
100
AcDbEntity
  8
9
  6
Continuous
 62
     7
370
    35
100
AcDbVertex
100
AcDb2dVertex
 10
541.6392902498785
 20
264.0931150000002
 30
0.0
  0
VERTEX
  5
1D0
330
1CE
100
AcDbEntity
  8
9
  6
Continuous
 62
     7
370
    35
100
AcDbVertex
100
AcDb2dVertex
 10
545.6392902498785
 20
264.0931150000002
 30
0.0
  0
SEQEND
  5
1D1
330
1CE
100
AcDbEntity
  8
9
  6
Continuous
 62
     7
370
    35
  0
ARC
  5
1D2
330
1F
100
AcDbEntity
  8
9
  6
Continuous
 62
     7
370
    35
100
AcDbCircle
 10
545.6392902498758
 20
260.093114999998
 30
0.0
 40
4.000000000002046
100
AcDbArc
 50
0.0000000000325689
 51
89.99999999999991
  0
MTEXT
  5
1D3
330
1F
100
AcDbEntity
  8
4
  6
PHANTOM
 62
     2
370
     9
100
AcDbMText
 10
437.6392902498785
 20
212.2686323045219
 30
0.0
 40
2.859999999999994
 41
8.453387799999982
 71
     5
 72
     1
  1
{\fＭＳ Ｐゴシック;\W0.500000;SENJU}
 11
1.615544574432587E-15
 21
1.0
 31
0.0
 73
     1
 44
1.0
1001
ACAD
1000
ACAD_MTEXT_DEFINED_HEIGHT_BEGIN
1070
    46
1040
2.859999999999994
1000
ACAD_MTEXT_DEFINED_HEIGHT_END
  0
ARC
  5
1D4
330
1F
100
AcDbEntity
  8
4
  6
PHANTOM
 62
     2
370
    25
100
AcDbCircle
 10
421.5946227766597
 20
204.6435174294986
 30
0.0
 40
12.66120791410721
100
AcDbArc
 50
61.48320572767926
 51
85.67271988170991
  0
ARC
  5
1D5
330
1F
100
AcDbEntity
  8
4
  6
PHANTOM
 62
     2
370
    25
100
AcDbCircle
 10
437.6392902498787
 20
183.1852989711884
 30
0.0
 40
34.08333333333326
100
AcDbArc
 50
72.93846878010417
 51
107.0615312198968
  0
ARC
  5
1D6
330
1F
100
AcDbEntity
  8
4
  6
PHANTOM
 62
     2
370
    25
100
AcDbCircle
 10
453.6839577230969
 20
204.6435174295009
 30
0.0
 40
12.66120791410505
100
AcDbArc
 50
94.32728011828866
 51
118.5167942723238
  0
ARC
  5
1D7
330
1F
100
AcDbEntity
  8
4
  6
PHANTOM
 62
     2
370
    25
100
AcDbCircle
 10
453.6839577230965
 20
219.8937471795431
 30
0.0
 40
12.66120791410528
100
AcDbArc
 50
241.4832057276781
 51
265.672719881712
  0
ARC
  5
1D8
330
1F
100
AcDbEntity
  8
4
  6
PHANTOM
 62
     2
370
    25
100
AcDbCircle
 10
437.6392902498785
 20
241.3519656378559
 30
0.0
 40
34.08333333333405
100
AcDbArc
 50
252.9384687801033
 51
287.0615312198951
  0
ARC
  5
1D9
330
1F
100
AcDbEntity
  8
4
  6
PHANTOM
 62
     2
370
    25
100
AcDbCircle
 10
421.594622776659
 20
219.8937471795472
 30
0.0
 40
12.66120791410984
100
AcDbArc
 50
274.3272801182919
 51
298.5167942723182
  0
POLYLINE
  5
1DA
330
1F
100
AcDbEntity
  8
4
  6
PHANTOM
 62
     2
370
    25
100
AcDb2dPolyline
 66
     1
 10
0.0
 20
0.0
 30
0.0
  0
VERTEX
  5
1DB
330
1DA
100
AcDbEntity
  8
4
  6
PHANTOM
 62
     2
370
    25
100
AcDbVertex
100
AcDb2dVertex
 10
453.4888268674222
 20
217.2686323045219
 30
0.0
  0
VERTEX
  5
1DC
330
1DA
100
AcDbEntity
  8
4
  6
PHANTOM
 62
     2
370
    25
100
AcDbVertex
100
AcDb2dVertex
 10
457.6392902498785
 20
215.7686323045219
 30
0.0
  0
VERTEX
  5
1DD
330
1DA
100
AcDbEntity
  8
4
  6
PHANTOM
 62
     2
370
    25
100
AcDbVertex
100
AcDb2dVertex
 10
457.6392902498785
 20
208.7686323045218
 30
0.0
  0
VERTEX
  5
1DE
330
1DA
100
AcDbEntity
  8
4
  6
PHANTOM
 62
     2
370
    25
100
AcDbVertex
100
AcDb2dVertex
 10
453.4888268674222
 20
207.2686323045218
 30
0.0
  0
VERTEX
  5
1DF
330
1DA
100
AcDbEntity
  8
4
  6
PHANTOM
 62
     2
370
    25
100
AcDbVertex
100
AcDb2dVertex
 10
421.7897536323346
 20
207.2686323045218
 30
0.0
  0
VERTEX
  5
1E0
330
1DA
100
AcDbEntity
  8
4
  6
PHANTOM
 62
     2
370
    25
100
AcDbVertex
100
AcDb2dVertex
 10
417.6392902498785
 20
208.7686323045217
 30
0.0
  0
VERTEX
  5
1E1
330
1DA
100
AcDbEntity
  8
4
  6
PHANTOM
 62
     2
370
    25
100
AcDbVertex
100
AcDb2dVertex
 10
417.6392902498785
 20
215.7686323045217
 30
0.0
  0
VERTEX
  5
1E2
330
1DA
100
AcDbEntity
  8
4
  6
PHANTOM
 62
     2
370
    25
100
AcDbVertex
100
AcDb2dVertex
 10
421.7897536323349
 20
217.2686323045219
 30
0.0
  0
VERTEX
  5
1E3
330
1DA
100
AcDbEntity
  8
4
  6
PHANTOM
 62
     2
370
    25
100
AcDbVertex
100
AcDb2dVertex
 10
453.4888268674222
 20
217.2686323045219
 30
0.0
  0
SEQEND
  5
1E4
330
1DA
100
AcDbEntity
  8
4
  6
PHANTOM
 62
     2
370
    25
  0
ARC
  5
1E5
330
1F
100
AcDbEntity
  8
4
  6
PHANTOM
 62
     2
370
    25
100
AcDbCircle
 10
446.1392902498781
 20
345.569226977204
 30
0.0
 40
12.07142857142694
100
AcDbArc
 50
45.23972989607129
 51
134.7602701039256
  0
ARC
  5
1E6
330
1F
100
AcDbEntity
  8
4
  6
PHANTOM
 62
     2
370
    25
100
AcDbCircle
 10
446.1392902498785
 20
362.7120841200582
 30
0.0
 40
12.0714285714283
100
AcDbArc
 50
225.2397298960786
 51
314.7602701039207
  0
ARC
  5
1E7
330
1F
100
AcDbEntity
  8
4
  6
PHANTOM
 62
     2
370
    25
100
AcDbCircle
 10
429.1392902498785
 20
345.5692269772031
 30
0.0
 40
12.07142857142749
100
AcDbArc
 50
45.23972989607586
 51
134.7602701039241
  0
ARC
  5
1E8
330
1F
100
AcDbEntity
  8
4
  6
PHANTOM
 62
     2
370
    25
100
AcDbCircle
 10
446.1392902498785
 20
111.9280376318418
 30
0.0
 40
12.07142857142853
100
AcDbArc
 50
225.2397298960801
 51
314.7602701039192
  0
ARC
  5
1E9
330
1F
100
AcDbEntity
  8
4
  6
PHANTOM
 62
     2
370
    25
100
AcDbCircle
 10
446.1392902498785
 20
94.78518048898468
 30
0.0
 40
12.07142857142859
100
AcDbArc
 50
45.23972989608042
 51
134.7602701039188
  0
ARC
  5
1EA
330
1F
100
AcDbEntity
  8
4
  6
PHANTOM
 62
     2
370
    25
100
AcDbCircle
 10
429.1392902498787
 20
111.9280376318418
 30
0.0
 40
12.07142857142853
100
AcDbArc
 50
225.2397298960793
 51
314.7602701039177
  0
POLYLINE
  5
1EB
330
1F
100
AcDbEntity
  8
4
  6
PHANTOM
 62
     2
370
    25
100
AcDb2dPolyline
 66
     1
 10
0.0
 20
0.0
 30
0.0
  0
VERTEX
  5
1EC
330
1EB
100
AcDbEntity
  8
4
  6
PHANTOM
 62
     2
370
    25
100
AcDbVertex
100
AcDb2dVertex
 10
417.6392902498785
 20
197.7686323045218
 30
0.0
  0
VERTEX
  5
1ED
330
1EB
100
AcDbEntity
  8
4
  6
PHANTOM
 62
     2
370
    25
100
AcDbVertex
100
AcDb2dVertex
 10
457.6392902498785
 20
197.7686323045218
 30
0.0
  0
VERTEX
  5
1EE
330
1EB
100
AcDbEntity
  8
4
  6
PHANTOM
 62
     2
370
    25
100
AcDbVertex
100
AcDb2dVertex
 10
457.6392902498785
 20
155.7686323045218
 30
0.0
  0
VERTEX
  5
1EF
330
1EB
100
AcDbEntity
  8
4
  6
PHANTOM
 62
     2
370
    25
100
AcDbVertex
100
AcDb2dVertex
 10
417.6392902498785
 20
155.7686323045218
 30
0.0
  0
VERTEX
  5
1F0
330
1EB
100
AcDbEntity
  8
4
  6
PHANTOM
 62
     2
370
    25
100
AcDbVertex
100
AcDb2dVertex
 10
417.6392902498785
 20
197.7686323045218
 30
0.0
  0
SEQEND
  5
1F1
330
1EB
100
AcDbEntity
  8
4
  6
PHANTOM
 62
     2
370
    25
  0
POLYLINE
  5
1F2
330
1F
100
AcDbEntity
  8
4
  6
PHANTOM
 62
     2
370
    25
100
AcDb2dPolyline
 66
     1
 10
0.0
 20
0.0
 30
0.0
  0
VERTEX
  5
1F3
330
1F2
100
AcDbEntity
  8
4
  6
PHANTOM
 62
     2
370
    25
100
AcDbVertex
100
AcDb2dVertex
 10
454.6392902498785
 20
149.3851251193335
 30
0.0
  0
VERTEX
  5
1F4
330
1F2
100
AcDbEntity
  8
4
  6
PHANTOM
 62
     2
370
    25
100
AcDbVertex
100
AcDb2dVertex
 10
452.6392902498785
 20
151.7686323045218
 30
0.0
  0
VERTEX
  5
1F5
330
1F2
100
AcDbEntity
  8
4
  6
PHANTOM
 62
     2
370
    25
100
AcDbVertex
100
AcDb2dVertex
 10
452.6392902498785
 20
155.7686323045218
 30
0.0
  0
SEQEND
  5
1F6
330
1F2
100
AcDbEntity
  8
4
  6
PHANTOM
 62
     2
370
    25
  0
POLYLINE
  5
1F7
330
1F
100
AcDbEntity
  8
4
  6
PHANTOM
 62
     2
370
    25
100
AcDb2dPolyline
 66
     1
 10
0.0
 20
0.0
 30
0.0
  0
VERTEX
  5
1F8
330
1F7
100
AcDbEntity
  8
4
  6
PHANTOM
 62
     2
370
    25
100
AcDbVertex
100
AcDb2dVertex
 10
420.6392902498785
 20
149.3851251193332
 30
0.0
  0
VERTEX
  5
1F9
330
1F7
100
AcDbEntity
  8
4
  6
PHANTOM
 62
     2
370
    25
100
AcDbVertex
100
AcDb2dVertex
 10
422.6392902498785
 20
151.7686323045218
 30
0.0
  0
VERTEX
  5
1FA
330
1F7
100
AcDbEntity
  8
4
  6
PHANTOM
 62
     2
370
    25
100
AcDbVertex
100
AcDb2dVertex
 10
422.6392902498785
 20
155.7686323045218
 30
0.0
  0
SEQEND
  5
1FB
330
1F7
100
AcDbEntity
  8
4
  6
PHANTOM
 62
     2
370
    25
  0
LINE
  5
1FC
330
1F
100
AcDbEntity
  8
4
  6
PHANTOM
 62
     2
370
    25
100
AcDbLine
 10
420.6392902498785
 20
151.7686323045218
 30
0.0
 11
454.6392902498785
 21
151.7686323045218
 31
0.0
  0
LINE
  5
1FD
330
1F
100
AcDbEntity
  8
4
  6
PHANTOM
 62
     2
370
    25
100
AcDbLine
 10
420.6392902498785
 20
155.7686323045218
 30
0.0
 11
420.6392902498785
 21
103.3566090604131
 31
0.0
  0
LINE
  5
1FE
330
1F
100
AcDbEntity
  8
4
  6
PHANTOM
 62
     2
370
    25
100
AcDbLine
 10
454.6392902498785
 20
155.7686323045218
 30
0.0
 11
454.6392902498785
 21
103.3566090604133
 31
0.0
  0
LINE
  5
1FF
330
1F
100
AcDbEntity
  8
4
  6
PHANTOM
 62
     2
370
    25
100
AcDbLine
 10
466.6392902498785
 20
145.0931150000001
 30
0.0
 11
466.6392902498785
 21
133.0931150000001
 31
0.0
  0
LINE
  5
200
330
1F
100
AcDbEntity
  8
4
  6
PHANTOM
 62
     2
370
    25
100
AcDbLine
 10
457.4573097345394
 20
135.911134484661
 30
0.0
 11
463.8212707652176
 21
142.2750955153392
 31
0.0
  0
LINE
  5
201
330
1F
100
AcDbEntity
  8
4
  6
PHANTOM
 62
     2
370
    25
100
AcDbLine
 10
457.4573097345394
 20
142.2750955153392
 30
0.0
 11
463.8212707652176
 21
135.911134484661
 31
0.0
  0
CIRCLE
  5
202
330
1F
100
AcDbEntity
  8
4
  6
PHANTOM
 62
     2
370
    25
100
AcDbCircle
 10
460.6392902498785
 20
139.0931150000001
 30
0.0
 40
6.0
  0
CIRCLE
  5
203
330
1F
100
AcDbEntity
  8
4
  6
PHANTOM
 62
     2
370
    25
100
AcDbCircle
 10
460.6392902498785
 20
139.0931150000001
 30
0.0
 40
4.5
  0
LINE
  5
204
330
1F
100
AcDbEntity
  8
4
  6
PHANTOM
 62
     2
370
    25
100
AcDbLine
 10
399.6392902498785
 20
145.0931150000001
 30
0.0
 11
466.6392902498785
 21
145.0931150000001
 31
0.0
  0
LINE
  5
205
330
1F
100
AcDbEntity
  8
4
  6
PHANTOM
 62
     2
370
    25
100
AcDbLine
 10
411.4573097345394
 20
142.2750955153392
 30
0.0
 11
417.8212707652174
 21
135.911134484661
 31
0.0
  0
LINE
  5
206
330
1F
100
AcDbEntity
  8
4
  6
PHANTOM
 62
     2
370
    25
100
AcDbLine
 10
411.4573097345394
 20
135.911134484661
 30
0.0
 11
417.8212707652174
 21
142.2750955153392
 31
0.0
  0
CIRCLE
  5
207
330
1F
100
AcDbEntity
  8
4
  6
PHANTOM
 62
     2
370
    25
100
AcDbCircle
 10
414.6392902498785
 20
139.0931150000001
 30
0.0
 40
4.5
  0
CIRCLE
  5
208
330
1F
100
AcDbEntity
  8
4
  6
PHANTOM
 62
     2
370
    25
100
AcDbCircle
 10
414.6392902498785
 20
139.0931150000001
 30
0.0
 40
6.0
  0
LINE
  5
209
330
1F
100
AcDbEntity
  8
4
  6
PHANTOM
 62
     2
370
    25
100
AcDbLine
 10
408.6392902498785
 20
145.0931150000001
 30
0.0
 11
408.6392902498785
 21
133.0931150000001
 31
0.0
  0
LINE
  5
20A
330
1F
100
AcDbEntity
  8
4
  6
PHANTOM
 62
     2
370
    25
100
AcDbLine
 10
466.6392902498785
 20
133.0931150000001
 30
0.0
 11
399.6392902498785
 21
133.0931150000001
 31
0.0
  0
LINE
  5
20B
330
1F
100
AcDbEntity
  8
4
  6
PHANTOM
 62
     2
370
    25
100
AcDbLine
 10
466.6392902498785
 20
313.0931150000002
 30
0.0
 11
399.6392902498785
 21
313.0931150000002
 31
0.0
  0
LINE
  5
20C
330
1F
100
AcDbEntity
  8
4
  6
PHANTOM
 62
     2
370
    25
100
AcDbLine
 10
466.6392902498785
 20
325.0931150000002
 30
0.0
 11
466.6392902498785
 21
313.0931150000002
 31
0.0
  0
LINE
  5
20D
330
1F
100
AcDbEntity
  8
4
  6
PHANTOM
 62
     2
370
    25
100
AcDbLine
 10
399.6392902498785
 20
325.0931150000002
 30
0.0
 11
466.6392902498785
 21
325.0931150000002
 31
0.0
  0
LINE
  5
20E
330
1F
100
AcDbEntity
  8
4
  6
PHANTOM
 62
     2
370
    25
100
AcDbLine
 10
408.6392902498785
 20
325.0931150000002
 30
0.0
 11
408.6392902498785
 21
313.0931150000002
 31
0.0
  0
LINE
  5
20F
330
1F
100
AcDbEntity
  8
4
  6
PHANTOM
 62
     2
370
    25
100
AcDbLine
 10
457.4573097345394
 20
322.2750955153393
 30
0.0
 11
463.8212707652176
 21
315.9111344846611
 31
0.0
  0
LINE
  5
210
330
1F
100
AcDbEntity
  8
4
  6
PHANTOM
 62
     2
370
    25
100
AcDbLine
 10
457.4573097345394
 20
315.9111344846611
 30
0.0
 11
463.8212707652176
 21
322.2750955153393
 31
0.0
  0
CIRCLE
  5
211
330
1F
100
AcDbEntity
  8
4
  6
PHANTOM
 62
     2
370
    25
100
AcDbCircle
 10
460.6392902498785
 20
319.0931150000002
 30
0.0
 40
6.0
  0
CIRCLE
  5
212
330
1F
100
AcDbEntity
  8
4
  6
PHANTOM
 62
     2
370
    25
100
AcDbCircle
 10
460.6392902498785
 20
319.0931150000002
 30
0.0
 40
4.5
  0
CIRCLE
  5
213
330
1F
100
AcDbEntity
  8
4
  6
PHANTOM
 62
     2
370
    25
100
AcDbCircle
 10
414.6392902498785
 20
319.0931150000002
 30
0.0
 40
4.5
  0
CIRCLE
  5
214
330
1F
100
AcDbEntity
  8
4
  6
PHANTOM
 62
     2
370
    25
100
AcDbCircle
 10
414.6392902498785
 20
319.0931150000002
 30
0.0
 40
6.0
  0
LINE
  5
215
330
1F
100
AcDbEntity
  8
4
  6
PHANTOM
 62
     2
370
    25
100
AcDbLine
 10
411.4573097345394
 20
315.9111344846611
 30
0.0
 11
417.8212707652174
 21
322.2750955153393
 31
0.0
  0
LINE
  5
216
330
1F
100
AcDbEntity
  8
4
  6
PHANTOM
 62
     2
370
    25
100
AcDbLine
 10
411.4573097345394
 20
322.2750955153393
 30
0.0
 11
417.8212707652174
 21
315.9111344846611
 31
0.0
  0
LINE
  5
217
330
1F
100
AcDbEntity
  8
4
  6
PHANTOM
 62
     2
370
    25
100
AcDbLine
 10
454.6392902498785
 20
304.2648209462451
 30
0.0
 11
454.6392902498785
 21
354.1406555486302
 31
0.0
  0
LINE
  5
218
330
1F
100
AcDbEntity
  8
4
  6
PHANTOM
 62
     2
370
    25
100
AcDbLine
 10
420.6392902498785
 20
304.2648209462451
 30
0.0
 11
420.6392902498785
 21
354.1406555486302
 31
0.0
  0
POLYLINE
  5
219
330
1F
100
AcDbEntity
  8
4
  6
PHANTOM
 62
     2
370
    25
100
AcDb2dPolyline
 66
     1
 10
0.0
 20
0.0
 30
0.0
  0
VERTEX
  5
21A
330
219
100
AcDbEntity
  8
4
  6
PHANTOM
 62
     2
370
    25
100
AcDbVertex
100
AcDb2dVertex
 10
420.6392902498785
 20
310.6483281314337
 30
0.0
  0
VERTEX
  5
21B
330
219
100
AcDbEntity
  8
4
  6
PHANTOM
 62
     2
370
    25
100
AcDbVertex
100
AcDb2dVertex
 10
422.6392902498785
 20
308.2648209462451
 30
0.0
  0
VERTEX
  5
21C
330
219
100
AcDbEntity
  8
4
  6
PHANTOM
 62
     2
370
    25
100
AcDbVertex
100
AcDb2dVertex
 10
422.6392902498785
 20
304.2648209462451
 30
0.0
  0
SEQEND
  5
21D
330
219
100
AcDbEntity
  8
4
  6
PHANTOM
 62
     2
370
    25
  0
POLYLINE
  5
21E
330
1F
100
AcDbEntity
  8
4
  6
PHANTOM
 62
     2
370
    25
100
AcDb2dPolyline
 66
     1
 10
0.0
 20
0.0
 30
0.0
  0
VERTEX
  5
21F
330
21E
100
AcDbEntity
  8
4
  6
PHANTOM
 62
     2
370
    25
100
AcDbVertex
100
AcDb2dVertex
 10
454.6392902498785
 20
310.6483281314337
 30
0.0
  0
VERTEX
  5
220
330
21E
100
AcDbEntity
  8
4
  6
PHANTOM
 62
     2
370
    25
100
AcDbVertex
100
AcDb2dVertex
 10
452.6392902498785
 20
308.2648209462451
 30
0.0
  0
VERTEX
  5
221
330
21E
100
AcDbEntity
  8
4
  6
PHANTOM
 62
     2
370
    25
100
AcDbVertex
100
AcDb2dVertex
 10
452.6392902498785
 20
304.2648209462451
 30
0.0
  0
SEQEND
  5
222
330
21E
100
AcDbEntity
  8
4
  6
PHANTOM
 62
     2
370
    25
  0
LINE
  5
223
330
1F
100
AcDbEntity
  8
4
  6
PHANTOM
 62
     2
370
    25
100
AcDbLine
 10
420.6392902498785
 20
308.2648209462451
 30
0.0
 11
454.6392902498785
 21
308.2648209462451
 31
0.0
  0
POLYLINE
  5
224
330
1F
100
AcDbEntity
  8
4
  6
PHANTOM
 62
     2
370
    25
100
AcDb2dPolyline
 66
     1
 10
0.0
 20
0.0
 30
0.0
  0
VERTEX
  5
225
330
224
100
AcDbEntity
  8
4
  6
PHANTOM
 62
     2
370
    25
100
AcDbVertex
100
AcDb2dVertex
 10
422.9507981181559
 20
197.7686323045218
 30
0.0
  0
VERTEX
  5
226
330
224
100
AcDbEntity
  8
4
  6
PHANTOM
 62
     2
370
    25
100
AcDbVertex
100
AcDb2dVertex
 10
422.74659830879
 20
204.2686323045217
 30
0.0
  0
VERTEX
  5
227
330
224
100
AcDbEntity
  8
4
  6
PHANTOM
 62
     2
370
    25
100
AcDbVertex
100
AcDb2dVertex
 10
420.6523522429288
 20
207.2686323045217
 30
0.0
  0
SEQEND
  5
228
330
224
100
AcDbEntity
  8
4
  6
PHANTOM
 62
     2
370
    25
  0
POLYLINE
  5
229
330
1F
100
AcDbEntity
  8
4
  6
PHANTOM
 62
     2
370
    25
100
AcDb2dPolyline
 66
     1
 10
0.0
 20
0.0
 30
0.0
  0
VERTEX
  5
22A
330
229
100
AcDbEntity
  8
4
  6
PHANTOM
 62
     2
370
    25
100
AcDbVertex
100
AcDb2dVertex
 10
420.6392902498785
 20
207.6844160170053
 30
0.0
  0
VERTEX
  5
22B
330
229
100
AcDbEntity
  8
4
  6
PHANTOM
 62
     2
370
    25
100
AcDbVertex
100
AcDb2dVertex
 10
420.9507981181559
 20
197.7686323045218
 30
0.0
  0
SEQEND
  5
22C
330
229
100
AcDbEntity
  8
4
  6
PHANTOM
 62
     2
370
    25
  0
POLYLINE
  5
22D
330
1F
100
AcDbEntity
  8
4
  6
PHANTOM
 62
     2
370
    25
100
AcDb2dPolyline
 66
     1
 10
0.0
 20
0.0
 30
0.0
  0
VERTEX
  5
22E
330
22D
100
AcDbEntity
  8
4
  6
PHANTOM
 62
     2
370
    25
100
AcDbVertex
100
AcDb2dVertex
 10
454.3277823816009
 20
197.7686323045217
 30
0.0
  0
VERTEX
  5
22F
330
22D
100
AcDbEntity
  8
4
  6
PHANTOM
 62
     2
370
    25
100
AcDbVertex
100
AcDb2dVertex
 10
454.6392902498785
 20
207.6844160170052
 30
0.0
  0
SEQEND
  5
230
330
22D
100
AcDbEntity
  8
4
  6
PHANTOM
 62
     2
370
    25
  0
POLYLINE
  5
231
330
1F
100
AcDbEntity
  8
4
  6
PHANTOM
 62
     2
370
    25
100
AcDb2dPolyline
 66
     1
 10
0.0
 20
0.0
 30
0.0
  0
VERTEX
  5
232
330
231
100
AcDbEntity
  8
4
  6
PHANTOM
 62
     2
370
    25
100
AcDbVertex
100
AcDb2dVertex
 10
452.3277823816011
 20
197.7686323045218
 30
0.0
  0
VERTEX
  5
233
330
231
100
AcDbEntity
  8
4
  6
PHANTOM
 62
     2
370
    25
100
AcDbVertex
100
AcDb2dVertex
 10
452.531982190967
 20
204.2686323045217
 30
0.0
  0
VERTEX
  5
234
330
231
100
AcDbEntity
  8
4
  6
PHANTOM
 62
     2
370
    25
100
AcDbVertex
100
AcDb2dVertex
 10
454.6262282568282
 20
207.2686323045217
 30
0.0
  0
SEQEND
  5
235
330
231
100
AcDbEntity
  8
4
  6
PHANTOM
 62
     2
370
    25
  0
LINE
  5
236
330
1F
100
AcDbEntity
  8
4
  6
PHANTOM
 62
     2
370
    25
100
AcDbLine
 10
420.6392902498785
 20
204.2686323045218
 30
0.0
 11
454.6392902498785
 21
204.2686323045218
 31
0.0
  0
LINE
  5
237
330
1F
100
AcDbEntity
  8
4
  6
PHANTOM
 62
     2
370
    25
100
AcDbLine
 10
420.676208864114
 20
219.0934549462451
 30
0.0
 11
454.5689008052025
 21
219.0934549462451
 31
0.0
  0
LINE
  5
238
330
1F
100
AcDbEntity
  8
4
  6
PHANTOM
 62
     2
370
    25
100
AcDbLine
 10
427.6392902498785
 20
215.7686323045219
 30
0.0
 11
427.6392902498785
 21
208.7686323045218
 31
0.0
  0
LINE
  5
239
330
1F
100
AcDbEntity
  8
4
  6
PHANTOM
 62
     2
370
    25
100
AcDbLine
 10
447.6392902498785
 20
215.7686323045219
 30
0.0
 11
447.6392902498785
 21
208.7686323045218
 31
0.0
  0
POLYLINE
  5
23A
330
1F
100
AcDbEntity
  8
9
  6
Continuous
 62
     7
370
    35
100
AcDb2dPolyline
 66
     1
 10
0.0
 20
0.0
 30
0.0
  0
VERTEX
  5
23B
330
23A
100
AcDbEntity
  8
9
  6
Continuous
 62
     7
370
    35
100
AcDbVertex
100
AcDb2dVertex
 10
627.6748972019768
 20
328.0931150000002
 30
0.0
  0
VERTEX
  5
23C
330
23A
100
AcDbEntity
  8
9
  6
Continuous
 62
     7
370
    35
100
AcDbVertex
100
AcDb2dVertex
 10
677.6748972019768
 20
328.0931150000002
 30
0.0
  0
SEQEND
  5
23D
330
23A
100
AcDbEntity
  8
9
  6
Continuous
 62
     7
370
    35
  0
ARC
  5
23E
330
1F
100
AcDbEntity
  8
9
  6
Continuous
 62
     7
370
    35
100
AcDbCircle
 10
677.6748972019805
 20
325.0931150000041
 30
0.0
 40
2.999999999996021
100
AcDbArc
 50
359.9999999999258
 51
89.99999999999991
  0
POLYLINE
  5
23F
330
1F
100
AcDbEntity
  8
9
  6
Continuous
 62
     7
370
    35
100
AcDb2dPolyline
 66
     1
 10
0.0
 20
0.0
 30
0.0
  0
VERTEX
  5
240
330
23F
100
AcDbEntity
  8
9
  6
Continuous
 62
     7
370
    35
100
AcDbVertex
100
AcDb2dVertex
 10
680.6748972019768
 20
325.0931150000002
 30
0.0
  0
VERTEX
  5
241
330
23F
100
AcDbEntity
  8
9
  6
Continuous
 62
     7
370
    35
100
AcDbVertex
100
AcDb2dVertex
 10
680.6748972019768
 20
133.0931150000001
 30
0.0
  0
SEQEND
  5
242
330
23F
100
AcDbEntity
  8
9
  6
Continuous
 62
     7
370
    35
  0
ARC
  5
243
330
1F
100
AcDbEntity
  8
9
  6
Continuous
 62
     7
370
    35
100
AcDbCircle
 10
677.6748972019805
 20
133.0931149999969
 30
0.0
 40
2.999999999996646
100
AcDbArc
 50
269.9999999999998
 51
0.0000000000607952
  0
POLYLINE
  5
244
330
1F
100
AcDbEntity
  8
9
  6
Continuous
 62
     7
370
    35
100
AcDb2dPolyline
 66
     1
 10
0.0
 20
0.0
 30
0.0
  0
VERTEX
  5
245
330
244
100
AcDbEntity
  8
9
  6
Continuous
 62
     7
370
    35
100
AcDbVertex
100
AcDb2dVertex
 10
677.6748972019768
 20
130.0931150000001
 30
0.0
  0
VERTEX
  5
246
330
244
100
AcDbEntity
  8
9
  6
Continuous
 62
     7
370
    35
100
AcDbVertex
100
AcDb2dVertex
 10
627.6748972019768
 20
130.0931150000001
 30
0.0
  0
SEQEND
  5
247
330
244
100
AcDbEntity
  8
9
  6
Continuous
 62
     7
370
    35
  0
ARC
  5
248
330
1F
100
AcDbEntity
  8
9
  6
Continuous
 62
     7
370
    35
100
AcDbCircle
 10
627.67489720198
 20
133.0931150000038
 30
0.0
 40
3.000000000003524
100
AcDbArc
 50
180.0000000000691
 51
269.9999999999998
  0
POLYLINE
  5
249
330
1F
100
AcDbEntity
  8
9
  6
Continuous
 62
     7
370
    35
100
AcDb2dPolyline
 66
     1
 10
0.0
 20
0.0
 30
0.0
  0
VERTEX
  5
24A
330
249
100
AcDbEntity
  8
9
  6
Continuous
 62
     7
370
    35
100
AcDbVertex
100
AcDb2dVertex
 10
624.6748972019768
 20
133.0931150000001
 30
0.0
  0
VERTEX
  5
24B
330
249
100
AcDbEntity
  8
9
  6
Continuous
 62
     7
370
    35
100
AcDbVertex
100
AcDb2dVertex
 10
624.6748972019768
 20
325.0931150000002
 30
0.0
  0
SEQEND
  5
24C
330
249
100
AcDbEntity
  8
9
  6
Continuous
 62
     7
370
    35
  0
ARC
  5
24D
330
1F
100
AcDbEntity
  8
9
  6
Continuous
 62
     7
370
    35
100
AcDbCircle
 10
627.6748972019809
 20
325.0931149999971
 30
0.0
 40
3.000000000003922
100
AcDbArc
 50
89.99999999999991
 51
179.9999999999392
  0
LINE
  5
24E
330
1F
100
AcDbEntity
  8
9
  6
Continuous
 62
     7
370
    35
100
AcDbLine
 10
624.6748972019768
 20
264.093115
 30
0.0
 11
605.674897201977
 21
264.093115
 31
0.0
  0
LINE
  5
24F
330
1F
100
AcDbEntity
  8
9
  6
Continuous
 62
     7
370
    35
100
AcDbLine
 10
600.674897201977
 20
259.093115
 30
0.0
 11
600.674897201977
 21
199.093115
 31
0.0
  0
LINE
  5
250
330
1F
100
AcDbEntity
  8
9
  6
Continuous
 62
     7
370
    35
100
AcDbLine
 10
605.674897201977
 20
194.093115
 30
0.0
 11
624.6748972019768
 21
194.093115
 31
0.0
  0
POLYLINE
  5
251
330
1F
100
AcDbEntity
  8
9
  6
Continuous
 62
     7
370
    35
100
AcDb2dPolyline
 66
     1
 10
0.0
 20
0.0
 30
0.0
  0
VERTEX
  5
252
330
251
100
AcDbEntity
  8
9
  6
Continuous
 62
     7
370
    35
100
AcDbVertex
100
AcDb2dVertex
 10
624.6748972019768
 20
254.093115
 30
0.0
  0
VERTEX
  5
253
330
251
100
AcDbEntity
  8
9
  6
Continuous
 62
     7
370
    35
100
AcDbVertex
100
AcDb2dVertex
 10
613.1748972019768
 20
254.093115
 30
0.0
  0
SEQEND
  5
254
330
251
100
AcDbEntity
  8
9
  6
Continuous
 62
     7
370
    35
  0
ARC
  5
255
330
1F
100
AcDbEntity
  8
9
  6
Continuous
 62
     7
370
    35
100
AcDbCircle
 10
613.1748972019795
 20
251.5931149999986
 30
0.0
 40
2.500000000001421
100
AcDbArc
 50
89.99999999999991
 51
179.9999999999687
  0
POLYLINE
  5
256
330
1F
100
AcDbEntity
  8
9
  6
Continuous
 62
     7
370
    35
100
AcDb2dPolyline
 66
     1
 10
0.0
 20
0.0
 30
0.0
  0
VERTEX
  5
257
330
256
100
AcDbEntity
  8
9
  6
Continuous
 62
     7
370
    35
100
AcDbVertex
100
AcDb2dVertex
 10
610.674897201977
 20
251.593115
 30
0.0
  0
VERTEX
  5
258
330
256
100
AcDbEntity
  8
9
  6
Continuous
 62
     7
370
    35
100
AcDbVertex
100
AcDb2dVertex
 10
610.674897201977
 20
206.593115
 30
0.0
  0
SEQEND
  5
259
330
256
100
AcDbEntity
  8
9
  6
Continuous
 62
     7
370
    35
  0
ARC
  5
25A
330
1F
100
AcDbEntity
  8
9
  6
Continuous
 62
     7
370
    35
100
AcDbCircle
 10
613.1748972019727
 20
206.5931149999996
 30
0.0
 40
2.49999999999568
100
AcDbArc
 50
179.9999999999896
 51
269.9999999999998
  0
POLYLINE
  5
25B
330
1F
100
AcDbEntity
  8
9
  6
Continuous
 62
     7
370
    35
100
AcDb2dPolyline
 66
     1
 10
0.0
 20
0.0
 30
0.0
  0
VERTEX
  5
25C
330
25B
100
AcDbEntity
  8
9
  6
Continuous
 62
     7
370
    35
100
AcDbVertex
100
AcDb2dVertex
 10
613.1748972019768
 20
204.093115
 30
0.0
  0
VERTEX
  5
25D
330
25B
100
AcDbEntity
  8
9
  6
Continuous
 62
     7
370
    35
100
AcDbVertex
100
AcDb2dVertex
 10
624.6748972019768
 20
204.093115
 30
0.0
  0
SEQEND
  5
25E
330
25B
100
AcDbEntity
  8
9
  6
Continuous
 62
     7
370
    35
  0
ARC
  5
25F
330
1F
100
AcDbEntity
  8
9
  6
Continuous
 62
     7
370
    35
100
AcDbCircle
 10
605.674897201977
 20
199.093115
 30
0.0
 40
5.0
100
AcDbArc
 50
179.9999999999998
 51
269.9999999999998
  0
ARC
  5
260
330
1F
100
AcDbEntity
  8
9
  6
Continuous
 62
     7
370
    35
100
AcDbCircle
 10
605.674897201977
 20
259.093115
 30
0.0
 40
5.0
100
AcDbArc
 50
89.99999999999991
 51
179.9999999999998
  0
ARC
  5
261
330
1F
100
AcDbEntity
  8
2
  6
HIDDEN
 62
     2
370
    25
100
AcDbCircle
 10
644.1748972019764
 20
345.5692350510191
 30
0.0
 40
12.0714224489815
100
AcDbArc
 50
45.23970107866468
 51
134.7602989213323
  0
ARC
  5
262
330
1F
100
AcDbEntity
  8
2
  6
HIDDEN
 62
     2
370
    25
100
AcDbCircle
 10
661.1748972019782
 20
362.7120749489774
 30
0.0
 40
12.0714224489804
100
AcDbArc
 50
225.2397010786491
 51
314.7602989213395
  0
ARC
  5
263
330
1F
100
AcDbEntity
  8
2
  6
HIDDEN
 62
     2
370
    25
100
AcDbCircle
 10
661.1748972019773
 20
345.5692350510191
 30
0.0
 40
12.07142244898182
100
AcDbArc
 50
45.23970107866774
 51
134.7602989213338
  0
ARC
  5
264
330
1F
100
AcDbEntity
  8
2
  6
HIDDEN
 62
     2
370
    25
100
AcDbCircle
 10
644.1748972019773
 20
111.9280289489786
 30
0.0
 40
12.07142244898077
100
AcDbArc
 50
225.2397010786574
 51
314.7602989213388
  0
ARC
  5
265
330
1F
100
AcDbEntity
  8
2
  6
HIDDEN
 62
     2
370
    25
100
AcDbCircle
 10
661.1748972019773
 20
94.785189051021
 30
0.0
 40
12.07142244898096
100
AcDbArc
 50
45.23970107866164
 51
134.7602989213414
  0
ARC
  5
266
330
1F
100
AcDbEntity
  8
2
  6
HIDDEN
 62
     2
370
    25
100
AcDbCircle
 10
661.1748972019759
 20
111.9280289489786
 30
0.0
 40
12.07142244898117
100
AcDbArc
 50
225.2397010786621
 51
314.7602989213433
  0
LINE
  5
267
330
1F
100
AcDbEntity
  8
9
  6
Continuous
 62
     7
370
    35
100
AcDbLine
 10
399.6392902498785
 20
430.8180739999999
 30
0.0
 11
419.6392902498785
 21
430.8180739999999
 31
0.0
  0
POLYLINE
  5
268
330
1F
100
AcDbEntity
  8
9
  6
Continuous
 62
     7
370
    35
100
AcDb2dPolyline
 66
     1
 10
0.0
 20
0.0
 30
0.0
  0
VERTEX
  5
269
330
268
100
AcDbEntity
  8
9
  6
Continuous
 62
     7
370
    35
100
AcDbVertex
100
AcDb2dVertex
 10
402.6392902498785
 20
458.8180739999999
 30
0.0
  0
VERTEX
  5
26A
330
268
100
AcDbEntity
  8
9
  6
Continuous
 62
     7
370
    35
100
AcDbVertex
100
AcDb2dVertex
 10
550.6392902498785
 20
458.8180739999999
 30
0.0
  0
SEQEND
  5
26B
330
268
100
AcDbEntity
  8
9
  6
Continuous
 62
     7
370
    35
  0
ARC
  5
26C
330
1F
100
AcDbEntity
  8
9
  6
Continuous
 62
     7
370
    35
100
AcDbCircle
 10
550.6392902498876
 20
455.8180740000108
 30
0.0
 40
2.9999999999892
100
AcDbArc
 50
359.9999999997912
 51
89.99999999999991
  0
POLYLINE
  5
26D
330
1F
100
AcDbEntity
  8
9
  6
Continuous
 62
     7
370
    35
100
AcDb2dPolyline
 66
     1
 10
0.0
 20
0.0
 30
0.0
  0
VERTEX
  5
26E
330
26D
100
AcDbEntity
  8
9
  6
Continuous
 62
     7
370
    35
100
AcDbVertex
100
AcDb2dVertex
 10
553.6392902498785
 20
455.8180739999999
 30
0.0
  0
VERTEX
  5
26F
330
26D
100
AcDbEntity
  8
9
  6
Continuous
 62
     7
370
    35
100
AcDbVertex
100
AcDb2dVertex
 10
553.6392902498785
 20
405.8180739999999
 30
0.0
  0
SEQEND
  5
270
330
26D
100
AcDbEntity
  8
9
  6
Continuous
 62
     7
370
    35
  0
ARC
  5
271
330
1F
100
AcDbEntity
  8
9
  6
Continuous
 62
     7
370
    35
100
AcDbCircle
 10
550.6392902498728
 20
405.8180740000051
 30
0.0
 40
3.000000000005656
100
AcDbArc
 50
269.9999999999998
 51
359.9999999998998
  0
POLYLINE
  5
272
330
1F
100
AcDbEntity
  8
9
  6
Continuous
 62
     7
370
    35
100
AcDb2dPolyline
 66
     1
 10
0.0
 20
0.0
 30
0.0
  0
VERTEX
  5
273
330
272
100
AcDbEntity
  8
9
  6
Continuous
 62
     7
370
    35
100
AcDbVertex
100
AcDb2dVertex
 10
550.6392902498785
 20
402.8180739999999
 30
0.0
  0
VERTEX
  5
274
330
272
100
AcDbEntity
  8
9
  6
Continuous
 62
     7
370
    35
100
AcDbVertex
100
AcDb2dVertex
 10
402.6392902498785
 20
402.8180739999999
 30
0.0
  0
SEQEND
  5
275
330
272
100
AcDbEntity
  8
9
  6
Continuous
 62
     7
370
    35
  0
ARC
  5
276
330
1F
100
AcDbEntity
  8
9
  6
Continuous
 62
     7
370
    35
100
AcDbCircle
 10
402.6392902498792
 20
405.8180740000024
 30
0.0
 40
3.000000000002387
100
AcDbArc
 50
180.0000000000474
 51
269.9999999999998
  0
POLYLINE
  5
277
330
1F
100
AcDbEntity
  8
9
  6
Continuous
 62
     7
370
    35
100
AcDb2dPolyline
 66
     1
 10
0.0
 20
0.0
 30
0.0
  0
VERTEX
  5
278
330
277
100
AcDbEntity
  8
9
  6
Continuous
 62
     7
370
    35
100
AcDbVertex
100
AcDb2dVertex
 10
399.6392902498785
 20
405.8180739999999
 30
0.0
  0
VERTEX
  5
279
330
277
100
AcDbEntity
  8
9
  6
Continuous
 62
     7
370
    35
100
AcDbVertex
100
AcDb2dVertex
 10
399.6392902498785
 20
455.8180739999999
 30
0.0
  0
SEQEND
  5
27A
330
277
100
AcDbEntity
  8
9
  6
Continuous
 62
     7
370
    35
  0
ARC
  5
27B
330
1F
100
AcDbEntity
  8
9
  6
Continuous
 62
     7
370
    35
100
AcDbCircle
 10
402.639290249876
 20
455.8180740000017
 30
0.0
 40
2.999999999997492
100
AcDbArc
 50
89.99999999999991
 51
180.0000000000344
  0
CIRCLE
  5
27C
330
1F
100
AcDbEntity
  8
9
  6
Continuous
 62
     7
370
    35
100
AcDbCircle
 10
437.6392902498785
 20
430.8180739999999
 30
0.0
 40
18.0
  0
LINE
  5
27D
330
1F
100
AcDbEntity
  8
9
  6
Continuous
 62
     7
370
    35
100
AcDbLine
 10
455.6392902498785
 20
447.8180739999999
 30
0.0
 11
455.6392902498785
 21
430.8180739999999
 31
0.0
  0
ARC
  5
27E
330
1F
100
AcDbEntity
  8
9
  6
Continuous
 62
     7
370
    35
100
AcDbCircle
 10
453.1392902499269
 20
440.5089706315276
 30
0.0
 40
0.4999999999564461
100
AcDbArc
 50
267.2878392782109
 51
0.000000005263131
  0
POLYLINE
  5
27F
330
1F
100
AcDbEntity
  8
9
  6
Continuous
 62
     7
370
    35
100
AcDb2dPolyline
 66
     1
 10
0.0
 20
0.0
 30
0.0
  0
VERTEX
  5
280
330
27F
100
AcDbEntity
  8
9
  6
Continuous
 62
     7
370
    35
100
AcDbVertex
100
AcDb2dVertex
 10
453.6392902498785
 20
440.5089706315736
 30
0.0
  0
VERTEX
  5
281
330
27F
100
AcDbEntity
  8
9
  6
Continuous
 62
     7
370
    35
100
AcDbVertex
100
AcDb2dVertex
 10
453.6392902498785
 20
447.8180739999999
 30
0.0
  0
VERTEX
  5
282
330
27F
100
AcDbEntity
  8
9
  6
Continuous
 62
     7
370
    35
100
AcDbVertex
100
AcDb2dVertex
 10
553.6392902498785
 20
447.8180739999999
 30
0.0
  0
SEQEND
  5
283
330
27F
100
AcDbEntity
  8
9
  6
Continuous
 62
     7
370
    35
  0
POLYLINE
  5
284
330
1F
100
AcDbEntity
  8
9
  6
Continuous
 62
     7
370
    35
100
AcDb2dPolyline
 66
     1
 10
0.0
 20
0.0
 30
0.0
  0
VERTEX
  5
285
330
284
100
AcDbEntity
  8
9
  6
Continuous
 62
     7
370
    35
100
AcDbVertex
100
AcDb2dVertex
 10
537.6392902498785
 20
402.8180739999999
 30
0.0
  0
VERTEX
  5
286
330
284
100
AcDbEntity
  8
9
  6
Continuous
 62
     7
370
    35
100
AcDbVertex
100
AcDb2dVertex
 10
537.6392902498785
 20
382.8180739999999
 30
0.0
  0
SEQEND
  5
287
330
284
100
AcDbEntity
  8
9
  6
Continuous
 62
     7
370
    35
  0
ARC
  5
288
330
1F
100
AcDbEntity
  8
9
  6
Continuous
 62
     7
370
    35
100
AcDbCircle
 10
541.6392902498826
 20
382.8180740000035
 30
0.0
 40
4.000000000004064
100
AcDbArc
 50
180.0000000000518
 51
269.9999999999998
  0
POLYLINE
  5
289
330
1F
100
AcDbEntity
  8
9
  6
Continuous
 62
     7
370
    35
100
AcDb2dPolyline
 66
     1
 10
0.0
 20
0.0
 30
0.0
  0
VERTEX
  5
28A
330
289
100
AcDbEntity
  8
9
  6
Continuous
 62
     7
370
    35
100
AcDbVertex
100
AcDb2dVertex
 10
541.6392902498785
 20
378.8180739999999
 30
0.0
  0
VERTEX
  5
28B
330
289
100
AcDbEntity
  8
9
  6
Continuous
 62
     7
370
    35
100
AcDbVertex
100
AcDb2dVertex
 10
545.6392902498785
 20
378.8180739999999
 30
0.0
  0
SEQEND
  5
28C
330
289
100
AcDbEntity
  8
9
  6
Continuous
 62
     7
370
    35
  0
ARC
  5
28D
330
1F
100
AcDbEntity
  8
9
  6
Continuous
 62
     7
370
    35
100
AcDbCircle
 10
545.6392902498785
 20
382.8180740000004
 30
0.0
 40
4.000000000000455
100
AcDbArc
 50
269.9999999999998
 51
359.9999999999931
  0
POLYLINE
  5
28E
330
1F
100
AcDbEntity
  8
9
  6
Continuous
 62
     7
370
    35
100
AcDb2dPolyline
 66
     1
 10
0.0
 20
0.0
 30
0.0
  0
VERTEX
  5
28F
330
28E
100
AcDbEntity
  8
9
  6
Continuous
 62
     7
370
    35
100
AcDbVertex
100
AcDb2dVertex
 10
549.6392902498785
 20
382.8180739999999
 30
0.0
  0
VERTEX
  5
290
330
28E
100
AcDbEntity
  8
9
  6
Continuous
 62
     7
370
    35
100
AcDbVertex
100
AcDb2dVertex
 10
549.6392902498785
 20
402.8180739999999
 30
0.0
  0
SEQEND
  5
291
330
28E
100
AcDbEntity
  8
9
  6
Continuous
 62
     7
370
    35
  0
LINE
  5
292
330
1F
100
AcDbEntity
  8
9
  6
Continuous
 62
     7
370
    35
100
AcDbLine
 10
525.1392902498785
 20
402.8180739999999
 30
0.0
 11
525.1392902498785
 21
402.3180739999999
 31
0.0
  0
LINE
  5
293
330
1F
100
AcDbEntity
  8
9
  6
Continuous
 62
     7
370
    35
100
AcDbLine
 10
525.1392902498785
 20
402.3180739999999
 30
0.0
 11
428.1392902498785
 21
402.3180739999999
 31
0.0
  0
LINE
  5
294
330
1F
100
AcDbEntity
  8
9
  6
Continuous
 62
     7
370
    35
100
AcDbLine
 10
428.1392902498785
 20
402.3180739999999
 30
0.0
 11
428.1392902498785
 21
402.8180739999999
 31
0.0
  0
ARC
  5
295
330
1F
100
AcDbEntity
  8
9
  6
Continuous
 62
     7
370
    35
100
AcDbCircle
 10
431.6892902498789
 20
402.4572553233712
 30
0.0
 40
1.800000000000011
100
AcDbArc
 50
184.4347056949112
 51
230.7033501036643
  0
ARC
  5
296
330
1F
100
AcDbEntity
  8
9
  6
Continuous
 62
     7
370
    35
100
AcDbCircle
 10
433.5892902498788
 20
402.4572553233712
 30
0.0
 40
1.800000000000011
100
AcDbArc
 50
309.2964802390651
 51
355.5652943050881
  0
ARC
  5
297
330
1F
100
AcDbEntity
  8
9
  6
Continuous
 62
     7
370
    35
100
AcDbCircle
 10
432.6392902498787
 20
403.6180740000001
 30
0.0
 40
3.300000000000011
100
AcDbArc
 50
230.7034272206015
 51
309.2964802390768
  0
ARC
  5
298
330
1F
100
AcDbEntity
  8
9
  6
Continuous
 62
     7
370
    35
100
AcDbCircle
 10
519.6892902498789
 20
402.4572553233712
 30
0.0
 40
1.800000000000011
100
AcDbArc
 50
184.4347056949112
 51
230.7033501036643
  0
ARC
  5
299
330
1F
100
AcDbEntity
  8
9
  6
Continuous
 62
     7
370
    35
100
AcDbCircle
 10
521.589290249879
 20
402.4572553233712
 30
0.0
 40
1.800000000000011
100
AcDbArc
 50
309.2964802390651
 51
355.5652943050881
  0
ARC
  5
29A
330
1F
100
AcDbEntity
  8
9
  6
Continuous
 62
     7
370
    35
100
AcDbCircle
 10
520.639290249879
 20
403.6180740000001
 30
0.0
 40
3.300000000000011
100
AcDbArc
 50
230.7034272205984
 51
309.2964802390737
  0
ARC
  5
29B
330
1F
100
AcDbEntity
  8
9
  6
Continuous
 62
     7
370
    35
100
AcDbCircle
 10
70.63929124987817
 20
273.5931150000001
 30
0.0
 40
1.75
100
AcDbArc
 50
73.39845040097212
 51
106.6015495990208
  0
LINE
  5
29C
330
1F
100
AcDbEntity
  8
9
  6
Continuous
 62
     7
370
    35
100
AcDbLine
 10
70.1392912498784
 20
275.270165983125
 30
0.0
 11
70.1392912498784
 21
274.093115
 31
0.0
  0
LINE
  5
29D
330
1F
100
AcDbEntity
  8
9
  6
Continuous
 62
     7
370
    35
100
AcDbLine
 10
70.1392912498784
 20
274.093115
 30
0.0
 11
68.9622402667535
 21
274.093115
 31
0.0
  0
LINE
  5
29E
330
1F
100
AcDbEntity
  8
9
  6
Continuous
 62
     7
370
    35
100
AcDbLine
 10
68.9622402667535
 20
273.0931150000001
 30
0.0
 11
70.1392912498784
 21
273.0931150000001
 31
0.0
  0
LINE
  5
29F
330
1F
100
AcDbEntity
  8
9
  6
Continuous
 62
     7
370
    35
100
AcDbLine
 10
70.1392912498784
 20
273.0931150000001
 30
0.0
 11
70.1392912498784
 21
271.9160640168755
 31
0.0
  0
LINE
  5
2A0
330
1F
100
AcDbEntity
  8
9
  6
Continuous
 62
     7
370
    35
100
AcDbLine
 10
71.13929124987862
 20
271.9160640168752
 30
0.0
 11
71.13929124987862
 21
273.0931150000001
 31
0.0
  0
LINE
  5
2A1
330
1F
100
AcDbEntity
  8
9
  6
Continuous
 62
     7
370
    35
100
AcDbLine
 10
71.13929124987862
 20
273.0931150000001
 30
0.0
 11
72.31634223300307
 21
273.0931150000001
 31
0.0
  0
LINE
  5
2A2
330
1F
100
AcDbEntity
  8
9
  6
Continuous
 62
     7
370
    35
100
AcDbLine
 10
72.31634223300307
 20
274.093115
 30
0.0
 11
71.13929124987862
 21
274.093115
 31
0.0
  0
LINE
  5
2A3
330
1F
100
AcDbEntity
  8
9
  6
Continuous
 62
     7
370
    35
100
AcDbLine
 10
71.13929124987862
 20
274.093115
 30
0.0
 11
71.13929124987862
 21
275.270165983125
 31
0.0
  0
ARC
  5
2A4
330
1F
100
AcDbEntity
  8
9
  6
Continuous
 62
     7
370
    35
100
AcDbCircle
 10
70.63929124987817
 20
273.5931150000001
 30
0.0
 40
1.75
100
AcDbArc
 50
163.3984504009782
 51
196.6015495990215
  0
ARC
  5
2A5
330
1F
100
AcDbEntity
  8
9
  6
Continuous
 62
     7
370
    35
100
AcDbCircle
 10
70.63929124987817
 20
273.5931150000001
 30
0.0
 40
1.75
100
AcDbArc
 50
253.3984504009789
 51
286.6015495990275
  0
ARC
  5
2A6
330
1F
100
AcDbEntity
  8
9
  6
Continuous
 62
     7
370
    35
100
AcDbCircle
 10
70.63929124987817
 20
273.5931150000001
 30
0.0
 40
1.75
100
AcDbArc
 50
343.3984504009799
 51
16.60154959901969
  0
ARC
  5
2A7
330
1F
100
AcDbEntity
  8
9
  6
Continuous
 62
     7
370
    35
100
AcDbCircle
 10
70.63929124987817
 20
185.5931150000001
 30
0.0
 40
1.75
100
AcDbArc
 50
73.39845040097212
 51
106.6015495990208
  0
LINE
  5
2A8
330
1F
100
AcDbEntity
  8
9
  6
Continuous
 62
     7
370
    35
100
AcDbLine
 10
70.1392912498784
 20
187.270165983125
 30
0.0
 11
70.1392912498784
 21
186.093115
 31
0.0
  0
LINE
  5
2A9
330
1F
100
AcDbEntity
  8
9
  6
Continuous
 62
     7
370
    35
100
AcDbLine
 10
70.1392912498784
 20
186.093115
 30
0.0
 11
68.9622402667535
 21
186.093115
 31
0.0
  0
LINE
  5
2AA
330
1F
100
AcDbEntity
  8
9
  6
Continuous
 62
     7
370
    35
100
AcDbLine
 10
68.9622402667535
 20
185.0931150000001
 30
0.0
 11
70.1392912498784
 21
185.0931150000001
 31
0.0
  0
LINE
  5
2AB
330
1F
100
AcDbEntity
  8
9
  6
Continuous
 62
     7
370
    35
100
AcDbLine
 10
70.1392912498784
 20
185.0931150000001
 30
0.0
 11
70.1392912498784
 21
183.9160640168755
 31
0.0
  0
LINE
  5
2AC
330
1F
100
AcDbEntity
  8
9
  6
Continuous
 62
     7
370
    35
100
AcDbLine
 10
71.13929124987862
 20
183.9160640168752
 30
0.0
 11
71.13929124987862
 21
185.0931150000001
 31
0.0
  0
LINE
  5
2AD
330
1F
100
AcDbEntity
  8
9
  6
Continuous
 62
     7
370
    35
100
AcDbLine
 10
71.13929124987862
 20
185.0931150000001
 30
0.0
 11
72.31634223300307
 21
185.0931150000001
 31
0.0
  0
LINE
  5
2AE
330
1F
100
AcDbEntity
  8
9
  6
Continuous
 62
     7
370
    35
100
AcDbLine
 10
72.31634223300307
 20
186.093115
 30
0.0
 11
71.13929124987862
 21
186.093115
 31
0.0
  0
LINE
  5
2AF
330
1F
100
AcDbEntity
  8
9
  6
Continuous
 62
     7
370
    35
100
AcDbLine
 10
71.13929124987862
 20
186.093115
 30
0.0
 11
71.13929124987862
 21
187.270165983125
 31
0.0
  0
ARC
  5
2B0
330
1F
100
AcDbEntity
  8
9
  6
Continuous
 62
     7
370
    35
100
AcDbCircle
 10
70.63929124987817
 20
185.5931150000001
 30
0.0
 40
1.75
100
AcDbArc
 50
163.3984504009782
 51
196.6015495990215
  0
ARC
  5
2B1
330
1F
100
AcDbEntity
  8
9
  6
Continuous
 62
     7
370
    35
100
AcDbCircle
 10
70.63929124987817
 20
185.5931150000001
 30
0.0
 40
1.75
100
AcDbArc
 50
253.3984504009789
 51
286.6015495990275
  0
ARC
  5
2B2
330
1F
100
AcDbEntity
  8
9
  6
Continuous
 62
     7
370
    35
100
AcDbCircle
 10
70.63929124987817
 20
185.5931150000001
 30
0.0
 40
1.75
100
AcDbArc
 50
343.3984504009799
 51
16.60154959901969
  0
ARC
  5
2B3
330
1F
100
AcDbEntity
  8
9
  6
Continuous
 62
     7
370
    35
100
AcDbCircle
 10
158.6392912498782
 20
185.5931150000001
 30
0.0
 40
1.75
100
AcDbArc
 50
73.39845040097212
 51
106.6015495990208
  0
LINE
  5
2B4
330
1F
100
AcDbEntity
  8
9
  6
Continuous
 62
     7
370
    35
100
AcDbLine
 10
158.1392912498786
 20
187.270165983125
 30
0.0
 11
158.1392912498786
 21
186.093115
 31
0.0
  0
LINE
  5
2B5
330
1F
100
AcDbEntity
  8
9
  6
Continuous
 62
     7
370
    35
100
AcDbLine
 10
158.1392912498786
 20
186.093115
 30
0.0
 11
156.9622402667533
 21
186.093115
 31
0.0
  0
LINE
  5
2B6
330
1F
100
AcDbEntity
  8
9
  6
Continuous
 62
     7
370
    35
100
AcDbLine
 10
156.9622402667533
 20
185.0931150000001
 30
0.0
 11
158.1392912498786
 21
185.0931150000001
 31
0.0
  0
LINE
  5
2B7
330
1F
100
AcDbEntity
  8
9
  6
Continuous
 62
     7
370
    35
100
AcDbLine
 10
158.1392912498786
 20
185.0931150000001
 30
0.0
 11
158.1392912498786
 21
183.9160640168755
 31
0.0
  0
LINE
  5
2B8
330
1F
100
AcDbEntity
  8
9
  6
Continuous
 62
     7
370
    35
100
AcDbLine
 10
159.1392912498786
 20
183.9160640168752
 30
0.0
 11
159.1392912498786
 21
185.0931150000001
 31
0.0
  0
LINE
  5
2B9
330
1F
100
AcDbEntity
  8
9
  6
Continuous
 62
     7
370
    35
100
AcDbLine
 10
159.1392912498786
 20
185.0931150000001
 30
0.0
 11
160.3163422330031
 21
185.0931150000001
 31
0.0
  0
LINE
  5
2BA
330
1F
100
AcDbEntity
  8
9
  6
Continuous
 62
     7
370
    35
100
AcDbLine
 10
160.3163422330031
 20
186.093115
 30
0.0
 11
159.1392912498786
 21
186.093115
 31
0.0
  0
LINE
  5
2BB
330
1F
100
AcDbEntity
  8
9
  6
Continuous
 62
     7
370
    35
100
AcDbLine
 10
159.1392912498786
 20
186.093115
 30
0.0
 11
159.1392912498786
 21
187.270165983125
 31
0.0
  0
ARC
  5
2BC
330
1F
100
AcDbEntity
  8
9
  6
Continuous
 62
     7
370
    35
100
AcDbCircle
 10
158.6392912498782
 20
185.5931150000001
 30
0.0
 40
1.75
100
AcDbArc
 50
163.3984504009782
 51
196.6015495990215
  0
ARC
  5
2BD
330
1F
100
AcDbEntity
  8
9
  6
Continuous
 62
     7
370
    35
100
AcDbCircle
 10
158.6392912498782
 20
185.5931150000001
 30
0.0
 40
1.75
100
AcDbArc
 50
253.3984504009789
 51
286.6015495990275
  0
ARC
  5
2BE
330
1F
100
AcDbEntity
  8
9
  6
Continuous
 62
     7
370
    35
100
AcDbCircle
 10
158.6392912498782
 20
185.5931150000001
 30
0.0
 40
1.75
100
AcDbArc
 50
343.3984504009799
 51
16.60154959901969
  0
ARC
  5
2BF
330
1F
100
AcDbEntity
  8
9
  6
Continuous
 62
     7
370
    35
100
AcDbCircle
 10
158.6392912498782
 20
273.5931150000001
 30
0.0
 40
1.75
100
AcDbArc
 50
73.39845040097212
 51
106.6015495990208
  0
LINE
  5
2C0
330
1F
100
AcDbEntity
  8
9
  6
Continuous
 62
     7
370
    35
100
AcDbLine
 10
158.1392912498786
 20
275.270165983125
 30
0.0
 11
158.1392912498786
 21
274.093115
 31
0.0
  0
LINE
  5
2C1
330
1F
100
AcDbEntity
  8
9
  6
Continuous
 62
     7
370
    35
100
AcDbLine
 10
158.1392912498786
 20
274.093115
 30
0.0
 11
156.9622402667533
 21
274.093115
 31
0.0
  0
LINE
  5
2C2
330
1F
100
AcDbEntity
  8
9
  6
Continuous
 62
     7
370
    35
100
AcDbLine
 10
156.9622402667533
 20
273.0931150000001
 30
0.0
 11
158.1392912498786
 21
273.0931150000001
 31
0.0
  0
LINE
  5
2C3
330
1F
100
AcDbEntity
  8
9
  6
Continuous
 62
     7
370
    35
100
AcDbLine
 10
158.1392912498786
 20
273.0931150000001
 30
0.0
 11
158.1392912498786
 21
271.9160640168755
 31
0.0
  0
LINE
  5
2C4
330
1F
100
AcDbEntity
  8
9
  6
Continuous
 62
     7
370
    35
100
AcDbLine
 10
159.1392912498786
 20
271.9160640168752
 30
0.0
 11
159.1392912498786
 21
273.0931150000001
 31
0.0
  0
LINE
  5
2C5
330
1F
100
AcDbEntity
  8
9
  6
Continuous
 62
     7
370
    35
100
AcDbLine
 10
159.1392912498786
 20
273.0931150000001
 30
0.0
 11
160.3163422330031
 21
273.0931150000001
 31
0.0
  0
LINE
  5
2C6
330
1F
100
AcDbEntity
  8
9
  6
Continuous
 62
     7
370
    35
100
AcDbLine
 10
160.3163422330031
 20
274.093115
 30
0.0
 11
159.1392912498786
 21
274.093115
 31
0.0
  0
LINE
  5
2C7
330
1F
100
AcDbEntity
  8
9
  6
Continuous
 62
     7
370
    35
100
AcDbLine
 10
159.1392912498786
 20
274.093115
 30
0.0
 11
159.1392912498786
 21
275.270165983125
 31
0.0
  0
ARC
  5
2C8
330
1F
100
AcDbEntity
  8
9
  6
Continuous
 62
     7
370
    35
100
AcDbCircle
 10
158.6392912498782
 20
273.5931150000001
 30
0.0
 40
1.75
100
AcDbArc
 50
163.3984504009782
 51
196.6015495990215
  0
ARC
  5
2C9
330
1F
100
AcDbEntity
  8
9
  6
Continuous
 62
     7
370
    35
100
AcDbCircle
 10
158.6392912498782
 20
273.5931150000001
 30
0.0
 40
1.75
100
AcDbArc
 50
253.3984504009789
 51
286.6015495990275
  0
ARC
  5
2CA
330
1F
100
AcDbEntity
  8
9
  6
Continuous
 62
     7
370
    35
100
AcDbCircle
 10
158.6392912498782
 20
273.5931150000001
 30
0.0
 40
1.75
100
AcDbArc
 50
343.3984504009799
 51
16.60154959901969
  0
ARC
  5
2CB
330
1F
100
AcDbEntity
  8
9
  6
Continuous
 62
     7
370
    35
100
AcDbCircle
 10
259.9400457996458
 20
185.593115
 30
0.0
 40
1.840933641609638
100
AcDbArc
 50
292.5650481684108
 51
67.43495183154283
  0
ARC
  5
2CC
330
1F
100
AcDbEntity
  8
9
  6
Continuous
 62
     7
370
    35
100
AcDbCircle
 10
259.9400457996458
 20
273.5931150000002
 30
0.0
 40
1.840933641609638
100
AcDbArc
 50
292.5650481684108
 51
67.43495183154283
  0
ARC
  5
2CD
330
1F
100
AcDbEntity
  8
9
  6
Continuous
 62
     7
370
    35
100
AcDbCircle
 10
520.6392902498787
 20
400.083221597669
 30
0.0
 40
1.840933641609638
100
AcDbArc
 50
22.56504816841118
 51
157.4349518315442
  0
ARC
  5
2CE
330
1F
100
AcDbEntity
  8
9
  6
Continuous
 62
     7
370
    35
100
AcDbCircle
 10
432.6392902498785
 20
400.083221597669
 30
0.0
 40
1.840933641609638
100
AcDbArc
 50
22.56504816841118
 51
157.4349518315442
  0
ARC
  5
2CF
330
1F
100
AcDbEntity
  8
9
  6
Continuous
 62
     7
370
    35
100
AcDbCircle
 10
158.6392912498786
 20
400.0832215976689
 30
0.0
 40
1.840933641609638
100
AcDbArc
 50
22.56504816841771
 51
157.4349518315377
  0
ARC
  5
2D0
330
1F
100
AcDbEntity
  8
9
  6
Continuous
 62
     7
370
    35
100
AcDbCircle
 10
70.6392912498784
 20
400.0832215976689
 30
0.0
 40
1.840933641609638
100
AcDbArc
 50
22.56504816841771
 51
157.4349518315377
  0
ARC
  5
2D1
330
1F
100
AcDbEntity
  8
4
  6
PHANTOM
 62
     2
370
    25
100
AcDbCircle
 10
416.2392902498786
 20
240.1932481247462
 30
0.0
 40
2.0
100
AcDbArc
 50
314.9999999999905
 51
0.0
  0
LINE
  5
2D2
330
1F
100
AcDbEntity
  8
4
  6
PHANTOM
 62
     2
370
    25
100
AcDbLine
 10
417.6535038122515
 20
238.7790345623729
 30
0.0
 11
417.0392902498786
 21
238.164821
 31
0.0
  0
LINE
  5
2D3
330
1F
100
AcDbEntity
  8
4
  6
PHANTOM
 62
     2
370
    25
100
AcDbLine
 10
418.2392902498786
 20
242.336393875254
 30
0.0
 11
418.2392902498786
 21
240.1932481247462
 31
0.0
  0
ARC
  5
2D4
330
1F
100
AcDbEntity
  8
4
  6
PHANTOM
 62
     2
370
    25
100
AcDbCircle
 10
418.6392902498787
 20
245.5932481247463
 30
0.0
 40
2.0
100
AcDbArc
 50
179.9999999999998
 51
224.9999999999951
  0
LINE
  5
2D5
330
1F
100
AcDbEntity
  8
4
  6
PHANTOM
 62
     2
370
    25
100
AcDbLine
 10
417.2250766875056
 20
244.1790345623734
 30
0.0
 11
417.6535038122518
 21
243.7506074376271
 31
0.0
  0
ARC
  5
2D6
330
1F
100
AcDbEntity
  8
4
  6
PHANTOM
 62
     2
370
    25
100
AcDbCircle
 10
416.2392902498786
 20
242.336393875254
 30
0.0
 40
2.0
100
AcDbArc
 50
0.0
 51
44.9999999999954
  0
ARC
  5
2D7
330
1F
100
AcDbEntity
  8
4
  6
PHANTOM
 62
     2
370
    25
100
AcDbCircle
 10
459.0392902498786
 20
240.1932481247463
 30
0.0
 40
2.0
100
AcDbArc
 50
179.9999999999998
 51
225.0000000000042
  0
ARC
  5
2D8
330
1F
100
AcDbEntity
  8
4
  6
PHANTOM
 62
     2
370
    25
100
AcDbCircle
 10
459.0392902498786
 20
242.3363938752541
 30
0.0
 40
2.0
100
AcDbArc
 50
135.0000000000092
 51
179.9999999999998
  0
LINE
  5
2D9
330
1F
100
AcDbEntity
  8
4
  6
PHANTOM
 62
     2
370
    25
100
AcDbLine
 10
457.0392902498786
 20
242.3363938752541
 30
0.0
 11
457.0392902498786
 21
240.1932481247463
 31
0.0
  0
LINE
  5
2DA
330
1F
100
AcDbEntity
  8
4
  6
PHANTOM
 62
     2
370
    25
100
AcDbLine
 10
457.6250766875055
 20
238.779034562373
 30
0.0
 11
458.2392902498784
 21
238.1648210000001
 31
0.0
  0
LINE
  5
2DB
330
1F
100
AcDbEntity
  8
4
  6
PHANTOM
 62
     2
370
    25
100
AcDbLine
 10
458.0535038122516
 20
244.1790345623735
 30
0.0
 11
457.6250766875053
 21
243.7506074376272
 31
0.0
  0
ARC
  5
2DC
330
1F
100
AcDbEntity
  8
4
  6
PHANTOM
 62
     2
370
    25
100
AcDbCircle
 10
456.6392902498783
 20
245.5932481247464
 30
0.0
 40
2.0
100
AcDbArc
 50
315.0000000000043
 51
0.0
  0
LINE
  5
2DD
330
1F
100
AcDbEntity
  8
4
  6
PHANTOM
 62
     2
370
    25
100
AcDbLine
 10
492.8892902498787
 20
148.7148210000003
 30
0.0
 11
498.8892902498787
 21
148.7148210000003
 31
0.0
  0
ARC
  5
2DE
330
1F
100
AcDbEntity
  8
4
  6
PHANTOM
 62
     2
370
    25
100
AcDbCircle
 10
492.3892902498785
 20
235.3310642702595
 30
0.0
 40
0.5
100
AcDbArc
 50
0.0
 51
60.00000000000271
  0
LINE
  5
2DF
330
1F
100
AcDbEntity
  8
4
  6
PHANTOM
 62
     2
370
    25
100
AcDbLine
 10
491.9665624490683
 20
243.0806797793164
 30
0.0
 11
495.6392902498785
 21
240.9602293948583
 31
0.0
  0
ARC
  5
2E0
330
1F
100
AcDbEntity
  8
4
  6
PHANTOM
 62
     2
370
    25
100
AcDbCircle
 10
492.3892902498785
 20
235.3310642702595
 30
0.0
 40
6.5
100
AcDbArc
 50
0.0
 51
59.99999999999797
  0
LINE
  5
2E1
330
1F
100
AcDbEntity
  8
4
  6
PHANTOM
 62
     2
370
    25
100
AcDbLine
 10
482.9665624490683
 20
243.0806797793164
 30
0.0
 11
476.8892902498785
 21
246.5893945194573
 31
0.0
  0
ARC
  5
2E2
330
1F
100
AcDbEntity
  8
4
  6
PHANTOM
 62
     2
370
    25
100
AcDbCircle
 10
479.3892902498785
 20
250.9195215383795
 30
0.0
 40
2.0
100
AcDbArc
 50
179.9999999999998
 51
239.9999999999991
  0
ARC
  5
2E3
330
1F
100
AcDbEntity
  8
4
  6
PHANTOM
 62
     2
370
    25
100
AcDbCircle
 10
479.3892902498785
 20
250.9195215383795
 30
0.0
 40
5.0
100
AcDbArc
 50
179.9999999999998
 51
239.9999999999985
  0
LINE
  5
2E4
330
1F
100
AcDbEntity
  8
4
  6
PHANTOM
 62
     2
370
    25
100
AcDbLine
 10
477.3892902498785
 20
279.7648210000002
 30
0.0
 11
474.3892902498785
 21
279.7648210000002
 31
0.0
  0
LINE
  5
2E5
330
1F
100
AcDbEntity
  8
4
  6
PHANTOM
 62
     2
370
    25
100
AcDbLine
 10
477.3892902498785
 20
279.7648210000002
 30
0.0
 11
477.3892902498785
 21
250.9195215383795
 31
0.0
  0
LINE
  5
2E6
330
1F
100
AcDbEntity
  8
4
  6
PHANTOM
 62
     2
370
    25
100
AcDbLine
 10
479.9665624490683
 20
243.0806797793164
 30
0.0
 11
492.6392902498785
 21
235.7640769721518
 31
0.0
  0
LINE
  5
2E7
330
1F
100
AcDbEntity
  8
4
  6
PHANTOM
 62
     2
370
    25
100
AcDbLine
 10
491.9665624490683
 20
243.0806797793164
 30
0.0
 11
479.9665624490683
 21
243.0806797793164
 31
0.0
  0
LINE
  5
2E8
330
1F
100
AcDbEntity
  8
4
  6
PHANTOM
 62
     2
370
    25
100
AcDbLine
 10
488.9665624490681
 20
243.0806797793164
 30
0.0
 11
478.3892902498785
 21
249.1874707308107
 31
0.0
  0
LINE
  5
2E9
330
1F
100
AcDbEntity
  8
4
  6
PHANTOM
 62
     2
370
    25
100
AcDbLine
 10
498.8892902498785
 20
235.3310642702595
 30
0.0
 11
498.8892902498787
 21
148.7148210000003
 31
0.0
  0
LINE
  5
2EA
330
1F
100
AcDbEntity
  8
4
  6
PHANTOM
 62
     2
370
    25
100
AcDbLine
 10
492.8892902498785
 20
235.3310642702595
 30
0.0
 11
492.8892902498787
 21
148.7148210000003
 31
0.0
  0
ARC
  5
2EB
330
1F
100
AcDbEntity
  8
4
  6
PHANTOM
 62
     2
370
    25
100
AcDbCircle
 10
455.6763122498785
 20
231.04231
 30
0.0
 40
5.488855000000001
100
AcDbArc
 50
242.1640190000002
 51
297.835980999997
  0
LINE
  5
2EC
330
1F
100
AcDbEntity
  8
4
  6
PHANTOM
 62
     2
370
    25
100
AcDbLine
 10
456.6392902498785
 20
225.2648210000002
 30
0.0
 11
458.2392902498786
 21
226.1885809999999
 31
0.0
  0
ARC
  5
2ED
330
1F
100
AcDbEntity
  8
4
  6
PHANTOM
 62
     2
370
    25
100
AcDbCircle
 10
455.6763122498785
 20
235.7291860000003
 30
0.0
 40
3.535698999999994
100
AcDbArc
 50
43.54067200000482
 51
136.4593279999977
  0
LINE
  5
2EE
330
1F
100
AcDbEntity
  8
4
  6
PHANTOM
 62
     2
370
    25
100
AcDbLine
 10
453.1133352498787
 20
226.1885809999999
 30
0.0
 11
453.1133352498787
 21
238.1648210000001
 31
0.0
  0
LINE
  5
2EF
330
1F
100
AcDbEntity
  8
4
  6
PHANTOM
 62
     2
370
    25
100
AcDbLine
 10
458.2392902498786
 20
226.1885809999999
 30
0.0
 11
458.2392902498786
 21
238.1648210000001
 31
0.0
  0
LINE
  5
2F0
330
1F
100
AcDbEntity
  8
4
  6
PHANTOM
 62
     2
370
    25
100
AcDbLine
 10
479.3892902498783
 20
267.3808460000002
 30
0.0
 11
477.3892902498785
 21
263.9167440000001
 31
0.0
  0
ARC
  5
2F1
330
1F
100
AcDbEntity
  8
4
  6
PHANTOM
 62
     2
370
    25
100
AcDbCircle
 10
491.8087332498785
 20
264.7648210000002
 30
0.0
 40
12.419443
100
AcDbArc
 50
162.4120460000006
 51
197.5879539999991
  0
ARC
  5
2F2
330
1F
100
AcDbEntity
  8
4
  6
PHANTOM
 62
     2
370
    25
100
AcDbCircle
 10
471.9698462498786
 20
264.7648210000002
 30
0.0
 40
12.419443
100
AcDbArc
 50
342.4120459999999
 51
17.58795399999974
  0
LINE
  5
2F3
330
1F
100
AcDbEntity
  8
4
  6
PHANTOM
 62
     2
370
    25
100
AcDbLine
 10
484.3892902498783
 20
258.2648210000002
 30
0.0
 11
484.3892902498783
 21
271.2648210000002
 31
0.0
  0
LINE
  5
2F4
330
1F
100
AcDbEntity
  8
4
  6
PHANTOM
 62
     2
370
    25
100
AcDbLine
 10
479.9698462498784
 20
268.5175970000003
 30
0.0
 11
483.8087332498785
 21
268.5175970000003
 31
0.0
  0
LINE
  5
2F5
330
1F
100
AcDbEntity
  8
4
  6
PHANTOM
 62
     2
370
    25
100
AcDbLine
 10
484.3892902498783
 20
268.7648210000002
 30
0.0
 11
486.0392902498784
 21
268.7648210000002
 31
0.0
  0
LINE
  5
2F6
330
1F
100
AcDbEntity
  8
4
  6
PHANTOM
 62
     2
370
    25
100
AcDbLine
 10
486.7392902498784
 20
268.0648210000004
 30
0.0
 11
484.3892902498783
 21
268.0648210000004
 31
0.0
  0
LINE
  5
2F7
330
1F
100
AcDbEntity
  8
4
  6
PHANTOM
 62
     2
370
    25
100
AcDbLine
 10
486.0392902498784
 20
268.7648210000002
 30
0.0
 11
487.0392902498784
 21
267.7648210000002
 31
0.0
  0
LINE
  5
2F8
330
1F
100
AcDbEntity
  8
4
  6
PHANTOM
 62
     2
370
    25
100
AcDbLine
 10
479.3892902498783
 20
257.0648210000002
 30
0.0
 11
477.3892902498785
 21
257.0648210000002
 31
0.0
  0
LINE
  5
2F9
330
1F
100
AcDbEntity
  8
4
  6
PHANTOM
 62
     2
370
    25
100
AcDbLine
 10
479.9698462498784
 20
257.2592670000001
 30
0.0
 11
483.8087332498785
 21
257.2592670000001
 31
0.0
  0
LINE
  5
2FA
330
1F
100
AcDbEntity
  8
4
  6
PHANTOM
 62
     2
370
    25
100
AcDbLine
 10
479.3892902498783
 20
258.2648210000002
 30
0.0
 11
479.9698462498784
 21
257.2592670000001
 31
0.0
  0
LINE
  5
2FB
330
1F
100
AcDbEntity
  8
4
  6
PHANTOM
 62
     2
370
    25
100
AcDbLine
 10
484.3892902498783
 20
258.2648210000002
 30
0.0
 11
483.8087332498785
 21
257.2592670000001
 31
0.0
  0
LINE
  5
2FC
330
1F
100
AcDbEntity
  8
4
  6
PHANTOM
 62
     2
370
    25
100
AcDbLine
 10
479.3892902498783
 20
265.3808460000002
 30
0.0
 11
477.3892902498785
 21
261.9167440000001
 31
0.0
  0
LINE
  5
2FD
330
1F
100
AcDbEntity
  8
4
  6
PHANTOM
 62
     2
370
    25
100
AcDbLine
 10
479.9698462498784
 20
261.0120440000005
 30
0.0
 11
483.8087332498785
 21
261.0120440000005
 31
0.0
  0
ARC
  5
2FE
330
1F
100
AcDbEntity
  8
4
  6
PHANTOM
 62
     2
370
    25
100
AcDbCircle
 10
482.7118592498784
 20
259.1356550000003
 30
0.0
 40
3.322569999999985
100
AcDbArc
 50
145.6157530000059
 51
214.3842469999938
  0
ARC
  5
2FF
330
1F
100
AcDbEntity
  8
4
  6
PHANTOM
 62
     2
370
    25
100
AcDbCircle
 10
481.0667202498782
 20
259.1356550000003
 30
0.0
 40
3.322569999999985
100
AcDbArc
 50
325.6157530000055
 51
34.38424699999413
  0
LINE
  5
300
330
1F
100
AcDbEntity
  8
4
  6
PHANTOM
 62
     2
370
    25
100
AcDbLine
 10
484.3892902498783
 20
260.7648210000002
 30
0.0
 11
486.0392902498784
 21
260.7648210000002
 31
0.0
  0
LINE
  5
301
330
1F
100
AcDbEntity
  8
4
  6
PHANTOM
 62
     2
370
    25
100
AcDbLine
 10
486.7392902498784
 20
261.4648210000003
 30
0.0
 11
484.3892902498783
 21
261.4648210000003
 31
0.0
  0
LINE
  5
302
330
1F
100
AcDbEntity
  8
4
  6
PHANTOM
 62
     2
370
    25
100
AcDbLine
 10
486.0392902498784
 20
260.7648210000002
 30
0.0
 11
487.0392902498784
 21
261.7648210000002
 31
0.0
  0
LINE
  5
303
330
1F
100
AcDbEntity
  8
4
  6
PHANTOM
 62
     2
370
    25
100
AcDbLine
 10
479.3892902498783
 20
272.4648210000005
 30
0.0
 11
477.3892902498785
 21
272.4648210000005
 31
0.0
  0
LINE
  5
304
330
1F
100
AcDbEntity
  8
4
  6
PHANTOM
 62
     2
370
    25
100
AcDbLine
 10
479.9698462498784
 20
272.2703740000002
 30
0.0
 11
483.8087332498785
 21
272.2703740000002
 31
0.0
  0
LINE
  5
305
330
1F
100
AcDbEntity
  8
4
  6
PHANTOM
 62
     2
370
    25
100
AcDbLine
 10
479.3892902498783
 20
257.0648210000002
 30
0.0
 11
479.3892902498783
 21
272.4648210000005
 31
0.0
  0
ARC
  5
306
330
1F
100
AcDbEntity
  8
4
  6
PHANTOM
 62
     2
370
    25
100
AcDbCircle
 10
482.7118592498784
 20
270.3939860000003
 30
0.0
 40
3.322569999999985
100
AcDbArc
 50
145.6157530000059
 51
214.3842469999938
  0
ARC
  5
307
330
1F
100
AcDbEntity
  8
4
  6
PHANTOM
 62
     2
370
    25
100
AcDbCircle
 10
481.0667202498782
 20
270.3939860000003
 30
0.0
 40
3.322569999999985
100
AcDbArc
 50
325.6157530000055
 51
34.38424699999413
  0
LINE
  5
308
330
1F
100
AcDbEntity
  8
4
  6
PHANTOM
 62
     2
370
    25
100
AcDbLine
 10
479.3892902498783
 20
271.2648210000002
 30
0.0
 11
479.9698462498784
 21
272.2703740000002
 31
0.0
  0
LINE
  5
309
330
1F
100
AcDbEntity
  8
4
  6
PHANTOM
 62
     2
370
    25
100
AcDbLine
 10
484.3892902498783
 20
271.2648210000002
 30
0.0
 11
483.8087332498785
 21
272.2703740000002
 31
0.0
  0
LINE
  5
30A
330
1F
100
AcDbEntity
  8
4
  6
PHANTOM
 62
     2
370
    25
100
AcDbLine
 10
473.3892902498785
 20
255.7648210000002
 30
0.0
 11
474.3892902498785
 21
255.7648210000002
 31
0.0
  0
LINE
  5
30B
330
1F
100
AcDbEntity
  8
4
  6
PHANTOM
 62
     2
370
    25
100
AcDbLine
 10
473.3892902498785
 20
273.7648210000002
 30
0.0
 11
474.3892902498785
 21
273.7648210000002
 31
0.0
  0
SPLINE
  5
30C
330
1F
100
AcDbEntity
  8
4
  6
PHANTOM
 62
     2
370
    25
100
AcDbSpline
210
0.0
220
0.0
230
1.0
 70
    12
 71
     3
 72
     8
 73
     4
 74
     0
 42
0.000000001
 43
0.0000002
 40
5.526513857442444
 40
5.526513857442444
 40
5.526513857442444
 40
5.526513857442444
 40
10.80205680575085
 40
10.80205680575085
 40
10.80205680575085
 40
10.80205680575085
 10
458.7338864644196
 20
270.0143738459622
 30
0.0
 41
1.0
 10
458.3005053389109
 20
268.2842742186649
 30
0.0
 41
1.0
 10
458.0618143696452
 20
266.5163634306059
 30
0.0
 41
1.0
 10
458.1026720397799
 20
264.7648205153992
 30
0.0
 41
1.0
  0
ARC
  5
30D
330
1F
100
AcDbEntity
  8
4
  6
PHANTOM
 62
     2
370
    25
100
AcDbCircle
 10
463.8892902498785
 20
254.2648210000002
 30
0.0
 40
1.0
100
AcDbArc
 50
89.99999999999991
 51
150.0000000000027
  0
SPLINE
  5
30E
330
1F
100
AcDbEntity
  8
4
  6
PHANTOM
 62
     2
370
    25
100
AcDbSpline
210
0.0
220
0.0
230
1.0
 70
    12
 71
     3
 72
     8
 73
     4
 74
     0
 42
0.000000001
 43
0.0000002
 40
1.210314090895789
 40
1.210314090895789
 40
1.210314090895789
 40
1.210314090895789
 40
10.80205680575085
 40
10.80205680575085
 40
10.80205680575085
 40
10.80205680575085
 10
460.1420910450183
 20
255.3744106399126
 30
0.0
 41
1.0
 10
458.8781992177483
 20
258.3415685768741
 30
0.0
 41
1.0
 10
458.0283865560482
 20
261.5802480152215
 30
0.0
 41
1.0
 10
458.1026720397799
 20
264.7648205153992
 30
0.0
 41
1.0
  0
ARC
  5
30F
330
1F
100
AcDbEntity
  8
4
  6
PHANTOM
 62
     2
370
    25
100
AcDbCircle
 10
462.1572392498786
 20
255.2648210000002
 30
0.0
 40
1.0
100
AcDbArc
 50
269.9999999999998
 51
329.9999999999959
  0
LINE
  5
310
330
1F
100
AcDbEntity
  8
4
  6
PHANTOM
 62
     2
370
    25
100
AcDbLine
 10
462.1572392498786
 20
254.2648210000002
 30
0.0
 11
461.8917392498784
 21
254.2648210000002
 31
0.0
  0
LINE
  5
311
330
1F
100
AcDbEntity
  8
4
  6
PHANTOM
 62
     2
370
    25
100
AcDbLine
 10
459.2250762498786
 20
252.3506070000003
 30
0.0
 11
460.0535032498785
 21
253.1790340000002
 31
0.0
  0
ARC
  5
312
330
1F
100
AcDbEntity
  8
4
  6
PHANTOM
 62
     2
370
    25
100
AcDbCircle
 10
460.6392902498783
 20
250.9363930000004
 30
0.0
 40
2.0
100
AcDbArc
 50
135.0000000000046
 51
179.9999999999998
  0
ARC
  5
313
330
1F
100
AcDbEntity
  8
4
  6
PHANTOM
 62
     2
370
    25
100
AcDbCircle
 10
458.6392902498785
 20
254.5932480000001
 30
0.0
 40
2.0
100
AcDbArc
 50
314.9999999999951
 51
324.4011410000004
  0
ARC
  5
314
330
1F
100
AcDbEntity
  8
4
  6
PHANTOM
 62
     2
370
    25
100
AcDbCircle
 10
461.8917392498786
 20
252.2648210000002
 30
0.0
 40
2.0
100
AcDbArc
 50
90.00000000000651
 51
144.4011410000046
  0
ARC
  5
315
330
1F
100
AcDbEntity
  8
4
  6
PHANTOM
 62
     2
370
    25
100
AcDbCircle
 10
463.3892902498785
 20
277.4419450000003
 30
0.0
 40
2.0
100
AcDbArc
 50
138.5903779999992
 51
179.9999999999998
  0
ARC
  5
316
330
1F
100
AcDbEntity
  8
4
  6
PHANTOM
 62
     2
370
    25
100
AcDbCircle
 10
460.3892902498785
 20
280.0876960000005
 30
0.0
 40
2.0
100
AcDbArc
 50
318.5903779999898
 51
0.0
  0
ARC
  5
317
330
1F
100
AcDbEntity
  8
4
  6
PHANTOM
 62
     2
370
    25
100
AcDbCircle
 10
461.3892902498785
 20
284.7648210000002
 30
0.0
 40
1.0
100
AcDbArc
 50
0.0
 51
89.99999999999991
  0
ARC
  5
318
330
1F
100
AcDbEntity
  8
4
  6
PHANTOM
 62
     2
370
    25
100
AcDbCircle
 10
460.2392902498784
 20
287.7648210000002
 30
0.0
 40
2.0
100
AcDbArc
 50
179.9999999999998
 51
269.9999999999998
  0
ARC
  5
319
330
1F
100
AcDbEntity
  8
4
  6
PHANTOM
 62
     2
370
    25
100
AcDbCircle
 10
463.8892902498785
 20
275.2648210000002
 30
0.0
 40
1.0
100
AcDbArc
 50
209.9999999999969
 51
269.9999999999998
  0
LINE
  5
31A
330
1F
100
AcDbEntity
  8
4
  6
PHANTOM
 62
     2
370
    25
100
AcDbLine
 10
461.3892902498785
 20
277.4419450000003
 30
0.0
 11
461.3892902498785
 21
277.0001540000003
 31
0.0
  0
ARC
  5
31B
330
1F
100
AcDbEntity
  8
4
  6
PHANTOM
 62
     2
370
    25
100
AcDbCircle
 10
462.1572392498786
 20
274.2648210000002
 30
0.0
 40
1.0
100
AcDbArc
 50
30.0000000000038
 51
65.75221500001156
  0
ARC
  5
31C
330
1F
100
AcDbEntity
  8
4
  6
PHANTOM
 62
     2
370
    25
100
AcDbCircle
 10
463.3892902498785
 20
277.0001540000003
 30
0.0
 40
2.0
100
AcDbArc
 50
179.9999999999998
 51
245.7522150000026
  0
SPLINE
  5
31D
330
1F
100
AcDbEntity
  8
4
  6
PHANTOM
 62
     2
370
    25
100
AcDbSpline
210
0.0
220
0.0
230
1.0
 70
    12
 71
     3
 72
     8
 73
     4
 74
     0
 42
0.000000001
 43
0.0000002
 40
0.5678758884252421
 40
0.5678758884252421
 40
0.5678758884252421
 40
0.5678758884252421
 40
3.08188610348608
 40
3.08188610348608
 40
3.08188610348608
 40
3.08188610348608
 10
461.1920287580942
 20
274.7309606066958
 30
0.0
 41
1.0
 10
460.9021892668184
 20
273.940832975607
 30
0.0
 41
1.0
 10
460.6189785697293
 20
273.1406140608833
 30
0.0
 41
1.0
 10
460.3566307309234
 20
272.332742811619
 30
0.0
 41
1.0
  0
ARC
  5
31E
330
1F
100
AcDbEntity
  8
4
  6
PHANTOM
 62
     2
370
    25
100
AcDbCircle
 10
458.6691242498785
 20
273.0522200000005
 30
0.0
 40
1.834482000000008
100
AcDbArc
 50
283.0090819999984
 51
336.9087819999969
  0
LINE
  5
31F
330
1F
100
AcDbEntity
  8
4
  6
PHANTOM
 62
     2
370
    25
100
AcDbLine
 10
473.3892902498785
 20
274.2648210000002
 30
0.0
 11
463.8892902498785
 21
274.2648210000002
 31
0.0
  0
LINE
  5
320
330
1F
100
AcDbEntity
  8
4
  6
PHANTOM
 62
     2
370
    25
100
AcDbLine
 10
473.3892902498785
 20
255.2648210000002
 30
0.0
 11
463.8892902498785
 21
255.2648210000002
 31
0.0
  0
ARC
  5
321
330
1F
100
AcDbEntity
  8
4
  6
PHANTOM
 62
     2
370
    25
100
AcDbCircle
 10
455.6763122498783
 20
298.4873310000003
 30
0.0
 40
5.488855000000001
100
AcDbArc
 50
62.16401899999948
 51
117.8359810000005
  0
LINE
  5
322
330
1F
100
AcDbEntity
  8
4
  6
PHANTOM
 62
     2
370
    25
100
AcDbLine
 10
456.6392902498783
 20
304.2648210000002
 30
0.0
 11
458.2392902498784
 21
303.34106
 31
0.0
  0
LINE
  5
323
330
1F
100
AcDbEntity
  8
4
  6
PHANTOM
 62
     2
370
    25
100
AcDbLine
 10
458.2392902498784
 20
303.34106
 30
0.0
 11
458.2392902498784
 21
287.7648210000002
 31
0.0
  0
LINE
  5
324
330
1F
100
AcDbEntity
  8
4
  6
PHANTOM
 62
     2
370
    25
100
AcDbLine
 10
453.1133352498784
 20
303.34106
 30
0.0
 11
453.1133352498784
 21
287.7648210000002
 31
0.0
  0
LINE
  5
325
330
1F
100
AcDbEntity
  8
4
  6
PHANTOM
 62
     2
370
    25
100
AcDbLine
 10
458.6392902498785
 20
250.9363930000004
 30
0.0
 11
458.6392902498785
 21
245.5932480000001
 31
0.0
  0
LINE
  5
326
330
1F
100
AcDbEntity
  8
4
  6
PHANTOM
 62
     2
370
    25
100
AcDbLine
 10
451.2375962498786
 20
226.1885809999999
 30
0.0
 11
451.2375962498786
 21
238.1648210000001
 31
0.0
  0
LINE
  5
327
330
1F
100
AcDbEntity
  8
4
  6
PHANTOM
 62
     2
370
    25
100
AcDbLine
 10
438.9656382498786
 20
226.1885809999999
 30
0.0
 11
438.9656382498786
 21
238.1648210000001
 31
0.0
  0
LINE
  5
328
330
1F
100
AcDbEntity
  8
4
  6
PHANTOM
 62
     2
370
    25
100
AcDbLine
 10
436.3129422498785
 20
226.1885809999998
 30
0.0
 11
436.3129422498785
 21
238.164821
 31
0.0
  0
ARC
  5
329
330
1F
100
AcDbEntity
  8
4
  6
PHANTOM
 62
     2
370
    25
100
AcDbCircle
 10
445.1016172498785
 20
255.5129150000002
 30
0.0
 40
29.959419
100
AcDbArc
 50
258.1816420000001
 51
281.8183579999988
  0
ARC
  5
32A
330
1F
100
AcDbEntity
  8
4
  6
PHANTOM
 62
     2
370
    25
100
AcDbCircle
 10
445.1016172498785
 20
221.6010750000003
 30
0.0
 40
17.66374500000001
100
AcDbArc
 50
69.67303499999836
 51
110.3269650000016
  0
LINE
  5
32B
330
1F
100
AcDbEntity
  8
4
  6
PHANTOM
 62
     2
370
    25
100
AcDbLine
 10
422.1652452498786
 20
226.1885809999998
 30
0.0
 11
424.0409842498786
 21
226.1885809999998
 31
0.0
  0
LINE
  5
32C
330
1F
100
AcDbEntity
  8
4
  6
PHANTOM
 62
     2
370
    25
100
AcDbLine
 10
422.1652452498786
 20
238.164821
 30
0.0
 11
424.0409842498786
 21
238.164821
 31
0.0
  0
LINE
  5
32D
330
1F
100
AcDbEntity
  8
4
  6
PHANTOM
 62
     2
370
    25
100
AcDbLine
 10
422.1652452498786
 20
226.1885809999998
 30
0.0
 11
422.1652452498786
 21
238.164821
 31
0.0
  0
LINE
  5
32E
330
1F
100
AcDbEntity
  8
4
  6
PHANTOM
 62
     2
370
    25
100
AcDbLine
 10
424.0409842498786
 20
226.1885809999998
 30
0.0
 11
424.0409842498786
 21
238.164821
 31
0.0
  0
LINE
  5
32F
330
1F
100
AcDbEntity
  8
4
  6
PHANTOM
 62
     2
370
    25
100
AcDbLine
 10
417.0392902498786
 20
226.1885809999998
 30
0.0
 11
417.0392902498786
 21
238.164821
 31
0.0
  0
LINE
  5
330
330
1F
100
AcDbEntity
  8
4
  6
PHANTOM
 62
     2
370
    25
100
AcDbLine
 10
418.6392902498785
 20
225.2648210000001
 30
0.0
 11
417.0392902498786
 21
226.1885809999998
 31
0.0
  0
ARC
  5
331
330
1F
100
AcDbEntity
  8
4
  6
PHANTOM
 62
     2
370
    25
100
AcDbCircle
 10
419.6022672498787
 20
231.0423099999999
 30
0.0
 40
5.488855000000001
100
AcDbArc
 50
242.1640190000002
 51
297.835980999999
  0
ARC
  5
332
330
1F
100
AcDbEntity
  8
4
  6
PHANTOM
 62
     2
370
    25
100
AcDbCircle
 10
419.6022672498787
 20
235.7291860000001
 30
0.0
 40
3.535698999999994
100
AcDbArc
 50
43.54067200000482
 51
136.4593279999952
  0
ARC
  5
333
330
1F
100
AcDbEntity
  8
4
  6
PHANTOM
 62
     2
370
    25
100
AcDbCircle
 10
430.1769632498786
 20
221.6010750000002
 30
0.0
 40
17.66374500000001
100
AcDbArc
 50
69.67303499999836
 51
110.3269650000016
  0
ARC
  5
334
330
1F
100
AcDbEntity
  8
4
  6
PHANTOM
 62
     2
370
    25
100
AcDbCircle
 10
430.1769632498786
 20
255.5129150000001
 30
0.0
 40
29.959419
100
AcDbArc
 50
258.1816420000001
 51
281.8183579999992
  0
MTEXT
  5
335
330
1F
100
AcDbEntity
  8
4
  6
PHANTOM
 62
     2
370
     9
100
AcDbMText
 10
432.6504942498786
 20
264.4405070000001
 30
0.0
 40
10.0
 41
3.0530012212
 71
     8
 72
     1
  1
{\fＭＳ Ｐゴシック;\W0.714286;1}
 11
1.615544574432587E-15
 21
-1.0
 31
0.0
 73
     1
 44
1.0
1001
ACAD
1000
ACAD_MTEXT_DEFINED_HEIGHT_BEGIN
1070
    46
1040
10.0
1000
ACAD_MTEXT_DEFINED_HEIGHT_END
  0
ARC
  5
336
330
1F
100
AcDbEntity
  8
4
  6
PHANTOM
 62
     2
370
    25
100
AcDbCircle
 10
445.1016172498785
 20
274.0167260000003
 30
0.0
 40
29.959419
100
AcDbArc
 50
78.18164200000088
 51
101.8183579999996
  0
LINE
  5
337
330
1F
100
AcDbEntity
  8
4
  6
PHANTOM
 62
     2
370
    25
100
AcDbLine
 10
438.9656382498786
 20
303.3410599999999
 30
0.0
 11
438.9656382498786
 21
287.7648210000001
 31
0.0
  0
LINE
  5
338
330
1F
100
AcDbEntity
  8
4
  6
PHANTOM
 62
     2
370
    25
100
AcDbLine
 10
436.3129422498785
 20
303.3410599999999
 30
0.0
 11
436.3129422498785
 21
287.7648210000001
 31
0.0
  0
LINE
  5
339
330
1F
100
AcDbEntity
  8
4
  6
PHANTOM
 62
     2
370
    25
100
AcDbLine
 10
451.2375962498786
 20
303.34106
 30
0.0
 11
451.2375962498786
 21
287.7648210000002
 31
0.0
  0
LINE
  5
33A
330
1F
100
AcDbEntity
  8
4
  6
PHANTOM
 62
     2
370
    25
100
AcDbLine
 10
414.6392902498785
 20
270.0008980000001
 30
0.0
 11
414.6392902498785
 21
254.593248
 31
0.0
  0
ARC
  5
33B
330
1F
100
AcDbEntity
  8
4
  6
PHANTOM
 62
     2
370
    25
100
AcDbCircle
 10
412.6392902498785
 20
270.0008980000001
 30
0.0
 40
2.0
100
AcDbArc
 50
0.0
 51
35.65908799999759
  0
LINE
  5
33C
330
1F
100
AcDbEntity
  8
4
  6
PHANTOM
 62
     2
370
    25
100
AcDbLine
 10
416.0535032498785
 20
252.3506070000002
 30
0.0
 11
415.2250762498786
 21
253.1790340000001
 31
0.0
  0
ARC
  5
33D
330
1F
100
AcDbEntity
  8
4
  6
PHANTOM
 62
     2
370
    25
100
AcDbCircle
 10
416.6392902498785
 20
254.593248
 30
0.0
 40
2.0
100
AcDbArc
 50
179.9999999999998
 51
225.0000000000042
  0
ARC
  5
33E
330
1F
100
AcDbEntity
  8
4
  6
PHANTOM
 62
     2
370
    25
100
AcDbCircle
 10
414.6392902498785
 20
250.9363930000003
 30
0.0
 40
2.0
100
AcDbArc
 50
0.0
 51
44.9999999999954
  0
ARC
  5
33F
330
1F
100
AcDbEntity
  8
4
  6
PHANTOM
 62
     2
370
    25
100
AcDbCircle
 10
411.8892902498785
 20
277.4419450000001
 30
0.0
 40
2.0
100
AcDbArc
 50
0.0
 51
41.40962200000074
  0
ARC
  5
340
330
1F
100
AcDbEntity
  8
4
  6
PHANTOM
 62
     2
370
    25
100
AcDbCircle
 10
415.0392902498786
 20
287.7648210000001
 30
0.0
 40
2.0
100
AcDbArc
 50
269.9999999999998
 51
0.0
  0
ARC
  5
341
330
1F
100
AcDbEntity
  8
4
  6
PHANTOM
 62
     2
370
    25
100
AcDbCircle
 10
414.8892902498785
 20
280.0876960000004
 30
0.0
 40
2.0
100
AcDbArc
 50
179.9999999999998
 51
221.4096220000096
  0
ARC
  5
342
330
1F
100
AcDbEntity
  8
4
  6
PHANTOM
 62
     2
370
    25
100
AcDbCircle
 10
413.8892902498785
 20
284.7648210000001
 30
0.0
 40
1.0
100
AcDbArc
 50
89.99999999999991
 51
179.9999999999998
  0
LINE
  5
343
330
1F
100
AcDbEntity
  8
4
  6
PHANTOM
 62
     2
370
    25
100
AcDbLine
 10
413.8892902498785
 20
277.4419450000001
 30
0.0
 11
413.8892902498785
 21
272.3327430000003
 31
0.0
  0
ARC
  5
344
330
1F
100
AcDbEntity
  8
4
  6
PHANTOM
 62
     2
370
    25
100
AcDbCircle
 10
415.8892902498785
 20
272.3327430000003
 30
0.0
 40
2.0
100
AcDbArc
 50
179.9999999999998
 51
215.6590880000063
  0
LINE
  5
345
330
1F
100
AcDbEntity
  8
4
  6
PHANTOM
 62
     2
370
    25
100
AcDbLine
 10
422.1652452498786
 20
303.3410599999999
 30
0.0
 11
424.0409842498786
 21
303.3410599999999
 31
0.0
  0
LINE
  5
346
330
1F
100
AcDbEntity
  8
4
  6
PHANTOM
 62
     2
370
    25
100
AcDbLine
 10
418.6392902498785
 20
304.2648210000001
 30
0.0
 11
417.0392902498784
 21
303.3410599999999
 31
0.0
  0
ARC
  5
347
330
1F
100
AcDbEntity
  8
4
  6
PHANTOM
 62
     2
370
    25
100
AcDbCircle
 10
419.6022672498787
 20
298.4873310000002
 30
0.0
 40
5.488855000000001
100
AcDbArc
 50
62.16401900000157
 51
117.8359810000005
  0
LINE
  5
348
330
1F
100
AcDbEntity
  8
4
  6
PHANTOM
 62
     2
370
    25
100
AcDbLine
 10
417.0392902498784
 20
303.3410599999999
 30
0.0
 11
417.0392902498784
 21
287.7648210000001
 31
0.0
  0
LINE
  5
349
330
1F
100
AcDbEntity
  8
4
  6
PHANTOM
 62
     2
370
    25
100
AcDbLine
 10
422.1652452498786
 20
303.3410599999999
 30
0.0
 11
422.1652452498786
 21
287.7648210000001
 31
0.0
  0
LINE
  5
34A
330
1F
100
AcDbEntity
  8
4
  6
PHANTOM
 62
     2
370
    25
100
AcDbLine
 10
424.0409842498786
 20
303.3410599999999
 30
0.0
 11
424.0409842498786
 21
287.7648210000001
 31
0.0
  0
ARC
  5
34B
330
1F
100
AcDbEntity
  8
4
  6
PHANTOM
 62
     2
370
    25
100
AcDbCircle
 10
430.1769632498786
 20
274.0167260000002
 30
0.0
 40
29.959419
100
AcDbArc
 50
78.18164200000047
 51
101.8183579999995
  0
LINE
  5
34C
330
1F
100
AcDbEntity
  8
4
  6
PHANTOM
 62
     2
370
    25
100
AcDbLine
 10
416.6392902498785
 20
250.9363930000003
 30
0.0
 11
416.6392902498785
 21
245.593248
 31
0.0
  0
LINE
  5
34D
330
1F
100
AcDbEntity
  8
4
  6
PHANTOM
 62
     2
370
    25
100
AcDbLine
 10
453.1133352498787
 20
226.1885809999999
 30
0.0
 11
451.2375962498786
 21
226.1885809999999
 31
0.0
  0
LINE
  5
34E
330
1F
100
AcDbEntity
  8
4
  6
PHANTOM
 62
     2
370
    25
100
AcDbLine
 10
453.1133352498787
 20
238.1648210000001
 30
0.0
 11
451.2375962498786
 21
238.1648210000001
 31
0.0
  0
LINE
  5
34F
330
1F
100
AcDbEntity
  8
4
  6
PHANTOM
 62
     2
370
    25
100
AcDbLine
 10
453.1133352498784
 20
303.34106
 30
0.0
 11
451.2375962498786
 21
303.34106
 31
0.0
  0
POLYLINE
  5
350
330
1F
100
AcDbEntity
  8
4
  6
PHANTOM
 62
     2
370
    25
100
AcDb2dPolyline
 66
     1
 10
0.0
 20
0.0
 30
0.0
  0
VERTEX
  5
351
330
350
100
AcDbEntity
  8
4
  6
PHANTOM
 62
     2
370
    25
100
AcDbVertex
100
AcDb2dVertex
 10
422.9773925802108
 20
225.2648210000001
 30
0.0
  0
VERTEX
  5
352
330
350
100
AcDbEntity
  8
4
  6
PHANTOM
 62
     2
370
    25
100
AcDbVertex
100
AcDb2dVertex
 10
422.7835169230254
 20
219.0934549462451
 30
0.0
  0
VERTEX
  5
353
330
350
100
AcDbEntity
  8
4
  6
PHANTOM
 62
     2
370
    25
100
AcDbVertex
100
AcDb2dVertex
 10
421.4151260015783
 20
217.1332398448486
 30
0.0
  0
SEQEND
  5
354
330
350
100
AcDbEntity
  8
4
  6
PHANTOM
 62
     2
370
    25
  0
POLYLINE
  5
355
330
1F
100
AcDbEntity
  8
4
  6
PHANTOM
 62
     2
370
    25
100
AcDb2dPolyline
 66
     1
 10
0.0
 20
0.0
 30
0.0
  0
VERTEX
  5
356
330
355
100
AcDbEntity
  8
4
  6
PHANTOM
 62
     2
370
    25
100
AcDbVertex
100
AcDb2dVertex
 10
452.3750350875171
 20
225.2645046101395
 30
0.0
  0
VERTEX
  5
357
330
355
100
AcDbEntity
  8
4
  6
PHANTOM
 62
     2
370
    25
100
AcDbVertex
100
AcDb2dVertex
 10
452.5689008052025
 20
219.0934549462451
 30
0.0
  0
VERTEX
  5
358
330
355
100
AcDbEntity
  8
4
  6
PHANTOM
 62
     2
370
    25
100
AcDbVertex
100
AcDb2dVertex
 10
453.9622057399104
 20
217.0975506099491
 30
0.0
  0
SEQEND
  5
359
330
355
100
AcDbEntity
  8
4
  6
PHANTOM
 62
     2
370
    25
  0
POLYLINE
  5
35A
330
1F
100
AcDbEntity
  8
4
  6
PHANTOM
 62
     2
370
    25
100
AcDb2dPolyline
 66
     1
 10
0.0
 20
0.0
 30
0.0
  0
VERTEX
  5
35B
330
35A
100
AcDbEntity
  8
4
  6
PHANTOM
 62
     2
370
    25
100
AcDbVertex
100
AcDb2dVertex
 10
454.3750251480174
 20
225.2648210000001
 30
0.0
  0
VERTEX
  5
35C
330
35A
100
AcDbEntity
  8
4
  6
PHANTOM
 62
     2
370
    25
100
AcDbVertex
100
AcDb2dVertex
 10
454.6392902498785
 20
216.8528485920384
 30
0.0
  0
SEQEND
  5
35D
330
35A
100
AcDbEntity
  8
4
  6
PHANTOM
 62
     2
370
    25
  0
POLYLINE
  5
35E
330
1F
100
AcDbEntity
  8
4
  6
PHANTOM
 62
     2
370
    25
100
AcDb2dPolyline
 66
     1
 10
0.0
 20
0.0
 30
0.0
  0
VERTEX
  5
35F
330
35E
100
AcDbEntity
  8
4
  6
PHANTOM
 62
     2
370
    25
100
AcDbVertex
100
AcDb2dVertex
 10
420.6392902498785
 20
216.8528485920382
 30
0.0
  0
VERTEX
  5
360
330
35E
100
AcDbEntity
  8
4
  6
PHANTOM
 62
     2
370
    25
100
AcDbVertex
100
AcDb2dVertex
 10
420.9035553517397
 20
225.2648210000001
 30
0.0
  0
SEQEND
  5
361
330
35E
100
AcDbEntity
  8
4
  6
PHANTOM
 62
     2
370
    25
  0
MTEXT
  5
362
330
1F
100
AcDbEntity
  8
6
  6
Continuous
 62
     3
370
     9
100
AcDbMText
 10
274.297865952816
 20
3.864866723098203
 30
0.0
 40
6.000000000000001
 41
30.14255491416
 71
     7
 72
     1
  1
{\fＭＳ Ｐゴシック;\W0.714286;尺度1/2}
 73
     1
 44
1.0
1001
ACAD
1000
ACAD_MTEXT_DEFINED_HEIGHT_BEGIN
1070
    46
1040
6.000000000000001
1000
ACAD_MTEXT_DEFINED_HEIGHT_END
  0
POLYLINE
  5
363
330
1F
100
AcDbEntity
  8
2
  6
HIDDEN
 62
     2
370
    25
100
AcDb2dPolyline
 66
     1
 10
0.0
 20
0.0
 30
0.0
  0
VERTEX
  5
364
330
363
100
AcDbEntity
  8
2
  6
HIDDEN
 62
     2
370
    25
100
AcDbVertex
100
AcDb2dVertex
 10
642.589448829103
 20
207.2686323045218
 30
0.0
  0
VERTEX
  5
365
330
363
100
AcDbEntity
  8
2
  6
HIDDEN
 62
     2
370
    25
100
AcDbVertex
100
AcDb2dVertex
 10
636.8253605844332
 20
207.2686323045218
 30
0.0
  0
VERTEX
  5
366
330
363
100
AcDbEntity
  8
2
  6
HIDDEN
 62
     2
370
    25
100
AcDbVertex
100
AcDb2dVertex
 10
632.6748972019768
 20
208.7686323045217
 30
0.0
  0
VERTEX
  5
367
330
363
100
AcDbEntity
  8
2
  6
HIDDEN
 62
     2
370
    25
100
AcDbVertex
100
AcDb2dVertex
 10
632.6748972019768
 20
215.7686323045217
 30
0.0
  0
VERTEX
  5
368
330
363
100
AcDbEntity
  8
2
  6
HIDDEN
 62
     2
370
    25
100
AcDbVertex
100
AcDb2dVertex
 10
636.8253605844334
 20
217.2686323045219
 30
0.0
  0
VERTEX
  5
369
330
363
100
AcDbEntity
  8
2
  6
HIDDEN
 62
     2
370
    25
100
AcDbVertex
100
AcDb2dVertex
 10
642.3275896134112
 20
217.2686323045219
 30
0.0
  0
SEQEND
  5
36A
330
363
100
AcDbEntity
  8
2
  6
HIDDEN
 62
     2
370
    25
  0
LINE
  5
36B
330
1F
100
AcDbEntity
  8
2
  6
HIDDEN
 62
     2
370
    25
100
AcDbLine
 10
635.6748972019768
 20
204.2686323045218
 30
0.0
 11
642.6680065938106
 21
204.2686323045218
 31
0.0
  0
ARC
  5
36C
330
1F
100
AcDbEntity
  8
2
  6
HIDDEN
 62
     2
370
    25
100
AcDbCircle
 10
636.6302297287575
 20
219.8937471795472
 30
0.0
 40
12.66120791410984
100
AcDbArc
 50
274.3272801182909
 51
297.8852061088626
  0
ARC
  5
36D
330
1F
100
AcDbEntity
  8
2
  6
HIDDEN
 62
     2
370
    25
100
AcDbCircle
 10
636.6302297287582
 20
204.6435174294986
 30
0.0
 40
12.66120791410721
100
AcDbArc
 50
63.09206724757314
 51
85.67271988171095
  0
LINE
  5
36E
330
1F
100
AcDbEntity
  8
2
  6
HIDDEN
 62
     2
370
    25
100
AcDbLine
 10
635.7118158162125
 20
219.0934549462451
 30
0.0
 11
642.2798049508374
 21
219.0934549462451
 31
0.0
  0
LINE
  5
36F
330
1F
100
AcDbEntity
  8
2
  6
HIDDEN
 62
     2
370
    25
100
AcDbLine
 10
668.0699894531167
 20
219.0934549462451
 30
0.0
 11
669.6045077573008
 21
219.0934549462451
 31
0.0
  0
POLYLINE
  5
370
330
1F
100
AcDbEntity
  8
2
  6
HIDDEN
 62
     2
370
    25
100
AcDb2dPolyline
 66
     1
 10
0.0
 20
0.0
 30
0.0
  0
VERTEX
  5
371
330
370
100
AcDbEntity
  8
2
  6
HIDDEN
 62
     2
370
    25
100
AcDbVertex
100
AcDb2dVertex
 10
668.0222047905431
 20
217.2686323045219
 30
0.0
  0
VERTEX
  5
372
330
370
100
AcDbEntity
  8
2
  6
HIDDEN
 62
     2
370
    25
100
AcDbVertex
100
AcDb2dVertex
 10
668.5244338195207
 20
217.2686323045219
 30
0.0
  0
SEQEND
  5
373
330
370
100
AcDbEntity
  8
2
  6
HIDDEN
 62
     2
370
    25
  0
POLYLINE
  5
374
330
1F
100
AcDbEntity
  8
2
  6
HIDDEN
 62
     2
370
    25
100
AcDb2dPolyline
 66
     1
 10
0.0
 20
0.0
 30
0.0
  0
VERTEX
  5
375
330
374
100
AcDbEntity
  8
2
  6
HIDDEN
 62
     2
370
    25
100
AcDbVertex
100
AcDb2dVertex
 10
668.5244338195207
 20
217.2686323045219
 30
0.0
  0
VERTEX
  5
376
330
374
100
AcDbEntity
  8
2
  6
HIDDEN
 62
     2
370
    25
100
AcDbVertex
100
AcDb2dVertex
 10
672.6748972019768
 20
215.7686323045219
 30
0.0
  0
VERTEX
  5
377
330
374
100
AcDbEntity
  8
2
  6
HIDDEN
 62
     2
370
    25
100
AcDbVertex
100
AcDb2dVertex
 10
672.6748972019768
 20
208.7686323045218
 30
0.0
  0
VERTEX
  5
378
330
374
100
AcDbEntity
  8
2
  6
HIDDEN
 62
     2
370
    25
100
AcDbVertex
100
AcDb2dVertex
 10
668.5244338195207
 20
207.2686323045218
 30
0.0
  0
VERTEX
  5
379
330
374
100
AcDbEntity
  8
2
  6
HIDDEN
 62
     2
370
    25
100
AcDbVertex
100
AcDb2dVertex
 10
667.7603455748513
 20
207.2686323045218
 30
0.0
  0
SEQEND
  5
37A
330
374
100
AcDbEntity
  8
2
  6
HIDDEN
 62
     2
370
    25
  0
LINE
  5
37B
330
1F
100
AcDbEntity
  8
2
  6
HIDDEN
 62
     2
370
    25
100
AcDbLine
 10
667.6862384943161
 20
204.4385970758799
 30
0.0
 11
669.6618352089267
 21
207.2686323045217
 31
0.0
  0
LINE
  5
37C
330
1F
100
AcDbEntity
  8
2
  6
HIDDEN
 62
     2
370
    25
100
AcDbLine
 10
667.6817878101438
 20
204.2686323045218
 30
0.0
 11
669.6748972019768
 21
204.2686323045218
 31
0.0
  0
POLYLINE
  5
37D
330
1F
100
AcDbEntity
  8
2
  6
HIDDEN
 62
     2
370
    25
100
AcDb2dPolyline
 66
     1
 10
0.0
 20
0.0
 30
0.0
  0
VERTEX
  5
37E
330
37D
100
AcDbEntity
  8
2
  6
HIDDEN
 62
     2
370
    25
100
AcDbVertex
100
AcDb2dVertex
 10
667.5104810811276
 20
197.7686323045218
 30
0.0
  0
VERTEX
  5
37F
330
37D
100
AcDbEntity
  8
2
  6
HIDDEN
 62
     2
370
    25
100
AcDbVertex
100
AcDb2dVertex
 10
672.6748972019768
 20
197.7686323045218
 30
0.0
  0
VERTEX
  5
380
330
37D
100
AcDbEntity
  8
2
  6
HIDDEN
 62
     2
370
    25
100
AcDbVertex
100
AcDb2dVertex
 10
672.6748972019768
 20
155.7686323045218
 30
0.0
  0
VERTEX
  5
381
330
37D
100
AcDbEntity
  8
2
  6
HIDDEN
 62
     2
370
    25
100
AcDbVertex
100
AcDb2dVertex
 10
666.4117706140389
 20
155.7686323045218
 30
0.0
  0
SEQEND
  5
382
330
37D
100
AcDbEntity
  8
2
  6
HIDDEN
 62
     2
370
    25
  0
POLYLINE
  5
383
330
1F
100
AcDbEntity
  8
2
  6
HIDDEN
 62
     2
370
    25
100
AcDb2dPolyline
 66
     1
 10
0.0
 20
0.0
 30
0.0
  0
VERTEX
  5
384
330
383
100
AcDbEntity
  8
2
  6
HIDDEN
 62
     2
370
    25
100
AcDbVertex
100
AcDb2dVertex
 10
632.6748972019768
 20
197.7686323045218
 30
0.0
  0
VERTEX
  5
385
330
383
100
AcDbEntity
  8
2
  6
HIDDEN
 62
     2
370
    25
100
AcDbVertex
100
AcDb2dVertex
 10
632.6748972019768
 20
155.7686323045218
 30
0.0
  0
VERTEX
  5
386
330
383
100
AcDbEntity
  8
2
  6
HIDDEN
 62
     2
370
    25
100
AcDbVertex
100
AcDb2dVertex
 10
643.9380237899159
 20
155.7686323045218
 30
0.0
  0
SEQEND
  5
387
330
383
100
AcDbEntity
  8
2
  6
HIDDEN
 62
     2
370
    25
  0
LINE
  5
388
330
1F
100
AcDbEntity
  8
2
  6
HIDDEN
 62
     2
370
    25
100
AcDbLine
 10
635.6748972019768
 20
151.7686319999998
 30
0.0
 11
644.5545277658389
 21
151.7686319999998
 31
0.0
  0
LINE
  5
389
330
1F
100
AcDbEntity
  8
2
  6
HIDDEN
 62
     2
370
    25
100
AcDbLine
 10
665.7952666381152
 20
151.7686319999998
 30
0.0
 11
669.6748972019768
 21
151.7686319999998
 31
0.0
  0
POLYLINE
  5
38A
330
1F
100
AcDbEntity
  8
2
  6
HIDDEN
 62
     2
370
    25
100
AcDb2dPolyline
 66
     1
 10
0.0
 20
0.0
 30
0.0
  0
VERTEX
  5
38B
330
38A
100
AcDbEntity
  8
2
  6
HIDDEN
 62
     2
370
    25
100
AcDbVertex
100
AcDb2dVertex
 10
632.6748972019768
 20
197.7686323045218
 30
0.0
  0
VERTEX
  5
38C
330
38A
100
AcDbEntity
  8
2
  6
HIDDEN
 62
     2
370
    25
100
AcDbVertex
100
AcDb2dVertex
 10
642.8382150840102
 20
197.7686323045218
 30
0.0
  0
SEQEND
  5
38D
330
38A
100
AcDbEntity
  8
2
  6
HIDDEN
 62
     2
370
    25
  0
LINE
  5
38E
330
1F
100
AcDbEntity
  8
2
  6
HIDDEN
 62
     2
370
    25
100
AcDbLine
 10
658.1748972019773
 20
220.9648209999995
 30
0.0
 11
656.4248972019773
 21
218.7148209999995
 31
0.0
  0
LINE
  5
38F
330
1F
100
AcDbEntity
  8
2
  6
HIDDEN
 62
     2
370
    25
100
AcDbLine
 10
656.4248972019773
 20
219.8648209999996
 30
0.0
 11
656.4248972019773
 21
218.7148209999995
 31
0.0
  0
LINE
  5
390
330
1F
100
AcDbEntity
  8
2
  6
HIDDEN
 62
     2
370
    25
100
AcDbLine
 10
653.9248972019773
 20
219.8648209999996
 30
0.0
 11
653.9248972019773
 21
218.7148209999995
 31
0.0
  0
LINE
  5
391
330
1F
100
AcDbEntity
  8
2
  6
HIDDEN
 62
     2
370
    25
100
AcDbLine
 10
652.1748972019773
 20
220.9648209999995
 30
0.0
 11
653.9248972019773
 21
218.7148209999995
 31
0.0
  0
LINE
  5
392
330
1F
100
AcDbEntity
  8
2
  6
HIDDEN
 62
     2
370
    25
100
AcDbLine
 10
656.4248972019773
 20
223.2148209999995
 30
0.0
 11
656.4248972019773
 21
222.0648209999998
 31
0.0
  0
LINE
  5
393
330
1F
100
AcDbEntity
  8
2
  6
HIDDEN
 62
     2
370
    25
100
AcDbLine
 10
653.9248972019773
 20
223.2148209999995
 30
0.0
 11
653.9248972019773
 21
222.0648209999998
 31
0.0
  0
LINE
  5
394
330
1F
100
AcDbEntity
  8
2
  6
HIDDEN
 62
     2
370
    25
100
AcDbLine
 10
658.1748972019773
 20
220.9648209999995
 30
0.0
 11
656.4248972019773
 21
223.2148209999995
 31
0.0
  0
HATCH
  5
395
330
1F
100
AcDbEntity
  8
2
  6
HIDDEN
 62
     2
370
    25
100
AcDbHatch
 10
0.0
 20
0.0
 30
0.0
210
0.0
220
0.0
230
1.0
  2
SOLID
 70
     1
 71
     0
 91
        2
 92
        0
 93
        7
 72
     1
 10
658.1748972019773
 20
220.9648209999995
 11
656.4248972019773
 21
223.2148209999995
 72
     1
 10
656.4248972019773
 20
223.2148209999995
 11
656.4248972019773
 21
222.0648209999998
 72
     1
 10
656.4248972019773
 20
222.0648209999998
 11
655.1748972019773
 21
222.0648209999998
 72
     1
 10
655.1748972019773
 20
222.0648209999998
 11
655.1748972019773
 21
219.8648209999996
 72
     1
 10
655.1748972019773
 20
219.8648209999996
 11
656.4248972019773
 21
219.8648209999996
 72
     1
 10
656.4248972019773
 20
219.8648209999996
 11
656.4248972019773
 21
218.7148209999995
 72
     1
 10
656.4248972019773
 20
218.7148209999995
 11
658.1748972019773
 21
220.9648209999995
 97
        0
 92
        0
 93
        7
 72
     1
 10
653.9248972019773
 20
218.7148209999995
 11
653.9248972019773
 21
219.8648209999996
 72
     1
 10
653.9248972019773
 20
219.8648209999996
 11
655.1748972019773
 21
219.8648209999996
 72
     1
 10
655.1748972019773
 20
219.8648209999996
 11
655.1748972019773
 21
222.0648209999998
 72
     1
 10
655.1748972019773
 20
222.0648209999998
 11
653.9248972019773
 21
222.0648209999998
 72
     1
 10
653.9248972019773
 20
222.0648209999998
 11
653.9248972019773
 21
223.2148209999995
 72
     1
 10
653.9248972019773
 20
223.2148209999995
 11
652.1748972019773
 21
220.9648209999995
 72
     1
 10
652.1748972019773
 20
220.9648209999995
 11
653.9248972019773
 21
218.7148209999995
 97
        0
 75
     0
 76
     1
 98
        0
  0
LINE
  5
396
330
1F
100
AcDbEntity
  8
2
  6
HIDDEN
 62
     2
370
    25
100
AcDbLine
 10
652.1748972019773
 20
220.9648209999995
 30
0.0
 11
653.9248972019773
 21
223.2148209999995
 31
0.0
  0
MTEXT
  5
397
330
1F
100
AcDbEntity
  8
2
  6
HIDDEN
 62
     2
370
     9
100
AcDbMText
 10
647.0035336856895
 20
228.1302307014309
 30
0.0
 40
4.199999999999989
 41
13.39215902396396
 71
     7
 72
     1
  1
{\fＭＳ Ｐゴシック;\W0.642857;OPEN}
 11
1.615544574432587E-15
 21
-1.0
 31
0.0
 73
     1
 44
1.0
1001
ACAD
1000
ACAD_MTEXT_DEFINED_HEIGHT_BEGIN
1070
    46
1040
4.199999999999989
1000
ACAD_MTEXT_DEFINED_HEIGHT_END
  0
MTEXT
  5
398
330
1F
100
AcDbEntity
  8
2
  6
HIDDEN
 62
     2
370
     9
100
AcDbMText
 10
658.9691734766502
 20
228.1302307014311
 30
0.0
 40
4.199999999999989
 41
13.30397704355996
 71
     7
 72
     1
  1
{\fＭＳ Ｐゴシック;\W0.642857;SHUT}
 11
1.615544574432587E-15
 21
-1.0
 31
0.0
 73
     1
 44
1.0
1001
ACAD
1000
ACAD_MTEXT_DEFINED_HEIGHT_BEGIN
1070
    46
1040
4.199999999999989
1000
ACAD_MTEXT_DEFINED_HEIGHT_END
  0
ARC
  5
399
330
1F
100
AcDbEntity
  8
2
  6
HIDDEN
 62
     2
370
    25
100
AcDbCircle
 10
660.8691972743854
 20
154.214821
 30
0.0
 40
5.5
100
AcDbArc
 50
269.9999999999998
 51
358.5000000000005
  0
ARC
  5
39A
330
1F
100
AcDbEntity
  8
2
  6
HIDDEN
 62
     2
370
    25
100
AcDbCircle
 10
649.4805971295691
 20
154.2148209999998
 30
0.0
 40
5.5
100
AcDbArc
 50
181.4999999999988
 51
269.9999999999998
  0
LINE
  5
39B
330
1F
100
AcDbEntity
  8
2
  6
HIDDEN
 62
     2
370
    25
100
AcDbLine
 10
649.4805971295691
 20
148.714821
 30
0.0
 11
660.8691972743854
 21
148.714821
 31
0.0
  0
LINE
  5
39C
330
1F
100
AcDbEntity
  8
2
  6
HIDDEN
 62
     2
370
    25
100
AcDbLine
 10
668.5723192582959
 20
238.2178156162075
 30
0.0
 11
641.7774751456582
 21
238.2178156162074
 31
0.0
  0
LINE
  5
39D
330
1F
100
AcDbEntity
  8
2
  6
HIDDEN
 62
     2
370
    25
100
AcDbLine
 10
667.3248972019769
 20
243.080679779316
 30
0.0
 11
667.6748972019773
 21
249.7648209999996
 31
0.0
  0
LINE
  5
39E
330
1F
100
AcDbEntity
  8
2
  6
HIDDEN
 62
     2
370
    25
100
AcDbLine
 10
662.9899347685591
 20
260.7648209999999
 30
0.0
 11
666.6748972019773
 21
260.7648209999999
 31
0.0
  0
ARC
  5
39F
330
1F
100
AcDbEntity
  8
2
  6
HIDDEN
 62
     2
370
    25
100
AcDbCircle
 10
662.9899347685591
 20
261.5648209999998
 30
0.0
 40
0.8000000000000114
100
AcDbArc
 50
162.7647147429013
 51
269.9999999999998
  0
ARC
  5
3A0
330
1F
100
AcDbEntity
  8
2
  6
HIDDEN
 62
     2
370
    25
100
AcDbCircle
 10
666.6748972019773
 20
259.7648209999999
 30
0.0
 40
1.0
100
AcDbArc
 50
0.0
 51
89.99999999999991
  0
LINE
  5
3A1
330
1F
100
AcDbEntity
  8
2
  6
HIDDEN
 62
     2
370
    25
100
AcDbLine
 10
667.6748972019773
 20
259.7648209999999
 30
0.0
 11
667.6748972019773
 21
249.7648209999996
 31
0.0
  0
LINE
  5
3A2
330
1F
100
AcDbEntity
  8
2
  6
HIDDEN
 62
     2
370
    25
100
AcDbLine
 10
643.0248972019772
 20
243.0806797793159
 30
0.0
 11
642.6748972019773
 21
249.764821
 31
0.0
  0
LINE
  5
3A3
330
1F
100
AcDbEntity
  8
2
  6
HIDDEN
 62
     2
370
    25
100
AcDbLine
 10
648.6748972019773
 20
278.764821
 30
0.0
 11
648.6748972019773
 21
275.0798585665818
 31
0.0
  0
ARC
  5
3A4
330
1F
100
AcDbEntity
  8
2
  6
HIDDEN
 62
     2
370
    25
100
AcDbCircle
 10
649.474897201977
 20
275.0798585665818
 30
0.0
 40
0.8000000000000114
100
AcDbArc
 50
179.9999999999998
 51
287.2352852571031
  0
LINE
  5
3A5
330
1F
100
AcDbEntity
  8
2
  6
HIDDEN
 62
     2
370
    25
100
AcDbLine
 10
646.6748972019773
 20
279.764821
 30
0.0
 11
647.6748972019773
 21
279.764821
 31
0.0
  0
ARC
  5
3A6
330
1F
100
AcDbEntity
  8
2
  6
HIDDEN
 62
     2
370
    25
100
AcDbCircle
 10
647.6748972019773
 20
278.764821
 30
0.0
 40
1.0
100
AcDbArc
 50
0.0
 51
90.00000000002606
  0
ARC
  5
3A7
330
1F
100
AcDbEntity
  8
2
  6
HIDDEN
 62
     2
370
    25
100
AcDbCircle
 10
646.6748972019773
 20
275.764821
 30
0.0
 40
4.0
100
AcDbArc
 50
89.99999999999991
 51
179.9999999999998
  0
LINE
  5
3A8
330
1F
100
AcDbEntity
  8
2
  6
HIDDEN
 62
     2
370
    25
100
AcDbLine
 10
642.6748972019773
 20
275.764821
 30
0.0
 11
642.6748972019773
 21
249.764821
 31
0.0
  0
ARC
  5
3A9
330
1F
100
AcDbEntity
  8
2
  6
HIDDEN
 62
     2
370
    25
100
AcDbCircle
 10
652.6748972019773
 20
264.7648209999999
 30
0.0
 40
10.0
100
AcDbArc
 50
342.7647147429107
 51
107.2352852570887
  0
LINE
  5
3AA
330
1F
100
AcDbEntity
  8
2
  6
HIDDEN
 62
     2
370
    25
100
AcDbLine
 10
642.6748972019773
 20
249.764821
 30
0.0
 11
667.6748972019773
 21
249.7648210000001
 31
0.0
  0
LINE
  5
3AB
330
1F
100
AcDbEntity
  8
2
  6
HIDDEN
 62
     2
370
    25
100
AcDbLine
 10
641.522842216626
 20
243.0806797793159
 30
0.0
 11
668.8269521873285
 21
243.080679779316
 31
0.0
  0
LINE
  5
3AC
330
1F
100
AcDbEntity
  8
2
  6
HIDDEN
 62
     2
370
    25
100
AcDbLine
 10
641.7805572742582
 20
238.1589545224253
 30
0.0
 11
641.522842216626
 21
243.0806797793159
 31
0.0
  0
LINE
  5
3AD
330
1F
100
AcDbEntity
  8
2
  6
HIDDEN
 62
     2
370
    25
100
AcDbLine
 10
668.5692371296959
 20
238.1589545224246
 30
0.0
 11
668.8269521873285
 21
243.080679779316
 31
0.0
  0
LINE
  5
3AE
330
1F
100
AcDbEntity
  8
2
  6
HIDDEN
 62
     2
370
    25
100
AcDbLine
 10
643.9824818422035
 20
154.0708477843064
 30
0.0
 11
641.7805572742582
 21
238.1589545224253
 31
0.0
  0
LINE
  5
3AF
330
1F
100
AcDbEntity
  8
2
  6
HIDDEN
 62
     2
370
    25
100
AcDbLine
 10
666.3673125617511
 20
154.0708477843068
 30
0.0
 11
668.5692371296959
 21
238.1589545224246
 31
0.0
  0
ARC
  5
3B0
330
1F
100
AcDbEntity
  8
2
  6
HIDDEN
 62
     2
370
    25
100
AcDbCircle
 10
652.6748972019773
 20
264.7648209999999
 30
0.0
 40
10.5
100
AcDbArc
 50
162.2472098380576
 51
197.7527901619432
  0
LINE
  5
3B1
330
1F
100
AcDbEntity
  8
2
  6
HIDDEN
 62
     2
370
    25
100
AcDbLine
 10
666.6748972019773
 20
260.914821
 30
0.0
 11
662.5235658159045
 21
260.914821
 31
0.0
  0
ARC
  5
3B2
330
1F
100
AcDbEntity
  8
2
  6
HIDDEN
 62
     2
370
    25
100
AcDbCircle
 10
666.6748972019773
 20
267.614821
 30
0.0
 40
1.0
100
AcDbArc
 50
0.0
 51
89.99999999999991
  0
ARC
  5
3B3
330
1F
100
AcDbEntity
  8
2
  6
HIDDEN
 62
     2
370
    25
100
AcDbCircle
 10
662.5712032074653
 20
270.614821
 30
0.0
 40
2.0
100
AcDbArc
 50
248.7435516539952
 51
269.9999999999998
  0
LINE
  5
3B4
330
1F
100
AcDbEntity
  8
2
  6
HIDDEN
 62
     2
370
    25
100
AcDbLine
 10
666.6748972019773
 20
268.614821
 30
0.0
 11
662.443597217844
 21
268.614821
 31
0.0
  0
ARC
  5
3B5
330
1F
100
AcDbEntity
  8
2
  6
HIDDEN
 62
     2
370
    25
100
AcDbCircle
 10
666.6748972019773
 20
261.914821
 30
0.0
 40
1.0
100
AcDbArc
 50
269.9999999999998
 51
0.0
  0
ARC
  5
3B6
330
1F
100
AcDbEntity
  8
2
  6
HIDDEN
 62
     2
370
    25
100
AcDbCircle
 10
662.5712032074653
 20
258.914821
 30
0.0
 40
2.0
100
AcDbArc
 50
89.99999999999991
 51
91.34287418598392
  0
ARC
  5
3B7
330
1F
100
AcDbEntity
  8
2
  6
HIDDEN
 62
     2
370
    25
100
AcDbCircle
 10
652.6748972019773
 20
264.7648209999999
 30
0.0
 40
11.0
100
AcDbArc
 50
339.5126848852788
 51
20.48731511472393
  0
ARC
  5
3B8
330
1F
100
AcDbEntity
  8
2
  6
HIDDEN
 62
     2
370
    25
100
AcDbCircle
 10
652.6748972019773
 20
264.7648209999999
 30
0.0
 40
10.5
100
AcDbArc
 50
21.51018826688885
 51
111.2263176635966
  0
LINE
  5
3B9
330
1F
100
AcDbEntity
  8
2
  6
HIDDEN
 62
     2
370
    25
100
AcDbLine
 10
655.9367984880373
 20
264.2648210000001
 30
0.0
 11
649.4129959159172
 21
264.264821
 31
0.0
  0
LINE
  5
3BA
330
1F
100
AcDbEntity
  8
2
  6
HIDDEN
 62
     2
370
    25
100
AcDbLine
 10
655.9367984880373
 20
265.2648210000001
 30
0.0
 11
649.4129959159172
 21
265.264821
 31
0.0
  0
CIRCLE
  5
3BB
330
1F
100
AcDbEntity
  8
2
  6
HIDDEN
 62
     2
370
    25
100
AcDbCircle
 10
652.6748972019773
 20
264.7648209999999
 30
0.0
 40
3.300000000000011
  0
CIRCLE
  5
3BC
330
1F
100
AcDbEntity
  8
2
  6
HIDDEN
 62
     2
370
    25
100
AcDbCircle
 10
652.6748972019773
 20
264.7648209999999
 30
0.0
 40
4.0
  0
CIRCLE
  5
3BD
330
1F
100
AcDbEntity
  8
2
  6
HIDDEN
 62
     2
370
    25
100
AcDbCircle
 10
652.6748972019773
 20
264.7648209999999
 30
0.0
 40
6.499999999999972
  0
POLYLINE
  5
3BE
330
1F
100
AcDbEntity
  8
2
  6
HIDDEN
 62
     2
370
    25
100
AcDb2dPolyline
 66
     1
 10
0.0
 20
0.0
 30
0.0
  0
VERTEX
  5
3BF
330
3BE
100
AcDbEntity
  8
2
  6
HIDDEN
 62
     2
370
    25
100
AcDbVertex
100
AcDb2dVertex
 10
646.1748972019773
 20
268.5175977497322
 30
0.0
  0
VERTEX
  5
3C0
330
3BE
100
AcDbEntity
  8
2
  6
HIDDEN
 62
     2
370
    25
100
AcDbVertex
100
AcDb2dVertex
 10
646.1748972019773
 20
261.0120442502673
 30
0.0
  0
VERTEX
  5
3C1
330
3BE
100
AcDbEntity
  8
2
  6
HIDDEN
 62
     2
370
    25
100
AcDbVertex
100
AcDb2dVertex
 10
652.6748972019773
 20
257.2592675005347
 30
0.0
  0
VERTEX
  5
3C2
330
3BE
100
AcDbEntity
  8
2
  6
HIDDEN
 62
     2
370
    25
100
AcDbVertex
100
AcDb2dVertex
 10
659.1748972019773
 20
261.0120442502674
 30
0.0
  0
VERTEX
  5
3C3
330
3BE
100
AcDbEntity
  8
2
  6
HIDDEN
 62
     2
370
    25
100
AcDbVertex
100
AcDb2dVertex
 10
659.1748972019773
 20
268.5175977497323
 30
0.0
  0
VERTEX
  5
3C4
330
3BE
100
AcDbEntity
  8
2
  6
HIDDEN
 62
     2
370
    25
100
AcDbVertex
100
AcDb2dVertex
 10
652.6748972019773
 20
272.270374499465
 30
0.0
  0
VERTEX
  5
3C5
330
3BE
100
AcDbEntity
  8
2
  6
HIDDEN
 62
     2
370
    25
100
AcDbVertex
100
AcDb2dVertex
 10
646.1748972019773
 20
268.5175977497322
 30
0.0
  0
SEQEND
  5
3C6
330
3BE
100
AcDbEntity
  8
2
  6
HIDDEN
 62
     2
370
    25
  0
CIRCLE
  5
3C7
330
1F
100
AcDbEntity
  8
2
  6
HIDDEN
 62
     2
370
    25
100
AcDbCircle
 10
652.6748972019773
 20
264.7648209999999
 30
0.0
 40
7.700000000000045
  0
LINE
  5
3C8
330
1F
100
AcDbEntity
  8
2
  6
HIDDEN
 62
     2
370
    25
100
AcDbLine
 10
654.0012449888136
 20
303.3410605692967
 30
0.0
 11
654.001244988814
 21
287.7648210000001
 31
0.0
  0
ARC
  5
3C9
330
1F
100
AcDbEntity
  8
2
  6
HIDDEN
 62
     2
370
    25
100
AcDbCircle
 10
670.7119197539619
 20
298.487331979387
 30
0.0
 40
5.488855493045804
100
AcDbArc
 50
62.16401909362501
 51
117.835980906375
  0
LINE
  5
3CA
330
1F
100
AcDbEntity
  8
2
  6
HIDDEN
 62
     2
370
    25
100
AcDbLine
 10
671.6748972019773
 20
304.2648210000001
 30
0.0
 11
673.2748972019772
 21
303.3410605692967
 31
0.0
  0
LINE
  5
3CB
330
1F
100
AcDbEntity
  8
2
  6
HIDDEN
 62
     2
370
    25
100
AcDbLine
 10
668.1489423059465
 20
303.3410605692967
 30
0.0
 11
666.2732032773788
 21
303.3410605692967
 31
0.0
  0
LINE
  5
3CC
330
1F
100
AcDbEntity
  8
2
  6
HIDDEN
 62
     2
370
    25
100
AcDbLine
 10
668.1489423059465
 20
303.3410605692967
 30
0.0
 11
668.148942305947
 21
287.7648210000001
 31
0.0
  0
LINE
  5
3CD
330
1F
100
AcDbEntity
  8
2
  6
HIDDEN
 62
     2
370
    25
100
AcDbLine
 10
666.2732032773788
 20
303.3410605692967
 30
0.0
 11
666.2732032773788
 21
287.7648210000001
 31
0.0
  0
LINE
  5
3CE
330
1F
100
AcDbEntity
  8
2
  6
HIDDEN
 62
     2
370
    25
100
AcDbLine
 10
673.2748972019772
 20
303.3410605692967
 30
0.0
 11
673.2748972019772
 21
287.7648210000001
 31
0.0
  0
ARC
  5
3CF
330
1F
100
AcDbEntity
  8
2
  6
HIDDEN
 62
     2
370
    25
100
AcDbCircle
 10
660.1372241330964
 20
274.0167265357717
 30
0.0
 40
29.95941932963345
100
AcDbArc
 50
78.18164175920424
 51
101.8183582407966
  0
ARC
  5
3D0
330
1F
100
AcDbEntity
  8
2
  6
HIDDEN
 62
     2
370
    25
100
AcDbCircle
 10
675.2748972019772
 20
287.7648210000001
 30
0.0
 40
2.0
100
AcDbArc
 50
179.9999999999998
 51
269.9999999999998
  0
ARC
  5
3D1
330
1F
100
AcDbEntity
  8
2
  6
HIDDEN
 62
     2
370
    25
100
AcDbCircle
 10
676.4248972019773
 20
284.7648210000001
 30
0.0
 40
1.0
100
AcDbArc
 50
0.0
 51
89.99999999999991
  0
LINE
  5
3D2
330
1F
100
AcDbEntity
  8
2
  6
HIDDEN
 62
     2
370
    25
100
AcDbLine
 10
637.2008520980071
 20
303.3410605692966
 30
0.0
 11
639.0765911265753
 21
303.3410605692966
 31
0.0
  0
LINE
  5
3D3
330
1F
100
AcDbEntity
  8
2
  6
HIDDEN
 62
     2
370
    25
100
AcDbLine
 10
633.6748972019768
 20
304.264821
 30
0.0
 11
632.0748972019769
 21
303.3410605692966
 31
0.0
  0
ARC
  5
3D4
330
1F
100
AcDbEntity
  8
2
  6
HIDDEN
 62
     2
370
    25
100
AcDbCircle
 10
634.6378746499918
 20
298.4873319793869
 30
0.0
 40
5.488855493045804
100
AcDbArc
 50
62.16401909362501
 51
117.8359809063708
  0
ARC
  5
3D5
330
1F
100
AcDbEntity
  8
2
  6
HIDDEN
 62
     2
370
    25
100
AcDbCircle
 10
645.2125702708577
 20
274.0167265357716
 30
0.0
 40
29.95941932963345
100
AcDbArc
 50
78.18164175920424
 51
101.8183582407958
  0
ARC
  5
3D6
330
1F
100
AcDbEntity
  8
2
  6
HIDDEN
 62
     2
370
    25
100
AcDbCircle
 10
628.9248972019768
 20
284.764821
 30
0.0
 40
1.0
100
AcDbArc
 50
89.99999999999991
 51
179.9999999999998
  0
ARC
  5
3D7
330
1F
100
AcDbEntity
  8
2
  6
HIDDEN
 62
     2
370
    25
100
AcDbCircle
 10
630.0748972019769
 20
287.764821
 30
0.0
 40
2.0
100
AcDbArc
 50
269.9999999999998
 51
0.0
  0
LINE
  5
3D8
330
1F
100
AcDbEntity
  8
2
  6
HIDDEN
 62
     2
370
    25
100
AcDbLine
 10
632.0748972019769
 20
303.3410605692966
 30
0.0
 11
632.0748972019769
 21
287.764821
 31
0.0
  0
LINE
  5
3D9
330
1F
100
AcDbEntity
  8
2
  6
HIDDEN
 62
     2
370
    25
100
AcDbLine
 10
651.34854941514
 20
303.3410605692966
 30
0.0
 11
651.3485494151405
 21
287.764821
 31
0.0
  0
LINE
  5
3DA
330
1F
100
AcDbEntity
  8
2
  6
HIDDEN
 62
     2
370
    25
100
AcDbLine
 10
639.0765911265753
 20
303.3410605692966
 30
0.0
 11
639.0765911265753
 21
287.764821
 31
0.0
  0
LINE
  5
3DB
330
1F
100
AcDbEntity
  8
2
  6
HIDDEN
 62
     2
370
    25
100
AcDbLine
 10
637.2008520980071
 20
303.3410605692966
 30
0.0
 11
637.2008520980071
 21
287.764821
 31
0.0
  0
ARC
  5
3DC
330
1F
100
AcDbEntity
  8
2
  6
HIDDEN
 62
     2
370
    25
100
AcDbCircle
 10
631.2748972019767
 20
240.1932481247461
 30
0.0
 40
2.0
100
AcDbArc
 50
314.9999999999997
 51
0.0
  0
LINE
  5
3DD
330
1F
100
AcDbEntity
  8
2
  6
HIDDEN
 62
     2
370
    25
100
AcDbLine
 10
632.6891107643501
 20
238.7790345623728
 30
0.0
 11
632.0748972019769
 21
238.1648209999996
 31
0.0
  0
LINE
  5
3DE
330
1F
100
AcDbEntity
  8
2
  6
HIDDEN
 62
     2
370
    25
100
AcDbLine
 10
633.2748972019772
 20
242.3363938752536
 30
0.0
 11
633.2748972019767
 21
240.1932481247461
 31
0.0
  0
ARC
  5
3DF
330
1F
100
AcDbEntity
  8
2
  6
HIDDEN
 62
     2
370
    25
100
AcDbCircle
 10
633.6748972019773
 20
245.5932481247462
 30
0.0
 40
2.0
100
AcDbArc
 50
179.9999999999998
 51
224.9999999999996
  0
LINE
  5
3E0
330
1F
100
AcDbEntity
  8
2
  6
HIDDEN
 62
     2
370
    25
100
AcDbLine
 10
632.2606836396039
 20
244.1790345623729
 30
0.0
 11
632.6891107643501
 21
243.7506074376267
 31
0.0
  0
ARC
  5
3E1
330
1F
100
AcDbEntity
  8
2
  6
HIDDEN
 62
     2
370
    25
100
AcDbCircle
 10
631.2748972019772
 20
242.3363938752536
 30
0.0
 40
2.0
100
AcDbArc
 50
0.0
 51
45.0000000000046
  0
ARC
  5
3E2
330
1F
100
AcDbEntity
  8
2
  6
HIDDEN
 62
     2
370
    25
100
AcDbCircle
 10
674.0748972019774
 20
240.1932481247462
 30
0.0
 40
2.0
100
AcDbArc
 50
179.9999999999998
 51
224.9999999999996
  0
ARC
  5
3E3
330
1F
100
AcDbEntity
  8
2
  6
HIDDEN
 62
     2
370
    25
100
AcDbCircle
 10
674.0748972019769
 20
242.3363938752537
 30
0.0
 40
2.0
100
AcDbArc
 50
134.9999999999954
 51
179.9999999999998
  0
LINE
  5
3E4
330
1F
100
AcDbEntity
  8
2
  6
HIDDEN
 62
     2
370
    25
100
AcDbLine
 10
672.0748972019769
 20
242.3363938752537
 30
0.0
 11
672.0748972019774
 21
240.1932481247462
 31
0.0
  0
LINE
  5
3E5
330
1F
100
AcDbEntity
  8
2
  6
HIDDEN
 62
     2
370
    25
100
AcDbLine
 10
671.6748972019773
 20
225.2648209999999
 30
0.0
 11
673.2748972019772
 21
226.188581430703
 31
0.0
  0
ARC
  5
3E6
330
1F
100
AcDbEntity
  8
2
  6
HIDDEN
 62
     2
370
    25
100
AcDbCircle
 10
670.7119197539619
 20
231.0423100206143
 30
0.0
 40
5.488855493047168
100
AcDbArc
 50
243.401486016154
 51
297.8359809063721
  0
LINE
  5
3E7
330
1F
100
AcDbEntity
  8
2
  6
HIDDEN
 62
     2
370
    25
100
AcDbLine
 10
672.660683639604
 20
238.7790345623729
 30
0.0
 11
673.2748972019772
 21
238.1648209999997
 31
0.0
  0
ARC
  5
3E8
330
1F
100
AcDbEntity
  8
2
  6
HIDDEN
 62
     2
370
    25
100
AcDbCircle
 10
670.7119197539619
 20
235.729186158709
 30
0.0
 40
3.535699432806041
100
AcDbArc
 50
43.5406717533455
 51
126.8779346191063
  0
ARC
  5
3E9
330
1F
100
AcDbEntity
  8
2
  6
HIDDEN
 62
     2
370
    25
100
AcDbCircle
 10
671.6748972019768
 20
245.5932481247463
 30
0.0
 40
2.0
100
AcDbArc
 50
314.9999999999997
 51
0.0
  0
LINE
  5
3EA
330
1F
100
AcDbEntity
  8
2
  6
HIDDEN
 62
     2
370
    25
100
AcDbLine
 10
673.6748972019768
 20
250.9363938752539
 30
0.0
 11
673.6748972019768
 21
245.5932481247463
 31
0.0
  0
LINE
  5
3EB
330
1F
100
AcDbEntity
  8
2
  6
HIDDEN
 62
     2
370
    25
100
AcDbLine
 10
673.0891107643502
 20
244.179034562373
 30
0.0
 11
672.660683639604
 21
243.7506074376269
 31
0.0
  0
ARC
  5
3EC
330
1F
100
AcDbEntity
  8
2
  6
HIDDEN
 62
     2
370
    25
100
AcDbCircle
 10
673.6748972019773
 20
254.5932481247463
 30
0.0
 40
2.0
100
AcDbArc
 50
314.9999999999905
 51
0.0
  0
LINE
  5
3ED
330
1F
100
AcDbEntity
  8
2
  6
HIDDEN
 62
     2
370
    25
100
AcDbLine
 10
674.2606836396039
 20
252.3506074376272
 30
0.0
 11
675.0891107643502
 21
253.1790345623734
 31
0.0
  0
ARC
  5
3EE
330
1F
100
AcDbEntity
  8
2
  6
HIDDEN
 62
     2
370
    25
100
AcDbCircle
 10
675.6748972019768
 20
250.9363938752539
 30
0.0
 40
2.0
100
AcDbArc
 50
134.9999999999908
 51
179.9999999999998
  0
ARC
  5
3EF
330
1F
100
AcDbEntity
  8
2
  6
HIDDEN
 62
     2
370
    25
100
AcDbCircle
 10
677.6748972019773
 20
270.0008985340233
 30
0.0
 40
2.0
100
AcDbArc
 50
144.3409123038598
 51
179.9999999999998
  0
ARC
  5
3F0
330
1F
100
AcDbEntity
  8
2
  6
HIDDEN
 62
     2
370
    25
100
AcDbCircle
 10
674.4248972019773
 20
272.3327432972955
 30
0.0
 40
2.0
100
AcDbArc
 50
324.3409123038518
 51
0.0
  0
ARC
  5
3F1
330
1F
100
AcDbEntity
  8
2
  6
HIDDEN
 62
     2
370
    25
100
AcDbCircle
 10
678.4248972019773
 20
277.4419453444679
 30
0.0
 40
2.0
100
AcDbArc
 50
138.5903778907389
 51
179.9999999999998
  0
ARC
  5
3F2
330
1F
100
AcDbEntity
  8
2
  6
HIDDEN
 62
     2
370
    25
100
AcDbCircle
 10
675.4248972019773
 20
280.0876966555319
 30
0.0
 40
2.0
100
AcDbArc
 50
318.5903778907299
 51
0.0
  0
LINE
  5
3F3
330
1F
100
AcDbEntity
  8
2
  6
HIDDEN
 62
     2
370
    25
100
AcDbLine
 10
676.4248972019773
 20
277.4419453444679
 30
0.0
 11
676.4248972019768
 21
272.3327432972955
 31
0.0
  0
LINE
  5
3F4
330
1F
100
AcDbEntity
  8
2
  6
HIDDEN
 62
     2
370
    25
100
AcDbLine
 10
675.6748972019773
 20
270.0008985340233
 30
0.0
 11
675.6748972019773
 21
254.5932481247463
 31
0.0
  0
LINE
  5
3F5
330
1F
100
AcDbEntity
  8
2
  6
HIDDEN
 62
     2
370
    25
100
AcDbLine
 10
673.2748972019772
 20
226.188581430703
 30
0.0
 11
673.2748972019772
 21
238.1648209999997
 31
0.0
  0
LINE
  5
3F6
330
1F
100
AcDbEntity
  8
2
  6
HIDDEN
 62
     2
370
    25
100
AcDbLine
 10
637.2008520980075
 20
226.1885814307029
 30
0.0
 11
639.0765911265753
 21
226.1885814307029
 31
0.0
  0
LINE
  5
3F7
330
1F
100
AcDbEntity
  8
2
  6
HIDDEN
 62
     2
370
    25
100
AcDbLine
 10
633.6748972019768
 20
225.2648209999998
 30
0.0
 11
632.0748972019769
 21
226.1885814307029
 31
0.0
  0
ARC
  5
3F8
330
1F
100
AcDbEntity
  8
2
  6
HIDDEN
 62
     2
370
    25
100
AcDbCircle
 10
634.6378746499922
 20
231.0423100206142
 30
0.0
 40
5.488855493047168
100
AcDbArc
 50
242.1640190936271
 51
297.8359809063721
  0
LINE
  5
3F9
330
1F
100
AcDbEntity
  8
2
  6
HIDDEN
 62
     2
370
    25
100
AcDbLine
 10
633.6748972019768
 20
225.2648209999998
 30
0.0
 11
642.1182020433789
 21
225.2648209999998
 31
0.0
  0
ARC
  5
3FA
330
1F
100
AcDbEntity
  8
2
  6
HIDDEN
 62
     2
370
    25
100
AcDbCircle
 10
645.2125702708577
 20
255.5129154642345
 30
0.0
 40
29.9594193296401
100
AcDbArc
 50
258.1816417592065
 51
264.0489506070742
  0
LINE
  5
3FB
330
1F
100
AcDbEntity
  8
2
  6
HIDDEN
 62
     2
370
    25
100
AcDbLine
 10
637.2008520980071
 20
238.1648209999996
 30
0.0
 11
639.0765911265753
 21
238.1648209999996
 31
0.0
  0
ARC
  5
3FC
330
1F
100
AcDbEntity
  8
2
  6
HIDDEN
 62
     2
370
    25
100
AcDbCircle
 10
634.6378746499922
 20
235.7291861587089
 30
0.0
 40
3.535699432806041
100
AcDbArc
 50
43.5406717533455
 51
136.4593282466545
  0
LINE
  5
3FD
330
1F
100
AcDbEntity
  8
2
  6
HIDDEN
 62
     2
370
    25
100
AcDbLine
 10
631.6748972019768
 20
250.9363938752538
 30
0.0
 11
631.6748972019768
 21
245.5932481247462
 31
0.0
  0
ARC
  5
3FE
330
1F
100
AcDbEntity
  8
2
  6
HIDDEN
 62
     2
370
    25
100
AcDbCircle
 10
631.6748972019768
 20
254.5932481247462
 30
0.0
 40
2.0
100
AcDbArc
 50
179.9999999999998
 51
225.0000000000089
  0
LINE
  5
3FF
330
1F
100
AcDbEntity
  8
2
  6
HIDDEN
 62
     2
370
    25
100
AcDbLine
 10
631.0891107643502
 20
252.3506074376271
 30
0.0
 11
630.2606836396039
 21
253.1790345623733
 31
0.0
  0
ARC
  5
400
330
1F
100
AcDbEntity
  8
2
  6
HIDDEN
 62
     2
370
    25
100
AcDbCircle
 10
629.6748972019768
 20
250.9363938752538
 30
0.0
 40
2.0
100
AcDbArc
 50
0.0
 51
45.0
  0
LINE
  5
401
330
1F
100
AcDbEntity
  8
2
  6
HIDDEN
 62
     2
370
    25
100
AcDbLine
 10
631.0334614735962
 20
253.6148209999999
 30
0.0
 11
642.6748972019768
 21
253.6148209999999
 31
0.0
  0
LINE
  5
402
330
1F
100
AcDbEntity
  8
2
  6
HIDDEN
 62
     2
370
    25
100
AcDbLine
 10
633.1285795092267
 20
251.764821
 30
0.0
 11
642.6748972019768
 21
251.764821
 31
0.0
  0
LINE
  5
403
330
1F
100
AcDbEntity
  8
2
  6
HIDDEN
 62
     2
370
    25
100
AcDbLine
 10
633.4958243600008
 20
244.7648209999998
 30
0.0
 11
642.9248972019773
 21
244.7648209999998
 31
0.0
  0
LINE
  5
404
330
1F
100
AcDbEntity
  8
2
  6
HIDDEN
 62
     2
370
    25
100
AcDbLine
 10
634.444278839368
 20
242.764821
 30
0.0
 11
641.5393814501804
 21
242.764821
 31
0.0
  0
LINE
  5
405
330
1F
100
AcDbEntity
  8
2
  6
HIDDEN
 62
     2
370
    25
100
AcDbLine
 10
634.3777201527046
 20
239.7648209999998
 30
0.0
 11
641.6964696931323
 21
239.7648209999998
 31
0.0
  0
ARC
  5
406
330
1F
100
AcDbEntity
  8
2
  6
HIDDEN
 62
     2
370
    25
100
AcDbCircle
 10
645.2125702708577
 20
221.6010755186046
 30
0.0
 40
17.66374548139507
100
AcDbArc
 50
101.335508169967
 51
110.3269651877109
  0
ARC
  5
407
330
1F
100
AcDbEntity
  8
2
  6
HIDDEN
 62
     2
370
    25
100
AcDbCircle
 10
627.6748972019768
 20
270.0008985340232
 30
0.0
 40
2.0
100
AcDbArc
 50
0.0
 51
35.65908769614022
  0
ARC
  5
408
330
1F
100
AcDbEntity
  8
2
  6
HIDDEN
 62
     2
370
    25
100
AcDbCircle
 10
630.9248972019768
 20
272.3327432972953
 30
0.0
 40
2.0
100
AcDbArc
 50
179.9999999999998
 51
215.6590876961399
  0
ARC
  5
409
330
1F
100
AcDbEntity
  8
2
  6
HIDDEN
 62
     2
370
    25
100
AcDbCircle
 10
626.9248972019768
 20
277.4419453444677
 30
0.0
 40
2.0
100
AcDbArc
 50
0.0
 51
41.40962210926975
  0
ARC
  5
40A
330
1F
100
AcDbEntity
  8
2
  6
HIDDEN
 62
     2
370
    25
100
AcDbCircle
 10
629.9248972019768
 20
280.0876966555318
 30
0.0
 40
2.0
100
AcDbArc
 50
179.9999999999998
 51
221.4096221092694
  0
LINE
  5
40B
330
1F
100
AcDbEntity
  8
2
  6
HIDDEN
 62
     2
370
    25
100
AcDbLine
 10
628.9248972019768
 20
277.4419453444677
 30
0.0
 11
628.9248972019768
 21
272.3327432972953
 31
0.0
  0
LINE
  5
40C
330
1F
100
AcDbEntity
  8
2
  6
HIDDEN
 62
     2
370
    25
100
AcDbLine
 10
630.3748972019766
 20
271.2648209999998
 30
0.0
 11
642.6748972019768
 21
271.2648209999998
 31
0.0
  0
LINE
  5
40D
330
1F
100
AcDbEntity
  8
2
  6
HIDDEN
 62
     2
370
    25
100
AcDbLine
 10
629.4248972019755
 20
278.764821
 30
0.0
 11
644.0291458909123
 21
278.764821
 31
0.0
  0
LINE
  5
40E
330
1F
100
AcDbEntity
  8
2
  6
HIDDEN
 62
     2
370
    25
100
AcDbLine
 10
629.6748972019768
 20
270.0008985340232
 30
0.0
 11
629.6748972019768
 21
254.5932481247462
 31
0.0
  0
LINE
  5
40F
330
1F
100
AcDbEntity
  8
2
  6
HIDDEN
 62
     2
370
    25
100
AcDbLine
 10
637.2008520980071
 20
226.1885814307029
 30
0.0
 11
637.2008520980071
 21
238.1648209999996
 31
0.0
  0
LINE
  5
410
330
1F
100
AcDbEntity
  8
2
  6
HIDDEN
 62
     2
370
    25
100
AcDbLine
 10
639.0765911265753
 20
226.1885814307029
 30
0.0
 11
639.0765911265753
 21
238.1648209999996
 31
0.0
  0
LINE
  5
411
330
1F
100
AcDbEntity
  8
2
  6
HIDDEN
 62
     2
370
    25
100
AcDbLine
 10
632.0748972019769
 20
226.1885814307029
 30
0.0
 11
632.0748972019769
 21
238.1648209999996
 31
0.0
  0
LINE
  5
412
330
1F
100
AcDbEntity
  8
2
  6
HIDDEN
 62
     2
370
    25
100
AcDbLine
 10
674.9748972019775
 20
271.2648209999999
 30
0.0
 11
661.6157411706699
 21
271.2648209999999
 31
0.0
  0
LINE
  5
413
330
1F
100
AcDbEntity
  8
2
  6
HIDDEN
 62
     2
370
    25
100
AcDbLine
 10
674.3163329303575
 20
253.614821
 30
0.0
 11
667.6748972019773
 21
253.614821
 31
0.0
  0
LINE
  5
414
330
1F
100
AcDbEntity
  8
2
  6
HIDDEN
 62
     2
370
    25
100
AcDbLine
 10
672.7286488847653
 20
251.7648210000001
 30
0.0
 11
667.6748972019773
 21
251.7648210000001
 31
0.0
  0
LINE
  5
415
330
1F
100
AcDbEntity
  8
2
  6
HIDDEN
 62
     2
370
    25
100
AcDbLine
 10
670.9055155645856
 20
242.7648210000001
 30
0.0
 11
668.8104129537737
 21
242.7648210000001
 31
0.0
  0
LINE
  5
416
330
1F
100
AcDbEntity
  8
2
  6
HIDDEN
 62
     2
370
    25
100
AcDbLine
 10
671.8539700439533
 20
244.7648209999999
 30
0.0
 11
667.413083463724
 21
244.7648209999999
 31
0.0
  0
LINE
  5
417
330
1F
100
AcDbEntity
  8
2
  6
HIDDEN
 62
     2
370
    25
100
AcDbLine
 10
671.6748972019773
 20
225.2648209999999
 30
0.0
 11
668.2315923605752
 21
225.2648209999999
 31
0.0
  0
LINE
  5
418
330
1F
100
AcDbEntity
  8
2
  6
HIDDEN
 62
     2
370
    25
100
AcDbLine
 10
670.9720742512495
 20
239.7648209999999
 30
0.0
 11
668.6533247108218
 21
239.7648209999999
 31
0.0
  0
POLYLINE
  5
419
330
1F
100
AcDbEntity
  8
2
  6
HIDDEN
 62
     2
370
    25
100
AcDb2dPolyline
 66
     1
 10
0.0
 20
0.0
 30
0.0
  0
VERTEX
  5
41A
330
419
100
AcDbEntity
  8
2
  6
HIDDEN
 62
     2
370
    25
100
AcDbVertex
100
AcDb2dVertex
 10
669.4207319178686
 20
224.9433279702188
 30
0.0
  0
VERTEX
  5
41B
330
419
100
AcDbEntity
  8
2
  6
HIDDEN
 62
     2
370
    25
100
AcDbVertex
100
AcDb2dVertex
 10
669.6748972019768
 20
216.8528485920384
 30
0.0
  0
SEQEND
  5
41C
330
419
100
AcDbEntity
  8
2
  6
HIDDEN
 62
     2
370
    25
  0
POLYLINE
  5
41D
330
1F
100
AcDbEntity
  8
2
  6
HIDDEN
 62
     2
370
    25
100
AcDb2dPolyline
 66
     1
 10
0.0
 20
0.0
 30
0.0
  0
VERTEX
  5
41E
330
41D
100
AcDbEntity
  8
2
  6
HIDDEN
 62
     2
370
    25
100
AcDbVertex
100
AcDb2dVertex
 10
638.0029175313589
 20
224.9438951069683
 30
0.0
  0
VERTEX
  5
41F
330
41D
100
AcDbEntity
  8
2
  6
HIDDEN
 62
     2
370
    25
100
AcDbVertex
100
AcDb2dVertex
 10
637.819123875124
 20
219.0934549462451
 30
0.0
  0
VERTEX
  5
420
330
41D
100
AcDbEntity
  8
2
  6
HIDDEN
 62
     2
370
    25
100
AcDbVertex
100
AcDb2dVertex
 10
636.4507329536768
 20
217.1332398448486
 30
0.0
  0
SEQEND
  5
421
330
41D
100
AcDbEntity
  8
2
  6
HIDDEN
 62
     2
370
    25
  0
POLYLINE
  5
422
330
1F
100
AcDbEntity
  8
2
  6
HIDDEN
 62
     2
370
    25
100
AcDb2dPolyline
 66
     1
 10
0.0
 20
0.0
 30
0.0
  0
VERTEX
  5
423
330
422
100
AcDbEntity
  8
2
  6
HIDDEN
 62
     2
370
    25
100
AcDbVertex
100
AcDb2dVertex
 10
635.6748972019768
 20
216.8528485920382
 30
0.0
  0
VERTEX
  5
424
330
422
100
AcDbEntity
  8
2
  6
HIDDEN
 62
     2
370
    25
100
AcDbVertex
100
AcDb2dVertex
 10
635.9290811791573
 20
224.943923
 30
0.0
  0
SEQEND
  5
425
330
422
100
AcDbEntity
  8
2
  6
HIDDEN
 62
     2
370
    25
  0
POLYLINE
  5
426
330
1F
100
AcDbEntity
  8
2
  6
HIDDEN
 62
     2
370
    25
100
AcDb2dPolyline
 66
     1
 10
0.0
 20
0.0
 30
0.0
  0
VERTEX
  5
427
330
426
100
AcDbEntity
  8
2
  6
HIDDEN
 62
     2
370
    25
100
AcDbVertex
100
AcDb2dVertex
 10
669.3633893336992
 20
197.7686323045217
 30
0.0
  0
VERTEX
  5
428
330
426
100
AcDbEntity
  8
2
  6
HIDDEN
 62
     2
370
    25
100
AcDbVertex
100
AcDb2dVertex
 10
669.6748972019768
 20
207.6844160170052
 30
0.0
  0
SEQEND
  5
429
330
426
100
AcDbEntity
  8
2
  6
HIDDEN
 62
     2
370
    25
  0
POLYLINE
  5
42A
330
1F
100
AcDbEntity
  8
2
  6
HIDDEN
 62
     2
370
    25
100
AcDb2dPolyline
 66
     1
 10
0.0
 20
0.0
 30
0.0
  0
VERTEX
  5
42B
330
42A
100
AcDbEntity
  8
2
  6
HIDDEN
 62
     2
370
    25
100
AcDbVertex
100
AcDb2dVertex
 10
635.6748972019768
 20
207.6844160170053
 30
0.0
  0
VERTEX
  5
42C
330
42A
100
AcDbEntity
  8
2
  6
HIDDEN
 62
     2
370
    25
100
AcDbVertex
100
AcDb2dVertex
 10
635.9864050702545
 20
197.7686323045218
 30
0.0
  0
SEQEND
  5
42D
330
42A
100
AcDbEntity
  8
2
  6
HIDDEN
 62
     2
370
    25
  0
POLYLINE
  5
42E
330
1F
100
AcDbEntity
  8
2
  6
HIDDEN
 62
     2
370
    25
100
AcDb2dPolyline
 66
     1
 10
0.0
 20
0.0
 30
0.0
  0
VERTEX
  5
42F
330
42E
100
AcDbEntity
  8
2
  6
HIDDEN
 62
     2
370
    25
100
AcDbVertex
100
AcDb2dVertex
 10
637.9864050702545
 20
197.7686323045218
 30
0.0
  0
VERTEX
  5
430
330
42E
100
AcDbEntity
  8
2
  6
HIDDEN
 62
     2
370
    25
100
AcDbVertex
100
AcDb2dVertex
 10
637.7822052608885
 20
204.2686323045217
 30
0.0
  0
VERTEX
  5
431
330
42E
100
AcDbEntity
  8
2
  6
HIDDEN
 62
     2
370
    25
100
AcDbVertex
100
AcDb2dVertex
 10
635.6879591950274
 20
207.2686323045217
 30
0.0
  0
SEQEND
  5
432
330
42E
100
AcDbEntity
  8
2
  6
HIDDEN
 62
     2
370
    25
  0
POLYLINE
  5
433
330
1F
100
AcDbEntity
  8
2
  6
HIDDEN
 62
     2
370
    25
100
AcDb2dPolyline
 66
     1
 10
0.0
 20
0.0
 30
0.0
  0
VERTEX
  5
434
330
433
100
AcDbEntity
  8
2
  6
HIDDEN
 62
     2
370
    25
100
AcDbVertex
100
AcDb2dVertex
 10
669.6748972019768
 20
149.3851249999998
 30
0.0
  0
VERTEX
  5
435
330
433
100
AcDbEntity
  8
2
  6
HIDDEN
 62
     2
370
    25
100
AcDbVertex
100
AcDb2dVertex
 10
667.6748972019768
 20
151.7686319999998
 30
0.0
  0
VERTEX
  5
436
330
433
100
AcDbEntity
  8
2
  6
HIDDEN
 62
     2
370
    25
100
AcDbVertex
100
AcDb2dVertex
 10
667.6748972019768
 20
155.768632
 30
0.0
  0
SEQEND
  5
437
330
433
100
AcDbEntity
  8
2
  6
HIDDEN
 62
     2
370
    25
  0
POLYLINE
  5
438
330
1F
100
AcDbEntity
  8
2
  6
HIDDEN
 62
     2
370
    25
100
AcDb2dPolyline
 66
     1
 10
0.0
 20
0.0
 30
0.0
  0
VERTEX
  5
439
330
438
100
AcDbEntity
  8
2
  6
HIDDEN
 62
     2
370
    25
100
AcDbVertex
100
AcDb2dVertex
 10
635.6748972019768
 20
149.3851249999998
 30
0.0
  0
VERTEX
  5
43A
330
438
100
AcDbEntity
  8
2
  6
HIDDEN
 62
     2
370
    25
100
AcDbVertex
100
AcDb2dVertex
 10
637.6748972019768
 20
151.7686319999998
 30
0.0
  0
VERTEX
  5
43B
330
438
100
AcDbEntity
  8
2
  6
HIDDEN
 62
     2
370
    25
100
AcDbVertex
100
AcDb2dVertex
 10
637.6748972019768
 20
155.768632
 30
0.0
  0
SEQEND
  5
43C
330
438
100
AcDbEntity
  8
2
  6
HIDDEN
 62
     2
370
    25
  0
POLYLINE
  5
43D
330
1F
100
AcDbEntity
  8
2
  6
HIDDEN
 62
     2
370
    25
100
AcDb2dPolyline
 66
     1
 10
0.0
 20
0.0
 30
0.0
  0
VERTEX
  5
43E
330
43D
100
AcDbEntity
  8
2
  6
HIDDEN
 62
     2
370
    25
100
AcDbVertex
100
AcDb2dVertex
 10
669.6748972019768
 20
149.3851249999998
 30
0.0
  0
VERTEX
  5
43F
330
43D
100
AcDbEntity
  8
2
  6
HIDDEN
 62
     2
370
    25
100
AcDbVertex
100
AcDb2dVertex
 10
667.6748972019768
 20
151.7686319999998
 30
0.0
  0
VERTEX
  5
440
330
43D
100
AcDbEntity
  8
2
  6
HIDDEN
 62
     2
370
    25
100
AcDbVertex
100
AcDb2dVertex
 10
667.6748972019768
 20
155.768632
 30
0.0
  0
SEQEND
  5
441
330
43D
100
AcDbEntity
  8
2
  6
HIDDEN
 62
     2
370
    25
  0
POLYLINE
  5
442
330
1F
100
AcDbEntity
  8
2
  6
HIDDEN
 62
     2
370
    25
100
AcDb2dPolyline
 66
     1
 10
0.0
 20
0.0
 30
0.0
  0
VERTEX
  5
443
330
442
100
AcDbEntity
  8
2
  6
HIDDEN
 62
     2
370
    25
100
AcDbVertex
100
AcDb2dVertex
 10
635.6748972019768
 20
149.3851249999998
 30
0.0
  0
VERTEX
  5
444
330
442
100
AcDbEntity
  8
2
  6
HIDDEN
 62
     2
370
    25
100
AcDbVertex
100
AcDb2dVertex
 10
637.6748972019768
 20
151.7686319999998
 30
0.0
  0
VERTEX
  5
445
330
442
100
AcDbEntity
  8
2
  6
HIDDEN
 62
     2
370
    25
100
AcDbVertex
100
AcDb2dVertex
 10
637.6748972019768
 20
155.768632
 30
0.0
  0
SEQEND
  5
446
330
442
100
AcDbEntity
  8
2
  6
HIDDEN
 62
     2
370
    25
  0
LINE
  5
447
330
1F
100
AcDbEntity
  8
2
  6
HIDDEN
 62
     2
370
    25
100
AcDbLine
 10
669.6748972019768
 20
155.768632
 30
0.0
 11
669.6748972019768
 21
103.3566089999999
 31
0.0
  0
LINE
  5
448
330
1F
100
AcDbEntity
  8
2
  6
HIDDEN
 62
     2
370
    25
100
AcDbLine
 10
635.6748972019768
 20
155.768632
 30
0.0
 11
635.6748972019768
 21
103.3566089999999
 31
0.0
  0
POLYLINE
  5
449
330
1F
100
AcDbEntity
  8
2
  6
HIDDEN
 62
     2
370
    25
100
AcDb2dPolyline
 66
     1
 10
0.0
 20
0.0
 30
0.0
  0
VERTEX
  5
44A
330
449
100
AcDbEntity
  8
2
  6
HIDDEN
 62
     2
370
    25
100
AcDbVertex
100
AcDb2dVertex
 10
669.6748972019768
 20
310.6483279999999
 30
0.0
  0
VERTEX
  5
44B
330
449
100
AcDbEntity
  8
2
  6
HIDDEN
 62
     2
370
    25
100
AcDbVertex
100
AcDb2dVertex
 10
667.6748972019768
 20
308.2648209999999
 30
0.0
  0
VERTEX
  5
44C
330
449
100
AcDbEntity
  8
2
  6
HIDDEN
 62
     2
370
    25
100
AcDbVertex
100
AcDb2dVertex
 10
667.6748972019768
 20
304.2648209999999
 30
0.0
  0
SEQEND
  5
44D
330
449
100
AcDbEntity
  8
2
  6
HIDDEN
 62
     2
370
    25
  0
POLYLINE
  5
44E
330
1F
100
AcDbEntity
  8
2
  6
HIDDEN
 62
     2
370
    25
100
AcDb2dPolyline
 66
     1
 10
0.0
 20
0.0
 30
0.0
  0
VERTEX
  5
44F
330
44E
100
AcDbEntity
  8
2
  6
HIDDEN
 62
     2
370
    25
100
AcDbVertex
100
AcDb2dVertex
 10
635.6748972019768
 20
310.6483279999999
 30
0.0
  0
VERTEX
  5
450
330
44E
100
AcDbEntity
  8
2
  6
HIDDEN
 62
     2
370
    25
100
AcDbVertex
100
AcDb2dVertex
 10
637.6748972019768
 20
308.2648209999999
 30
0.0
  0
VERTEX
  5
451
330
44E
100
AcDbEntity
  8
2
  6
HIDDEN
 62
     2
370
    25
100
AcDbVertex
100
AcDb2dVertex
 10
637.6748972019768
 20
304.2648209999999
 30
0.0
  0
SEQEND
  5
452
330
44E
100
AcDbEntity
  8
2
  6
HIDDEN
 62
     2
370
    25
  0
LINE
  5
453
330
1F
100
AcDbEntity
  8
2
  6
HIDDEN
 62
     2
370
    25
100
AcDbLine
 10
635.6748972019768
 20
308.2648209999999
 30
0.0
 11
669.6748972019768
 21
308.2648209999999
 31
0.0
  0
LINE
  5
454
330
1F
100
AcDbEntity
  8
2
  6
HIDDEN
 62
     2
370
    25
100
AcDbLine
 10
669.6748972019768
 20
304.2648209999999
 30
0.0
 11
669.6748972019768
 21
354.1406549999998
 31
0.0
  0
LINE
  5
455
330
1F
100
AcDbEntity
  8
2
  6
HIDDEN
 62
     2
370
    25
100
AcDbLine
 10
635.6748972019768
 20
304.2648209999999
 30
0.0
 11
635.6748972019768
 21
354.1406549999998
 31
0.0
  0
MTEXT
  5
456
330
1F
100
AcDbEntity
  8
9
  6
Continuous
 62
     7
370
     9
100
AcDbMText
 10
114.6392912979745
 20
203.9173255279391
 30
0.0
 40
5.0
 41
87.2184634588
 71
     5
 72
     1
  1
{\fＭＳ Ｐゴシック;\W0.714286;千住スプリンクラー株式会社}
 73
     1
 44
1.0
1001
ACAD
1000
ACAD_MTEXT_DEFINED_HEIGHT_BEGIN
1070
    46
1040
5.0
1000
ACAD_MTEXT_DEFINED_HEIGHT_END
  0
MTEXT
  5
457
330
1F
100
AcDbEntity
  8
9
  6
Continuous
 62
     7
370
     9
100
AcDbMText
 10
114.6392912979745
 20
252.5997433508335
 30
0.0
 40
9.0
 41
104.42177034012
 71
     5
 72
     1
  1
{\fＭＳ Ｐゴシック;\W0.714286;スプリンクラー設備}
 73
     1
 44
1.0
1001
ACAD
1000
ACAD_MTEXT_DEFINED_HEIGHT_BEGIN
1070
    46
1040
9.0
1000
ACAD_MTEXT_DEFINED_HEIGHT_END
  0
MTEXT
  5
458
330
1F
100
AcDbEntity
  8
9
  6
Continuous
 62
     7
370
     9
100
AcDbMText
 10
114.6392912979745
 20
234.7920656666627
 30
0.0
 40
9.0
 41
78.03105978384
 71
     5
 72
     1
  1
{\fＭＳ Ｐゴシック;\W0.714286;末端試験装置}
 73
     1
 44
1.0
1001
ACAD
1000
ACAD_MTEXT_DEFINED_HEIGHT_BEGIN
1070
    46
1040
9.0
1000
ACAD_MTEXT_DEFINED_HEIGHT_END
  0
MTEXT
  5
459
330
1F
100
AcDbEntity
  8
6
  6
Continuous
 62
     3
370
     9
100
AcDbMText
 10
274.297865952816
 20
14.3648667230982
 30
0.0
 40
6.0
 41
107.54070015912
 71
     7
 72
     1
  1
{\fＭＳ Ｐゴシック;\W0.714286;末端試験装置B用BOX TC-B}
 73
     1
 44
1.0
1001
ACAD
1000
ACAD_MTEXT_DEFINED_HEIGHT_BEGIN
1070
    46
1040
6.0
1000
ACAD_MTEXT_DEFINED_HEIGHT_END
  0
MTEXT
  5
45A
330
1F
100
AcDbEntity
  8
6
  6
Continuous
 62
     3
370
     9
100
AcDbMText
 10
636.2978649528161
 20
3.864866723098203
 30
0.0
 40
6.000000000000001
 41
30.14255491416
 71
     7
 72
     1
  1
{\fＭＳ Ｐゴシック;\W0.714286;尺度1/2}
 73
     1
 44
1.0
1001
ACAD
1000
ACAD_MTEXT_DEFINED_HEIGHT_BEGIN
1070
    46
1040
6.000000000000001
1000
ACAD_MTEXT_DEFINED_HEIGHT_END
  0
MTEXT
  5
45B
330
1F
100
AcDbEntity
  8
6
  6
Continuous
 62
     3
370
     9
100
AcDbMText
 10
636.2978649528161
 20
14.3648667230982
 30
0.0
 40
6.0
 41
107.54070015912
 71
     7
 72
     1
  1
{\fＭＳ Ｐゴシック;\W0.714286;末端試験装置B用BOX TC-B}
 73
     1
 44
1.0
1001
ACAD
1000
ACAD_MTEXT_DEFINED_HEIGHT_BEGIN
1070
    46
1040
6.0
1000
ACAD_MTEXT_DEFINED_HEIGHT_END
  0
LINE
  5
45C
330
1F
100
AcDbEntity
  8
4
  6
PHANTOM
 62
     2
370
    25
100
AcDbLine
 10
307.6748982019767
 20
103.3566089999999
 30
0.0
 11
307.6748982019767
 21
354.1406549999999
 31
0.0
  0
LINE
  5
45D
330
1F
100
AcDbEntity
  8
4
  6
PHANTOM
 62
     2
370
    25
100
AcDbLine
 10
474.3892902498785
 20
279.7648210000002
 30
0.0
 11
474.3892902498785
 21
250.9195215383795
 31
0.0
  0
LINE
  5
45E
330
1F
100
AcDbEntity
  8
4
  6
PHANTOM
 62
     2
370
    25
100
AcDbLine
 10
487.0392902498784
 20
267.7648210000002
 30
0.0
 11
487.0392902498784
 21
261.7648210000002
 31
0.0
  0
LINE
  5
45F
330
1F
100
AcDbEntity
  8
4
  6
PHANTOM
 62
     2
370
    25
100
AcDbLine
 10
486.0392902498784
 20
268.7648210000002
 30
0.0
 11
486.0392902498784
 21
260.7648210000002
 31
0.0
  0
LINE
  5
460
330
1F
100
AcDbEntity
  8
4
  6
PHANTOM
 62
     2
370
    25
100
AcDbLine
 10
473.3892902498785
 20
274.2648210000002
 30
0.0
 11
473.3892902498785
 21
255.2648210000002
 31
0.0
  0
LINE
  5
461
330
1F
100
AcDbEntity
  8
4
  6
PHANTOM
 62
     2
370
    25
100
AcDbLine
 10
462.8892902498783
 20
273.2648210000002
 30
0.0
 11
462.8892902498783
 21
256.2648210000002
 31
0.0
  0
LINE
  5
462
330
1F
100
AcDbEntity
  8
4
  6
PHANTOM
 62
     2
370
    25
100
AcDbLine
 10
462.3892902498785
 20
284.7648210000002
 30
0.0
 11
462.3892902498785
 21
280.0876960000005
 31
0.0
  0
LINE
  5
463
330
1F
100
AcDbEntity
  8
4
  6
PHANTOM
 62
     2
370
    25
100
AcDbLine
 10
438.9656382498786
 20
226.1885809999999
 30
0.0
 11
436.3129422498785
 21
226.1885809999998
 31
0.0
  0
LINE
  5
464
330
1F
100
AcDbEntity
  8
4
  6
PHANTOM
 62
     2
370
    25
100
AcDbLine
 10
438.9656382498786
 20
238.1648210000001
 30
0.0
 11
436.3129422498785
 21
238.164821
 31
0.0
  0
LINE
  5
465
330
1F
100
AcDbEntity
  8
4
  6
PHANTOM
 62
     2
370
    25
100
AcDbLine
 10
419.3421132498786
 20
239.7648210000001
 30
0.0
 11
455.9364672498787
 21
239.7648210000002
 31
0.0
  0
LINE
  5
466
330
1F
100
AcDbEntity
  8
4
  6
PHANTOM
 62
     2
370
    25
100
AcDbLine
 10
418.6392902498785
 20
225.2648210000001
 30
0.0
 11
456.6392902498785
 21
225.2648210000002
 31
0.0
  0
LINE
  5
467
330
1F
100
AcDbEntity
  8
4
  6
PHANTOM
 62
     2
370
    25
100
AcDbLine
 10
419.4086712498786
 20
242.7648210000001
 30
0.0
 11
455.8699082498786
 21
242.7648210000002
 31
0.0
  0
LINE
  5
468
330
1F
100
AcDbEntity
  8
4
  6
PHANTOM
 62
     2
370
    25
100
AcDbLine
 10
418.4602172498785
 20
244.7648210000001
 30
0.0
 11
456.8183632498785
 21
244.7648210000002
 31
0.0
  0
LINE
  5
469
330
1F
100
AcDbEntity
  8
4
  6
PHANTOM
 62
     2
370
    25
100
AcDbLine
 10
438.9656382498786
 20
303.3410599999999
 30
0.0
 11
436.3129422498785
 21
303.3410599999999
 31
0.0
  0
LINE
  5
46A
330
1F
100
AcDbEntity
  8
4
  6
PHANTOM
 62
     2
370
    25
100
AcDbLine
 10
412.8892902498785
 20
284.7648210000001
 30
0.0
 11
412.8892902498785
 21
280.0876960000004
 31
0.0
  0
LINE
  5
46B
330
1F
100
AcDbEntity
  8
4
  6
PHANTOM
 62
     2
370
    25
100
AcDbLine
 10
418.6392902498785
 20
304.2648210000001
 30
0.0
 11
456.6392902498783
 21
304.2648210000002
 31
0.0
  0
LINE
  5
46C
330
1F
100
AcDbEntity
  8
4
  6
PHANTOM
 62
     2
370
    25
100
AcDbLine
 10
414.3892902498785
 20
278.7648210000001
 30
0.0
 11
460.8892902498785
 21
278.7648210000002
 31
0.0
  0
LINE
  5
46D
330
1F
100
AcDbEntity
  8
4
  6
PHANTOM
 62
     2
370
    25
100
AcDbLine
 10
412.8892902498785
 20
282.7648210000001
 30
0.0
 11
462.3892902498785
 21
282.7648210000002
 31
0.0
  0
LINE
  5
46E
330
1F
100
AcDbEntity
  8
4
  6
PHANTOM
 62
     2
370
    25
100
AcDbLine
 10
413.8892902498785
 20
285.7648210000001
 30
0.0
 11
461.3892902498785
 21
285.7648210000002
 31
0.0
  0
LINE
  5
46F
330
1F
100
AcDbEntity
  8
4
  6
PHANTOM
 62
     2
370
    25
100
AcDbLine
 10
415.3392902498786
 20
271.2648210000001
 30
0.0
 11
459.0820762498786
 21
271.2648210000002
 31
0.0
  0
LINE
  5
470
330
1F
100
AcDbEntity
  8
4
  6
PHANTOM
 62
     2
370
    25
100
AcDbLine
 10
415.9978542498786
 20
253.614821
 30
0.0
 11
459.2807262498786
 21
253.6148210000001
 31
0.0
  0
LINE
  5
471
330
1F
100
AcDbEntity
  8
4
  6
PHANTOM
 62
     2
370
    25
100
AcDbLine
 10
418.0929722498786
 20
251.7648210000001
 30
0.0
 11
457.6930422498785
 21
251.7648210000002
 31
0.0
  0
LINE
  5
472
330
1F
100
AcDbEntity
  8
2
  6
HIDDEN
 62
     2
370
    25
100
AcDbLine
 10
653.9248972019773
 20
219.8648209999996
 30
0.0
 11
656.4248972019773
 21
219.8648209999996
 31
0.0
  0
LINE
  5
473
330
1F
100
AcDbEntity
  8
2
  6
HIDDEN
 62
     2
370
    25
100
AcDbLine
 10
653.9248972019773
 20
222.0648209999998
 30
0.0
 11
656.4248972019773
 21
222.0648209999998
 31
0.0
  0
LINE
  5
474
330
1F
100
AcDbEntity
  8
2
  6
HIDDEN
 62
     2
370
    25
100
AcDbLine
 10
648.6748972019773
 20
278.7648209999995
 30
0.0
 11
675.9248972019786
 21
278.7648210000001
 31
0.0
  0
LINE
  5
475
330
1F
100
AcDbEntity
  8
2
  6
HIDDEN
 62
     2
370
    25
100
AcDbLine
 10
667.6748972019773
 20
267.614821
 30
0.0
 11
667.6748972019773
 21
261.914821
 31
0.0
  0
LINE
  5
476
330
1F
100
AcDbEntity
  8
2
  6
HIDDEN
 62
     2
370
    25
100
AcDbLine
 10
654.0012449888136
 20
303.3410605692967
 30
0.0
 11
651.34854941514
 21
303.3410605692966
 31
0.0
  0
LINE
  5
477
330
1F
100
AcDbEntity
  8
2
  6
HIDDEN
 62
     2
370
    25
100
AcDbLine
 10
671.6748972019773
 20
304.2648210000001
 30
0.0
 11
633.6748972019768
 21
304.264821
 31
0.0
  0
LINE
  5
478
330
1F
100
AcDbEntity
  8
2
  6
HIDDEN
 62
     2
370
    25
100
AcDbLine
 10
676.4248972019773
 20
285.7648210000001
 30
0.0
 11
628.9248972019768
 21
285.764821
 31
0.0
  0
LINE
  5
479
330
1F
100
AcDbEntity
  8
2
  6
HIDDEN
 62
     2
370
    25
100
AcDbLine
 10
677.4248972019773
 20
284.7648210000001
 30
0.0
 11
677.4248972019773
 21
280.0876966555319
 31
0.0
  0
LINE
  5
47A
330
1F
100
AcDbEntity
  8
2
  6
HIDDEN
 62
     2
370
    25
100
AcDbLine
 10
627.9248972019768
 20
284.764821
 30
0.0
 11
627.9248972019768
 21
280.0876966555318
 31
0.0
  0
LINE
  5
47B
330
1F
100
AcDbEntity
  8
2
  6
HIDDEN
 62
     2
370
    25
100
AcDbLine
 10
627.9248972019768
 20
282.764821
 30
0.0
 11
677.4248972019773
 21
282.7648210000001
 31
0.0
  0
VIEWPORT
  5
6A
102
{ACAD_XDICTIONARY
360
483
102
}
330
1B
100
AcDbEntity
 67
     1
  8
0
100
AcDbViewport
 10
420.0
 20
297.0
 30
0.0
 40
840.0
 41
594.0
 68
     1
 69
     1
 12
420.0
 22
297.0
 13
0.0
 23
0.0
 14
0.5
 24
0.5
 15
0.5
 25
0.5
 16
0.0
 26
0.0
 36
1.0
 17
0.0
 27
0.0
 37
0.0
 42
50.0
 43
0.0
 44
0.0
 45
9.0
 50
0.0
 51
0.0
 72
   100
 90
   557152
  1

281
     0
 71
     1
 74
     0
110
0.0
120
0.0
130
0.0
111
1.0
121
0.0
131
0.0
112
0.0
122
1.0
132
0.0
 79
     0
146
0.0
  0
ENDSEC
  0
SECTION
  2
OBJECTS
  0
DICTIONARY
  5
C
330
0
100
AcDbDictionary
281
     1
  3
ACAD_GROUP
350
D
  3
ACAD_LAYOUT
350
1A
  3
ACAD_MATERIAL
350
43
  3
ACAD_MLEADERSTYLE
350
47E
  3
ACAD_MLINESTYLE
350
17
  3
ACAD_PLOTSETTINGS
350
19
  3
ACAD_PLOTSTYLENAME
350
E
  3
ACAD_SCALELIST
350
47
  3
ACAD_VISUALSTYLE
350
2A
  3
AcDbVariableDictionary
350
47C
  0
DICTIONARY
  5
485
330
8
100
AcDbDictionary
280
     1
281
     1
  3
ACAD_XREC_ROUNDTRIP
360
486
  0
DICTIONARY
  5
483
330
6A
100
AcDbDictionary
280
     1
281
     1
  3
ACAD_XREC_ROUNDTRIP
360
484
  0
DICTIONARY
  5
D
102
{ACAD_REACTORS
330
C
102
}
330
C
100
AcDbDictionary
281
     1
  0
DICTIONARY
  5
1A
102
{ACAD_REACTORS
330
C
102
}
330
C
100
AcDbDictionary
281
     1
  3
Layout1
350
1E
  3
Layout2
350
26
  3
Model
350
22
  0
DICTIONARY
  5
43
102
{ACAD_REACTORS
330
C
102
}
330
C
100
AcDbDictionary
281
     1
  3
ByBlock
350
45
  3
ByLayer
350
44
  3
Global
350
46
  0
DICTIONARY
  5
47E
102
{ACAD_REACTORS
330
C
102
}
330
C
100
AcDbDictionary
281
     1
  0
DICTIONARY
  5
17
102
{ACAD_REACTORS
330
C
102
}
330
C
100
AcDbDictionary
281
     1
  3
Standard
350
18
  0
DICTIONARY
  5
19
102
{ACAD_REACTORS
330
C
102
}
330
C
100
AcDbDictionary
281
     1
  0
ACDBDICTIONARYWDFLT
  5
E
102
{ACAD_REACTORS
330
C
102
}
330
C
100
AcDbDictionary
281
     1
  3
Normal
350
F
100
AcDbDictionaryWithDefault
340
F
  0
DICTIONARY
  5
47
102
{ACAD_REACTORS
330
C
102
}
330
C
100
AcDbDictionary
281
     1
  3
A0
350
48
  3
A1
350
49
  3
A2
350
4A
  3
A3
350
4B
  3
A4
350
4C
  3
A5
350
4D
  3
A6
350
4E
  3
A7
350
4F
  3
A8
350
50
  3
A9
350
51
  3
B0
350
52
  3
B1
350
53
  3
B2
350
54
  3
B3
350
55
  3
B4
350
56
  3
B5
350
57
  3
B6
350
58
  3
B7
350
59
  3
B8
350
5A
  3
B9
350
5B
  3
C0
350
5C
  3
C1
350
5D
  3
C2
350
5E
  3
C3
350
5F
  3
C4
350
60
  3
C5
350
61
  3
C6
350
62
  3
C7
350
63
  3
C8
350
64
  3
C9
350
65
  3
D0
350
66
  3
D1
350
67
  3
D2
350
68
  0
DICTIONARY
  5
2A
102
{ACAD_REACTORS
330
C
102
}
330
C
100
AcDbDictionary
281
     1
  3
2dWireframe
350
2F
  3
Basic
350
32
  3
Brighten
350
36
  3
ColorChange
350
3A
  3
Conceptual
350
34
  3
Dim
350
35
  3
EdgeColorOff
350
3D
  3
Facepattern
350
39
  3
Flat
350
2B
  3
FlatWithEdges
350
2C
  3
Gouraud
350
2D
  3
GouraudWithEdges
350
2E
  3
Hidden
350
31
  3
JitterOff
350
3B
  3
Linepattern
350
38
  3
OverhangOff
350
3C
  3
Realistic
350
33
  3
Shaded
350
42
  3
Shaded with edges
350
41
  3
Shades of Gray
350
3E
  3
Sketchy
350
3F
  3
Thicken
350
37
  3
Wireframe
350
30
  3
X-Ray
350
40
  0
DICTIONARY
  5
47C
102
{ACAD_REACTORS
330
C
102
}
330
C
100
AcDbDictionary
281
     1
  3
CANNOSCALE
350
487
  3
DIMASSOC
350
47F
  3
HIDETEXT
350
482
  3
MSLTSCALE
350
488
  0
XRECORD
  5
486
102
{ACAD_REACTORS
330
485
102
}
330
485
100
AcDbXrecord
280
     1
102
VTR_0.000_0.000_1.000_1.000_GRIDDISPLAY
 70
     3
102
VTR_0.000_0.000_1.000_1.000_GRIDMAJOR
 70
     5
102
VTR_0.000_0.000_1.000_1.000_DEFAULTLIGHTING
280
     1
102
VTR_0.000_0.000_1.000_1.000_DEFAULTLIGHTINGTYPE
 70
     1
102
VTR_0.000_0.000_1.000_1.000_BRIGHTNESS
141
0.0
102
VTR_0.000_0.000_1.000_1.000_CONTRAST
142
0.0
  0
XRECORD
  5
484
102
{ACAD_REACTORS
330
483
102
}
330
483
100
AcDbXrecord
280
     1
102
GRIDDISPLAY
 70
     2
102
GRIDMAJOR
 70
     5
102
DEFAULTLIGHTING
280
     1
102
DEFAULTLIGHTINGTYPE
 70
     1
102
BRIGHTNESS
141
0.0
102
CONTRAST
142
0.0
  0
LAYOUT
  5
1E
102
{ACAD_REACTORS
330
1A
102
}
330
1A
100
AcDbPlotSettings
  1

  2
none_device
  4

  6

 40
0.0
 41
0.0
 42
0.0
 43
0.0
 44
0.0
 45
0.0
 46
0.0
 47
0.0
 48
0.0
 49
0.0
140
0.0
141
0.0
142
1.0
143
1.0
 70
   688
 72
     0
 73
     0
 74
     5
  7

 75
    16
147
1.0
148
0.0
149
0.0
100
AcDbLayout
  1
Layout1
 70
     1
 71
     1
 10
0.0
 20
0.0
 11
420.0
 21
297.0
 12
0.0
 22
0.0
 32
0.0
 14
0.0
 24
0.0
 34
0.0
 15
420.0
 25
297.0
 35
0.0
146
0.0
 13
0.0
 23
0.0
 33
0.0
 16
1.0
 26
0.0
 36
0.0
 17
0.0
 27
1.0
 37
0.0
 76
     0
330
1B
331
6A
  0
LAYOUT
  5
26
102
{ACAD_REACTORS
330
1A
102
}
330
1A
100
AcDbPlotSettings
  1

  2
none_device
  4

  6

 40
0.0
 41
0.0
 42
0.0
 43
0.0
 44
0.0
 45
0.0
 46
0.0
 47
0.0
 48
0.0
 49
0.0
140
0.0
141
0.0
142
1.0
143
1.0
 70
   688
 72
     0
 73
     0
 74
     5
  7

 75
    16
147
1.0
148
0.0
149
0.0
100
AcDbLayout
  1
Layout2
 70
     1
 71
     2
 10
0.0
 20
0.0
 11
0.0
 21
0.0
 12
0.0
 22
0.0
 32
0.0
 14
0.0
 24
0.0
 34
0.0
 15
0.0
 25
0.0
 35
0.0
146
0.0
 13
0.0
 23
0.0
 33
0.0
 16
1.0
 26
0.0
 36
0.0
 17
0.0
 27
1.0
 37
0.0
 76
     0
330
23
  0
LAYOUT
  5
22
102
{ACAD_REACTORS
330
1A
102
}
330
1A
100
AcDbPlotSettings
  1

  2
none_device
  4
Letter_(8.50_x_11.00_Inches)
  6

 40
6.35
 41
6.35
 42
6.35000508
 43
6.35000508
 44
215.9
 45
279.4
 46
0.0
 47
0.0
 48
0.0
 49
0.0
140
0.0
141
0.0
142
1.0
143
1.0
 70
  1712
 72
     0
 73
     0
 74
     0
  7

 75
     0
147
1.0
148
0.0
149
0.0
100
AcDbLayout
  1
Model
 70
     1
 71
     0
 10
0.0
 20
0.0
 11
420.0
 21
297.0
 12
0.0
 22
0.0
 32
0.0
 14
0.0
 24
0.0
 34
0.0
 15
723.9999980000002
 25
546.0000000000001
 35
0.0
146
0.0
 13
0.0
 23
0.0
 33
0.0
 16
1.0
 26
0.0
 36
0.0
 17
0.0
 27
1.0
 37
0.0
 76
     0
330
1F
331
29
  0
MATERIAL
  5
45
102
{ACAD_REACTORS
330
43
102
}
102
{ACAD_XDICTIONARY
360
4BB
102
}
330
43
100
AcDbMaterial
  1
ByBlock
  0
MATERIAL
  5
44
102
{ACAD_REACTORS
330
43
102
}
102
{ACAD_XDICTIONARY
360
4B9
102
}
330
43
100
AcDbMaterial
  1
ByLayer
  0
MATERIAL
  5
46
102
{ACAD_REACTORS
330
43
102
}
102
{ACAD_XDICTIONARY
360
4BD
102
}
330
43
100
AcDbMaterial
  1
Global
  0
MLINESTYLE
  5
18
102
{ACAD_REACTORS
330
17
102
}
330
17
100
AcDbMlineStyle
  2
Standard
 70
     0
  3

 62
   256
 51
90.0
 52
90.0
 71
     2
 49
0.5
 62
   256
  6
BYLAYER
 49
-0.5
 62
   256
  6
BYLAYER
  0
ACDBPLACEHOLDER
  5
F
102
{ACAD_REACTORS
330
E
102
}
330
E
  0
SCALE
  5
48
102
{ACAD_REACTORS
330
47
102
}
330
47
100
AcDbScale
 70
     0
300
1:1
140
1.0
141
1.0
290
     1
  0
SCALE
  5
49
102
{ACAD_REACTORS
330
47
102
}
330
47
100
AcDbScale
 70
     0
300
1:2
140
1.0
141
2.0
290
     0
  0
SCALE
  5
4A
102
{ACAD_REACTORS
330
47
102
}
330
47
100
AcDbScale
 70
     0
300
1:4
140
1.0
141
4.0
290
     0
  0
SCALE
  5
4B
102
{ACAD_REACTORS
330
47
102
}
330
47
100
AcDbScale
 70
     0
300
1:5
140
1.0
141
5.0
290
     0
  0
SCALE
  5
4C
102
{ACAD_REACTORS
330
47
102
}
330
47
100
AcDbScale
 70
     0
300
1:8
140
1.0
141
8.0
290
     0
  0
SCALE
  5
4D
102
{ACAD_REACTORS
330
47
102
}
330
47
100
AcDbScale
 70
     0
300
1:10
140
1.0
141
10.0
290
     0
  0
SCALE
  5
4E
102
{ACAD_REACTORS
330
47
102
}
330
47
100
AcDbScale
 70
     0
300
1:16
140
1.0
141
16.0
290
     0
  0
SCALE
  5
4F
102
{ACAD_REACTORS
330
47
102
}
330
47
100
AcDbScale
 70
     0
300
1:20
140
1.0
141
20.0
290
     0
  0
SCALE
  5
50
102
{ACAD_REACTORS
330
47
102
}
330
47
100
AcDbScale
 70
     0
300
1:30
140
1.0
141
30.0
290
     0
  0
SCALE
  5
51
102
{ACAD_REACTORS
330
47
102
}
330
47
100
AcDbScale
 70
     0
300
1:40
140
1.0
141
40.0
290
     0
  0
SCALE
  5
52
102
{ACAD_REACTORS
330
47
102
}
330
47
100
AcDbScale
 70
     0
300
1:50
140
1.0
141
50.0
290
     0
  0
SCALE
  5
53
102
{ACAD_REACTORS
330
47
102
}
330
47
100
AcDbScale
 70
     0
300
1:100
140
1.0
141
100.0
290
     0
  0
SCALE
  5
54
102
{ACAD_REACTORS
330
47
102
}
330
47
100
AcDbScale
 70
     0
300
2:1
140
2.0
141
1.0
290
     0
  0
SCALE
  5
55
102
{ACAD_REACTORS
330
47
102
}
330
47
100
AcDbScale
 70
     0
300
4:1
140
4.0
141
1.0
290
     0
  0
SCALE
  5
56
102
{ACAD_REACTORS
330
47
102
}
330
47
100
AcDbScale
 70
     0
300
8:1
140
8.0
141
1.0
290
     0
  0
SCALE
  5
57
102
{ACAD_REACTORS
330
47
102
}
330
47
100
AcDbScale
 70
     0
300
10:1
140
10.0
141
1.0
290
     0
  0
SCALE
  5
58
102
{ACAD_REACTORS
330
47
102
}
330
47
100
AcDbScale
 70
     0
300
100:1
140
100.0
141
1.0
290
     0
  0
SCALE
  5
59
102
{ACAD_REACTORS
330
47
102
}
330
47
100
AcDbScale
 70
     0
300
1/128" = 1'-0"
140
0.0078125
141
12.0
290
     0
  0
SCALE
  5
5A
102
{ACAD_REACTORS
330
47
102
}
330
47
100
AcDbScale
 70
     0
300
1/64" = 1'-0"
140
0.015625
141
12.0
290
     0
  0
SCALE
  5
5B
102
{ACAD_REACTORS
330
47
102
}
330
47
100
AcDbScale
 70
     0
300
1/32" = 1'-0"
140
0.03125
141
12.0
290
     0
  0
SCALE
  5
5C
102
{ACAD_REACTORS
330
47
102
}
330
47
100
AcDbScale
 70
     0
300
1/16" = 1'-0"
140
0.0625
141
12.0
290
     0
  0
SCALE
  5
5D
102
{ACAD_REACTORS
330
47
102
}
330
47
100
AcDbScale
 70
     0
300
3/32" = 1'-0"
140
0.09375
141
12.0
290
     0
  0
SCALE
  5
5E
102
{ACAD_REACTORS
330
47
102
}
330
47
100
AcDbScale
 70
     0
300
1/8" = 1'-0"
140
0.125
141
12.0
290
     0
  0
SCALE
  5
5F
102
{ACAD_REACTORS
330
47
102
}
330
47
100
AcDbScale
 70
     0
300
3/16" = 1'-0"
140
0.1875
141
12.0
290
     0
  0
SCALE
  5
60
102
{ACAD_REACTORS
330
47
102
}
330
47
100
AcDbScale
 70
     0
300
1/4" = 1'-0"
140
0.25
141
12.0
290
     0
  0
SCALE
  5
61
102
{ACAD_REACTORS
330
47
102
}
330
47
100
AcDbScale
 70
     0
300
3/8" = 1'-0"
140
0.375
141
12.0
290
     0
  0
SCALE
  5
62
102
{ACAD_REACTORS
330
47
102
}
330
47
100
AcDbScale
 70
     0
300
1/2" = 1'-0"
140
0.5
141
12.0
290
     0
  0
SCALE
  5
63
102
{ACAD_REACTORS
330
47
102
}
330
47
100
AcDbScale
 70
     0
300
3/4" = 1'-0"
140
0.75
141
12.0
290
     0
  0
SCALE
  5
64
102
{ACAD_REACTORS
330
47
102
}
330
47
100
AcDbScale
 70
     0
300
1" = 1'-0"
140
1.0
141
12.0
290
     0
  0
SCALE
  5
65
102
{ACAD_REACTORS
330
47
102
}
330
47
100
AcDbScale
 70
     0
300
1-1/2" = 1'-0"
140
1.5
141
12.0
290
     0
  0
SCALE
  5
66
102
{ACAD_REACTORS
330
47
102
}
330
47
100
AcDbScale
 70
     0
300
3" = 1'-0"
140
3.0
141
12.0
290
     0
  0
SCALE
  5
67
102
{ACAD_REACTORS
330
47
102
}
330
47
100
AcDbScale
 70
     0
300
6" = 1'-0"
140
6.0
141
12.0
290
     0
  0
SCALE
  5
68
102
{ACAD_REACTORS
330
47
102
}
330
47
100
AcDbScale
 70
     0
300
1'-0" = 1'-0"
140
12.0
141
12.0
290
     0
  0
VISUALSTYLE
  5
2F
102
{ACAD_REACTORS
330
2A
102
}
102
{ACAD_XDICTIONARY
360
491
102
}
330
2A
100
AcDbVisualStyle
  2
2dWireframe
 70
     4
 71
     0
 72
     2
 73
     0
 90
        0
 40
0.6
 41
30.0
 62
     5
 63
     7
 74
     1
 91
        4
 64
     7
 65
   257
 75
     1
175
     1
 42
1.0
 92
        0
 66
   257
 43
1.0
 76
     1
 77
     6
 78
     2
 67
     7
 79
     5
170
     0
171
     0
290
     0
174
     0
 93
        1
 44
0.0
173
     0
291
     0
 45
0.0
1001
ACAD
1000
AcDbSavedByObjectVersion
1070
     0
  0
VISUALSTYLE
  5
32
102
{ACAD_REACTORS
330
2A
102
}
102
{ACAD_XDICTIONARY
360
497
102
}
330
2A
100
AcDbVisualStyle
  2
Basic
 70
     7
 71
     1
 72
     0
 73
     1
 90
        0
 40
0.6
 41
30.0
 62
     5
 63
     7
 74
     0
 91
        4
 64
     7
 65
   257
 75
     1
175
     1
 42
1.0
 92
        8
 66
     7
 43
1.0
 76
     1
 77
     6
 78
     2
 67
     7
 79
     5
170
     0
171
     0
290
     0
174
     0
 93
        1
 44
0.0
173
     0
291
     1
 45
0.0
1001
ACAD
1000
AcDbSavedByObjectVersion
1070
     0
  0
VISUALSTYLE
  5
36
102
{ACAD_REACTORS
330
2A
102
}
102
{ACAD_XDICTIONARY
360
49F
102
}
330
2A
100
AcDbVisualStyle
  2
Brighten
 70
    12
 71
     2
 72
     2
 73
     0
 90
        0
 40
0.6
 41
30.0
 62
     5
 63
     7
 74
     1
 91
        4
 64
     7
 65
   257
 75
     1
175
     1
 42
1.0
 92
        8
 66
     7
 43
1.0
 76
     1
 77
     6
 78
     2
 67
     7
 79
     5
170
     0
171
     0
290
     0
174
     0
 93
        1
 44
50.0
173
     0
291
     1
 45
0.0
1001
ACAD
1000
AcDbSavedByObjectVersion
1070
     0
  0
VISUALSTYLE
  5
3A
102
{ACAD_REACTORS
330
2A
102
}
102
{ACAD_XDICTIONARY
360
4A7
102
}
330
2A
100
AcDbVisualStyle
  2
ColorChange
 70
    16
 71
     2
 72
     2
 73
     3
 90
        0
 40
0.6
 41
30.0
 62
     5
 63
     8
 74
     1
 91
        4
 64
     7
 65
   257
 75
     1
175
     1
 42
1.0
 92
        8
 66
     8
 43
1.0
 76
     1
 77
     6
 78
     2
 67
     7
 79
     5
170
     0
171
     0
290
     0
174
     0
 93
        1
 44
0.0
173
     0
291
     1
 45
0.0
1001
ACAD
1000
AcDbSavedByObjectVersion
1070
     0
  0
VISUALSTYLE
  5
34
102
{ACAD_REACTORS
330
2A
102
}
102
{ACAD_XDICTIONARY
360
49B
102
}
330
2A
100
AcDbVisualStyle
  2
Conceptual
 70
     9
 71
     3
 72
     2
 73
     0
 90
        0
 40
0.6
 41
30.0
 62
     5
 63
     7
 74
     2
 91
        2
 64
     7
 65
   257
 75
     1
175
     1
 42
179.0
 92
        8
 66
     7
 43
1.0
 76
     1
 77
     6
 78
     2
 67
     7
 79
     3
170
     0
171
     0
290
     0
174
     0
 93
        1
 44
0.0
173
     0
291
     0
 45
0.0
1001
ACAD
1000
AcDbSavedByObjectVersion
1070
     0
  0
VISUALSTYLE
  5
35
102
{ACAD_REACTORS
330
2A
102
}
102
{ACAD_XDICTIONARY
360
49D
102
}
330
2A
100
AcDbVisualStyle
  2
Dim
 70
    11
 71
     2
 72
     2
 73
     0
 90
        0
 40
0.6
 41
30.0
 62
     5
 63
     7
 74
     1
 91
        4
 64
     7
 65
   257
 75
     1
175
     1
 42
1.0
 92
        8
 66
     7
 43
1.0
 76
     1
 77
     6
 78
     2
 67
     7
 79
     5
170
     0
171
     0
290
     0
174
     0
 93
        1
 44
-50.0
173
     0
291
     1
 45
0.0
1001
ACAD
1000
AcDbSavedByObjectVersion
1070
     0
  0
VISUALSTYLE
  5
3D
102
{ACAD_REACTORS
330
2A
102
}
102
{ACAD_XDICTIONARY
360
4AD
102
}
330
2A
100
AcDbVisualStyle
  2
EdgeColorOff
 70
    22
 71
     2
 72
     2
 73
     0
 90
        0
 40
0.6
 41
30.0
 62
     5
 63
     7
 74
     1
 91
        4
 64
     7
 65
   257
 75
     1
175
     1
 42
1.0
 92
        8
 66
     7
 43
1.0
 76
     1
 77
     6
 78
     2
 67
     7
 79
     5
170
     0
171
     0
290
     0
174
     0
 93
        1
 44
0.0
173
     0
291
     1
 45
0.0
1001
ACAD
1000
AcDbSavedByObjectVersion
1070
     0
  0
VISUALSTYLE
  5
39
102
{ACAD_REACTORS
330
2A
102
}
102
{ACAD_XDICTIONARY
360
4A5
102
}
330
2A
100
AcDbVisualStyle
  2
Facepattern
 70
    15
 71
     2
 72
     2
 73
     0
 90
        0
 40
0.6
 41
30.0
 62
     5
 63
     7
 74
     1
 91
        4
 64
     7
 65
   257
 75
     1
175
     1
 42
1.0
 92
        8
 66
     7
 43
1.0
 76
     1
 77
     6
 78
     2
 67
     7
 79
     5
170
     0
171
     0
290
     0
174
     0
 93
        1
 44
0.0
173
     0
291
     1
 45
0.0
1001
ACAD
1000
AcDbSavedByObjectVersion
1070
     0
  0
VISUALSTYLE
  5
2B
102
{ACAD_REACTORS
330
2A
102
}
102
{ACAD_XDICTIONARY
360
489
102
}
330
2A
100
AcDbVisualStyle
  2
Flat
 70
     0
 71
     2
 72
     1
 73
     1
 90
        2
 40
0.6
 41
30.0
 62
     5
 63
     7
 74
     0
 91
        0
 64
     7
 65
   257
 75
     1
175
     1
 42
1.0
 92
        8
 66
     7
 43
1.0
 76
     1
 77
     6
 78
     2
 67
     7
 79
     5
170
     0
171
     0
290
     0
174
     0
 93
       13
 44
0.0
173
     0
291
     1
 45
0.0
1001
ACAD
1000
AcDbSavedByObjectVersion
1070
     0
  0
VISUALSTYLE
  5
2C
102
{ACAD_REACTORS
330
2A
102
}
102
{ACAD_XDICTIONARY
360
48B
102
}
330
2A
100
AcDbVisualStyle
  2
FlatWithEdges
 70
     1
 71
     2
 72
     1
 73
     1
 90
        2
 40
0.6
 41
30.0
 62
     5
 63
     7
 74
     1
 91
        0
 64
     7
 65
   257
 75
     1
175
     1
 42
1.0
 92
        0
 66
   257
 43
1.0
 76
     1
 77
     6
 78
     2
 67
     7
 79
     5
170
     0
171
     0
290
     0
174
     0
 93
       13
 44
0.0
173
     0
291
     1
 45
0.0
1001
ACAD
1000
AcDbSavedByObjectVersion
1070
     0
  0
VISUALSTYLE
  5
2D
102
{ACAD_REACTORS
330
2A
102
}
102
{ACAD_XDICTIONARY
360
48D
102
}
330
2A
100
AcDbVisualStyle
  2
Gouraud
 70
     2
 71
     2
 72
     2
 73
     1
 90
        2
 40
0.6
 41
30.0
 62
     5
 63
     7
 74
     0
 91
        0
 64
     7
 65
   257
 75
     1
175
     1
 42
1.0
 92
        0
 66
     7
 43
1.0
 76
     1
 77
     6
 78
     2
 67
     7
 79
     5
170
     0
171
     0
290
     0
174
     0
 93
       13
 44
0.0
173
     0
291
     1
 45
0.0
1001
ACAD
1000
AcDbSavedByObjectVersion
1070
     0
  0
VISUALSTYLE
  5
2E
102
{ACAD_REACTORS
330
2A
102
}
102
{ACAD_XDICTIONARY
360
48F
102
}
330
2A
100
AcDbVisualStyle
  2
GouraudWithEdges
 70
     3
 71
     2
 72
     2
 73
     1
 90
        2
 40
0.6
 41
30.0
 62
     5
 63
     7
 74
     1
 91
        0
 64
     7
 65
   257
 75
     1
175
     1
 42
1.0
 92
        0
 66
   257
 43
1.0
 76
     1
 77
     6
 78
     2
 67
     7
 79
     5
170
     0
171
     0
290
     0
174
     0
 93
       13
 44
0.0
173
     0
291
     1
 45
0.0
1001
ACAD
1000
AcDbSavedByObjectVersion
1070
     0
  0
VISUALSTYLE
  5
31
102
{ACAD_REACTORS
330
2A
102
}
102
{ACAD_XDICTIONARY
360
495
102
}
330
2A
100
AcDbVisualStyle
  2
Hidden
 70
     6
 71
     1
 72
     2
 73
     2
 90
        0
 40
0.6
 41
30.0
 62
     5
 63
     7
 74
     2
 91
        2
 64
     7
 65
   257
 75
     2
175
     1
 42
40.0
 92
        0
 66
   257
 43
1.0
 76
     1
 77
     6
 78
     2
 67
     7
 79
     3
170
     0
171
     0
290
     0
174
     0
 93
        1
 44
0.0
173
     0
291
     0
 45
0.0
1001
ACAD
1000
AcDbSavedByObjectVersion
1070
     0
  0
VISUALSTYLE
  5
3B
102
{ACAD_REACTORS
330
2A
102
}
102
{ACAD_XDICTIONARY
360
4A9
102
}
330
2A
100
AcDbVisualStyle
  2
JitterOff
 70
    20
 71
     2
 72
     2
 73
     0
 90
        0
 40
0.6
 41
30.0
 62
     5
 63
     7
 74
     1
 91
        4
 64
     7
 65
   257
 75
     1
175
     1
 42
1.0
 92
       10
 66
     7
 43
1.0
 76
     1
 77
     6
 78
     2
 67
     7
 79
     5
170
     0
171
     0
290
     0
174
     0
 93
        1
 44
0.0
173
     0
291
     1
 45
0.0
1001
ACAD
1000
AcDbSavedByObjectVersion
1070
     0
  0
VISUALSTYLE
  5
38
102
{ACAD_REACTORS
330
2A
102
}
102
{ACAD_XDICTIONARY
360
4A3
102
}
330
2A
100
AcDbVisualStyle
  2
Linepattern
 70
    14
 71
     2
 72
     2
 73
     0
 90
        0
 40
0.6
 41
30.0
 62
     5
 63
     7
 74
     1
 91
        4
 64
     7
 65
   257
 75
     7
175
     7
 42
1.0
 92
        8
 66
     7
 43
1.0
 76
     1
 77
     6
 78
     2
 67
     7
 79
     5
170
     0
171
     0
290
     0
174
     0
 93
        1
 44
0.0
173
     0
291
     1
 45
0.0
1001
ACAD
1000
AcDbSavedByObjectVersion
1070
     0
  0
VISUALSTYLE
  5
3C
102
{ACAD_REACTORS
330
2A
102
}
102
{ACAD_XDICTIONARY
360
4AB
102
}
330
2A
100
AcDbVisualStyle
  2
OverhangOff
 70
    21
 71
     2
 72
     2
 73
     0
 90
        0
 40
0.6
 41
30.0
 62
     5
 63
     7
 74
     1
 91
        4
 64
     7
 65
   257
 75
     1
175
     1
 42
1.0
 92
        9
 66
     7
 43
1.0
 76
     1
 77
     6
 78
     2
 67
     7
 79
     5
170
     0
171
     0
290
     0
174
     0
 93
        1
 44
0.0
173
     0
291
     1
 45
0.0
1001
ACAD
1000
AcDbSavedByObjectVersion
1070
     0
  0
VISUALSTYLE
  5
33
102
{ACAD_REACTORS
330
2A
102
}
102
{ACAD_XDICTIONARY
360
499
102
}
330
2A
100
AcDbVisualStyle
  2
Realistic
 70
     8
 71
     2
 72
     3
 73
     0
 90
        2
 40
0.6
 41
30.0
 62
     5
 63
     7
 74
     0
 91
        0
 64
     7
 65
   257
 75
     1
175
     1
 42
1.0
 92
        8
 66
   257
 43
1.0
 76
     1
 77
     6
 78
     2
 67
     7
 79
     3
170
     0
171
     0
290
     0
174
     0
 93
       13
 44
0.0
173
     0
291
     0
 45
0.0
1001
ACAD
1000
AcDbSavedByObjectVersion
1070
     0
  0
VISUALSTYLE
  5
42
102
{ACAD_REACTORS
330
2A
102
}
102
{ACAD_XDICTIONARY
360
4B7
102
}
330
2A
100
AcDbVisualStyle
  2
Shaded
 70
    27
 71
     2
 72
     2
 73
     1
 90
        2
 40
0.6
 41
30.0
 62
     5
 63
     7
 74
     0
 91
        4
 64
     7
 65
   257
 75
     1
175
     1
 42
1.0
 92
        8
 66
   257
 43
1.0
 76
     1
 77
     6
 78
     2
 67
     8
 79
     3
170
     0
171
     0
290
     0
174
     0
 93
        5
 44
0.0
173
     0
291
     0
 45
0.0
1001
ACAD
1000
AcDbSavedByObjectVersion
1070
     0
  0
VISUALSTYLE
  5
41
102
{ACAD_REACTORS
330
2A
102
}
102
{ACAD_XDICTIONARY
360
4B5
102
}
330
2A
100
AcDbVisualStyle
  2
Shaded with edges
 70
    26
 71
     2
 72
     2
 73
     1
 90
        2
 40
0.6
 41
30.0
 62
     5
 63
     7
 74
     1
 91
       10
 64
     7
 65
   257
 75
     2
175
     1
 42
1.0
 92
        8
 66
   257
 43
1.0
 76
     1
 77
     6
 78
     2
 67
     7
 79
     3
170
     0
171
     0
290
     0
174
     0
 93
        5
 44
0.0
173
     0
291
     0
 45
0.0
1001
ACAD
1000
AcDbSavedByObjectVersion
1070
     0
  0
VISUALSTYLE
  5
3E
102
{ACAD_REACTORS
330
2A
102
}
102
{ACAD_XDICTIONARY
360
4AF
102
}
330
2A
100
AcDbVisualStyle
  2
Shades of Gray
 70
    23
 71
     2
 72
     2
 73
     3
 90
        0
 40
0.6
 41
30.0
 62
     5
 63
     7
 74
     2
 91
        2
 64
     7
 65
     7
 75
     1
175
     1
 42
40.0
 92
        8
 66
     7
 43
1.0
 76
     1
 77
     6
 78
     2
 67
     7
 79
     3
170
     0
171
     0
290
     0
174
     0
 93
        1
 44
0.0
173
     0
291
     0
 45
0.0
1001
ACAD
1000
AcDbSavedByObjectVersion
1070
     0
  0
VISUALSTYLE
  5
3F
102
{ACAD_REACTORS
330
2A
102
}
102
{ACAD_XDICTIONARY
360
4B1
102
}
330
2A
100
AcDbVisualStyle
  2
Sketchy
 70
    24
 71
     1
 72
     2
 73
     2
 90
        0
 40
0.6
 41
30.0
 62
     5
 63
     7
 74
     2
 91
        2
 64
     7
 65
     7
 75
     1
175
     1
 42
40.0
 92
       11
 66
     7
 43
1.0
 76
     1
 77
     6
 78
     2
 67
     7
 79
     6
170
     0
171
     0
290
     0
174
     0
 93
        1
 44
0.0
173
     0
291
     0
 45
0.0
1001
ACAD
1000
AcDbSavedByObjectVersion
1070
     0
  0
VISUALSTYLE
  5
37
102
{ACAD_REACTORS
330
2A
102
}
102
{ACAD_XDICTIONARY
360
4A1
102
}
330
2A
100
AcDbVisualStyle
  2
Thicken
 70
    13
 71
     2
 72
     2
 73
     0
 90
        0
 40
0.6
 41
30.0
 62
     5
 63
     7
 74
     1
 91
        4
 64
     7
 65
   257
 75
     1
175
     1
 42
1.0
 92
       12
 66
     7
 43
1.0
 76
     1
 77
     6
 78
     2
 67
     7
 79
     5
170
     0
171
     0
290
     0
174
     0
 93
        1
 44
0.0
173
     0
291
     1
 45
0.0
1001
ACAD
1000
AcDbSavedByObjectVersion
1070
     0
  0
VISUALSTYLE
  5
30
102
{ACAD_REACTORS
330
2A
102
}
102
{ACAD_XDICTIONARY
360
493
102
}
330
2A
100
AcDbVisualStyle
  2
Wireframe
 70
     5
 71
     0
 72
     2
 73
     0
 90
        0
 40
0.6
 41
30.0
 62
     5
 63
     7
 74
     1
 91
        4
 64
     7
 65
   257
 75
     1
175
     1
 42
1.0
 92
        0
 66
   257
 43
1.0
 76
     1
 77
     6
 78
     2
 67
     7
 79
     3
170
     0
171
     0
290
     0
174
     0
 93
        1
 44
0.0
173
     0
291
     0
 45
0.0
1001
ACAD
1000
AcDbSavedByObjectVersion
1070
     0
  0
VISUALSTYLE
  5
40
102
{ACAD_REACTORS
330
2A
102
}
102
{ACAD_XDICTIONARY
360
4B3
102
}
330
2A
100
AcDbVisualStyle
  2
X-Ray
 70
    25
 71
     2
 72
     2
 73
     1
 90
        1
 40
0.5
 41
30.0
 62
     5
 63
     7
 74
     1
 91
        0
 64
     7
 65
   257
 75
     1
175
     1
 42
1.0
 92
        8
 66
     7
 43
1.0
 76
     1
 77
     6
 78
     2
 67
     7
 79
     3
170
     0
171
     0
290
     0
174
     0
 93
       13
 44
0.0
173
     0
291
     0
 45
0.0
1001
ACAD
1000
AcDbSavedByObjectVersion
1070
     0
  0
DICTIONARYVAR
  5
487
102
{ACAD_REACTORS
330
47C
102
}
330
47C
100
DictionaryVariables
280
     0
  1
1:1
  0
DICTIONARYVAR
  5
47F
102
{ACAD_REACTORS
330
47C
102
}
330
47C
100
DictionaryVariables
280
     0
  1
1
  0
DICTIONARYVAR
  5
482
102
{ACAD_REACTORS
330
47C
102
}
330
47C
100
DictionaryVariables
280
     0
  1
1
  0
DICTIONARYVAR
  5
488
102
{ACAD_REACTORS
330
47C
102
}
330
47C
100
DictionaryVariables
280
     0
  1
1
  0
DICTIONARY
  5
4BB
330
45
100
AcDbDictionary
280
     1
281
     1
  3
ACAD_XREC_ROUNDTRIP
360
4BC
  0
DICTIONARY
  5
4B9
330
44
100
AcDbDictionary
280
     1
281
     1
  3
ACAD_XREC_ROUNDTRIP
360
4BA
  0
DICTIONARY
  5
4BD
330
46
100
AcDbDictionary
280
     1
281
     1
  3
ACAD_XREC_ROUNDTRIP
360
4BE
  0
DICTIONARY
  5
491
330
2F
100
AcDbDictionary
280
     1
281
     1
  3
ACAD_XREC_ROUNDTRIP
360
492
  0
DICTIONARY
  5
497
330
32
100
AcDbDictionary
280
     1
281
     1
  3
ACAD_XREC_ROUNDTRIP
360
498
  0
DICTIONARY
  5
49F
330
36
100
AcDbDictionary
280
     1
281
     1
  3
ACAD_XREC_ROUNDTRIP
360
4A0
  0
DICTIONARY
  5
4A7
330
3A
100
AcDbDictionary
280
     1
281
     1
  3
ACAD_XREC_ROUNDTRIP
360
4A8
  0
DICTIONARY
  5
49B
330
34
100
AcDbDictionary
280
     1
281
     1
  3
ACAD_XREC_ROUNDTRIP
360
49C
  0
DICTIONARY
  5
49D
330
35
100
AcDbDictionary
280
     1
281
     1
  3
ACAD_XREC_ROUNDTRIP
360
49E
  0
DICTIONARY
  5
4AD
330
3D
100
AcDbDictionary
280
     1
281
     1
  3
ACAD_XREC_ROUNDTRIP
360
4AE
  0
DICTIONARY
  5
4A5
330
39
100
AcDbDictionary
280
     1
281
     1
  3
ACAD_XREC_ROUNDTRIP
360
4A6
  0
DICTIONARY
  5
489
330
2B
100
AcDbDictionary
280
     1
281
     1
  3
ACAD_XREC_ROUNDTRIP
360
48A
  0
DICTIONARY
  5
48B
330
2C
100
AcDbDictionary
280
     1
281
     1
  3
ACAD_XREC_ROUNDTRIP
360
48C
  0
DICTIONARY
  5
48D
330
2D
100
AcDbDictionary
280
     1
281
     1
  3
ACAD_XREC_ROUNDTRIP
360
48E
  0
DICTIONARY
  5
48F
330
2E
100
AcDbDictionary
280
     1
281
     1
  3
ACAD_XREC_ROUNDTRIP
360
490
  0
DICTIONARY
  5
495
330
31
100
AcDbDictionary
280
     1
281
     1
  3
ACAD_XREC_ROUNDTRIP
360
496
  0
DICTIONARY
  5
4A9
330
3B
100
AcDbDictionary
280
     1
281
     1
  3
ACAD_XREC_ROUNDTRIP
360
4AA
  0
DICTIONARY
  5
4A3
330
38
100
AcDbDictionary
280
     1
281
     1
  3
ACAD_XREC_ROUNDTRIP
360
4A4
  0
DICTIONARY
  5
4AB
330
3C
100
AcDbDictionary
280
     1
281
     1
  3
ACAD_XREC_ROUNDTRIP
360
4AC
  0
DICTIONARY
  5
499
330
33
100
AcDbDictionary
280
     1
281
     1
  3
ACAD_XREC_ROUNDTRIP
360
49A
  0
DICTIONARY
  5
4B7
330
42
100
AcDbDictionary
280
     1
281
     1
  3
ACAD_XREC_ROUNDTRIP
360
4B8
  0
DICTIONARY
  5
4B5
330
41
100
AcDbDictionary
280
     1
281
     1
  3
ACAD_XREC_ROUNDTRIP
360
4B6
  0
DICTIONARY
  5
4AF
330
3E
100
AcDbDictionary
280
     1
281
     1
  3
ACAD_XREC_ROUNDTRIP
360
4B0
  0
DICTIONARY
  5
4B1
330
3F
100
AcDbDictionary
280
     1
281
     1
  3
ACAD_XREC_ROUNDTRIP
360
4B2
  0
DICTIONARY
  5
4A1
330
37
100
AcDbDictionary
280
     1
281
     1
  3
ACAD_XREC_ROUNDTRIP
360
4A2
  0
DICTIONARY
  5
493
330
30
100
AcDbDictionary
280
     1
281
     1
  3
ACAD_XREC_ROUNDTRIP
360
494
  0
DICTIONARY
  5
4B3
330
40
100
AcDbDictionary
280
     1
281
     1
  3
ACAD_XREC_ROUNDTRIP
360
4B4
  0
XRECORD
  5
4BC
102
{ACAD_REACTORS
330
4BB
102
}
330
4BB
100
AcDbXrecord
280
     1
102
MATERIAL
148
0.0
149
0.0
149
0.0
 93
        0
 94
      127
282
     0
 72
     1
 77
     1
171
     1
175
     1
179
     1
273
     0
  0
XRECORD
  5
4BA
102
{ACAD_REACTORS
330
4B9
102
}
330
4B9
100
AcDbXrecord
280
     1
102
MATERIAL
148
0.0
149
0.0
149
0.0
 93
        0
 94
      127
282
     0
 72
     1
 77
     1
171
     1
175
     1
179
     1
273
     0
  0
XRECORD
  5
4BE
102
{ACAD_REACTORS
330
4BD
102
}
330
4BD
100
AcDbXrecord
280
     1
102
MATERIAL
148
0.0
149
0.0
149
0.0
 93
        0
 94
      127
282
     0
 72
     1
 77
     1
171
     1
175
     1
179
     1
273
     0
  0
XRECORD
  5
492
102
{ACAD_REACTORS
330
491
102
}
330
491
100
AcDbXrecord
280
     1
102
RTVSPropertyOp0
 70
     1
102
RTVSPropertyOp1
 70
     1
102
RTVSPropertyOp2
 70
     1
102
RTVSPropertyOp3
 70
     1
102
RTVSPropertyOp4
 70
     1
102
RTVSPropertyOp5
 70
     1
102
RTVSPropertyOp6
 70
     1
102
RTVSPropertyOp7
 70
     1
102
RTVSPropertyOp8
 70
     1
102
RTVSPropertyOp9
 70
     1
102
RTVSPropertyOp10
 70
     1
102
RTVSPropertyOp11
 70
     1
102
RTVSPropertyOp12
 70
     1
102
RTVSPropertyOp13
 70
     1
102
RTVSPropertyOp14
 70
     1
102
RTVSPropertyOp15
 70
     1
102
RTVSPropertyOp16
 70
     1
102
RTVSPropertyOp17
 70
     1
102
RTVSPropertyOp18
 70
     1
102
RTVSPropertyOp19
 70
     1
102
RTVSPropertyOp20
 70
     1
102
RTVSPropertyOp21
 70
     1
102
RTVSPropertyOp22
 70
     1
102
RTVSPropertyOp23
 70
     1
102
RTVSPropertyOp24
 70
     1
102
RTVSPropertyOp25
 70
     1
102
RTVSPropertyOp26
 70
     1
102
RTVSPropertyOp27
 70
     1
102
RTVSPropertyOp28
 70
     1
102
RTVSPropertyOp29
 70
     1
102
RTVSPropertyOp30
 70
     1
102
RTVSPropertyOp31
 70
     1
102
RTVSPropertyOp32
 70
     1
102
RTVSPropertyOp33
 70
     1
102
RTVSPropertyOp34
 70
     1
102
RTVSPropertyOp35
 70
     1
102
RTVSPropertyOp36
 70
     1
102
RTVSPropertyOp37
 70
     1
102
RTVSPropertyOp38
 70
     1
102
RTVSPropertyOp39
 70
     1
102
RTVSPropertyOp40
 70
     1
102
RTVSPropertyOp41
 70
     1
102
RTVSPropertyOp42
 70
     1
102
RTVSPropertyOp43
 70
     1
102
RTVSPropertyOp44
 70
     1
102
RTVSPropertyOp45
 70
     1
102
RTVSPropertyOp46
 70
     1
102
RTVSPropertyOp47
 70
     1
102
RTVSPropertyOp48
 70
     1
102
RTVSPropertyOp49
 70
     1
102
RTVSPropertyOp50
 70
     1
102
RTVSPropertyOp51
 70
     0
102
RTVSPropertyOp52
 70
     0
102
RTVSPropertyOp53
 70
     1
102
RTVSPropertyOp54
 70
     1
102
RTVSPropertyOp55
 70
     1
102
RTVSPropertyOp56
 70
     1
102
RTVSPropertyOp57
 70
     1
102
RTVSPost2010Prop28
280
     1
102
RTVSPost2010PropOp28
 70
     1
102
RTVSPost2010Prop29
280
     1
102
RTVSPost2010PropOp29
 70
     1
102
RTVSPost2010Prop30
280
     0
102
RTVSPost2010PropOp30
 70
     1
102
RTVSPost2010Prop31
280
     0
102
RTVSPost2010PropOp31
 70
     1
102
RTVSPost2010Prop32
280
     0
102
RTVSPost2010PropOp32
 70
     1
102
RTVSPost2010Prop33
280
     0
102
RTVSPost2010PropOp33
 70
     1
102
RTVSPost2010Prop34
280
     0
102
RTVSPost2010PropOp34
 70
     1
102
RTVSPost2010Prop35
280
     0
102
RTVSPost2010PropOp35
 70
     1
102
RTVSPost2010Prop36
280
     0
102
RTVSPost2010PropOp36
 70
     1
102
RTVSPost2010Prop37
 90
       50
102
RTVSPost2010PropOp37
 70
     1
102
RTVSPost2010Prop38
140
0.0
102
RTVSPost2010PropOp38
 70
     1
102
RTVSPost2010Prop39
140
1.0
102
RTVSPost2010PropOp39
 70
     1
102
RTVSPost2010Prop40
 90
        0
102
RTVSPost2010PropOp40
 70
     1
102
RTVSPost2010Prop41ColorIndex
 90
       18
102
RTVSPost2010Prop41ColorRGB
 90
        0
102
RTVSPost2010PropOp41
 70
     1
102
RTVSPost2010Prop42
 90
       50
102
RTVSPost2010PropOp42
 70
     1
102
RTVSPost2010Prop43
 90
        3
102
RTVSPost2010PropOp43
 70
     1
102
RTVSPost2010Prop44ColorIndex
 90
        5
102
RTVSPost2010Prop44ColorRGB
 90
      255
102
RTVSPost2010PropOp44
 70
     1
102
RTVSPost2010Prop45
280
     0
102
RTVSPost2010PropOp45
 70
     1
102
RTVSPost2010Prop46
 90
       50
102
RTVSPost2010PropOp46
 70
     1
102
RTVSPost2010Prop47
 90
       50
102
RTVSPost2010PropOp47
 70
     1
102
RTVSPost2010Prop48
 90
       50
102
RTVSPost2010PropOp48
 70
     1
102
RTVSPost2010Prop49
280
     0
102
RTVSPost2010PropOp49
 70
     1
102
RTVSPost2010Prop50
 90
       50
102
RTVSPost2010PropOp50
 70
     1
102
RTVSPost2010Prop51ColorIndex
 90
      256
102
RTVSPost2010Prop51ColorRGB
 90
-16777216
102
RTVSPost2010PropOp51
 70
     0
102
RTVSPost2010Prop52
140
1.0
102
RTVSPost2010PropOp52
 70
     0
102
RTVSPost2010Prop53
 90
        2
102
RTVSPost2010PropOp53
 70
     1
102
RTVSPost2010Prop54
  1
strokes_ogs.tif
102
RTVSPost2010PropOp54
 70
     1
102
RTVSPost2010Prop55
280
     0
102
RTVSPost2010PropOp55
 70
     1
102
RTVSPost2010Prop56
140
1.0
102
RTVSPost2010PropOp56
 70
     1
102
RTVSPost2010Prop57
140
1.0
102
RTVSPost2010PropOp57
 70
     1
  0
XRECORD
  5
498
102
{ACAD_REACTORS
330
497
102
}
330
497
100
AcDbXrecord
280
     1
102
RTVSPropertyOp0
 70
     1
102
RTVSPropertyOp1
 70
     1
102
RTVSPropertyOp2
 70
     1
102
RTVSPropertyOp3
 70
     1
102
RTVSPropertyOp4
 70
     1
102
RTVSPropertyOp5
 70
     1
102
RTVSPropertyOp6
 70
     1
102
RTVSPropertyOp7
 70
     1
102
RTVSPropertyOp8
 70
     1
102
RTVSPropertyOp9
 70
     1
102
RTVSPropertyOp10
 70
     1
102
RTVSPropertyOp11
 70
     1
102
RTVSPropertyOp12
 70
     1
102
RTVSPropertyOp13
 70
     1
102
RTVSPropertyOp14
 70
     1
102
RTVSPropertyOp15
 70
     1
102
RTVSPropertyOp16
 70
     1
102
RTVSPropertyOp17
 70
     1
102
RTVSPropertyOp18
 70
     1
102
RTVSPropertyOp19
 70
     1
102
RTVSPropertyOp20
 70
     1
102
RTVSPropertyOp21
 70
     1
102
RTVSPropertyOp22
 70
     1
102
RTVSPropertyOp23
 70
     1
102
RTVSPropertyOp24
 70
     1
102
RTVSPropertyOp25
 70
     1
102
RTVSPropertyOp26
 70
     1
102
RTVSPropertyOp27
 70
     1
102
RTVSPropertyOp28
 70
     1
102
RTVSPropertyOp29
 70
     1
102
RTVSPropertyOp30
 70
     1
102
RTVSPropertyOp31
 70
     1
102
RTVSPropertyOp32
 70
     1
102
RTVSPropertyOp33
 70
     1
102
RTVSPropertyOp34
 70
     1
102
RTVSPropertyOp35
 70
     1
102
RTVSPropertyOp36
 70
     1
102
RTVSPropertyOp37
 70
     1
102
RTVSPropertyOp38
 70
     1
102
RTVSPropertyOp39
 70
     1
102
RTVSPropertyOp40
 70
     1
102
RTVSPropertyOp41
 70
     1
102
RTVSPropertyOp42
 70
     1
102
RTVSPropertyOp43
 70
     1
102
RTVSPropertyOp44
 70
     1
102
RTVSPropertyOp45
 70
     1
102
RTVSPropertyOp46
 70
     1
102
RTVSPropertyOp47
 70
     1
102
RTVSPropertyOp48
 70
     1
102
RTVSPropertyOp49
 70
     1
102
RTVSPropertyOp50
 70
     1
102
RTVSPropertyOp51
 70
     0
102
RTVSPropertyOp52
 70
     0
102
RTVSPropertyOp53
 70
     1
102
RTVSPropertyOp54
 70
     1
102
RTVSPropertyOp55
 70
     1
102
RTVSPropertyOp56
 70
     1
102
RTVSPropertyOp57
 70
     1
102
RTVSPost2010Prop28
280
     0
102
RTVSPost2010PropOp28
 70
     1
102
RTVSPost2010Prop29
280
     1
102
RTVSPost2010PropOp29
 70
     1
102
RTVSPost2010Prop30
280
     1
102
RTVSPost2010PropOp30
 70
     1
102
RTVSPost2010Prop31
280
     0
102
RTVSPost2010PropOp31
 70
     1
102
RTVSPost2010Prop32
280
     0
102
RTVSPost2010PropOp32
 70
     1
102
RTVSPost2010Prop33
280
     0
102
RTVSPost2010PropOp33
 70
     1
102
RTVSPost2010Prop34
280
     0
102
RTVSPost2010PropOp34
 70
     1
102
RTVSPost2010Prop35
280
     0
102
RTVSPost2010PropOp35
 70
     1
102
RTVSPost2010Prop36
280
     0
102
RTVSPost2010PropOp36
 70
     1
102
RTVSPost2010Prop37
 90
       50
102
RTVSPost2010PropOp37
 70
     1
102
RTVSPost2010Prop38
140
0.0
102
RTVSPost2010PropOp38
 70
     1
102
RTVSPost2010Prop39
140
1.0
102
RTVSPost2010PropOp39
 70
     1
102
RTVSPost2010Prop40
 90
        0
102
RTVSPost2010PropOp40
 70
     1
102
RTVSPost2010Prop41ColorIndex
 90
       18
102
RTVSPost2010Prop41ColorRGB
 90
        0
102
RTVSPost2010PropOp41
 70
     1
102
RTVSPost2010Prop42
 90
       50
102
RTVSPost2010PropOp42
 70
     1
102
RTVSPost2010Prop43
 90
        3
102
RTVSPost2010PropOp43
 70
     1
102
RTVSPost2010Prop44ColorIndex
 90
        5
102
RTVSPost2010Prop44ColorRGB
 90
      255
102
RTVSPost2010PropOp44
 70
     1
102
RTVSPost2010Prop45
280
     0
102
RTVSPost2010PropOp45
 70
     1
102
RTVSPost2010Prop46
 90
       50
102
RTVSPost2010PropOp46
 70
     1
102
RTVSPost2010Prop47
 90
       50
102
RTVSPost2010PropOp47
 70
     1
102
RTVSPost2010Prop48
 90
       50
102
RTVSPost2010PropOp48
 70
     1
102
RTVSPost2010Prop49
280
     0
102
RTVSPost2010PropOp49
 70
     1
102
RTVSPost2010Prop50
 90
       50
102
RTVSPost2010PropOp50
 70
     1
102
RTVSPost2010Prop51ColorIndex
 90
      256
102
RTVSPost2010Prop51ColorRGB
 90
-16777216
102
RTVSPost2010PropOp51
 70
     0
102
RTVSPost2010Prop52
140
1.0
102
RTVSPost2010PropOp52
 70
     0
102
RTVSPost2010Prop53
 90
        2
102
RTVSPost2010PropOp53
 70
     1
102
RTVSPost2010Prop54
  1
strokes_ogs.tif
102
RTVSPost2010PropOp54
 70
     1
102
RTVSPost2010Prop55
280
     0
102
RTVSPost2010PropOp55
 70
     1
102
RTVSPost2010Prop56
140
1.0
102
RTVSPost2010PropOp56
 70
     1
102
RTVSPost2010Prop57
140
1.0
102
RTVSPost2010PropOp57
 70
     1
  0
XRECORD
  5
4A0
102
{ACAD_REACTORS
330
49F
102
}
330
49F
100
AcDbXrecord
280
     1
102
RTVSPropertyOp0
 70
     1
102
RTVSPropertyOp1
 70
     1
102
RTVSPropertyOp2
 70
     1
102
RTVSPropertyOp3
 70
     1
102
RTVSPropertyOp4
 70
     1
102
RTVSPropertyOp5
 70
     1
102
RTVSPropertyOp6
 70
     1
102
RTVSPropertyOp7
 70
     1
102
RTVSPropertyOp8
 70
     1
102
RTVSPropertyOp9
 70
     1
102
RTVSPropertyOp10
 70
     1
102
RTVSPropertyOp11
 70
     1
102
RTVSPropertyOp12
 70
     1
102
RTVSPropertyOp13
 70
     1
102
RTVSPropertyOp14
 70
     1
102
RTVSPropertyOp15
 70
     1
102
RTVSPropertyOp16
 70
     1
102
RTVSPropertyOp17
 70
     1
102
RTVSPropertyOp18
 70
     1
102
RTVSPropertyOp19
 70
     1
102
RTVSPropertyOp20
 70
     1
102
RTVSPropertyOp21
 70
     1
102
RTVSPropertyOp22
 70
     1
102
RTVSPropertyOp23
 70
     1
102
RTVSPropertyOp24
 70
     1
102
RTVSPropertyOp25
 70
     1
102
RTVSPropertyOp26
 70
     1
102
RTVSPropertyOp27
 70
     1
102
RTVSPropertyOp28
 70
     1
102
RTVSPropertyOp29
 70
     1
102
RTVSPropertyOp30
 70
     1
102
RTVSPropertyOp31
 70
     1
102
RTVSPropertyOp32
 70
     1
102
RTVSPropertyOp33
 70
     1
102
RTVSPropertyOp34
 70
     1
102
RTVSPropertyOp35
 70
     1
102
RTVSPropertyOp36
 70
     1
102
RTVSPropertyOp37
 70
     1
102
RTVSPropertyOp38
 70
     1
102
RTVSPropertyOp39
 70
     1
102
RTVSPropertyOp40
 70
     1
102
RTVSPropertyOp41
 70
     1
102
RTVSPropertyOp42
 70
     1
102
RTVSPropertyOp43
 70
     1
102
RTVSPropertyOp44
 70
     1
102
RTVSPropertyOp45
 70
     1
102
RTVSPropertyOp46
 70
     1
102
RTVSPropertyOp47
 70
     1
102
RTVSPropertyOp48
 70
     1
102
RTVSPropertyOp49
 70
     1
102
RTVSPropertyOp50
 70
     1
102
RTVSPropertyOp51
 70
     0
102
RTVSPropertyOp52
 70
     0
102
RTVSPropertyOp53
 70
     1
102
RTVSPropertyOp54
 70
     1
102
RTVSPropertyOp55
 70
     1
102
RTVSPropertyOp56
 70
     1
102
RTVSPropertyOp57
 70
     1
102
RTVSPost2010Prop28
280
     0
102
RTVSPost2010PropOp28
 70
     1
102
RTVSPost2010Prop29
280
     1
102
RTVSPost2010PropOp29
 70
     1
102
RTVSPost2010Prop30
280
     1
102
RTVSPost2010PropOp30
 70
     1
102
RTVSPost2010Prop31
280
     0
102
RTVSPost2010PropOp31
 70
     1
102
RTVSPost2010Prop32
280
     0
102
RTVSPost2010PropOp32
 70
     1
102
RTVSPost2010Prop33
280
     0
102
RTVSPost2010PropOp33
 70
     1
102
RTVSPost2010Prop34
280
     0
102
RTVSPost2010PropOp34
 70
     1
102
RTVSPost2010Prop35
280
     0
102
RTVSPost2010PropOp35
 70
     1
102
RTVSPost2010Prop36
280
     0
102
RTVSPost2010PropOp36
 70
     1
102
RTVSPost2010Prop37
 90
       50
102
RTVSPost2010PropOp37
 70
     1
102
RTVSPost2010Prop38
140
0.0
102
RTVSPost2010PropOp38
 70
     1
102
RTVSPost2010Prop39
140
1.0
102
RTVSPost2010PropOp39
 70
     1
102
RTVSPost2010Prop40
 90
        0
102
RTVSPost2010PropOp40
 70
     1
102
RTVSPost2010Prop41ColorIndex
 90
       18
102
RTVSPost2010Prop41ColorRGB
 90
        0
102
RTVSPost2010PropOp41
 70
     1
102
RTVSPost2010Prop42
 90
       50
102
RTVSPost2010PropOp42
 70
     1
102
RTVSPost2010Prop43
 90
        3
102
RTVSPost2010PropOp43
 70
     1
102
RTVSPost2010Prop44ColorIndex
 90
        5
102
RTVSPost2010Prop44ColorRGB
 90
      255
102
RTVSPost2010PropOp44
 70
     1
102
RTVSPost2010Prop45
280
     0
102
RTVSPost2010PropOp45
 70
     1
102
RTVSPost2010Prop46
 90
       50
102
RTVSPost2010PropOp46
 70
     1
102
RTVSPost2010Prop47
 90
       50
102
RTVSPost2010PropOp47
 70
     1
102
RTVSPost2010Prop48
 90
       50
102
RTVSPost2010PropOp48
 70
     1
102
RTVSPost2010Prop49
280
     0
102
RTVSPost2010PropOp49
 70
     1
102
RTVSPost2010Prop50
 90
       50
102
RTVSPost2010PropOp50
 70
     1
102
RTVSPost2010Prop51ColorIndex
 90
      256
102
RTVSPost2010Prop51ColorRGB
 90
-16777216
102
RTVSPost2010PropOp51
 70
     0
102
RTVSPost2010Prop52
140
1.0
102
RTVSPost2010PropOp52
 70
     0
102
RTVSPost2010Prop53
 90
        2
102
RTVSPost2010PropOp53
 70
     1
102
RTVSPost2010Prop54
  1
strokes_ogs.tif
102
RTVSPost2010PropOp54
 70
     1
102
RTVSPost2010Prop55
280
     0
102
RTVSPost2010PropOp55
 70
     1
102
RTVSPost2010Prop56
140
1.0
102
RTVSPost2010PropOp56
 70
     1
102
RTVSPost2010Prop57
140
1.0
102
RTVSPost2010PropOp57
 70
     1
  0
XRECORD
  5
4A8
102
{ACAD_REACTORS
330
4A7
102
}
330
4A7
100
AcDbXrecord
280
     1
102
RTVSPropertyOp0
 70
     1
102
RTVSPropertyOp1
 70
     1
102
RTVSPropertyOp2
 70
     1
102
RTVSPropertyOp3
 70
     1
102
RTVSPropertyOp4
 70
     1
102
RTVSPropertyOp5
 70
     1
102
RTVSPropertyOp6
 70
     1
102
RTVSPropertyOp7
 70
     1
102
RTVSPropertyOp8
 70
     1
102
RTVSPropertyOp9
 70
     1
102
RTVSPropertyOp10
 70
     1
102
RTVSPropertyOp11
 70
     1
102
RTVSPropertyOp12
 70
     1
102
RTVSPropertyOp13
 70
     1
102
RTVSPropertyOp14
 70
     1
102
RTVSPropertyOp15
 70
     1
102
RTVSPropertyOp16
 70
     1
102
RTVSPropertyOp17
 70
     1
102
RTVSPropertyOp18
 70
     1
102
RTVSPropertyOp19
 70
     1
102
RTVSPropertyOp20
 70
     1
102
RTVSPropertyOp21
 70
     1
102
RTVSPropertyOp22
 70
     1
102
RTVSPropertyOp23
 70
     1
102
RTVSPropertyOp24
 70
     1
102
RTVSPropertyOp25
 70
     1
102
RTVSPropertyOp26
 70
     1
102
RTVSPropertyOp27
 70
     1
102
RTVSPropertyOp28
 70
     1
102
RTVSPropertyOp29
 70
     1
102
RTVSPropertyOp30
 70
     1
102
RTVSPropertyOp31
 70
     1
102
RTVSPropertyOp32
 70
     1
102
RTVSPropertyOp33
 70
     1
102
RTVSPropertyOp34
 70
     1
102
RTVSPropertyOp35
 70
     1
102
RTVSPropertyOp36
 70
     1
102
RTVSPropertyOp37
 70
     1
102
RTVSPropertyOp38
 70
     1
102
RTVSPropertyOp39
 70
     1
102
RTVSPropertyOp40
 70
     1
102
RTVSPropertyOp41
 70
     1
102
RTVSPropertyOp42
 70
     1
102
RTVSPropertyOp43
 70
     1
102
RTVSPropertyOp44
 70
     1
102
RTVSPropertyOp45
 70
     1
102
RTVSPropertyOp46
 70
     1
102
RTVSPropertyOp47
 70
     1
102
RTVSPropertyOp48
 70
     1
102
RTVSPropertyOp49
 70
     1
102
RTVSPropertyOp50
 70
     1
102
RTVSPropertyOp51
 70
     0
102
RTVSPropertyOp52
 70
     0
102
RTVSPropertyOp53
 70
     1
102
RTVSPropertyOp54
 70
     1
102
RTVSPropertyOp55
 70
     1
102
RTVSPropertyOp56
 70
     1
102
RTVSPropertyOp57
 70
     1
102
RTVSPost2010Prop28
280
     0
102
RTVSPost2010PropOp28
 70
     1
102
RTVSPost2010Prop29
280
     1
102
RTVSPost2010PropOp29
 70
     1
102
RTVSPost2010Prop30
280
     1
102
RTVSPost2010PropOp30
 70
     1
102
RTVSPost2010Prop31
280
     0
102
RTVSPost2010PropOp31
 70
     1
102
RTVSPost2010Prop32
280
     0
102
RTVSPost2010PropOp32
 70
     1
102
RTVSPost2010Prop33
280
     0
102
RTVSPost2010PropOp33
 70
     1
102
RTVSPost2010Prop34
280
     0
102
RTVSPost2010PropOp34
 70
     1
102
RTVSPost2010Prop35
280
     0
102
RTVSPost2010PropOp35
 70
     1
102
RTVSPost2010Prop36
280
     0
102
RTVSPost2010PropOp36
 70
     1
102
RTVSPost2010Prop37
 90
       50
102
RTVSPost2010PropOp37
 70
     1
102
RTVSPost2010Prop38
140
0.0
102
RTVSPost2010PropOp38
 70
     1
102
RTVSPost2010Prop39
140
1.0
102
RTVSPost2010PropOp39
 70
     1
102
RTVSPost2010Prop40
 90
        0
102
RTVSPost2010PropOp40
 70
     1
102
RTVSPost2010Prop41ColorIndex
 90
       18
102
RTVSPost2010Prop41ColorRGB
 90
        0
102
RTVSPost2010PropOp41
 70
     1
102
RTVSPost2010Prop42
 90
       50
102
RTVSPost2010PropOp42
 70
     1
102
RTVSPost2010Prop43
 90
        3
102
RTVSPost2010PropOp43
 70
     1
102
RTVSPost2010Prop44ColorIndex
 90
        5
102
RTVSPost2010Prop44ColorRGB
 90
      255
102
RTVSPost2010PropOp44
 70
     1
102
RTVSPost2010Prop45
280
     0
102
RTVSPost2010PropOp45
 70
     1
102
RTVSPost2010Prop46
 90
       50
102
RTVSPost2010PropOp46
 70
     1
102
RTVSPost2010Prop47
 90
       50
102
RTVSPost2010PropOp47
 70
     1
102
RTVSPost2010Prop48
 90
       50
102
RTVSPost2010PropOp48
 70
     1
102
RTVSPost2010Prop49
280
     0
102
RTVSPost2010PropOp49
 70
     1
102
RTVSPost2010Prop50
 90
       50
102
RTVSPost2010PropOp50
 70
     1
102
RTVSPost2010Prop51ColorIndex
 90
      256
102
RTVSPost2010Prop51ColorRGB
 90
-16777216
102
RTVSPost2010PropOp51
 70
     0
102
RTVSPost2010Prop52
140
1.0
102
RTVSPost2010PropOp52
 70
     0
102
RTVSPost2010Prop53
 90
        2
102
RTVSPost2010PropOp53
 70
     1
102
RTVSPost2010Prop54
  1
strokes_ogs.tif
102
RTVSPost2010PropOp54
 70
     1
102
RTVSPost2010Prop55
280
     0
102
RTVSPost2010PropOp55
 70
     1
102
RTVSPost2010Prop56
140
1.0
102
RTVSPost2010PropOp56
 70
     1
102
RTVSPost2010Prop57
140
1.0
102
RTVSPost2010PropOp57
 70
     1
  0
XRECORD
  5
49C
102
{ACAD_REACTORS
330
49B
102
}
330
49B
100
AcDbXrecord
280
     1
102
RTVSPropertyOp0
 70
     1
102
RTVSPropertyOp1
 70
     1
102
RTVSPropertyOp2
 70
     1
102
RTVSPropertyOp3
 70
     1
102
RTVSPropertyOp4
 70
     1
102
RTVSPropertyOp5
 70
     1
102
RTVSPropertyOp6
 70
     1
102
RTVSPropertyOp7
 70
     1
102
RTVSPropertyOp8
 70
     1
102
RTVSPropertyOp9
 70
     1
102
RTVSPropertyOp10
 70
     1
102
RTVSPropertyOp11
 70
     1
102
RTVSPropertyOp12
 70
     1
102
RTVSPropertyOp13
 70
     1
102
RTVSPropertyOp14
 70
     1
102
RTVSPropertyOp15
 70
     1
102
RTVSPropertyOp16
 70
     1
102
RTVSPropertyOp17
 70
     1
102
RTVSPropertyOp18
 70
     1
102
RTVSPropertyOp19
 70
     1
102
RTVSPropertyOp20
 70
     1
102
RTVSPropertyOp21
 70
     1
102
RTVSPropertyOp22
 70
     1
102
RTVSPropertyOp23
 70
     1
102
RTVSPropertyOp24
 70
     1
102
RTVSPropertyOp25
 70
     1
102
RTVSPropertyOp26
 70
     1
102
RTVSPropertyOp27
 70
     1
102
RTVSPropertyOp28
 70
     1
102
RTVSPropertyOp29
 70
     1
102
RTVSPropertyOp30
 70
     1
102
RTVSPropertyOp31
 70
     1
102
RTVSPropertyOp32
 70
     1
102
RTVSPropertyOp33
 70
     1
102
RTVSPropertyOp34
 70
     1
102
RTVSPropertyOp35
 70
     1
102
RTVSPropertyOp36
 70
     1
102
RTVSPropertyOp37
 70
     1
102
RTVSPropertyOp38
 70
     1
102
RTVSPropertyOp39
 70
     1
102
RTVSPropertyOp40
 70
     1
102
RTVSPropertyOp41
 70
     1
102
RTVSPropertyOp42
 70
     1
102
RTVSPropertyOp43
 70
     1
102
RTVSPropertyOp44
 70
     1
102
RTVSPropertyOp45
 70
     1
102
RTVSPropertyOp46
 70
     1
102
RTVSPropertyOp47
 70
     1
102
RTVSPropertyOp48
 70
     1
102
RTVSPropertyOp49
 70
     1
102
RTVSPropertyOp50
 70
     1
102
RTVSPropertyOp51
 70
     0
102
RTVSPropertyOp52
 70
     0
102
RTVSPropertyOp53
 70
     1
102
RTVSPropertyOp54
 70
     1
102
RTVSPropertyOp55
 70
     1
102
RTVSPropertyOp56
 70
     1
102
RTVSPropertyOp57
 70
     1
102
RTVSPost2010Prop28
280
     0
102
RTVSPost2010PropOp28
 70
     1
102
RTVSPost2010Prop29
280
     1
102
RTVSPost2010PropOp29
 70
     1
102
RTVSPost2010Prop30
280
     1
102
RTVSPost2010PropOp30
 70
     1
102
RTVSPost2010Prop31
280
     0
102
RTVSPost2010PropOp31
 70
     1
102
RTVSPost2010Prop32
280
     0
102
RTVSPost2010PropOp32
 70
     1
102
RTVSPost2010Prop33
280
     0
102
RTVSPost2010PropOp33
 70
     1
102
RTVSPost2010Prop34
280
     0
102
RTVSPost2010PropOp34
 70
     1
102
RTVSPost2010Prop35
280
     0
102
RTVSPost2010PropOp35
 70
     1
102
RTVSPost2010Prop36
280
     0
102
RTVSPost2010PropOp36
 70
     1
102
RTVSPost2010Prop37
 90
       50
102
RTVSPost2010PropOp37
 70
     1
102
RTVSPost2010Prop38
140
0.0
102
RTVSPost2010PropOp38
 70
     1
102
RTVSPost2010Prop39
140
1.0
102
RTVSPost2010PropOp39
 70
     1
102
RTVSPost2010Prop40
 90
        0
102
RTVSPost2010PropOp40
 70
     1
102
RTVSPost2010Prop41ColorIndex
 90
       18
102
RTVSPost2010Prop41ColorRGB
 90
        0
102
RTVSPost2010PropOp41
 70
     1
102
RTVSPost2010Prop42
 90
       50
102
RTVSPost2010PropOp42
 70
     1
102
RTVSPost2010Prop43
 90
        3
102
RTVSPost2010PropOp43
 70
     1
102
RTVSPost2010Prop44ColorIndex
 90
        5
102
RTVSPost2010Prop44ColorRGB
 90
      255
102
RTVSPost2010PropOp44
 70
     1
102
RTVSPost2010Prop45
280
     0
102
RTVSPost2010PropOp45
 70
     1
102
RTVSPost2010Prop46
 90
       50
102
RTVSPost2010PropOp46
 70
     1
102
RTVSPost2010Prop47
 90
       50
102
RTVSPost2010PropOp47
 70
     1
102
RTVSPost2010Prop48
 90
       50
102
RTVSPost2010PropOp48
 70
     1
102
RTVSPost2010Prop49
280
     0
102
RTVSPost2010PropOp49
 70
     1
102
RTVSPost2010Prop50
 90
       50
102
RTVSPost2010PropOp50
 70
     1
102
RTVSPost2010Prop51ColorIndex
 90
      256
102
RTVSPost2010Prop51ColorRGB
 90
-16777216
102
RTVSPost2010PropOp51
 70
     0
102
RTVSPost2010Prop52
140
1.0
102
RTVSPost2010PropOp52
 70
     0
102
RTVSPost2010Prop53
 90
        2
102
RTVSPost2010PropOp53
 70
     1
102
RTVSPost2010Prop54
  1
strokes_ogs.tif
102
RTVSPost2010PropOp54
 70
     1
102
RTVSPost2010Prop55
280
     0
102
RTVSPost2010PropOp55
 70
     1
102
RTVSPost2010Prop56
140
1.0
102
RTVSPost2010PropOp56
 70
     1
102
RTVSPost2010Prop57
140
1.0
102
RTVSPost2010PropOp57
 70
     1
  0
XRECORD
  5
49E
102
{ACAD_REACTORS
330
49D
102
}
330
49D
100
AcDbXrecord
280
     1
102
RTVSPropertyOp0
 70
     1
102
RTVSPropertyOp1
 70
     1
102
RTVSPropertyOp2
 70
     1
102
RTVSPropertyOp3
 70
     1
102
RTVSPropertyOp4
 70
     1
102
RTVSPropertyOp5
 70
     1
102
RTVSPropertyOp6
 70
     1
102
RTVSPropertyOp7
 70
     1
102
RTVSPropertyOp8
 70
     1
102
RTVSPropertyOp9
 70
     1
102
RTVSPropertyOp10
 70
     1
102
RTVSPropertyOp11
 70
     1
102
RTVSPropertyOp12
 70
     1
102
RTVSPropertyOp13
 70
     1
102
RTVSPropertyOp14
 70
     1
102
RTVSPropertyOp15
 70
     1
102
RTVSPropertyOp16
 70
     1
102
RTVSPropertyOp17
 70
     1
102
RTVSPropertyOp18
 70
     1
102
RTVSPropertyOp19
 70
     1
102
RTVSPropertyOp20
 70
     1
102
RTVSPropertyOp21
 70
     1
102
RTVSPropertyOp22
 70
     1
102
RTVSPropertyOp23
 70
     1
102
RTVSPropertyOp24
 70
     1
102
RTVSPropertyOp25
 70
     1
102
RTVSPropertyOp26
 70
     1
102
RTVSPropertyOp27
 70
     1
102
RTVSPropertyOp28
 70
     1
102
RTVSPropertyOp29
 70
     1
102
RTVSPropertyOp30
 70
     1
102
RTVSPropertyOp31
 70
     1
102
RTVSPropertyOp32
 70
     1
102
RTVSPropertyOp33
 70
     1
102
RTVSPropertyOp34
 70
     1
102
RTVSPropertyOp35
 70
     1
102
RTVSPropertyOp36
 70
     1
102
RTVSPropertyOp37
 70
     1
102
RTVSPropertyOp38
 70
     1
102
RTVSPropertyOp39
 70
     1
102
RTVSPropertyOp40
 70
     1
102
RTVSPropertyOp41
 70
     1
102
RTVSPropertyOp42
 70
     1
102
RTVSPropertyOp43
 70
     1
102
RTVSPropertyOp44
 70
     1
102
RTVSPropertyOp45
 70
     1
102
RTVSPropertyOp46
 70
     1
102
RTVSPropertyOp47
 70
     1
102
RTVSPropertyOp48
 70
     1
102
RTVSPropertyOp49
 70
     1
102
RTVSPropertyOp50
 70
     1
102
RTVSPropertyOp51
 70
     0
102
RTVSPropertyOp52
 70
     0
102
RTVSPropertyOp53
 70
     1
102
RTVSPropertyOp54
 70
     1
102
RTVSPropertyOp55
 70
     1
102
RTVSPropertyOp56
 70
     1
102
RTVSPropertyOp57
 70
     1
102
RTVSPost2010Prop28
280
     0
102
RTVSPost2010PropOp28
 70
     1
102
RTVSPost2010Prop29
280
     1
102
RTVSPost2010PropOp29
 70
     1
102
RTVSPost2010Prop30
280
     1
102
RTVSPost2010PropOp30
 70
     1
102
RTVSPost2010Prop31
280
     0
102
RTVSPost2010PropOp31
 70
     1
102
RTVSPost2010Prop32
280
     0
102
RTVSPost2010PropOp32
 70
     1
102
RTVSPost2010Prop33
280
     0
102
RTVSPost2010PropOp33
 70
     1
102
RTVSPost2010Prop34
280
     0
102
RTVSPost2010PropOp34
 70
     1
102
RTVSPost2010Prop35
280
     0
102
RTVSPost2010PropOp35
 70
     1
102
RTVSPost2010Prop36
280
     0
102
RTVSPost2010PropOp36
 70
     1
102
RTVSPost2010Prop37
 90
       50
102
RTVSPost2010PropOp37
 70
     1
102
RTVSPost2010Prop38
140
0.0
102
RTVSPost2010PropOp38
 70
     1
102
RTVSPost2010Prop39
140
1.0
102
RTVSPost2010PropOp39
 70
     1
102
RTVSPost2010Prop40
 90
        0
102
RTVSPost2010PropOp40
 70
     1
102
RTVSPost2010Prop41ColorIndex
 90
       18
102
RTVSPost2010Prop41ColorRGB
 90
        0
102
RTVSPost2010PropOp41
 70
     1
102
RTVSPost2010Prop42
 90
       50
102
RTVSPost2010PropOp42
 70
     1
102
RTVSPost2010Prop43
 90
        3
102
RTVSPost2010PropOp43
 70
     1
102
RTVSPost2010Prop44ColorIndex
 90
        5
102
RTVSPost2010Prop44ColorRGB
 90
      255
102
RTVSPost2010PropOp44
 70
     1
102
RTVSPost2010Prop45
280
     0
102
RTVSPost2010PropOp45
 70
     1
102
RTVSPost2010Prop46
 90
       50
102
RTVSPost2010PropOp46
 70
     1
102
RTVSPost2010Prop47
 90
       50
102
RTVSPost2010PropOp47
 70
     1
102
RTVSPost2010Prop48
 90
       50
102
RTVSPost2010PropOp48
 70
     1
102
RTVSPost2010Prop49
280
     0
102
RTVSPost2010PropOp49
 70
     1
102
RTVSPost2010Prop50
 90
       50
102
RTVSPost2010PropOp50
 70
     1
102
RTVSPost2010Prop51ColorIndex
 90
      256
102
RTVSPost2010Prop51ColorRGB
 90
-16777216
102
RTVSPost2010PropOp51
 70
     0
102
RTVSPost2010Prop52
140
1.0
102
RTVSPost2010PropOp52
 70
     0
102
RTVSPost2010Prop53
 90
        2
102
RTVSPost2010PropOp53
 70
     1
102
RTVSPost2010Prop54
  1
strokes_ogs.tif
102
RTVSPost2010PropOp54
 70
     1
102
RTVSPost2010Prop55
280
     0
102
RTVSPost2010PropOp55
 70
     1
102
RTVSPost2010Prop56
140
1.0
102
RTVSPost2010PropOp56
 70
     1
102
RTVSPost2010Prop57
140
1.0
102
RTVSPost2010PropOp57
 70
     1
  0
XRECORD
  5
4AE
102
{ACAD_REACTORS
330
4AD
102
}
330
4AD
100
AcDbXrecord
280
     1
102
RTVSPropertyOp0
 70
     0
102
RTVSPropertyOp1
 70
     0
102
RTVSPropertyOp2
 70
     0
102
RTVSPropertyOp3
 70
     0
102
RTVSPropertyOp4
 70
     0
102
RTVSPropertyOp5
 70
     0
102
RTVSPropertyOp6
 70
     0
102
RTVSPropertyOp7
 70
     0
102
RTVSPropertyOp8
 70
     0
102
RTVSPropertyOp9
 70
     0
102
RTVSPropertyOp10
 70
     0
102
RTVSPropertyOp11
 70
     0
102
RTVSPropertyOp12
 70
     0
102
RTVSPropertyOp13
 70
     0
102
RTVSPropertyOp14
 70
     2
102
RTVSPropertyOp15
 70
     0
102
RTVSPropertyOp16
 70
     0
102
RTVSPropertyOp17
 70
     0
102
RTVSPropertyOp18
 70
     0
102
RTVSPropertyOp19
 70
     0
102
RTVSPropertyOp20
 70
     0
102
RTVSPropertyOp21
 70
     0
102
RTVSPropertyOp22
 70
     0
102
RTVSPropertyOp23
 70
     0
102
RTVSPropertyOp24
 70
     0
102
RTVSPropertyOp25
 70
     0
102
RTVSPropertyOp26
 70
     0
102
RTVSPropertyOp27
 70
     0
102
RTVSPropertyOp28
 70
     0
102
RTVSPropertyOp29
 70
     0
102
RTVSPropertyOp30
 70
     0
102
RTVSPropertyOp31
 70
     0
102
RTVSPropertyOp32
 70
     0
102
RTVSPropertyOp33
 70
     0
102
RTVSPropertyOp34
 70
     0
102
RTVSPropertyOp35
 70
     0
102
RTVSPropertyOp36
 70
     0
102
RTVSPropertyOp37
 70
     0
102
RTVSPropertyOp38
 70
     0
102
RTVSPropertyOp39
 70
     0
102
RTVSPropertyOp40
 70
     0
102
RTVSPropertyOp41
 70
     0
102
RTVSPropertyOp42
 70
     0
102
RTVSPropertyOp43
 70
     0
102
RTVSPropertyOp44
 70
     0
102
RTVSPropertyOp45
 70
     0
102
RTVSPropertyOp46
 70
     0
102
RTVSPropertyOp47
 70
     0
102
RTVSPropertyOp48
 70
     0
102
RTVSPropertyOp49
 70
     0
102
RTVSPropertyOp50
 70
     0
102
RTVSPropertyOp51
 70
     0
102
RTVSPropertyOp52
 70
     0
102
RTVSPropertyOp53
 70
     0
102
RTVSPropertyOp54
 70
     0
102
RTVSPropertyOp55
 70
     0
102
RTVSPropertyOp56
 70
     0
102
RTVSPropertyOp57
 70
     0
102
RTVSPost2010Prop28
280
     0
102
RTVSPost2010PropOp28
 70
     0
102
RTVSPost2010Prop29
280
     1
102
RTVSPost2010PropOp29
 70
     0
102
RTVSPost2010Prop30
280
     1
102
RTVSPost2010PropOp30
 70
     0
102
RTVSPost2010Prop31
280
     0
102
RTVSPost2010PropOp31
 70
     0
102
RTVSPost2010Prop32
280
     0
102
RTVSPost2010PropOp32
 70
     0
102
RTVSPost2010Prop33
280
     0
102
RTVSPost2010PropOp33
 70
     0
102
RTVSPost2010Prop34
280
     0
102
RTVSPost2010PropOp34
 70
     0
102
RTVSPost2010Prop35
280
     0
102
RTVSPost2010PropOp35
 70
     0
102
RTVSPost2010Prop36
280
     0
102
RTVSPost2010PropOp36
 70
     0
102
RTVSPost2010Prop37
 90
       50
102
RTVSPost2010PropOp37
 70
     0
102
RTVSPost2010Prop38
140
0.0
102
RTVSPost2010PropOp38
 70
     0
102
RTVSPost2010Prop39
140
1.0
102
RTVSPost2010PropOp39
 70
     0
102
RTVSPost2010Prop40
 90
        0
102
RTVSPost2010PropOp40
 70
     0
102
RTVSPost2010Prop41ColorIndex
 90
       18
102
RTVSPost2010Prop41ColorRGB
 90
        0
102
RTVSPost2010PropOp41
 70
     0
102
RTVSPost2010Prop42
 90
       50
102
RTVSPost2010PropOp42
 70
     0
102
RTVSPost2010Prop43
 90
        3
102
RTVSPost2010PropOp43
 70
     0
102
RTVSPost2010Prop44ColorIndex
 90
        5
102
RTVSPost2010Prop44ColorRGB
 90
      255
102
RTVSPost2010PropOp44
 70
     0
102
RTVSPost2010Prop45
280
     0
102
RTVSPost2010PropOp45
 70
     0
102
RTVSPost2010Prop46
 90
       50
102
RTVSPost2010PropOp46
 70
     0
102
RTVSPost2010Prop47
 90
       50
102
RTVSPost2010PropOp47
 70
     0
102
RTVSPost2010Prop48
 90
       50
102
RTVSPost2010PropOp48
 70
     0
102
RTVSPost2010Prop49
280
     0
102
RTVSPost2010PropOp49
 70
     0
102
RTVSPost2010Prop50
 90
       50
102
RTVSPost2010PropOp50
 70
     0
102
RTVSPost2010Prop51ColorIndex
 90
      256
102
RTVSPost2010Prop51ColorRGB
 90
-16777216
102
RTVSPost2010PropOp51
 70
     0
102
RTVSPost2010Prop52
140
1.0
102
RTVSPost2010PropOp52
 70
     0
102
RTVSPost2010Prop53
 90
        2
102
RTVSPost2010PropOp53
 70
     0
102
RTVSPost2010Prop54
  1
strokes_ogs.tif
102
RTVSPost2010PropOp54
 70
     0
102
RTVSPost2010Prop55
280
     0
102
RTVSPost2010PropOp55
 70
     0
102
RTVSPost2010Prop56
140
1.0
102
RTVSPost2010PropOp56
 70
     0
102
RTVSPost2010Prop57
140
1.0
102
RTVSPost2010PropOp57
 70
     0
  0
XRECORD
  5
4A6
102
{ACAD_REACTORS
330
4A5
102
}
330
4A5
100
AcDbXrecord
280
     1
102
RTVSPropertyOp0
 70
     1
102
RTVSPropertyOp1
 70
     1
102
RTVSPropertyOp2
 70
     1
102
RTVSPropertyOp3
 70
     1
102
RTVSPropertyOp4
 70
     1
102
RTVSPropertyOp5
 70
     1
102
RTVSPropertyOp6
 70
     1
102
RTVSPropertyOp7
 70
     1
102
RTVSPropertyOp8
 70
     1
102
RTVSPropertyOp9
 70
     1
102
RTVSPropertyOp10
 70
     1
102
RTVSPropertyOp11
 70
     1
102
RTVSPropertyOp12
 70
     1
102
RTVSPropertyOp13
 70
     1
102
RTVSPropertyOp14
 70
     1
102
RTVSPropertyOp15
 70
     1
102
RTVSPropertyOp16
 70
     1
102
RTVSPropertyOp17
 70
     1
102
RTVSPropertyOp18
 70
     1
102
RTVSPropertyOp19
 70
     1
102
RTVSPropertyOp20
 70
     1
102
RTVSPropertyOp21
 70
     1
102
RTVSPropertyOp22
 70
     1
102
RTVSPropertyOp23
 70
     1
102
RTVSPropertyOp24
 70
     1
102
RTVSPropertyOp25
 70
     1
102
RTVSPropertyOp26
 70
     1
102
RTVSPropertyOp27
 70
     1
102
RTVSPropertyOp28
 70
     1
102
RTVSPropertyOp29
 70
     1
102
RTVSPropertyOp30
 70
     1
102
RTVSPropertyOp31
 70
     1
102
RTVSPropertyOp32
 70
     1
102
RTVSPropertyOp33
 70
     1
102
RTVSPropertyOp34
 70
     1
102
RTVSPropertyOp35
 70
     1
102
RTVSPropertyOp36
 70
     1
102
RTVSPropertyOp37
 70
     1
102
RTVSPropertyOp38
 70
     1
102
RTVSPropertyOp39
 70
     1
102
RTVSPropertyOp40
 70
     1
102
RTVSPropertyOp41
 70
     1
102
RTVSPropertyOp42
 70
     1
102
RTVSPropertyOp43
 70
     1
102
RTVSPropertyOp44
 70
     1
102
RTVSPropertyOp45
 70
     1
102
RTVSPropertyOp46
 70
     1
102
RTVSPropertyOp47
 70
     1
102
RTVSPropertyOp48
 70
     1
102
RTVSPropertyOp49
 70
     1
102
RTVSPropertyOp50
 70
     1
102
RTVSPropertyOp51
 70
     0
102
RTVSPropertyOp52
 70
     0
102
RTVSPropertyOp53
 70
     1
102
RTVSPropertyOp54
 70
     1
102
RTVSPropertyOp55
 70
     1
102
RTVSPropertyOp56
 70
     1
102
RTVSPropertyOp57
 70
     1
102
RTVSPost2010Prop28
280
     0
102
RTVSPost2010PropOp28
 70
     1
102
RTVSPost2010Prop29
280
     1
102
RTVSPost2010PropOp29
 70
     1
102
RTVSPost2010Prop30
280
     1
102
RTVSPost2010PropOp30
 70
     1
102
RTVSPost2010Prop31
280
     0
102
RTVSPost2010PropOp31
 70
     1
102
RTVSPost2010Prop32
280
     0
102
RTVSPost2010PropOp32
 70
     1
102
RTVSPost2010Prop33
280
     0
102
RTVSPost2010PropOp33
 70
     1
102
RTVSPost2010Prop34
280
     0
102
RTVSPost2010PropOp34
 70
     1
102
RTVSPost2010Prop35
280
     0
102
RTVSPost2010PropOp35
 70
     1
102
RTVSPost2010Prop36
280
     0
102
RTVSPost2010PropOp36
 70
     1
102
RTVSPost2010Prop37
 90
       50
102
RTVSPost2010PropOp37
 70
     1
102
RTVSPost2010Prop38
140
0.0
102
RTVSPost2010PropOp38
 70
     1
102
RTVSPost2010Prop39
140
1.0
102
RTVSPost2010PropOp39
 70
     1
102
RTVSPost2010Prop40
 90
        0
102
RTVSPost2010PropOp40
 70
     1
102
RTVSPost2010Prop41ColorIndex
 90
       18
102
RTVSPost2010Prop41ColorRGB
 90
        0
102
RTVSPost2010PropOp41
 70
     1
102
RTVSPost2010Prop42
 90
       50
102
RTVSPost2010PropOp42
 70
     1
102
RTVSPost2010Prop43
 90
        3
102
RTVSPost2010PropOp43
 70
     1
102
RTVSPost2010Prop44ColorIndex
 90
        5
102
RTVSPost2010Prop44ColorRGB
 90
      255
102
RTVSPost2010PropOp44
 70
     1
102
RTVSPost2010Prop45
280
     0
102
RTVSPost2010PropOp45
 70
     1
102
RTVSPost2010Prop46
 90
       50
102
RTVSPost2010PropOp46
 70
     1
102
RTVSPost2010Prop47
 90
       50
102
RTVSPost2010PropOp47
 70
     1
102
RTVSPost2010Prop48
 90
       50
102
RTVSPost2010PropOp48
 70
     1
102
RTVSPost2010Prop49
280
     0
102
RTVSPost2010PropOp49
 70
     1
102
RTVSPost2010Prop50
 90
       50
102
RTVSPost2010PropOp50
 70
     1
102
RTVSPost2010Prop51ColorIndex
 90
      256
102
RTVSPost2010Prop51ColorRGB
 90
-16777216
102
RTVSPost2010PropOp51
 70
     0
102
RTVSPost2010Prop52
140
1.0
102
RTVSPost2010PropOp52
 70
     0
102
RTVSPost2010Prop53
 90
        2
102
RTVSPost2010PropOp53
 70
     1
102
RTVSPost2010Prop54
  1
strokes_ogs.tif
102
RTVSPost2010PropOp54
 70
     1
102
RTVSPost2010Prop55
280
     0
102
RTVSPost2010PropOp55
 70
     1
102
RTVSPost2010Prop56
140
1.0
102
RTVSPost2010PropOp56
 70
     1
102
RTVSPost2010Prop57
140
1.0
102
RTVSPost2010PropOp57
 70
     1
  0
XRECORD
  5
48A
102
{ACAD_REACTORS
330
489
102
}
330
489
100
AcDbXrecord
280
     1
102
RTVSPropertyOp0
 70
     1
102
RTVSPropertyOp1
 70
     1
102
RTVSPropertyOp2
 70
     1
102
RTVSPropertyOp3
 70
     1
102
RTVSPropertyOp4
 70
     1
102
RTVSPropertyOp5
 70
     1
102
RTVSPropertyOp6
 70
     1
102
RTVSPropertyOp7
 70
     1
102
RTVSPropertyOp8
 70
     1
102
RTVSPropertyOp9
 70
     1
102
RTVSPropertyOp10
 70
     1
102
RTVSPropertyOp11
 70
     1
102
RTVSPropertyOp12
 70
     1
102
RTVSPropertyOp13
 70
     1
102
RTVSPropertyOp14
 70
     1
102
RTVSPropertyOp15
 70
     1
102
RTVSPropertyOp16
 70
     1
102
RTVSPropertyOp17
 70
     1
102
RTVSPropertyOp18
 70
     1
102
RTVSPropertyOp19
 70
     1
102
RTVSPropertyOp20
 70
     1
102
RTVSPropertyOp21
 70
     1
102
RTVSPropertyOp22
 70
     1
102
RTVSPropertyOp23
 70
     1
102
RTVSPropertyOp24
 70
     1
102
RTVSPropertyOp25
 70
     1
102
RTVSPropertyOp26
 70
     1
102
RTVSPropertyOp27
 70
     1
102
RTVSPropertyOp28
 70
     1
102
RTVSPropertyOp29
 70
     1
102
RTVSPropertyOp30
 70
     1
102
RTVSPropertyOp31
 70
     1
102
RTVSPropertyOp32
 70
     1
102
RTVSPropertyOp33
 70
     1
102
RTVSPropertyOp34
 70
     1
102
RTVSPropertyOp35
 70
     1
102
RTVSPropertyOp36
 70
     1
102
RTVSPropertyOp37
 70
     1
102
RTVSPropertyOp38
 70
     1
102
RTVSPropertyOp39
 70
     1
102
RTVSPropertyOp40
 70
     1
102
RTVSPropertyOp41
 70
     1
102
RTVSPropertyOp42
 70
     1
102
RTVSPropertyOp43
 70
     1
102
RTVSPropertyOp44
 70
     1
102
RTVSPropertyOp45
 70
     1
102
RTVSPropertyOp46
 70
     1
102
RTVSPropertyOp47
 70
     1
102
RTVSPropertyOp48
 70
     1
102
RTVSPropertyOp49
 70
     1
102
RTVSPropertyOp50
 70
     1
102
RTVSPropertyOp51
 70
     0
102
RTVSPropertyOp52
 70
     0
102
RTVSPropertyOp53
 70
     1
102
RTVSPropertyOp54
 70
     1
102
RTVSPropertyOp55
 70
     1
102
RTVSPropertyOp56
 70
     1
102
RTVSPropertyOp57
 70
     1
102
RTVSPost2010Prop28
280
     0
102
RTVSPost2010PropOp28
 70
     1
102
RTVSPost2010Prop29
280
     1
102
RTVSPost2010PropOp29
 70
     1
102
RTVSPost2010Prop30
280
     1
102
RTVSPost2010PropOp30
 70
     1
102
RTVSPost2010Prop31
280
     0
102
RTVSPost2010PropOp31
 70
     1
102
RTVSPost2010Prop32
280
     0
102
RTVSPost2010PropOp32
 70
     1
102
RTVSPost2010Prop33
280
     0
102
RTVSPost2010PropOp33
 70
     1
102
RTVSPost2010Prop34
280
     0
102
RTVSPost2010PropOp34
 70
     1
102
RTVSPost2010Prop35
280
     0
102
RTVSPost2010PropOp35
 70
     1
102
RTVSPost2010Prop36
280
     0
102
RTVSPost2010PropOp36
 70
     1
102
RTVSPost2010Prop37
 90
       50
102
RTVSPost2010PropOp37
 70
     1
102
RTVSPost2010Prop38
140
0.0
102
RTVSPost2010PropOp38
 70
     1
102
RTVSPost2010Prop39
140
1.0
102
RTVSPost2010PropOp39
 70
     1
102
RTVSPost2010Prop40
 90
        0
102
RTVSPost2010PropOp40
 70
     1
102
RTVSPost2010Prop41ColorIndex
 90
       18
102
RTVSPost2010Prop41ColorRGB
 90
        0
102
RTVSPost2010PropOp41
 70
     1
102
RTVSPost2010Prop42
 90
       50
102
RTVSPost2010PropOp42
 70
     1
102
RTVSPost2010Prop43
 90
        3
102
RTVSPost2010PropOp43
 70
     1
102
RTVSPost2010Prop44ColorIndex
 90
        5
102
RTVSPost2010Prop44ColorRGB
 90
      255
102
RTVSPost2010PropOp44
 70
     1
102
RTVSPost2010Prop45
280
     0
102
RTVSPost2010PropOp45
 70
     1
102
RTVSPost2010Prop46
 90
       50
102
RTVSPost2010PropOp46
 70
     1
102
RTVSPost2010Prop47
 90
       50
102
RTVSPost2010PropOp47
 70
     1
102
RTVSPost2010Prop48
 90
       50
102
RTVSPost2010PropOp48
 70
     1
102
RTVSPost2010Prop49
280
     0
102
RTVSPost2010PropOp49
 70
     1
102
RTVSPost2010Prop50
 90
       50
102
RTVSPost2010PropOp50
 70
     1
102
RTVSPost2010Prop51ColorIndex
 90
      256
102
RTVSPost2010Prop51ColorRGB
 90
-16777216
102
RTVSPost2010PropOp51
 70
     0
102
RTVSPost2010Prop52
140
1.0
102
RTVSPost2010PropOp52
 70
     0
102
RTVSPost2010Prop53
 90
        2
102
RTVSPost2010PropOp53
 70
     1
102
RTVSPost2010Prop54
  1
strokes_ogs.tif
102
RTVSPost2010PropOp54
 70
     1
102
RTVSPost2010Prop55
280
     0
102
RTVSPost2010PropOp55
 70
     1
102
RTVSPost2010Prop56
140
1.0
102
RTVSPost2010PropOp56
 70
     1
102
RTVSPost2010Prop57
140
1.0
102
RTVSPost2010PropOp57
 70
     1
  0
XRECORD
  5
48C
102
{ACAD_REACTORS
330
48B
102
}
330
48B
100
AcDbXrecord
280
     1
102
RTVSPropertyOp0
 70
     1
102
RTVSPropertyOp1
 70
     1
102
RTVSPropertyOp2
 70
     1
102
RTVSPropertyOp3
 70
     1
102
RTVSPropertyOp4
 70
     1
102
RTVSPropertyOp5
 70
     1
102
RTVSPropertyOp6
 70
     1
102
RTVSPropertyOp7
 70
     1
102
RTVSPropertyOp8
 70
     1
102
RTVSPropertyOp9
 70
     1
102
RTVSPropertyOp10
 70
     1
102
RTVSPropertyOp11
 70
     1
102
RTVSPropertyOp12
 70
     1
102
RTVSPropertyOp13
 70
     1
102
RTVSPropertyOp14
 70
     1
102
RTVSPropertyOp15
 70
     1
102
RTVSPropertyOp16
 70
     1
102
RTVSPropertyOp17
 70
     1
102
RTVSPropertyOp18
 70
     1
102
RTVSPropertyOp19
 70
     1
102
RTVSPropertyOp20
 70
     1
102
RTVSPropertyOp21
 70
     1
102
RTVSPropertyOp22
 70
     1
102
RTVSPropertyOp23
 70
     1
102
RTVSPropertyOp24
 70
     1
102
RTVSPropertyOp25
 70
     1
102
RTVSPropertyOp26
 70
     1
102
RTVSPropertyOp27
 70
     1
102
RTVSPropertyOp28
 70
     1
102
RTVSPropertyOp29
 70
     1
102
RTVSPropertyOp30
 70
     1
102
RTVSPropertyOp31
 70
     1
102
RTVSPropertyOp32
 70
     1
102
RTVSPropertyOp33
 70
     1
102
RTVSPropertyOp34
 70
     1
102
RTVSPropertyOp35
 70
     1
102
RTVSPropertyOp36
 70
     1
102
RTVSPropertyOp37
 70
     1
102
RTVSPropertyOp38
 70
     1
102
RTVSPropertyOp39
 70
     1
102
RTVSPropertyOp40
 70
     1
102
RTVSPropertyOp41
 70
     1
102
RTVSPropertyOp42
 70
     1
102
RTVSPropertyOp43
 70
     1
102
RTVSPropertyOp44
 70
     1
102
RTVSPropertyOp45
 70
     1
102
RTVSPropertyOp46
 70
     1
102
RTVSPropertyOp47
 70
     1
102
RTVSPropertyOp48
 70
     1
102
RTVSPropertyOp49
 70
     1
102
RTVSPropertyOp50
 70
     1
102
RTVSPropertyOp51
 70
     0
102
RTVSPropertyOp52
 70
     0
102
RTVSPropertyOp53
 70
     1
102
RTVSPropertyOp54
 70
     1
102
RTVSPropertyOp55
 70
     1
102
RTVSPropertyOp56
 70
     1
102
RTVSPropertyOp57
 70
     1
102
RTVSPost2010Prop28
280
     0
102
RTVSPost2010PropOp28
 70
     1
102
RTVSPost2010Prop29
280
     1
102
RTVSPost2010PropOp29
 70
     1
102
RTVSPost2010Prop30
280
     1
102
RTVSPost2010PropOp30
 70
     1
102
RTVSPost2010Prop31
280
     0
102
RTVSPost2010PropOp31
 70
     1
102
RTVSPost2010Prop32
280
     0
102
RTVSPost2010PropOp32
 70
     1
102
RTVSPost2010Prop33
280
     0
102
RTVSPost2010PropOp33
 70
     1
102
RTVSPost2010Prop34
280
     0
102
RTVSPost2010PropOp34
 70
     1
102
RTVSPost2010Prop35
280
     0
102
RTVSPost2010PropOp35
 70
     1
102
RTVSPost2010Prop36
280
     0
102
RTVSPost2010PropOp36
 70
     1
102
RTVSPost2010Prop37
 90
       50
102
RTVSPost2010PropOp37
 70
     1
102
RTVSPost2010Prop38
140
0.0
102
RTVSPost2010PropOp38
 70
     1
102
RTVSPost2010Prop39
140
1.0
102
RTVSPost2010PropOp39
 70
     1
102
RTVSPost2010Prop40
 90
        0
102
RTVSPost2010PropOp40
 70
     1
102
RTVSPost2010Prop41ColorIndex
 90
       18
102
RTVSPost2010Prop41ColorRGB
 90
        0
102
RTVSPost2010PropOp41
 70
     1
102
RTVSPost2010Prop42
 90
       50
102
RTVSPost2010PropOp42
 70
     1
102
RTVSPost2010Prop43
 90
        3
102
RTVSPost2010PropOp43
 70
     1
102
RTVSPost2010Prop44ColorIndex
 90
        5
102
RTVSPost2010Prop44ColorRGB
 90
      255
102
RTVSPost2010PropOp44
 70
     1
102
RTVSPost2010Prop45
280
     0
102
RTVSPost2010PropOp45
 70
     1
102
RTVSPost2010Prop46
 90
       50
102
RTVSPost2010PropOp46
 70
     1
102
RTVSPost2010Prop47
 90
       50
102
RTVSPost2010PropOp47
 70
     1
102
RTVSPost2010Prop48
 90
       50
102
RTVSPost2010PropOp48
 70
     1
102
RTVSPost2010Prop49
280
     0
102
RTVSPost2010PropOp49
 70
     1
102
RTVSPost2010Prop50
 90
       50
102
RTVSPost2010PropOp50
 70
     1
102
RTVSPost2010Prop51ColorIndex
 90
      256
102
RTVSPost2010Prop51ColorRGB
 90
-16777216
102
RTVSPost2010PropOp51
 70
     0
102
RTVSPost2010Prop52
140
1.0
102
RTVSPost2010PropOp52
 70
     0
102
RTVSPost2010Prop53
 90
        2
102
RTVSPost2010PropOp53
 70
     1
102
RTVSPost2010Prop54
  1
strokes_ogs.tif
102
RTVSPost2010PropOp54
 70
     1
102
RTVSPost2010Prop55
280
     0
102
RTVSPost2010PropOp55
 70
     1
102
RTVSPost2010Prop56
140
1.0
102
RTVSPost2010PropOp56
 70
     1
102
RTVSPost2010Prop57
140
1.0
102
RTVSPost2010PropOp57
 70
     1
  0
XRECORD
  5
48E
102
{ACAD_REACTORS
330
48D
102
}
330
48D
100
AcDbXrecord
280
     1
102
RTVSPropertyOp0
 70
     1
102
RTVSPropertyOp1
 70
     1
102
RTVSPropertyOp2
 70
     1
102
RTVSPropertyOp3
 70
     1
102
RTVSPropertyOp4
 70
     1
102
RTVSPropertyOp5
 70
     1
102
RTVSPropertyOp6
 70
     1
102
RTVSPropertyOp7
 70
     1
102
RTVSPropertyOp8
 70
     1
102
RTVSPropertyOp9
 70
     1
102
RTVSPropertyOp10
 70
     1
102
RTVSPropertyOp11
 70
     1
102
RTVSPropertyOp12
 70
     1
102
RTVSPropertyOp13
 70
     1
102
RTVSPropertyOp14
 70
     1
102
RTVSPropertyOp15
 70
     1
102
RTVSPropertyOp16
 70
     1
102
RTVSPropertyOp17
 70
     1
102
RTVSPropertyOp18
 70
     1
102
RTVSPropertyOp19
 70
     1
102
RTVSPropertyOp20
 70
     1
102
RTVSPropertyOp21
 70
     1
102
RTVSPropertyOp22
 70
     1
102
RTVSPropertyOp23
 70
     1
102
RTVSPropertyOp24
 70
     1
102
RTVSPropertyOp25
 70
     1
102
RTVSPropertyOp26
 70
     1
102
RTVSPropertyOp27
 70
     1
102
RTVSPropertyOp28
 70
     1
102
RTVSPropertyOp29
 70
     1
102
RTVSPropertyOp30
 70
     1
102
RTVSPropertyOp31
 70
     1
102
RTVSPropertyOp32
 70
     1
102
RTVSPropertyOp33
 70
     1
102
RTVSPropertyOp34
 70
     1
102
RTVSPropertyOp35
 70
     1
102
RTVSPropertyOp36
 70
     1
102
RTVSPropertyOp37
 70
     1
102
RTVSPropertyOp38
 70
     1
102
RTVSPropertyOp39
 70
     1
102
RTVSPropertyOp40
 70
     1
102
RTVSPropertyOp41
 70
     1
102
RTVSPropertyOp42
 70
     1
102
RTVSPropertyOp43
 70
     1
102
RTVSPropertyOp44
 70
     1
102
RTVSPropertyOp45
 70
     1
102
RTVSPropertyOp46
 70
     1
102
RTVSPropertyOp47
 70
     1
102
RTVSPropertyOp48
 70
     1
102
RTVSPropertyOp49
 70
     1
102
RTVSPropertyOp50
 70
     1
102
RTVSPropertyOp51
 70
     0
102
RTVSPropertyOp52
 70
     0
102
RTVSPropertyOp53
 70
     1
102
RTVSPropertyOp54
 70
     1
102
RTVSPropertyOp55
 70
     1
102
RTVSPropertyOp56
 70
     1
102
RTVSPropertyOp57
 70
     1
102
RTVSPost2010Prop28
280
     0
102
RTVSPost2010PropOp28
 70
     1
102
RTVSPost2010Prop29
280
     1
102
RTVSPost2010PropOp29
 70
     1
102
RTVSPost2010Prop30
280
     1
102
RTVSPost2010PropOp30
 70
     1
102
RTVSPost2010Prop31
280
     0
102
RTVSPost2010PropOp31
 70
     1
102
RTVSPost2010Prop32
280
     0
102
RTVSPost2010PropOp32
 70
     1
102
RTVSPost2010Prop33
280
     0
102
RTVSPost2010PropOp33
 70
     1
102
RTVSPost2010Prop34
280
     0
102
RTVSPost2010PropOp34
 70
     1
102
RTVSPost2010Prop35
280
     0
102
RTVSPost2010PropOp35
 70
     1
102
RTVSPost2010Prop36
280
     0
102
RTVSPost2010PropOp36
 70
     1
102
RTVSPost2010Prop37
 90
       50
102
RTVSPost2010PropOp37
 70
     1
102
RTVSPost2010Prop38
140
0.0
102
RTVSPost2010PropOp38
 70
     1
102
RTVSPost2010Prop39
140
1.0
102
RTVSPost2010PropOp39
 70
     1
102
RTVSPost2010Prop40
 90
        0
102
RTVSPost2010PropOp40
 70
     1
102
RTVSPost2010Prop41ColorIndex
 90
       18
102
RTVSPost2010Prop41ColorRGB
 90
        0
102
RTVSPost2010PropOp41
 70
     1
102
RTVSPost2010Prop42
 90
       50
102
RTVSPost2010PropOp42
 70
     1
102
RTVSPost2010Prop43
 90
        3
102
RTVSPost2010PropOp43
 70
     1
102
RTVSPost2010Prop44ColorIndex
 90
        5
102
RTVSPost2010Prop44ColorRGB
 90
      255
102
RTVSPost2010PropOp44
 70
     1
102
RTVSPost2010Prop45
280
     0
102
RTVSPost2010PropOp45
 70
     1
102
RTVSPost2010Prop46
 90
       50
102
RTVSPost2010PropOp46
 70
     1
102
RTVSPost2010Prop47
 90
       50
102
RTVSPost2010PropOp47
 70
     1
102
RTVSPost2010Prop48
 90
       50
102
RTVSPost2010PropOp48
 70
     1
102
RTVSPost2010Prop49
280
     0
102
RTVSPost2010PropOp49
 70
     1
102
RTVSPost2010Prop50
 90
       50
102
RTVSPost2010PropOp50
 70
     1
102
RTVSPost2010Prop51ColorIndex
 90
      256
102
RTVSPost2010Prop51ColorRGB
 90
-16777216
102
RTVSPost2010PropOp51
 70
     0
102
RTVSPost2010Prop52
140
1.0
102
RTVSPost2010PropOp52
 70
     0
102
RTVSPost2010Prop53
 90
        2
102
RTVSPost2010PropOp53
 70
     1
102
RTVSPost2010Prop54
  1
strokes_ogs.tif
102
RTVSPost2010PropOp54
 70
     1
102
RTVSPost2010Prop55
280
     0
102
RTVSPost2010PropOp55
 70
     1
102
RTVSPost2010Prop56
140
1.0
102
RTVSPost2010PropOp56
 70
     1
102
RTVSPost2010Prop57
140
1.0
102
RTVSPost2010PropOp57
 70
     1
  0
XRECORD
  5
490
102
{ACAD_REACTORS
330
48F
102
}
330
48F
100
AcDbXrecord
280
     1
102
RTVSPropertyOp0
 70
     1
102
RTVSPropertyOp1
 70
     1
102
RTVSPropertyOp2
 70
     1
102
RTVSPropertyOp3
 70
     1
102
RTVSPropertyOp4
 70
     1
102
RTVSPropertyOp5
 70
     1
102
RTVSPropertyOp6
 70
     1
102
RTVSPropertyOp7
 70
     1
102
RTVSPropertyOp8
 70
     1
102
RTVSPropertyOp9
 70
     1
102
RTVSPropertyOp10
 70
     1
102
RTVSPropertyOp11
 70
     1
102
RTVSPropertyOp12
 70
     1
102
RTVSPropertyOp13
 70
     1
102
RTVSPropertyOp14
 70
     1
102
RTVSPropertyOp15
 70
     1
102
RTVSPropertyOp16
 70
     1
102
RTVSPropertyOp17
 70
     1
102
RTVSPropertyOp18
 70
     1
102
RTVSPropertyOp19
 70
     1
102
RTVSPropertyOp20
 70
     1
102
RTVSPropertyOp21
 70
     1
102
RTVSPropertyOp22
 70
     1
102
RTVSPropertyOp23
 70
     1
102
RTVSPropertyOp24
 70
     1
102
RTVSPropertyOp25
 70
     1
102
RTVSPropertyOp26
 70
     1
102
RTVSPropertyOp27
 70
     1
102
RTVSPropertyOp28
 70
     1
102
RTVSPropertyOp29
 70
     1
102
RTVSPropertyOp30
 70
     1
102
RTVSPropertyOp31
 70
     1
102
RTVSPropertyOp32
 70
     1
102
RTVSPropertyOp33
 70
     1
102
RTVSPropertyOp34
 70
     1
102
RTVSPropertyOp35
 70
     1
102
RTVSPropertyOp36
 70
     1
102
RTVSPropertyOp37
 70
     1
102
RTVSPropertyOp38
 70
     1
102
RTVSPropertyOp39
 70
     1
102
RTVSPropertyOp40
 70
     1
102
RTVSPropertyOp41
 70
     1
102
RTVSPropertyOp42
 70
     1
102
RTVSPropertyOp43
 70
     1
102
RTVSPropertyOp44
 70
     1
102
RTVSPropertyOp45
 70
     1
102
RTVSPropertyOp46
 70
     1
102
RTVSPropertyOp47
 70
     1
102
RTVSPropertyOp48
 70
     1
102
RTVSPropertyOp49
 70
     1
102
RTVSPropertyOp50
 70
     1
102
RTVSPropertyOp51
 70
     0
102
RTVSPropertyOp52
 70
     0
102
RTVSPropertyOp53
 70
     1
102
RTVSPropertyOp54
 70
     1
102
RTVSPropertyOp55
 70
     1
102
RTVSPropertyOp56
 70
     1
102
RTVSPropertyOp57
 70
     1
102
RTVSPost2010Prop28
280
     0
102
RTVSPost2010PropOp28
 70
     1
102
RTVSPost2010Prop29
280
     1
102
RTVSPost2010PropOp29
 70
     1
102
RTVSPost2010Prop30
280
     1
102
RTVSPost2010PropOp30
 70
     1
102
RTVSPost2010Prop31
280
     0
102
RTVSPost2010PropOp31
 70
     1
102
RTVSPost2010Prop32
280
     0
102
RTVSPost2010PropOp32
 70
     1
102
RTVSPost2010Prop33
280
     0
102
RTVSPost2010PropOp33
 70
     1
102
RTVSPost2010Prop34
280
     0
102
RTVSPost2010PropOp34
 70
     1
102
RTVSPost2010Prop35
280
     0
102
RTVSPost2010PropOp35
 70
     1
102
RTVSPost2010Prop36
280
     0
102
RTVSPost2010PropOp36
 70
     1
102
RTVSPost2010Prop37
 90
       50
102
RTVSPost2010PropOp37
 70
     1
102
RTVSPost2010Prop38
140
0.0
102
RTVSPost2010PropOp38
 70
     1
102
RTVSPost2010Prop39
140
1.0
102
RTVSPost2010PropOp39
 70
     1
102
RTVSPost2010Prop40
 90
        0
102
RTVSPost2010PropOp40
 70
     1
102
RTVSPost2010Prop41ColorIndex
 90
       18
102
RTVSPost2010Prop41ColorRGB
 90
        0
102
RTVSPost2010PropOp41
 70
     1
102
RTVSPost2010Prop42
 90
       50
102
RTVSPost2010PropOp42
 70
     1
102
RTVSPost2010Prop43
 90
        3
102
RTVSPost2010PropOp43
 70
     1
102
RTVSPost2010Prop44ColorIndex
 90
        5
102
RTVSPost2010Prop44ColorRGB
 90
      255
102
RTVSPost2010PropOp44
 70
     1
102
RTVSPost2010Prop45
280
     0
102
RTVSPost2010PropOp45
 70
     1
102
RTVSPost2010Prop46
 90
       50
102
RTVSPost2010PropOp46
 70
     1
102
RTVSPost2010Prop47
 90
       50
102
RTVSPost2010PropOp47
 70
     1
102
RTVSPost2010Prop48
 90
       50
102
RTVSPost2010PropOp48
 70
     1
102
RTVSPost2010Prop49
280
     0
102
RTVSPost2010PropOp49
 70
     1
102
RTVSPost2010Prop50
 90
       50
102
RTVSPost2010PropOp50
 70
     1
102
RTVSPost2010Prop51ColorIndex
 90
      256
102
RTVSPost2010Prop51ColorRGB
 90
-16777216
102
RTVSPost2010PropOp51
 70
     0
102
RTVSPost2010Prop52
140
1.0
102
RTVSPost2010PropOp52
 70
     0
102
RTVSPost2010Prop53
 90
        2
102
RTVSPost2010PropOp53
 70
     1
102
RTVSPost2010Prop54
  1
strokes_ogs.tif
102
RTVSPost2010PropOp54
 70
     1
102
RTVSPost2010Prop55
280
     0
102
RTVSPost2010PropOp55
 70
     1
102
RTVSPost2010Prop56
140
1.0
102
RTVSPost2010PropOp56
 70
     1
102
RTVSPost2010Prop57
140
1.0
102
RTVSPost2010PropOp57
 70
     1
  0
XRECORD
  5
496
102
{ACAD_REACTORS
330
495
102
}
330
495
100
AcDbXrecord
280
     1
102
RTVSPropertyOp0
 70
     1
102
RTVSPropertyOp1
 70
     1
102
RTVSPropertyOp2
 70
     1
102
RTVSPropertyOp3
 70
     1
102
RTVSPropertyOp4
 70
     1
102
RTVSPropertyOp5
 70
     1
102
RTVSPropertyOp6
 70
     1
102
RTVSPropertyOp7
 70
     1
102
RTVSPropertyOp8
 70
     1
102
RTVSPropertyOp9
 70
     1
102
RTVSPropertyOp10
 70
     1
102
RTVSPropertyOp11
 70
     1
102
RTVSPropertyOp12
 70
     1
102
RTVSPropertyOp13
 70
     1
102
RTVSPropertyOp14
 70
     1
102
RTVSPropertyOp15
 70
     1
102
RTVSPropertyOp16
 70
     1
102
RTVSPropertyOp17
 70
     1
102
RTVSPropertyOp18
 70
     1
102
RTVSPropertyOp19
 70
     1
102
RTVSPropertyOp20
 70
     1
102
RTVSPropertyOp21
 70
     1
102
RTVSPropertyOp22
 70
     1
102
RTVSPropertyOp23
 70
     1
102
RTVSPropertyOp24
 70
     1
102
RTVSPropertyOp25
 70
     1
102
RTVSPropertyOp26
 70
     1
102
RTVSPropertyOp27
 70
     1
102
RTVSPropertyOp28
 70
     1
102
RTVSPropertyOp29
 70
     1
102
RTVSPropertyOp30
 70
     1
102
RTVSPropertyOp31
 70
     1
102
RTVSPropertyOp32
 70
     1
102
RTVSPropertyOp33
 70
     1
102
RTVSPropertyOp34
 70
     1
102
RTVSPropertyOp35
 70
     1
102
RTVSPropertyOp36
 70
     1
102
RTVSPropertyOp37
 70
     1
102
RTVSPropertyOp38
 70
     1
102
RTVSPropertyOp39
 70
     1
102
RTVSPropertyOp40
 70
     1
102
RTVSPropertyOp41
 70
     1
102
RTVSPropertyOp42
 70
     1
102
RTVSPropertyOp43
 70
     1
102
RTVSPropertyOp44
 70
     1
102
RTVSPropertyOp45
 70
     1
102
RTVSPropertyOp46
 70
     1
102
RTVSPropertyOp47
 70
     1
102
RTVSPropertyOp48
 70
     1
102
RTVSPropertyOp49
 70
     1
102
RTVSPropertyOp50
 70
     1
102
RTVSPropertyOp51
 70
     0
102
RTVSPropertyOp52
 70
     0
102
RTVSPropertyOp53
 70
     1
102
RTVSPropertyOp54
 70
     1
102
RTVSPropertyOp55
 70
     1
102
RTVSPropertyOp56
 70
     1
102
RTVSPropertyOp57
 70
     1
102
RTVSPost2010Prop28
280
     0
102
RTVSPost2010PropOp28
 70
     1
102
RTVSPost2010Prop29
280
     1
102
RTVSPost2010PropOp29
 70
     1
102
RTVSPost2010Prop30
280
     1
102
RTVSPost2010PropOp30
 70
     1
102
RTVSPost2010Prop31
280
     0
102
RTVSPost2010PropOp31
 70
     1
102
RTVSPost2010Prop32
280
     0
102
RTVSPost2010PropOp32
 70
     1
102
RTVSPost2010Prop33
280
     0
102
RTVSPost2010PropOp33
 70
     1
102
RTVSPost2010Prop34
280
     0
102
RTVSPost2010PropOp34
 70
     1
102
RTVSPost2010Prop35
280
     0
102
RTVSPost2010PropOp35
 70
     1
102
RTVSPost2010Prop36
280
     0
102
RTVSPost2010PropOp36
 70
     1
102
RTVSPost2010Prop37
 90
       50
102
RTVSPost2010PropOp37
 70
     1
102
RTVSPost2010Prop38
140
0.0
102
RTVSPost2010PropOp38
 70
     1
102
RTVSPost2010Prop39
140
1.0
102
RTVSPost2010PropOp39
 70
     1
102
RTVSPost2010Prop40
 90
        0
102
RTVSPost2010PropOp40
 70
     1
102
RTVSPost2010Prop41ColorIndex
 90
       18
102
RTVSPost2010Prop41ColorRGB
 90
        0
102
RTVSPost2010PropOp41
 70
     1
102
RTVSPost2010Prop42
 90
       50
102
RTVSPost2010PropOp42
 70
     1
102
RTVSPost2010Prop43
 90
        3
102
RTVSPost2010PropOp43
 70
     1
102
RTVSPost2010Prop44ColorIndex
 90
        5
102
RTVSPost2010Prop44ColorRGB
 90
      255
102
RTVSPost2010PropOp44
 70
     1
102
RTVSPost2010Prop45
280
     0
102
RTVSPost2010PropOp45
 70
     1
102
RTVSPost2010Prop46
 90
       50
102
RTVSPost2010PropOp46
 70
     1
102
RTVSPost2010Prop47
 90
       50
102
RTVSPost2010PropOp47
 70
     1
102
RTVSPost2010Prop48
 90
       50
102
RTVSPost2010PropOp48
 70
     1
102
RTVSPost2010Prop49
280
     0
102
RTVSPost2010PropOp49
 70
     1
102
RTVSPost2010Prop50
 90
       50
102
RTVSPost2010PropOp50
 70
     1
102
RTVSPost2010Prop51ColorIndex
 90
      256
102
RTVSPost2010Prop51ColorRGB
 90
-16777216
102
RTVSPost2010PropOp51
 70
     0
102
RTVSPost2010Prop52
140
1.0
102
RTVSPost2010PropOp52
 70
     0
102
RTVSPost2010Prop53
 90
        2
102
RTVSPost2010PropOp53
 70
     1
102
RTVSPost2010Prop54
  1
strokes_ogs.tif
102
RTVSPost2010PropOp54
 70
     1
102
RTVSPost2010Prop55
280
     0
102
RTVSPost2010PropOp55
 70
     1
102
RTVSPost2010Prop56
140
1.0
102
RTVSPost2010PropOp56
 70
     1
102
RTVSPost2010Prop57
140
1.0
102
RTVSPost2010PropOp57
 70
     1
  0
XRECORD
  5
4AA
102
{ACAD_REACTORS
330
4A9
102
}
330
4A9
100
AcDbXrecord
280
     1
102
RTVSPropertyOp0
 70
     0
102
RTVSPropertyOp1
 70
     0
102
RTVSPropertyOp2
 70
     0
102
RTVSPropertyOp3
 70
     0
102
RTVSPropertyOp4
 70
     0
102
RTVSPropertyOp5
 70
     0
102
RTVSPropertyOp6
 70
     0
102
RTVSPropertyOp7
 70
     0
102
RTVSPropertyOp8
 70
     0
102
RTVSPropertyOp9
 70
     0
102
RTVSPropertyOp10
 70
     0
102
RTVSPropertyOp11
 70
     0
102
RTVSPropertyOp12
 70
     0
102
RTVSPropertyOp13
 70
     0
102
RTVSPropertyOp14
 70
     2
102
RTVSPropertyOp15
 70
     0
102
RTVSPropertyOp16
 70
     0
102
RTVSPropertyOp17
 70
     0
102
RTVSPropertyOp18
 70
     0
102
RTVSPropertyOp19
 70
     0
102
RTVSPropertyOp20
 70
     0
102
RTVSPropertyOp21
 70
     0
102
RTVSPropertyOp22
 70
     0
102
RTVSPropertyOp23
 70
     0
102
RTVSPropertyOp24
 70
     0
102
RTVSPropertyOp25
 70
     0
102
RTVSPropertyOp26
 70
     0
102
RTVSPropertyOp27
 70
     0
102
RTVSPropertyOp28
 70
     0
102
RTVSPropertyOp29
 70
     0
102
RTVSPropertyOp30
 70
     0
102
RTVSPropertyOp31
 70
     0
102
RTVSPropertyOp32
 70
     0
102
RTVSPropertyOp33
 70
     0
102
RTVSPropertyOp34
 70
     0
102
RTVSPropertyOp35
 70
     0
102
RTVSPropertyOp36
 70
     0
102
RTVSPropertyOp37
 70
     0
102
RTVSPropertyOp38
 70
     0
102
RTVSPropertyOp39
 70
     0
102
RTVSPropertyOp40
 70
     0
102
RTVSPropertyOp41
 70
     0
102
RTVSPropertyOp42
 70
     0
102
RTVSPropertyOp43
 70
     0
102
RTVSPropertyOp44
 70
     0
102
RTVSPropertyOp45
 70
     0
102
RTVSPropertyOp46
 70
     0
102
RTVSPropertyOp47
 70
     0
102
RTVSPropertyOp48
 70
     0
102
RTVSPropertyOp49
 70
     0
102
RTVSPropertyOp50
 70
     0
102
RTVSPropertyOp51
 70
     0
102
RTVSPropertyOp52
 70
     0
102
RTVSPropertyOp53
 70
     0
102
RTVSPropertyOp54
 70
     0
102
RTVSPropertyOp55
 70
     0
102
RTVSPropertyOp56
 70
     0
102
RTVSPropertyOp57
 70
     0
102
RTVSPost2010Prop28
280
     0
102
RTVSPost2010PropOp28
 70
     0
102
RTVSPost2010Prop29
280
     1
102
RTVSPost2010PropOp29
 70
     0
102
RTVSPost2010Prop30
280
     1
102
RTVSPost2010PropOp30
 70
     0
102
RTVSPost2010Prop31
280
     0
102
RTVSPost2010PropOp31
 70
     0
102
RTVSPost2010Prop32
280
     0
102
RTVSPost2010PropOp32
 70
     0
102
RTVSPost2010Prop33
280
     0
102
RTVSPost2010PropOp33
 70
     0
102
RTVSPost2010Prop34
280
     0
102
RTVSPost2010PropOp34
 70
     0
102
RTVSPost2010Prop35
280
     0
102
RTVSPost2010PropOp35
 70
     0
102
RTVSPost2010Prop36
280
     0
102
RTVSPost2010PropOp36
 70
     0
102
RTVSPost2010Prop37
 90
       50
102
RTVSPost2010PropOp37
 70
     0
102
RTVSPost2010Prop38
140
0.0
102
RTVSPost2010PropOp38
 70
     0
102
RTVSPost2010Prop39
140
1.0
102
RTVSPost2010PropOp39
 70
     0
102
RTVSPost2010Prop40
 90
        0
102
RTVSPost2010PropOp40
 70
     0
102
RTVSPost2010Prop41ColorIndex
 90
       18
102
RTVSPost2010Prop41ColorRGB
 90
        0
102
RTVSPost2010PropOp41
 70
     0
102
RTVSPost2010Prop42
 90
       50
102
RTVSPost2010PropOp42
 70
     0
102
RTVSPost2010Prop43
 90
        3
102
RTVSPost2010PropOp43
 70
     0
102
RTVSPost2010Prop44ColorIndex
 90
        5
102
RTVSPost2010Prop44ColorRGB
 90
      255
102
RTVSPost2010PropOp44
 70
     0
102
RTVSPost2010Prop45
280
     0
102
RTVSPost2010PropOp45
 70
     0
102
RTVSPost2010Prop46
 90
       50
102
RTVSPost2010PropOp46
 70
     0
102
RTVSPost2010Prop47
 90
       50
102
RTVSPost2010PropOp47
 70
     0
102
RTVSPost2010Prop48
 90
       50
102
RTVSPost2010PropOp48
 70
     0
102
RTVSPost2010Prop49
280
     0
102
RTVSPost2010PropOp49
 70
     0
102
RTVSPost2010Prop50
 90
       50
102
RTVSPost2010PropOp50
 70
     0
102
RTVSPost2010Prop51ColorIndex
 90
      256
102
RTVSPost2010Prop51ColorRGB
 90
-16777216
102
RTVSPost2010PropOp51
 70
     0
102
RTVSPost2010Prop52
140
1.0
102
RTVSPost2010PropOp52
 70
     0
102
RTVSPost2010Prop53
 90
        2
102
RTVSPost2010PropOp53
 70
     0
102
RTVSPost2010Prop54
  1
strokes_ogs.tif
102
RTVSPost2010PropOp54
 70
     0
102
RTVSPost2010Prop55
280
     0
102
RTVSPost2010PropOp55
 70
     0
102
RTVSPost2010Prop56
140
1.0
102
RTVSPost2010PropOp56
 70
     0
102
RTVSPost2010Prop57
140
1.0
102
RTVSPost2010PropOp57
 70
     0
  0
XRECORD
  5
4A4
102
{ACAD_REACTORS
330
4A3
102
}
330
4A3
100
AcDbXrecord
280
     1
102
RTVSPropertyOp0
 70
     1
102
RTVSPropertyOp1
 70
     1
102
RTVSPropertyOp2
 70
     1
102
RTVSPropertyOp3
 70
     1
102
RTVSPropertyOp4
 70
     1
102
RTVSPropertyOp5
 70
     1
102
RTVSPropertyOp6
 70
     1
102
RTVSPropertyOp7
 70
     1
102
RTVSPropertyOp8
 70
     1
102
RTVSPropertyOp9
 70
     1
102
RTVSPropertyOp10
 70
     1
102
RTVSPropertyOp11
 70
     1
102
RTVSPropertyOp12
 70
     1
102
RTVSPropertyOp13
 70
     1
102
RTVSPropertyOp14
 70
     1
102
RTVSPropertyOp15
 70
     1
102
RTVSPropertyOp16
 70
     1
102
RTVSPropertyOp17
 70
     1
102
RTVSPropertyOp18
 70
     1
102
RTVSPropertyOp19
 70
     1
102
RTVSPropertyOp20
 70
     1
102
RTVSPropertyOp21
 70
     1
102
RTVSPropertyOp22
 70
     1
102
RTVSPropertyOp23
 70
     1
102
RTVSPropertyOp24
 70
     1
102
RTVSPropertyOp25
 70
     1
102
RTVSPropertyOp26
 70
     1
102
RTVSPropertyOp27
 70
     1
102
RTVSPropertyOp28
 70
     1
102
RTVSPropertyOp29
 70
     1
102
RTVSPropertyOp30
 70
     1
102
RTVSPropertyOp31
 70
     1
102
RTVSPropertyOp32
 70
     1
102
RTVSPropertyOp33
 70
     1
102
RTVSPropertyOp34
 70
     1
102
RTVSPropertyOp35
 70
     1
102
RTVSPropertyOp36
 70
     1
102
RTVSPropertyOp37
 70
     1
102
RTVSPropertyOp38
 70
     1
102
RTVSPropertyOp39
 70
     1
102
RTVSPropertyOp40
 70
     1
102
RTVSPropertyOp41
 70
     1
102
RTVSPropertyOp42
 70
     1
102
RTVSPropertyOp43
 70
     1
102
RTVSPropertyOp44
 70
     1
102
RTVSPropertyOp45
 70
     1
102
RTVSPropertyOp46
 70
     1
102
RTVSPropertyOp47
 70
     1
102
RTVSPropertyOp48
 70
     1
102
RTVSPropertyOp49
 70
     1
102
RTVSPropertyOp50
 70
     1
102
RTVSPropertyOp51
 70
     0
102
RTVSPropertyOp52
 70
     0
102
RTVSPropertyOp53
 70
     1
102
RTVSPropertyOp54
 70
     1
102
RTVSPropertyOp55
 70
     1
102
RTVSPropertyOp56
 70
     1
102
RTVSPropertyOp57
 70
     1
102
RTVSPost2010Prop28
280
     0
102
RTVSPost2010PropOp28
 70
     1
102
RTVSPost2010Prop29
280
     1
102
RTVSPost2010PropOp29
 70
     1
102
RTVSPost2010Prop30
280
     1
102
RTVSPost2010PropOp30
 70
     1
102
RTVSPost2010Prop31
280
     0
102
RTVSPost2010PropOp31
 70
     1
102
RTVSPost2010Prop32
280
     0
102
RTVSPost2010PropOp32
 70
     1
102
RTVSPost2010Prop33
280
     0
102
RTVSPost2010PropOp33
 70
     1
102
RTVSPost2010Prop34
280
     0
102
RTVSPost2010PropOp34
 70
     1
102
RTVSPost2010Prop35
280
     0
102
RTVSPost2010PropOp35
 70
     1
102
RTVSPost2010Prop36
280
     0
102
RTVSPost2010PropOp36
 70
     1
102
RTVSPost2010Prop37
 90
       50
102
RTVSPost2010PropOp37
 70
     1
102
RTVSPost2010Prop38
140
0.0
102
RTVSPost2010PropOp38
 70
     1
102
RTVSPost2010Prop39
140
1.0
102
RTVSPost2010PropOp39
 70
     1
102
RTVSPost2010Prop40
 90
        0
102
RTVSPost2010PropOp40
 70
     1
102
RTVSPost2010Prop41ColorIndex
 90
       18
102
RTVSPost2010Prop41ColorRGB
 90
        0
102
RTVSPost2010PropOp41
 70
     1
102
RTVSPost2010Prop42
 90
       50
102
RTVSPost2010PropOp42
 70
     1
102
RTVSPost2010Prop43
 90
        3
102
RTVSPost2010PropOp43
 70
     1
102
RTVSPost2010Prop44ColorIndex
 90
        5
102
RTVSPost2010Prop44ColorRGB
 90
      255
102
RTVSPost2010PropOp44
 70
     1
102
RTVSPost2010Prop45
280
     0
102
RTVSPost2010PropOp45
 70
     1
102
RTVSPost2010Prop46
 90
       50
102
RTVSPost2010PropOp46
 70
     1
102
RTVSPost2010Prop47
 90
       50
102
RTVSPost2010PropOp47
 70
     1
102
RTVSPost2010Prop48
 90
       50
102
RTVSPost2010PropOp48
 70
     1
102
RTVSPost2010Prop49
280
     0
102
RTVSPost2010PropOp49
 70
     1
102
RTVSPost2010Prop50
 90
       50
102
RTVSPost2010PropOp50
 70
     1
102
RTVSPost2010Prop51ColorIndex
 90
      256
102
RTVSPost2010Prop51ColorRGB
 90
-16777216
102
RTVSPost2010PropOp51
 70
     0
102
RTVSPost2010Prop52
140
1.0
102
RTVSPost2010PropOp52
 70
     0
102
RTVSPost2010Prop53
 90
        2
102
RTVSPost2010PropOp53
 70
     1
102
RTVSPost2010Prop54
  1
strokes_ogs.tif
102
RTVSPost2010PropOp54
 70
     1
102
RTVSPost2010Prop55
280
     0
102
RTVSPost2010PropOp55
 70
     1
102
RTVSPost2010Prop56
140
1.0
102
RTVSPost2010PropOp56
 70
     1
102
RTVSPost2010Prop57
140
1.0
102
RTVSPost2010PropOp57
 70
     1
  0
XRECORD
  5
4AC
102
{ACAD_REACTORS
330
4AB
102
}
330
4AB
100
AcDbXrecord
280
     1
102
RTVSPropertyOp0
 70
     0
102
RTVSPropertyOp1
 70
     0
102
RTVSPropertyOp2
 70
     0
102
RTVSPropertyOp3
 70
     0
102
RTVSPropertyOp4
 70
     0
102
RTVSPropertyOp5
 70
     0
102
RTVSPropertyOp6
 70
     0
102
RTVSPropertyOp7
 70
     0
102
RTVSPropertyOp8
 70
     0
102
RTVSPropertyOp9
 70
     0
102
RTVSPropertyOp10
 70
     0
102
RTVSPropertyOp11
 70
     0
102
RTVSPropertyOp12
 70
     0
102
RTVSPropertyOp13
 70
     0
102
RTVSPropertyOp14
 70
     2
102
RTVSPropertyOp15
 70
     0
102
RTVSPropertyOp16
 70
     0
102
RTVSPropertyOp17
 70
     0
102
RTVSPropertyOp18
 70
     0
102
RTVSPropertyOp19
 70
     0
102
RTVSPropertyOp20
 70
     0
102
RTVSPropertyOp21
 70
     0
102
RTVSPropertyOp22
 70
     0
102
RTVSPropertyOp23
 70
     0
102
RTVSPropertyOp24
 70
     0
102
RTVSPropertyOp25
 70
     0
102
RTVSPropertyOp26
 70
     0
102
RTVSPropertyOp27
 70
     0
102
RTVSPropertyOp28
 70
     0
102
RTVSPropertyOp29
 70
     0
102
RTVSPropertyOp30
 70
     0
102
RTVSPropertyOp31
 70
     0
102
RTVSPropertyOp32
 70
     0
102
RTVSPropertyOp33
 70
     0
102
RTVSPropertyOp34
 70
     0
102
RTVSPropertyOp35
 70
     0
102
RTVSPropertyOp36
 70
     0
102
RTVSPropertyOp37
 70
     0
102
RTVSPropertyOp38
 70
     0
102
RTVSPropertyOp39
 70
     0
102
RTVSPropertyOp40
 70
     0
102
RTVSPropertyOp41
 70
     0
102
RTVSPropertyOp42
 70
     0
102
RTVSPropertyOp43
 70
     0
102
RTVSPropertyOp44
 70
     0
102
RTVSPropertyOp45
 70
     0
102
RTVSPropertyOp46
 70
     0
102
RTVSPropertyOp47
 70
     0
102
RTVSPropertyOp48
 70
     0
102
RTVSPropertyOp49
 70
     0
102
RTVSPropertyOp50
 70
     0
102
RTVSPropertyOp51
 70
     0
102
RTVSPropertyOp52
 70
     0
102
RTVSPropertyOp53
 70
     0
102
RTVSPropertyOp54
 70
     0
102
RTVSPropertyOp55
 70
     0
102
RTVSPropertyOp56
 70
     0
102
RTVSPropertyOp57
 70
     0
102
RTVSPost2010Prop28
280
     0
102
RTVSPost2010PropOp28
 70
     0
102
RTVSPost2010Prop29
280
     1
102
RTVSPost2010PropOp29
 70
     0
102
RTVSPost2010Prop30
280
     1
102
RTVSPost2010PropOp30
 70
     0
102
RTVSPost2010Prop31
280
     0
102
RTVSPost2010PropOp31
 70
     0
102
RTVSPost2010Prop32
280
     0
102
RTVSPost2010PropOp32
 70
     0
102
RTVSPost2010Prop33
280
     0
102
RTVSPost2010PropOp33
 70
     0
102
RTVSPost2010Prop34
280
     0
102
RTVSPost2010PropOp34
 70
     0
102
RTVSPost2010Prop35
280
     0
102
RTVSPost2010PropOp35
 70
     0
102
RTVSPost2010Prop36
280
     0
102
RTVSPost2010PropOp36
 70
     0
102
RTVSPost2010Prop37
 90
       50
102
RTVSPost2010PropOp37
 70
     0
102
RTVSPost2010Prop38
140
0.0
102
RTVSPost2010PropOp38
 70
     0
102
RTVSPost2010Prop39
140
1.0
102
RTVSPost2010PropOp39
 70
     0
102
RTVSPost2010Prop40
 90
        0
102
RTVSPost2010PropOp40
 70
     0
102
RTVSPost2010Prop41ColorIndex
 90
       18
102
RTVSPost2010Prop41ColorRGB
 90
        0
102
RTVSPost2010PropOp41
 70
     0
102
RTVSPost2010Prop42
 90
       50
102
RTVSPost2010PropOp42
 70
     0
102
RTVSPost2010Prop43
 90
        3
102
RTVSPost2010PropOp43
 70
     0
102
RTVSPost2010Prop44ColorIndex
 90
        5
102
RTVSPost2010Prop44ColorRGB
 90
      255
102
RTVSPost2010PropOp44
 70
     0
102
RTVSPost2010Prop45
280
     0
102
RTVSPost2010PropOp45
 70
     0
102
RTVSPost2010Prop46
 90
       50
102
RTVSPost2010PropOp46
 70
     0
102
RTVSPost2010Prop47
 90
       50
102
RTVSPost2010PropOp47
 70
     0
102
RTVSPost2010Prop48
 90
       50
102
RTVSPost2010PropOp48
 70
     0
102
RTVSPost2010Prop49
280
     0
102
RTVSPost2010PropOp49
 70
     0
102
RTVSPost2010Prop50
 90
       50
102
RTVSPost2010PropOp50
 70
     0
102
RTVSPost2010Prop51ColorIndex
 90
      256
102
RTVSPost2010Prop51ColorRGB
 90
-16777216
102
RTVSPost2010PropOp51
 70
     0
102
RTVSPost2010Prop52
140
1.0
102
RTVSPost2010PropOp52
 70
     0
102
RTVSPost2010Prop53
 90
        2
102
RTVSPost2010PropOp53
 70
     0
102
RTVSPost2010Prop54
  1
strokes_ogs.tif
102
RTVSPost2010PropOp54
 70
     0
102
RTVSPost2010Prop55
280
     0
102
RTVSPost2010PropOp55
 70
     0
102
RTVSPost2010Prop56
140
1.0
102
RTVSPost2010PropOp56
 70
     0
102
RTVSPost2010Prop57
140
1.0
102
RTVSPost2010PropOp57
 70
     0
  0
XRECORD
  5
49A
102
{ACAD_REACTORS
330
499
102
}
330
499
100
AcDbXrecord
280
     1
102
RTVSPropertyOp0
 70
     1
102
RTVSPropertyOp1
 70
     1
102
RTVSPropertyOp2
 70
     1
102
RTVSPropertyOp3
 70
     1
102
RTVSPropertyOp4
 70
     1
102
RTVSPropertyOp5
 70
     1
102
RTVSPropertyOp6
 70
     1
102
RTVSPropertyOp7
 70
     1
102
RTVSPropertyOp8
 70
     1
102
RTVSPropertyOp9
 70
     1
102
RTVSPropertyOp10
 70
     1
102
RTVSPropertyOp11
 70
     1
102
RTVSPropertyOp12
 70
     1
102
RTVSPropertyOp13
 70
     1
102
RTVSPropertyOp14
 70
     1
102
RTVSPropertyOp15
 70
     1
102
RTVSPropertyOp16
 70
     1
102
RTVSPropertyOp17
 70
     1
102
RTVSPropertyOp18
 70
     1
102
RTVSPropertyOp19
 70
     1
102
RTVSPropertyOp20
 70
     1
102
RTVSPropertyOp21
 70
     1
102
RTVSPropertyOp22
 70
     1
102
RTVSPropertyOp23
 70
     1
102
RTVSPropertyOp24
 70
     1
102
RTVSPropertyOp25
 70
     1
102
RTVSPropertyOp26
 70
     1
102
RTVSPropertyOp27
 70
     1
102
RTVSPropertyOp28
 70
     1
102
RTVSPropertyOp29
 70
     1
102
RTVSPropertyOp30
 70
     1
102
RTVSPropertyOp31
 70
     1
102
RTVSPropertyOp32
 70
     1
102
RTVSPropertyOp33
 70
     1
102
RTVSPropertyOp34
 70
     1
102
RTVSPropertyOp35
 70
     1
102
RTVSPropertyOp36
 70
     1
102
RTVSPropertyOp37
 70
     1
102
RTVSPropertyOp38
 70
     1
102
RTVSPropertyOp39
 70
     1
102
RTVSPropertyOp40
 70
     1
102
RTVSPropertyOp41
 70
     1
102
RTVSPropertyOp42
 70
     1
102
RTVSPropertyOp43
 70
     1
102
RTVSPropertyOp44
 70
     1
102
RTVSPropertyOp45
 70
     1
102
RTVSPropertyOp46
 70
     1
102
RTVSPropertyOp47
 70
     1
102
RTVSPropertyOp48
 70
     1
102
RTVSPropertyOp49
 70
     1
102
RTVSPropertyOp50
 70
     1
102
RTVSPropertyOp51
 70
     0
102
RTVSPropertyOp52
 70
     0
102
RTVSPropertyOp53
 70
     1
102
RTVSPropertyOp54
 70
     1
102
RTVSPropertyOp55
 70
     1
102
RTVSPropertyOp56
 70
     1
102
RTVSPropertyOp57
 70
     1
102
RTVSPost2010Prop28
280
     0
102
RTVSPost2010PropOp28
 70
     1
102
RTVSPost2010Prop29
280
     1
102
RTVSPost2010PropOp29
 70
     1
102
RTVSPost2010Prop30
280
     1
102
RTVSPost2010PropOp30
 70
     1
102
RTVSPost2010Prop31
280
     0
102
RTVSPost2010PropOp31
 70
     1
102
RTVSPost2010Prop32
280
     0
102
RTVSPost2010PropOp32
 70
     1
102
RTVSPost2010Prop33
280
     0
102
RTVSPost2010PropOp33
 70
     1
102
RTVSPost2010Prop34
280
     0
102
RTVSPost2010PropOp34
 70
     1
102
RTVSPost2010Prop35
280
     0
102
RTVSPost2010PropOp35
 70
     1
102
RTVSPost2010Prop36
280
     0
102
RTVSPost2010PropOp36
 70
     1
102
RTVSPost2010Prop37
 90
       50
102
RTVSPost2010PropOp37
 70
     1
102
RTVSPost2010Prop38
140
0.0
102
RTVSPost2010PropOp38
 70
     1
102
RTVSPost2010Prop39
140
1.0
102
RTVSPost2010PropOp39
 70
     1
102
RTVSPost2010Prop40
 90
        0
102
RTVSPost2010PropOp40
 70
     1
102
RTVSPost2010Prop41ColorIndex
 90
       18
102
RTVSPost2010Prop41ColorRGB
 90
        0
102
RTVSPost2010PropOp41
 70
     1
102
RTVSPost2010Prop42
 90
       50
102
RTVSPost2010PropOp42
 70
     1
102
RTVSPost2010Prop43
 90
        3
102
RTVSPost2010PropOp43
 70
     1
102
RTVSPost2010Prop44ColorIndex
 90
        5
102
RTVSPost2010Prop44ColorRGB
 90
      255
102
RTVSPost2010PropOp44
 70
     1
102
RTVSPost2010Prop45
280
     0
102
RTVSPost2010PropOp45
 70
     1
102
RTVSPost2010Prop46
 90
       50
102
RTVSPost2010PropOp46
 70
     1
102
RTVSPost2010Prop47
 90
       50
102
RTVSPost2010PropOp47
 70
     1
102
RTVSPost2010Prop48
 90
       50
102
RTVSPost2010PropOp48
 70
     1
102
RTVSPost2010Prop49
280
     0
102
RTVSPost2010PropOp49
 70
     1
102
RTVSPost2010Prop50
 90
       50
102
RTVSPost2010PropOp50
 70
     1
102
RTVSPost2010Prop51ColorIndex
 90
      256
102
RTVSPost2010Prop51ColorRGB
 90
-16777216
102
RTVSPost2010PropOp51
 70
     0
102
RTVSPost2010Prop52
140
1.0
102
RTVSPost2010PropOp52
 70
     0
102
RTVSPost2010Prop53
 90
        2
102
RTVSPost2010PropOp53
 70
     1
102
RTVSPost2010Prop54
  1
strokes_ogs.tif
102
RTVSPost2010PropOp54
 70
     1
102
RTVSPost2010Prop55
280
     0
102
RTVSPost2010PropOp55
 70
     1
102
RTVSPost2010Prop56
140
1.0
102
RTVSPost2010PropOp56
 70
     1
102
RTVSPost2010Prop57
140
1.0
102
RTVSPost2010PropOp57
 70
     1
  0
XRECORD
  5
4B8
102
{ACAD_REACTORS
330
4B7
102
}
330
4B7
100
AcDbXrecord
280
     1
102
RTVSPropertyOp0
 70
     1
102
RTVSPropertyOp1
 70
     1
102
RTVSPropertyOp2
 70
     1
102
RTVSPropertyOp3
 70
     1
102
RTVSPropertyOp4
 70
     1
102
RTVSPropertyOp5
 70
     1
102
RTVSPropertyOp6
 70
     1
102
RTVSPropertyOp7
 70
     1
102
RTVSPropertyOp8
 70
     1
102
RTVSPropertyOp9
 70
     1
102
RTVSPropertyOp10
 70
     1
102
RTVSPropertyOp11
 70
     1
102
RTVSPropertyOp12
 70
     1
102
RTVSPropertyOp13
 70
     1
102
RTVSPropertyOp14
 70
     1
102
RTVSPropertyOp15
 70
     1
102
RTVSPropertyOp16
 70
     1
102
RTVSPropertyOp17
 70
     1
102
RTVSPropertyOp18
 70
     1
102
RTVSPropertyOp19
 70
     1
102
RTVSPropertyOp20
 70
     1
102
RTVSPropertyOp21
 70
     1
102
RTVSPropertyOp22
 70
     1
102
RTVSPropertyOp23
 70
     1
102
RTVSPropertyOp24
 70
     1
102
RTVSPropertyOp25
 70
     1
102
RTVSPropertyOp26
 70
     1
102
RTVSPropertyOp27
 70
     1
102
RTVSPropertyOp28
 70
     1
102
RTVSPropertyOp29
 70
     1
102
RTVSPropertyOp30
 70
     1
102
RTVSPropertyOp31
 70
     1
102
RTVSPropertyOp32
 70
     1
102
RTVSPropertyOp33
 70
     1
102
RTVSPropertyOp34
 70
     1
102
RTVSPropertyOp35
 70
     1
102
RTVSPropertyOp36
 70
     1
102
RTVSPropertyOp37
 70
     1
102
RTVSPropertyOp38
 70
     1
102
RTVSPropertyOp39
 70
     1
102
RTVSPropertyOp40
 70
     1
102
RTVSPropertyOp41
 70
     1
102
RTVSPropertyOp42
 70
     1
102
RTVSPropertyOp43
 70
     1
102
RTVSPropertyOp44
 70
     1
102
RTVSPropertyOp45
 70
     1
102
RTVSPropertyOp46
 70
     1
102
RTVSPropertyOp47
 70
     1
102
RTVSPropertyOp48
 70
     1
102
RTVSPropertyOp49
 70
     1
102
RTVSPropertyOp50
 70
     1
102
RTVSPropertyOp51
 70
     0
102
RTVSPropertyOp52
 70
     0
102
RTVSPropertyOp53
 70
     1
102
RTVSPropertyOp54
 70
     1
102
RTVSPropertyOp55
 70
     1
102
RTVSPropertyOp56
 70
     1
102
RTVSPropertyOp57
 70
     1
102
RTVSPost2010Prop28
280
     0
102
RTVSPost2010PropOp28
 70
     1
102
RTVSPost2010Prop29
280
     1
102
RTVSPost2010PropOp29
 70
     1
102
RTVSPost2010Prop30
280
     1
102
RTVSPost2010PropOp30
 70
     1
102
RTVSPost2010Prop31
280
     0
102
RTVSPost2010PropOp31
 70
     1
102
RTVSPost2010Prop32
280
     0
102
RTVSPost2010PropOp32
 70
     1
102
RTVSPost2010Prop33
280
     0
102
RTVSPost2010PropOp33
 70
     1
102
RTVSPost2010Prop34
280
     0
102
RTVSPost2010PropOp34
 70
     1
102
RTVSPost2010Prop35
280
     0
102
RTVSPost2010PropOp35
 70
     1
102
RTVSPost2010Prop36
280
     0
102
RTVSPost2010PropOp36
 70
     1
102
RTVSPost2010Prop37
 90
       50
102
RTVSPost2010PropOp37
 70
     1
102
RTVSPost2010Prop38
140
0.0
102
RTVSPost2010PropOp38
 70
     1
102
RTVSPost2010Prop39
140
1.0
102
RTVSPost2010PropOp39
 70
     1
102
RTVSPost2010Prop40
 90
        0
102
RTVSPost2010PropOp40
 70
     1
102
RTVSPost2010Prop41ColorIndex
 90
       18
102
RTVSPost2010Prop41ColorRGB
 90
        0
102
RTVSPost2010PropOp41
 70
     1
102
RTVSPost2010Prop42
 90
       50
102
RTVSPost2010PropOp42
 70
     1
102
RTVSPost2010Prop43
 90
        3
102
RTVSPost2010PropOp43
 70
     1
102
RTVSPost2010Prop44ColorIndex
 90
        5
102
RTVSPost2010Prop44ColorRGB
 90
      255
102
RTVSPost2010PropOp44
 70
     1
102
RTVSPost2010Prop45
280
     0
102
RTVSPost2010PropOp45
 70
     1
102
RTVSPost2010Prop46
 90
       50
102
RTVSPost2010PropOp46
 70
     1
102
RTVSPost2010Prop47
 90
       50
102
RTVSPost2010PropOp47
 70
     1
102
RTVSPost2010Prop48
 90
       50
102
RTVSPost2010PropOp48
 70
     1
102
RTVSPost2010Prop49
280
     0
102
RTVSPost2010PropOp49
 70
     1
102
RTVSPost2010Prop50
 90
       50
102
RTVSPost2010PropOp50
 70
     1
102
RTVSPost2010Prop51ColorIndex
 90
      256
102
RTVSPost2010Prop51ColorRGB
 90
-16777216
102
RTVSPost2010PropOp51
 70
     0
102
RTVSPost2010Prop52
140
1.0
102
RTVSPost2010PropOp52
 70
     0
102
RTVSPost2010Prop53
 90
        2
102
RTVSPost2010PropOp53
 70
     1
102
RTVSPost2010Prop54
  1
strokes_ogs.tif
102
RTVSPost2010PropOp54
 70
     1
102
RTVSPost2010Prop55
280
     0
102
RTVSPost2010PropOp55
 70
     1
102
RTVSPost2010Prop56
140
1.0
102
RTVSPost2010PropOp56
 70
     1
102
RTVSPost2010Prop57
140
1.0
102
RTVSPost2010PropOp57
 70
     1
  0
XRECORD
  5
4B6
102
{ACAD_REACTORS
330
4B5
102
}
330
4B5
100
AcDbXrecord
280
     1
102
RTVSPropertyOp0
 70
     1
102
RTVSPropertyOp1
 70
     1
102
RTVSPropertyOp2
 70
     1
102
RTVSPropertyOp3
 70
     1
102
RTVSPropertyOp4
 70
     1
102
RTVSPropertyOp5
 70
     1
102
RTVSPropertyOp6
 70
     1
102
RTVSPropertyOp7
 70
     1
102
RTVSPropertyOp8
 70
     1
102
RTVSPropertyOp9
 70
     1
102
RTVSPropertyOp10
 70
     1
102
RTVSPropertyOp11
 70
     1
102
RTVSPropertyOp12
 70
     1
102
RTVSPropertyOp13
 70
     1
102
RTVSPropertyOp14
 70
     1
102
RTVSPropertyOp15
 70
     1
102
RTVSPropertyOp16
 70
     1
102
RTVSPropertyOp17
 70
     1
102
RTVSPropertyOp18
 70
     1
102
RTVSPropertyOp19
 70
     1
102
RTVSPropertyOp20
 70
     1
102
RTVSPropertyOp21
 70
     1
102
RTVSPropertyOp22
 70
     1
102
RTVSPropertyOp23
 70
     1
102
RTVSPropertyOp24
 70
     1
102
RTVSPropertyOp25
 70
     1
102
RTVSPropertyOp26
 70
     1
102
RTVSPropertyOp27
 70
     1
102
RTVSPropertyOp28
 70
     1
102
RTVSPropertyOp29
 70
     1
102
RTVSPropertyOp30
 70
     1
102
RTVSPropertyOp31
 70
     1
102
RTVSPropertyOp32
 70
     1
102
RTVSPropertyOp33
 70
     1
102
RTVSPropertyOp34
 70
     1
102
RTVSPropertyOp35
 70
     1
102
RTVSPropertyOp36
 70
     1
102
RTVSPropertyOp37
 70
     1
102
RTVSPropertyOp38
 70
     1
102
RTVSPropertyOp39
 70
     1
102
RTVSPropertyOp40
 70
     1
102
RTVSPropertyOp41
 70
     1
102
RTVSPropertyOp42
 70
     1
102
RTVSPropertyOp43
 70
     1
102
RTVSPropertyOp44
 70
     1
102
RTVSPropertyOp45
 70
     1
102
RTVSPropertyOp46
 70
     1
102
RTVSPropertyOp47
 70
     1
102
RTVSPropertyOp48
 70
     1
102
RTVSPropertyOp49
 70
     1
102
RTVSPropertyOp50
 70
     1
102
RTVSPropertyOp51
 70
     0
102
RTVSPropertyOp52
 70
     0
102
RTVSPropertyOp53
 70
     1
102
RTVSPropertyOp54
 70
     1
102
RTVSPropertyOp55
 70
     1
102
RTVSPropertyOp56
 70
     1
102
RTVSPropertyOp57
 70
     1
102
RTVSPost2010Prop28
280
     0
102
RTVSPost2010PropOp28
 70
     1
102
RTVSPost2010Prop29
280
     1
102
RTVSPost2010PropOp29
 70
     1
102
RTVSPost2010Prop30
280
     1
102
RTVSPost2010PropOp30
 70
     1
102
RTVSPost2010Prop31
280
     0
102
RTVSPost2010PropOp31
 70
     1
102
RTVSPost2010Prop32
280
     0
102
RTVSPost2010PropOp32
 70
     1
102
RTVSPost2010Prop33
280
     0
102
RTVSPost2010PropOp33
 70
     1
102
RTVSPost2010Prop34
280
     0
102
RTVSPost2010PropOp34
 70
     1
102
RTVSPost2010Prop35
280
     0
102
RTVSPost2010PropOp35
 70
     1
102
RTVSPost2010Prop36
280
     0
102
RTVSPost2010PropOp36
 70
     1
102
RTVSPost2010Prop37
 90
       50
102
RTVSPost2010PropOp37
 70
     1
102
RTVSPost2010Prop38
140
0.0
102
RTVSPost2010PropOp38
 70
     1
102
RTVSPost2010Prop39
140
1.0
102
RTVSPost2010PropOp39
 70
     1
102
RTVSPost2010Prop40
 90
        0
102
RTVSPost2010PropOp40
 70
     1
102
RTVSPost2010Prop41ColorIndex
 90
       18
102
RTVSPost2010Prop41ColorRGB
 90
        0
102
RTVSPost2010PropOp41
 70
     1
102
RTVSPost2010Prop42
 90
       50
102
RTVSPost2010PropOp42
 70
     1
102
RTVSPost2010Prop43
 90
        3
102
RTVSPost2010PropOp43
 70
     1
102
RTVSPost2010Prop44ColorIndex
 90
        5
102
RTVSPost2010Prop44ColorRGB
 90
      255
102
RTVSPost2010PropOp44
 70
     1
102
RTVSPost2010Prop45
280
     0
102
RTVSPost2010PropOp45
 70
     1
102
RTVSPost2010Prop46
 90
       50
102
RTVSPost2010PropOp46
 70
     1
102
RTVSPost2010Prop47
 90
       50
102
RTVSPost2010PropOp47
 70
     1
102
RTVSPost2010Prop48
 90
       50
102
RTVSPost2010PropOp48
 70
     1
102
RTVSPost2010Prop49
280
     0
102
RTVSPost2010PropOp49
 70
     1
102
RTVSPost2010Prop50
 90
       50
102
RTVSPost2010PropOp50
 70
     1
102
RTVSPost2010Prop51ColorIndex
 90
      256
102
RTVSPost2010Prop51ColorRGB
 90
-16777216
102
RTVSPost2010PropOp51
 70
     0
102
RTVSPost2010Prop52
140
1.0
102
RTVSPost2010PropOp52
 70
     0
102
RTVSPost2010Prop53
 90
        2
102
RTVSPost2010PropOp53
 70
     1
102
RTVSPost2010Prop54
  1
strokes_ogs.tif
102
RTVSPost2010PropOp54
 70
     1
102
RTVSPost2010Prop55
280
     0
102
RTVSPost2010PropOp55
 70
     1
102
RTVSPost2010Prop56
140
1.0
102
RTVSPost2010PropOp56
 70
     1
102
RTVSPost2010Prop57
140
1.0
102
RTVSPost2010PropOp57
 70
     1
  0
XRECORD
  5
4B0
102
{ACAD_REACTORS
330
4AF
102
}
330
4AF
100
AcDbXrecord
280
     1
102
RTVSPropertyOp0
 70
     1
102
RTVSPropertyOp1
 70
     1
102
RTVSPropertyOp2
 70
     1
102
RTVSPropertyOp3
 70
     1
102
RTVSPropertyOp4
 70
     1
102
RTVSPropertyOp5
 70
     1
102
RTVSPropertyOp6
 70
     1
102
RTVSPropertyOp7
 70
     1
102
RTVSPropertyOp8
 70
     1
102
RTVSPropertyOp9
 70
     1
102
RTVSPropertyOp10
 70
     1
102
RTVSPropertyOp11
 70
     1
102
RTVSPropertyOp12
 70
     1
102
RTVSPropertyOp13
 70
     1
102
RTVSPropertyOp14
 70
     1
102
RTVSPropertyOp15
 70
     1
102
RTVSPropertyOp16
 70
     1
102
RTVSPropertyOp17
 70
     1
102
RTVSPropertyOp18
 70
     1
102
RTVSPropertyOp19
 70
     1
102
RTVSPropertyOp20
 70
     1
102
RTVSPropertyOp21
 70
     1
102
RTVSPropertyOp22
 70
     1
102
RTVSPropertyOp23
 70
     1
102
RTVSPropertyOp24
 70
     1
102
RTVSPropertyOp25
 70
     1
102
RTVSPropertyOp26
 70
     1
102
RTVSPropertyOp27
 70
     1
102
RTVSPropertyOp28
 70
     1
102
RTVSPropertyOp29
 70
     1
102
RTVSPropertyOp30
 70
     1
102
RTVSPropertyOp31
 70
     1
102
RTVSPropertyOp32
 70
     1
102
RTVSPropertyOp33
 70
     1
102
RTVSPropertyOp34
 70
     1
102
RTVSPropertyOp35
 70
     1
102
RTVSPropertyOp36
 70
     1
102
RTVSPropertyOp37
 70
     1
102
RTVSPropertyOp38
 70
     1
102
RTVSPropertyOp39
 70
     1
102
RTVSPropertyOp40
 70
     1
102
RTVSPropertyOp41
 70
     1
102
RTVSPropertyOp42
 70
     1
102
RTVSPropertyOp43
 70
     1
102
RTVSPropertyOp44
 70
     1
102
RTVSPropertyOp45
 70
     1
102
RTVSPropertyOp46
 70
     1
102
RTVSPropertyOp47
 70
     1
102
RTVSPropertyOp48
 70
     1
102
RTVSPropertyOp49
 70
     1
102
RTVSPropertyOp50
 70
     1
102
RTVSPropertyOp51
 70
     0
102
RTVSPropertyOp52
 70
     0
102
RTVSPropertyOp53
 70
     1
102
RTVSPropertyOp54
 70
     1
102
RTVSPropertyOp55
 70
     1
102
RTVSPropertyOp56
 70
     1
102
RTVSPropertyOp57
 70
     1
102
RTVSPost2010Prop28
280
     0
102
RTVSPost2010PropOp28
 70
     1
102
RTVSPost2010Prop29
280
     1
102
RTVSPost2010PropOp29
 70
     1
102
RTVSPost2010Prop30
280
     1
102
RTVSPost2010PropOp30
 70
     1
102
RTVSPost2010Prop31
280
     0
102
RTVSPost2010PropOp31
 70
     1
102
RTVSPost2010Prop32
280
     0
102
RTVSPost2010PropOp32
 70
     1
102
RTVSPost2010Prop33
280
     0
102
RTVSPost2010PropOp33
 70
     1
102
RTVSPost2010Prop34
280
     0
102
RTVSPost2010PropOp34
 70
     1
102
RTVSPost2010Prop35
280
     0
102
RTVSPost2010PropOp35
 70
     1
102
RTVSPost2010Prop36
280
     0
102
RTVSPost2010PropOp36
 70
     1
102
RTVSPost2010Prop37
 90
       50
102
RTVSPost2010PropOp37
 70
     1
102
RTVSPost2010Prop38
140
0.0
102
RTVSPost2010PropOp38
 70
     1
102
RTVSPost2010Prop39
140
1.0
102
RTVSPost2010PropOp39
 70
     1
102
RTVSPost2010Prop40
 90
        0
102
RTVSPost2010PropOp40
 70
     1
102
RTVSPost2010Prop41ColorIndex
 90
       18
102
RTVSPost2010Prop41ColorRGB
 90
        0
102
RTVSPost2010PropOp41
 70
     1
102
RTVSPost2010Prop42
 90
       50
102
RTVSPost2010PropOp42
 70
     1
102
RTVSPost2010Prop43
 90
        3
102
RTVSPost2010PropOp43
 70
     1
102
RTVSPost2010Prop44ColorIndex
 90
        5
102
RTVSPost2010Prop44ColorRGB
 90
      255
102
RTVSPost2010PropOp44
 70
     1
102
RTVSPost2010Prop45
280
     0
102
RTVSPost2010PropOp45
 70
     1
102
RTVSPost2010Prop46
 90
       50
102
RTVSPost2010PropOp46
 70
     1
102
RTVSPost2010Prop47
 90
       50
102
RTVSPost2010PropOp47
 70
     1
102
RTVSPost2010Prop48
 90
       50
102
RTVSPost2010PropOp48
 70
     1
102
RTVSPost2010Prop49
280
     0
102
RTVSPost2010PropOp49
 70
     1
102
RTVSPost2010Prop50
 90
       50
102
RTVSPost2010PropOp50
 70
     1
102
RTVSPost2010Prop51ColorIndex
 90
      256
102
RTVSPost2010Prop51ColorRGB
 90
-16777216
102
RTVSPost2010PropOp51
 70
     0
102
RTVSPost2010Prop52
140
1.0
102
RTVSPost2010PropOp52
 70
     0
102
RTVSPost2010Prop53
 90
        2
102
RTVSPost2010PropOp53
 70
     1
102
RTVSPost2010Prop54
  1
strokes_ogs.tif
102
RTVSPost2010PropOp54
 70
     1
102
RTVSPost2010Prop55
280
     0
102
RTVSPost2010PropOp55
 70
     1
102
RTVSPost2010Prop56
140
1.0
102
RTVSPost2010PropOp56
 70
     1
102
RTVSPost2010Prop57
140
1.0
102
RTVSPost2010PropOp57
 70
     1
  0
XRECORD
  5
4B2
102
{ACAD_REACTORS
330
4B1
102
}
330
4B1
100
AcDbXrecord
280
     1
102
RTVSPropertyOp0
 70
     1
102
RTVSPropertyOp1
 70
     1
102
RTVSPropertyOp2
 70
     1
102
RTVSPropertyOp3
 70
     1
102
RTVSPropertyOp4
 70
     1
102
RTVSPropertyOp5
 70
     1
102
RTVSPropertyOp6
 70
     1
102
RTVSPropertyOp7
 70
     1
102
RTVSPropertyOp8
 70
     1
102
RTVSPropertyOp9
 70
     1
102
RTVSPropertyOp10
 70
     1
102
RTVSPropertyOp11
 70
     1
102
RTVSPropertyOp12
 70
     1
102
RTVSPropertyOp13
 70
     1
102
RTVSPropertyOp14
 70
     1
102
RTVSPropertyOp15
 70
     1
102
RTVSPropertyOp16
 70
     1
102
RTVSPropertyOp17
 70
     1
102
RTVSPropertyOp18
 70
     1
102
RTVSPropertyOp19
 70
     1
102
RTVSPropertyOp20
 70
     1
102
RTVSPropertyOp21
 70
     1
102
RTVSPropertyOp22
 70
     1
102
RTVSPropertyOp23
 70
     1
102
RTVSPropertyOp24
 70
     1
102
RTVSPropertyOp25
 70
     1
102
RTVSPropertyOp26
 70
     1
102
RTVSPropertyOp27
 70
     1
102
RTVSPropertyOp28
 70
     1
102
RTVSPropertyOp29
 70
     1
102
RTVSPropertyOp30
 70
     1
102
RTVSPropertyOp31
 70
     1
102
RTVSPropertyOp32
 70
     1
102
RTVSPropertyOp33
 70
     1
102
RTVSPropertyOp34
 70
     1
102
RTVSPropertyOp35
 70
     1
102
RTVSPropertyOp36
 70
     1
102
RTVSPropertyOp37
 70
     1
102
RTVSPropertyOp38
 70
     1
102
RTVSPropertyOp39
 70
     1
102
RTVSPropertyOp40
 70
     1
102
RTVSPropertyOp41
 70
     1
102
RTVSPropertyOp42
 70
     1
102
RTVSPropertyOp43
 70
     1
102
RTVSPropertyOp44
 70
     1
102
RTVSPropertyOp45
 70
     1
102
RTVSPropertyOp46
 70
     1
102
RTVSPropertyOp47
 70
     1
102
RTVSPropertyOp48
 70
     1
102
RTVSPropertyOp49
 70
     1
102
RTVSPropertyOp50
 70
     1
102
RTVSPropertyOp51
 70
     0
102
RTVSPropertyOp52
 70
     0
102
RTVSPropertyOp53
 70
     1
102
RTVSPropertyOp54
 70
     1
102
RTVSPropertyOp55
 70
     1
102
RTVSPropertyOp56
 70
     1
102
RTVSPropertyOp57
 70
     1
102
RTVSPost2010Prop28
280
     0
102
RTVSPost2010PropOp28
 70
     1
102
RTVSPost2010Prop29
280
     1
102
RTVSPost2010PropOp29
 70
     1
102
RTVSPost2010Prop30
280
     1
102
RTVSPost2010PropOp30
 70
     1
102
RTVSPost2010Prop31
280
     0
102
RTVSPost2010PropOp31
 70
     1
102
RTVSPost2010Prop32
280
     0
102
RTVSPost2010PropOp32
 70
     1
102
RTVSPost2010Prop33
280
     0
102
RTVSPost2010PropOp33
 70
     1
102
RTVSPost2010Prop34
280
     0
102
RTVSPost2010PropOp34
 70
     1
102
RTVSPost2010Prop35
280
     0
102
RTVSPost2010PropOp35
 70
     1
102
RTVSPost2010Prop36
280
     0
102
RTVSPost2010PropOp36
 70
     1
102
RTVSPost2010Prop37
 90
       50
102
RTVSPost2010PropOp37
 70
     1
102
RTVSPost2010Prop38
140
0.0
102
RTVSPost2010PropOp38
 70
     1
102
RTVSPost2010Prop39
140
1.0
102
RTVSPost2010PropOp39
 70
     1
102
RTVSPost2010Prop40
 90
        0
102
RTVSPost2010PropOp40
 70
     1
102
RTVSPost2010Prop41ColorIndex
 90
       18
102
RTVSPost2010Prop41ColorRGB
 90
        0
102
RTVSPost2010PropOp41
 70
     1
102
RTVSPost2010Prop42
 90
       50
102
RTVSPost2010PropOp42
 70
     1
102
RTVSPost2010Prop43
 90
        3
102
RTVSPost2010PropOp43
 70
     1
102
RTVSPost2010Prop44ColorIndex
 90
        5
102
RTVSPost2010Prop44ColorRGB
 90
      255
102
RTVSPost2010PropOp44
 70
     1
102
RTVSPost2010Prop45
280
     0
102
RTVSPost2010PropOp45
 70
     1
102
RTVSPost2010Prop46
 90
       50
102
RTVSPost2010PropOp46
 70
     1
102
RTVSPost2010Prop47
 90
       50
102
RTVSPost2010PropOp47
 70
     1
102
RTVSPost2010Prop48
 90
       50
102
RTVSPost2010PropOp48
 70
     1
102
RTVSPost2010Prop49
280
     0
102
RTVSPost2010PropOp49
 70
     1
102
RTVSPost2010Prop50
 90
       50
102
RTVSPost2010PropOp50
 70
     1
102
RTVSPost2010Prop51ColorIndex
 90
      256
102
RTVSPost2010Prop51ColorRGB
 90
-16777216
102
RTVSPost2010PropOp51
 70
     0
102
RTVSPost2010Prop52
140
1.0
102
RTVSPost2010PropOp52
 70
     0
102
RTVSPost2010Prop53
 90
        2
102
RTVSPost2010PropOp53
 70
     1
102
RTVSPost2010Prop54
  1
strokes_ogs.tif
102
RTVSPost2010PropOp54
 70
     1
102
RTVSPost2010Prop55
280
     0
102
RTVSPost2010PropOp55
 70
     1
102
RTVSPost2010Prop56
140
1.0
102
RTVSPost2010PropOp56
 70
     1
102
RTVSPost2010Prop57
140
1.0
102
RTVSPost2010PropOp57
 70
     1
  0
XRECORD
  5
4A2
102
{ACAD_REACTORS
330
4A1
102
}
330
4A1
100
AcDbXrecord
280
     1
102
RTVSPropertyOp0
 70
     1
102
RTVSPropertyOp1
 70
     1
102
RTVSPropertyOp2
 70
     1
102
RTVSPropertyOp3
 70
     1
102
RTVSPropertyOp4
 70
     1
102
RTVSPropertyOp5
 70
     1
102
RTVSPropertyOp6
 70
     1
102
RTVSPropertyOp7
 70
     1
102
RTVSPropertyOp8
 70
     1
102
RTVSPropertyOp9
 70
     1
102
RTVSPropertyOp10
 70
     1
102
RTVSPropertyOp11
 70
     1
102
RTVSPropertyOp12
 70
     1
102
RTVSPropertyOp13
 70
     1
102
RTVSPropertyOp14
 70
     1
102
RTVSPropertyOp15
 70
     1
102
RTVSPropertyOp16
 70
     1
102
RTVSPropertyOp17
 70
     1
102
RTVSPropertyOp18
 70
     1
102
RTVSPropertyOp19
 70
     1
102
RTVSPropertyOp20
 70
     1
102
RTVSPropertyOp21
 70
     1
102
RTVSPropertyOp22
 70
     1
102
RTVSPropertyOp23
 70
     1
102
RTVSPropertyOp24
 70
     1
102
RTVSPropertyOp25
 70
     1
102
RTVSPropertyOp26
 70
     1
102
RTVSPropertyOp27
 70
     1
102
RTVSPropertyOp28
 70
     1
102
RTVSPropertyOp29
 70
     1
102
RTVSPropertyOp30
 70
     1
102
RTVSPropertyOp31
 70
     1
102
RTVSPropertyOp32
 70
     1
102
RTVSPropertyOp33
 70
     1
102
RTVSPropertyOp34
 70
     1
102
RTVSPropertyOp35
 70
     1
102
RTVSPropertyOp36
 70
     1
102
RTVSPropertyOp37
 70
     1
102
RTVSPropertyOp38
 70
     1
102
RTVSPropertyOp39
 70
     1
102
RTVSPropertyOp40
 70
     1
102
RTVSPropertyOp41
 70
     1
102
RTVSPropertyOp42
 70
     1
102
RTVSPropertyOp43
 70
     1
102
RTVSPropertyOp44
 70
     1
102
RTVSPropertyOp45
 70
     1
102
RTVSPropertyOp46
 70
     1
102
RTVSPropertyOp47
 70
     1
102
RTVSPropertyOp48
 70
     1
102
RTVSPropertyOp49
 70
     1
102
RTVSPropertyOp50
 70
     1
102
RTVSPropertyOp51
 70
     0
102
RTVSPropertyOp52
 70
     0
102
RTVSPropertyOp53
 70
     1
102
RTVSPropertyOp54
 70
     1
102
RTVSPropertyOp55
 70
     1
102
RTVSPropertyOp56
 70
     1
102
RTVSPropertyOp57
 70
     1
102
RTVSPost2010Prop28
280
     0
102
RTVSPost2010PropOp28
 70
     1
102
RTVSPost2010Prop29
280
     1
102
RTVSPost2010PropOp29
 70
     1
102
RTVSPost2010Prop30
280
     1
102
RTVSPost2010PropOp30
 70
     1
102
RTVSPost2010Prop31
280
     0
102
RTVSPost2010PropOp31
 70
     1
102
RTVSPost2010Prop32
280
     0
102
RTVSPost2010PropOp32
 70
     1
102
RTVSPost2010Prop33
280
     0
102
RTVSPost2010PropOp33
 70
     1
102
RTVSPost2010Prop34
280
     0
102
RTVSPost2010PropOp34
 70
     1
102
RTVSPost2010Prop35
280
     0
102
RTVSPost2010PropOp35
 70
     1
102
RTVSPost2010Prop36
280
     0
102
RTVSPost2010PropOp36
 70
     1
102
RTVSPost2010Prop37
 90
       50
102
RTVSPost2010PropOp37
 70
     1
102
RTVSPost2010Prop38
140
0.0
102
RTVSPost2010PropOp38
 70
     1
102
RTVSPost2010Prop39
140
1.0
102
RTVSPost2010PropOp39
 70
     1
102
RTVSPost2010Prop40
 90
        0
102
RTVSPost2010PropOp40
 70
     1
102
RTVSPost2010Prop41ColorIndex
 90
       18
102
RTVSPost2010Prop41ColorRGB
 90
        0
102
RTVSPost2010PropOp41
 70
     1
102
RTVSPost2010Prop42
 90
       50
102
RTVSPost2010PropOp42
 70
     1
102
RTVSPost2010Prop43
 90
        3
102
RTVSPost2010PropOp43
 70
     1
102
RTVSPost2010Prop44ColorIndex
 90
        5
102
RTVSPost2010Prop44ColorRGB
 90
      255
102
RTVSPost2010PropOp44
 70
     1
102
RTVSPost2010Prop45
280
     0
102
RTVSPost2010PropOp45
 70
     1
102
RTVSPost2010Prop46
 90
       50
102
RTVSPost2010PropOp46
 70
     1
102
RTVSPost2010Prop47
 90
       50
102
RTVSPost2010PropOp47
 70
     1
102
RTVSPost2010Prop48
 90
       50
102
RTVSPost2010PropOp48
 70
     1
102
RTVSPost2010Prop49
280
     0
102
RTVSPost2010PropOp49
 70
     1
102
RTVSPost2010Prop50
 90
       50
102
RTVSPost2010PropOp50
 70
     1
102
RTVSPost2010Prop51ColorIndex
 90
      256
102
RTVSPost2010Prop51ColorRGB
 90
-16777216
102
RTVSPost2010PropOp51
 70
     0
102
RTVSPost2010Prop52
140
1.0
102
RTVSPost2010PropOp52
 70
     0
102
RTVSPost2010Prop53
 90
        2
102
RTVSPost2010PropOp53
 70
     1
102
RTVSPost2010Prop54
  1
strokes_ogs.tif
102
RTVSPost2010PropOp54
 70
     1
102
RTVSPost2010Prop55
280
     0
102
RTVSPost2010PropOp55
 70
     1
102
RTVSPost2010Prop56
140
1.0
102
RTVSPost2010PropOp56
 70
     1
102
RTVSPost2010Prop57
140
1.0
102
RTVSPost2010PropOp57
 70
     1
  0
XRECORD
  5
494
102
{ACAD_REACTORS
330
493
102
}
330
493
100
AcDbXrecord
280
     1
102
RTVSPropertyOp0
 70
     1
102
RTVSPropertyOp1
 70
     1
102
RTVSPropertyOp2
 70
     1
102
RTVSPropertyOp3
 70
     1
102
RTVSPropertyOp4
 70
     1
102
RTVSPropertyOp5
 70
     1
102
RTVSPropertyOp6
 70
     1
102
RTVSPropertyOp7
 70
     1
102
RTVSPropertyOp8
 70
     1
102
RTVSPropertyOp9
 70
     1
102
RTVSPropertyOp10
 70
     1
102
RTVSPropertyOp11
 70
     1
102
RTVSPropertyOp12
 70
     1
102
RTVSPropertyOp13
 70
     1
102
RTVSPropertyOp14
 70
     1
102
RTVSPropertyOp15
 70
     1
102
RTVSPropertyOp16
 70
     1
102
RTVSPropertyOp17
 70
     1
102
RTVSPropertyOp18
 70
     1
102
RTVSPropertyOp19
 70
     1
102
RTVSPropertyOp20
 70
     1
102
RTVSPropertyOp21
 70
     1
102
RTVSPropertyOp22
 70
     1
102
RTVSPropertyOp23
 70
     1
102
RTVSPropertyOp24
 70
     1
102
RTVSPropertyOp25
 70
     1
102
RTVSPropertyOp26
 70
     1
102
RTVSPropertyOp27
 70
     1
102
RTVSPropertyOp28
 70
     1
102
RTVSPropertyOp29
 70
     1
102
RTVSPropertyOp30
 70
     1
102
RTVSPropertyOp31
 70
     1
102
RTVSPropertyOp32
 70
     1
102
RTVSPropertyOp33
 70
     1
102
RTVSPropertyOp34
 70
     1
102
RTVSPropertyOp35
 70
     1
102
RTVSPropertyOp36
 70
     1
102
RTVSPropertyOp37
 70
     1
102
RTVSPropertyOp38
 70
     1
102
RTVSPropertyOp39
 70
     1
102
RTVSPropertyOp40
 70
     1
102
RTVSPropertyOp41
 70
     1
102
RTVSPropertyOp42
 70
     1
102
RTVSPropertyOp43
 70
     1
102
RTVSPropertyOp44
 70
     1
102
RTVSPropertyOp45
 70
     1
102
RTVSPropertyOp46
 70
     1
102
RTVSPropertyOp47
 70
     1
102
RTVSPropertyOp48
 70
     1
102
RTVSPropertyOp49
 70
     1
102
RTVSPropertyOp50
 70
     1
102
RTVSPropertyOp51
 70
     0
102
RTVSPropertyOp52
 70
     0
102
RTVSPropertyOp53
 70
     1
102
RTVSPropertyOp54
 70
     1
102
RTVSPropertyOp55
 70
     1
102
RTVSPropertyOp56
 70
     1
102
RTVSPropertyOp57
 70
     1
102
RTVSPost2010Prop28
280
     0
102
RTVSPost2010PropOp28
 70
     1
102
RTVSPost2010Prop29
280
     1
102
RTVSPost2010PropOp29
 70
     1
102
RTVSPost2010Prop30
280
     1
102
RTVSPost2010PropOp30
 70
     1
102
RTVSPost2010Prop31
280
     0
102
RTVSPost2010PropOp31
 70
     1
102
RTVSPost2010Prop32
280
     0
102
RTVSPost2010PropOp32
 70
     1
102
RTVSPost2010Prop33
280
     0
102
RTVSPost2010PropOp33
 70
     1
102
RTVSPost2010Prop34
280
     0
102
RTVSPost2010PropOp34
 70
     1
102
RTVSPost2010Prop35
280
     0
102
RTVSPost2010PropOp35
 70
     1
102
RTVSPost2010Prop36
280
     0
102
RTVSPost2010PropOp36
 70
     1
102
RTVSPost2010Prop37
 90
       50
102
RTVSPost2010PropOp37
 70
     1
102
RTVSPost2010Prop38
140
0.0
102
RTVSPost2010PropOp38
 70
     1
102
RTVSPost2010Prop39
140
1.0
102
RTVSPost2010PropOp39
 70
     1
102
RTVSPost2010Prop40
 90
        0
102
RTVSPost2010PropOp40
 70
     1
102
RTVSPost2010Prop41ColorIndex
 90
       18
102
RTVSPost2010Prop41ColorRGB
 90
        0
102
RTVSPost2010PropOp41
 70
     1
102
RTVSPost2010Prop42
 90
       50
102
RTVSPost2010PropOp42
 70
     1
102
RTVSPost2010Prop43
 90
        3
102
RTVSPost2010PropOp43
 70
     1
102
RTVSPost2010Prop44ColorIndex
 90
        5
102
RTVSPost2010Prop44ColorRGB
 90
      255
102
RTVSPost2010PropOp44
 70
     1
102
RTVSPost2010Prop45
280
     0
102
RTVSPost2010PropOp45
 70
     1
102
RTVSPost2010Prop46
 90
       50
102
RTVSPost2010PropOp46
 70
     1
102
RTVSPost2010Prop47
 90
       50
102
RTVSPost2010PropOp47
 70
     1
102
RTVSPost2010Prop48
 90
       50
102
RTVSPost2010PropOp48
 70
     1
102
RTVSPost2010Prop49
280
     0
102
RTVSPost2010PropOp49
 70
     1
102
RTVSPost2010Prop50
 90
       50
102
RTVSPost2010PropOp50
 70
     1
102
RTVSPost2010Prop51ColorIndex
 90
      256
102
RTVSPost2010Prop51ColorRGB
 90
-16777216
102
RTVSPost2010PropOp51
 70
     0
102
RTVSPost2010Prop52
140
1.0
102
RTVSPost2010PropOp52
 70
     0
102
RTVSPost2010Prop53
 90
        2
102
RTVSPost2010PropOp53
 70
     1
102
RTVSPost2010Prop54
  1
strokes_ogs.tif
102
RTVSPost2010PropOp54
 70
     1
102
RTVSPost2010Prop55
280
     0
102
RTVSPost2010PropOp55
 70
     1
102
RTVSPost2010Prop56
140
1.0
102
RTVSPost2010PropOp56
 70
     1
102
RTVSPost2010Prop57
140
1.0
102
RTVSPost2010PropOp57
 70
     1
  0
XRECORD
  5
4B4
102
{ACAD_REACTORS
330
4B3
102
}
330
4B3
100
AcDbXrecord
280
     1
102
RTVSPropertyOp0
 70
     1
102
RTVSPropertyOp1
 70
     1
102
RTVSPropertyOp2
 70
     1
102
RTVSPropertyOp3
 70
     1
102
RTVSPropertyOp4
 70
     1
102
RTVSPropertyOp5
 70
     1
102
RTVSPropertyOp6
 70
     1
102
RTVSPropertyOp7
 70
     1
102
RTVSPropertyOp8
 70
     1
102
RTVSPropertyOp9
 70
     1
102
RTVSPropertyOp10
 70
     1
102
RTVSPropertyOp11
 70
     1
102
RTVSPropertyOp12
 70
     1
102
RTVSPropertyOp13
 70
     1
102
RTVSPropertyOp14
 70
     1
102
RTVSPropertyOp15
 70
     1
102
RTVSPropertyOp16
 70
     1
102
RTVSPropertyOp17
 70
     1
102
RTVSPropertyOp18
 70
     1
102
RTVSPropertyOp19
 70
     1
102
RTVSPropertyOp20
 70
     1
102
RTVSPropertyOp21
 70
     1
102
RTVSPropertyOp22
 70
     1
102
RTVSPropertyOp23
 70
     1
102
RTVSPropertyOp24
 70
     1
102
RTVSPropertyOp25
 70
     1
102
RTVSPropertyOp26
 70
     1
102
RTVSPropertyOp27
 70
     1
102
RTVSPropertyOp28
 70
     1
102
RTVSPropertyOp29
 70
     1
102
RTVSPropertyOp30
 70
     1
102
RTVSPropertyOp31
 70
     1
102
RTVSPropertyOp32
 70
     1
102
RTVSPropertyOp33
 70
     1
102
RTVSPropertyOp34
 70
     1
102
RTVSPropertyOp35
 70
     1
102
RTVSPropertyOp36
 70
     1
102
RTVSPropertyOp37
 70
     1
102
RTVSPropertyOp38
 70
     1
102
RTVSPropertyOp39
 70
     1
102
RTVSPropertyOp40
 70
     1
102
RTVSPropertyOp41
 70
     1
102
RTVSPropertyOp42
 70
     1
102
RTVSPropertyOp43
 70
     1
102
RTVSPropertyOp44
 70
     1
102
RTVSPropertyOp45
 70
     1
102
RTVSPropertyOp46
 70
     1
102
RTVSPropertyOp47
 70
     1
102
RTVSPropertyOp48
 70
     1
102
RTVSPropertyOp49
 70
     1
102
RTVSPropertyOp50
 70
     1
102
RTVSPropertyOp51
 70
     0
102
RTVSPropertyOp52
 70
     0
102
RTVSPropertyOp53
 70
     1
102
RTVSPropertyOp54
 70
     1
102
RTVSPropertyOp55
 70
     1
102
RTVSPropertyOp56
 70
     1
102
RTVSPropertyOp57
 70
     1
102
RTVSPost2010Prop28
280
     0
102
RTVSPost2010PropOp28
 70
     1
102
RTVSPost2010Prop29
280
     1
102
RTVSPost2010PropOp29
 70
     1
102
RTVSPost2010Prop30
280
     1
102
RTVSPost2010PropOp30
 70
     1
102
RTVSPost2010Prop31
280
     0
102
RTVSPost2010PropOp31
 70
     1
102
RTVSPost2010Prop32
280
     0
102
RTVSPost2010PropOp32
 70
     1
102
RTVSPost2010Prop33
280
     0
102
RTVSPost2010PropOp33
 70
     1
102
RTVSPost2010Prop34
280
     0
102
RTVSPost2010PropOp34
 70
     1
102
RTVSPost2010Prop35
280
     0
102
RTVSPost2010PropOp35
 70
     1
102
RTVSPost2010Prop36
280
     0
102
RTVSPost2010PropOp36
 70
     1
102
RTVSPost2010Prop37
 90
       50
102
RTVSPost2010PropOp37
 70
     1
102
RTVSPost2010Prop38
140
0.0
102
RTVSPost2010PropOp38
 70
     1
102
RTVSPost2010Prop39
140
1.0
102
RTVSPost2010PropOp39
 70
     1
102
RTVSPost2010Prop40
 90
        0
102
RTVSPost2010PropOp40
 70
     1
102
RTVSPost2010Prop41ColorIndex
 90
       18
102
RTVSPost2010Prop41ColorRGB
 90
        0
102
RTVSPost2010PropOp41
 70
     1
102
RTVSPost2010Prop42
 90
       50
102
RTVSPost2010PropOp42
 70
     1
102
RTVSPost2010Prop43
 90
        3
102
RTVSPost2010PropOp43
 70
     1
102
RTVSPost2010Prop44ColorIndex
 90
        5
102
RTVSPost2010Prop44ColorRGB
 90
      255
102
RTVSPost2010PropOp44
 70
     1
102
RTVSPost2010Prop45
280
     0
102
RTVSPost2010PropOp45
 70
     1
102
RTVSPost2010Prop46
 90
       50
102
RTVSPost2010PropOp46
 70
     1
102
RTVSPost2010Prop47
 90
       50
102
RTVSPost2010PropOp47
 70
     1
102
RTVSPost2010Prop48
 90
       50
102
RTVSPost2010PropOp48
 70
     1
102
RTVSPost2010Prop49
280
     0
102
RTVSPost2010PropOp49
 70
     1
102
RTVSPost2010Prop50
 90
       50
102
RTVSPost2010PropOp50
 70
     1
102
RTVSPost2010Prop51ColorIndex
 90
      256
102
RTVSPost2010Prop51ColorRGB
 90
-16777216
102
RTVSPost2010PropOp51
 70
     0
102
RTVSPost2010Prop52
140
1.0
102
RTVSPost2010PropOp52
 70
     0
102
RTVSPost2010Prop53
 90
        2
102
RTVSPost2010PropOp53
 70
     1
102
RTVSPost2010Prop54
  1
strokes_ogs.tif
102
RTVSPost2010PropOp54
 70
     1
102
RTVSPost2010Prop55
280
     0
102
RTVSPost2010PropOp55
 70
     1
102
RTVSPost2010Prop56
140
1.0
102
RTVSPost2010PropOp56
 70
     1
102
RTVSPost2010Prop57
140
1.0
102
RTVSPost2010PropOp57
 70
     1
  0
ENDSEC
  0
EOF
