  0
SECTION
  2
HEADER
  9
$ACADVER
  1
AC1027
  9
$ACADMAINTVER
 70
     8
  9
$DWGCODEPAGE
  3
ANSI_932
  9
$REQUIREDVERSIONS
160
                 0
  9
$INSBASE
 10
0.0
 20
0.0
 30
0.0
  9
$EXTMIN
 10
0.0211080024674857
 20
0.0172721585058753
 30
0.0
  9
$EXTMAX
 10
362.0211065544675
 20
283.0172721585058
 30
0.0
  9
$LIMMIN
 10
0.0
 20
0.0
  9
$LIMMAX
 10
297.0
 20
210.0
  9
$ORTHOMODE
 70
     0
  9
$REGENMODE
 70
     1
  9
$FILLMODE
 70
     1
  9
$QTEXTMODE
 70
     0
  9
$MIRRTEXT
 70
     1
  9
$LTSCALE
 40
0.25
  9
$ATTMODE
 70
     1
  9
$TEXTSIZE
 40
5.0
  9
$TRACEWID
 40
0.05
  9
$TEXTSTYLE
  7
Standard
  9
$CLAYER
  8
0
  9
$CELTYPE
  6
ByLayer
  9
$CECOLOR
 62
   256
  9
$CELTSCALE
 40
1.0
  9
$DISPSILH
 70
     0
  9
$DIMSCALE
 40
1.0
  9
$DIMASZ
 40
2.3
  9
$DIMEXO
 40
1.0
  9
$DIMDLI
 40
30.0
  9
$DIMRND
 40
0.0
  9
$DIMDLE
 40
0.0
  9
$DIMEXE
 40
1.0
  9
$DIMTP
 40
0.0
  9
$DIMTM
 40
0.0
  9
$DIMTXT
 40
3.3
  9
$DIMCEN
 40
0.09
  9
$DIMTSZ
 40
0.0
  9
$DIMTOL
 70
     0
  9
$DIMLIM
 70
     0
  9
$DIMTIH
 70
     0
  9
$DIMTOH
 70
     0
  9
$DIMSE1
 70
     0
  9
$DIMSE2
 70
     0
  9
$DIMTAD
 70
     3
  9
$DIMZIN
 70
     8
  9
$DIMBLK
  1

  9
$DIMASO
 70
     1
  9
$DIMSHO
 70
     1
  9
$DIMPOST
  1

  9
$DIMAPOST
  1

  9
$DIMALT
 70
     0
  9
$DIMALTD
 70
     2
  9
$DIMALTF
 40
25.4
  9
$DIMLFAC
 40
1.0
  9
$DIMTOFL
 70
     1
  9
$DIMTVP
 40
0.7
  9
$DIMTIX
 70
     0
  9
$DIMSOXD
 70
     0
  9
$DIMSAH
 70
     0
  9
$DIMBLK1
  1

  9
$DIMBLK2
  1

  9
$DIMSTYLE
  2
Standard
  9
$DIMCLRD
 70
     0
  9
$DIMCLRE
 70
     0
  9
$DIMCLRT
 70
     0
  9
$DIMTFAC
 40
0.5
  9
$DIMGAP
 40
0.09
  9
$DIMJUST
 70
     0
  9
$DIMSD1
 70
     0
  9
$DIMSD2
 70
     0
  9
$DIMTOLJ
 70
     1
  9
$DIMTZIN
 70
     8
  9
$DIMALTZ
 70
     0
  9
$DIMALTTZ
 70
     0
  9
$DIMUPT
 70
     1
  9
$DIMDEC
 70
     2
  9
$DIMTDEC
 70
     4
  9
$DIMALTU
 70
     2
  9
$DIMALTTD
 70
     2
  9
$DIMTXSTY
  7
Standard
  9
$DIMAUNIT
 70
     0
  9
$DIMADEC
 70
     0
  9
$DIMALTRND
 40
0.0
  9
$DIMAZIN
 70
     0
  9
$DIMDSEP
 70
    46
  9
$DIMATFIT
 70
     2
  9
$DIMFRAC
 70
     0
  9
$DIMLDRBLK
  1

  9
$DIMLUNIT
 70
     2
  9
$DIMLWD
 70
    -2
  9
$DIMLWE
 70
    -2
  9
$DIMTMOVE
 70
     2
  9
$DIMFXL
 40
1.0
  9
$DIMFXLON
 70
     0
  9
$DIMJOGANG
 40
0.7853981633974483
  9
$DIMTFILL
 70
     0
  9
$DIMTFILLCLR
 70
     0
  9
$DIMARCSYM
 70
     0
  9
$DIMLTYPE
  6

  9
$DIMLTEX1
  6

  9
$DIMLTEX2
  6

  9
$DIMTXTDIRECTION
 70
     0
  9
$LUNITS
 70
     2
  9
$LUPREC
 70
     4
  9
$SKETCHINC
 40
0.1
  9
$FILLETRAD
 40
0.5
  9
$AUNITS
 70
     0
  9
$AUPREC
 70
     0
  9
$MENU
  1
.
  9
$ELEVATION
 40
0.0
  9
$PELEVATION
 40
0.0
  9
$THICKNESS
 40
0.0
  9
$LIMCHECK
 70
     0
  9
$CHAMFERA
 40
0.0
  9
$CHAMFERB
 40
0.0
  9
$CHAMFERC
 40
0.0
  9
$CHAMFERD
 40
0.0
  9
$SKPOLY
 70
     0
  9
$TDCREATE
 40
2458753.833668982
  9
$TDUCREATE
 40
2458753.458668982
  9
$TDUPDATE
 40
2458753.458675428
  9
$TDUUPDATE
 40
2458753.083675428
  9
$TDINDWG
 40
0.0000000116
  9
$TDUSRTIMER
 40
0.0000000116
  9
$USRTIMER
 70
     1
  9
$ANGBASE
 50
0.0
  9
$ANGDIR
 70
     0
  9
$PDMODE
 70
     0
  9
$PDSIZE
 40
0.0
  9
$PLINEWID
 40
0.0
  9
$SPLFRAME
 70
     0
  9
$SPLINETYPE
 70
     6
  9
$SPLINESEGS
 70
     8
  9
$HANDSEED
  5
398
  9
$SURFTAB1
 70
     6
  9
$SURFTAB2
 70
     6
  9
$SURFTYPE
 70
     6
  9
$SURFU
 70
     6
  9
$SURFV
 70
     6
  9
$UCSBASE
  2

  9
$UCSNAME
  2

  9
$UCSORG
 10
0.0
 20
0.0
 30
0.0
  9
$UCSXDIR
 10
1.0
 20
0.0
 30
0.0
  9
$UCSYDIR
 10
0.0
 20
1.0
 30
0.0
  9
$UCSORTHOREF
  2

  9
$UCSORTHOVIEW
 70
     0
  9
$UCSORGTOP
 10
0.0
 20
0.0
 30
0.0
  9
$UCSORGBOTTOM
 10
0.0
 20
0.0
 30
0.0
  9
$UCSORGLEFT
 10
0.0
 20
0.0
 30
0.0
  9
$UCSORGRIGHT
 10
0.0
 20
0.0
 30
0.0
  9
$UCSORGFRONT
 10
0.0
 20
0.0
 30
0.0
  9
$UCSORGBACK
 10
0.0
 20
0.0
 30
0.0
  9
$PUCSBASE
  2

  9
$PUCSNAME
  2

  9
$PUCSORG
 10
0.0
 20
0.0
 30
0.0
  9
$PUCSXDIR
 10
1.0
 20
0.0
 30
0.0
  9
$PUCSYDIR
 10
0.0
 20
1.0
 30
0.0
  9
$PUCSORTHOREF
  2

  9
$PUCSORTHOVIEW
 70
     0
  9
$PUCSORGTOP
 10
0.0
 20
0.0
 30
0.0
  9
$PUCSORGBOTTOM
 10
0.0
 20
0.0
 30
0.0
  9
$PUCSORGLEFT
 10
0.0
 20
0.0
 30
0.0
  9
$PUCSORGRIGHT
 10
0.0
 20
0.0
 30
0.0
  9
$PUCSORGFRONT
 10
0.0
 20
0.0
 30
0.0
  9
$PUCSORGBACK
 10
0.0
 20
0.0
 30
0.0
  9
$USERI1
 70
     0
  9
$USERI2
 70
     0
  9
$USERI3
 70
     0
  9
$USERI4
 70
     0
  9
$USERI5
 70
     0
  9
$USERR1
 40
0.0
  9
$USERR2
 40
0.0
  9
$USERR3
 40
0.0
  9
$USERR4
 40
0.0
  9
$USERR5
 40
0.0
  9
$WORLDVIEW
 70
     1
  9
$SHADEDGE
 70
     3
  9
$SHADEDIF
 70
    70
  9
$TILEMODE
 70
     1
  9
$MAXACTVP
 70
    64
  9
$PINSBASE
 10
0.0
 20
0.0
 30
0.0
  9
$PLIMCHECK
 70
     0
  9
$PEXTMIN
 10
0.0
 20
0.0
 30
0.0
  9
$PEXTMAX
 10
297.0
 20
210.0
 30
0.0
  9
$PLIMMIN
 10
0.0
 20
0.0
  9
$PLIMMAX
 10
297.0
 20
210.0
  9
$UNITMODE
 70
     0
  9
$VISRETAIN
 70
     1
  9
$PLINEGEN
 70
     0
  9
$PSLTSCALE
 70
     1
  9
$TREEDEPTH
 70
  3020
  9
$CMLSTYLE
  2
Standard
  9
$CMLJUST
 70
     0
  9
$CMLSCALE
 40
1.0
  9
$PROXYGRAPHICS
 70
     1
  9
$MEASUREMENT
 70
     1
  9
$CELWEIGHT
370
    -1
  9
$ENDCAPS
280
     0
  9
$JOINSTYLE
280
     0
  9
$LWDISPLAY
290
     0
  9
$INSUNITS
 70
     4
  9
$HYPERLINKBASE
  1

  9
$STYLESHEET
  1

  9
$XEDIT
290
     1
  9
$CEPSNTYPE
380
     0
  9
$PSTYLEMODE
290
     1
  9
$FINGERPRINTGUID
  2
{65BE42A1-56C3-4A0E-9A9C-48648AFE0F39}
  9
$VERSIONGUID
  2
{FAEB1C32-E019-11D5-929B-00C0DF256EC4}
  9
$EXTNAMES
290
     1
  9
$PSVPSCALE
 40
0.0
  9
$OLESTARTUP
290
     0
  9
$SORTENTS
280
   127
  9
$INDEXCTL
280
     0
  9
$HIDETEXT
280
     1
  9
$XCLIPFRAME
280
     2
  9
$HALOGAP
280
     0
  9
$OBSCOLOR
 70
   257
  9
$OBSLTYPE
280
     0
  9
$INTERSECTIONDISPLAY
280
     0
  9
$INTERSECTIONCOLOR
 70
   257
  9
$DIMASSOC
280
     1
  9
$PROJECTNAME
  1

  9
$CAMERADISPLAY
290
     0
  9
$LENSLENGTH
 40
50.0
  9
$CAMERAHEIGHT
 40
0.0
  9
$STEPSPERSEC
 40
2.0
  9
$STEPSIZE
 40
6.0
  9
$3DDWFPREC
 40
2.0
  9
$PSOLWIDTH
 40
0.25
  9
$PSOLHEIGHT
 40
4.0
  9
$LOFTANG1
 40
1.570796326794897
  9
$LOFTANG2
 40
1.570796326794897
  9
$LOFTMAG1
 40
0.0
  9
$LOFTMAG2
 40
0.0
  9
$LOFTPARAM
 70
     7
  9
$LOFTNORMALS
280
     1
  9
$LATITUDE
 40
37.795
  9
$LONGITUDE
 40
-122.394
  9
$NORTHDIRECTION
 40
0.0
  9
$TIMEZONE
 70
 -8000
  9
$LIGHTGLYPHDISPLAY
280
     1
  9
$TILEMODELIGHTSYNCH
280
     1
  9
$CMATERIAL
347
44
  9
$SOLIDHIST
280
     1
  9
$SHOWHIST
280
     1
  9
$DWFFRAME
280
     2
  9
$DGNFRAME
280
     2
  9
$REALWORLDSCALE
290
     1
  9
$INTERFERECOLOR
 62
   256
  9
$CSHADOW
280
     0
  9
$SHADOWPLANELOCATION
 40
0.0
  0
ENDSEC
  0
SECTION
  2
CLASSES
  0
CLASS
  1
ACDBDICTIONARYWDFLT
  2
AcDbDictionaryWithDefault
  3
ObjectDBX Classes
 90
        0
 91
        4
280
     0
281
     0
  0
CLASS
  1
VISUALSTYLE
  2
AcDbVisualStyle
  3
ObjectDBX Classes
 90
     4095
 91
        4
280
     0
281
     0
  0
CLASS
  1
MATERIAL
  2
AcDbMaterial
  3
ObjectDBX Classes
 90
     1153
 91
        4
280
     0
281
     0
  0
CLASS
  1
SCALE
  2
AcDbScale
  3
ObjectDBX Classes
 90
     1153
 91
        4
280
     0
281
     0
  0
CLASS
  1
SUN
  2
AcDbSun
  3
SCENEOE
 90
     1153
 91
        4
280
     0
281
     0
  0
CLASS
  1
DICTIONARYVAR
  2
AcDbDictionaryVar
  3
ObjectDBX Classes
 90
        0
 91
        4
280
     0
281
     0
  0
ENDSEC
  0
SECTION
  2
TABLES
  0
TABLE
  2
VPORT
  5
8
330
0
100
AcDbSymbolTable
 70
     1
  0
VPORT
  5
29
330
8
100
AcDbSymbolTableRecord
100
AcDbViewportTableRecord
  2
*Active
 70
     0
 10
0.0
 20
0.0
 11
1.0
 21
1.0
 12
10.42990654205607
 22
4.5
 13
0.0
 23
0.0
 14
0.5
 24
0.5
 15
0.5
 25
0.5
 16
0.0
 26
0.0
 36
1.0
 17
0.0
 27
0.0
 37
0.0
 40
9.0
 41
1.972972972850329
 42
50.0
 43
0.0
 44
0.0
 50
0.0
 51
0.0
 71
     0
 72
   100
 73
     1
 74
     3
 75
     0
 76
     0
 77
     0
 78
     0
281
     0
 65
     1
110
0.0
120
0.0
130
0.0
111
1.0
121
0.0
131
0.0
112
0.0
122
1.0
132
0.0
 79
     0
146
0.0
 60
     3
 61
     5
292
     1
282
     1
141
0.0
142
0.0
 63
   250
361
69
  0
ENDTAB
  0
TABLE
  2
LTYPE
  5
5
330
0
100
AcDbSymbolTable
 70
     9
  0
LTYPE
  5
14
330
5
100
AcDbSymbolTableRecord
100
AcDbLinetypeTableRecord
  2
ByBlock
 70
     0
  3

 72
    65
 73
     0
 40
0.0
  0
LTYPE
  5
15
330
5
100
AcDbSymbolTableRecord
100
AcDbLinetypeTableRecord
  2
ByLayer
 70
     0
  3

 72
    65
 73
     0
 40
0.0
  0
LTYPE
  5
16
330
5
100
AcDbSymbolTableRecord
100
AcDbLinetypeTableRecord
  2
Continuous
 70
     0
  3
Solid line
 72
    65
 73
     0
 40
0.0
  0
LTYPE
  5
B9
330
5
100
AcDbSymbolTableRecord
100
AcDbLinetypeTableRecord
  2
DOT
 70
     0
  3
DOT
 72
    65
 73
     2
 40
4.0
 49
6.0
 74
     0
 49
-2.0
 74
     0
  0
LTYPE
  5
BA
330
5
100
AcDbSymbolTableRecord
100
AcDbLinetypeTableRecord
  2
HIDDEN
 70
     0
  3
HIDDEN
 72
    65
 73
     2
 40
4.2
 49
8.4
 74
     0
 49
-4.2
 74
     0
  0
LTYPE
  5
BB
330
5
100
AcDbSymbolTableRecord
100
AcDbLinetypeTableRecord
  2
DASHDOT
 70
     0
  3
DASHDOT
 72
    65
 73
     4
 40
14.5
 49
30.0
 74
     0
 49
-9.0
 74
     0
 49
2.5
 74
     0
 49
-9.0
 74
     0
  0
LTYPE
  5
BC
330
5
100
AcDbSymbolTableRecord
100
AcDbLinetypeTableRecord
  2
PHANTOM
 70
     0
  3
PHANTOM
 72
    65
 73
     6
 40
12.0
 49
30.0
 74
     0
 49
-9.0
 74
     0
 49
2.5
 74
     0
 49
-5.0
 74
     0
 49
2.5
 74
     0
 49
-9.0
 74
     0
  0
LTYPE
  5
BD
330
5
100
AcDbSymbolTableRecord
100
AcDbLinetypeTableRecord
  2
ACAD_ISO14W100
 70
     0
  3
ACAD_ISO14W100
 72
    65
 73
     8
 40
1.5
 49
12.0
 74
     0
 49
-3.0
 74
     0
 49
0.5
 74
     0
 49
-3.0
 74
     0
 49
0.5
 74
     0
 49
-3.0
 74
     0
 49
0.5
 74
     0
 49
-3.0
 74
     0
  0
LTYPE
  5
BE
330
5
100
AcDbSymbolTableRecord
100
AcDbLinetypeTableRecord
  2
ACAD_ISO06W100
 70
     0
  3
ACAD_ISO06W100
 72
    65
 73
     8
 40
13.5
 49
24.0
 74
     0
 49
-3.0
 74
     0
 49
0.5
 74
     0
 49
-3.0
 74
     0
 49
0.5
 74
     0
 49
-3.0
 74
     0
 49
0.5
 74
     0
 49
-3.0
 74
     0
  0
LTYPE
  5
BF
330
5
100
AcDbSymbolTableRecord
100
AcDbLinetypeTableRecord
  2
ACAD_ISO11W100
 70
     0
  3
ACAD_ISO11W100
 72
    65
 73
     6
 40
15.5
 49
12.0
 74
     0
 49
-3.0
 74
     0
 49
12.0
 74
     0
 49
-3.0
 74
     0
 49
0.5
 74
     0
 49
-3.0
 74
     0
  0
LTYPE
  5
C0
330
5
100
AcDbSymbolTableRecord
100
AcDbLinetypeTableRecord
  2
ACAD_ISO13W100
 70
     0
  3
ACAD_ISO13W100
 72
    65
 73
     8
 40
13.0
 49
12.0
 74
     0
 49
-3.0
 74
     0
 49
12.0
 74
     0
 49
-3.0
 74
     0
 49
0.5
 74
     0
 49
-3.0
 74
     0
 49
0.5
 74
     0
 49
-3.0
 74
     0
  0
ENDTAB
  0
TABLE
  2
LAYER
  5
2
330
0
100
AcDbSymbolTable
 70
    35
  0
LAYER
  5
10
330
2
100
AcDbSymbolTableRecord
100
AcDbLayerTableRecord
  2
0
 70
     0
 62
     7
  6
Continuous
370
    -3
390
F
347
46
348
0
  0
LAYER
  5
C1
330
2
100
AcDbSymbolTableRecord
100
AcDbLayerTableRecord
  2
1
 70
     0
 62
     6
  6
Continuous
370
    53
390
F
347
46
348
0
  0
LAYER
  5
C2
330
2
100
AcDbSymbolTableRecord
100
AcDbLayerTableRecord
  2
2
 70
     0
 62
     2
  6
HIDDEN
370
    25
390
F
347
46
348
0
  0
LAYER
  5
C3
330
2
100
AcDbSymbolTableRecord
100
AcDbLayerTableRecord
  2
3
 70
     0
 62
     1
  6
DASHDOT
370
    25
390
F
347
46
348
0
  0
LAYER
  5
C4
330
2
100
AcDbSymbolTableRecord
100
AcDbLayerTableRecord
  2
4
 70
     0
 62
     2
  6
PHANTOM
370
    25
390
F
347
46
348
0
  0
LAYER
  5
C5
330
2
100
AcDbSymbolTableRecord
100
AcDbLayerTableRecord
  2
5
 70
     0
 62
     4
  6
Continuous
370
    25
390
F
347
46
348
0
  0
LAYER
  5
C6
330
2
100
AcDbSymbolTableRecord
100
AcDbLayerTableRecord
  2
6
 70
     0
 62
     3
  6
Continuous
370
    25
390
F
347
46
348
0
  0
LAYER
  5
C7
330
2
100
AcDbSymbolTableRecord
100
AcDbLayerTableRecord
  2
7
 70
     0
 62
     3
  6
Continuous
370
    25
390
F
347
46
348
0
  0
LAYER
  5
C8
330
2
100
AcDbSymbolTableRecord
100
AcDbLayerTableRecord
  2
8
 70
     0
 62
     4
  6
Continuous
370
    25
390
F
347
46
348
0
  0
LAYER
  5
C9
330
2
100
AcDbSymbolTableRecord
100
AcDbLayerTableRecord
  2
9
 70
     0
 62
     7
  6
Continuous
370
    35
390
F
347
46
348
0
  0
LAYER
  5
CA
330
2
100
AcDbSymbolTableRecord
100
AcDbLayerTableRecord
  2
10
 70
     0
 62
     6
  6
Continuous
370
    53
390
F
347
46
348
0
  0
LAYER
  5
CB
330
2
100
AcDbSymbolTableRecord
100
AcDbLayerTableRecord
  2
11
 70
     0
 62
     2
  6
HIDDEN
370
    25
390
F
347
46
348
0
  0
LAYER
  5
CC
330
2
100
AcDbSymbolTableRecord
100
AcDbLayerTableRecord
  2
12
 70
     0
 62
     5
  6
Continuous
370
    53
390
F
347
46
348
0
  0
LAYER
  5
CD
330
2
100
AcDbSymbolTableRecord
100
AcDbLayerTableRecord
  2
13
 70
     0
 62
     7
  6
Continuous
370
     9
390
F
347
46
348
0
  0
LAYER
  5
CE
330
2
100
AcDbSymbolTableRecord
100
AcDbLayerTableRecord
  2
14
 70
     0
 62
     7
  6
Continuous
370
     9
390
F
347
46
348
0
  0
LAYER
  5
CF
330
2
100
AcDbSymbolTableRecord
100
AcDbLayerTableRecord
  2
15
 70
     0
 62
     7
  6
Continuous
370
    35
390
F
347
46
348
0
  0
LAYER
  5
D0
330
2
100
AcDbSymbolTableRecord
100
AcDbLayerTableRecord
  2
16
 70
     0
 62
     7
  6
HIDDEN
370
     9
390
F
347
46
348
0
  0
LAYER
  5
D1
330
2
100
AcDbSymbolTableRecord
100
AcDbLayerTableRecord
  2
17
 70
     0
 62
     7
  6
Continuous
370
     9
390
F
347
46
348
0
  0
LAYER
  5
D2
330
2
100
AcDbSymbolTableRecord
100
AcDbLayerTableRecord
  2
18
 70
     0
 62
     4
  6
Continuous
370
     9
390
F
347
46
348
0
  0
LAYER
  5
D3
330
2
100
AcDbSymbolTableRecord
100
AcDbLayerTableRecord
  2
19
 70
     0
 62
     7
  6
Continuous
370
     9
390
F
347
46
348
0
  0
LAYER
  5
D4
330
2
100
AcDbSymbolTableRecord
100
AcDbLayerTableRecord
  2
20
 70
     0
 62
     6
  6
PHANTOM
370
     9
390
F
347
46
348
0
  0
LAYER
  5
D5
330
2
100
AcDbSymbolTableRecord
100
AcDbLayerTableRecord
  2
21
 70
     0
 62
     1
  6
Continuous
370
     9
390
F
347
46
348
0
  0
LAYER
  5
D6
330
2
100
AcDbSymbolTableRecord
100
AcDbLayerTableRecord
  2
22
 70
     0
 62
     7
  6
Continuous
370
     9
390
F
347
46
348
0
  0
LAYER
  5
D7
330
2
100
AcDbSymbolTableRecord
100
AcDbLayerTableRecord
  2
23
 70
     0
 62
     4
  6
Continuous
370
     9
390
F
347
46
348
0
  0
LAYER
  5
D8
330
2
100
AcDbSymbolTableRecord
100
AcDbLayerTableRecord
  2
24
 70
     0
 62
     1
  6
DASHDOT
370
     9
390
F
347
46
348
0
  0
LAYER
  5
D9
330
2
100
AcDbSymbolTableRecord
100
AcDbLayerTableRecord
  2
25
 70
     0
 62
     1
  6
HIDDEN
370
     9
390
F
347
46
348
0
  0
LAYER
  5
DA
330
2
100
AcDbSymbolTableRecord
100
AcDbLayerTableRecord
  2
26
 70
     0
 62
     2
  6
Continuous
370
     9
390
F
347
46
348
0
  0
LAYER
  5
DB
330
2
100
AcDbSymbolTableRecord
100
AcDbLayerTableRecord
  2
27
 70
     0
 62
     5
  6
HIDDEN
370
     9
390
F
347
46
348
0
  0
LAYER
  5
DC
330
2
100
AcDbSymbolTableRecord
100
AcDbLayerTableRecord
  2
28
 70
     0
 62
     3
  6
Continuous
370
     9
390
F
347
46
348
0
  0
LAYER
  5
DD
330
2
100
AcDbSymbolTableRecord
100
AcDbLayerTableRecord
  2
29
 70
     0
 62
     7
  6
HIDDEN
370
    50
390
F
347
46
348
0
  0
LAYER
  5
DE
330
2
100
AcDbSymbolTableRecord
100
AcDbLayerTableRecord
  2
30
 70
     0
 62
     7
  6
DASHDOT
370
    50
390
F
347
46
348
0
  0
LAYER
  5
DF
330
2
100
AcDbSymbolTableRecord
100
AcDbLayerTableRecord
  2
31
 70
     0
 62
     7
  6
Continuous
370
     9
390
F
347
46
348
0
  0
LAYER
  5
E0
330
2
100
AcDbSymbolTableRecord
100
AcDbLayerTableRecord
  2
32
 70
     0
 62
     7
  6
Continuous
370
     9
390
F
347
46
348
0
  0
LAYER
  5
E1
330
2
100
AcDbSymbolTableRecord
100
AcDbLayerTableRecord
  2
33
 70
     0
 62
     1
  6
DASHDOT
370
     9
390
F
347
46
348
0
  0
LAYER
  5
E2
330
2
100
AcDbSymbolTableRecord
100
AcDbLayerTableRecord
  2
34
 70
     0
 62
     7
  6
Continuous
370
     9
390
F
347
46
348
0
  0
ENDTAB
  0
TABLE
  2
STYLE
  5
3
330
0
100
AcDbSymbolTable
 70
     2
  0
STYLE
  5
11
330
3
100
AcDbSymbolTableRecord
100
AcDbTextStyleTableRecord
  2
Standard
 70
     0
 40
0.0
 41
1.0
 50
0.0
 71
     0
 42
5.0
  3
txt
  4
bigfont
  0
STYLE
  5
6C
330
3
100
AcDbSymbolTableRecord
100
AcDbTextStyleTableRecord
  2
T_STANDARD
 70
     4
 40
10.0
 41
1.0
 50
0.0
 71
     0
 42
5.0
  3
txt
  4
bigfont
1001
ACAD
1000

1071
      256
  0
ENDTAB
  0
TABLE
  2
VIEW
  5
6
330
0
100
AcDbSymbolTable
 70
     0
  0
ENDTAB
  0
TABLE
  2
UCS
  5
7
330
0
100
AcDbSymbolTable
 70
     0
  0
ENDTAB
  0
TABLE
  2
APPID
  5
9
330
0
100
AcDbSymbolTable
 70
     2
  0
APPID
  5
12
330
9
100
AcDbSymbolTableRecord
100
AcDbRegAppTableRecord
  2
ACAD
 70
     0
  0
APPID
  5
6B
330
9
100
AcDbSymbolTableRecord
100
AcDbRegAppTableRecord
  2
ODA
 70
     0
  0
ENDTAB
  0
TABLE
  2
DIMSTYLE
  5
A
330
0
100
AcDbSymbolTable
 70
     1
100
AcDbDimStyleTable
  0
DIMSTYLE
105
27
330
A
100
AcDbSymbolTableRecord
100
AcDbDimStyleTableRecord
  2
Standard
 70
     0
178
     0
340
11
  0
ENDTAB
  0
TABLE
  2
BLOCK_RECORD
  5
1
330
0
100
AcDbSymbolTable
 70
    18
  0
BLOCK_RECORD
  5
1F
330
1
100
AcDbSymbolTableRecord
100
AcDbBlockTableRecord
  2
*Model_Space
340
22
 70
     0
280
     1
281
     0
  0
BLOCK_RECORD
  5
1B
330
1
100
AcDbSymbolTableRecord
100
AcDbBlockTableRecord
  2
*Paper_Space
340
1E
 70
     0
280
     1
281
     0
  0
BLOCK_RECORD
  5
23
330
1
100
AcDbSymbolTableRecord
100
AcDbBlockTableRecord
  2
*Paper_Space0
340
26
 70
     0
280
     1
281
     0
  0
BLOCK_RECORD
  5
6D
330
1
100
AcDbSymbolTableRecord
100
AcDbBlockTableRecord
  2
_ORIGIN
340
0
 70
     0
280
     1
281
     0
  0
BLOCK_RECORD
  5
72
330
1
100
AcDbSymbolTableRecord
100
AcDbBlockTableRecord
  2
_DOTBLANK
340
0
 70
     0
280
     1
281
     0
  0
BLOCK_RECORD
  5
77
330
1
100
AcDbSymbolTableRecord
100
AcDbBlockTableRecord
  2
_DOT
340
0
 70
     0
280
     1
281
     0
  0
BLOCK_RECORD
  5
7C
330
1
100
AcDbSymbolTableRecord
100
AcDbBlockTableRecord
  2
_OPEN
340
0
102
{BLKREFS
331
15D
102
}
 70
     0
280
     1
281
     0
  0
BLOCK_RECORD
  5
82
330
1
100
AcDbSymbolTableRecord
100
AcDbBlockTableRecord
  2
_CLOSED
340
0
 70
     0
280
     1
281
     0
  0
BLOCK_RECORD
  5
89
330
1
100
AcDbSymbolTableRecord
100
AcDbBlockTableRecord
  2
_CLOSEDBLANK
340
0
 70
     0
280
     1
281
     0
  0
BLOCK_RECORD
  5
8F
330
1
100
AcDbSymbolTableRecord
100
AcDbBlockTableRecord
  2
_ARROWFILLED
340
0
 70
     0
280
     1
281
     0
  0
BLOCK_RECORD
  5
93
330
1
100
AcDbSymbolTableRecord
100
AcDbBlockTableRecord
  2
_BOXBLANK
340
0
 70
     0
280
     1
281
     0
  0
BLOCK_RECORD
  5
9B
330
1
100
AcDbSymbolTableRecord
100
AcDbBlockTableRecord
  2
_BOXFILLED
340
0
 70
     0
280
     1
281
     0
  0
BLOCK_RECORD
  5
A0
330
1
100
AcDbSymbolTableRecord
100
AcDbBlockTableRecord
  2
_INTEGRAL
340
0
 70
     0
280
     1
281
     0
  0
BLOCK_RECORD
  5
A5
330
1
100
AcDbSymbolTableRecord
100
AcDbBlockTableRecord
  2
_OBLIQUE
340
0
 70
     0
280
     1
281
     0
  0
BLOCK_RECORD
  5
A9
330
1
100
AcDbSymbolTableRecord
100
AcDbBlockTableRecord
  2
_NONE
340
0
 70
     0
280
     1
281
     0
  0
BLOCK_RECORD
  5
AC
330
1
100
AcDbSymbolTableRecord
100
AcDbBlockTableRecord
  2
MARK_OPEN
340
0
 70
     0
280
     1
281
     0
  0
BLOCK_RECORD
  5
B1
330
1
100
AcDbSymbolTableRecord
100
AcDbBlockTableRecord
  2
MARK_ORIGIN
340
0
 70
     0
280
     1
281
     0
  0
BLOCK_RECORD
  5
B5
330
1
100
AcDbSymbolTableRecord
100
AcDbBlockTableRecord
  2
MARK_DOT
340
0
 70
     0
280
     1
281
     0
  0
BLOCK_RECORD
  5
F1
330
1
100
AcDbSymbolTableRecord
100
AcDbBlockTableRecord
  2
*G16
340
0
102
{BLKREFS
331
F8
102
}
 70
     0
280
     1
281
     0
  0
BLOCK_RECORD
  5
127
330
1
100
AcDbSymbolTableRecord
100
AcDbBlockTableRecord
  2
*G17
340
0
102
{BLKREFS
331
12E
102
}
 70
     0
280
     1
281
     0
  0
ENDTAB
  0
ENDSEC
  0
SECTION
  2
BLOCKS
  0
BLOCK
  5
20
330
1F
100
AcDbEntity
  8
0
100
AcDbBlockBegin
  2
*Model_Space
 70
     0
 10
0.0
 20
0.0
 30
0.0
  3
*Model_Space
  1
*Model_Space
  0
ENDBLK
  5
21
330
1F
100
AcDbEntity
  8
0
100
AcDbBlockEnd
  0
BLOCK
  5
1C
330
1B
100
AcDbEntity
 67
     1
  8
0
100
AcDbBlockBegin
  2
*Paper_Space
 70
     0
 10
0.0
 20
0.0
 30
0.0
  3
*Paper_Space
  1
*Paper_Space
  0
ENDBLK
  5
1D
330
1B
100
AcDbEntity
 67
     1
  8
0
100
AcDbBlockEnd
  0
BLOCK
  5
24
330
23
100
AcDbEntity
  8
0
100
AcDbBlockBegin
  2
*Paper_Space0
 70
     0
 10
0.0
 20
0.0
 30
0.0
  3
*Paper_Space0
  1
*Paper_Space0
  0
ENDBLK
  5
25
330
23
100
AcDbEntity
  8
0
100
AcDbBlockEnd
  0
BLOCK
  5
70
330
6D
100
AcDbEntity
  8
0
100
AcDbBlockBegin
  2
_ORIGIN
 70
     0
 10
0.0
 20
0.0
 30
0.0
  3
_ORIGIN
  1
_ORIGIN
  0
CIRCLE
  5
6E
330
6D
100
AcDbEntity
  8
0
 62
     0
100
AcDbCircle
 10
0.0
 20
0.0
 30
0.0
 40
0.5
  0
LINE
  5
6F
330
6D
100
AcDbEntity
  8
0
 62
     0
100
AcDbLine
 10
0.0
 20
0.0
 30
0.0
 11
-1.0
 21
0.0
 31
0.0
  0
ENDBLK
  5
71
330
6D
100
AcDbEntity
  8
0
100
AcDbBlockEnd
  0
BLOCK
  5
75
330
72
100
AcDbEntity
  8
0
100
AcDbBlockBegin
  2
_DOTBLANK
 70
     0
 10
0.0
 20
0.0
 30
0.0
  3
_DOTBLANK
  1
_DOTBLANK
  0
CIRCLE
  5
73
330
72
100
AcDbEntity
  8
0
 62
     0
100
AcDbCircle
 10
0.0
 20
0.0
 30
0.0
 40
0.5
  0
LINE
  5
74
330
72
100
AcDbEntity
  8
0
 62
     0
100
AcDbLine
 10
-0.5
 20
0.0
 30
0.0
 11
-1.0
 21
0.0
 31
0.0
  0
ENDBLK
  5
76
330
72
100
AcDbEntity
  8
0
100
AcDbBlockEnd
  0
BLOCK
  5
7A
330
77
100
AcDbEntity
  8
0
100
AcDbBlockBegin
  2
_DOT
 70
     0
 10
0.0
 20
0.0
 30
0.0
  3
_DOT
  1
_DOT
  0
LWPOLYLINE
  5
78
330
77
100
AcDbEntity
  8
0
 62
     0
100
AcDbPolyline
 90
        2
 70
     1
 43
0.5
 10
-0.25
 20
0.0
 42
1.0
 10
0.25
 20
0.0
 42
1.0
  0
LINE
  5
79
330
77
100
AcDbEntity
  8
0
 62
     0
100
AcDbLine
 10
-0.5
 20
0.0
 30
0.0
 11
-1.0
 21
0.0
 31
0.0
  0
ENDBLK
  5
7B
330
77
100
AcDbEntity
  8
0
100
AcDbBlockEnd
  0
BLOCK
  5
80
330
7C
100
AcDbEntity
  8
0
100
AcDbBlockBegin
  2
_OPEN
 70
     0
 10
0.0
 20
0.0
 30
0.0
  3
_OPEN
  1
_OPEN
  0
LINE
  5
7D
330
7C
100
AcDbEntity
  8
0
 62
     0
100
AcDbLine
 10
0.0
 20
0.0
 30
0.0
 11
-1.0
 21
0.1666666666666667
 31
0.0
  0
LINE
  5
7E
330
7C
100
AcDbEntity
  8
0
 62
     0
100
AcDbLine
 10
0.0
 20
0.0
 30
0.0
 11
-1.0
 21
-0.1666666666666667
 31
0.0
  0
LINE
  5
7F
330
7C
100
AcDbEntity
  8
0
 62
     0
100
AcDbLine
 10
0.0
 20
0.0
 30
0.0
 11
-1.0
 21
0.0
 31
0.0
  0
ENDBLK
  5
81
330
7C
100
AcDbEntity
  8
0
100
AcDbBlockEnd
  0
BLOCK
  5
87
330
82
100
AcDbEntity
  8
0
100
AcDbBlockBegin
  2
_CLOSED
 70
     0
 10
0.0
 20
0.0
 30
0.0
  3
_CLOSED
  1
_CLOSED
  0
LINE
  5
83
330
82
100
AcDbEntity
  8
0
 62
     0
100
AcDbLine
 10
0.0
 20
0.0
 30
0.0
 11
-1.0
 21
0.1666666666666667
 31
0.0
  0
LINE
  5
84
330
82
100
AcDbEntity
  8
0
 62
     0
100
AcDbLine
 10
0.0
 20
0.0
 30
0.0
 11
-1.0
 21
-0.1666666666666667
 31
0.0
  0
LINE
  5
85
330
82
100
AcDbEntity
  8
0
 62
     0
100
AcDbLine
 10
-1.0
 20
0.1666666666666667
 30
0.0
 11
-1.0
 21
-0.1666666666666667
 31
0.0
  0
LINE
  5
86
330
82
100
AcDbEntity
  8
0
 62
     0
100
AcDbLine
 10
0.0
 20
0.0
 30
0.0
 11
-1.0
 21
0.0
 31
0.0
  0
ENDBLK
  5
88
330
82
100
AcDbEntity
  8
0
100
AcDbBlockEnd
  0
BLOCK
  5
8D
330
89
100
AcDbEntity
  8
0
100
AcDbBlockBegin
  2
_CLOSEDBLANK
 70
     0
 10
0.0
 20
0.0
 30
0.0
  3
_CLOSEDBLANK
  1
_CLOSEDBLANK
  0
LINE
  5
8A
330
89
100
AcDbEntity
  8
0
 62
     0
100
AcDbLine
 10
0.0
 20
0.0
 30
0.0
 11
-1.0
 21
0.1666666666666667
 31
0.0
  0
LINE
  5
8B
330
89
100
AcDbEntity
  8
0
 62
     0
100
AcDbLine
 10
0.0
 20
0.0
 30
0.0
 11
-1.0
 21
-0.1666666666666667
 31
0.0
  0
LINE
  5
8C
330
89
100
AcDbEntity
  8
0
 62
     0
100
AcDbLine
 10
-1.0
 20
0.1666666666666667
 30
0.0
 11
-1.0
 21
-0.1666666666666667
 31
0.0
  0
ENDBLK
  5
8E
330
89
100
AcDbEntity
  8
0
100
AcDbBlockEnd
  0
BLOCK
  5
91
330
8F
100
AcDbEntity
  8
0
100
AcDbBlockBegin
  2
_ARROWFILLED
 70
     0
 10
0.0
 20
0.0
 30
0.0
  3
_ARROWFILLED
  1
_ARROWFILLED
  0
SOLID
  5
90
330
8F
100
AcDbEntity
  8
0
 62
     0
100
AcDbTrace
 10
0.0
 20
0.0
 30
0.0
 11
-1.0
 21
-0.1666666666666667
 31
0.0
 12
-1.0
 22
0.1666666666666667
 32
0.0
 13
0.0
 23
0.0
 33
0.0
  0
ENDBLK
  5
92
330
8F
100
AcDbEntity
  8
0
100
AcDbBlockEnd
  0
BLOCK
  5
99
330
93
100
AcDbEntity
  8
0
100
AcDbBlockBegin
  2
_BOXBLANK
 70
     0
 10
0.0
 20
0.0
 30
0.0
  3
_BOXBLANK
  1
_BOXBLANK
  0
LINE
  5
94
330
93
100
AcDbEntity
  8
0
 62
     0
100
AcDbLine
 10
-0.5
 20
-0.5
 30
0.0
 11
0.5
 21
-0.5
 31
0.0
  0
LINE
  5
95
330
93
100
AcDbEntity
  8
0
 62
     0
100
AcDbLine
 10
0.5
 20
-0.5
 30
0.0
 11
0.5
 21
0.5
 31
0.0
  0
LINE
  5
96
330
93
100
AcDbEntity
  8
0
 62
     0
100
AcDbLine
 10
0.5
 20
0.5
 30
0.0
 11
-0.5
 21
0.5
 31
0.0
  0
LINE
  5
97
330
93
100
AcDbEntity
  8
0
 62
     0
100
AcDbLine
 10
-0.5
 20
0.5
 30
0.0
 11
-0.5
 21
-0.5
 31
0.0
  0
LINE
  5
98
330
93
100
AcDbEntity
  8
0
 62
     0
100
AcDbLine
 10
-0.5
 20
0.0
 30
0.0
 11
-1.0
 21
0.0
 31
0.0
  0
ENDBLK
  5
9A
330
93
100
AcDbEntity
  8
0
100
AcDbBlockEnd
  0
BLOCK
  5
9E
330
9B
100
AcDbEntity
  8
0
100
AcDbBlockBegin
  2
_BOXFILLED
 70
     0
 10
0.0
 20
0.0
 30
0.0
  3
_BOXFILLED
  1
_BOXFILLED
  0
SOLID
  5
9C
330
9B
100
AcDbEntity
  8
0
 62
     0
100
AcDbTrace
 10
-0.5
 20
0.5
 30
0.0
 11
0.5
 21
0.5
 31
0.0
 12
-0.5
 22
-0.5
 32
0.0
 13
0.5
 23
-0.5
 33
0.0
  0
LINE
  5
9D
330
9B
100
AcDbEntity
  8
0
 62
     0
100
AcDbLine
 10
-0.5
 20
0.0
 30
0.0
 11
-1.0
 21
0.0
 31
0.0
  0
ENDBLK
  5
9F
330
9B
100
AcDbEntity
  8
0
100
AcDbBlockEnd
  0
BLOCK
  5
A3
330
A0
100
AcDbEntity
  8
0
100
AcDbBlockBegin
  2
_INTEGRAL
 70
     0
 10
0.0
 20
0.0
 30
0.0
  3
_INTEGRAL
  1
_INTEGRAL
  0
ARC
  5
A1
330
A0
100
AcDbEntity
  8
0
 62
     0
100
AcDbCircle
 10
0.444888
 20
-0.0913346
 30
0.0
 40
0.4541666
100
AcDbArc
 50
101.9999999999999
 51
167.9999999999998
  0
ARC
  5
A2
330
A0
100
AcDbEntity
  8
0
 62
     0
100
AcDbCircle
 10
-0.444888
 20
0.0913346
 30
0.0
 40
0.4541666
100
AcDbArc
 50
281.9999999999997
 51
347.9999999999997
  0
ENDBLK
  5
A4
330
A0
100
AcDbEntity
  8
0
100
AcDbBlockEnd
  0
BLOCK
  5
A7
330
A5
100
AcDbEntity
  8
0
100
AcDbBlockBegin
  2
_OBLIQUE
 70
     0
 10
0.0
 20
0.0
 30
0.0
  3
_OBLIQUE
  1
_OBLIQUE
  0
LINE
  5
A6
330
A5
100
AcDbEntity
  8
0
 62
     0
100
AcDbLine
 10
-0.5
 20
-0.5
 30
0.0
 11
0.5
 21
0.5
 31
0.0
  0
ENDBLK
  5
A8
330
A5
100
AcDbEntity
  8
0
100
AcDbBlockEnd
  0
BLOCK
  5
AA
330
A9
100
AcDbEntity
  8
0
100
AcDbBlockBegin
  2
_NONE
 70
     0
 10
0.0
 20
0.0
 30
0.0
  3
_NONE
  1
_NONE
  0
ENDBLK
  5
AB
330
A9
100
AcDbEntity
  8
0
100
AcDbBlockEnd
  0
BLOCK
  5
AF
330
AC
100
AcDbEntity
  8
0
100
AcDbBlockBegin
  2
MARK_OPEN
 70
     0
 10
0.0
 20
0.0
 30
0.0
  3
MARK_OPEN
  1
MARK_OPEN
  0
LINE
  5
AD
330
AC
100
AcDbEntity
  8
0
 62
     0
100
AcDbLine
 10
0.0
 20
0.0
 30
0.0
 11
-1.0
 21
0.1666666666666667
 31
0.0
  0
LINE
  5
AE
330
AC
100
AcDbEntity
  8
0
 62
     0
100
AcDbLine
 10
0.0
 20
0.0
 30
0.0
 11
-1.0
 21
-0.1666666666666667
 31
0.0
  0
ENDBLK
  5
B0
330
AC
100
AcDbEntity
  8
0
100
AcDbBlockEnd
  0
BLOCK
  5
B3
330
B1
100
AcDbEntity
  8
0
100
AcDbBlockBegin
  2
MARK_ORIGIN
 70
     0
 10
0.0
 20
0.0
 30
0.0
  3
MARK_ORIGIN
  1
MARK_ORIGIN
  0
CIRCLE
  5
B2
330
B1
100
AcDbEntity
  8
0
 62
     0
100
AcDbCircle
 10
0.0
 20
0.0
 30
0.0
 40
0.5
  0
ENDBLK
  5
B4
330
B1
100
AcDbEntity
  8
0
100
AcDbBlockEnd
  0
BLOCK
  5
B7
330
B5
100
AcDbEntity
  8
0
100
AcDbBlockBegin
  2
MARK_DOT
 70
     0
 10
0.0
 20
0.0
 30
0.0
  3
MARK_DOT
  1
MARK_DOT
  0
LWPOLYLINE
  5
B6
330
B5
100
AcDbEntity
  8
0
 62
     0
100
AcDbPolyline
 90
        2
 70
     1
 43
0.5
 10
-0.25
 20
0.0
 42
1.0
 10
0.25
 20
0.0
 42
1.0
  0
ENDBLK
  5
B8
330
B5
100
AcDbEntity
  8
0
100
AcDbBlockEnd
  0
BLOCK
  5
F2
330
F1
100
AcDbEntity
  8
0
100
AcDbBlockBegin
  2
*G16
 70
     1
 10
0.0
 20
0.0
 30
0.0
  3
*G16
  1
*G16
  0
LINE
  5
F4
330
F1
100
AcDbEntity
  8
12
  6
Continuous
 62
     5
370
    53
100
AcDbLine
 10
181.0211072784675
 20
0.0172721585058753
 30
0.0
 11
181.0211072784675
 21
283.0172721585058
 31
0.0
  0
LINE
  5
F5
330
F1
100
AcDbEntity
  8
12
  6
Continuous
 62
     5
370
    53
100
AcDbLine
 10
0.0211080024674857
 20
283.0172721585058
 30
0.0
 11
181.0211072784675
 21
283.0172721585058
 31
0.0
  0
LINE
  5
F6
330
F1
100
AcDbEntity
  8
12
  6
Continuous
 62
     5
370
    53
100
AcDbLine
 10
181.0211072784675
 20
0.0172721585058753
 30
0.0
 11
0.0211080024674857
 21
0.0172721585058753
 31
0.0
  0
LINE
  5
F7
330
F1
100
AcDbEntity
  8
12
  6
Continuous
 62
     5
370
    53
100
AcDbLine
 10
0.0211080024674857
 20
0.0172721585058753
 30
0.0
 11
0.0211080024674857
 21
283.0172721585058
 31
0.0
  0
ENDBLK
  5
F3
330
F1
100
AcDbEntity
  8
0
100
AcDbBlockEnd
  0
BLOCK
  5
128
330
127
100
AcDbEntity
  8
0
100
AcDbBlockBegin
  2
*G17
 70
     1
 10
0.0
 20
0.0
 30
0.0
  3
*G17
  1
*G17
  0
LINE
  5
12A
330
127
100
AcDbEntity
  8
12
  6
Continuous
 62
     5
370
    53
100
AcDbLine
 10
362.0211065544675
 20
0.0172721585058753
 30
0.0
 11
362.0211065544675
 21
283.0172721585058
 31
0.0
  0
LINE
  5
12B
330
127
100
AcDbEntity
  8
12
  6
Continuous
 62
     5
370
    53
100
AcDbLine
 10
181.0211072784675
 20
283.0172721585058
 30
0.0
 11
362.0211065544675
 21
283.0172721585058
 31
0.0
  0
LINE
  5
12C
330
127
100
AcDbEntity
  8
12
  6
Continuous
 62
     5
370
    53
100
AcDbLine
 10
362.0211065544675
 20
0.0172721585058753
 30
0.0
 11
181.0211072784675
 21
0.0172721585058753
 31
0.0
  0
LINE
  5
12D
330
127
100
AcDbEntity
  8
12
  6
Continuous
 62
     5
370
    53
100
AcDbLine
 10
181.0211072784675
 20
0.0172721585058753
 30
0.0
 11
181.0211072784675
 21
283.0172721585058
 31
0.0
  0
ENDBLK
  5
129
330
127
100
AcDbEntity
  8
0
100
AcDbBlockEnd
  0
ENDSEC
  0
SECTION
  2
ENTITIES
  0
LINE
  5
E3
330
1F
100
AcDbEntity
  8
9
  6
Continuous
 62
     7
370
    35
100
AcDbLine
 10
91.52110727846743
 20
277.0172721585058
 30
0.0
 11
181.0211072784675
 21
277.0172721585058
 31
0.0
  0
LINE
  5
E4
330
1F
100
AcDbEntity
  8
9
  6
Continuous
 62
     7
370
    35
100
AcDbLine
 10
91.52110727846743
 20
271.0172721585058
 30
0.0
 11
181.0211072784675
 21
271.0172721585058
 31
0.0
  0
MTEXT
  5
E5
330
1F
100
AcDbEntity
  8
7
  6
Continuous
 62
     3
370
     9
100
AcDbMText
 10
116.5211072784674
 20
280.0172721585058
 30
0.0
 40
3.3
 41
18.04110721644
 46
3.3
 71
     5
 72
     1
  1
{\fＭＳ Ｐゴシック;\W0.714286;名      称}
 73
     1
 44
1.0
1001
ACAD
1000
ACAD_MTEXT_DEFINED_HEIGHT_BEGIN
1070
    46
1040
3.3
1000
ACAD_MTEXT_DEFINED_HEIGHT_END
  0
MTEXT
  5
E6
330
1F
100
AcDbEntity
  8
7
  6
Continuous
 62
     3
370
     9
100
AcDbMText
 10
96.52110727846748
 20
280.0172721585058
 30
0.0
 40
3.3
 41
9.258200846136
 46
3.3
 71
     5
 72
     1
  1
{\fＭＳ Ｐゴシック;\W0.714286;番号}
 73
     1
 44
1.0
1001
ACAD
1000
ACAD_MTEXT_DEFINED_HEIGHT_BEGIN
1070
    46
1040
3.3
1000
ACAD_MTEXT_DEFINED_HEIGHT_END
  0
LINE
  5
E7
330
1F
100
AcDbEntity
  8
9
  6
Continuous
 62
     7
370
    35
100
AcDbLine
 10
91.52110727846743
 20
271.0172721585058
 30
0.0
 11
91.52110727846743
 21
283.0172721585058
 31
0.0
  0
LINE
  5
E8
330
1F
100
AcDbEntity
  8
9
  6
Continuous
 62
     7
370
    35
100
AcDbLine
 10
101.5211072784674
 20
283.0172721585058
 30
0.0
 11
101.5211072784674
 21
271.0172721585058
 31
0.0
  0
MTEXT
  5
E9
330
1F
100
AcDbEntity
  8
7
  6
Continuous
 62
     3
370
     9
100
AcDbMText
 10
142.0211072784674
 20
280.0172721585058
 30
0.0
 40
3.3
 41
15.169257496272
 46
3.3
 71
     5
 72
     1
  1
{\fＭＳ Ｐゴシック;\W0.714286;材    質}
 73
     1
 44
1.0
1001
ACAD
1000
ACAD_MTEXT_DEFINED_HEIGHT_BEGIN
1070
    46
1040
3.3
1000
ACAD_MTEXT_DEFINED_HEIGHT_END
  0
LINE
  5
EA
330
1F
100
AcDbEntity
  8
9
  6
Continuous
 62
     7
370
    35
100
AcDbLine
 10
131.5211072784674
 20
283.0172721585058
 30
0.0
 11
131.5211072784674
 21
271.0172721585058
 31
0.0
  0
LINE
  5
EB
330
1F
100
AcDbEntity
  8
9
  6
Continuous
 62
     7
370
    35
100
AcDbLine
 10
152.5211072784674
 20
271.0172721585058
 30
0.0
 11
152.5211072784674
 21
283.0172721585058
 31
0.0
  0
MTEXT
  5
EC
330
1F
100
AcDbEntity
  8
7
  6
Continuous
 62
     3
370
     9
100
AcDbMText
 10
172.5211072784674
 20
280.0172721585058
 30
0.0
 40
3.3
 41
15.189340361448
 46
3.3
 71
     5
 72
     1
  1
{\fＭＳ Ｐゴシック;\W0.714286;備    考}
 73
     1
 44
1.0
1001
ACAD
1000
ACAD_MTEXT_DEFINED_HEIGHT_BEGIN
1070
    46
1040
3.3
1000
ACAD_MTEXT_DEFINED_HEIGHT_END
  0
MTEXT
  5
ED
330
1F
100
AcDbEntity
  8
7
  6
Continuous
 62
     3
370
     9
100
AcDbMText
 10
158.0211072784674
 20
280.0172721585058
 30
0.0
 40
3.3
 41
9.335185162644
 46
3.3
 71
     5
 72
     1
  1
{\fＭＳ Ｐゴシック;\W0.714286;個数}
 73
     1
 44
1.0
1001
ACAD
1000
ACAD_MTEXT_DEFINED_HEIGHT_BEGIN
1070
    46
1040
3.3
1000
ACAD_MTEXT_DEFINED_HEIGHT_END
  0
LINE
  5
EE
330
1F
100
AcDbEntity
  8
9
  6
Continuous
 62
     7
370
    35
100
AcDbLine
 10
163.5211072784674
 20
283.0172721585058
 30
0.0
 11
163.5211072784674
 21
271.0172721585058
 31
0.0
  0
MTEXT
  5
EF
330
1F
100
AcDbEntity
  8
7
  6
Continuous
 62
     3
370
     9
100
AcDbMText
 10
96.52110727846748
 20
274.0172721585058
 30
0.0
 40
3.3
 41
1.007490402996
 46
3.3
 71
     5
 72
     1
  1
{\fＭＳ Ｐゴシック;\W0.714286;1}
 73
     1
 44
1.0
1001
ACAD
1000
ACAD_MTEXT_DEFINED_HEIGHT_BEGIN
1070
    46
1040
3.3
1000
ACAD_MTEXT_DEFINED_HEIGHT_END
  0
MTEXT
  5
F0
330
1F
100
AcDbEntity
  8
7
  6
Continuous
 62
     3
370
     9
100
AcDbMText
 10
142.0211072784674
 20
274.0172721585058
 30
0.0
 40
3.3
 41
0.0
 46
3.3
 71
     5
 72
     1
  1
{\fＭＳ Ｐゴシック;\W0.714286;      }
 73
     1
 44
1.0
1001
ACAD
1000
ACAD_MTEXT_DEFINED_HEIGHT_BEGIN
1070
    46
1040
3.3
1000
ACAD_MTEXT_DEFINED_HEIGHT_END
  0
INSERT
  5
F8
330
1F
100
AcDbEntity
  8
0
100
AcDbBlockReference
  2
*G16
 10
0.0
 20
0.0
 30
0.0
  0
MTEXT
  5
F9
330
1F
100
AcDbEntity
  8
7
  6
Continuous
 62
     3
370
     9
100
AcDbMText
 10
157.9149414791624
 20
274.0172721585058
 30
0.0
 40
3.3
 41
1.007490402996
 46
3.3
 71
     5
 72
     1
  1
{\fＭＳ Ｐゴシック;\W0.714286;1}
 73
     1
 44
1.0
1001
ACAD
1000
ACAD_MTEXT_DEFINED_HEIGHT_BEGIN
1070
    46
1040
3.3
1000
ACAD_MTEXT_DEFINED_HEIGHT_END
  0
MTEXT
  5
FA
330
1F
100
AcDbEntity
  8
6
  6
Continuous
 62
     3
370
     9
100
AcDbMText
 10
151.064903447966
 20
2.86669605719112
 30
0.0
 40
3.300000000000001
 41
19.14566480112
 46
3.300000000000001
 71
     7
 72
     1
  1
{\fＭＳ Ｐゴシック;\W0.714286;尺度　1/1}
 73
     1
 44
1.0
1001
ACAD
1000
ACAD_MTEXT_DEFINED_HEIGHT_BEGIN
1070
    46
1040
3.300000000000001
1000
ACAD_MTEXT_DEFINED_HEIGHT_END
  0
POLYLINE
  5
FB
330
1F
100
AcDbEntity
  8
4
  6
PHANTOM
 62
     2
370
    25
100
AcDb2dPolyline
 66
     1
 10
0.0
 20
0.0
 30
0.0
  0
VERTEX
  5
FC
330
FB
100
AcDbEntity
  8
4
  6
PHANTOM
 62
     2
370
    25
100
AcDbVertex
100
AcDb2dVertex
 10
73.02119144048355
 20
105.4059692490783
 30
0.0
  0
VERTEX
  5
FD
330
FB
100
AcDbEntity
  8
4
  6
PHANTOM
 62
     2
370
    25
100
AcDbVertex
100
AcDb2dVertex
 10
73.02119144048355
 20
84.56825159793242
 30
0.0
  0
SEQEND
  5
FE
330
FB
100
AcDbEntity
  8
4
  6
PHANTOM
 62
     2
370
    25
  0
ARC
  5
FF
330
1F
100
AcDbEntity
  8
4
  6
PHANTOM
 62
     2
370
    25
100
AcDbCircle
 10
81.52119144048358
 20
79.8432515979325
 30
0.0
 40
9.724999999999987
100
AcDbArc
 50
29.06891016107988
 51
150.9310898389202
  0
ARC
  5
100
330
1F
100
AcDbEntity
  8
4
  6
PHANTOM
 62
     2
370
    25
100
AcDbCircle
 10
98.52119144048346
 20
89.29325159793247
 30
0.0
 40
9.724999999999937
100
AcDbArc
 50
209.0689101610801
 51
330.9310898389204
  0
POLYLINE
  5
101
330
1F
100
AcDbEntity
  8
4
  6
PHANTOM
 62
     2
370
    25
100
AcDb2dPolyline
 66
     1
 10
0.0
 20
0.0
 30
0.0
  0
VERTEX
  5
102
330
101
100
AcDbEntity
  8
4
  6
PHANTOM
 62
     2
370
    25
100
AcDbVertex
100
AcDb2dVertex
 10
107.0211914404835
 20
84.56825159793271
 30
0.0
  0
VERTEX
  5
103
330
101
100
AcDbEntity
  8
4
  6
PHANTOM
 62
     2
370
    25
100
AcDbVertex
100
AcDb2dVertex
 10
107.0211914404835
 20
105.4059692490783
 30
0.0
  0
SEQEND
  5
104
330
101
100
AcDbEntity
  8
4
  6
PHANTOM
 62
     2
370
    25
  0
ARC
  5
105
330
1F
100
AcDbEntity
  8
4
  6
PHANTOM
 62
     2
370
    25
100
AcDbCircle
 10
81.5211914404836
 20
89.29325159793251
 30
0.0
 40
9.725000000000183
100
AcDbArc
 50
209.0689101610795
 51
330.931089838917
  0
ARC
  5
106
330
1F
100
AcDbEntity
  8
4
  6
PHANTOM
 62
     2
370
    25
100
AcDbCircle
 10
102.5211914404828
 20
145.9059692490773
 30
0.0
 40
1.500000000000639
100
AcDbArc
 50
0.0000000000358258
 51
89.99999999999991
  0
POLYLINE
  5
107
330
1F
100
AcDbEntity
  8
4
  6
PHANTOM
 62
     2
370
    25
100
AcDb2dPolyline
 66
     1
 10
0.0
 20
0.0
 30
0.0
  0
VERTEX
  5
108
330
107
100
AcDbEntity
  8
4
  6
PHANTOM
 62
     2
370
    25
100
AcDbVertex
100
AcDb2dVertex
 10
102.5211914404836
 20
147.4059692490782
 30
0.0
  0
VERTEX
  5
109
330
107
100
AcDbEntity
  8
4
  6
PHANTOM
 62
     2
370
    25
100
AcDbVertex
100
AcDb2dVertex
 10
79.42714026948704
 20
147.4059692490782
 30
0.0
  0
VERTEX
  5
10A
330
107
100
AcDbEntity
  8
4
  6
PHANTOM
 62
     2
370
    25
100
AcDbVertex
100
AcDb2dVertex
 10
77.52119144048355
 20
147.4059692490782
 30
0.0
  0
SEQEND
  5
10B
330
107
100
AcDbEntity
  8
4
  6
PHANTOM
 62
     2
370
    25
  0
ARC
  5
10C
330
1F
100
AcDbEntity
  8
4
  6
PHANTOM
 62
     2
370
    25
100
AcDbCircle
 10
77.5211914404843
 20
145.9059692490776
 30
0.0
 40
1.500000000000597
100
AcDbArc
 50
89.99999999999991
 51
179.9999999999772
  0
POLYLINE
  5
10D
330
1F
100
AcDbEntity
  8
4
  6
PHANTOM
 62
     2
370
    25
100
AcDb2dPolyline
 66
     1
 10
0.0
 20
0.0
 30
0.0
  0
VERTEX
  5
10E
330
10D
100
AcDbEntity
  8
4
  6
PHANTOM
 62
     2
370
    25
100
AcDbVertex
100
AcDb2dVertex
 10
76.02119144048355
 20
145.9059692490782
 30
0.0
  0
VERTEX
  5
10F
330
10D
100
AcDbEntity
  8
4
  6
PHANTOM
 62
     2
370
    25
100
AcDbVertex
100
AcDb2dVertex
 10
76.02119144048355
 20
134.8599532228603
 30
0.0
  0
SEQEND
  5
110
330
10D
100
AcDbEntity
  8
4
  6
PHANTOM
 62
     2
370
    25
  0
ARC
  5
111
330
1F
100
AcDbEntity
  8
4
  6
PHANTOM
 62
     2
370
    25
100
AcDbCircle
 10
71.02119144048366
 20
134.8599532228602
 30
0.0
 40
4.999999999999886
100
AcDbArc
 50
269.9999999999993
 51
0.0000000000009771
  0
ARC
  5
112
330
1F
100
AcDbEntity
  8
4
  6
PHANTOM
 62
     2
370
    25
100
AcDbCircle
 10
71.02119144048135
 20
127.8599532228628
 30
0.0
 40
1.999999999997485
100
AcDbArc
 50
89.99999999999991
 51
180.0000000000713
  0
POLYLINE
  5
113
330
1F
100
AcDbEntity
  8
4
  6
PHANTOM
 62
     2
370
    25
100
AcDb2dPolyline
 66
     1
 10
0.0
 20
0.0
 30
0.0
  0
VERTEX
  5
114
330
113
100
AcDbEntity
  8
4
  6
PHANTOM
 62
     2
370
    25
100
AcDbVertex
100
AcDb2dVertex
 10
69.02119144048355
 20
127.8599532228603
 30
0.0
  0
VERTEX
  5
115
330
113
100
AcDbEntity
  8
4
  6
PHANTOM
 62
     2
370
    25
100
AcDbVertex
100
AcDb2dVertex
 10
69.0211914404836
 20
107.4059692490783
 30
0.0
  0
SEQEND
  5
116
330
113
100
AcDbEntity
  8
4
  6
PHANTOM
 62
     2
370
    25
  0
ARC
  5
117
330
1F
100
AcDbEntity
  8
4
  6
PHANTOM
 62
     2
370
    25
100
AcDbCircle
 10
71.02119144048336
 20
107.4059692490782
 30
0.0
 40
1.999999999999758
100
AcDbArc
 50
179.9999999999959
 51
269.9999999999993
  0
POLYLINE
  5
118
330
1F
100
AcDbEntity
  8
4
  6
PHANTOM
 62
     2
370
    25
100
AcDb2dPolyline
 66
     1
 10
0.0
 20
0.0
 30
0.0
  0
VERTEX
  5
119
330
118
100
AcDbEntity
  8
4
  6
PHANTOM
 62
     2
370
    25
100
AcDbVertex
100
AcDb2dVertex
 10
71.02119144048355
 20
105.4059692490783
 30
0.0
  0
VERTEX
  5
11A
330
118
100
AcDbEntity
  8
4
  6
PHANTOM
 62
     2
370
    25
100
AcDbVertex
100
AcDb2dVertex
 10
109.0211914404835
 20
105.4059692490783
 30
0.0
  0
SEQEND
  5
11B
330
118
100
AcDbEntity
  8
4
  6
PHANTOM
 62
     2
370
    25
  0
ARC
  5
11C
330
1F
100
AcDbEntity
  8
4
  6
PHANTOM
 62
     2
370
    25
100
AcDbCircle
 10
109.021191440482
 20
107.4059692490795
 30
0.0
 40
2.000000000001208
100
AcDbArc
 50
269.9999999999993
 51
359.9999999999646
  0
POLYLINE
  5
11D
330
1F
100
AcDbEntity
  8
4
  6
PHANTOM
 62
     2
370
    25
100
AcDb2dPolyline
 66
     1
 10
0.0
 20
0.0
 30
0.0
  0
VERTEX
  5
11E
330
11D
100
AcDbEntity
  8
4
  6
PHANTOM
 62
     2
370
    25
100
AcDbVertex
100
AcDb2dVertex
 10
111.0211914404835
 20
107.4059692490783
 30
0.0
  0
VERTEX
  5
11F
330
11D
100
AcDbEntity
  8
4
  6
PHANTOM
 62
     2
370
    25
100
AcDbVertex
100
AcDb2dVertex
 10
111.0211914404835
 20
127.8599532228603
 30
0.0
  0
SEQEND
  5
120
330
11D
100
AcDbEntity
  8
4
  6
PHANTOM
 62
     2
370
    25
  0
ARC
  5
121
330
1F
100
AcDbEntity
  8
4
  6
PHANTOM
 62
     2
370
    25
100
AcDbCircle
 10
109.0211914404855
 20
127.8599532228618
 30
0.0
 40
1.99999999999801
100
AcDbArc
 50
359.9999999999561
 51
89.99999999999991
  0
ARC
  5
122
330
1F
100
AcDbEntity
  8
4
  6
PHANTOM
 62
     2
370
    25
100
AcDbCircle
 10
109.0211914404837
 20
134.8599532228602
 30
0.0
 40
4.999999999999943
100
AcDbArc
 50
179.9999999999994
 51
269.9999999999993
  0
POLYLINE
  5
123
330
1F
100
AcDbEntity
  8
4
  6
PHANTOM
 62
     2
370
    25
100
AcDb2dPolyline
 66
     1
 10
0.0
 20
0.0
 30
0.0
  0
VERTEX
  5
124
330
123
100
AcDbEntity
  8
4
  6
PHANTOM
 62
     2
370
    25
100
AcDbVertex
100
AcDb2dVertex
 10
104.0211914404835
 20
134.8599532228603
 30
0.0
  0
VERTEX
  5
125
330
123
100
AcDbEntity
  8
4
  6
PHANTOM
 62
     2
370
    25
100
AcDbVertex
100
AcDb2dVertex
 10
104.0211914404835
 20
145.9059692490782
 30
0.0
  0
SEQEND
  5
126
330
123
100
AcDbEntity
  8
4
  6
PHANTOM
 62
     2
370
    25
  0
INSERT
  5
12E
330
1F
100
AcDbEntity
  8
0
100
AcDbBlockReference
  2
*G17
 10
0.0
 20
0.0
 30
0.0
  0
ARC
  5
12F
330
1F
100
AcDbEntity
  8
4
  6
PHANTOM
 62
     2
370
    25
100
AcDbCircle
 10
283.5211907164829
 20
145.9059692490758
 30
0.0
 40
1.500000000000739
100
AcDbArc
 50
0.0000000000922785
 51
89.99999999999991
  0
POLYLINE
  5
130
330
1F
100
AcDbEntity
  8
4
  6
PHANTOM
 62
     2
370
    25
100
AcDb2dPolyline
 66
     1
 10
0.0
 20
0.0
 30
0.0
  0
VERTEX
  5
131
330
130
100
AcDbEntity
  8
4
  6
PHANTOM
 62
     2
370
    25
100
AcDbVertex
100
AcDb2dVertex
 10
283.5211907164836
 20
147.4059692490782
 30
0.0
  0
VERTEX
  5
132
330
130
100
AcDbEntity
  8
4
  6
PHANTOM
 62
     2
370
    25
100
AcDbVertex
100
AcDb2dVertex
 10
260.427139545487
 20
147.4059692490782
 30
0.0
  0
VERTEX
  5
133
330
130
100
AcDbEntity
  8
4
  6
PHANTOM
 62
     2
370
    25
100
AcDbVertex
100
AcDb2dVertex
 10
258.5211907164835
 20
147.4059692490782
 30
0.0
  0
SEQEND
  5
134
330
130
100
AcDbEntity
  8
4
  6
PHANTOM
 62
     2
370
    25
  0
ARC
  5
135
330
1F
100
AcDbEntity
  8
4
  6
PHANTOM
 62
     2
370
    25
100
AcDbCircle
 10
258.5211907164922
 20
145.9059692490719
 30
0.0
 40
1.500000000006253
100
AcDbArc
 50
89.99999999999991
 51
179.9999999997612
  0
POLYLINE
  5
136
330
1F
100
AcDbEntity
  8
4
  6
PHANTOM
 62
     2
370
    25
100
AcDb2dPolyline
 66
     1
 10
0.0
 20
0.0
 30
0.0
  0
VERTEX
  5
137
330
136
100
AcDbEntity
  8
4
  6
PHANTOM
 62
     2
370
    25
100
AcDbVertex
100
AcDb2dVertex
 10
257.0211907164835
 20
145.9059692490782
 30
0.0
  0
VERTEX
  5
138
330
136
100
AcDbEntity
  8
4
  6
PHANTOM
 62
     2
370
    25
100
AcDbVertex
100
AcDb2dVertex
 10
257.0211907164835
 20
134.8599532228603
 30
0.0
  0
SEQEND
  5
139
330
136
100
AcDbEntity
  8
4
  6
PHANTOM
 62
     2
370
    25
  0
ARC
  5
13A
330
1F
100
AcDbEntity
  8
4
  6
PHANTOM
 62
     2
370
    25
100
AcDbCircle
 10
252.0211907164832
 20
134.8599532228599
 30
0.0
 40
5.000000000000369
100
AcDbArc
 50
269.9999999999993
 51
0.000000000004234
  0
ARC
  5
13B
330
1F
100
AcDbEntity
  8
4
  6
PHANTOM
 62
     2
370
    25
100
AcDbCircle
 10
252.021190716483
 20
127.8599532228615
 30
0.0
 40
1.999999999998792
100
AcDbArc
 50
89.99999999999991
 51
180.0000000000339
  0
POLYLINE
  5
13C
330
1F
100
AcDbEntity
  8
4
  6
PHANTOM
 62
     2
370
    25
100
AcDb2dPolyline
 66
     1
 10
0.0
 20
0.0
 30
0.0
  0
VERTEX
  5
13D
330
13C
100
AcDbEntity
  8
4
  6
PHANTOM
 62
     2
370
    25
100
AcDbVertex
100
AcDb2dVertex
 10
250.0211907164835
 20
127.8599532228603
 30
0.0
  0
VERTEX
  5
13E
330
13C
100
AcDbEntity
  8
4
  6
PHANTOM
 62
     2
370
    25
100
AcDbVertex
100
AcDb2dVertex
 10
250.0211907164836
 20
107.4059692490783
 30
0.0
  0
SEQEND
  5
13F
330
13C
100
AcDbEntity
  8
4
  6
PHANTOM
 62
     2
370
    25
  0
ARC
  5
140
330
1F
100
AcDbEntity
  8
4
  6
PHANTOM
 62
     2
370
    25
100
AcDbCircle
 10
252.0211907164833
 20
107.405969249079
 30
0.0
 40
1.999999999999716
100
AcDbArc
 50
180.0000000000179
 51
269.9999999999998
  0
POLYLINE
  5
141
330
1F
100
AcDbEntity
  8
4
  6
PHANTOM
 62
     2
370
    25
100
AcDb2dPolyline
 66
     1
 10
0.0
 20
0.0
 30
0.0
  0
VERTEX
  5
142
330
141
100
AcDbEntity
  8
4
  6
PHANTOM
 62
     2
370
    25
100
AcDbVertex
100
AcDb2dVertex
 10
252.0211907164835
 20
105.4059692490783
 30
0.0
  0
VERTEX
  5
143
330
141
100
AcDbEntity
  8
4
  6
PHANTOM
 62
     2
370
    25
100
AcDbVertex
100
AcDb2dVertex
 10
290.0211907164836
 20
105.4059692490783
 30
0.0
  0
SEQEND
  5
144
330
141
100
AcDbEntity
  8
4
  6
PHANTOM
 62
     2
370
    25
  0
ARC
  5
145
330
1F
100
AcDbEntity
  8
4
  6
PHANTOM
 62
     2
370
    25
100
AcDbCircle
 10
290.0211907164779
 20
107.4059692490803
 30
0.0
 40
2.000000000002046
100
AcDbArc
 50
269.9999999999998
 51
359.9999999999406
  0
POLYLINE
  5
146
330
1F
100
AcDbEntity
  8
4
  6
PHANTOM
 62
     2
370
    25
100
AcDb2dPolyline
 66
     1
 10
0.0
 20
0.0
 30
0.0
  0
VERTEX
  5
147
330
146
100
AcDbEntity
  8
4
  6
PHANTOM
 62
     2
370
    25
100
AcDbVertex
100
AcDb2dVertex
 10
292.0211907164836
 20
107.4059692490783
 30
0.0
  0
VERTEX
  5
148
330
146
100
AcDbEntity
  8
4
  6
PHANTOM
 62
     2
370
    25
100
AcDbVertex
100
AcDb2dVertex
 10
292.0211907164836
 20
127.8599532228603
 30
0.0
  0
SEQEND
  5
149
330
146
100
AcDbEntity
  8
4
  6
PHANTOM
 62
     2
370
    25
  0
ARC
  5
14A
330
1F
100
AcDbEntity
  8
4
  6
PHANTOM
 62
     2
370
    25
100
AcDbCircle
 10
290.0211907164812
 20
127.8599532228589
 30
0.0
 40
2.000000000002387
100
AcDbArc
 50
0.0000000000378613
 51
89.99999999999991
  0
ARC
  5
14B
330
1F
100
AcDbEntity
  8
4
  6
PHANTOM
 62
     2
370
    25
100
AcDbCircle
 10
290.0211907164841
 20
134.8599532228606
 30
0.0
 40
5.000000000000284
100
AcDbArc
 50
180.0000000000026
 51
269.9999999999998
  0
POLYLINE
  5
14C
330
1F
100
AcDbEntity
  8
4
  6
PHANTOM
 62
     2
370
    25
100
AcDb2dPolyline
 66
     1
 10
0.0
 20
0.0
 30
0.0
  0
VERTEX
  5
14D
330
14C
100
AcDbEntity
  8
4
  6
PHANTOM
 62
     2
370
    25
100
AcDbVertex
100
AcDb2dVertex
 10
285.0211907164836
 20
134.8599532228603
 30
0.0
  0
VERTEX
  5
14E
330
14C
100
AcDbEntity
  8
4
  6
PHANTOM
 62
     2
370
    25
100
AcDbVertex
100
AcDb2dVertex
 10
285.0211907164836
 20
145.9059692490782
 30
0.0
  0
SEQEND
  5
14F
330
14C
100
AcDbEntity
  8
4
  6
PHANTOM
 62
     2
370
    25
  0
MTEXT
  5
150
330
1F
100
AcDbEntity
  8
6
  6
Continuous
 62
     3
370
     9
100
AcDbMText
 10
332.064902723966
 20
2.86669605719112
 30
0.0
 40
3.300000000000001
 41
19.14566480112
 46
3.300000000000001
 71
     7
 72
     1
  1
{\fＭＳ Ｐゴシック;\W0.714286;尺度　1/1}
 73
     1
 44
1.0
1001
ACAD
1000
ACAD_MTEXT_DEFINED_HEIGHT_BEGIN
1070
    46
1040
3.300000000000001
1000
ACAD_MTEXT_DEFINED_HEIGHT_END
  0
POLYLINE
  5
151
330
1F
100
AcDbEntity
  8
4
  6
PHANTOM
 62
     2
370
    25
100
AcDb2dPolyline
 66
     1
 10
0.0
 20
0.0
 30
0.0
  0
VERTEX
  5
152
330
151
100
AcDbEntity
  8
4
  6
PHANTOM
 62
     2
370
    25
100
AcDbVertex
100
AcDb2dVertex
 10
254.0211907164835
 20
105.4059692490783
 30
0.0
  0
VERTEX
  5
153
330
151
100
AcDbEntity
  8
4
  6
PHANTOM
 62
     2
370
    25
100
AcDbVertex
100
AcDb2dVertex
 10
254.0211907164835
 20
84.56825159793242
 30
0.0
  0
SEQEND
  5
154
330
151
100
AcDbEntity
  8
4
  6
PHANTOM
 62
     2
370
    25
  0
ARC
  5
155
330
1F
100
AcDbEntity
  8
4
  6
PHANTOM
 62
     2
370
    25
100
AcDbCircle
 10
262.5211907164832
 20
79.84325159793264
 30
0.0
 40
9.724999999999644
100
AcDbArc
 50
29.06891016107805
 51
150.9310898389201
  0
ARC
  5
156
330
1F
100
AcDbEntity
  8
4
  6
PHANTOM
 62
     2
370
    25
100
AcDbCircle
 10
279.5211907164835
 20
89.29325159793244
 30
0.0
 40
9.72499999999996
100
AcDbArc
 50
209.0689101610797
 51
330.9310898389207
  0
POLYLINE
  5
157
330
1F
100
AcDbEntity
  8
4
  6
PHANTOM
 62
     2
370
    25
100
AcDb2dPolyline
 66
     1
 10
0.0
 20
0.0
 30
0.0
  0
VERTEX
  5
158
330
157
100
AcDbEntity
  8
4
  6
PHANTOM
 62
     2
370
    25
100
AcDbVertex
100
AcDb2dVertex
 10
288.0211907164836
 20
84.56825159793271
 30
0.0
  0
VERTEX
  5
159
330
157
100
AcDbEntity
  8
4
  6
PHANTOM
 62
     2
370
    25
100
AcDbVertex
100
AcDb2dVertex
 10
288.0211907164836
 20
105.4059692490783
 30
0.0
  0
SEQEND
  5
15A
330
157
100
AcDbEntity
  8
4
  6
PHANTOM
 62
     2
370
    25
  0
ARC
  5
15B
330
1F
100
AcDbEntity
  8
4
  6
PHANTOM
 62
     2
370
    25
100
AcDbCircle
 10
262.5211907164834
 20
89.29325159793241
 30
0.0
 40
9.724999999999973
100
AcDbArc
 50
209.0689101610796
 51
330.9310898389182
  0
CIRCLE
  5
15C
330
1F
100
AcDbEntity
  8
6
  6
Continuous
 62
     3
370
    25
100
AcDbCircle
 10
112.4191634121091
 20
226.0650837590011
 30
0.0
 40
3.0
  0
INSERT
  5
15D
330
1F
100
AcDbEntity
  8
6
  6
Continuous
 62
     3
370
    25
100
AcDbBlockReference
  2
_OPEN
 10
100.0035048991841
 20
203.9790034996979
 30
0.0
 41
2.3
 42
2.3
 43
2.3
 50
240.6575443763468
  0
POLYLINE
  5
15E
330
1F
100
AcDbEntity
  8
6
  6
Continuous
 62
     3
370
    25
100
AcDb2dPolyline
 66
     1
 10
0.0
 20
0.0
 30
0.0
  0
VERTEX
  5
15F
330
15E
100
AcDbEntity
  8
6
  6
Continuous
 62
     3
370
    25
100
AcDbVertex
100
AcDb2dVertex
 10
100.0035048991841
 20
203.9790034996979
 30
0.0
  0
VERTEX
  5
160
330
15E
100
AcDbEntity
  8
6
  6
Continuous
 62
     3
370
    25
100
AcDbVertex
100
AcDb2dVertex
 10
110.9490778751694
 20
223.4499645429651
 30
0.0
  0
SEQEND
  5
161
330
15E
100
AcDbEntity
  8
6
  6
Continuous
 62
     3
370
    25
  0
MTEXT
  5
162
330
1F
100
AcDbEntity
  8
6
  6
Continuous
 62
     3
370
     9
100
AcDbMText
 10
112.4191634121091
 20
226.0650837590011
 30
0.0
 40
3.3
 41
1.007490402996
 46
3.3
 71
     5
 72
     1
  1
{\fＭＳ Ｐゴシック;\W0.714286;1}
 73
     1
 44
1.0
1001
ACAD
1000
ACAD_MTEXT_DEFINED_HEIGHT_BEGIN
1070
    46
1040
3.3
1000
ACAD_MTEXT_DEFINED_HEIGHT_END
  0
MTEXT
  5
163
330
1F
100
AcDbEntity
  8
7
  6
Continuous
 62
     3
370
     9
100
AcDbMText
 10
116.5211072784674
 20
274.0172721585058
 30
0.0
 40
3.3
 41
25.073457172236
 46
3.3
 71
     5
 72
     1
  1
{\fＭＳ Ｐゴシック;\W0.714286;DEU型ヘッド}
 73
     1
 44
1.0
1001
ACAD
1000
ACAD_MTEXT_DEFINED_HEIGHT_BEGIN
1070
    46
1040
3.3
1000
ACAD_MTEXT_DEFINED_HEIGHT_END
  0
MTEXT
  5
164
330
1F
100
AcDbEntity
  8
6
  6
Continuous
 62
     3
370
     9
100
AcDbMText
 10
332.064902723966
 20
7.86669605719112
 30
0.0
 40
3.3
 41
29.351107454724
 46
3.3
 71
     7
 72
     1
  1
{\fＭＳ Ｐゴシック;\W0.714286;DEU 作動状態}
 73
     1
 44
1.0
1001
ACAD
1000
ACAD_MTEXT_DEFINED_HEIGHT_BEGIN
1070
    46
1040
3.3
1000
ACAD_MTEXT_DEFINED_HEIGHT_END
  0
MTEXT
  5
165
330
1F
100
AcDbEntity
  8
6
  6
Continuous
 62
     3
370
     9
100
AcDbMText
 10
151.064903447966
 20
7.86669605719112
 30
0.0
 40
3.3
 41
29.351107454724
 46
3.3
 71
     7
 72
     1
  1
{\fＭＳ Ｐゴシック;\W0.714286;DEU 取付状態}
 73
     1
 44
1.0
1001
ACAD
1000
ACAD_MTEXT_DEFINED_HEIGHT_BEGIN
1070
    46
1040
3.3
1000
ACAD_MTEXT_DEFINED_HEIGHT_END
  0
LINE
  5
166
330
1F
100
AcDbEntity
  8
9
  6
Continuous
 62
     7
370
    35
100
AcDbLine
 10
80.72751394078153
 20
159.4797348331204
 30
0.0
 11
81.72063851444176
 21
159.4797348331203
 31
0.0
  0
ARC
  5
167
330
1F
100
AcDbEntity
  8
9
  6
Continuous
 62
     7
370
    35
100
AcDbCircle
 10
81.72063851444176
 20
160.2797348331203
 30
0.0
 40
0.7999999999999545
100
AcDbArc
 50
269.9999999999998
 51
343.2809085822731
  0
ARC
  5
168
330
1F
100
AcDbEntity
  8
9
  6
Continuous
 62
     7
370
    35
100
AcDbCircle
 10
85.0211914404835
 20
168.4059692490782
 30
0.0
 40
17.0
100
AcDbArc
 50
179.9999999999998
 51
250.250077204357
  0
LINE
  5
169
330
1F
100
AcDbEntity
  8
9
  6
Continuous
 62
     7
370
    35
100
AcDbLine
 10
80.5211914404835
 20
152.4059692490782
 30
0.0
 11
80.5211914404835
 21
150.9059692490782
 31
0.0
  0
ARC
  5
16A
330
1F
100
AcDbEntity
  8
9
  6
Continuous
 62
     7
370
    35
100
AcDbCircle
 10
98.0211914404835
 20
170.1466948774313
 30
0.0
 40
24.0
100
AcDbArc
 50
122.0970060037007
 51
179.9999999999998
  0
ARC
  5
16B
330
1F
100
AcDbEntity
  8
9
  6
Continuous
 62
     7
370
    35
100
AcDbCircle
 10
87.22519753126943
 20
191.6851417155688
 30
0.0
 40
1.5
100
AcDbArc
 50
235.2454430135256
 51
269.9999999999998
  0
ARC
  5
16C
330
1F
100
AcDbEntity
  8
9
  6
Continuous
 62
     7
370
    35
100
AcDbCircle
 10
85.80004225625856
 20
189.6311377131121
 30
0.0
 40
1.0
100
AcDbArc
 50
55.24544301352955
 51
122.0970060036958
  0
LINE
  5
16D
330
1F
100
AcDbEntity
  8
9
  6
Continuous
 62
     7
370
    35
100
AcDbLine
 10
80.5211914404835
 20
150.9059692490782
 30
0.0
 11
99.5211914404835
 21
150.9059692490782
 31
0.0
  0
ARC
  5
16E
330
1F
100
AcDbEntity
  8
9
  6
Continuous
 62
     7
370
    35
100
AcDbCircle
 10
92.81718534969781
 20
191.6851417155688
 30
0.0
 40
1.5
100
AcDbArc
 50
269.9999999999998
 51
304.7545569864749
  0
ARC
  5
16F
330
1F
100
AcDbEntity
  8
9
  6
Continuous
 62
     7
370
    35
100
AcDbCircle
 10
94.2423406247089
 20
189.6311377131121
 30
0.0
 40
1.0
100
AcDbArc
 50
57.90299399629317
 51
124.7545569864705
  0
ARC
  5
170
330
1F
100
AcDbEntity
  8
9
  6
Continuous
 62
     7
370
    35
100
AcDbCircle
 10
82.0211914404835
 20
170.1466948774313
 30
0.0
 40
24.0
100
AcDbArc
 50
0.0
 51
57.90299399629976
  0
LINE
  5
171
330
1F
100
AcDbEntity
  8
9
  6
Continuous
 62
     7
370
    35
100
AcDbLine
 10
99.5211914404835
 20
152.4059692490782
 30
0.0
 11
99.5211914404835
 21
150.9059692490782
 31
0.0
  0
ARC
  5
172
330
1F
100
AcDbEntity
  8
9
  6
Continuous
 62
     7
370
    35
100
AcDbCircle
 10
95.0211914404835
 20
168.4059692490782
 30
0.0
 40
17.0
100
AcDbArc
 50
289.7499227956422
 51
0.0
  0
ARC
  5
173
330
1F
100
AcDbEntity
  8
9
  6
Continuous
 62
     7
370
    35
100
AcDbCircle
 10
98.0211914404835
 20
170.1466948774313
 30
0.0
 40
30.0
100
AcDbArc
 50
139.7809012554433
 51
179.9999999999999
  0
LINE
  5
174
330
1F
100
AcDbEntity
  8
9
  6
Continuous
 62
     7
370
    35
100
AcDbLine
 10
75.11376648237768
 20
189.518062454057
 30
0.0
 11
84.78477227242041
 21
200.9544176070162
 31
0.0
  0
LINE
  5
175
330
1F
100
AcDbEntity
  8
9
  6
Continuous
 62
     7
370
    35
100
AcDbLine
 10
104.9286163985893
 20
189.518062454057
 30
0.0
 11
95.2576106085466
 21
200.9544176070163
 31
0.0
  0
ARC
  5
176
330
1F
100
AcDbEntity
  8
9
  6
Continuous
 62
     7
370
    35
100
AcDbCircle
 10
82.0211914404835
 20
170.1466948774313
 30
0.0
 40
30.0
100
AcDbArc
 50
0.0
 51
40.21909874455667
  0
ARC
  5
177
330
1F
100
AcDbEntity
  8
9
  6
Continuous
 62
     7
370
    35
100
AcDbCircle
 10
84.0211914404835
 20
201.6001298595704
 30
0.0
 40
1.0
100
AcDbArc
 50
319.7809012554437
 51
340.987490620822
  0
ARC
  5
178
330
1F
100
AcDbEntity
  8
9
  6
Continuous
 62
     7
370
    35
100
AcDbCircle
 10
96.0211914404835
 20
201.6001298595704
 30
0.0
 40
1.0
100
AcDbArc
 50
199.0125093791773
 51
220.2190987445532
  0
LINE
  5
179
330
1F
100
AcDbEntity
  8
9
  6
Continuous
 62
     7
370
    35
100
AcDbLine
 10
81.69014042982707
 20
152.4059692490782
 30
0.0
 11
81.69014042982707
 21
156.4351417155688
 31
0.0
  0
ARC
  5
17A
330
1F
100
AcDbEntity
  8
9
  6
Continuous
 62
     7
370
    35
100
AcDbCircle
 10
84.96049648815955
 20
169.5599211865066
 30
0.0
 40
11.0
100
AcDbArc
 50
186.0216771926336
 51
245.4807912689809
  0
ARC
  5
17B
330
1F
100
AcDbEntity
  8
9
  6
Continuous
 62
     7
370
    35
100
AcDbCircle
 10
80.72751394078153
 20
160.2797348331204
 30
0.0
 40
0.7999999999999545
100
AcDbArc
 50
245.4807912689805
 51
269.9999999999834
  0
ARC
  5
17C
330
1F
100
AcDbEntity
  8
9
  6
Continuous
 62
     7
370
    35
100
AcDbCircle
 10
95.08188639280792
 20
169.5599211865066
 30
0.0
 40
11.0
100
AcDbArc
 50
294.5192087310184
 51
353.9783228073657
  0
ARC
  5
17D
330
1F
100
AcDbEntity
  8
9
  6
Continuous
 62
     7
370
    35
100
AcDbCircle
 10
99.31486894018548
 20
160.2797348331204
 30
0.0
 40
0.7999999999999545
100
AcDbArc
 50
269.9999999999998
 51
294.5192087310188
  0
LINE
  5
17E
330
1F
100
AcDbEntity
  8
9
  6
Continuous
 62
     7
370
    35
100
AcDbLine
 10
82.57612498032171
 20
156.4059692490782
 30
0.0
 11
82.57612498032171
 21
158.2351417155647
 31
0.0
  0
ARC
  5
17F
330
1F
100
AcDbEntity
  8
9
  6
Continuous
 62
     7
370
    35
100
AcDbCircle
 10
85.0211914404835
 20
168.4059692490782
 30
0.0
 40
15.0
100
AcDbArc
 50
179.9999999999998
 51
233.3170111996395
  0
ARC
  5
180
330
1F
100
AcDbEntity
  8
9
  6
Continuous
 62
     7
370
    35
100
AcDbCircle
 10
98.0211914404835
 20
170.1466948774313
 30
0.0
 40
26.0
100
AcDbArc
 50
156.1811586065443
 51
179.9999999999998
  0
ARC
  5
181
330
1F
100
AcDbEntity
  8
9
  6
Continuous
 62
     7
370
    35
100
AcDbCircle
 10
98.0211914404835
 20
170.1466948774313
 30
0.0
 40
28.0
100
AcDbArc
 50
157.975687162958
 51
179.9999999999998
  0
ARC
  5
182
330
1F
100
AcDbEntity
  8
9
  6
Continuous
 62
     7
370
    35
100
AcDbCircle
 10
82.75433969605405
 20
168.9822733028066
 30
0.0
 40
10.74860911180576
100
AcDbArc
 50
183.073479620749
 51
269.049977643577
  0
ARC
  5
183
330
1F
100
AcDbEntity
  8
9
  6
Continuous
 62
     7
370
    35
100
AcDbCircle
 10
76.13344290881508
 20
149.2628519207019
 30
0.0
 40
6.498907295833078
100
AcDbArc
 50
39.10096087449591
 51
75.32091994779974
  0
ARC
  5
184
330
1F
100
AcDbEntity
  8
9
  6
Continuous
 62
     7
370
    35
100
AcDbCircle
 10
73.2711914404835
 20
196.1466948774313
 30
0.0
 40
12.5
100
AcDbArc
 50
343.7397952916877
 51
16.26020470831221
  0
ARC
  5
185
330
1F
100
AcDbEntity
  8
9
  6
Continuous
 62
     7
370
    35
100
AcDbCircle
 10
79.04732071755888
 20
160.3864388023635
 30
0.0
 40
5.0
100
AcDbArc
 50
233.3170111996386
 51
255.3209199477997
  0
LINE
  5
186
330
1F
100
AcDbEntity
  8
9
  6
Continuous
 62
     7
370
    35
100
AcDbLine
 10
79.35767708615771
 20
150.5181311309694
 30
0.0
 11
79.7431372125713
 21
138.1840234769904
 31
0.0
  0
LINE
  5
187
330
1F
100
AcDbEntity
  8
9
  6
Continuous
 62
     7
370
    35
100
AcDbLine
 10
81.5211914404835
 20
136.4059692490782
 30
0.0
 11
79.7431372125713
 21
138.1840234769904
 31
0.0
  0
LINE
  5
188
330
1F
100
AcDbEntity
  8
9
  6
Continuous
 62
     7
370
    35
100
AcDbLine
 10
81.5211914404835
 20
136.4059692490782
 30
0.0
 11
98.5211914404835
 21
136.4059692490782
 31
0.0
  0
LINE
  5
189
330
1F
100
AcDbEntity
  8
9
  6
Continuous
 62
     7
370
    35
100
AcDbLine
 10
98.5211914404835
 20
136.4059692490782
 30
0.0
 11
100.2992456683959
 21
138.1840234769904
 31
0.0
  0
LINE
  5
18A
330
1F
100
AcDbEntity
  8
9
  6
Continuous
 62
     7
370
    35
100
AcDbLine
 10
100.2992456683959
 20
138.1840234769904
 30
0.0
 11
100.6847057948093
 21
150.5181311309694
 31
0.0
  0
LINE
  5
18B
330
1F
100
AcDbEntity
  8
9
  6
Continuous
 62
     7
370
    35
100
AcDbLine
 10
100.6847057948093
 20
150.5181311309695
 30
0.0
 11
99.5211914404835
 21
150.9059692490782
 31
0.0
  0
LINE
  5
18C
330
1F
100
AcDbEntity
  8
9
  6
Continuous
 62
     7
370
    35
100
AcDbLine
 10
79.35767708615771
 20
150.5181311309695
 30
0.0
 11
80.5211914404835
 21
150.9059692490782
 31
0.0
  0
LINE
  5
18D
330
1F
100
AcDbEntity
  8
8
  6
Continuous
 62
     4
370
    25
100
AcDbLine
 10
99.09975986375792
 20
136.9845376723526
 30
0.0
 11
99.5346857687436
 21
150.9014711396582
 31
0.0
  0
LINE
  5
18E
330
1F
100
AcDbEntity
  8
8
  6
Continuous
 62
     4
370
    25
100
AcDbLine
 10
80.94262301720931
 20
136.9845376723526
 30
0.0
 11
80.50769711222341
 21
150.9014711396582
 31
0.0
  0
LINE
  5
18F
330
1F
100
AcDbEntity
  8
9
  6
Continuous
 62
     7
370
    35
100
AcDbLine
 10
79.35767708615771
 20
150.5181311309695
 30
0.0
 11
100.6847057948093
 21
150.5181311309695
 31
0.0
  0
LINE
  5
190
330
1F
100
AcDbEntity
  8
9
  6
Continuous
 62
     7
370
    35
100
AcDbLine
 10
79.27662879394546
 20
152.4059692490782
 30
0.0
 11
85.46025354110583
 21
152.4059692490782
 31
0.0
  0
LINE
  5
191
330
1F
100
AcDbEntity
  8
9
  6
Continuous
 62
     7
370
    35
100
AcDbLine
 10
88.5211914404835
 20
156.4351417155688
 30
0.0
 11
88.5211914404835
 21
158.2059692490783
 31
0.0
  0
ARC
  5
192
330
1F
100
AcDbEntity
  8
9
  6
Continuous
 62
     7
370
    35
100
AcDbCircle
 10
95.0211914404835
 20
168.4059692490782
 30
0.0
 40
15.0
100
AcDbArc
 50
306.6829888003653
 51
0.0
  0
ARC
  5
193
330
1F
100
AcDbEntity
  8
9
  6
Continuous
 62
     7
370
    35
100
AcDbCircle
 10
97.28804318491342
 20
168.9822733028066
 30
0.0
 40
10.74860911180576
100
AcDbArc
 50
270.9500223564175
 51
356.9265203792502
  0
ARC
  5
194
330
1F
100
AcDbEntity
  8
9
  6
Continuous
 62
     7
370
    35
100
AcDbCircle
 10
103.9089399721519
 20
149.2628519207019
 30
0.0
 40
6.498907295833078
100
AcDbArc
 50
104.6790800522023
 51
140.8990391255013
  0
LINE
  5
195
330
1F
100
AcDbEntity
  8
9
  6
Continuous
 62
     7
370
    35
100
AcDbLine
 10
100.7657540870218
 20
152.4059692490782
 30
0.0
 11
94.58212933986164
 21
152.4059692490782
 31
0.0
  0
LINE
  5
196
330
1F
100
AcDbEntity
  8
9
  6
Continuous
 62
     7
370
    35
100
AcDbLine
 10
91.5211914404835
 20
156.4351417155688
 30
0.0
 11
91.5211914404835
 21
158.2059692490783
 31
0.0
  0
ARC
  5
197
330
1F
100
AcDbEntity
  8
9
  6
Continuous
 62
     7
370
    35
100
AcDbCircle
 10
100.9950621634084
 20
160.3864388023635
 30
0.0
 40
5.0
100
AcDbArc
 50
284.6790800522024
 51
306.6829888003648
  0
LINE
  5
198
330
1F
100
AcDbEntity
  8
9
  6
Continuous
 62
     7
370
    35
100
AcDbLine
 10
98.35224245114017
 20
152.4059692490782
 30
0.0
 11
98.35224245114017
 21
156.4351417155688
 31
0.0
  0
ARC
  5
199
330
1F
100
AcDbEntity
  8
9
  6
Continuous
 62
     7
370
    35
100
AcDbCircle
 10
90.0211914404835
 20
154.5351417155688
 30
0.0
 40
9.400000000000091
100
AcDbArc
 50
73.22525573592057
 51
106.7747442640953
  0
LINE
  5
19A
330
1F
100
AcDbEntity
  8
9
  6
Continuous
 62
     7
370
    35
100
AcDbLine
 10
97.46625790064576
 20
156.4059692490782
 30
0.0
 11
97.46625790064576
 21
158.2351417155647
 31
0.0
  0
ARC
  5
19B
330
1F
100
AcDbEntity
  8
9
  6
Continuous
 62
     7
370
    35
100
AcDbCircle
 10
82.0211914404835
 20
170.1466948774313
 30
0.0
 40
26.0
100
AcDbArc
 50
0.0
 51
23.81884139345549
  0
ARC
  5
19C
330
1F
100
AcDbEntity
  8
9
  6
Continuous
 62
     7
370
    35
100
AcDbCircle
 10
82.0211914404835
 20
170.1466948774313
 30
0.0
 40
28.0
100
AcDbArc
 50
0.0
 51
22.02431283704305
  0
LINE
  5
19D
330
1F
100
AcDbEntity
  8
9
  6
Continuous
 62
     7
370
    35
100
AcDbLine
 10
112.0211914404835
 20
168.4059692490782
 30
0.0
 11
112.0211914404835
 21
170.1466948774313
 31
0.0
  0
LINE
  5
19E
330
1F
100
AcDbEntity
  8
9
  6
Continuous
 62
     7
370
    35
100
AcDbLine
 10
110.0211914404835
 20
168.4059692490782
 30
0.0
 11
110.0211914404835
 21
170.1466948774313
 31
0.0
  0
LINE
  5
19F
330
1F
100
AcDbEntity
  8
9
  6
Continuous
 62
     7
370
    35
100
AcDbLine
 10
108.0211914404835
 20
168.4059692490782
 30
0.0
 11
108.0211914404835
 21
170.1466948774313
 31
0.0
  0
LINE
  5
1A0
330
1F
100
AcDbEntity
  8
9
  6
Continuous
 62
     7
370
    35
100
AcDbLine
 10
106.0211914404835
 20
168.4059692490785
 30
0.0
 11
106.0211914404835
 21
170.1466948774313
 31
0.0
  0
LINE
  5
1A1
330
1F
100
AcDbEntity
  8
9
  6
Continuous
 62
     7
370
    35
100
AcDbLine
 10
68.0211914404835
 20
168.4059692490782
 30
0.0
 11
68.0211914404835
 21
170.1466948774313
 31
0.0
  0
LINE
  5
1A2
330
1F
100
AcDbEntity
  8
9
  6
Continuous
 62
     7
370
    35
100
AcDbLine
 10
70.0211914404835
 20
168.4059692490782
 30
0.0
 11
70.0211914404835
 21
170.1466948774313
 31
0.0
  0
LINE
  5
1A3
330
1F
100
AcDbEntity
  8
9
  6
Continuous
 62
     7
370
    35
100
AcDbLine
 10
72.0211914404835
 20
168.4059692490782
 30
0.0
 11
72.0211914404835
 21
170.1466948774313
 31
0.0
  0
LINE
  5
1A4
330
1F
100
AcDbEntity
  8
9
  6
Continuous
 62
     7
370
    35
100
AcDbLine
 10
74.0211914404835
 20
168.4059692490785
 30
0.0
 11
74.0211914404835
 21
170.1466948774313
 31
0.0
  0
LINE
  5
1A5
330
1F
100
AcDbEntity
  8
9
  6
Continuous
 62
     7
370
    35
100
AcDbLine
 10
85.52119144048373
 20
176.2881439362907
 30
0.0
 11
85.52119144048373
 21
172.5381439362907
 31
0.0
  0
LINE
  5
1A6
330
1F
100
AcDbEntity
  8
9
  6
Continuous
 62
     7
370
    35
100
AcDbLine
 10
87.5211914404835
 20
177.3988749573104
 30
0.0
 11
87.5211914404835
 21
173.7301677346415
 31
0.0
  0
LINE
  5
1A7
330
1F
100
AcDbEntity
  8
9
  6
Continuous
 62
     7
370
    35
100
AcDbLine
 10
94.52119144048373
 20
176.2881439362907
 30
0.0
 11
94.52119144048373
 21
172.5381439362907
 31
0.0
  0
LINE
  5
1A8
330
1F
100
AcDbEntity
  8
9
  6
Continuous
 62
     7
370
    35
100
AcDbLine
 10
92.5211914404835
 20
177.3988749573104
 30
0.0
 11
92.5211914404835
 21
173.7301677346415
 31
0.0
  0
ARC
  5
1A9
330
1F
100
AcDbEntity
  8
9
  6
Continuous
 62
     7
370
    35
100
AcDbCircle
 10
97.5211914404835
 20
177.7454470848149
 30
0.0
 40
4.0
100
AcDbArc
 50
274.9999999999995
 51
0.0
  0
LINE
  5
1AA
330
1F
100
AcDbEntity
  8
9
  6
Continuous
 62
     7
370
    35
100
AcDbLine
 10
97.52119144048373
 20
177.5381439362908
 30
0.0
 11
97.52119144048373
 21
172.5381439362907
 31
0.0
  0
LINE
  5
1AB
330
1F
100
AcDbEntity
  8
9
  6
Continuous
 62
     7
370
    35
100
AcDbLine
 10
91.5618298958006
 20
169.5604607752564
 30
0.0
 11
92.5211914404835
 21
182.9915224008173
 31
0.0
  0
LINE
  5
1AC
330
1F
100
AcDbEntity
  8
9
  6
Continuous
 62
     7
370
    35
100
AcDbLine
 10
82.52119144048373
 20
177.5381439362908
 30
0.0
 11
82.52119144048373
 21
172.5381439362907
 31
0.0
  0
ARC
  5
1AD
330
1F
100
AcDbEntity
  8
9
  6
Continuous
 62
     7
370
    35
100
AcDbCircle
 10
82.5211914404835
 20
177.7454470848149
 30
0.0
 40
4.0
100
AcDbArc
 50
179.9999999999998
 51
264.9999999999998
  0
LINE
  5
1AE
330
1F
100
AcDbEntity
  8
9
  6
Continuous
 62
     7
370
    35
100
AcDbLine
 10
87.5211914404835
 20
182.9915224008173
 30
0.0
 11
88.48055298516641
 21
169.5604607752564
 31
0.0
  0
LINE
  5
1AF
330
1F
100
AcDbEntity
  8
9
  6
Continuous
 62
     7
370
    35
100
AcDbLine
 10
88.02119144048373
 20
168.6381439362907
 30
0.0
 11
88.02119144048373
 21
165.8248067296728
 31
0.0
  0
LINE
  5
1B0
330
1F
100
AcDbEntity
  8
9
  6
Continuous
 62
     7
370
    35
100
AcDbLine
 10
88.2711914404835
 20
167.0480902736604
 30
0.0
 11
88.2711914404835
 21
169.5604607752564
 31
0.0
  0
ARC
  5
1B1
330
1F
100
AcDbEntity
  8
9
  6
Continuous
 62
     7
370
    35
100
AcDbCircle
 10
96.02119144048373
 20
172.5381439362907
 30
0.0
 40
13.5
100
AcDbArc
 50
179.9999999999998
 51
221.82741212371
  0
LINE
  5
1B2
330
1F
100
AcDbEntity
  8
9
  6
Continuous
 62
     7
370
    35
100
AcDbLine
 10
92.02119144048373
 20
168.6381439362907
 30
0.0
 11
92.02119144048373
 21
165.8248067296728
 31
0.0
  0
LINE
  5
1B3
330
1F
100
AcDbEntity
  8
9
  6
Continuous
 62
     7
370
    35
100
AcDbLine
 10
91.7711914404835
 20
169.5604607752564
 30
0.0
 11
91.7711914404835
 21
167.0480902736604
 31
0.0
  0
ARC
  5
1B4
330
1F
100
AcDbEntity
  8
9
  6
Continuous
 62
     7
370
    35
100
AcDbCircle
 10
84.02119144048373
 20
172.5381439362907
 30
0.0
 40
13.5
100
AcDbArc
 50
318.1725878762892
 51
0.0
  0
ARC
  5
1B5
330
1F
100
AcDbEntity
  8
9
  6
Continuous
 62
     7
370
    35
100
AcDbCircle
 10
88.32119144048369
 20
167.6206107188272
 30
0.0
 40
0.2999999999999545
100
AcDbArc
 50
179.9999999999998
 51
260.4059317731471
  0
ARC
  5
1B6
330
1F
100
AcDbEntity
  8
9
  6
Continuous
 62
     7
370
    35
100
AcDbCircle
 10
91.72119144048378
 20
167.6206107188272
 30
0.0
 40
0.2999999999999545
100
AcDbArc
 50
279.5940682268504
 51
0.0
  0
LINE
  5
1B7
330
1F
100
AcDbEntity
  8
9
  6
Continuous
 62
     7
370
    35
100
AcDbLine
 10
91.7711914404835
 20
167.0480902736604
 30
0.0
 11
88.2711914404835
 21
167.0480902736604
 31
0.0
  0
LINE
  5
1B8
330
1F
100
AcDbEntity
  8
9
  6
Continuous
 62
     7
370
    35
100
AcDbLine
 10
85.09449601073646
 20
164.6098826524064
 30
0.0
 11
94.94402501331882
 21
164.6098826524063
 31
0.0
  0
LINE
  5
1B9
330
1F
100
AcDbEntity
  8
9
  6
Continuous
 62
     7
370
    35
100
AcDbLine
 10
85.5211914404835
 20
173.9054794337209
 30
0.0
 11
87.5211914404835
 21
174.0807911328003
 31
0.0
  0
ARC
  5
1BA
330
1F
100
AcDbEntity
  8
9
  6
Continuous
 62
     7
370
    35
100
AcDbCircle
 10
90.0211914404835
 20
192.9163597845853
 30
0.0
 40
19.348384050802
100
AcDbArc
 50
262.5760704103707
 51
264.56352505831
  0
LINE
  5
1BB
330
1F
100
AcDbEntity
  8
9
  6
Continuous
 62
     7
370
    35
100
AcDbLine
 10
85.5211914404835
 20
173.4544725933039
 30
0.0
 11
88.2193025137546
 21
173.2179673750238
 31
0.0
  0
LINE
  5
1BC
330
1F
100
AcDbEntity
  8
9
  6
Continuous
 62
     7
370
    35
100
AcDbLine
 10
85.5211914404835
 20
173.554856035562
 30
0.0
 11
88.21208709116485
 21
173.3189832912788
 31
0.0
  0
ARC
  5
1BD
330
1F
100
AcDbEntity
  8
9
  6
Continuous
 62
     7
370
    35
100
AcDbCircle
 10
87.81532251079437
 20
170.1856500065839
 30
0.0
 40
0.6441310703105501
100
AcDbArc
 50
179.9999999999998
 51
256.3408948147106
  0
ARC
  5
1BE
330
1F
100
AcDbEntity
  8
9
  6
Continuous
 62
     7
370
    35
100
AcDbCircle
 10
90.0211914404835
 20
165.0465796340474
 30
0.0
 40
5.0
100
AcDbArc
 50
116.3208098216044
 51
120.0000000000001
  0
LINE
  5
1BF
330
1F
100
AcDbEntity
  8
9
  6
Continuous
 62
     7
370
    35
100
AcDbLine
 10
86.75923543236462
 20
168.9367911465716
 30
0.0
 11
87.5211914404835
 21
169.3767066529696
 31
0.0
  0
LINE
  5
1C0
330
1F
100
AcDbEntity
  8
9
  6
Continuous
 62
     7
370
    35
100
AcDbLine
 10
87.29422174877521
 20
168.8381439362907
 30
0.0
 11
87.82119144048369
 21
168.8381439362907
 31
0.0
  0
LINE
  5
1C1
330
1F
100
AcDbEntity
  8
9
  6
Continuous
 62
     7
370
    35
100
AcDbLine
 10
87.1711914404836
 20
170.1856500065839
 30
0.0
 11
87.1711914404836
 21
170.3420923520536
 31
0.0
  0
ARC
  5
1C2
330
1F
100
AcDbEntity
  8
9
  6
Continuous
 62
     7
370
    35
100
AcDbCircle
 10
88.59075508414634
 20
173.3764982590759
 30
0.0
 40
3.92784973156144
100
AcDbArc
 50
256.3408947999748
 51
261.4373878308793
  0
ARC
  5
1C3
330
1F
100
AcDbEntity
  8
9
  6
Continuous
 62
     7
370
    35
100
AcDbCircle
 10
89.4451013022487
 20
179.0506392105173
 30
0.0
 40
9.665948981062792
100
AcDbArc
 50
261.4373878180356
 51
263.0243237136814
  0
ARC
  5
1C4
330
1F
100
AcDbEntity
  8
9
  6
Continuous
 62
     7
370
    35
100
AcDbCircle
 10
87.82119144048369
 20
168.6381439362907
 30
0.0
 40
0.2000000000000455
100
AcDbArc
 50
0.0
 51
89.99999999999991
  0
ARC
  5
1C5
330
1F
100
AcDbEntity
  8
9
  6
Continuous
 62
     7
370
    35
100
AcDbCircle
 10
90.0211914404835
 20
189.4794240724719
 30
0.0
 40
19.348384050802
100
AcDbArc
 50
261.0802048236743
 51
265.2980166010549
  0
ARC
  5
1C6
330
1F
100
AcDbEntity
  8
9
  6
Continuous
 62
     7
370
    35
100
AcDbCircle
 10
87.29422174877521
 20
170.3381439362907
 30
0.0
 40
1.5
100
AcDbArc
 50
194.149004508935
 51
269.9999999999998
  0
ARC
  5
1C7
330
1F
100
AcDbEntity
  8
9
  6
Continuous
 62
     7
370
    35
100
AcDbCircle
 10
96.02119144048373
 20
172.5381439362907
 30
0.0
 40
10.5
100
AcDbArc
 50
179.9999999999998
 51
194.1490045089335
  0
LINE
  5
1C8
330
1F
100
AcDbEntity
  8
9
  6
Continuous
 62
     7
370
    35
100
AcDbLine
 10
87.0211914404835
 20
170.3650324949896
 30
0.0
 11
87.0211914404835
 21
173.3229888189943
 31
0.0
  0
LINE
  5
1C9
330
1F
100
AcDbEntity
  8
9
  6
Continuous
 62
     7
370
    35
100
AcDbLine
 10
94.52119144048373
 20
173.9054794337209
 30
0.0
 11
92.5211914404835
 21
174.0807911328004
 31
0.0
  0
ARC
  5
1CA
330
1F
100
AcDbEntity
  8
9
  6
Continuous
 62
     7
370
    35
100
AcDbCircle
 10
90.0211914404835
 20
192.9163597845853
 30
0.0
 40
19.348384050802
100
AcDbArc
 50
275.4364749416892
 51
277.4239295896286
  0
LINE
  5
1CB
330
1F
100
AcDbEntity
  8
9
  6
Continuous
 62
     7
370
    35
100
AcDbLine
 10
94.52119144048373
 20
173.554856035562
 30
0.0
 11
91.83029578980216
 21
173.3189832912788
 31
0.0
  0
LINE
  5
1CC
330
1F
100
AcDbEntity
  8
9
  6
Continuous
 62
     7
370
    35
100
AcDbLine
 10
94.52119144048373
 20
173.4544725933039
 30
0.0
 11
91.82308036721264
 21
173.2179673750238
 31
0.0
  0
ARC
  5
1CD
330
1F
100
AcDbEntity
  8
9
  6
Continuous
 62
     7
370
    35
100
AcDbCircle
 10
92.22706037017309
 20
170.1856500065839
 30
0.0
 40
0.6441310703105501
100
AcDbArc
 50
283.6591051853089
 51
0.0
  0
ARC
  5
1CE
330
1F
100
AcDbEntity
  8
9
  6
Continuous
 62
     7
370
    35
100
AcDbCircle
 10
90.59728159096807
 20
179.0506391215188
 30
0.0
 40
9.665948891226483
100
AcDbArc
 50
276.975676278313
 51
278.5626121887078
  0
ARC
  5
1CF
330
1F
100
AcDbEntity
  8
9
  6
Continuous
 62
     7
370
    35
100
AcDbCircle
 10
91.45162779529568
 20
173.3764982696297
 30
0.0
 40
3.927849742217507
100
AcDbArc
 50
278.5626121681947
 51
283.659105185289
  0
ARC
  5
1D0
330
1F
100
AcDbEntity
  8
9
  6
Continuous
 62
     7
370
    35
100
AcDbCircle
 10
90.0211914404835
 20
165.0465796340474
 30
0.0
 40
5.0
100
AcDbArc
 50
59.99999999999994
 51
63.67919017838712
  0
LINE
  5
1D1
330
1F
100
AcDbEntity
  8
9
  6
Continuous
 62
     7
370
    35
100
AcDbLine
 10
92.74816113219225
 20
168.8381439362907
 30
0.0
 11
92.22119144048378
 21
168.8381439362907
 31
0.0
  0
LINE
  5
1D2
330
1F
100
AcDbEntity
  8
9
  6
Continuous
 62
     7
370
    35
100
AcDbLine
 10
92.87119144048364
 20
170.3420923520536
 30
0.0
 11
92.87119144048364
 21
170.1856500065839
 31
0.0
  0
ARC
  5
1D3
330
1F
100
AcDbEntity
  8
9
  6
Continuous
 62
     7
370
    35
100
AcDbCircle
 10
90.0211914404835
 20
189.4794240724719
 30
0.0
 40
19.348384050802
100
AcDbArc
 50
274.7019833989444
 51
278.919795176325
  0
ARC
  5
1D4
330
1F
100
AcDbEntity
  8
9
  6
Continuous
 62
     7
370
    35
100
AcDbCircle
 10
92.22119144048378
 20
168.6381439362907
 30
0.0
 40
0.2000000000000455
100
AcDbArc
 50
89.99999999999991
 51
179.9999999999998
  0
LINE
  5
1D5
330
1F
100
AcDbEntity
  8
9
  6
Continuous
 62
     7
370
    35
100
AcDbLine
 10
93.28314744860239
 20
168.9367911465715
 30
0.0
 11
92.5211914404835
 21
169.3767066529696
 31
0.0
  0
ARC
  5
1D6
330
1F
100
AcDbEntity
  8
9
  6
Continuous
 62
     7
370
    35
100
AcDbCircle
 10
92.74816113219225
 20
170.3381439362907
 30
0.0
 40
1.5
100
AcDbArc
 50
269.9999999999998
 51
345.8509954910642
  0
ARC
  5
1D7
330
1F
100
AcDbEntity
  8
9
  6
Continuous
 62
     7
370
    35
100
AcDbCircle
 10
84.02119144048373
 20
172.5381439362907
 30
0.0
 40
10.5
100
AcDbArc
 50
345.8509954910649
 51
0.0
  0
LINE
  5
1D8
330
1F
100
AcDbEntity
  8
9
  6
Continuous
 62
     7
370
    35
100
AcDbLine
 10
93.0211914404835
 20
170.3650324949896
 30
0.0
 11
93.0211914404835
 21
173.3229888189943
 31
0.0
  0
LINE
  5
1D9
330
1F
100
AcDbEntity
  8
9
  6
Continuous
 62
     7
370
    35
100
AcDbLine
 10
88.2711914404835
 20
169.5604607752564
 30
0.0
 11
91.7711914404835
 21
169.5604607752564
 31
0.0
  0
LINE
  5
1DA
330
1F
100
AcDbEntity
  8
9
  6
Continuous
 62
     7
370
    35
100
AcDbLine
 10
88.2711914404835
 20
168.7772896350923
 30
0.0
 11
91.7711914404835
 21
168.7772896350923
 31
0.0
  0
LINE
  5
1DB
330
1F
100
AcDbEntity
  8
9
  6
Continuous
 62
     7
370
    35
100
AcDbLine
 10
82.5211914404835
 20
173.7301677346415
 30
0.0
 11
82.17256846949289
 21
173.7606682924479
 31
0.0
  0
LINE
  5
1DC
330
1F
100
AcDbEntity
  8
9
  6
Continuous
 62
     7
370
    35
100
AcDbLine
 10
97.52119144048373
 20
173.7301677346415
 30
0.0
 11
97.86981441147412
 21
173.7606682924479
 31
0.0
  0
LINE
  5
1DD
330
1F
100
AcDbEntity
  8
9
  6
Continuous
 62
     7
370
    35
100
AcDbLine
 10
96.5211914404835
 20
182.6371634498837
 30
0.0
 11
96.5211914404835
 21
186.3485322737432
 31
0.0
  0
ARC
  5
1DE
330
1F
100
AcDbEntity
  8
9
  6
Continuous
 62
     7
370
    35
100
AcDbCircle
 10
94.0211914404835
 20
182.9915224008173
 30
0.0
 40
1.5
100
AcDbArc
 50
104.2500326978068
 51
179.9999999999998
  0
ARC
  5
1DF
330
1F
100
AcDbEntity
  8
9
  6
Continuous
 62
     7
370
    35
100
AcDbCircle
 10
84.02119144048373
 20
177.5381439362908
 30
0.0
 40
13.5
100
AcDbArc
 50
0.0
 51
42.20544640373083
  0
LINE
  5
1E0
330
1F
100
AcDbEntity
  8
9
  6
Continuous
 62
     7
370
    35
100
AcDbLine
 10
83.5211914404835
 20
182.6371634498837
 30
0.0
 11
83.5211914404835
 21
186.3485322737432
 31
0.0
  0
ARC
  5
1E1
330
1F
100
AcDbEntity
  8
9
  6
Continuous
 62
     7
370
    35
100
AcDbCircle
 10
86.0211914404835
 20
182.9915224008173
 30
0.0
 40
1.5
100
AcDbArc
 50
0.0
 51
75.74996730220215
  0
ARC
  5
1E2
330
1F
100
AcDbEntity
  8
9
  6
Continuous
 62
     7
370
    35
100
AcDbCircle
 10
96.02119144048373
 20
177.5381439362908
 30
0.0
 40
13.5
100
AcDbArc
 50
137.7945535962692
 51
179.9999999999998
  0
ARC
  5
1E3
330
1F
100
AcDbEntity
  8
9
  6
Continuous
 62
     7
370
    35
100
AcDbCircle
 10
90.79312411303789
 20
153.2927561726357
 30
0.0
 40
24.9030639964043
100
AcDbArc
 50
85.73260694270779
 51
86.81694511202241
  0
LINE
  5
1E4
330
1F
100
AcDbEntity
  8
9
  6
Continuous
 62
     7
370
    35
100
AcDbLine
 10
93.02119144048373
 20
177.7881439362907
 30
0.0
 11
92.64619144048373
 21
177.7881439362907
 31
0.0
  0
ARC
  5
1E5
330
1F
100
AcDbEntity
  8
9
  6
Continuous
 62
     7
370
    35
100
AcDbCircle
 10
92.64619144048373
 20
177.4881439362907
 30
0.0
 40
1.200000000000045
100
AcDbArc
 50
89.99999999999991
 51
111.4232972478944
  0
ARC
  5
1E6
330
1F
100
AcDbEntity
  8
9
  6
Continuous
 62
     7
370
    35
100
AcDbCircle
 10
90.0211914404835
 20
196.5850670072542
 30
0.0
 40
19.348384050802
100
AcDbArc
 50
276.2222471731599
 51
277.4239295896286
  0
ARC
  5
1E7
330
1F
100
AcDbEntity
  8
9
  6
Continuous
 62
     7
370
    35
100
AcDbCircle
 10
90.02119144048373
 20
158.2126829073665
 30
0.0
 40
19.348384050802
100
AcDbArc
 50
82.5760704103711
 51
83.75739577137277
  0
ARC
  5
1E8
330
1F
100
AcDbEntity
  8
9
  6
Continuous
 62
     7
370
    35
100
AcDbCircle
 10
93.02119144048373
 20
176.2881439362907
 30
0.0
 40
1.5
100
AcDbArc
 50
0.0
 51
89.99999999999991
  0
LINE
  5
1E9
330
1F
100
AcDbEntity
  8
9
  6
Continuous
 62
     7
370
    35
100
AcDbLine
 10
87.02119144048373
 20
177.7881439362907
 30
0.0
 11
87.39619144048373
 21
177.7881439362907
 31
0.0
  0
ARC
  5
1EA
330
1F
100
AcDbEntity
  8
9
  6
Continuous
 62
     7
370
    35
100
AcDbCircle
 10
89.24925876761671
 20
153.2927561777101
 30
0.0
 40
24.90306399131764
100
AcDbArc
 50
93.18305488790696
 51
94.26739305744313
  0
ARC
  5
1EB
330
1F
100
AcDbEntity
  8
9
  6
Continuous
 62
     7
370
    35
100
AcDbCircle
 10
87.39619144048373
 20
177.4881439362907
 30
0.0
 40
1.200000000000045
100
AcDbArc
 50
68.57670275211566
 51
89.99999999999991
  0
ARC
  5
1EC
330
1F
100
AcDbEntity
  8
9
  6
Continuous
 62
     7
370
    35
100
AcDbCircle
 10
90.0211914404835
 20
196.5850670072542
 30
0.0
 40
19.348384050802
100
AcDbArc
 50
262.5760704103707
 51
263.7777528268394
  0
ARC
  5
1ED
330
1F
100
AcDbEntity
  8
9
  6
Continuous
 62
     7
370
    35
100
AcDbCircle
 10
90.02119144048373
 20
158.2126829073665
 30
0.0
 40
19.348384050802
100
AcDbArc
 50
96.24260422862724
 51
97.4239295896289
  0
ARC
  5
1EE
330
1F
100
AcDbEntity
  8
9
  6
Continuous
 62
     7
370
    35
100
AcDbCircle
 10
87.02119144048373
 20
176.2881439362907
 30
0.0
 40
1.5
100
AcDbArc
 50
89.99999999999991
 51
179.9999999999998
  0
LINE
  5
1EF
330
1F
100
AcDbEntity
  8
9
  6
Continuous
 62
     7
370
    35
100
AcDbLine
 10
92.64619144048373
 20
177.7881439362907
 30
0.0
 11
92.64619144048373
 21
182.2881439362908
 31
0.0
  0
ARC
  5
1F0
330
1F
100
AcDbEntity
  8
9
  6
Continuous
 62
     7
370
    35
100
AcDbCircle
 10
79.5211914404835
 20
181.2015715249416
 30
0.0
 40
1.0
100
AcDbArc
 50
85.00000000000026
 51
179.9999999999998
  0
LINE
  5
1F1
330
1F
100
AcDbEntity
  8
9
  6
Continuous
 62
     7
370
    35
100
AcDbLine
 10
83.23851451682816
 20
181.8801677346415
 30
0.0
 11
79.60834718323116
 21
182.1977662230333
 31
0.0
  0
LINE
  5
1F2
330
1F
100
AcDbEntity
  8
9
  6
Continuous
 62
     7
370
    35
100
AcDbLine
 10
78.5211914404835
 20
181.2015715249416
 30
0.0
 11
78.5211914404835
 21
177.7454470848149
 31
0.0
  0
LINE
  5
1F3
330
1F
100
AcDbEntity
  8
9
  6
Continuous
 62
     7
370
    35
100
AcDbLine
 10
87.39619144048373
 20
177.7881439362907
 30
0.0
 11
87.39619144048373
 21
182.2881439362908
 31
0.0
  0
LINE
  5
1F4
330
1F
100
AcDbEntity
  8
9
  6
Continuous
 62
     7
370
    35
100
AcDbLine
 10
101.5211914404835
 20
181.2015715249416
 30
0.0
 11
101.5211914404835
 21
177.7454470848149
 31
0.0
  0
ARC
  5
1F5
330
1F
100
AcDbEntity
  8
9
  6
Continuous
 62
     7
370
    35
100
AcDbCircle
 10
100.5211914404835
 20
181.2015715249416
 30
0.0
 40
1.0
100
AcDbArc
 50
0.0
 51
95.00000000000004
  0
LINE
  5
1F6
330
1F
100
AcDbEntity
  8
9
  6
Continuous
 62
     7
370
    35
100
AcDbLine
 10
96.8038683641393
 20
181.8801677346415
 30
0.0
 11
100.4340356977359
 21
182.1977662230333
 31
0.0
  0
ARC
  5
1F7
330
1F
100
AcDbEntity
  8
9
  6
Continuous
 62
     7
370
    35
100
AcDbCircle
 10
95.5211914404835
 20
185.8146910472816
 30
0.0
 40
1.0
100
AcDbArc
 50
0.0
 51
84.94675184874936
  0
ARC
  5
1F8
330
1F
100
AcDbEntity
  8
9
  6
Continuous
 62
     7
370
    35
100
AcDbCircle
 10
94.25095597861144
 20
185.9624873935699
 30
0.0
 40
0.4866855046379897
100
AcDbArc
 50
118.170740229745
 51
175.8150838748761
  0
LINE
  5
1F9
330
1F
100
AcDbEntity
  8
9
  6
Continuous
 62
     7
370
    35
100
AcDbLine
 10
94.0211914404835
 20
186.9512307572394
 30
0.0
 11
95.60927296454105
 21
186.8108043165034
 31
0.0
  0
LINE
  5
1FA
330
1F
100
AcDbEntity
  8
9
  6
Continuous
 62
     7
370
    35
100
AcDbLine
 10
95.09192506033236
 20
185.26400033661
 30
0.0
 11
93.71186055773677
 21
185.26400033661
 31
0.0
  0
LINE
  5
1FB
330
1F
100
AcDbEntity
  8
9
  6
Continuous
 62
     7
370
    35
100
AcDbLine
 10
94.0211914404835
 20
188.7665913332084
 30
0.0
 11
94.0211914404835
 21
186.3915224008174
 31
0.0
  0
LINE
  5
1FC
330
1F
100
AcDbEntity
  8
9
  6
Continuous
 62
     7
370
    35
100
AcDbLine
 10
93.76556811205268
 20
185.9980035789279
 30
0.0
 11
93.65196067125288
 21
184.4453685546634
 31
0.0
  0
LINE
  5
1FD
330
1F
100
AcDbEntity
  8
9
  6
Continuous
 62
     7
370
    35
100
AcDbLine
 10
83.37119144048364
 20
186.3485322737432
 30
0.0
 11
83.5211914404835
 21
186.3485322737432
 31
0.0
  0
ARC
  5
1FE
330
1F
100
AcDbEntity
  8
9
  6
Continuous
 62
     7
370
    35
100
AcDbCircle
 10
84.5211914404835
 20
185.8146910472816
 30
0.0
 40
1.0
100
AcDbArc
 50
95.05324815125064
 51
179.9999999999998
  0
LINE
  5
1FF
330
1F
100
AcDbEntity
  8
9
  6
Continuous
 62
     7
370
    35
100
AcDbLine
 10
83.5211914404835
 20
183.3801677346415
 30
0.0
 11
83.37119144048364
 21
183.3801677346415
 31
0.0
  0
LINE
  5
200
330
1F
100
AcDbEntity
  8
9
  6
Continuous
 62
     7
370
    35
100
AcDbLine
 10
83.37119144048364
 20
183.3801677346415
 30
0.0
 11
83.37119144048364
 21
186.3485322737432
 31
0.0
  0
ARC
  5
201
330
1F
100
AcDbEntity
  8
9
  6
Continuous
 62
     7
370
    35
100
AcDbCircle
 10
85.7914269023558
 20
185.9624873935699
 30
0.0
 40
0.4866855046379897
100
AcDbArc
 50
4.184916125123951
 51
61.82925977025504
  0
LINE
  5
202
330
1F
100
AcDbEntity
  8
9
  6
Continuous
 62
     7
370
    35
100
AcDbLine
 10
86.0211914404835
 20
186.9512307572394
 30
0.0
 11
84.43310991642596
 21
186.8108043165034
 31
0.0
  0
LINE
  5
203
330
1F
100
AcDbEntity
  8
9
  6
Continuous
 62
     7
370
    35
100
AcDbLine
 10
86.33052232323047
 20
185.26400033661
 30
0.0
 11
84.95045782063511
 21
185.26400033661
 31
0.0
  0
LINE
  5
204
330
1F
100
AcDbEntity
  8
9
  6
Continuous
 62
     7
370
    35
100
AcDbLine
 10
86.0211914404835
 20
186.3915224008174
 30
0.0
 11
86.0211914404835
 21
188.7665913332084
 31
0.0
  0
LINE
  5
205
330
1F
100
AcDbEntity
  8
9
  6
Continuous
 62
     7
370
    35
100
AcDbLine
 10
86.0211914404835
 20
188.7665913332084
 30
0.0
 11
94.0211914404835
 21
188.7665913332084
 31
0.0
  0
LINE
  5
206
330
1F
100
AcDbEntity
  8
9
  6
Continuous
 62
     7
370
    35
100
AcDbLine
 10
86.39042220971436
 20
184.4453685546634
 30
0.0
 11
86.27681476891456
 21
185.9980035789279
 31
0.0
  0
ARC
  5
207
330
1F
100
AcDbEntity
  8
9
  6
Continuous
 62
     7
370
    35
100
AcDbCircle
 10
90.02197599597588
 20
189.7827954483038
 30
0.0
 40
1.599999999999909
100
AcDbArc
 50
320.5705531189581
 51
342.7537116970595
  0
ARC
  5
208
330
1F
100
AcDbEntity
  8
9
  6
Continuous
 62
     7
370
    35
100
AcDbCircle
 10
90.02197599597588
 20
189.7827954483038
 30
0.0
 40
1.599999999999909
100
AcDbArc
 50
197.3317314661417
 51
219.4294468810412
  0
LINE
  5
209
330
1F
100
AcDbEntity
  8
9
  6
Continuous
 62
     7
370
    35
100
AcDbLine
 10
96.5211914404835
 20
183.3801677346415
 30
0.0
 11
96.6711914404836
 21
183.3801677346415
 31
0.0
  0
LINE
  5
20A
330
1F
100
AcDbEntity
  8
9
  6
Continuous
 62
     7
370
    35
100
AcDbLine
 10
96.6711914404836
 20
183.3801677346415
 30
0.0
 11
96.6711914404836
 21
186.3485322737432
 31
0.0
  0
ARC
  5
20B
330
1F
100
AcDbEntity
  8
9
  6
Continuous
 62
     7
370
    35
100
AcDbCircle
 10
106.7711914404835
 20
196.1466948774313
 30
0.0
 40
12.5
100
AcDbArc
 50
163.7397952916883
 51
196.2602047083111
  0
LINE
  5
20C
330
1F
100
AcDbEntity
  8
9
  6
Continuous
 62
     7
370
    35
100
AcDbLine
 10
73.26748032277004
 20
200.1851417155688
 30
0.0
 11
72.46748032276986
 21
200.1851417155688
 31
0.0
  0
ARC
  5
20D
330
1F
100
AcDbEntity
  8
9
  6
Continuous
 62
     7
370
    35
100
AcDbCircle
 10
74.10895864561957
 20
201.8851417155689
 30
0.0
 40
1.299999999999955
100
AcDbArc
 50
89.99999999999991
 51
174.8427865251759
  0
ARC
  5
20E
330
1F
100
AcDbEntity
  8
9
  6
Continuous
 62
     7
370
    35
100
AcDbCircle
 10
72.46748032276986
 20
200.3851417155688
 30
0.0
 40
0.2000000000000455
100
AcDbArc
 50
183.9176963714607
 51
354.8427865251659
  0
LINE
  5
20F
330
1F
100
AcDbEntity
  8
9
  6
Continuous
 62
     7
370
    35
100
AcDbLine
 10
72.1496730497301
 20
202.0985308852554
 30
0.0
 11
72.26794767795985
 21
200.3714770291427
 31
0.0
  0
LINE
  5
210
330
1F
100
AcDbEntity
  8
9
  6
Continuous
 62
     7
370
    35
100
AcDbLine
 10
72.66667068321652
 20
200.3671639430395
 30
0.0
 11
72.81422130271602
 21
202.0019972370089
 31
0.0
  0
ARC
  5
211
330
1F
100
AcDbEntity
  8
9
  6
Continuous
 62
     7
370
    35
100
AcDbCircle
 10
95.18764239649812
 20
201.8851417155688
 30
0.0
 40
1.299999999999955
100
AcDbArc
 50
12.32083218587867
 51
89.99999999999991
  0
ARC
  5
212
330
1F
100
AcDbEntity
  8
9
  6
Continuous
 62
     7
370
    35
100
AcDbCircle
 10
95.31328924794474
 20
201.1851417155688
 30
0.0
 40
1.0
100
AcDbArc
 50
20.03172652528637
 51
89.99999999999991
  0
LINE
  5
213
330
1F
100
AcDbEntity
  8
9
  6
Continuous
 62
     7
370
    35
100
AcDbLine
 10
94.65358895737421
 20
203.1851417155688
 30
0.0
 11
95.18764239649812
 21
203.1851417155688
 31
0.0
  0
LINE
  5
214
330
1F
100
AcDbEntity
  8
9
  6
Continuous
 62
     7
370
    35
100
AcDbLine
 10
95.31328924794474
 20
202.1851417155688
 30
0.0
 11
93.38867789330692
 21
202.1851417155688
 31
0.0
  0
ARC
  5
215
330
1F
100
AcDbEntity
  8
9
  6
Continuous
 62
     7
370
    35
100
AcDbCircle
 10
94.65358895737421
 20
201.8851417155689
 30
0.0
 40
1.299999999999955
100
AcDbArc
 50
89.99999999999991
 51
168.8861928075061
  0
ARC
  5
216
330
1F
100
AcDbEntity
  8
9
  6
Continuous
 62
     7
370
    35
100
AcDbCircle
 10
92.40118909266556
 20
200.7851417155693
 30
0.0
 40
0.599999999999909
100
AcDbArc
 50
197.3059974608067
 51
269.9999999999998
  0
LINE
  5
217
330
1F
100
AcDbEntity
  8
9
  6
Continuous
 62
     7
370
    35
100
AcDbLine
 10
92.5011890926657
 20
200.1851417155688
 30
0.0
 11
92.40118909266556
 21
200.1851417155688
 31
0.0
  0
ARC
  5
218
330
1F
100
AcDbEntity
  8
9
  6
Continuous
 62
     7
370
    35
100
AcDbCircle
 10
92.5011890926657
 20
200.7851417155693
 30
0.0
 40
0.599999999999909
100
AcDbArc
 50
191.3188337273934
 51
348.886192807503
  0
LINE
  5
219
330
1F
100
AcDbEntity
  8
9
  6
Continuous
 62
     7
370
    35
100
AcDbLine
 10
93.37796884359335
 20
202.1357276794974
 30
0.0
 11
93.08993683748753
 21
200.6694866552947
 31
0.0
  0
ARC
  5
21A
330
1F
100
AcDbEntity
  8
9
  6
Continuous
 62
     7
370
    35
100
AcDbCircle
 10
89.58886026173326
 20
200.9851417155689
 30
0.0
 40
1.200000000000045
100
AcDbArc
 50
89.99999999999991
 51
162.6940025391988
  0
ARC
  5
21B
330
1F
100
AcDbEntity
  8
9
  6
Continuous
 62
     7
370
    35
100
AcDbCircle
 10
89.69905916619172
 20
201.8851417155688
 30
0.0
 40
1.299999999999955
100
AcDbArc
 50
89.99999999999991
 51
168.6811662726045
  0
LINE
  5
21C
330
1F
100
AcDbEntity
  8
9
  6
Continuous
 62
     7
370
    35
100
AcDbLine
 10
90.34332371477552
 20
203.1851417155688
 30
0.0
 11
89.69905916619172
 21
203.1851417155688
 31
0.0
  0
LINE
  5
21D
330
1F
100
AcDbEntity
  8
9
  6
Continuous
 62
     7
370
    35
100
AcDbLine
 10
88.21403158815787
 20
200.6066568280974
 30
0.0
 11
88.44318466202066
 21
201.3421114905126
 31
0.0
  0
LINE
  5
21E
330
1F
100
AcDbEntity
  8
9
  6
Continuous
 62
     7
370
    35
100
AcDbLine
 10
88.12952390590357
 20
200.6673806323468
 30
0.0
 11
88.42434391138607
 21
202.140290729218
 31
0.0
  0
LINE
  5
21F
330
1F
100
AcDbEntity
  8
9
  6
Continuous
 62
     7
370
    35
100
AcDbLine
 10
85.38879392359325
 20
203.1851417155688
 30
0.0
 11
84.85474048446889
 21
203.1851417155688
 31
0.0
  0
LINE
  5
220
330
1F
100
AcDbEntity
  8
9
  6
Continuous
 62
     7
370
    35
100
AcDbLine
 10
84.7290936330225
 20
202.1851417155688
 30
0.0
 11
86.653704987661
 21
202.1851417155688
 31
0.0
  0
ARC
  5
221
330
1F
100
AcDbEntity
  8
9
  6
Continuous
 62
     7
370
    35
100
AcDbCircle
 10
85.38879392359325
 20
201.8851417155689
 30
0.0
 40
1.299999999999955
100
AcDbArc
 50
11.11380719249393
 51
89.99999999999991
  0
LINE
  5
222
330
1F
100
AcDbEntity
  8
9
  6
Continuous
 62
     7
370
    35
100
AcDbLine
 10
87.64119378830168
 20
200.1851417155688
 30
0.0
 11
87.54119378830177
 21
200.1851417155688
 31
0.0
  0
LINE
  5
223
330
1F
100
AcDbEntity
  8
9
  6
Continuous
 62
     7
370
    35
100
AcDbLine
 10
86.66441403737412
 20
202.1357276794973
 30
0.0
 11
86.95244604347994
 21
200.6694866552947
 31
0.0
  0
ARC
  5
224
330
1F
100
AcDbEntity
  8
9
  6
Continuous
 62
     7
370
    35
100
AcDbCircle
 10
87.64119378830168
 20
200.7851417155693
 30
0.0
 40
0.599999999999909
100
AcDbArc
 50
269.9999999999998
 51
342.6940025391926
  0
ARC
  5
225
330
1F
100
AcDbEntity
  8
9
  6
Continuous
 62
     7
370
    35
100
AcDbCircle
 10
87.54119378830177
 20
200.7851417155693
 30
0.0
 40
0.599999999999909
100
AcDbArc
 50
191.1138071924963
 51
348.6811662726058
  0
LINE
  5
226
330
1F
100
AcDbEntity
  8
9
  6
Continuous
 62
     7
370
    35
100
AcDbLine
 10
91.82835129280915
 20
200.6066568280974
 30
0.0
 11
91.59919821894658
 21
201.3421114905126
 31
0.0
  0
ARC
  5
227
330
1F
100
AcDbEntity
  8
9
  6
Continuous
 62
     7
370
    35
100
AcDbCircle
 10
90.4535226192342
 20
200.9851417155689
 30
0.0
 40
1.200000000000045
100
AcDbArc
 50
17.30599746080124
 51
89.99999999999991
  0
LINE
  5
228
330
1F
100
AcDbEntity
  8
9
  6
Continuous
 62
     7
370
    35
100
AcDbLine
 10
91.91285897506367
 20
200.6673806323468
 30
0.0
 11
91.61803896958094
 21
202.140290729218
 31
0.0
  0
ARC
  5
229
330
1F
100
AcDbEntity
  8
9
  6
Continuous
 62
     7
370
    35
100
AcDbCircle
 10
90.34332371477552
 20
201.8851417155688
 30
0.0
 40
1.299999999999955
100
AcDbArc
 50
11.31883372739553
 51
89.99999999999991
  0
LINE
  5
22A
330
1F
100
AcDbEntity
  8
9
  6
Continuous
 62
     7
370
    35
100
AcDbLine
 10
80.37754436228187
 20
202.1851417155688
 30
0.0
 11
81.92677020744208
 21
202.1851417155688
 31
0.0
  0
LINE
  5
22B
330
1F
100
AcDbEntity
  8
9
  6
Continuous
 62
     7
370
    35
100
AcDbLine
 10
80.44806552984386
 20
203.1851417155688
 30
0.0
 11
80.66185914337478
 21
203.1851417155688
 31
0.0
  0
ARC
  5
22C
330
1F
100
AcDbEntity
  8
9
  6
Continuous
 62
     7
370
    35
100
AcDbCircle
 10
80.66185914337478
 20
201.8851417155688
 30
0.0
 40
1.299999999999955
100
AcDbArc
 50
11.75775714726765
 51
89.99999999999991
  0
ARC
  5
22D
330
1F
100
AcDbEntity
  8
9
  6
Continuous
 62
     7
370
    35
100
AcDbCircle
 10
82.95020622554779
 20
200.6851417155688
 30
0.0
 40
0.5
100
AcDbArc
 50
269.9999999999998
 51
339.9682734747133
  0
LINE
  5
22E
330
1F
100
AcDbEntity
  8
9
  6
Continuous
 62
     7
370
    35
100
AcDbLine
 10
82.95020622554779
 20
200.1851417155688
 30
0.0
 11
82.75020622554797
 21
200.1851417155688
 31
0.0
  0
ARC
  5
22F
330
1F
100
AcDbEntity
  8
9
  6
Continuous
 62
     7
370
    35
100
AcDbCircle
 10
82.75020622554797
 20
200.6851417155688
 30
0.0
 40
0.5
100
AcDbArc
 50
191.7577571472692
 51
347.6791678141202
  0
LINE
  5
230
330
1F
100
AcDbEntity
  8
9
  6
Continuous
 62
     7
370
    35
100
AcDbLine
 10
83.41995777010874
 20
200.5138715010463
 30
0.0
 11
83.7895905439006
 21
201.527682144614
 31
0.0
  0
LINE
  5
231
330
1F
100
AcDbEntity
  8
9
  6
Continuous
 62
     7
370
    35
100
AcDbLine
 10
83.23869025259177
 20
200.5784489073613
 30
0.0
 11
83.58468201415548
 21
202.1625430169084
 31
0.0
  0
LINE
  5
232
330
1F
100
AcDbEntity
  8
9
  6
Continuous
 62
     7
370
    35
100
AcDbLine
 10
82.26069727909265
 20
200.5832545655453
 30
0.0
 11
81.93458240415924
 21
202.1500483056302
 31
0.0
  0
LINE
  5
233
330
1F
100
AcDbEntity
  8
9
  6
Continuous
 62
     7
370
    35
100
AcDbLine
 10
76.71979523416957
 20
202.1851417155688
 30
0.0
 11
77.75403048536572
 21
202.1851417155688
 31
0.0
  0
LINE
  5
234
330
1F
100
AcDbEntity
  8
9
  6
Continuous
 62
     7
370
    35
100
AcDbLine
 10
76.78160970192147
 20
203.1851417155688
 30
0.0
 11
77.64682276972411
 21
203.1851417155688
 31
0.0
  0
ARC
  5
235
330
1F
100
AcDbEntity
  8
9
  6
Continuous
 62
     7
370
    35
100
AcDbCircle
 10
85.79000519300092
 20
203.552406954075
 30
0.0
 40
8.15146022097747
100
AcDbArc
 50
182.5823439498849
 51
190.2741177283828
  0
ARC
  5
236
330
1F
100
AcDbEntity
  8
9
  6
Continuous
 62
     7
370
    35
100
AcDbCircle
 10
78.85472428931865
 20
200.5851417155687
 30
0.0
 40
0.4000000000000909
100
AcDbArc
 50
269.9999999999998
 51
341.9500333794157
  0
LINE
  5
237
330
1F
100
AcDbEntity
  8
9
  6
Continuous
 62
     7
370
    35
100
AcDbLine
 10
78.85472428931865
 20
200.1851417155688
 30
0.0
 11
78.45472428931856
 21
200.1851417155688
 31
0.0
  0
ARC
  5
238
330
1F
100
AcDbEntity
  8
9
  6
Continuous
 62
     7
370
    35
100
AcDbCircle
 10
78.45472428931856
 20
200.5851417155687
 30
0.0
 40
0.4000000000000909
100
AcDbArc
 50
190.4362216586901
 51
348.7010440842471
  0
LINE
  5
239
330
1F
100
AcDbEntity
  8
9
  6
Continuous
 62
     7
370
    35
100
AcDbLine
 10
79.61691502907792
 20
201.6330187364279
 30
0.0
 11
79.23503895592052
 21
200.4612032051391
 31
0.0
  0
LINE
  5
23A
330
1F
100
AcDbEntity
  8
9
  6
Continuous
 62
     7
370
    35
100
AcDbLine
 10
78.84697158094008
 20
200.5067704056664
 30
0.0
 11
79.17326183207473
 21
202.1398484727511
 31
0.0
  0
LINE
  5
23B
330
1F
100
AcDbEntity
  8
9
  6
Continuous
 62
     7
370
    35
100
AcDbLine
 10
78.06134142836657
 20
200.5126853513947
 30
0.0
 11
77.76924786524836
 21
202.0985308852563
 31
0.0
  0
ARC
  5
23C
330
1F
100
AcDbEntity
  8
9
  6
Continuous
 62
     7
370
    35
100
AcDbCircle
 10
80.37754436228187
 20
201.3851417155688
 30
0.0
 40
0.7999999999999545
100
AcDbArc
 50
89.99999999999991
 51
161.9500333794123
  0
ARC
  5
23D
330
1F
100
AcDbEntity
  8
9
  6
Continuous
 62
     7
370
    35
100
AcDbCircle
 10
80.44806552984386
 20
201.8851417155688
 30
0.0
 40
1.299999999999955
100
AcDbArc
 50
89.99999999999991
 51
168.7010440842476
  0
LINE
  5
23E
330
1F
100
AcDbEntity
  8
9
  6
Continuous
 62
     7
370
    35
100
AcDbLine
 10
74.00029928665634
 20
202.1851417155688
 30
0.0
 11
74.07862771960475
 21
202.1851417155688
 31
0.0
  0
ARC
  5
23F
330
1F
100
AcDbEntity
  8
9
  6
Continuous
 62
     7
370
    35
100
AcDbCircle
 10
74.00029928665634
 20
201.7851417155689
 30
0.0
 40
0.4000000000000909
100
AcDbArc
 50
89.99999999999991
 51
174.685610441349
  0
LINE
  5
240
330
1F
100
AcDbEntity
  8
9
  6
Continuous
 62
     7
370
    35
100
AcDbLine
 10
74.10895864561957
 20
203.1851417155688
 30
0.0
 11
74.86574687426804
 21
203.1851417155688
 31
0.0
  0
ARC
  5
241
330
1F
100
AcDbEntity
  8
9
  6
Continuous
 62
     7
370
    35
100
AcDbCircle
 10
73.26748032277004
 20
200.3851417155688
 30
0.0
 40
0.2000000000000455
100
AcDbArc
 50
269.9999999999998
 51
354.6856104413405
  0
LINE
  5
242
330
1F
100
AcDbEntity
  8
9
  6
Continuous
 62
     7
370
    35
100
AcDbLine
 10
73.6020186993141
 20
201.8221899779632
 30
0.0
 11
73.46662061644105
 21
200.3666175843716
 31
0.0
  0
ARC
  5
243
330
1F
100
AcDbEntity
  8
9
  6
Continuous
 62
     7
370
    35
100
AcDbCircle
 10
84.7290936330225
 20
201.1851417155688
 30
0.0
 40
1.0
100
AcDbArc
 50
89.99999999999991
 51
159.9682734747136
  0
ARC
  5
244
330
1F
100
AcDbEntity
  8
9
  6
Continuous
 62
     7
370
    35
100
AcDbCircle
 10
84.85474048446889
 20
201.8851417155688
 30
0.0
 40
1.299999999999955
100
AcDbArc
 50
89.99999999999991
 51
167.6791678141213
  0
ARC
  5
245
330
1F
100
AcDbEntity
  8
9
  6
Continuous
 62
     7
370
    35
100
AcDbCircle
 10
106.6522254721394
 20
202.1989339636334
 30
0.0
 40
1.244540968917363
100
AcDbArc
 50
355.3726464066885
 51
52.41289174619168
  0
ARC
  5
246
330
1F
100
AcDbEntity
  8
9
  6
Continuous
 62
     7
370
    35
100
AcDbCircle
 10
107.5749025581972
 20
200.3851417155688
 30
0.0
 40
0.2000000000000455
100
AcDbArc
 50
185.1572134748334
 51
356.0823036285386
  0
LINE
  5
247
330
1F
100
AcDbEntity
  8
9
  6
Continuous
 62
     7
370
    35
100
AcDbLine
 10
107.7583148081337
 20
200.3053924423862
 30
0.0
 11
107.7586560382164
 21
200.2835776898308
 31
0.0
  0
LINE
  5
248
330
1F
100
AcDbEntity
  8
9
  6
Continuous
 62
     7
370
    35
100
AcDbLine
 10
107.8927098312374
 20
202.0985308852554
 30
0.0
 11
107.7744352030074
 21
200.3714770291427
 31
0.0
  0
LINE
  5
249
330
1F
100
AcDbEntity
  8
9
  6
Continuous
 62
     7
370
    35
100
AcDbLine
 10
107.3757121977505
 20
200.3671639430395
 30
0.0
 11
107.2281615782512
 21
202.0019972370089
 31
0.0
  0
LINE
  5
24A
330
1F
100
AcDbEntity
  8
9
  6
Continuous
 62
     7
370
    35
100
AcDbLine
 10
105.9334242353477
 20
203.1851417155688
 30
0.0
 11
105.1766360066994
 21
203.1851417155688
 31
0.0
  0
ARC
  5
24B
330
1F
100
AcDbEntity
  8
9
  6
Continuous
 62
     7
370
    35
100
AcDbCircle
 10
106.0420835943109
 20
201.7851417155689
 30
0.0
 40
0.4000000000000909
100
AcDbArc
 50
5.314389558651028
 51
89.99999999999991
  0
LINE
  5
24C
330
1F
100
AcDbEntity
  8
9
  6
Continuous
 62
     7
370
    35
100
AcDbLine
 10
106.0420835943109
 20
202.1851417155688
 30
0.0
 11
105.9637551613623
 21
202.1851417155688
 31
0.0
  0
ARC
  5
24D
330
1F
100
AcDbEntity
  8
9
  6
Continuous
 62
     7
370
    35
100
AcDbCircle
 10
103.2607731790458
 20
201.8851417155688
 30
0.0
 40
1.299999999999955
100
AcDbArc
 50
53.7435373147751
 51
89.99999999999991
  0
ARC
  5
24E
330
1F
100
AcDbEntity
  8
9
  6
Continuous
 62
     7
370
    35
100
AcDbCircle
 10
103.3225876467977
 20
201.5851417155689
 30
0.0
 40
0.599999999999909
100
AcDbArc
 50
57.77768193555133
 51
89.99999999999991
  0
ARC
  5
24F
330
1F
100
AcDbEntity
  8
9
  6
Continuous
 62
     7
370
    35
100
AcDbCircle
 10
106.7749025581974
 20
200.3851417155688
 30
0.0
 40
0.2000000000000455
100
AcDbArc
 50
185.3143895586588
 51
269.9999999999998
  0
LINE
  5
250
330
1F
100
AcDbEntity
  8
9
  6
Continuous
 62
     7
370
    35
100
AcDbLine
 10
105.8021703959486
 20
201.0077339541279
 30
0.0
 11
106.2850592833135
 21
201.4906228414929
 31
0.0
  0
LINE
  5
251
330
1F
100
AcDbEntity
  8
9
  6
Continuous
 62
     7
370
    35
100
AcDbLine
 10
105.284427975785
 20
203.0752062243992
 30
0.0
 11
106.2965157386024
 21
201.7491538940483
 31
0.0
  0
LINE
  5
252
330
1F
100
AcDbEntity
  8
9
  6
Continuous
 62
     7
370
    35
100
AcDbLine
 10
106.0236300028561
 20
201.4709994090269
 30
0.0
 11
104.0295939689656
 21
202.93343298854
 31
0.0
  0
LINE
  5
253
330
1F
100
AcDbEntity
  8
9
  6
Continuous
 62
     7
370
    35
100
AcDbLine
 10
106.4403641816529
 20
201.8221899779632
 30
0.0
 11
106.5757622645264
 21
200.3666175843716
 31
0.0
  0
LINE
  5
254
330
1F
100
AcDbEntity
  8
9
  6
Continuous
 62
     7
370
    35
100
AcDbLine
 10
103.6425111555586
 20
202.092733035966
 30
0.0
 11
105.4300766072119
 21
200.9660703282855
 31
0.0
  0
ARC
  5
255
330
1F
100
AcDbEntity
  8
9
  6
Continuous
 62
     7
370
    35
100
AcDbCircle
 10
94.25237768796654
 20
203.552406954075
 30
0.0
 40
8.15146022097747
100
AcDbArc
 50
349.7258822716165
 51
357.4176560501143
  0
ARC
  5
256
330
1F
100
AcDbEntity
  8
9
  6
Continuous
 62
     7
370
    35
100
AcDbCircle
 10
99.5943173511236
 20
201.8851417155688
 30
0.0
 40
1.299999999999955
100
AcDbArc
 50
11.29895591575242
 51
89.99999999999991
  0
LINE
  5
257
330
1F
100
AcDbEntity
  8
9
  6
Continuous
 62
     7
370
    35
100
AcDbLine
 10
99.5943173511236
 20
203.1851417155688
 30
0.0
 11
99.38052373759268
 21
203.1851417155688
 31
0.0
  0
ARC
  5
258
330
1F
100
AcDbEntity
  8
9
  6
Continuous
 62
     7
370
    35
100
AcDbCircle
 10
99.66483851868537
 20
201.3851417155688
 30
0.0
 40
0.7999999999999545
100
AcDbArc
 50
18.04996662058775
 51
89.99999999999991
  0
ARC
  5
259
330
1F
100
AcDbEntity
  8
9
  6
Continuous
 62
     7
370
    35
100
AcDbCircle
 10
101.1876585916488
 20
200.5851417155687
 30
0.0
 40
0.4000000000000909
100
AcDbArc
 50
198.0499666205835
 51
269.9999999999998
  0
ARC
  5
25A
330
1F
100
AcDbEntity
  8
9
  6
Continuous
 62
     7
370
    35
100
AcDbCircle
 10
101.5876585916487
 20
200.5851417155687
 30
0.0
 40
0.4000000000000909
100
AcDbArc
 50
191.2989559157522
 51
349.5637783413092
  0
LINE
  5
25B
330
1F
100
AcDbEntity
  8
9
  6
Continuous
 62
     7
370
    35
100
AcDbLine
 10
101.1876585916488
 20
200.1851417155688
 30
0.0
 11
101.5876585916487
 21
200.1851417155688
 31
0.0
  0
LINE
  5
25C
330
1F
100
AcDbEntity
  8
9
  6
Continuous
 62
     7
370
    35
100
AcDbLine
 10
101.9810414526009
 20
200.5126853513947
 30
0.0
 11
102.2731350157191
 21
202.0985308852563
 31
0.0
  0
LINE
  5
25D
330
1F
100
AcDbEntity
  8
9
  6
Continuous
 62
     7
370
    35
100
AcDbLine
 10
101.1954113000274
 20
200.5067704056664
 30
0.0
 11
100.8691210488927
 21
202.1398484727511
 31
0.0
  0
LINE
  5
25E
330
1F
100
AcDbEntity
  8
9
  6
Continuous
 62
     7
370
    35
100
AcDbLine
 10
100.4254678518891
 20
201.6330187364279
 30
0.0
 11
100.807343925047
 21
200.4612032051391
 31
0.0
  0
LINE
  5
25F
330
1F
100
AcDbEntity
  8
9
  6
Continuous
 62
     7
370
    35
100
AcDbLine
 10
103.2607731790458
 20
203.1851417155688
 30
0.0
 11
102.3955601112434
 21
203.1851417155688
 31
0.0
  0
LINE
  5
260
330
1F
100
AcDbEntity
  8
9
  6
Continuous
 62
     7
370
    35
100
AcDbLine
 10
103.3225876467977
 20
202.1851417155688
 30
0.0
 11
102.2883523956015
 21
202.1851417155688
 31
0.0
  0
ARC
  5
261
330
1F
100
AcDbEntity
  8
9
  6
Continuous
 62
     7
370
    35
100
AcDbCircle
 10
105.9334242353477
 20
201.8851417155689
 30
0.0
 40
1.299999999999955
100
AcDbArc
 50
5.15721347482408
 51
89.99999999999991
  0
LINE
  5
262
330
1F
100
AcDbEntity
  8
9
  6
Continuous
 62
     7
370
    35
100
AcDbLine
 10
106.7749025581974
 20
200.1851417155688
 30
0.0
 11
107.5749025581972
 21
200.1851417155688
 31
0.0
  0
LINE
  5
263
330
1F
100
AcDbEntity
  8
9
  6
Continuous
 62
     7
370
    35
100
AcDbLine
 10
97.09217665541968
 20
200.1851417155688
 30
0.0
 11
97.2921766554195
 21
200.1851417155688
 31
0.0
  0
ARC
  5
264
330
1F
100
AcDbEntity
  8
9
  6
Continuous
 62
     7
370
    35
100
AcDbCircle
 10
97.09217665541968
 20
200.6851417155688
 30
0.0
 40
0.5
100
AcDbArc
 50
200.031726525286
 51
269.9999999999998
  0
ARC
  5
265
330
1F
100
AcDbEntity
  8
9
  6
Continuous
 62
     7
370
    35
100
AcDbCircle
 10
97.2921766554195
 20
200.6851417155688
 30
0.0
 40
0.5
100
AcDbArc
 50
192.3208321858791
 51
348.2422428527301
  0
LINE
  5
266
330
1F
100
AcDbEntity
  8
9
  6
Continuous
 62
     7
370
    35
100
AcDbLine
 10
97.78168560187481
 20
200.5832545655453
 30
0.0
 11
98.10780047680777
 21
202.1500483056302
 31
0.0
  0
LINE
  5
267
330
1F
100
AcDbEntity
  8
9
  6
Continuous
 62
     7
370
    35
100
AcDbLine
 10
96.8036926283757
 20
200.5784489073613
 30
0.0
 11
96.45770086681199
 21
202.1625430169084
 31
0.0
  0
LINE
  5
268
330
1F
100
AcDbEntity
  8
9
  6
Continuous
 62
     7
370
    35
100
AcDbLine
 10
96.62242511085873
 20
200.5138715010463
 30
0.0
 11
96.25279233706664
 21
201.527682144614
 31
0.0
  0
ARC
  5
269
330
1F
100
AcDbEntity
  8
9
  6
Continuous
 62
     7
370
    35
100
AcDbCircle
 10
99.38052373759268
 20
201.8851417155688
 30
0.0
 40
1.299999999999955
100
AcDbArc
 50
89.99999999999991
 51
168.2422428527323
  0
LINE
  5
26A
330
1F
100
AcDbEntity
  8
9
  6
Continuous
 62
     7
370
    35
100
AcDbLine
 10
99.66483851868537
 20
202.1851417155688
 30
0.0
 11
98.11561267352539
 21
202.1851417155688
 31
0.0
  0
LINE
  5
26B
330
1F
100
AcDbEntity
  8
9
  6
Continuous
 62
     7
370
    35
100
AcDbLine
 10
79.7431372125713
 20
138.1840234769904
 30
0.0
 11
100.2992456683959
 21
138.1840234769904
 31
0.0
  0
LINE
  5
26C
330
1F
100
AcDbEntity
  8
9
  6
Continuous
 62
     7
370
    35
100
AcDbLine
 10
87.5827300670839
 20
190.1851417155688
 30
0.0
 11
88.50631082399917
 21
189.2615609586534
 31
0.0
  0
LINE
  5
26D
330
1F
100
AcDbEntity
  8
9
  6
Continuous
 62
     7
370
    35
100
AcDbLine
 10
92.45965281388311
 20
190.1851417155688
 30
0.0
 11
91.53607205619659
 21
189.2615609578822
 31
0.0
  0
LINE
  5
26E
330
1F
100
AcDbEntity
  8
9
  6
Continuous
 62
     7
370
    35
100
AcDbLine
 10
96.6711914404836
 20
186.3485322737432
 30
0.0
 11
96.5211914404835
 21
186.3485322737432
 31
0.0
  0
ARC
  5
26F
330
1F
100
AcDbEntity
  8
9
  6
Continuous
 62
     7
370
    35
100
AcDbCircle
 10
108.5211914404835
 20
202.6907969824294
 30
0.0
 40
0.5
100
AcDbArc
 50
44.99999999999078
 51
82.99999999999439
  0
ARC
  5
270
330
1F
100
AcDbEntity
  8
9
  6
Continuous
 62
     7
370
    35
100
AcDbCircle
 10
107.4275021499897
 20
201.8851417155688
 30
0.0
 40
1.299999999999955
100
AcDbArc
 50
46.10570428951653
 51
89.99999999999991
  0
ARC
  5
271
330
1F
100
AcDbEntity
  8
9
  6
Continuous
 62
     7
370
    35
100
AcDbCircle
 10
109.2355158154109
 20
201.0198629305294
 30
0.0
 40
0.0999999999999091
100
AcDbArc
 50
225.8961572775927
 51
315.0000000000457
  0
LINE
  5
272
330
1F
100
AcDbEntity
  8
9
  6
Continuous
 62
     7
370
    35
100
AcDbLine
 10
109.3062264935297
 20
200.9491522524108
 30
0.0
 11
110.1388733633505
 21
201.7817991222314
 31
0.0
  0
ARC
  5
273
330
1F
100
AcDbEntity
  8
9
  6
Continuous
 62
     7
370
    35
100
AcDbCircle
 10
109.78008027851
 20
201.5644273936282
 30
0.0
 40
0.0999999999999091
100
AcDbArc
 50
226.1057042894887
 51
315.0000000000227
  0
LINE
  5
274
330
1F
100
AcDbEntity
  8
9
  6
Continuous
 62
     7
370
    35
100
AcDbLine
 10
110.1388733633505
 20
201.7817991222314
 30
0.0
 11
108.8747448310768
 21
203.0443503730226
 31
0.0
  0
LINE
  5
275
330
1F
100
AcDbEntity
  8
9
  6
Continuous
 62
     7
370
    35
100
AcDbLine
 10
109.1659197195674
 20
200.9480549682736
 30
0.0
 11
107.8964178672285
 21
202.1694804864972
 31
0.0
  0
LINE
  5
276
330
1F
100
AcDbEntity
  8
9
  6
Continuous
 62
     7
370
    35
100
AcDbLine
 10
109.7107472697343
 20
201.4923653794034
 30
0.0
 11
108.3288312640718
 21
202.8219479004911
 31
0.0
  0
ARC
  5
277
330
1F
100
AcDbEntity
  8
9
  6
Continuous
 62
     7
370
    35
100
AcDbCircle
 10
104.2703839444543
 20
202.1887468887375
 30
0.0
 40
1.346883607168593
100
AcDbArc
 50
41.15937921292335
 51
47.71250584115874
  0
ARC
  5
278
330
1F
100
AcDbEntity
  8
9
  6
Continuous
 62
     7
370
    35
100
AcDbCircle
 10
106.14338696613
 20
201.6264464949105
 30
0.0
 40
0.1962282516922187
100
AcDbArc
 50
232.3892216437814
 51
38.70640762795939
  0
ARC
  5
279
330
1F
100
AcDbEntity
  8
9
  6
Continuous
 62
     7
370
    35
100
AcDbCircle
 10
105.5900383615926
 20
201.2198659884838
 30
0.0
 40
0.2999999999999545
100
AcDbArc
 50
237.7776819355355
 51
315.000000000015
  0
ARC
  5
27A
330
1F
100
AcDbEntity
  8
9
  6
Continuous
 62
     7
370
    35
100
AcDbCircle
 10
73.39015740882763
 20
202.1989339636334
 30
0.0
 40
1.244540968917363
100
AcDbArc
 50
127.5871082538083
 51
184.6273535933108
  0
ARC
  5
27B
330
1F
100
AcDbEntity
  8
9
  6
Continuous
 62
     7
370
    35
100
AcDbCircle
 10
76.78160970192124
 20
201.8851417155688
 30
0.0
 40
1.299999999999955
100
AcDbArc
 50
89.99999999999991
 51
126.2564626852249
  0
ARC
  5
27C
330
1F
100
AcDbEntity
  8
9
  6
Continuous
 62
     7
370
    35
100
AcDbCircle
 10
76.71979523416934
 20
201.5851417155689
 30
0.0
 40
0.599999999999909
100
AcDbArc
 50
89.99999999999991
 51
122.2223180644487
  0
LINE
  5
27D
330
1F
100
AcDbEntity
  8
9
  6
Continuous
 62
     7
370
    35
100
AcDbLine
 10
74.24021248501839
 20
201.0077339541279
 30
0.0
 11
73.75732359765351
 21
201.4906228414929
 31
0.0
  0
LINE
  5
27E
330
1F
100
AcDbEntity
  8
9
  6
Continuous
 62
     7
370
    35
100
AcDbLine
 10
74.75795490518198
 20
203.0752062243992
 30
0.0
 11
73.7458671423646
 21
201.7491538940483
 31
0.0
  0
LINE
  5
27F
330
1F
100
AcDbEntity
  8
9
  6
Continuous
 62
     7
370
    35
100
AcDbLine
 10
74.01875287811089
 20
201.4709994090269
 30
0.0
 11
76.01278891200144
 21
202.93343298854
 31
0.0
  0
LINE
  5
280
330
1F
100
AcDbEntity
  8
9
  6
Continuous
 62
     7
370
    35
100
AcDbLine
 10
76.39987172540845
 20
202.092733035966
 30
0.0
 11
74.61230627375511
 21
200.9660703282855
 31
0.0
  0
ARC
  5
281
330
1F
100
AcDbEntity
  8
9
  6
Continuous
 62
     7
370
    35
100
AcDbCircle
 10
71.5211914404835
 20
202.6907969824294
 30
0.0
 40
0.5
100
AcDbArc
 50
97.00000000000561
 51
135.0000000000092
  0
ARC
  5
282
330
1F
100
AcDbEntity
  8
9
  6
Continuous
 62
     7
370
    35
100
AcDbCircle
 10
72.61488073097729
 20
201.8851417155688
 30
0.0
 40
1.299999999999955
100
AcDbArc
 50
89.99999999999991
 51
133.8942957104835
  0
ARC
  5
283
330
1F
100
AcDbEntity
  8
9
  6
Continuous
 62
     7
370
    35
100
AcDbCircle
 10
70.8068670655561
 20
201.0198629305294
 30
0.0
 40
0.0999999999999091
100
AcDbArc
 50
224.9999999999536
 51
314.1038427224065
  0
LINE
  5
284
330
1F
100
AcDbEntity
  8
9
  6
Continuous
 62
     7
370
    35
100
AcDbLine
 10
70.73615638743735
 20
200.9491522524108
 30
0.0
 11
69.90350951761656
 21
201.7817991222314
 31
0.0
  0
ARC
  5
285
330
1F
100
AcDbEntity
  8
9
  6
Continuous
 62
     7
370
    35
100
AcDbCircle
 10
70.26230260245705
 20
201.5644273936282
 30
0.0
 40
0.0999999999999091
100
AcDbArc
 50
224.9999999999766
 51
313.8942957105106
  0
LINE
  5
286
330
1F
100
AcDbEntity
  8
9
  6
Continuous
 62
     7
370
    35
100
AcDbLine
 10
69.90350951761656
 20
201.7817991222314
 30
0.0
 11
71.16763804989017
 21
203.0443503730226
 31
0.0
  0
LINE
  5
287
330
1F
100
AcDbEntity
  8
9
  6
Continuous
 62
     7
370
    35
100
AcDbLine
 10
70.87646316139961
 20
200.9480549682736
 30
0.0
 11
72.14596501373848
 21
202.1694804864972
 31
0.0
  0
LINE
  5
288
330
1F
100
AcDbEntity
  8
9
  6
Continuous
 62
     7
370
    35
100
AcDbLine
 10
70.33163561123268
 20
201.4923653794034
 30
0.0
 11
71.71355161689524
 21
202.8219479004911
 31
0.0
  0
ARC
  5
289
330
1F
100
AcDbEntity
  8
9
  6
Continuous
 62
     7
370
    35
100
AcDbCircle
 10
75.77199893651272
 20
202.1887468887375
 30
0.0
 40
1.346883607168593
100
AcDbArc
 50
132.2874941588413
 51
138.8406207870766
  0
ARC
  5
28A
330
1F
100
AcDbEntity
  8
9
  6
Continuous
 62
     7
370
    35
100
AcDbCircle
 10
73.89899591483703
 20
201.6264464949105
 30
0.0
 40
0.1962282516922187
100
AcDbArc
 50
141.2935923720406
 51
307.6107783562178
  0
ARC
  5
28B
330
1F
100
AcDbEntity
  8
9
  6
Continuous
 62
     7
370
    35
100
AcDbCircle
 10
74.45234451937444
 20
201.2198659884838
 30
0.0
 40
0.2999999999999545
100
AcDbArc
 50
224.9999999999843
 51
302.2223180644638
  0
LINE
  5
28C
330
1F
100
AcDbEntity
  8
9
  6
Continuous
 62
     7
370
    35
100
AcDbLine
 10
99.8961914404835
 20
201.2743552779419
 30
0.0
 11
97.92553237418628
 21
201.2743552779419
 31
0.0
  0
ARC
  5
28D
330
1F
100
AcDbEntity
  8
9
  6
Continuous
 62
     7
370
    35
100
AcDbCircle
 10
80.1461914404835
 20
202.2743552779419
 30
0.0
 40
1.0
100
AcDbArc
 50
234.2211531735228
 51
269.9999999999998
  0
ARC
  5
28E
330
1F
100
AcDbEntity
  8
9
  6
Continuous
 62
     7
370
    35
100
AcDbCircle
 10
99.8961914404835
 20
202.2743552779419
 30
0.0
 40
1.0
100
AcDbArc
 50
269.9999999999998
 51
305.7788468264928
  0
LINE
  5
28F
330
1F
100
AcDbEntity
  8
9
  6
Continuous
 62
     7
370
    35
100
AcDbLine
 10
96.34515466626334
 20
201.2743552779419
 30
0.0
 11
93.20875872279538
 21
201.2743552779419
 31
0.0
  0
LINE
  5
290
330
1F
100
AcDbEntity
  8
9
  6
Continuous
 62
     7
370
    35
100
AcDbLine
 10
91.6203097098068
 20
201.2743552779419
 30
0.0
 11
88.4220731711602
 21
201.2743552779419
 31
0.0
  0
LINE
  5
291
330
1F
100
AcDbEntity
  8
9
  6
Continuous
 62
     7
370
    35
100
AcDbLine
 10
86.83362415817209
 20
201.2743552779419
 30
0.0
 11
83.69722821470413
 21
201.2743552779419
 31
0.0
  0
LINE
  5
292
330
1F
100
AcDbEntity
  8
9
  6
Continuous
 62
     7
370
    35
100
AcDbLine
 10
82.11685050678074
 20
201.2743552779419
 30
0.0
 11
80.1461914404835
 21
201.2743552779419
 31
0.0
  0
LINE
  5
293
330
1F
100
AcDbEntity
  8
9
  6
Continuous
 62
     7
370
    35
100
AcDbLine
 10
84.02063851444149
 20
160.9351417155688
 30
0.0
 11
82.48681986709965
 21
160.0495911066377
 31
0.0
  0
LINE
  5
294
330
1F
100
AcDbEntity
  8
9
  6
Continuous
 62
     7
370
    35
100
AcDbLine
 10
97.55445716178377
 20
160.049591106638
 30
0.0
 11
96.0206385144399
 21
160.9351417155697
 31
0.0
  0
LINE
  5
295
330
1F
100
AcDbEntity
  8
9
  6
Continuous
 62
     7
370
    35
100
AcDbLine
 10
99.3148689401857
 20
159.4797348331204
 30
0.0
 11
98.32174436652525
 21
159.4797348331204
 31
0.0
  0
ARC
  5
296
330
1F
100
AcDbEntity
  8
9
  6
Continuous
 62
     7
370
    35
100
AcDbCircle
 10
98.32174436652525
 20
160.2797348331203
 30
0.0
 40
0.7999999999999545
100
AcDbArc
 50
196.7190914177262
 51
269.9999999999998
  0
LINE
  5
297
330
1F
100
AcDbEntity
  8
9
  6
Continuous
 62
     7
370
    35
100
AcDbLine
 10
81.69014042982707
 20
156.4351417155688
 30
0.0
 11
88.7711914404835
 21
156.4351417155688
 31
0.0
  0
LINE
  5
298
330
1F
100
AcDbEntity
  8
9
  6
Continuous
 62
     7
370
    35
100
AcDbLine
 10
98.35224245114017
 20
156.4351417155688
 30
0.0
 11
91.2711914404835
 21
156.4351417155688
 31
0.0
  0
LINE
  5
299
330
1F
100
AcDbEntity
  8
9
  6
Continuous
 62
     7
370
    35
100
AcDbLine
 10
97.46625790064576
 20
158.2351417155647
 30
0.0
 11
91.27121346050859
 21
158.2351417155647
 31
0.0
  0
LINE
  5
29A
330
1F
100
AcDbEntity
  8
9
  6
Continuous
 62
     7
370
    35
100
AcDbLine
 10
91.51517565571936
 20
160.0495911066377
 30
0.0
 11
97.55556301386747
 21
160.0495911066377
 31
0.0
  0
LINE
  5
29B
330
1F
100
AcDbEntity
  8
9
  6
Continuous
 62
     7
370
    35
100
AcDbLine
 10
97.5211914404835
 20
161.2351417155695
 30
0.0
 11
97.5211914404835
 21
160.9351417155694
 31
0.0
  0
LINE
  5
29C
330
1F
100
AcDbEntity
  8
9
  6
Continuous
 62
     7
370
    35
100
AcDbLine
 10
82.5211914404835
 20
161.2351417155695
 30
0.0
 11
82.5211914404835
 21
160.9351417155694
 31
0.0
  0
ARC
  5
29D
330
1F
100
AcDbEntity
  8
9
  6
Continuous
 62
     7
370
    35
100
AcDbCircle
 10
87.32119144048357
 20
154.9351417155695
 30
0.0
 40
0.2999999999999972
100
AcDbArc
 50
89.99999999999991
 51
179.9999999999998
  0
ARC
  5
29E
330
1F
100
AcDbEntity
  8
9
  6
Continuous
 62
     7
370
    35
100
AcDbCircle
 10
87.32119144048357
 20
153.5351417155695
 30
0.0
 40
0.2999999999999972
100
AcDbArc
 50
179.9999999999998
 51
269.9999999999998
  0
ARC
  5
29F
330
1F
100
AcDbEntity
  8
9
  6
Continuous
 62
     7
370
    35
100
AcDbCircle
 10
92.72119144048355
 20
153.5351417155695
 30
0.0
 40
0.2999999999999972
100
AcDbArc
 50
269.9999999999998
 51
0.0
  0
ARC
  5
2A0
330
1F
100
AcDbEntity
  8
9
  6
Continuous
 62
     7
370
    35
100
AcDbCircle
 10
92.72119144048355
 20
154.9351417155695
 30
0.0
 40
0.2999999999999972
100
AcDbArc
 50
0.0
 51
89.99999999999991
  0
LINE
  5
2A1
330
1F
100
AcDbEntity
  8
9
  6
Continuous
 62
     7
370
    35
100
AcDbLine
 10
87.32119144048357
 20
155.2351417155695
 30
0.0
 11
88.7711914404835
 21
155.2351417155695
 31
0.0
  0
LINE
  5
2A2
330
1F
100
AcDbEntity
  8
9
  6
Continuous
 62
     7
370
    35
100
AcDbLine
 10
87.0211914404835
 20
153.5351417155695
 30
0.0
 11
87.0211914404835
 21
154.9351417155695
 31
0.0
  0
LINE
  5
2A3
330
1F
100
AcDbEntity
  8
9
  6
Continuous
 62
     7
370
    35
100
AcDbLine
 10
92.72119144048355
 20
153.2351417155695
 30
0.0
 11
87.32119144048357
 21
153.2351417155695
 31
0.0
  0
LINE
  5
2A4
330
1F
100
AcDbEntity
  8
9
  6
Continuous
 62
     7
370
    35
100
AcDbLine
 10
93.0211914404835
 20
154.9351417155695
 30
0.0
 11
93.0211914404835
 21
153.5351417155695
 31
0.0
  0
LINE
  5
2A5
330
1F
100
AcDbEntity
  8
9
  6
Continuous
 62
     7
370
    35
100
AcDbLine
 10
91.2711914404835
 20
155.2351417155695
 30
0.0
 11
92.72119144048355
 21
155.2351417155695
 31
0.0
  0
LINE
  5
2A6
330
1F
100
AcDbEntity
  8
9
  6
Continuous
 62
     7
370
    35
100
AcDbLine
 10
88.7711914404835
 20
155.2351417155695
 30
0.0
 11
88.7711914404835
 21
158.2175838151625
 31
0.0
  0
LINE
  5
2A7
330
1F
100
AcDbEntity
  8
9
  6
Continuous
 62
     7
370
    35
100
AcDbLine
 10
91.2711914404835
 20
155.2351417155695
 30
0.0
 11
91.2711914404835
 21
158.2175838151625
 31
0.0
  0
ARC
  5
2A8
330
1F
100
AcDbEntity
  8
9
  6
Continuous
 62
     7
370
    35
100
AcDbCircle
 10
81.7711914404835
 20
158.2175838151625
 30
0.0
 40
7.0
100
AcDbArc
 50
359.9999999999985
 51
22.84394684312258
  0
ARC
  5
2A9
330
1F
100
AcDbEntity
  8
9
  6
Continuous
 62
     7
370
    35
100
AcDbCircle
 10
98.2711914404835
 20
158.2175838151625
 30
0.0
 40
7.0
100
AcDbArc
 50
157.1560531568751
 51
179.9999999999998
  0
LINE
  5
2AA
330
1F
100
AcDbEntity
  8
9
  6
Continuous
 62
     7
370
    35
100
AcDbLine
 10
97.95711271369129
 20
163.5351417155695
 30
0.0
 11
97.95711271369129
 21
161.2351417155695
 31
0.0
  0
LINE
  5
2AB
330
1F
100
AcDbEntity
  8
9
  6
Continuous
 62
     7
370
    35
100
AcDbLine
 10
90.02119174664523
 20
163.5351417155695
 30
0.0
 11
97.95711271369129
 21
163.5351417155695
 31
0.0
  0
LINE
  5
2AC
330
1F
100
AcDbEntity
  8
9
  6
Continuous
 62
     7
370
    35
100
AcDbLine
 10
82.08527047343756
 20
163.5351417155695
 30
0.0
 11
82.08527047343756
 21
161.2351417155695
 31
0.0
  0
LINE
  5
2AD
330
1F
100
AcDbEntity
  8
9
  6
Continuous
 62
     7
370
    35
100
AcDbLine
 10
90.0211914404835
 20
163.5351417155695
 30
0.0
 11
82.08527047343756
 21
163.5351417155695
 31
0.0
  0
LINE
  5
2AE
330
1F
100
AcDbEntity
  8
9
  6
Continuous
 62
     7
370
    35
100
AcDbLine
 10
82.48681986709965
 20
160.0495911066377
 30
0.0
 11
88.52720722524765
 21
160.0495911066377
 31
0.0
  0
LINE
  5
2AF
330
1F
100
AcDbEntity
  8
9
  6
Continuous
 62
     7
370
    35
100
AcDbLine
 10
82.5211914404835
 20
158.2351417155647
 30
0.0
 11
88.77116942045842
 21
158.2351417155647
 31
0.0
  0
LINE
  5
2B0
330
1F
100
AcDbEntity
  8
9
  6
Continuous
 62
     7
370
    35
100
AcDbLine
 10
87.22519753126943
 20
190.1851417155688
 30
0.0
 11
92.81718534969781
 21
190.1851417155688
 31
0.0
  0
LINE
  5
2B1
330
1F
100
AcDbEntity
  8
9
  6
Continuous
 62
     7
370
    35
100
AcDbLine
 10
85.46025354110583
 20
150.9059692490782
 30
0.0
 11
85.4602535411056
 21
156.4059692490782
 31
0.0
  0
LINE
  5
2B2
330
1F
100
AcDbEntity
  8
9
  6
Continuous
 62
     7
370
    35
100
AcDbLine
 10
94.58212933986164
 20
150.9059692490782
 30
0.0
 11
94.58212933986164
 21
156.4059692490782
 31
0.0
  0
LINE
  5
2B3
330
1F
100
AcDbEntity
  8
9
  6
Continuous
 62
     7
370
    35
100
AcDbLine
 10
90.4535226192342
 20
202.1851417155688
 30
0.0
 11
89.58886026173326
 21
202.1851417155688
 31
0.0
  0
LINE
  5
2B4
330
1F
100
AcDbEntity
  8
9
  6
Continuous
 62
     7
370
    35
100
AcDbLine
 10
97.5211914404835
 20
160.9351417155694
 30
0.0
 11
82.5211914404835
 21
160.9351417155694
 31
0.0
  0
LINE
  5
2B5
330
1F
100
AcDbEntity
  8
9
  6
Continuous
 62
     7
370
    35
100
AcDbLine
 10
82.08527047343756
 20
161.2351417155695
 30
0.0
 11
97.95711271369129
 21
161.2351417155695
 31
0.0
  0
LINE
  5
2B6
330
1F
100
AcDbEntity
  8
9
  6
Continuous
 62
     7
370
    35
100
AcDbLine
 10
71.46025676878111
 20
203.1870700582501
 30
0.0
 11
77.96002882033332
 21
203.9851417155689
 31
0.0
  0
LINE
  5
2B7
330
1F
100
AcDbEntity
  8
9
  6
Continuous
 62
     7
370
    35
100
AcDbLine
 10
77.96002882033332
 20
203.9851417155689
 30
0.0
 11
102.0823540606339
 21
203.9851417155689
 31
0.0
  0
LINE
  5
2B8
330
1F
100
AcDbEntity
  8
9
  6
Continuous
 62
     7
370
    35
100
AcDbLine
 10
108.5821261121861
 20
203.1870700582501
 30
0.0
 11
102.0823540606339
 21
203.9851417155689
 31
0.0
  0
LINE
  5
2B9
330
1F
100
AcDbEntity
  8
9
  6
Continuous
 62
     7
370
    35
100
AcDbLine
 10
261.7275132167816
 20
159.4797348331204
 30
0.0
 11
262.7206377904419
 21
159.4797348331203
 31
0.0
  0
ARC
  5
2BA
330
1F
100
AcDbEntity
  8
9
  6
Continuous
 62
     7
370
    35
100
AcDbCircle
 10
262.7206377904419
 20
160.2797348331203
 30
0.0
 40
0.7999999999999545
100
AcDbArc
 50
269.9999999999998
 51
343.2809085822731
  0
ARC
  5
2BB
330
1F
100
AcDbEntity
  8
9
  6
Continuous
 62
     7
370
    35
100
AcDbCircle
 10
266.0211907164836
 20
168.4059692490782
 30
0.0
 40
17.0
100
AcDbArc
 50
179.9999999999998
 51
250.250077204357
  0
LINE
  5
2BC
330
1F
100
AcDbEntity
  8
9
  6
Continuous
 62
     7
370
    35
100
AcDbLine
 10
261.5211907164836
 20
152.4059692490782
 30
0.0
 11
261.5211907164836
 21
150.9059692490782
 31
0.0
  0
ARC
  5
2BD
330
1F
100
AcDbEntity
  8
9
  6
Continuous
 62
     7
370
    35
100
AcDbCircle
 10
279.0211907164836
 20
170.1466948774313
 30
0.0
 40
24.0
100
AcDbArc
 50
122.0970060037007
 51
179.9999999999998
  0
ARC
  5
2BE
330
1F
100
AcDbEntity
  8
9
  6
Continuous
 62
     7
370
    35
100
AcDbCircle
 10
268.2251968072695
 20
191.6851417155688
 30
0.0
 40
1.5
100
AcDbArc
 50
235.2454430135256
 51
269.9999999999998
  0
ARC
  5
2BF
330
1F
100
AcDbEntity
  8
9
  6
Continuous
 62
     7
370
    35
100
AcDbCircle
 10
266.8000415322587
 20
189.6311377131121
 30
0.0
 40
1.0
100
AcDbArc
 50
55.24544301352955
 51
122.0970060036958
  0
LINE
  5
2C0
330
1F
100
AcDbEntity
  8
9
  6
Continuous
 62
     7
370
    35
100
AcDbLine
 10
261.5211907164836
 20
150.9059692490782
 30
0.0
 11
280.5211907164836
 21
150.9059692490782
 31
0.0
  0
ARC
  5
2C1
330
1F
100
AcDbEntity
  8
9
  6
Continuous
 62
     7
370
    35
100
AcDbCircle
 10
273.8171846256979
 20
191.6851417155688
 30
0.0
 40
1.5
100
AcDbArc
 50
269.9999999999998
 51
304.7545569864749
  0
ARC
  5
2C2
330
1F
100
AcDbEntity
  8
9
  6
Continuous
 62
     7
370
    35
100
AcDbCircle
 10
275.242339900709
 20
189.6311377131121
 30
0.0
 40
1.0
100
AcDbArc
 50
57.90299399629317
 51
124.7545569864705
  0
ARC
  5
2C3
330
1F
100
AcDbEntity
  8
9
  6
Continuous
 62
     7
370
    35
100
AcDbCircle
 10
263.0211907164836
 20
170.1466948774313
 30
0.0
 40
24.0
100
AcDbArc
 50
0.0
 51
57.90299399629976
  0
LINE
  5
2C4
330
1F
100
AcDbEntity
  8
9
  6
Continuous
 62
     7
370
    35
100
AcDbLine
 10
280.5211907164836
 20
152.4059692490782
 30
0.0
 11
280.5211907164836
 21
150.9059692490782
 31
0.0
  0
ARC
  5
2C5
330
1F
100
AcDbEntity
  8
9
  6
Continuous
 62
     7
370
    35
100
AcDbCircle
 10
276.0211907164836
 20
168.4059692490782
 30
0.0
 40
17.0
100
AcDbArc
 50
289.7499227956422
 51
0.0
  0
ARC
  5
2C6
330
1F
100
AcDbEntity
  8
9
  6
Continuous
 62
     7
370
    35
100
AcDbCircle
 10
279.0211907164836
 20
170.1466948774313
 30
0.0
 40
30.0
100
AcDbArc
 50
139.7809012554433
 51
179.9999999999999
  0
LINE
  5
2C7
330
1F
100
AcDbEntity
  8
9
  6
Continuous
 62
     7
370
    35
100
AcDbLine
 10
256.1137657583778
 20
189.518062454057
 30
0.0
 11
265.7847715484205
 21
200.9544176070162
 31
0.0
  0
LINE
  5
2C8
330
1F
100
AcDbEntity
  8
9
  6
Continuous
 62
     7
370
    35
100
AcDbLine
 10
285.9286156745894
 20
189.518062454057
 30
0.0
 11
276.2576098845467
 21
200.9544176070163
 31
0.0
  0
ARC
  5
2C9
330
1F
100
AcDbEntity
  8
9
  6
Continuous
 62
     7
370
    35
100
AcDbCircle
 10
263.0211907164836
 20
170.1466948774313
 30
0.0
 40
30.0
100
AcDbArc
 50
0.0
 51
40.21909874455667
  0
ARC
  5
2CA
330
1F
100
AcDbEntity
  8
9
  6
Continuous
 62
     7
370
    35
100
AcDbCircle
 10
265.0211907164836
 20
201.6001298595704
 30
0.0
 40
1.0
100
AcDbArc
 50
319.7809012554437
 51
340.987490620822
  0
ARC
  5
2CB
330
1F
100
AcDbEntity
  8
9
  6
Continuous
 62
     7
370
    35
100
AcDbCircle
 10
277.0211907164836
 20
201.6001298595704
 30
0.0
 40
1.0
100
AcDbArc
 50
199.0125093791773
 51
220.2190987445532
  0
LINE
  5
2CC
330
1F
100
AcDbEntity
  8
9
  6
Continuous
 62
     7
370
    35
100
AcDbLine
 10
262.6901397058272
 20
152.4059692490782
 30
0.0
 11
262.6901397058272
 21
156.4351417155688
 31
0.0
  0
ARC
  5
2CD
330
1F
100
AcDbEntity
  8
9
  6
Continuous
 62
     7
370
    35
100
AcDbCircle
 10
265.9604957641596
 20
169.5599211865066
 30
0.0
 40
11.0
100
AcDbArc
 50
186.0216771926336
 51
245.4807912689809
  0
ARC
  5
2CE
330
1F
100
AcDbEntity
  8
9
  6
Continuous
 62
     7
370
    35
100
AcDbCircle
 10
261.7275132167816
 20
160.2797348331204
 30
0.0
 40
0.7999999999999545
100
AcDbArc
 50
245.4807912689805
 51
269.9999999999834
  0
ARC
  5
2CF
330
1F
100
AcDbEntity
  8
9
  6
Continuous
 62
     7
370
    35
100
AcDbCircle
 10
276.081885668808
 20
169.5599211865066
 30
0.0
 40
11.0
100
AcDbArc
 50
294.5192087310184
 51
353.9783228073657
  0
ARC
  5
2D0
330
1F
100
AcDbEntity
  8
9
  6
Continuous
 62
     7
370
    35
100
AcDbCircle
 10
280.3148682161856
 20
160.2797348331204
 30
0.0
 40
0.7999999999999545
100
AcDbArc
 50
269.9999999999998
 51
294.5192087310188
  0
LINE
  5
2D1
330
1F
100
AcDbEntity
  8
9
  6
Continuous
 62
     7
370
    35
100
AcDbLine
 10
263.5761242563218
 20
156.4059692490782
 30
0.0
 11
263.5761242563218
 21
158.2351417155647
 31
0.0
  0
ARC
  5
2D2
330
1F
100
AcDbEntity
  8
9
  6
Continuous
 62
     7
370
    35
100
AcDbCircle
 10
266.0211907164836
 20
168.4059692490782
 30
0.0
 40
15.0
100
AcDbArc
 50
179.9999999999998
 51
233.3170111996395
  0
ARC
  5
2D3
330
1F
100
AcDbEntity
  8
9
  6
Continuous
 62
     7
370
    35
100
AcDbCircle
 10
279.0211907164836
 20
170.1466948774313
 30
0.0
 40
26.0
100
AcDbArc
 50
156.1811586065443
 51
179.9999999999998
  0
ARC
  5
2D4
330
1F
100
AcDbEntity
  8
9
  6
Continuous
 62
     7
370
    35
100
AcDbCircle
 10
279.0211907164836
 20
170.1466948774313
 30
0.0
 40
28.0
100
AcDbArc
 50
157.975687162958
 51
179.9999999999998
  0
ARC
  5
2D5
330
1F
100
AcDbEntity
  8
9
  6
Continuous
 62
     7
370
    35
100
AcDbCircle
 10
263.7543389720541
 20
168.9822733028066
 30
0.0
 40
10.74860911180576
100
AcDbArc
 50
183.073479620749
 51
269.049977643577
  0
ARC
  5
2D6
330
1F
100
AcDbEntity
  8
9
  6
Continuous
 62
     7
370
    35
100
AcDbCircle
 10
257.1334421848152
 20
149.2628519207019
 30
0.0
 40
6.498907295833078
100
AcDbArc
 50
39.10096087449591
 51
75.32091994779974
  0
ARC
  5
2D7
330
1F
100
AcDbEntity
  8
9
  6
Continuous
 62
     7
370
    35
100
AcDbCircle
 10
254.2711907164836
 20
196.1466948774313
 30
0.0
 40
12.5
100
AcDbArc
 50
343.7397952916877
 51
16.26020470831221
  0
ARC
  5
2D8
330
1F
100
AcDbEntity
  8
9
  6
Continuous
 62
     7
370
    35
100
AcDbCircle
 10
260.047319993559
 20
160.3864388023635
 30
0.0
 40
5.0
100
AcDbArc
 50
233.3170111996386
 51
255.3209199477997
  0
LINE
  5
2D9
330
1F
100
AcDbEntity
  8
9
  6
Continuous
 62
     7
370
    35
100
AcDbLine
 10
260.3576763621578
 20
150.5181311309694
 30
0.0
 11
260.7431364885714
 21
138.1840234769904
 31
0.0
  0
LINE
  5
2DA
330
1F
100
AcDbEntity
  8
9
  6
Continuous
 62
     7
370
    35
100
AcDbLine
 10
262.5211907164836
 20
136.4059692490782
 30
0.0
 11
260.7431364885714
 21
138.1840234769904
 31
0.0
  0
LINE
  5
2DB
330
1F
100
AcDbEntity
  8
9
  6
Continuous
 62
     7
370
    35
100
AcDbLine
 10
262.5211907164836
 20
136.4059692490782
 30
0.0
 11
279.5211907164836
 21
136.4059692490782
 31
0.0
  0
LINE
  5
2DC
330
1F
100
AcDbEntity
  8
9
  6
Continuous
 62
     7
370
    35
100
AcDbLine
 10
279.5211907164836
 20
136.4059692490782
 30
0.0
 11
281.299244944396
 21
138.1840234769904
 31
0.0
  0
LINE
  5
2DD
330
1F
100
AcDbEntity
  8
9
  6
Continuous
 62
     7
370
    35
100
AcDbLine
 10
281.299244944396
 20
138.1840234769904
 30
0.0
 11
281.6847050708094
 21
150.5181311309694
 31
0.0
  0
LINE
  5
2DE
330
1F
100
AcDbEntity
  8
9
  6
Continuous
 62
     7
370
    35
100
AcDbLine
 10
281.6847050708094
 20
150.5181311309695
 30
0.0
 11
280.5211907164836
 21
150.9059692490782
 31
0.0
  0
LINE
  5
2DF
330
1F
100
AcDbEntity
  8
9
  6
Continuous
 62
     7
370
    35
100
AcDbLine
 10
260.3576763621578
 20
150.5181311309695
 30
0.0
 11
261.5211907164836
 21
150.9059692490782
 31
0.0
  0
LINE
  5
2E0
330
1F
100
AcDbEntity
  8
8
  6
Continuous
 62
     4
370
    25
100
AcDbLine
 10
280.099759139758
 20
136.9845376723526
 30
0.0
 11
280.5346850447437
 21
150.9014711396582
 31
0.0
  0
LINE
  5
2E1
330
1F
100
AcDbEntity
  8
8
  6
Continuous
 62
     4
370
    25
100
AcDbLine
 10
261.9426222932094
 20
136.9845376723526
 30
0.0
 11
261.5076963882235
 21
150.9014711396582
 31
0.0
  0
LINE
  5
2E2
330
1F
100
AcDbEntity
  8
9
  6
Continuous
 62
     7
370
    35
100
AcDbLine
 10
260.3576763621578
 20
150.5181311309695
 30
0.0
 11
281.6847050708094
 21
150.5181311309695
 31
0.0
  0
LINE
  5
2E3
330
1F
100
AcDbEntity
  8
9
  6
Continuous
 62
     7
370
    35
100
AcDbLine
 10
260.2766280699456
 20
152.4059692490782
 30
0.0
 11
266.4602528171059
 21
152.4059692490782
 31
0.0
  0
LINE
  5
2E4
330
1F
100
AcDbEntity
  8
9
  6
Continuous
 62
     7
370
    35
100
AcDbLine
 10
269.5211907164836
 20
156.4351417155688
 30
0.0
 11
269.5211907164836
 21
158.2059692490783
 31
0.0
  0
ARC
  5
2E5
330
1F
100
AcDbEntity
  8
9
  6
Continuous
 62
     7
370
    35
100
AcDbCircle
 10
276.0211907164836
 20
168.4059692490782
 30
0.0
 40
15.0
100
AcDbArc
 50
306.6829888003653
 51
0.0
  0
ARC
  5
2E6
330
1F
100
AcDbEntity
  8
9
  6
Continuous
 62
     7
370
    35
100
AcDbCircle
 10
278.2880424609135
 20
168.9822733028066
 30
0.0
 40
10.74860911180576
100
AcDbArc
 50
270.9500223564175
 51
356.9265203792502
  0
ARC
  5
2E7
330
1F
100
AcDbEntity
  8
9
  6
Continuous
 62
     7
370
    35
100
AcDbCircle
 10
284.908939248152
 20
149.2628519207019
 30
0.0
 40
6.498907295833078
100
AcDbArc
 50
104.6790800522023
 51
140.8990391255013
  0
LINE
  5
2E8
330
1F
100
AcDbEntity
  8
9
  6
Continuous
 62
     7
370
    35
100
AcDbLine
 10
281.7657533630219
 20
152.4059692490782
 30
0.0
 11
275.5821286158617
 21
152.4059692490782
 31
0.0
  0
LINE
  5
2E9
330
1F
100
AcDbEntity
  8
9
  6
Continuous
 62
     7
370
    35
100
AcDbLine
 10
272.5211907164836
 20
156.4351417155688
 30
0.0
 11
272.5211907164836
 21
158.2059692490783
 31
0.0
  0
ARC
  5
2EA
330
1F
100
AcDbEntity
  8
9
  6
Continuous
 62
     7
370
    35
100
AcDbCircle
 10
281.9950614394085
 20
160.3864388023635
 30
0.0
 40
5.0
100
AcDbArc
 50
284.6790800522024
 51
306.6829888003648
  0
LINE
  5
2EB
330
1F
100
AcDbEntity
  8
9
  6
Continuous
 62
     7
370
    35
100
AcDbLine
 10
279.3522417271403
 20
152.4059692490782
 30
0.0
 11
279.3522417271403
 21
156.4351417155688
 31
0.0
  0
LINE
  5
2EC
330
1F
100
AcDbEntity
  8
9
  6
Continuous
 62
     7
370
    35
100
AcDbLine
 10
278.4662571766459
 20
156.4059692490782
 30
0.0
 11
278.4662571766459
 21
158.2351417155647
 31
0.0
  0
ARC
  5
2ED
330
1F
100
AcDbEntity
  8
9
  6
Continuous
 62
     7
370
    35
100
AcDbCircle
 10
263.0211907164836
 20
170.1466948774313
 30
0.0
 40
26.0
100
AcDbArc
 50
0.0
 51
23.81884139345549
  0
ARC
  5
2EE
330
1F
100
AcDbEntity
  8
9
  6
Continuous
 62
     7
370
    35
100
AcDbCircle
 10
263.0211907164836
 20
170.1466948774313
 30
0.0
 40
28.0
100
AcDbArc
 50
0.0
 51
22.02431283704305
  0
LINE
  5
2EF
330
1F
100
AcDbEntity
  8
9
  6
Continuous
 62
     7
370
    35
100
AcDbLine
 10
293.0211907164836
 20
168.4059692490782
 30
0.0
 11
293.0211907164836
 21
170.1466948774313
 31
0.0
  0
LINE
  5
2F0
330
1F
100
AcDbEntity
  8
9
  6
Continuous
 62
     7
370
    35
100
AcDbLine
 10
291.0211907164836
 20
168.4059692490782
 30
0.0
 11
291.0211907164836
 21
170.1466948774313
 31
0.0
  0
LINE
  5
2F1
330
1F
100
AcDbEntity
  8
9
  6
Continuous
 62
     7
370
    35
100
AcDbLine
 10
289.0211907164836
 20
168.4059692490782
 30
0.0
 11
289.0211907164836
 21
170.1466948774313
 31
0.0
  0
LINE
  5
2F2
330
1F
100
AcDbEntity
  8
9
  6
Continuous
 62
     7
370
    35
100
AcDbLine
 10
287.0211907164836
 20
168.4059692490785
 30
0.0
 11
287.0211907164836
 21
170.1466948774313
 31
0.0
  0
LINE
  5
2F3
330
1F
100
AcDbEntity
  8
9
  6
Continuous
 62
     7
370
    35
100
AcDbLine
 10
249.0211907164836
 20
168.4059692490782
 30
0.0
 11
249.0211907164836
 21
170.1466948774313
 31
0.0
  0
LINE
  5
2F4
330
1F
100
AcDbEntity
  8
9
  6
Continuous
 62
     7
370
    35
100
AcDbLine
 10
251.0211907164836
 20
168.4059692490782
 30
0.0
 11
251.0211907164836
 21
170.1466948774313
 31
0.0
  0
LINE
  5
2F5
330
1F
100
AcDbEntity
  8
9
  6
Continuous
 62
     7
370
    35
100
AcDbLine
 10
253.0211907164836
 20
168.4059692490782
 30
0.0
 11
253.0211907164836
 21
170.1466948774313
 31
0.0
  0
LINE
  5
2F6
330
1F
100
AcDbEntity
  8
9
  6
Continuous
 62
     7
370
    35
100
AcDbLine
 10
255.0211907164836
 20
168.4059692490785
 30
0.0
 11
255.0211907164836
 21
170.1466948774313
 31
0.0
  0
ARC
  5
2F7
330
1F
100
AcDbEntity
  8
9
  6
Continuous
 62
     7
370
    35
100
AcDbCircle
 10
287.7711907164836
 20
196.1466948774313
 30
0.0
 40
12.5
100
AcDbArc
 50
163.7397952916883
 51
196.2602047083111
  0
LINE
  5
2F8
330
1F
100
AcDbEntity
  8
9
  6
Continuous
 62
     7
370
    35
100
AcDbLine
 10
254.2674795987701
 20
200.1851417155688
 30
0.0
 11
253.46747959877
 21
200.1851417155688
 31
0.0
  0
ARC
  5
2F9
330
1F
100
AcDbEntity
  8
9
  6
Continuous
 62
     7
370
    35
100
AcDbCircle
 10
255.1089579216197
 20
201.8851417155689
 30
0.0
 40
1.299999999999955
100
AcDbArc
 50
89.99999999999991
 51
174.8427865251759
  0
ARC
  5
2FA
330
1F
100
AcDbEntity
  8
9
  6
Continuous
 62
     7
370
    35
100
AcDbCircle
 10
253.46747959877
 20
200.3851417155688
 30
0.0
 40
0.2000000000000455
100
AcDbArc
 50
183.9176963714607
 51
354.8427865251659
  0
LINE
  5
2FB
330
1F
100
AcDbEntity
  8
9
  6
Continuous
 62
     7
370
    35
100
AcDbLine
 10
253.1496723257302
 20
202.0985308852554
 30
0.0
 11
253.2679469539599
 21
200.3714770291427
 31
0.0
  0
LINE
  5
2FC
330
1F
100
AcDbEntity
  8
9
  6
Continuous
 62
     7
370
    35
100
AcDbLine
 10
253.6666699592166
 20
200.3671639430395
 30
0.0
 11
253.8142205787161
 21
202.0019972370089
 31
0.0
  0
ARC
  5
2FD
330
1F
100
AcDbEntity
  8
9
  6
Continuous
 62
     7
370
    35
100
AcDbCircle
 10
276.1876416724982
 20
201.8851417155688
 30
0.0
 40
1.299999999999955
100
AcDbArc
 50
12.32083218587867
 51
89.99999999999991
  0
ARC
  5
2FE
330
1F
100
AcDbEntity
  8
9
  6
Continuous
 62
     7
370
    35
100
AcDbCircle
 10
276.3132885239448
 20
201.1851417155688
 30
0.0
 40
1.0
100
AcDbArc
 50
20.03172652528637
 51
89.99999999999991
  0
LINE
  5
2FF
330
1F
100
AcDbEntity
  8
9
  6
Continuous
 62
     7
370
    35
100
AcDbLine
 10
275.6535882333743
 20
203.1851417155688
 30
0.0
 11
276.1876416724982
 21
203.1851417155688
 31
0.0
  0
LINE
  5
300
330
1F
100
AcDbEntity
  8
9
  6
Continuous
 62
     7
370
    35
100
AcDbLine
 10
276.3132885239448
 20
202.1851417155688
 30
0.0
 11
274.388677169307
 21
202.1851417155688
 31
0.0
  0
ARC
  5
301
330
1F
100
AcDbEntity
  8
9
  6
Continuous
 62
     7
370
    35
100
AcDbCircle
 10
275.6535882333743
 20
201.8851417155689
 30
0.0
 40
1.299999999999955
100
AcDbArc
 50
89.99999999999991
 51
168.8861928075061
  0
ARC
  5
302
330
1F
100
AcDbEntity
  8
9
  6
Continuous
 62
     7
370
    35
100
AcDbCircle
 10
273.4011883686657
 20
200.7851417155693
 30
0.0
 40
0.599999999999909
100
AcDbArc
 50
197.3059974608067
 51
269.9999999999998
  0
LINE
  5
303
330
1F
100
AcDbEntity
  8
9
  6
Continuous
 62
     7
370
    35
100
AcDbLine
 10
273.5011883686658
 20
200.1851417155688
 30
0.0
 11
273.4011883686657
 21
200.1851417155688
 31
0.0
  0
ARC
  5
304
330
1F
100
AcDbEntity
  8
9
  6
Continuous
 62
     7
370
    35
100
AcDbCircle
 10
273.5011883686658
 20
200.7851417155693
 30
0.0
 40
0.599999999999909
100
AcDbArc
 50
191.3188337273934
 51
348.886192807503
  0
LINE
  5
305
330
1F
100
AcDbEntity
  8
9
  6
Continuous
 62
     7
370
    35
100
AcDbLine
 10
274.3779681195934
 20
202.1357276794974
 30
0.0
 11
274.0899361134876
 21
200.6694866552947
 31
0.0
  0
ARC
  5
306
330
1F
100
AcDbEntity
  8
9
  6
Continuous
 62
     7
370
    35
100
AcDbCircle
 10
270.5888595377334
 20
200.9851417155689
 30
0.0
 40
1.200000000000045
100
AcDbArc
 50
89.99999999999991
 51
162.6940025391988
  0
ARC
  5
307
330
1F
100
AcDbEntity
  8
9
  6
Continuous
 62
     7
370
    35
100
AcDbCircle
 10
270.6990584421918
 20
201.8851417155688
 30
0.0
 40
1.299999999999955
100
AcDbArc
 50
89.99999999999991
 51
168.6811662726045
  0
LINE
  5
308
330
1F
100
AcDbEntity
  8
9
  6
Continuous
 62
     7
370
    35
100
AcDbLine
 10
271.3433229907756
 20
203.1851417155688
 30
0.0
 11
270.6990584421918
 21
203.1851417155688
 31
0.0
  0
LINE
  5
309
330
1F
100
AcDbEntity
  8
9
  6
Continuous
 62
     7
370
    35
100
AcDbLine
 10
269.214030864158
 20
200.6066568280974
 30
0.0
 11
269.4431839380208
 21
201.3421114905126
 31
0.0
  0
LINE
  5
30A
330
1F
100
AcDbEntity
  8
9
  6
Continuous
 62
     7
370
    35
100
AcDbLine
 10
269.1295231819037
 20
200.6673806323468
 30
0.0
 11
269.4243431873862
 21
202.140290729218
 31
0.0
  0
LINE
  5
30B
330
1F
100
AcDbEntity
  8
9
  6
Continuous
 62
     7
370
    35
100
AcDbLine
 10
266.3887931995934
 20
203.1851417155688
 30
0.0
 11
265.854739760469
 21
203.1851417155688
 31
0.0
  0
LINE
  5
30C
330
1F
100
AcDbEntity
  8
9
  6
Continuous
 62
     7
370
    35
100
AcDbLine
 10
265.7290929090226
 20
202.1851417155688
 30
0.0
 11
267.6537042636611
 21
202.1851417155688
 31
0.0
  0
ARC
  5
30D
330
1F
100
AcDbEntity
  8
9
  6
Continuous
 62
     7
370
    35
100
AcDbCircle
 10
266.3887931995934
 20
201.8851417155689
 30
0.0
 40
1.299999999999955
100
AcDbArc
 50
11.11380719249393
 51
89.99999999999991
  0
LINE
  5
30E
330
1F
100
AcDbEntity
  8
9
  6
Continuous
 62
     7
370
    35
100
AcDbLine
 10
268.6411930643018
 20
200.1851417155688
 30
0.0
 11
268.5411930643019
 21
200.1851417155688
 31
0.0
  0
LINE
  5
30F
330
1F
100
AcDbEntity
  8
9
  6
Continuous
 62
     7
370
    35
100
AcDbLine
 10
267.6644133133742
 20
202.1357276794973
 30
0.0
 11
267.95244531948
 21
200.6694866552947
 31
0.0
  0
ARC
  5
310
330
1F
100
AcDbEntity
  8
9
  6
Continuous
 62
     7
370
    35
100
AcDbCircle
 10
268.6411930643018
 20
200.7851417155693
 30
0.0
 40
0.599999999999909
100
AcDbArc
 50
269.9999999999998
 51
342.6940025391926
  0
ARC
  5
311
330
1F
100
AcDbEntity
  8
9
  6
Continuous
 62
     7
370
    35
100
AcDbCircle
 10
268.5411930643019
 20
200.7851417155693
 30
0.0
 40
0.599999999999909
100
AcDbArc
 50
191.1138071924963
 51
348.6811662726058
  0
LINE
  5
312
330
1F
100
AcDbEntity
  8
9
  6
Continuous
 62
     7
370
    35
100
AcDbLine
 10
272.8283505688092
 20
200.6066568280974
 30
0.0
 11
272.5991974949467
 21
201.3421114905126
 31
0.0
  0
ARC
  5
313
330
1F
100
AcDbEntity
  8
9
  6
Continuous
 62
     7
370
    35
100
AcDbCircle
 10
271.4535218952343
 20
200.9851417155689
 30
0.0
 40
1.200000000000045
100
AcDbArc
 50
17.30599746080124
 51
89.99999999999991
  0
LINE
  5
314
330
1F
100
AcDbEntity
  8
9
  6
Continuous
 62
     7
370
    35
100
AcDbLine
 10
272.9128582510638
 20
200.6673806323468
 30
0.0
 11
272.618038245581
 21
202.140290729218
 31
0.0
  0
ARC
  5
315
330
1F
100
AcDbEntity
  8
9
  6
Continuous
 62
     7
370
    35
100
AcDbCircle
 10
271.3433229907756
 20
201.8851417155688
 30
0.0
 40
1.299999999999955
100
AcDbArc
 50
11.31883372739553
 51
89.99999999999991
  0
LINE
  5
316
330
1F
100
AcDbEntity
  8
9
  6
Continuous
 62
     7
370
    35
100
AcDbLine
 10
261.377543638282
 20
202.1851417155688
 30
0.0
 11
262.9267694834422
 21
202.1851417155688
 31
0.0
  0
LINE
  5
317
330
1F
100
AcDbEntity
  8
9
  6
Continuous
 62
     7
370
    35
100
AcDbLine
 10
261.448064805844
 20
203.1851417155688
 30
0.0
 11
261.6618584193749
 21
203.1851417155688
 31
0.0
  0
ARC
  5
318
330
1F
100
AcDbEntity
  8
9
  6
Continuous
 62
     7
370
    35
100
AcDbCircle
 10
261.6618584193749
 20
201.8851417155688
 30
0.0
 40
1.299999999999955
100
AcDbArc
 50
11.75775714726765
 51
89.99999999999991
  0
ARC
  5
319
330
1F
100
AcDbEntity
  8
9
  6
Continuous
 62
     7
370
    35
100
AcDbCircle
 10
263.9502055015479
 20
200.6851417155688
 30
0.0
 40
0.5
100
AcDbArc
 50
269.9999999999998
 51
339.9682734747133
  0
LINE
  5
31A
330
1F
100
AcDbEntity
  8
9
  6
Continuous
 62
     7
370
    35
100
AcDbLine
 10
263.9502055015479
 20
200.1851417155688
 30
0.0
 11
263.7502055015481
 21
200.1851417155688
 31
0.0
  0
ARC
  5
31B
330
1F
100
AcDbEntity
  8
9
  6
Continuous
 62
     7
370
    35
100
AcDbCircle
 10
263.7502055015481
 20
200.6851417155688
 30
0.0
 40
0.5
100
AcDbArc
 50
191.7577571472692
 51
347.6791678141202
  0
LINE
  5
31C
330
1F
100
AcDbEntity
  8
9
  6
Continuous
 62
     7
370
    35
100
AcDbLine
 10
264.4199570461088
 20
200.5138715010463
 30
0.0
 11
264.7895898199007
 21
201.527682144614
 31
0.0
  0
LINE
  5
31D
330
1F
100
AcDbEntity
  8
9
  6
Continuous
 62
     7
370
    35
100
AcDbLine
 10
264.2386895285919
 20
200.5784489073613
 30
0.0
 11
264.5846812901556
 21
202.1625430169084
 31
0.0
  0
LINE
  5
31E
330
1F
100
AcDbEntity
  8
9
  6
Continuous
 62
     7
370
    35
100
AcDbLine
 10
263.2606965550927
 20
200.5832545655453
 30
0.0
 11
262.9345816801593
 21
202.1500483056302
 31
0.0
  0
LINE
  5
31F
330
1F
100
AcDbEntity
  8
9
  6
Continuous
 62
     7
370
    35
100
AcDbLine
 10
257.7197945101697
 20
202.1851417155688
 30
0.0
 11
258.7540297613658
 21
202.1851417155688
 31
0.0
  0
LINE
  5
320
330
1F
100
AcDbEntity
  8
9
  6
Continuous
 62
     7
370
    35
100
AcDbLine
 10
257.7816089779216
 20
203.1851417155688
 30
0.0
 11
258.6468220457242
 21
203.1851417155688
 31
0.0
  0
ARC
  5
321
330
1F
100
AcDbEntity
  8
9
  6
Continuous
 62
     7
370
    35
100
AcDbCircle
 10
266.790004469001
 20
203.552406954075
 30
0.0
 40
8.15146022097747
100
AcDbArc
 50
182.5823439498849
 51
190.2741177283828
  0
ARC
  5
322
330
1F
100
AcDbEntity
  8
9
  6
Continuous
 62
     7
370
    35
100
AcDbCircle
 10
259.8547235653187
 20
200.5851417155687
 30
0.0
 40
0.4000000000000909
100
AcDbArc
 50
269.9999999999998
 51
341.9500333794157
  0
LINE
  5
323
330
1F
100
AcDbEntity
  8
9
  6
Continuous
 62
     7
370
    35
100
AcDbLine
 10
259.8547235653187
 20
200.1851417155688
 30
0.0
 11
259.4547235653187
 21
200.1851417155688
 31
0.0
  0
ARC
  5
324
330
1F
100
AcDbEntity
  8
9
  6
Continuous
 62
     7
370
    35
100
AcDbCircle
 10
259.4547235653187
 20
200.5851417155687
 30
0.0
 40
0.4000000000000909
100
AcDbArc
 50
190.4362216586901
 51
348.7010440842471
  0
LINE
  5
325
330
1F
100
AcDbEntity
  8
9
  6
Continuous
 62
     7
370
    35
100
AcDbLine
 10
260.616914305078
 20
201.6330187364279
 30
0.0
 11
260.2350382319206
 21
200.4612032051391
 31
0.0
  0
LINE
  5
326
330
1F
100
AcDbEntity
  8
9
  6
Continuous
 62
     7
370
    35
100
AcDbLine
 10
259.8469708569402
 20
200.5067704056664
 30
0.0
 11
260.1732611080748
 21
202.1398484727511
 31
0.0
  0
LINE
  5
327
330
1F
100
AcDbEntity
  8
9
  6
Continuous
 62
     7
370
    35
100
AcDbLine
 10
259.0613407043667
 20
200.5126853513947
 30
0.0
 11
258.7692471412485
 21
202.0985308852563
 31
0.0
  0
ARC
  5
328
330
1F
100
AcDbEntity
  8
9
  6
Continuous
 62
     7
370
    35
100
AcDbCircle
 10
261.377543638282
 20
201.3851417155688
 30
0.0
 40
0.7999999999999545
100
AcDbArc
 50
89.99999999999991
 51
161.9500333794123
  0
ARC
  5
329
330
1F
100
AcDbEntity
  8
9
  6
Continuous
 62
     7
370
    35
100
AcDbCircle
 10
261.448064805844
 20
201.8851417155688
 30
0.0
 40
1.299999999999955
100
AcDbArc
 50
89.99999999999991
 51
168.7010440842476
  0
LINE
  5
32A
330
1F
100
AcDbEntity
  8
9
  6
Continuous
 62
     7
370
    35
100
AcDbLine
 10
255.0002985626564
 20
202.1851417155688
 30
0.0
 11
255.0786269956048
 21
202.1851417155688
 31
0.0
  0
ARC
  5
32B
330
1F
100
AcDbEntity
  8
9
  6
Continuous
 62
     7
370
    35
100
AcDbCircle
 10
255.0002985626564
 20
201.7851417155689
 30
0.0
 40
0.4000000000000909
100
AcDbArc
 50
89.99999999999991
 51
174.685610441349
  0
LINE
  5
32C
330
1F
100
AcDbEntity
  8
9
  6
Continuous
 62
     7
370
    35
100
AcDbLine
 10
255.1089579216197
 20
203.1851417155688
 30
0.0
 11
255.8657461502681
 21
203.1851417155688
 31
0.0
  0
ARC
  5
32D
330
1F
100
AcDbEntity
  8
9
  6
Continuous
 62
     7
370
    35
100
AcDbCircle
 10
254.2674795987701
 20
200.3851417155688
 30
0.0
 40
0.2000000000000455
100
AcDbArc
 50
269.9999999999998
 51
354.6856104413405
  0
LINE
  5
32E
330
1F
100
AcDbEntity
  8
9
  6
Continuous
 62
     7
370
    35
100
AcDbLine
 10
254.6020179753142
 20
201.8221899779632
 30
0.0
 11
254.4666198924411
 21
200.3666175843716
 31
0.0
  0
ARC
  5
32F
330
1F
100
AcDbEntity
  8
9
  6
Continuous
 62
     7
370
    35
100
AcDbCircle
 10
265.7290929090226
 20
201.1851417155688
 30
0.0
 40
1.0
100
AcDbArc
 50
89.99999999999991
 51
159.9682734747136
  0
ARC
  5
330
330
1F
100
AcDbEntity
  8
9
  6
Continuous
 62
     7
370
    35
100
AcDbCircle
 10
265.854739760469
 20
201.8851417155688
 30
0.0
 40
1.299999999999955
100
AcDbArc
 50
89.99999999999991
 51
167.6791678141213
  0
ARC
  5
331
330
1F
100
AcDbEntity
  8
9
  6
Continuous
 62
     7
370
    35
100
AcDbCircle
 10
287.6522247481395
 20
202.1989339636334
 30
0.0
 40
1.244540968917363
100
AcDbArc
 50
355.3726464066885
 51
52.41289174619168
  0
ARC
  5
332
330
1F
100
AcDbEntity
  8
9
  6
Continuous
 62
     7
370
    35
100
AcDbCircle
 10
288.5749018341972
 20
200.3851417155688
 30
0.0
 40
0.2000000000000455
100
AcDbArc
 50
185.1572134748334
 51
356.0823036285386
  0
LINE
  5
333
330
1F
100
AcDbEntity
  8
9
  6
Continuous
 62
     7
370
    35
100
AcDbLine
 10
288.7583140841338
 20
200.3053924423862
 30
0.0
 11
288.7586553142165
 21
200.2835776898308
 31
0.0
  0
LINE
  5
334
330
1F
100
AcDbEntity
  8
9
  6
Continuous
 62
     7
370
    35
100
AcDbLine
 10
288.8927091072375
 20
202.0985308852554
 30
0.0
 11
288.7744344790075
 21
200.3714770291427
 31
0.0
  0
LINE
  5
335
330
1F
100
AcDbEntity
  8
9
  6
Continuous
 62
     7
370
    35
100
AcDbLine
 10
288.3757114737506
 20
200.3671639430395
 30
0.0
 11
288.2281608542513
 21
202.0019972370089
 31
0.0
  0
LINE
  5
336
330
1F
100
AcDbEntity
  8
9
  6
Continuous
 62
     7
370
    35
100
AcDbLine
 10
286.9334235113478
 20
203.1851417155688
 30
0.0
 11
286.1766352826995
 21
203.1851417155688
 31
0.0
  0
ARC
  5
337
330
1F
100
AcDbEntity
  8
9
  6
Continuous
 62
     7
370
    35
100
AcDbCircle
 10
287.042082870311
 20
201.7851417155689
 30
0.0
 40
0.4000000000000909
100
AcDbArc
 50
5.314389558651028
 51
89.99999999999991
  0
LINE
  5
338
330
1F
100
AcDbEntity
  8
9
  6
Continuous
 62
     7
370
    35
100
AcDbLine
 10
287.042082870311
 20
202.1851417155688
 30
0.0
 11
286.9637544373624
 21
202.1851417155688
 31
0.0
  0
ARC
  5
339
330
1F
100
AcDbEntity
  8
9
  6
Continuous
 62
     7
370
    35
100
AcDbCircle
 10
284.2607724550459
 20
201.8851417155688
 30
0.0
 40
1.299999999999955
100
AcDbArc
 50
53.7435373147751
 51
89.99999999999991
  0
ARC
  5
33A
330
1F
100
AcDbEntity
  8
9
  6
Continuous
 62
     7
370
    35
100
AcDbCircle
 10
284.3225869227978
 20
201.5851417155689
 30
0.0
 40
0.599999999999909
100
AcDbArc
 50
57.77768193555133
 51
89.99999999999991
  0
ARC
  5
33B
330
1F
100
AcDbEntity
  8
9
  6
Continuous
 62
     7
370
    35
100
AcDbCircle
 10
287.7749018341975
 20
200.3851417155688
 30
0.0
 40
0.2000000000000455
100
AcDbArc
 50
185.3143895586588
 51
269.9999999999998
  0
LINE
  5
33C
330
1F
100
AcDbEntity
  8
9
  6
Continuous
 62
     7
370
    35
100
AcDbLine
 10
286.8021696719487
 20
201.0077339541279
 30
0.0
 11
287.2850585593136
 21
201.4906228414929
 31
0.0
  0
LINE
  5
33D
330
1F
100
AcDbEntity
  8
9
  6
Continuous
 62
     7
370
    35
100
AcDbLine
 10
286.2844272517851
 20
203.0752062243992
 30
0.0
 11
287.2965150146025
 21
201.7491538940483
 31
0.0
  0
LINE
  5
33E
330
1F
100
AcDbEntity
  8
9
  6
Continuous
 62
     7
370
    35
100
AcDbLine
 10
287.0236292788562
 20
201.4709994090269
 30
0.0
 11
285.0295932449657
 21
202.93343298854
 31
0.0
  0
LINE
  5
33F
330
1F
100
AcDbEntity
  8
9
  6
Continuous
 62
     7
370
    35
100
AcDbLine
 10
287.440363457653
 20
201.8221899779632
 30
0.0
 11
287.5757615405265
 21
200.3666175843716
 31
0.0
  0
LINE
  5
340
330
1F
100
AcDbEntity
  8
9
  6
Continuous
 62
     7
370
    35
100
AcDbLine
 10
284.6425104315587
 20
202.092733035966
 30
0.0
 11
286.430075883212
 21
200.9660703282855
 31
0.0
  0
ARC
  5
341
330
1F
100
AcDbEntity
  8
9
  6
Continuous
 62
     7
370
    35
100
AcDbCircle
 10
275.2523769639666
 20
203.552406954075
 30
0.0
 40
8.15146022097747
100
AcDbArc
 50
349.7258822716165
 51
357.4176560501143
  0
ARC
  5
342
330
1F
100
AcDbEntity
  8
9
  6
Continuous
 62
     7
370
    35
100
AcDbCircle
 10
280.5943166271237
 20
201.8851417155688
 30
0.0
 40
1.299999999999955
100
AcDbArc
 50
11.29895591575242
 51
89.99999999999991
  0
LINE
  5
343
330
1F
100
AcDbEntity
  8
9
  6
Continuous
 62
     7
370
    35
100
AcDbLine
 10
280.5943166271237
 20
203.1851417155688
 30
0.0
 11
280.3805230135928
 21
203.1851417155688
 31
0.0
  0
ARC
  5
344
330
1F
100
AcDbEntity
  8
9
  6
Continuous
 62
     7
370
    35
100
AcDbCircle
 10
280.6648377946855
 20
201.3851417155688
 30
0.0
 40
0.7999999999999545
100
AcDbArc
 50
18.04996662058775
 51
89.99999999999991
  0
ARC
  5
345
330
1F
100
AcDbEntity
  8
9
  6
Continuous
 62
     7
370
    35
100
AcDbCircle
 10
282.1876578676489
 20
200.5851417155687
 30
0.0
 40
0.4000000000000909
100
AcDbArc
 50
198.0499666205835
 51
269.9999999999998
  0
ARC
  5
346
330
1F
100
AcDbEntity
  8
9
  6
Continuous
 62
     7
370
    35
100
AcDbCircle
 10
282.5876578676488
 20
200.5851417155687
 30
0.0
 40
0.4000000000000909
100
AcDbArc
 50
191.2989559157522
 51
349.5637783413092
  0
LINE
  5
347
330
1F
100
AcDbEntity
  8
9
  6
Continuous
 62
     7
370
    35
100
AcDbLine
 10
282.1876578676489
 20
200.1851417155688
 30
0.0
 11
282.5876578676488
 21
200.1851417155688
 31
0.0
  0
LINE
  5
348
330
1F
100
AcDbEntity
  8
9
  6
Continuous
 62
     7
370
    35
100
AcDbLine
 10
282.981040728601
 20
200.5126853513947
 30
0.0
 11
283.2731342917192
 21
202.0985308852563
 31
0.0
  0
LINE
  5
349
330
1F
100
AcDbEntity
  8
9
  6
Continuous
 62
     7
370
    35
100
AcDbLine
 10
282.1954105760275
 20
200.5067704056664
 30
0.0
 11
281.8691203248928
 21
202.1398484727511
 31
0.0
  0
LINE
  5
34A
330
1F
100
AcDbEntity
  8
9
  6
Continuous
 62
     7
370
    35
100
AcDbLine
 10
281.4254671278892
 20
201.6330187364279
 30
0.0
 11
281.807343201047
 21
200.4612032051391
 31
0.0
  0
LINE
  5
34B
330
1F
100
AcDbEntity
  8
9
  6
Continuous
 62
     7
370
    35
100
AcDbLine
 10
284.2607724550459
 20
203.1851417155688
 30
0.0
 11
283.3955593872435
 21
203.1851417155688
 31
0.0
  0
LINE
  5
34C
330
1F
100
AcDbEntity
  8
9
  6
Continuous
 62
     7
370
    35
100
AcDbLine
 10
284.3225869227978
 20
202.1851417155688
 30
0.0
 11
283.2883516716016
 21
202.1851417155688
 31
0.0
  0
ARC
  5
34D
330
1F
100
AcDbEntity
  8
9
  6
Continuous
 62
     7
370
    35
100
AcDbCircle
 10
286.9334235113478
 20
201.8851417155689
 30
0.0
 40
1.299999999999955
100
AcDbArc
 50
5.15721347482408
 51
89.99999999999991
  0
LINE
  5
34E
330
1F
100
AcDbEntity
  8
9
  6
Continuous
 62
     7
370
    35
100
AcDbLine
 10
287.7749018341975
 20
200.1851417155688
 30
0.0
 11
288.5749018341972
 21
200.1851417155688
 31
0.0
  0
LINE
  5
34F
330
1F
100
AcDbEntity
  8
9
  6
Continuous
 62
     7
370
    35
100
AcDbLine
 10
278.0921759314198
 20
200.1851417155688
 30
0.0
 11
278.2921759314196
 21
200.1851417155688
 31
0.0
  0
ARC
  5
350
330
1F
100
AcDbEntity
  8
9
  6
Continuous
 62
     7
370
    35
100
AcDbCircle
 10
278.0921759314198
 20
200.6851417155688
 30
0.0
 40
0.5
100
AcDbArc
 50
200.031726525286
 51
269.9999999999998
  0
ARC
  5
351
330
1F
100
AcDbEntity
  8
9
  6
Continuous
 62
     7
370
    35
100
AcDbCircle
 10
278.2921759314196
 20
200.6851417155688
 30
0.0
 40
0.5
100
AcDbArc
 50
192.3208321858791
 51
348.2422428527301
  0
LINE
  5
352
330
1F
100
AcDbEntity
  8
9
  6
Continuous
 62
     7
370
    35
100
AcDbLine
 10
278.7816848778749
 20
200.5832545655453
 30
0.0
 11
279.1077997528079
 21
202.1500483056302
 31
0.0
  0
LINE
  5
353
330
1F
100
AcDbEntity
  8
9
  6
Continuous
 62
     7
370
    35
100
AcDbLine
 10
277.8036919043758
 20
200.5784489073613
 30
0.0
 11
277.4577001428121
 21
202.1625430169084
 31
0.0
  0
LINE
  5
354
330
1F
100
AcDbEntity
  8
9
  6
Continuous
 62
     7
370
    35
100
AcDbLine
 10
277.6224243868588
 20
200.5138715010463
 30
0.0
 11
277.2527916130667
 21
201.527682144614
 31
0.0
  0
ARC
  5
355
330
1F
100
AcDbEntity
  8
9
  6
Continuous
 62
     7
370
    35
100
AcDbCircle
 10
280.3805230135928
 20
201.8851417155688
 30
0.0
 40
1.299999999999955
100
AcDbArc
 50
89.99999999999991
 51
168.2422428527323
  0
LINE
  5
356
330
1F
100
AcDbEntity
  8
9
  6
Continuous
 62
     7
370
    35
100
AcDbLine
 10
280.6648377946855
 20
202.1851417155688
 30
0.0
 11
279.1156119495255
 21
202.1851417155688
 31
0.0
  0
LINE
  5
357
330
1F
100
AcDbEntity
  8
9
  6
Continuous
 62
     7
370
    35
100
AcDbLine
 10
260.7431364885714
 20
138.1840234769904
 30
0.0
 11
281.299244944396
 21
138.1840234769904
 31
0.0
  0
ARC
  5
358
330
1F
100
AcDbEntity
  8
9
  6
Continuous
 62
     7
370
    35
100
AcDbCircle
 10
289.5211907164836
 20
202.6907969824294
 30
0.0
 40
0.5
100
AcDbArc
 50
44.99999999999078
 51
82.99999999999439
  0
ARC
  5
359
330
1F
100
AcDbEntity
  8
9
  6
Continuous
 62
     7
370
    35
100
AcDbCircle
 10
288.4275014259898
 20
201.8851417155688
 30
0.0
 40
1.299999999999955
100
AcDbArc
 50
46.10570428951653
 51
89.99999999999991
  0
ARC
  5
35A
330
1F
100
AcDbEntity
  8
9
  6
Continuous
 62
     7
370
    35
100
AcDbCircle
 10
290.235515091411
 20
201.0198629305294
 30
0.0
 40
0.0999999999999091
100
AcDbArc
 50
225.8961572775927
 51
315.0000000000457
  0
LINE
  5
35B
330
1F
100
AcDbEntity
  8
9
  6
Continuous
 62
     7
370
    35
100
AcDbLine
 10
290.3062257695298
 20
200.9491522524108
 30
0.0
 11
291.1388726393506
 21
201.7817991222314
 31
0.0
  0
ARC
  5
35C
330
1F
100
AcDbEntity
  8
9
  6
Continuous
 62
     7
370
    35
100
AcDbCircle
 10
290.7800795545101
 20
201.5644273936282
 30
0.0
 40
0.0999999999999091
100
AcDbArc
 50
226.1057042894887
 51
315.0000000000227
  0
LINE
  5
35D
330
1F
100
AcDbEntity
  8
9
  6
Continuous
 62
     7
370
    35
100
AcDbLine
 10
291.1388726393506
 20
201.7817991222314
 30
0.0
 11
289.8747441070769
 21
203.0443503730226
 31
0.0
  0
LINE
  5
35E
330
1F
100
AcDbEntity
  8
9
  6
Continuous
 62
     7
370
    35
100
AcDbLine
 10
290.1659189955675
 20
200.9480549682736
 30
0.0
 11
288.8964171432286
 21
202.1694804864972
 31
0.0
  0
LINE
  5
35F
330
1F
100
AcDbEntity
  8
9
  6
Continuous
 62
     7
370
    35
100
AcDbLine
 10
290.7107465457344
 20
201.4923653794034
 30
0.0
 11
289.3288305400719
 21
202.8219479004911
 31
0.0
  0
ARC
  5
360
330
1F
100
AcDbEntity
  8
9
  6
Continuous
 62
     7
370
    35
100
AcDbCircle
 10
285.2703832204544
 20
202.1887468887375
 30
0.0
 40
1.346883607168593
100
AcDbArc
 50
41.15937921292335
 51
47.71250584115874
  0
ARC
  5
361
330
1F
100
AcDbEntity
  8
9
  6
Continuous
 62
     7
370
    35
100
AcDbCircle
 10
287.1433862421301
 20
201.6264464949105
 30
0.0
 40
0.1962282516922187
100
AcDbArc
 50
232.3892216437814
 51
38.70640762795939
  0
ARC
  5
362
330
1F
100
AcDbEntity
  8
9
  6
Continuous
 62
     7
370
    35
100
AcDbCircle
 10
286.5900376375927
 20
201.2198659884838
 30
0.0
 40
0.2999999999999545
100
AcDbArc
 50
237.7776819355355
 51
315.000000000015
  0
ARC
  5
363
330
1F
100
AcDbEntity
  8
9
  6
Continuous
 62
     7
370
    35
100
AcDbCircle
 10
254.3901566848277
 20
202.1989339636334
 30
0.0
 40
1.244540968917363
100
AcDbArc
 50
127.5871082538083
 51
184.6273535933108
  0
ARC
  5
364
330
1F
100
AcDbEntity
  8
9
  6
Continuous
 62
     7
370
    35
100
AcDbCircle
 10
257.7816089779213
 20
201.8851417155688
 30
0.0
 40
1.299999999999955
100
AcDbArc
 50
89.99999999999991
 51
126.2564626852249
  0
ARC
  5
365
330
1F
100
AcDbEntity
  8
9
  6
Continuous
 62
     7
370
    35
100
AcDbCircle
 10
257.7197945101694
 20
201.5851417155689
 30
0.0
 40
0.599999999999909
100
AcDbArc
 50
89.99999999999991
 51
122.2223180644487
  0
LINE
  5
366
330
1F
100
AcDbEntity
  8
9
  6
Continuous
 62
     7
370
    35
100
AcDbLine
 10
255.2402117610185
 20
201.0077339541279
 30
0.0
 11
254.7573228736536
 21
201.4906228414929
 31
0.0
  0
LINE
  5
367
330
1F
100
AcDbEntity
  8
9
  6
Continuous
 62
     7
370
    35
100
AcDbLine
 10
255.7579541811821
 20
203.0752062243992
 30
0.0
 11
254.7458664183647
 21
201.7491538940483
 31
0.0
  0
LINE
  5
368
330
1F
100
AcDbEntity
  8
9
  6
Continuous
 62
     7
370
    35
100
AcDbLine
 10
255.018752154111
 20
201.4709994090269
 30
0.0
 11
257.0127881880015
 21
202.93343298854
 31
0.0
  0
LINE
  5
369
330
1F
100
AcDbEntity
  8
9
  6
Continuous
 62
     7
370
    35
100
AcDbLine
 10
257.3998710014085
 20
202.092733035966
 30
0.0
 11
255.6123055497552
 21
200.9660703282855
 31
0.0
  0
ARC
  5
36A
330
1F
100
AcDbEntity
  8
9
  6
Continuous
 62
     7
370
    35
100
AcDbCircle
 10
252.5211907164836
 20
202.6907969824294
 30
0.0
 40
0.5
100
AcDbArc
 50
97.00000000000561
 51
135.0000000000092
  0
ARC
  5
36B
330
1F
100
AcDbEntity
  8
9
  6
Continuous
 62
     7
370
    35
100
AcDbCircle
 10
253.6148800069774
 20
201.8851417155688
 30
0.0
 40
1.299999999999955
100
AcDbArc
 50
89.99999999999991
 51
133.8942957104835
  0
ARC
  5
36C
330
1F
100
AcDbEntity
  8
9
  6
Continuous
 62
     7
370
    35
100
AcDbCircle
 10
251.8068663415562
 20
201.0198629305294
 30
0.0
 40
0.0999999999999091
100
AcDbArc
 50
224.9999999999536
 51
314.1038427224065
  0
LINE
  5
36D
330
1F
100
AcDbEntity
  8
9
  6
Continuous
 62
     7
370
    35
100
AcDbLine
 10
251.7361556634374
 20
200.9491522524108
 30
0.0
 11
250.9035087936167
 21
201.7817991222314
 31
0.0
  0
ARC
  5
36E
330
1F
100
AcDbEntity
  8
9
  6
Continuous
 62
     7
370
    35
100
AcDbCircle
 10
251.2623018784572
 20
201.5644273936282
 30
0.0
 40
0.0999999999999091
100
AcDbArc
 50
224.9999999999766
 51
313.8942957105106
  0
LINE
  5
36F
330
1F
100
AcDbEntity
  8
9
  6
Continuous
 62
     7
370
    35
100
AcDbLine
 10
250.9035087936167
 20
201.7817991222314
 30
0.0
 11
252.1676373258903
 21
203.0443503730226
 31
0.0
  0
LINE
  5
370
330
1F
100
AcDbEntity
  8
9
  6
Continuous
 62
     7
370
    35
100
AcDbLine
 10
251.8764624373997
 20
200.9480549682736
 30
0.0
 11
253.1459642897386
 21
202.1694804864972
 31
0.0
  0
LINE
  5
371
330
1F
100
AcDbEntity
  8
9
  6
Continuous
 62
     7
370
    35
100
AcDbLine
 10
251.3316348872328
 20
201.4923653794034
 30
0.0
 11
252.7135508928953
 21
202.8219479004911
 31
0.0
  0
ARC
  5
372
330
1F
100
AcDbEntity
  8
9
  6
Continuous
 62
     7
370
    35
100
AcDbCircle
 10
256.7719982125128
 20
202.1887468887375
 30
0.0
 40
1.346883607168593
100
AcDbArc
 50
132.2874941588413
 51
138.8406207870766
  0
ARC
  5
373
330
1F
100
AcDbEntity
  8
9
  6
Continuous
 62
     7
370
    35
100
AcDbCircle
 10
254.8989951908371
 20
201.6264464949105
 30
0.0
 40
0.1962282516922187
100
AcDbArc
 50
141.2935923720406
 51
307.6107783562178
  0
ARC
  5
374
330
1F
100
AcDbEntity
  8
9
  6
Continuous
 62
     7
370
    35
100
AcDbCircle
 10
255.4523437953745
 20
201.2198659884838
 30
0.0
 40
0.2999999999999545
100
AcDbArc
 50
224.9999999999843
 51
302.2223180644638
  0
LINE
  5
375
330
1F
100
AcDbEntity
  8
9
  6
Continuous
 62
     7
370
    35
100
AcDbLine
 10
280.8961907164836
 20
201.2743552779419
 30
0.0
 11
278.9255316501864
 21
201.2743552779419
 31
0.0
  0
ARC
  5
376
330
1F
100
AcDbEntity
  8
9
  6
Continuous
 62
     7
370
    35
100
AcDbCircle
 10
261.1461907164836
 20
202.2743552779419
 30
0.0
 40
1.0
100
AcDbArc
 50
234.2211531735228
 51
269.9999999999998
  0
ARC
  5
377
330
1F
100
AcDbEntity
  8
9
  6
Continuous
 62
     7
370
    35
100
AcDbCircle
 10
280.8961907164836
 20
202.2743552779419
 30
0.0
 40
1.0
100
AcDbArc
 50
269.9999999999998
 51
305.7788468264928
  0
LINE
  5
378
330
1F
100
AcDbEntity
  8
9
  6
Continuous
 62
     7
370
    35
100
AcDbLine
 10
277.3451539422634
 20
201.2743552779419
 30
0.0
 11
274.2087579987955
 21
201.2743552779419
 31
0.0
  0
LINE
  5
379
330
1F
100
AcDbEntity
  8
9
  6
Continuous
 62
     7
370
    35
100
AcDbLine
 10
272.6203089858069
 20
201.2743552779419
 30
0.0
 11
269.4220724471603
 21
201.2743552779419
 31
0.0
  0
LINE
  5
37A
330
1F
100
AcDbEntity
  8
9
  6
Continuous
 62
     7
370
    35
100
AcDbLine
 10
267.8336234341722
 20
201.2743552779419
 30
0.0
 11
264.6972274907042
 21
201.2743552779419
 31
0.0
  0
LINE
  5
37B
330
1F
100
AcDbEntity
  8
9
  6
Continuous
 62
     7
370
    35
100
AcDbLine
 10
263.1168497827808
 20
201.2743552779419
 30
0.0
 11
261.1461907164836
 21
201.2743552779419
 31
0.0
  0
LINE
  5
37C
330
1F
100
AcDbEntity
  8
9
  6
Continuous
 62
     7
370
    35
100
AcDbLine
 10
265.0206377904416
 20
160.9351417155688
 30
0.0
 11
263.4868191430998
 21
160.0495911066377
 31
0.0
  0
LINE
  5
37D
330
1F
100
AcDbEntity
  8
9
  6
Continuous
 62
     7
370
    35
100
AcDbLine
 10
278.5544564377839
 20
160.049591106638
 30
0.0
 11
277.02063779044
 21
160.9351417155697
 31
0.0
  0
LINE
  5
37E
330
1F
100
AcDbEntity
  8
9
  6
Continuous
 62
     7
370
    35
100
AcDbLine
 10
280.3148682161858
 20
159.4797348331204
 30
0.0
 11
279.3217436425253
 21
159.4797348331204
 31
0.0
  0
ARC
  5
37F
330
1F
100
AcDbEntity
  8
9
  6
Continuous
 62
     7
370
    35
100
AcDbCircle
 10
279.3217436425253
 20
160.2797348331203
 30
0.0
 40
0.7999999999999545
100
AcDbArc
 50
196.7190914177262
 51
269.9999999999998
  0
LINE
  5
380
330
1F
100
AcDbEntity
  8
9
  6
Continuous
 62
     7
370
    35
100
AcDbLine
 10
278.4662571766459
 20
158.2351417155647
 30
0.0
 11
272.2712127365087
 21
158.2351417155647
 31
0.0
  0
LINE
  5
381
330
1F
100
AcDbEntity
  8
9
  6
Continuous
 62
     7
370
    35
100
AcDbLine
 10
263.4868191430998
 20
160.0495911066377
 30
0.0
 11
269.5272065012477
 21
160.0495911066377
 31
0.0
  0
LINE
  5
382
330
1F
100
AcDbEntity
  8
9
  6
Continuous
 62
     7
370
    35
100
AcDbLine
 10
268.2251968072695
 20
190.1851417155688
 30
0.0
 11
273.8171846256979
 21
190.1851417155688
 31
0.0
  0
LINE
  5
383
330
1F
100
AcDbEntity
  8
9
  6
Continuous
 62
     7
370
    35
100
AcDbLine
 10
266.4602528171059
 20
150.9059692490782
 30
0.0
 11
266.4602528171057
 21
156.4059692490782
 31
0.0
  0
LINE
  5
384
330
1F
100
AcDbEntity
  8
9
  6
Continuous
 62
     7
370
    35
100
AcDbLine
 10
275.5821286158617
 20
150.9059692490782
 30
0.0
 11
275.5821286158617
 21
156.4059692490782
 31
0.0
  0
LINE
  5
385
330
1F
100
AcDbEntity
  8
9
  6
Continuous
 62
     7
370
    35
100
AcDbLine
 10
271.4535218952343
 20
202.1851417155688
 30
0.0
 11
270.5888595377334
 21
202.1851417155688
 31
0.0
  0
LINE
  5
386
330
1F
100
AcDbEntity
  8
9
  6
Continuous
 62
     7
370
    35
100
AcDbLine
 10
252.4602560447812
 20
203.1870700582501
 30
0.0
 11
258.9600280963334
 21
203.9851417155689
 31
0.0
  0
LINE
  5
387
330
1F
100
AcDbEntity
  8
9
  6
Continuous
 62
     7
370
    35
100
AcDbLine
 10
258.9600280963334
 20
203.9851417155689
 30
0.0
 11
283.082353336634
 21
203.9851417155689
 31
0.0
  0
LINE
  5
388
330
1F
100
AcDbEntity
  8
9
  6
Continuous
 62
     7
370
    35
100
AcDbLine
 10
289.5821253881862
 20
203.1870700582501
 30
0.0
 11
283.082353336634
 21
203.9851417155689
 31
0.0
  0
LINE
  5
389
330
1F
100
AcDbEntity
  8
9
  6
Continuous
 62
     7
370
    35
100
AcDbLine
 10
265.0206377904416
 20
160.9351417155688
 30
0.0
 11
277.0206377904414
 21
160.9351417155688
 31
0.0
  0
LINE
  5
38A
330
1F
100
AcDbEntity
  8
9
  6
Continuous
 62
     7
370
    35
100
AcDbLine
 10
269.5272065012477
 20
160.0495911066377
 30
0.0
 11
278.5555622898676
 21
160.0495911066377
 31
0.0
  0
LINE
  5
38B
330
1F
100
AcDbEntity
  8
9
  6
Continuous
 62
     7
370
    35
100
AcDbLine
 10
263.5211907164836
 20
158.2351417155647
 30
0.0
 11
272.3368938250046
 21
158.2351417155647
 31
0.0
  0
LINE
  5
38C
330
1F
100
AcDbEntity
  8
9
  6
Continuous
 62
     7
370
    35
100
AcDbLine
 10
279.3522417271403
 20
156.4351417155688
 30
0.0
 11
271.0211907164836
 21
156.4351417155688
 31
0.0
  0
LINE
  5
38D
330
1F
100
AcDbEntity
  8
9
  6
Continuous
 62
     7
370
    35
100
AcDbLine
 10
262.6901397058272
 20
156.4351417155688
 30
0.0
 11
271.0211907164836
 21
156.4351417155688
 31
0.0
  0
LINE
  5
38E
330
1F
100
AcDbEntity
  8
9
  6
Continuous
 62
     7
370
    35
100
AcDbLine
 10
273.4596520898832
 20
190.1851417155688
 30
0.0
 11
272.5339657311641
 21
189.2594553568496
 31
0.0
  0
ARC
  5
38F
330
1F
100
AcDbEntity
  8
9
  6
Continuous
 62
     7
370
    35
100
AcDbCircle
 10
271.0219752719756
 20
189.7827954483036
 30
0.0
 40
1.600000000000023
100
AcDbArc
 50
269.971905174807
 51
340.907902922352
  0
LINE
  5
390
330
1F
100
AcDbEntity
  8
9
  6
Continuous
 62
     7
370
    35
100
AcDbLine
 10
268.582729343084
 20
190.1851417155688
 30
0.0
 11
269.5108186905322
 21
189.2570523681204
 31
0.0
  0
ARC
  5
391
330
1F
100
AcDbEntity
  8
9
  6
Continuous
 62
     7
370
    35
100
AcDbCircle
 10
271.0219752719756
 20
189.7827954483036
 30
0.0
 40
1.600000000000023
100
AcDbArc
 50
199.183181686864
 51
269.971905174807
  0
VIEWPORT
  5
6A
330
1B
100
AcDbEntity
 67
     1
  8
0
100
AcDbViewport
 10
148.5
 20
105.0
 30
0.0
 40
297.0
 41
210.0
 68
     1
 69
     1
 12
148.5
 22
105.0
 13
0.0
 23
0.0
 14
0.5
 24
0.5
 15
0.5
 25
0.5
 16
0.0
 26
0.0
 36
1.0
 17
0.0
 27
0.0
 37
0.0
 42
50.0
 43
0.0
 44
0.0
 45
9.0
 50
0.0
 51
0.0
 72
   100
 90
   557152
  1

281
     0
 71
     1
 74
     0
110
0.0
120
0.0
130
0.0
111
1.0
121
0.0
131
0.0
112
0.0
122
1.0
132
0.0
 79
     0
146
0.0
170
     0
 61
     5
292
     1
282
     1
141
0.0
142
0.0
 63
   256
  0
ENDSEC
  0
SECTION
  2
OBJECTS
  0
DICTIONARY
  5
C
330
0
100
AcDbDictionary
281
     1
  3
ACAD_DETAILVIEWSTYLE
350
396
  3
ACAD_GROUP
350
D
  3
ACAD_LAYOUT
350
1A
  3
ACAD_MATERIAL
350
43
  3
ACAD_MLEADERSTYLE
350
395
  3
ACAD_MLINESTYLE
350
17
  3
ACAD_PLOTSETTINGS
350
19
  3
ACAD_PLOTSTYLENAME
350
E
  3
ACAD_SCALELIST
350
47
  3
ACAD_SECTIONVIEWSTYLE
350
397
  3
ACAD_TABLESTYLE
350
394
  3
ACAD_VISUALSTYLE
350
2A
  3
AcDbVariableDictionary
350
392
  0
SUN
  5
69
330
29
100
AcDbSun
 90
        1
290
     0
 63
     7
421
 16777215
 40
1.0
291
     1
 91
  2455826
 92
 54000000
292
     0
 70
     2
 71
   256
280
     1
  0
DICTIONARY
  5
396
102
{ACAD_REACTORS
330
C
102
}
330
C
100
AcDbDictionary
281
     1
  0
DICTIONARY
  5
D
102
{ACAD_REACTORS
330
C
102
}
330
C
100
AcDbDictionary
281
     1
  0
DICTIONARY
  5
1A
102
{ACAD_REACTORS
330
C
102
}
330
C
100
AcDbDictionary
281
     1
  3
Layout1
350
1E
  3
Layout2
350
26
  3
Model
350
22
  0
DICTIONARY
  5
43
102
{ACAD_REACTORS
330
C
102
}
330
C
100
AcDbDictionary
281
     1
  3
ByBlock
350
45
  3
ByLayer
350
44
  3
Global
350
46
  0
DICTIONARY
  5
395
102
{ACAD_REACTORS
330
C
102
}
330
C
100
AcDbDictionary
281
     1
  0
DICTIONARY
  5
17
102
{ACAD_REACTORS
330
C
102
}
330
C
100
AcDbDictionary
281
     1
  3
Standard
350
18
  0
DICTIONARY
  5
19
102
{ACAD_REACTORS
330
C
102
}
330
C
100
AcDbDictionary
281
     1
  0
ACDBDICTIONARYWDFLT
  5
E
102
{ACAD_REACTORS
330
C
102
}
330
C
100
AcDbDictionary
281
     1
  3
Normal
350
F
100
AcDbDictionaryWithDefault
340
F
  0
DICTIONARY
  5
47
102
{ACAD_REACTORS
330
C
102
}
330
C
100
AcDbDictionary
281
     1
  3
A0
350
48
  3
A1
350
49
  3
A2
350
4A
  3
A3
350
4B
  3
A4
350
4C
  3
A5
350
4D
  3
A6
350
4E
  3
A7
350
4F
  3
A8
350
50
  3
A9
350
51
  3
B0
350
52
  3
B1
350
53
  3
B2
350
54
  3
B3
350
55
  3
B4
350
56
  3
B5
350
57
  3
B6
350
58
  3
B7
350
59
  3
B8
350
5A
  3
B9
350
5B
  3
C0
350
5C
  3
C1
350
5D
  3
C2
350
5E
  3
C3
350
5F
  3
C4
350
60
  3
C5
350
61
  3
C6
350
62
  3
C7
350
63
  3
C8
350
64
  3
C9
350
65
  3
D0
350
66
  3
D1
350
67
  3
D2
350
68
  0
DICTIONARY
  5
397
102
{ACAD_REACTORS
330
C
102
}
330
C
100
AcDbDictionary
281
     1
  0
DICTIONARY
  5
394
102
{ACAD_REACTORS
330
C
102
}
330
C
100
AcDbDictionary
281
     1
  0
DICTIONARY
  5
2A
102
{ACAD_REACTORS
330
C
102
}
330
C
100
AcDbDictionary
281
     1
  3
2dWireframe
350
2F
  3
Basic
350
32
  3
Brighten
350
36
  3
ColorChange
350
3A
  3
Conceptual
350
34
  3
Dim
350
35
  3
EdgeColorOff
350
3D
  3
Facepattern
350
39
  3
Flat
350
2B
  3
FlatWithEdges
350
2C
  3
Gouraud
350
2D
  3
GouraudWithEdges
350
2E
  3
Hidden
350
31
  3
JitterOff
350
3B
  3
Linepattern
350
38
  3
OverhangOff
350
3C
  3
Realistic
350
33
  3
Shaded
350
42
  3
Shaded with edges
350
41
  3
Shades of Gray
350
3E
  3
Sketchy
350
3F
  3
Thicken
350
37
  3
Wireframe
350
30
  3
X-Ray
350
40
  0
DICTIONARY
  5
392
102
{ACAD_REACTORS
330
C
102
}
330
C
100
AcDbDictionary
281
     1
  3
CANNOSCALE
350
393
  0
LAYOUT
  5
1E
102
{ACAD_REACTORS
330
1A
102
}
330
1A
100
AcDbPlotSettings
  1

  2
none_device
  4

  6

 40
0.0
 41
0.0
 42
0.0
 43
0.0
 44
0.0
 45
0.0
 46
0.0
 47
0.0
 48
0.0
 49
0.0
140
0.0
141
0.0
142
1.0
143
1.0
 70
   688
 72
     0
 73
     0
 74
     5
  7

 75
    16
 76
     0
 77
     2
 78
   300
147
1.0
148
0.0
149
0.0
100
AcDbLayout
  1
Layout1
 70
     1
 71
     1
 10
0.0
 20
0.0
 11
297.0
 21
210.0
 12
0.0
 22
0.0
 32
0.0
 14
0.0
 24
0.0
 34
0.0
 15
297.0
 25
210.0
 35
0.0
146
0.0
 13
0.0
 23
0.0
 33
0.0
 16
1.0
 26
0.0
 36
0.0
 17
0.0
 27
1.0
 37
0.0
 76
     0
330
1B
331
6A
  0
LAYOUT
  5
26
102
{ACAD_REACTORS
330
1A
102
}
330
1A
100
AcDbPlotSettings
  1

  2
none_device
  4

  6

 40
0.0
 41
0.0
 42
0.0
 43
0.0
 44
0.0
 45
0.0
 46
0.0
 47
0.0
 48
0.0
 49
0.0
140
0.0
141
0.0
142
1.0
143
1.0
 70
   688
 72
     0
 73
     0
 74
     5
  7

 75
    16
 76
     0
 77
     2
 78
   300
147
1.0
148
0.0
149
0.0
100
AcDbLayout
  1
Layout2
 70
     1
 71
     2
 10
0.0
 20
0.0
 11
0.0
 21
0.0
 12
0.0
 22
0.0
 32
0.0
 14
0.0
 24
0.0
 34
0.0
 15
0.0
 25
0.0
 35
0.0
146
0.0
 13
0.0
 23
0.0
 33
0.0
 16
1.0
 26
0.0
 36
0.0
 17
0.0
 27
1.0
 37
0.0
 76
     0
330
23
  0
LAYOUT
  5
22
102
{ACAD_REACTORS
330
1A
102
}
330
1A
100
AcDbPlotSettings
  1

  2
none_device
  4
Letter_(8.50_x_11.00_Inches)
  6

 40
6.35
 41
6.35
 42
6.35000508
 43
6.35000508
 44
215.9
 45
279.4
 46
0.0
 47
0.0
 48
0.0
 49
0.0
140
0.0
141
0.0
142
1.0
143
1.0
 70
  1712
 72
     0
 73
     0
 74
     0
  7

 75
     0
 76
     0
 77
     2
 78
   300
147
1.0
148
0.0
149
0.0
100
AcDbLayout
  1
Model
 70
     1
 71
     0
 10
0.0
 20
0.0
 11
297.0
 21
210.0
 12
0.0
 22
0.0
 32
0.0
 14
0.0211080024674857
 24
0.0172721585058753
 34
0.0
 15
362.0211065544675
 25
283.0172721585058
 35
0.0
146
0.0
 13
0.0
 23
0.0
 33
0.0
 16
1.0
 26
0.0
 36
0.0
 17
0.0
 27
1.0
 37
0.0
 76
     0
330
1F
331
29
  0
MATERIAL
  5
45
102
{ACAD_REACTORS
330
43
102
}
330
43
100
AcDbMaterial
  1
ByBlock
 72
     1
 94
      127
  0
MATERIAL
  5
44
102
{ACAD_REACTORS
330
43
102
}
330
43
100
AcDbMaterial
  1
ByLayer
 72
     1
 94
      127
  0
MATERIAL
  5
46
102
{ACAD_REACTORS
330
43
102
}
330
43
100
AcDbMaterial
  1
Global
 72
     1
 94
      127
  0
MLINESTYLE
  5
18
102
{ACAD_REACTORS
330
17
102
}
330
17
100
AcDbMlineStyle
  2
Standard
 70
     0
  3

 62
   256
 51
90.0
 52
90.0
 71
     2
 49
0.5
 62
   256
  6
BYLAYER
 49
-0.5
 62
   256
  6
BYLAYER
  0
ACDBPLACEHOLDER
  5
F
102
{ACAD_REACTORS
330
E
102
}
330
E
  0
SCALE
  5
48
102
{ACAD_REACTORS
330
47
102
}
330
47
100
AcDbScale
 70
     0
300
1:1
140
1.0
141
1.0
290
     1
  0
SCALE
  5
49
102
{ACAD_REACTORS
330
47
102
}
330
47
100
AcDbScale
 70
     0
300
1:2
140
1.0
141
2.0
290
     0
  0
SCALE
  5
4A
102
{ACAD_REACTORS
330
47
102
}
330
47
100
AcDbScale
 70
     0
300
1:4
140
1.0
141
4.0
290
     0
  0
SCALE
  5
4B
102
{ACAD_REACTORS
330
47
102
}
330
47
100
AcDbScale
 70
     0
300
1:5
140
1.0
141
5.0
290
     0
  0
SCALE
  5
4C
102
{ACAD_REACTORS
330
47
102
}
330
47
100
AcDbScale
 70
     0
300
1:8
140
1.0
141
8.0
290
     0
  0
SCALE
  5
4D
102
{ACAD_REACTORS
330
47
102
}
330
47
100
AcDbScale
 70
     0
300
1:10
140
1.0
141
10.0
290
     0
  0
SCALE
  5
4E
102
{ACAD_REACTORS
330
47
102
}
330
47
100
AcDbScale
 70
     0
300
1:16
140
1.0
141
16.0
290
     0
  0
SCALE
  5
4F
102
{ACAD_REACTORS
330
47
102
}
330
47
100
AcDbScale
 70
     0
300
1:20
140
1.0
141
20.0
290
     0
  0
SCALE
  5
50
102
{ACAD_REACTORS
330
47
102
}
330
47
100
AcDbScale
 70
     0
300
1:30
140
1.0
141
30.0
290
     0
  0
SCALE
  5
51
102
{ACAD_REACTORS
330
47
102
}
330
47
100
AcDbScale
 70
     0
300
1:40
140
1.0
141
40.0
290
     0
  0
SCALE
  5
52
102
{ACAD_REACTORS
330
47
102
}
330
47
100
AcDbScale
 70
     0
300
1:50
140
1.0
141
50.0
290
     0
  0
SCALE
  5
53
102
{ACAD_REACTORS
330
47
102
}
330
47
100
AcDbScale
 70
     0
300
1:100
140
1.0
141
100.0
290
     0
  0
SCALE
  5
54
102
{ACAD_REACTORS
330
47
102
}
330
47
100
AcDbScale
 70
     0
300
2:1
140
2.0
141
1.0
290
     0
  0
SCALE
  5
55
102
{ACAD_REACTORS
330
47
102
}
330
47
100
AcDbScale
 70
     0
300
4:1
140
4.0
141
1.0
290
     0
  0
SCALE
  5
56
102
{ACAD_REACTORS
330
47
102
}
330
47
100
AcDbScale
 70
     0
300
8:1
140
8.0
141
1.0
290
     0
  0
SCALE
  5
57
102
{ACAD_REACTORS
330
47
102
}
330
47
100
AcDbScale
 70
     0
300
10:1
140
10.0
141
1.0
290
     0
  0
SCALE
  5
58
102
{ACAD_REACTORS
330
47
102
}
330
47
100
AcDbScale
 70
     0
300
100:1
140
100.0
141
1.0
290
     0
  0
SCALE
  5
59
102
{ACAD_REACTORS
330
47
102
}
330
47
100
AcDbScale
 70
     0
300
1/128" = 1'-0"
140
0.0078125
141
12.0
290
     0
  0
SCALE
  5
5A
102
{ACAD_REACTORS
330
47
102
}
330
47
100
AcDbScale
 70
     0
300
1/64" = 1'-0"
140
0.015625
141
12.0
290
     0
  0
SCALE
  5
5B
102
{ACAD_REACTORS
330
47
102
}
330
47
100
AcDbScale
 70
     0
300
1/32" = 1'-0"
140
0.03125
141
12.0
290
     0
  0
SCALE
  5
5C
102
{ACAD_REACTORS
330
47
102
}
330
47
100
AcDbScale
 70
     0
300
1/16" = 1'-0"
140
0.0625
141
12.0
290
     0
  0
SCALE
  5
5D
102
{ACAD_REACTORS
330
47
102
}
330
47
100
AcDbScale
 70
     0
300
3/32" = 1'-0"
140
0.09375
141
12.0
290
     0
  0
SCALE
  5
5E
102
{ACAD_REACTORS
330
47
102
}
330
47
100
AcDbScale
 70
     0
300
1/8" = 1'-0"
140
0.125
141
12.0
290
     0
  0
SCALE
  5
5F
102
{ACAD_REACTORS
330
47
102
}
330
47
100
AcDbScale
 70
     0
300
3/16" = 1'-0"
140
0.1875
141
12.0
290
     0
  0
SCALE
  5
60
102
{ACAD_REACTORS
330
47
102
}
330
47
100
AcDbScale
 70
     0
300
1/4" = 1'-0"
140
0.25
141
12.0
290
     0
  0
SCALE
  5
61
102
{ACAD_REACTORS
330
47
102
}
330
47
100
AcDbScale
 70
     0
300
3/8" = 1'-0"
140
0.375
141
12.0
290
     0
  0
SCALE
  5
62
102
{ACAD_REACTORS
330
47
102
}
330
47
100
AcDbScale
 70
     0
300
1/2" = 1'-0"
140
0.5
141
12.0
290
     0
  0
SCALE
  5
63
102
{ACAD_REACTORS
330
47
102
}
330
47
100
AcDbScale
 70
     0
300
3/4" = 1'-0"
140
0.75
141
12.0
290
     0
  0
SCALE
  5
64
102
{ACAD_REACTORS
330
47
102
}
330
47
100
AcDbScale
 70
     0
300
1" = 1'-0"
140
1.0
141
12.0
290
     0
  0
SCALE
  5
65
102
{ACAD_REACTORS
330
47
102
}
330
47
100
AcDbScale
 70
     0
300
1-1/2" = 1'-0"
140
1.5
141
12.0
290
     0
  0
SCALE
  5
66
102
{ACAD_REACTORS
330
47
102
}
330
47
100
AcDbScale
 70
     0
300
3" = 1'-0"
140
3.0
141
12.0
290
     0
  0
SCALE
  5
67
102
{ACAD_REACTORS
330
47
102
}
330
47
100
AcDbScale
 70
     0
300
6" = 1'-0"
140
6.0
141
12.0
290
     0
  0
SCALE
  5
68
102
{ACAD_REACTORS
330
47
102
}
330
47
100
AcDbScale
 70
     0
300
1'-0" = 1'-0"
140
12.0
141
12.0
290
     0
  0
VISUALSTYLE
  5
2F
102
{ACAD_REACTORS
330
2A
102
}
330
2A
100
AcDbVisualStyle
  2
2dWireframe
 70
     4
177
     3
291
     0
 70
    58
 90
        0
176
     1
 90
        2
176
     1
 90
        0
176
     1
 90
        0
176
     1
 40
0.6
176
     1
 40
30.0
176
     1
 62
     7
420
 16777215
176
     1
 90
        1
176
     1
 90
        4
176
     1
 62
     7
176
     1
 62
   257
176
     1
 90
        1
176
     1
 90
        1
176
     1
 40
1.0
176
     1
 90
        0
176
     1
 62
   257
176
     1
 40
1.0
176
     1
 90
        1
176
     1
 90
        6
176
     1
 90
        2
176
     1
 62
     7
176
     1
 90
        5
176
     1
 90
        0
176
     1
 90
        0
176
     1
290
     0
176
     1
 90
        1
176
     1
 40
0.0
176
     1
 90
        0
176
     1
290
     1
176
     1
290
     1
176
     1
290
     0
176
     1
290
     0
176
     1
290
     0
176
     1
290
     0
176
     1
290
     0
176
     1
290
     0
176
     1
290
     0
176
     1
 90
       50
176
     1
 40
0.0
176
     1
 40
1.0
176
     1
 90
        0
176
     1
 62
    18
420
        0
176
     1
 90
       50
176
     1
 90
        3
176
     1
 62
     5
420
      255
176
     1
290
     0
176
     1
 90
       50
176
     1
 90
       50
176
     1
 90
       50
176
     1
290
     0
176
     1
 90
       50
176
     1
 62
   256
176
     0
 40
1.0
176
     0
 90
        2
176
     1
  1
strokes_ogs.tif
176
     1
290
     0
176
     1
 40
1.0
176
     1
 40
1.0
176
     1
  0
VISUALSTYLE
  5
32
102
{ACAD_REACTORS
330
2A
102
}
330
2A
100
AcDbVisualStyle
  2
Basic
 70
     7
177
     3
291
     1
 70
    58
 90
        1
176
     1
 90
        0
176
     1
 90
        1
176
     1
 90
        0
176
     1
 40
0.6
176
     1
 40
30.0
176
     1
 62
     7
420
 16777215
176
     1
 90
        0
176
     1
 90
        4
176
     1
 62
     7
176
     1
 62
   257
176
     1
 90
        1
176
     1
 90
        1
176
     1
 40
1.0
176
     1
 90
        8
176
     1
 62
     7
176
     1
 40
1.0
176
     1
 90
        1
176
     1
 90
        6
176
     1
 90
        2
176
     1
 62
     7
176
     1
 90
        5
176
     1
 90
        0
176
     1
 90
        0
176
     1
290
     0
176
     1
 90
        1
176
     1
 40
0.0
176
     1
 90
        0
176
     1
290
     0
176
     1
290
     1
176
     1
290
     1
176
     1
290
     0
176
     1
290
     0
176
     1
290
     0
176
     1
290
     0
176
     1
290
     0
176
     1
290
     0
176
     1
 90
       50
176
     1
 40
0.0
176
     1
 40
1.0
176
     1
 90
        0
176
     1
 62
    18
420
        0
176
     1
 90
       50
176
     1
 90
        3
176
     1
 62
     5
420
      255
176
     1
290
     0
176
     1
 90
       50
176
     1
 90
       50
176
     1
 90
       50
176
     1
290
     0
176
     1
 90
       50
176
     1
 62
   256
176
     0
 40
1.0
176
     0
 90
        2
176
     1
  1
strokes_ogs.tif
176
     1
290
     0
176
     1
 40
1.0
176
     1
 40
1.0
176
     1
  0
VISUALSTYLE
  5
36
102
{ACAD_REACTORS
330
2A
102
}
330
2A
100
AcDbVisualStyle
  2
Brighten
 70
    12
177
     3
291
     1
 70
    58
 90
        2
176
     1
 90
        2
176
     1
 90
        0
176
     1
 90
        0
176
     1
 40
0.6
176
     1
 40
30.0
176
     1
 62
     7
420
 16777215
176
     1
 90
        1
176
     1
 90
        4
176
     1
 62
     7
176
     1
 62
   257
176
     1
 90
        1
176
     1
 90
        1
176
     1
 40
1.0
176
     1
 90
        8
176
     1
 62
     7
176
     1
 40
1.0
176
     1
 90
        1
176
     1
 90
        6
176
     1
 90
        2
176
     1
 62
     7
176
     1
 90
        5
176
     1
 90
        0
176
     1
 90
        0
176
     1
290
     0
176
     1
 90
        1
176
     1
 40
50.0
176
     1
 90
        0
176
     1
290
     0
176
     1
290
     1
176
     1
290
     1
176
     1
290
     0
176
     1
290
     0
176
     1
290
     0
176
     1
290
     0
176
     1
290
     0
176
     1
290
     0
176
     1
 90
       50
176
     1
 40
0.0
176
     1
 40
1.0
176
     1
 90
        0
176
     1
 62
    18
420
        0
176
     1
 90
       50
176
     1
 90
        3
176
     1
 62
     5
420
      255
176
     1
290
     0
176
     1
 90
       50
176
     1
 90
       50
176
     1
 90
       50
176
     1
290
     0
176
     1
 90
       50
176
     1
 62
   256
176
     0
 40
1.0
176
     0
 90
        2
176
     1
  1
strokes_ogs.tif
176
     1
290
     0
176
     1
 40
1.0
176
     1
 40
1.0
176
     1
  0
VISUALSTYLE
  5
3A
102
{ACAD_REACTORS
330
2A
102
}
330
2A
100
AcDbVisualStyle
  2
ColorChange
 70
    16
177
     3
291
     1
 70
    58
 90
        2
176
     1
 90
        2
176
     1
 90
        3
176
     1
 90
        0
176
     1
 40
0.6
176
     1
 40
30.0
176
     1
 62
     8
420
  8421504
176
     1
 90
        1
176
     1
 90
        4
176
     1
 62
     7
176
     1
 62
   257
176
     1
 90
        1
176
     1
 90
        1
176
     1
 40
1.0
176
     1
 90
        8
176
     1
 62
     8
420
  8421504
176
     1
 40
1.0
176
     1
 90
        1
176
     1
 90
        6
176
     1
 90
        2
176
     1
 62
     7
176
     1
 90
        5
176
     1
 90
        0
176
     1
 90
        0
176
     1
290
     0
176
     1
 90
        1
176
     1
 40
0.0
176
     1
 90
        0
176
     1
290
     0
176
     1
290
     1
176
     1
290
     1
176
     1
290
     0
176
     1
290
     0
176
     1
290
     0
176
     1
290
     0
176
     1
290
     0
176
     1
290
     0
176
     1
 90
       50
176
     1
 40
0.0
176
     1
 40
1.0
176
     1
 90
        0
176
     1
 62
    18
420
        0
176
     1
 90
       50
176
     1
 90
        3
176
     1
 62
     5
420
      255
176
     1
290
     0
176
     1
 90
       50
176
     1
 90
       50
176
     1
 90
       50
176
     1
290
     0
176
     1
 90
       50
176
     1
 62
   256
176
     0
 40
1.0
176
     0
 90
        2
176
     1
  1
strokes_ogs.tif
176
     1
290
     0
176
     1
 40
1.0
176
     1
 40
1.0
176
     1
  0
VISUALSTYLE
  5
34
102
{ACAD_REACTORS
330
2A
102
}
330
2A
100
AcDbVisualStyle
  2
Conceptual
 70
     9
177
     3
291
     0
 70
    58
 90
        3
176
     1
 90
        2
176
     1
 90
        0
176
     1
 90
        0
176
     1
 40
0.6
176
     1
 40
30.0
176
     1
 62
     7
420
 16777215
176
     1
 90
        2
176
     1
 90
        2
176
     1
 62
     7
176
     1
 62
   257
176
     1
 90
        1
176
     1
 90
        1
176
     1
 40
179.0
176
     1
 90
        8
176
     1
 62
     7
176
     1
 40
1.0
176
     1
 90
        1
176
     1
 90
        6
176
     1
 90
        2
176
     1
 62
     7
176
     1
 90
        3
176
     1
 90
        0
176
     1
 90
        0
176
     1
290
     0
176
     1
 90
        1
176
     1
 40
0.0
176
     1
 90
        0
176
     1
290
     0
176
     1
290
     1
176
     1
290
     1
176
     1
290
     0
176
     1
290
     0
176
     1
290
     0
176
     1
290
     0
176
     1
290
     0
176
     1
290
     0
176
     1
 90
       50
176
     1
 40
0.0
176
     1
 40
1.0
176
     1
 90
        0
176
     1
 62
    18
420
        0
176
     1
 90
       50
176
     1
 90
        3
176
     1
 62
     5
420
      255
176
     1
290
     0
176
     1
 90
       50
176
     1
 90
       50
176
     1
 90
       50
176
     1
290
     0
176
     1
 90
       50
176
     1
 62
   256
176
     0
 40
1.0
176
     0
 90
        2
176
     1
  1
strokes_ogs.tif
176
     1
290
     0
176
     1
 40
1.0
176
     1
 40
1.0
176
     1
  0
VISUALSTYLE
  5
35
102
{ACAD_REACTORS
330
2A
102
}
330
2A
100
AcDbVisualStyle
  2
Dim
 70
    11
177
     3
291
     1
 70
    58
 90
        2
176
     1
 90
        2
176
     1
 90
        0
176
     1
 90
        0
176
     1
 40
0.6
176
     1
 40
30.0
176
     1
 62
     7
420
 16777215
176
     1
 90
        1
176
     1
 90
        4
176
     1
 62
     7
176
     1
 62
   257
176
     1
 90
        1
176
     1
 90
        1
176
     1
 40
1.0
176
     1
 90
        8
176
     1
 62
     7
176
     1
 40
1.0
176
     1
 90
        1
176
     1
 90
        6
176
     1
 90
        2
176
     1
 62
     7
176
     1
 90
        5
176
     1
 90
        0
176
     1
 90
        0
176
     1
290
     0
176
     1
 90
        1
176
     1
 40
-50.0
176
     1
 90
        0
176
     1
290
     0
176
     1
290
     1
176
     1
290
     1
176
     1
290
     0
176
     1
290
     0
176
     1
290
     0
176
     1
290
     0
176
     1
290
     0
176
     1
290
     0
176
     1
 90
       50
176
     1
 40
0.0
176
     1
 40
1.0
176
     1
 90
        0
176
     1
 62
    18
420
        0
176
     1
 90
       50
176
     1
 90
        3
176
     1
 62
     5
420
      255
176
     1
290
     0
176
     1
 90
       50
176
     1
 90
       50
176
     1
 90
       50
176
     1
290
     0
176
     1
 90
       50
176
     1
 62
   256
176
     0
 40
1.0
176
     0
 90
        2
176
     1
  1
strokes_ogs.tif
176
     1
290
     0
176
     1
 40
1.0
176
     1
 40
1.0
176
     1
  0
VISUALSTYLE
  5
3D
102
{ACAD_REACTORS
330
2A
102
}
330
2A
100
AcDbVisualStyle
  2
EdgeColorOff
 70
    22
177
     3
291
     1
 70
    58
 90
        2
176
     0
 90
        2
176
     0
 90
        0
176
     0
 90
        0
176
     0
 40
0.6
176
     0
 40
30.0
176
     0
 62
     7
420
 16777215
176
     0
 90
        1
176
     0
 90
        4
176
     0
 62
     7
176
     0
 62
   257
176
     0
 90
        1
176
     0
 90
        1
176
     0
 40
1.0
176
     0
 90
        8
176
     2
 62
     7
176
     0
 40
1.0
176
     0
 90
        1
176
     0
 90
        6
176
     0
 90
        2
176
     0
 62
     7
176
     0
 90
        5
176
     0
 90
        0
176
     0
 90
        0
176
     0
290
     0
176
     0
 90
        1
176
     0
 40
0.0
176
     0
 90
        0
176
     0
290
     0
176
     0
290
     1
176
     0
290
     1
176
     0
290
     0
176
     0
290
     0
176
     0
290
     0
176
     0
290
     0
176
     0
290
     0
176
     0
290
     0
176
     0
 90
       50
176
     0
 40
0.0
176
     0
 40
1.0
176
     0
 90
        0
176
     0
 62
    18
420
        0
176
     0
 90
       50
176
     0
 90
        3
176
     0
 62
     5
420
      255
176
     0
290
     0
176
     0
 90
       50
176
     0
 90
       50
176
     0
 90
       50
176
     0
290
     0
176
     0
 90
       50
176
     0
 62
   256
176
     0
 40
1.0
176
     0
 90
        2
176
     0
  1
strokes_ogs.tif
176
     0
290
     0
176
     0
 40
1.0
176
     0
 40
1.0
176
     0
  0
VISUALSTYLE
  5
39
102
{ACAD_REACTORS
330
2A
102
}
330
2A
100
AcDbVisualStyle
  2
Facepattern
 70
    15
177
     3
291
     1
 70
    58
 90
        2
176
     1
 90
        2
176
     1
 90
        0
176
     1
 90
        0
176
     1
 40
0.6
176
     1
 40
30.0
176
     1
 62
     7
420
 16777215
176
     1
 90
        1
176
     1
 90
        4
176
     1
 62
     7
176
     1
 62
   257
176
     1
 90
        1
176
     1
 90
        1
176
     1
 40
1.0
176
     1
 90
        8
176
     1
 62
     7
176
     1
 40
1.0
176
     1
 90
        1
176
     1
 90
        6
176
     1
 90
        2
176
     1
 62
     7
176
     1
 90
        5
176
     1
 90
        0
176
     1
 90
        0
176
     1
290
     0
176
     1
 90
        1
176
     1
 40
0.0
176
     1
 90
        0
176
     1
290
     0
176
     1
290
     1
176
     1
290
     1
176
     1
290
     0
176
     1
290
     0
176
     1
290
     0
176
     1
290
     0
176
     1
290
     0
176
     1
290
     0
176
     1
 90
       50
176
     1
 40
0.0
176
     1
 40
1.0
176
     1
 90
        0
176
     1
 62
    18
420
        0
176
     1
 90
       50
176
     1
 90
        3
176
     1
 62
     5
420
      255
176
     1
290
     0
176
     1
 90
       50
176
     1
 90
       50
176
     1
 90
       50
176
     1
290
     0
176
     1
 90
       50
176
     1
 62
   256
176
     0
 40
1.0
176
     0
 90
        2
176
     1
  1
strokes_ogs.tif
176
     1
290
     0
176
     1
 40
1.0
176
     1
 40
1.0
176
     1
  0
VISUALSTYLE
  5
2B
102
{ACAD_REACTORS
330
2A
102
}
330
2A
100
AcDbVisualStyle
  2
Flat
 70
     0
177
     3
291
     1
 70
    58
 90
        2
176
     1
 90
        1
176
     1
 90
        1
176
     1
 90
        2
176
     1
 40
0.6
176
     1
 40
30.0
176
     1
 62
     7
420
 16777215
176
     1
 90
        0
176
     1
 90
        0
176
     1
 62
     7
176
     1
 62
   257
176
     1
 90
        1
176
     1
 90
        1
176
     1
 40
1.0
176
     1
 90
        8
176
     1
 62
     7
176
     1
 40
1.0
176
     1
 90
        1
176
     1
 90
        6
176
     1
 90
        2
176
     1
 62
     7
176
     1
 90
        5
176
     1
 90
        0
176
     1
 90
        0
176
     1
290
     0
176
     1
 90
       13
176
     1
 40
0.0
176
     1
 90
        0
176
     1
290
     0
176
     1
290
     1
176
     1
290
     1
176
     1
290
     0
176
     1
290
     0
176
     1
290
     0
176
     1
290
     0
176
     1
290
     0
176
     1
290
     0
176
     1
 90
       50
176
     1
 40
0.0
176
     1
 40
1.0
176
     1
 90
        0
176
     1
 62
    18
420
        0
176
     1
 90
       50
176
     1
 90
        3
176
     1
 62
     5
420
      255
176
     1
290
     0
176
     1
 90
       50
176
     1
 90
       50
176
     1
 90
       50
176
     1
290
     0
176
     1
 90
       50
176
     1
 62
   256
176
     0
 40
1.0
176
     0
 90
        2
176
     1
  1
strokes_ogs.tif
176
     1
290
     0
176
     1
 40
1.0
176
     1
 40
1.0
176
     1
  0
VISUALSTYLE
  5
2C
102
{ACAD_REACTORS
330
2A
102
}
330
2A
100
AcDbVisualStyle
  2
FlatWithEdges
 70
     1
177
     3
291
     1
 70
    58
 90
        2
176
     1
 90
        1
176
     1
 90
        1
176
     1
 90
        2
176
     1
 40
0.6
176
     1
 40
30.0
176
     1
 62
     7
420
 16777215
176
     1
 90
        1
176
     1
 90
        0
176
     1
 62
     7
176
     1
 62
   257
176
     1
 90
        1
176
     1
 90
        1
176
     1
 40
1.0
176
     1
 90
        0
176
     1
 62
   257
176
     1
 40
1.0
176
     1
 90
        1
176
     1
 90
        6
176
     1
 90
        2
176
     1
 62
     7
176
     1
 90
        5
176
     1
 90
        0
176
     1
 90
        0
176
     1
290
     0
176
     1
 90
       13
176
     1
 40
0.0
176
     1
 90
        0
176
     1
290
     0
176
     1
290
     1
176
     1
290
     1
176
     1
290
     0
176
     1
290
     0
176
     1
290
     0
176
     1
290
     0
176
     1
290
     0
176
     1
290
     0
176
     1
 90
       50
176
     1
 40
0.0
176
     1
 40
1.0
176
     1
 90
        0
176
     1
 62
    18
420
        0
176
     1
 90
       50
176
     1
 90
        3
176
     1
 62
     5
420
      255
176
     1
290
     0
176
     1
 90
       50
176
     1
 90
       50
176
     1
 90
       50
176
     1
290
     0
176
     1
 90
       50
176
     1
 62
   256
176
     0
 40
1.0
176
     0
 90
        2
176
     1
  1
strokes_ogs.tif
176
     1
290
     0
176
     1
 40
1.0
176
     1
 40
1.0
176
     1
  0
VISUALSTYLE
  5
2D
102
{ACAD_REACTORS
330
2A
102
}
330
2A
100
AcDbVisualStyle
  2
Gouraud
 70
     2
177
     3
291
     1
 70
    58
 90
        2
176
     1
 90
        2
176
     1
 90
        1
176
     1
 90
        2
176
     1
 40
0.6
176
     1
 40
30.0
176
     1
 62
     7
420
 16777215
176
     1
 90
        0
176
     1
 90
        0
176
     1
 62
     7
176
     1
 62
   257
176
     1
 90
        1
176
     1
 90
        1
176
     1
 40
1.0
176
     1
 90
        0
176
     1
 62
     7
176
     1
 40
1.0
176
     1
 90
        1
176
     1
 90
        6
176
     1
 90
        2
176
     1
 62
     7
176
     1
 90
        5
176
     1
 90
        0
176
     1
 90
        0
176
     1
290
     0
176
     1
 90
       13
176
     1
 40
0.0
176
     1
 90
        0
176
     1
290
     0
176
     1
290
     1
176
     1
290
     1
176
     1
290
     0
176
     1
290
     0
176
     1
290
     0
176
     1
290
     0
176
     1
290
     0
176
     1
290
     0
176
     1
 90
       50
176
     1
 40
0.0
176
     1
 40
1.0
176
     1
 90
        0
176
     1
 62
    18
420
        0
176
     1
 90
       50
176
     1
 90
        3
176
     1
 62
     5
420
      255
176
     1
290
     0
176
     1
 90
       50
176
     1
 90
       50
176
     1
 90
       50
176
     1
290
     0
176
     1
 90
       50
176
     1
 62
   256
176
     0
 40
1.0
176
     0
 90
        2
176
     1
  1
strokes_ogs.tif
176
     1
290
     0
176
     1
 40
1.0
176
     1
 40
1.0
176
     1
  0
VISUALSTYLE
  5
2E
102
{ACAD_REACTORS
330
2A
102
}
330
2A
100
AcDbVisualStyle
  2
GouraudWithEdges
 70
     3
177
     3
291
     1
 70
    58
 90
        2
176
     1
 90
        2
176
     1
 90
        1
176
     1
 90
        2
176
     1
 40
0.6
176
     1
 40
30.0
176
     1
 62
     7
420
 16777215
176
     1
 90
        1
176
     1
 90
        0
176
     1
 62
     7
176
     1
 62
   257
176
     1
 90
        1
176
     1
 90
        1
176
     1
 40
1.0
176
     1
 90
        0
176
     1
 62
   257
176
     1
 40
1.0
176
     1
 90
        1
176
     1
 90
        6
176
     1
 90
        2
176
     1
 62
     7
176
     1
 90
        5
176
     1
 90
        0
176
     1
 90
        0
176
     1
290
     0
176
     1
 90
       13
176
     1
 40
0.0
176
     1
 90
        0
176
     1
290
     0
176
     1
290
     1
176
     1
290
     1
176
     1
290
     0
176
     1
290
     0
176
     1
290
     0
176
     1
290
     0
176
     1
290
     0
176
     1
290
     0
176
     1
 90
       50
176
     1
 40
0.0
176
     1
 40
1.0
176
     1
 90
        0
176
     1
 62
    18
420
        0
176
     1
 90
       50
176
     1
 90
        3
176
     1
 62
     5
420
      255
176
     1
290
     0
176
     1
 90
       50
176
     1
 90
       50
176
     1
 90
       50
176
     1
290
     0
176
     1
 90
       50
176
     1
 62
   256
176
     0
 40
1.0
176
     0
 90
        2
176
     1
  1
strokes_ogs.tif
176
     1
290
     0
176
     1
 40
1.0
176
     1
 40
1.0
176
     1
  0
VISUALSTYLE
  5
31
102
{ACAD_REACTORS
330
2A
102
}
330
2A
100
AcDbVisualStyle
  2
Hidden
 70
     6
177
     3
291
     0
 70
    58
 90
        1
176
     1
 90
        2
176
     1
 90
        2
176
     1
 90
        0
176
     1
 40
0.6
176
     1
 40
30.0
176
     1
 62
     7
420
 16777215
176
     1
 90
        2
176
     1
 90
        2
176
     1
 62
     7
176
     1
 62
   257
176
     1
 90
        2
176
     1
 90
        1
176
     1
 40
40.0
176
     1
 90
        0
176
     1
 62
   257
176
     1
 40
1.0
176
     1
 90
        1
176
     1
 90
        6
176
     1
 90
        2
176
     1
 62
     7
176
     1
 90
        3
176
     1
 90
        0
176
     1
 90
        0
176
     1
290
     0
176
     1
 90
        1
176
     1
 40
0.0
176
     1
 90
        0
176
     1
290
     0
176
     1
290
     1
176
     1
290
     1
176
     1
290
     0
176
     1
290
     0
176
     1
290
     0
176
     1
290
     0
176
     1
290
     0
176
     1
290
     0
176
     1
 90
       50
176
     1
 40
0.0
176
     1
 40
1.0
176
     1
 90
        0
176
     1
 62
    18
420
        0
176
     1
 90
       50
176
     1
 90
        3
176
     1
 62
     5
420
      255
176
     1
290
     0
176
     1
 90
       50
176
     1
 90
       50
176
     1
 90
       50
176
     1
290
     0
176
     1
 90
       50
176
     1
 62
   256
176
     0
 40
1.0
176
     0
 90
        2
176
     1
  1
strokes_ogs.tif
176
     1
290
     0
176
     1
 40
1.0
176
     1
 40
1.0
176
     1
  0
VISUALSTYLE
  5
3B
102
{ACAD_REACTORS
330
2A
102
}
330
2A
100
AcDbVisualStyle
  2
JitterOff
 70
    20
177
     3
291
     1
 70
    58
 90
        2
176
     0
 90
        2
176
     0
 90
        0
176
     0
 90
        0
176
     0
 40
0.6
176
     0
 40
30.0
176
     0
 62
     7
420
 16777215
176
     0
 90
        1
176
     0
 90
        4
176
     0
 62
     7
176
     0
 62
   257
176
     0
 90
        1
176
     0
 90
        1
176
     0
 40
1.0
176
     0
 90
       10
176
     2
 62
     7
176
     0
 40
1.0
176
     0
 90
        1
176
     0
 90
        6
176
     0
 90
        2
176
     0
 62
     7
176
     0
 90
        5
176
     0
 90
        0
176
     0
 90
        0
176
     0
290
     0
176
     0
 90
        1
176
     0
 40
0.0
176
     0
 90
        0
176
     0
290
     0
176
     0
290
     1
176
     0
290
     1
176
     0
290
     0
176
     0
290
     0
176
     0
290
     0
176
     0
290
     0
176
     0
290
     0
176
     0
290
     0
176
     0
 90
       50
176
     0
 40
0.0
176
     0
 40
1.0
176
     0
 90
        0
176
     0
 62
    18
420
        0
176
     0
 90
       50
176
     0
 90
        3
176
     0
 62
     5
420
      255
176
     0
290
     0
176
     0
 90
       50
176
     0
 90
       50
176
     0
 90
       50
176
     0
290
     0
176
     0
 90
       50
176
     0
 62
   256
176
     0
 40
1.0
176
     0
 90
        2
176
     0
  1
strokes_ogs.tif
176
     0
290
     0
176
     0
 40
1.0
176
     0
 40
1.0
176
     0
  0
VISUALSTYLE
  5
38
102
{ACAD_REACTORS
330
2A
102
}
330
2A
100
AcDbVisualStyle
  2
Linepattern
 70
    14
177
     3
291
     1
 70
    58
 90
        2
176
     1
 90
        2
176
     1
 90
        0
176
     1
 90
        0
176
     1
 40
0.6
176
     1
 40
30.0
176
     1
 62
     7
420
 16777215
176
     1
 90
        1
176
     1
 90
        4
176
     1
 62
     7
176
     1
 62
   257
176
     1
 90
        7
176
     1
 90
        7
176
     1
 40
1.0
176
     1
 90
        8
176
     1
 62
     7
176
     1
 40
1.0
176
     1
 90
        1
176
     1
 90
        6
176
     1
 90
        2
176
     1
 62
     7
176
     1
 90
        5
176
     1
 90
        0
176
     1
 90
        0
176
     1
290
     0
176
     1
 90
        1
176
     1
 40
0.0
176
     1
 90
        0
176
     1
290
     0
176
     1
290
     1
176
     1
290
     1
176
     1
290
     0
176
     1
290
     0
176
     1
290
     0
176
     1
290
     0
176
     1
290
     0
176
     1
290
     0
176
     1
 90
       50
176
     1
 40
0.0
176
     1
 40
1.0
176
     1
 90
        0
176
     1
 62
    18
420
        0
176
     1
 90
       50
176
     1
 90
        3
176
     1
 62
     5
420
      255
176
     1
290
     0
176
     1
 90
       50
176
     1
 90
       50
176
     1
 90
       50
176
     1
290
     0
176
     1
 90
       50
176
     1
 62
   256
176
     0
 40
1.0
176
     0
 90
        2
176
     1
  1
strokes_ogs.tif
176
     1
290
     0
176
     1
 40
1.0
176
     1
 40
1.0
176
     1
  0
VISUALSTYLE
  5
3C
102
{ACAD_REACTORS
330
2A
102
}
330
2A
100
AcDbVisualStyle
  2
OverhangOff
 70
    21
177
     3
291
     1
 70
    58
 90
        2
176
     0
 90
        2
176
     0
 90
        0
176
     0
 90
        0
176
     0
 40
0.6
176
     0
 40
30.0
176
     0
 62
     7
420
 16777215
176
     0
 90
        1
176
     0
 90
        4
176
     0
 62
     7
176
     0
 62
   257
176
     0
 90
        1
176
     0
 90
        1
176
     0
 40
1.0
176
     0
 90
        9
176
     2
 62
     7
176
     0
 40
1.0
176
     0
 90
        1
176
     0
 90
        6
176
     0
 90
        2
176
     0
 62
     7
176
     0
 90
        5
176
     0
 90
        0
176
     0
 90
        0
176
     0
290
     0
176
     0
 90
        1
176
     0
 40
0.0
176
     0
 90
        0
176
     0
290
     0
176
     0
290
     1
176
     0
290
     1
176
     0
290
     0
176
     0
290
     0
176
     0
290
     0
176
     0
290
     0
176
     0
290
     0
176
     0
290
     0
176
     0
 90
       50
176
     0
 40
0.0
176
     0
 40
1.0
176
     0
 90
        0
176
     0
 62
    18
420
        0
176
     0
 90
       50
176
     0
 90
        3
176
     0
 62
     5
420
      255
176
     0
290
     0
176
     0
 90
       50
176
     0
 90
       50
176
     0
 90
       50
176
     0
290
     0
176
     0
 90
       50
176
     0
 62
   256
176
     0
 40
1.0
176
     0
 90
        2
176
     0
  1
strokes_ogs.tif
176
     0
290
     0
176
     0
 40
1.0
176
     0
 40
1.0
176
     0
  0
VISUALSTYLE
  5
33
102
{ACAD_REACTORS
330
2A
102
}
330
2A
100
AcDbVisualStyle
  2
Realistic
 70
     8
177
     3
291
     0
 70
    58
 90
        2
176
     1
 90
        3
176
     1
 90
        0
176
     1
 90
        2
176
     1
 40
0.6
176
     1
 40
30.0
176
     1
 62
     7
420
 16777215
176
     1
 90
        0
176
     1
 90
        0
176
     1
 62
     7
176
     1
 62
   257
176
     1
 90
        1
176
     1
 90
        1
176
     1
 40
1.0
176
     1
 90
        8
176
     1
 62
   257
176
     1
 40
1.0
176
     1
 90
        1
176
     1
 90
        6
176
     1
 90
        2
176
     1
 62
     7
176
     1
 90
        3
176
     1
 90
        0
176
     1
 90
        0
176
     1
290
     0
176
     1
 90
       13
176
     1
 40
0.0
176
     1
 90
        0
176
     1
290
     0
176
     1
290
     1
176
     1
290
     1
176
     1
290
     0
176
     1
290
     0
176
     1
290
     0
176
     1
290
     0
176
     1
290
     0
176
     1
290
     0
176
     1
 90
       50
176
     1
 40
0.0
176
     1
 40
1.0
176
     1
 90
        0
176
     1
 62
    18
420
        0
176
     1
 90
       50
176
     1
 90
        3
176
     1
 62
     5
420
      255
176
     1
290
     0
176
     1
 90
       50
176
     1
 90
       50
176
     1
 90
       50
176
     1
290
     0
176
     1
 90
       50
176
     1
 62
   256
176
     0
 40
1.0
176
     0
 90
        2
176
     1
  1
strokes_ogs.tif
176
     1
290
     0
176
     1
 40
1.0
176
     1
 40
1.0
176
     1
  0
VISUALSTYLE
  5
42
102
{ACAD_REACTORS
330
2A
102
}
330
2A
100
AcDbVisualStyle
  2
Shaded
 70
    27
177
     3
291
     0
 70
    58
 90
        2
176
     1
 90
        2
176
     1
 90
        1
176
     1
 90
        2
176
     1
 40
0.6
176
     1
 40
30.0
176
     1
 62
     7
420
 16777215
176
     1
 90
        0
176
     1
 90
        4
176
     1
 62
     7
176
     1
 62
   257
176
     1
 90
        1
176
     1
 90
        1
176
     1
 40
1.0
176
     1
 90
        8
176
     1
 62
   257
176
     1
 40
1.0
176
     1
 90
        1
176
     1
 90
        6
176
     1
 90
        2
176
     1
 62
     8
420
  7895160
176
     1
 90
        3
176
     1
 90
        0
176
     1
 90
        0
176
     1
290
     0
176
     1
 90
        5
176
     1
 40
0.0
176
     1
 90
        0
176
     1
290
     0
176
     1
290
     1
176
     1
290
     1
176
     1
290
     0
176
     1
290
     0
176
     1
290
     0
176
     1
290
     0
176
     1
290
     0
176
     1
290
     0
176
     1
 90
       50
176
     1
 40
0.0
176
     1
 40
1.0
176
     1
 90
        0
176
     1
 62
    18
420
        0
176
     1
 90
       50
176
     1
 90
        3
176
     1
 62
     5
420
      255
176
     1
290
     0
176
     1
 90
       50
176
     1
 90
       50
176
     1
 90
       50
176
     1
290
     0
176
     1
 90
       50
176
     1
 62
   256
176
     0
 40
1.0
176
     0
 90
        2
176
     1
  1
strokes_ogs.tif
176
     1
290
     0
176
     1
 40
1.0
176
     1
 40
1.0
176
     1
  0
VISUALSTYLE
  5
41
102
{ACAD_REACTORS
330
2A
102
}
330
2A
100
AcDbVisualStyle
  2
Shaded with edges
 70
    26
177
     3
291
     0
 70
    58
 90
        2
176
     1
 90
        2
176
     1
 90
        1
176
     1
 90
        2
176
     1
 40
0.6
176
     1
 40
30.0
176
     1
 62
     7
420
 16777215
176
     1
 90
        1
176
     1
 90
       10
176
     1
 62
     7
176
     1
 62
   257
176
     1
 90
        2
176
     1
 90
        1
176
     1
 40
1.0
176
     1
 90
        8
176
     1
 62
   257
176
     1
 40
1.0
176
     1
 90
        1
176
     1
 90
        6
176
     1
 90
        2
176
     1
 62
     7
176
     1
 90
        3
176
     1
 90
        0
176
     1
 90
        0
176
     1
290
     0
176
     1
 90
        5
176
     1
 40
0.0
176
     1
 90
        0
176
     1
290
     0
176
     1
290
     1
176
     1
290
     1
176
     1
290
     0
176
     1
290
     0
176
     1
290
     0
176
     1
290
     0
176
     1
290
     0
176
     1
290
     0
176
     1
 90
       50
176
     1
 40
0.0
176
     1
 40
1.0
176
     1
 90
        0
176
     1
 62
    18
420
        0
176
     1
 90
       50
176
     1
 90
        3
176
     1
 62
     5
420
      255
176
     1
290
     0
176
     1
 90
       50
176
     1
 90
       50
176
     1
 90
       50
176
     1
290
     0
176
     1
 90
       50
176
     1
 62
   256
176
     0
 40
1.0
176
     0
 90
        2
176
     1
  1
strokes_ogs.tif
176
     1
290
     0
176
     1
 40
1.0
176
     1
 40
1.0
176
     1
  0
VISUALSTYLE
  5
3E
102
{ACAD_REACTORS
330
2A
102
}
330
2A
100
AcDbVisualStyle
  2
Shades of Gray
 70
    23
177
     3
291
     0
 70
    58
 90
        2
176
     1
 90
        2
176
     1
 90
        3
176
     1
 90
        0
176
     1
 40
0.6
176
     1
 40
30.0
176
     1
 62
     7
420
 16777215
176
     1
 90
        2
176
     1
 90
        2
176
     1
 62
     7
176
     1
 62
     7
176
     1
 90
        1
176
     1
 90
        1
176
     1
 40
40.0
176
     1
 90
        8
176
     1
 62
     7
176
     1
 40
1.0
176
     1
 90
        1
176
     1
 90
        6
176
     1
 90
        2
176
     1
 62
     7
176
     1
 90
        3
176
     1
 90
        0
176
     1
 90
        0
176
     1
290
     0
176
     1
 90
        1
176
     1
 40
0.0
176
     1
 90
        0
176
     1
290
     0
176
     1
290
     1
176
     1
290
     1
176
     1
290
     0
176
     1
290
     0
176
     1
290
     0
176
     1
290
     0
176
     1
290
     0
176
     1
290
     0
176
     1
 90
       50
176
     1
 40
0.0
176
     1
 40
1.0
176
     1
 90
        0
176
     1
 62
    18
420
        0
176
     1
 90
       50
176
     1
 90
        3
176
     1
 62
     5
420
      255
176
     1
290
     0
176
     1
 90
       50
176
     1
 90
       50
176
     1
 90
       50
176
     1
290
     0
176
     1
 90
       50
176
     1
 62
   256
176
     0
 40
1.0
176
     0
 90
        2
176
     1
  1
strokes_ogs.tif
176
     1
290
     0
176
     1
 40
1.0
176
     1
 40
1.0
176
     1
  0
VISUALSTYLE
  5
3F
102
{ACAD_REACTORS
330
2A
102
}
330
2A
100
AcDbVisualStyle
  2
Sketchy
 70
    24
177
     3
291
     0
 70
    58
 90
        1
176
     1
 90
        2
176
     1
 90
        2
176
     1
 90
        0
176
     1
 40
0.6
176
     1
 40
30.0
176
     1
 62
     7
420
 16777215
176
     1
 90
        2
176
     1
 90
        2
176
     1
 62
     7
176
     1
 62
     7
176
     1
 90
        1
176
     1
 90
        1
176
     1
 40
40.0
176
     1
 90
       11
176
     1
 62
     7
176
     1
 40
1.0
176
     1
 90
        1
176
     1
 90
        6
176
     1
 90
        2
176
     1
 62
     7
176
     1
 90
        6
176
     1
 90
        0
176
     1
 90
        0
176
     1
290
     0
176
     1
 90
        1
176
     1
 40
0.0
176
     1
 90
        0
176
     1
290
     0
176
     1
290
     1
176
     1
290
     1
176
     1
290
     0
176
     1
290
     0
176
     1
290
     0
176
     1
290
     0
176
     1
290
     0
176
     1
290
     0
176
     1
 90
       50
176
     1
 40
0.0
176
     1
 40
1.0
176
     1
 90
        0
176
     1
 62
    18
420
        0
176
     1
 90
       50
176
     1
 90
        3
176
     1
 62
     5
420
      255
176
     1
290
     0
176
     1
 90
       50
176
     1
 90
       50
176
     1
 90
       50
176
     1
290
     0
176
     1
 90
       50
176
     1
 62
   256
176
     0
 40
1.0
176
     0
 90
        2
176
     1
  1
strokes_ogs.tif
176
     1
290
     0
176
     1
 40
1.0
176
     1
 40
1.0
176
     1
  0
VISUALSTYLE
  5
37
102
{ACAD_REACTORS
330
2A
102
}
330
2A
100
AcDbVisualStyle
  2
Thicken
 70
    13
177
     3
291
     1
 70
    58
 90
        2
176
     1
 90
        2
176
     1
 90
        0
176
     1
 90
        0
176
     1
 40
0.6
176
     1
 40
30.0
176
     1
 62
     7
420
 16777215
176
     1
 90
        1
176
     1
 90
        4
176
     1
 62
     7
176
     1
 62
   257
176
     1
 90
        1
176
     1
 90
        1
176
     1
 40
1.0
176
     1
 90
       12
176
     1
 62
     7
176
     1
 40
1.0
176
     1
 90
        1
176
     1
 90
        6
176
     1
 90
        2
176
     1
 62
     7
176
     1
 90
        5
176
     1
 90
        0
176
     1
 90
        0
176
     1
290
     0
176
     1
 90
        1
176
     1
 40
0.0
176
     1
 90
        0
176
     1
290
     0
176
     1
290
     1
176
     1
290
     1
176
     1
290
     0
176
     1
290
     0
176
     1
290
     0
176
     1
290
     0
176
     1
290
     0
176
     1
290
     0
176
     1
 90
       50
176
     1
 40
0.0
176
     1
 40
1.0
176
     1
 90
        0
176
     1
 62
    18
420
        0
176
     1
 90
       50
176
     1
 90
        3
176
     1
 62
     5
420
      255
176
     1
290
     0
176
     1
 90
       50
176
     1
 90
       50
176
     1
 90
       50
176
     1
290
     0
176
     1
 90
       50
176
     1
 62
   256
176
     0
 40
1.0
176
     0
 90
        2
176
     1
  1
strokes_ogs.tif
176
     1
290
     0
176
     1
 40
1.0
176
     1
 40
1.0
176
     1
  0
VISUALSTYLE
  5
30
102
{ACAD_REACTORS
330
2A
102
}
330
2A
100
AcDbVisualStyle
  2
Wireframe
 70
     5
177
     3
291
     0
 70
    58
 90
        0
176
     1
 90
        2
176
     1
 90
        0
176
     1
 90
        0
176
     1
 40
0.6
176
     1
 40
30.0
176
     1
 62
     7
420
 16777215
176
     1
 90
        1
176
     1
 90
        4
176
     1
 62
     7
176
     1
 62
   257
176
     1
 90
        1
176
     1
 90
        1
176
     1
 40
1.0
176
     1
 90
        0
176
     1
 62
   257
176
     1
 40
1.0
176
     1
 90
        1
176
     1
 90
        6
176
     1
 90
        2
176
     1
 62
     7
176
     1
 90
        3
176
     1
 90
        0
176
     1
 90
        0
176
     1
290
     0
176
     1
 90
        1
176
     1
 40
0.0
176
     1
 90
        0
176
     1
290
     0
176
     1
290
     1
176
     1
290
     1
176
     1
290
     0
176
     1
290
     0
176
     1
290
     0
176
     1
290
     0
176
     1
290
     0
176
     1
290
     0
176
     1
 90
       50
176
     1
 40
0.0
176
     1
 40
1.0
176
     1
 90
        0
176
     1
 62
    18
420
        0
176
     1
 90
       50
176
     1
 90
        3
176
     1
 62
     5
420
      255
176
     1
290
     0
176
     1
 90
       50
176
     1
 90
       50
176
     1
 90
       50
176
     1
290
     0
176
     1
 90
       50
176
     1
 62
   256
176
     0
 40
1.0
176
     0
 90
        2
176
     1
  1
strokes_ogs.tif
176
     1
290
     0
176
     1
 40
1.0
176
     1
 40
1.0
176
     1
  0
VISUALSTYLE
  5
40
102
{ACAD_REACTORS
330
2A
102
}
330
2A
100
AcDbVisualStyle
  2
X-Ray
 70
    25
177
     3
291
     0
 70
    58
 90
        2
176
     1
 90
        2
176
     1
 90
        1
176
     1
 90
        1
176
     1
 40
0.5
176
     1
 40
30.0
176
     1
 62
     7
420
 16777215
176
     1
 90
        1
176
     1
 90
        0
176
     1
 62
     7
176
     1
 62
   257
176
     1
 90
        1
176
     1
 90
        1
176
     1
 40
1.0
176
     1
 90
        8
176
     1
 62
     7
176
     1
 40
1.0
176
     1
 90
        1
176
     1
 90
        6
176
     1
 90
        2
176
     1
 62
     7
176
     1
 90
        3
176
     1
 90
        0
176
     1
 90
        0
176
     1
290
     0
176
     1
 90
       13
176
     1
 40
0.0
176
     1
 90
        0
176
     1
290
     0
176
     1
290
     1
176
     1
290
     1
176
     1
290
     0
176
     1
290
     0
176
     1
290
     0
176
     1
290
     0
176
     1
290
     0
176
     1
290
     0
176
     1
 90
       50
176
     1
 40
0.0
176
     1
 40
1.0
176
     1
 90
        0
176
     1
 62
    18
420
        0
176
     1
 90
       50
176
     1
 90
        3
176
     1
 62
     5
420
      255
176
     1
290
     0
176
     1
 90
       50
176
     1
 90
       50
176
     1
 90
       50
176
     1
290
     0
176
     1
 90
       50
176
     1
 62
   256
176
     0
 40
1.0
176
     0
 90
        2
176
     1
  1
strokes_ogs.tif
176
     1
290
     0
176
     1
 40
1.0
176
     1
 40
1.0
176
     1
  0
DICTIONARYVAR
  5
393
102
{ACAD_REACTORS
330
392
102
}
330
392
100
DictionaryVariables
280
     0
  1
1:1
  0
ENDSEC
  0
EOF
