  0
SECTION
  2
HEADER
  9
$ACADVER
  1
AC1014
  9
$ACADMAINTVER
 70
     9
  9
$DWGCODEPAGE
  3
ANSI_932
  9
$INSBASE
 10
0.0
 20
0.0
 30
0.0
  9
$EXTMIN
 10
0.0
 20
0.0
 30
0.0
  9
$EXTMAX
 10
361.999998552
 20
282.9999999999999
 30
0.0
  9
$LIMMIN
 10
0.0
 20
0.0
  9
$LIMMAX
 10
181.0
 20
283.0
  9
$ORTHOMODE
 70
     1
  9
$REGENMODE
 70
     1
  9
$FILLMODE
 70
     1
  9
$QTEXTMODE
 70
     0
  9
$MIRRTEXT
 70
     0
  9
$DRAGMODE
 70
     2
  9
$LTSCALE
 40
5.0
  9
$OSMODE
 70
   167
  9
$ATTMODE
 70
     1
  9
$TEXTSIZE
 40
3.0
  9
$TRACEWID
 40
0.05
  9
$TEXTSTYLE
  7
BIGFONT
  9
$CLAYER
  8
JISSEN
  9
$CELTYPE
  6
BYLAYER
  9
$CECOLOR
 62
   256
  9
$CELTSCALE
 40
1.0
  9
$DELOBJ
 70
     1
  9
$DISPSILH
 70
     0
  9
$DIMSCALE
 40
1.0
  9
$DIMASZ
 40
1.5
  9
$DIMEXO
 40
1.0
  9
$DIMDLI
 40
6.0
  9
$DIMRND
 40
0.0
  9
$DIMDLE
 40
0.0
  9
$DIMEXE
 40
1.0
  9
$DIMTP
 40
0.0
  9
$DIMTM
 40
0.0
  9
$DIMTXT
 40
3.0
  9
$DIMCEN
 40
1.0
  9
$DIMTSZ
 40
0.0
  9
$DIMTOL
 70
     0
  9
$DIMLIM
 70
     0
  9
$DIMTIH
 70
     0
  9
$DIMTOH
 70
     0
  9
$DIMSE1
 70
     0
  9
$DIMSE2
 70
     0
  9
$DIMTAD
 70
     0
  9
$DIMZIN
 70
     8
  9
$DIMBLK
  1
ARROW
  9
$DIMASO
 70
     0
  9
$DIMSHO
 70
     0
  9
$DIMPOST
  1

  9
$DIMAPOST
  1

  9
$DIMALT
 70
     0
  9
$DIMALTD
 70
     2
  9
$DIMALTF
 40
25.4
  9
$DIMLFAC
 40
1.0
  9
$DIMTOFL
 70
     1
  9
$DIMTVP
 40
0.0
  9
$DIMTIX
 70
     0
  9
$DIMSOXD
 70
     0
  9
$DIMSAH
 70
     0
  9
$DIMBLK1
  1
ARROWANG
  9
$DIMBLK2
  1
ARROWANG
  9
$DIMSTYLE
  2
IMAO
  9
$DIMCLRD
 70
     0
  9
$DIMCLRE
 70
     0
  9
$DIMCLRT
 70
     0
  9
$DIMTFAC
 40
1.0
  9
$DIMGAP
 40
0.09
  9
$DIMJUST
 70
     0
  9
$DIMSD1
 70
     0
  9
$DIMSD2
 70
     0
  9
$DIMTOLJ
 70
     1
  9
$DIMTZIN
 70
     8
  9
$DIMALTZ
 70
     8
  9
$DIMALTTZ
 70
     8
  9
$DIMFIT
 70
     5
  9
$DIMUPT
 70
     0
  9
$DIMUNIT
 70
     2
  9
$DIMDEC
 70
     2
  9
$DIMTDEC
 70
     2
  9
$DIMALTU
 70
     2
  9
$DIMALTTD
 70
     2
  9
$DIMTXSTY
  7
BIGFONT
  9
$DIMAUNIT
 70
     0
  9
$LUNITS
 70
     2
  9
$LUPREC
 70
     2
  9
$SKETCHINC
 40
0.1
  9
$FILLETRAD
 40
0.2
  9
$AUNITS
 70
     0
  9
$AUPREC
 70
     2
  9
$MENU
  1
stdr12j
  9
$ELEVATION
 40
0.0
  9
$PELEVATION
 40
0.0
  9
$THICKNESS
 40
0.0
  9
$LIMCHECK
 70
     0
  9
$BLIPMODE
 70
     0
  9
$CHAMFERA
 40
0.0
  9
$CHAMFERB
 40
0.0
  9
$CHAMFERC
 40
0.0
  9
$CHAMFERD
 40
0.0
  9
$SKPOLY
 70
     0
  9
$TDCREATE
 40
2450617.453041203
  9
$TDUPDATE
 40
2453334.757059386
  9
$TDINDWG
 40
0.1623842130
  9
$TDUSRTIMER
 40
0.1623842130
  9
$USRTIMER
 70
     1
  9
$ANGBASE
 50
0.0
  9
$ANGDIR
 70
     0
  9
$PDMODE
 70
     0
  9
$PDSIZE
 40
0.0
  9
$PLINEWID
 40
0.0
  9
$COORDS
 70
     2
  9
$SPLFRAME
 70
     0
  9
$SPLINETYPE
 70
     6
  9
$SPLINESEGS
 70
     8
  9
$ATTDIA
 70
     0
  9
$ATTREQ
 70
     1
  9
$HANDLING
 70
 22529
  9
$HANDSEED
  5
EF7C89A08
  9
$SURFTAB1
 70
     6
  9
$SURFTAB2
 70
     6
  9
$SURFTYPE
 70
     6
  9
$SURFU
 70
     6
  9
$SURFV
 70
     6
  9
$UCSNAME
  2

  9
$UCSORG
 10
0.0
 20
0.0
 30
0.0
  9
$UCSXDIR
 10
1.0
 20
0.0
 30
0.0
  9
$UCSYDIR
 10
0.0
 20
1.0
 30
0.0
  9
$PUCSNAME
  2

  9
$PUCSORG
 10
0.0
 20
0.0
 30
0.0
  9
$PUCSXDIR
 10
1.0
 20
0.0
 30
0.0
  9
$PUCSYDIR
 10
0.0
 20
1.0
 30
0.0
  9
$USERI1
 70
     0
  9
$USERI2
 70
     1
  9
$USERI3
 70
     1
  9
$USERI4
 70
     3
  9
$USERI5
 70
     0
  9
$USERR1
 40
1.0
  9
$USERR2
 40
3.0
  9
$USERR3
 40
3.0
  9
$USERR4
 40
1.5
  9
$USERR5
 40
8.0
  9
$WORLDVIEW
 70
     1
  9
$SHADEDGE
 70
     3
  9
$SHADEDIF
 70
    70
  9
$TILEMODE
 70
     1
  9
$MAXACTVP
 70
    16
  9
$PINSBASE
 10
0.0
 20
0.0
 30
0.0
  9
$PLIMCHECK
 70
     0
  9
$PEXTMIN
 10
1.000000000000000E+20
 20
1.000000000000000E+20
 30
1.000000000000000E+20
  9
$PEXTMAX
 10
-1.000000000000000E+20
 20
-1.000000000000000E+20
 30
-1.000000000000000E+20
  9
$PLIMMIN
 10
0.0
 20
0.0
  9
$PLIMMAX
 10
12.0
 20
9.0
  9
$UNITMODE
 70
     0
  9
$VISRETAIN
 70
     0
  9
$PLINEGEN
 70
     0
  9
$PSLTSCALE
 70
     0
  9
$TREEDEPTH
 70
  3020
  9
$PICKSTYLE
 70
     1
  9
$CMLSTYLE
  2
STANDARD
  9
$CMLJUST
 70
     0
  9
$CMLSCALE
 40
1.0
  9
$PROXYGRAPHICS
 70
     1
  9
$MEASUREMENT
 70
     0
  0
ENDSEC
  0
SECTION
  2
CLASSES
  0
CLASS
  1
LWPOLYLINE
  2
AcDbPolyline
  3
AutoCAD 2000
 90
        0
280
     0
281
     1
  0
CLASS
  1
HATCH
  2
AcDbHatch
  3
AutoCAD 2000
 90
        0
280
     0
281
     1
  0
CLASS
  1
ACDBDICTIONARYWDFLT
  2
AcDbDictionaryWithDefault
  3
AutoCAD 2000
 90
        0
280
     0
281
     0
  0
CLASS
  1
ACDBPLACEHOLDER
  2
AcDbPlaceHolder
  3
AutoCAD 2000
 90
        0
280
     0
281
     0
  0
CLASS
  1
LAYOUT
  2
AcDbLayout
  3
AutoCAD 2000
 90
        0
280
     0
281
     0
  0
CLASS
  1
LONG_TRANSACTION
  2
AcDbLongTransaction
  3
AutoCAD 2000
 90
        0
280
     0
281
     0
  0
CLASS
  1
LWPOLYLINE
  2
AcDbPolyline
  3
AutoCAD 2000
 90
        0
280
     0
281
     1
  0
CLASS
  1
HATCH
  2
AcDbHatch
  3
AutoCAD 2000
 90
        0
280
     0
281
     1
  0
CLASS
  1
XRECORD
  2
AcDbXrecord
  3
AutoCAD 2000
 90
        0
280
     0
281
     0
  0
CLASS
  1
DICTIONARYVAR
  2
AcDbDictionaryVar
  3
AutoCAD 2000
 90
        0
280
     0
281
     0
  0
CLASS
  1
LONG_TRANSACTION
  2
AcDbLongTransaction
  3
AutoCAD 2000
 90
        0
280
     0
281
     0
  0
CLASS
  1
LWPOLYLINE
  2
AcDbPolyline
  3
AutoCAD 2000
 90
        0
280
     0
281
     1
  0
CLASS
  1
HATCH
  2
AcDbHatch
  3
AutoCAD 2000
 90
        0
280
     0
281
     1
  0
CLASS
  1
XRECORD
  2
AcDbXrecord
  3
AutoCAD 2000
 90
        0
280
     0
281
     0
  0
CLASS
  1
LONG_TRANSACTION
  2
AcDbLongTransaction
  3
AutoCAD 2000
 90
        0
280
     0
281
     0
  0
CLASS
  1
LWPOLYLINE
  2
AcDbPolyline
  3
AutoCAD 2000
 90
        0
280
     0
281
     1
  0
CLASS
  1
HATCH
  2
AcDbHatch
  3
AutoCAD 2000
 90
        0
280
     0
281
     1
  0
CLASS
  1
XRECORD
  2
AcDbXrecord
  3
AutoCAD 2000
 90
        0
280
     0
281
     0
  0
CLASS
  1
LONG_TRANSACTION
  2
AcDbLongTransaction
  3
AutoCAD 2000
 90
        0
280
     0
281
     0
  0
CLASS
  1
LWPOLYLINE
  2
AcDbPolyline
  3
AutoCAD 2000
 90
        0
280
     0
281
     1
  0
CLASS
  1
HATCH
  2
AcDbHatch
  3
AutoCAD 2000
 90
        0
280
     0
281
     1
  0
CLASS
  1
XRECORD
  2
AcDbXrecord
  3
AutoCAD 2000
 90
        0
280
     0
281
     0
  0
CLASS
  1
LONG_TRANSACTION
  2
AcDbLongTransaction
  3
AutoCAD 2000
 90
        0
280
     0
281
     0
  0
CLASS
  1
LWPOLYLINE
  2
AcDbPolyline
  3
AutoCAD 2000
 90
        0
280
     0
281
     1
  0
CLASS
  1
HATCH
  2
AcDbHatch
  3
AutoCAD 2000
 90
        0
280
     0
281
     1
  0
CLASS
  1
XRECORD
  2
AcDbXrecord
  3
AutoCAD 2000
 90
        0
280
     0
281
     0
  0
CLASS
  1
LONG_TRANSACTION
  2
AcDbLongTransaction
  3
AutoCAD 2000
 90
        0
280
     0
281
     0
  0
CLASS
  1
LWPOLYLINE
  2
AcDbPolyline
  3
AutoCAD 2000
 90
        0
280
     0
281
     1
  0
CLASS
  1
HATCH
  2
AcDbHatch
  3
AutoCAD 2000
 90
        0
280
     0
281
     1
  0
CLASS
  1
XRECORD
  2
AcDbXrecord
  3
AutoCAD 2000
 90
        0
280
     0
281
     0
  0
CLASS
  1
LONG_TRANSACTION
  2
AcDbLongTransaction
  3
AutoCAD 2000
 90
        0
280
     0
281
     0
  0
CLASS
  1
LWPOLYLINE
  2
AcDbPolyline
  3
AutoCAD 2000
 90
        0
280
     0
281
     1
  0
CLASS
  1
HATCH
  2
AcDbHatch
  3
AutoCAD 2000
 90
        0
280
     0
281
     1
  0
CLASS
  1
XRECORD
  2
AcDbXrecord
  3
AutoCAD 2000
 90
        0
280
     0
281
     0
  0
CLASS
  1
LONG_TRANSACTION
  2
AcDbLongTransaction
  3
AutoCAD 2000
 90
        0
280
     0
281
     0
  0
CLASS
  1
LWPOLYLINE
  2
AcDbPolyline
  3
AutoCAD 2000
 90
        0
280
     0
281
     1
  0
CLASS
  1
HATCH
  2
AcDbHatch
  3
AutoCAD 2000
 90
        0
280
     0
281
     1
  0
CLASS
  1
XRECORD
  2
AcDbXrecord
  3
AutoCAD 2000
 90
        0
280
     0
281
     0
  0
CLASS
  1
LONG_TRANSACTION
  2
AcDbLongTransaction
  3
AutoCAD 2000
 90
        0
280
     0
281
     0
  0
CLASS
  1
LWPOLYLINE
  2
AcDbPolyline
  3
AutoCAD 2000
 90
        0
280
     0
281
     1
  0
CLASS
  1
HATCH
  2
AcDbHatch
  3
AutoCAD 2000
 90
        0
280
     0
281
     1
  0
CLASS
  1
XRECORD
  2
AcDbXrecord
  3
AutoCAD 2000
 90
        0
280
     0
281
     0
  0
CLASS
  1
LONG_TRANSACTION
  2
AcDbLongTransaction
  3
AutoCAD 2000
 90
        0
280
     0
281
     0
  0
CLASS
  1
LWPOLYLINE
  2
AcDbPolyline
  3
AutoCAD 2000
 90
        0
280
     0
281
     1
  0
CLASS
  1
HATCH
  2
AcDbHatch
  3
AutoCAD 2000
 90
        0
280
     0
281
     1
  0
CLASS
  1
XRECORD
  2
AcDbXrecord
  3
AutoCAD 2000
 90
        0
280
     0
281
     0
  0
CLASS
  1
LONG_TRANSACTION
  2
AcDbLongTransaction
  3
AutoCAD 2000
 90
        0
280
     0
281
     0
  0
CLASS
  1
LWPOLYLINE
  2
AcDbPolyline
  3
AutoCAD 2000
 90
        0
280
     0
281
     1
  0
CLASS
  1
HATCH
  2
AcDbHatch
  3
AutoCAD 2000
 90
        0
280
     0
281
     1
  0
CLASS
  1
XRECORD
  2
AcDbXrecord
  3
AutoCAD 2000
 90
        0
280
     0
281
     0
  0
CLASS
  1
LONG_TRANSACTION
  2
AcDbLongTransaction
  3
AutoCAD 2000
 90
        0
280
     0
281
     0
  0
CLASS
  1
LWPOLYLINE
  2
AcDbPolyline
  3
AutoCAD 2000
 90
        0
280
     0
281
     1
  0
CLASS
  1
HATCH
  2
AcDbHatch
  3
AutoCAD 2000
 90
        0
280
     0
281
     1
  0
CLASS
  1
XRECORD
  2
AcDbXrecord
  3
AutoCAD 2000
 90
        0
280
     0
281
     0
  0
CLASS
  1
LONG_TRANSACTION
  2
AcDbLongTransaction
  3
AutoCAD 2000
 90
        0
280
     0
281
     0
  0
CLASS
  1
LWPOLYLINE
  2
AcDbPolyline
  3
AutoCAD 2000
 90
        0
280
     0
281
     1
  0
CLASS
  1
HATCH
  2
AcDbHatch
  3
AutoCAD 2000
 90
        0
280
     0
281
     1
  0
CLASS
  1
XRECORD
  2
AcDbXrecord
  3
AutoCAD 2000
 90
        0
280
     0
281
     0
  0
CLASS
  1
LONG_TRANSACTION
  2
AcDbLongTransaction
  3
AutoCAD 2000
 90
        0
280
     0
281
     0
  0
CLASS
  1
LWPOLYLINE
  2
AcDbPolyline
  3
AutoCAD 2000
 90
        0
280
     0
281
     1
  0
CLASS
  1
HATCH
  2
AcDbHatch
  3
AutoCAD 2000
 90
        0
280
     0
281
     1
  0
CLASS
  1
XRECORD
  2
AcDbXrecord
  3
AutoCAD 2000
 90
        0
280
     0
281
     0
  0
CLASS
  1
LONG_TRANSACTION
  2
AcDbLongTransaction
  3
AutoCAD 2000
 90
        0
280
     0
281
     0
  0
CLASS
  1
LWPOLYLINE
  2
AcDbPolyline
  3
AutoCAD 2000
 90
        0
280
     0
281
     1
  0
CLASS
  1
HATCH
  2
AcDbHatch
  3
AutoCAD 2000
 90
        0
280
     0
281
     1
  0
CLASS
  1
XRECORD
  2
AcDbXrecord
  3
AutoCAD 2000
 90
        0
280
     0
281
     0
  0
CLASS
  1
LONG_TRANSACTION
  2
AcDbLongTransaction
  3
AutoCAD 2000
 90
        0
280
     0
281
     0
  0
CLASS
  1
LWPOLYLINE
  2
AcDbPolyline
  3
AutoCAD 2000
 90
        0
280
     0
281
     1
  0
CLASS
  1
HATCH
  2
AcDbHatch
  3
AutoCAD 2000
 90
        0
280
     0
281
     1
  0
CLASS
  1
XRECORD
  2
AcDbXrecord
  3
AutoCAD 2000
 90
        0
280
     0
281
     0
  0
CLASS
  1
LONG_TRANSACTION
  2
AcDbLongTransaction
  3
AutoCAD 2000
 90
        0
280
     0
281
     0
  0
CLASS
  1
LWPOLYLINE
  2
AcDbPolyline
  3
AutoCAD 2000
 90
        0
280
     0
281
     1
  0
CLASS
  1
HATCH
  2
AcDbHatch
  3
AutoCAD 2000
 90
        0
280
     0
281
     1
  0
CLASS
  1
XRECORD
  2
AcDbXrecord
  3
AutoCAD 2000
 90
        0
280
     0
281
     0
  0
CLASS
  1
LONG_TRANSACTION
  2
AcDbLongTransaction
  3
AutoCAD 2000
 90
        0
280
     0
281
     0
  0
CLASS
  1
LWPOLYLINE
  2
AcDbPolyline
  3
AutoCAD 2000
 90
        0
280
     0
281
     1
  0
CLASS
  1
HATCH
  2
AcDbHatch
  3
AutoCAD 2000
 90
        0
280
     0
281
     1
  0
CLASS
  1
XRECORD
  2
AcDbXrecord
  3
AutoCAD 2000
 90
        0
280
     0
281
     0
  0
CLASS
  1
LONG_TRANSACTION
  2
AcDbLongTransaction
  3
AutoCAD 2000
 90
        0
280
     0
281
     0
  0
CLASS
  1
LWPOLYLINE
  2
AcDbPolyline
  3
AutoCAD 2000
 90
        0
280
     0
281
     1
  0
CLASS
  1
HATCH
  2
AcDbHatch
  3
AutoCAD 2000
 90
        0
280
     0
281
     1
  0
CLASS
  1
XRECORD
  2
AcDbXrecord
  3
AutoCAD 2000
 90
        0
280
     0
281
     0
  0
ENDSEC
  0
SECTION
  2
TABLES
  0
TABLE
  2
VPORT
  5
EF7C85523
330
0
100
AcDbSymbolTable
 70
    10
  0
VPORT
  5
EF7C85567
330
EF7C85523
100
AcDbSymbolTableRecord
100
AcDbViewportTableRecord
  2
2
 70
     0
 10
0.5
 20
0.0
 11
1.0
 21
1.0
 12
0.9240312421264802
 22
1.052650975462766
 13
0.0
 23
0.0
 14
1.0
 24
1.0
 15
10.0
 25
10.0
 16
0.0
 26
0.0
 36
1.0
 17
0.0
 27
0.0
 37
0.0
 40
2.105301950925533
 41
0.8778135048231511
 42
50.0
 43
0.0
 44
0.0
 50
0.0
 51
0.0
 71
     0
 72
   500
 73
     1
 74
     1
 75
     0
 76
     0
 77
     0
 78
     0
  0
VPORT
  5
EF7C85568
330
EF7C85523
100
AcDbSymbolTableRecord
100
AcDbViewportTableRecord
  2
2
 70
     0
 10
0.0
 20
0.0
 11
0.5
 21
1.0
 12
0.9240312421264802
 22
1.052650975462766
 13
0.0
 23
0.0
 14
1.0
 24
1.0
 15
10.0
 25
10.0
 16
0.0
 26
0.0
 36
1.0
 17
0.0
 27
0.0
 37
0.0
 40
2.105301950925533
 41
0.8778135048231511
 42
50.0
 43
0.0
 44
0.0
 50
0.0
 51
0.0
 71
     0
 72
   500
 73
     1
 74
     1
 75
     0
 76
     0
 77
     0
 78
     0
  0
VPORT
  5
EF7C85569
330
EF7C85523
100
AcDbSymbolTableRecord
100
AcDbViewportTableRecord
  2
3
 70
     0
 10
0.0
 20
0.5
 11
1.0
 21
1.0
 12
2.832169994473273
 22
1.052650975462766
 13
0.0
 23
0.0
 14
1.0
 24
1.0
 15
10.0
 25
10.0
 16
0.0
 26
0.0
 36
1.0
 17
0.0
 27
0.0
 37
0.0
 40
2.105301950925533
 41
3.571428571428571
 42
50.0
 43
0.0
 44
0.0
 50
0.0
 51
0.0
 71
     0
 72
   500
 73
     1
 74
     1
 75
     0
 76
     0
 77
     0
 78
     0
  0
VPORT
  5
EF7C8556A
330
EF7C85523
100
AcDbSymbolTableRecord
100
AcDbViewportTableRecord
  2
3
 70
     0
 10
0.0
 20
0.0
 11
1.0
 21
0.5
 12
2.856741679241311
 22
1.052650975462766
 13
0.0
 23
0.0
 14
1.0
 24
1.0
 15
10.0
 25
10.0
 16
0.0
 26
0.0
 36
1.0
 17
0.0
 27
0.0
 37
0.0
 40
2.105301950925533
 41
3.594771241830065
 42
50.0
 43
0.0
 44
0.0
 50
0.0
 51
0.0
 71
     0
 72
   500
 73
     1
 74
     1
 75
     0
 76
     0
 77
     0
 78
     0
  0
VPORT
  5
EF7C8556B
330
EF7C85523
100
AcDbSymbolTableRecord
100
AcDbViewportTableRecord
  2
4
 70
     0
 10
0.5
 20
0.0
 11
1.0
 21
0.5
 12
2.886857516709719
 22
1.052650975462766
 13
0.0
 23
0.0
 14
1.0
 24
1.0
 15
10.0
 25
10.0
 16
0.0
 26
0.0
 36
1.0
 17
0.0
 27
0.0
 37
0.0
 40
4.27520703030907
 41
1.784313725490195
 42
50.0
 43
0.0
 44
0.0
 50
0.0
 51
0.0
 71
     0
 72
   500
 73
     1
 74
     1
 75
     0
 76
     0
 77
     0
 78
     0
  0
VPORT
  5
EF7C8556C
330
EF7C85523
100
AcDbSymbolTableRecord
100
AcDbViewportTableRecord
  2
4
 70
     0
 10
0.5
 20
0.5
 11
1.0
 21
1.0
 12
2.862090274555523
 22
1.052650975462766
 13
0.0
 23
0.0
 14
1.0
 24
1.0
 15
10.0
 25
10.0
 16
0.0
 26
0.0
 36
1.0
 17
0.0
 27
0.0
 37
0.0
 40
4.27520703030907
 41
1.772727272727272
 42
50.0
 43
0.0
 44
0.0
 50
0.0
 51
0.0
 71
     0
 72
   500
 73
     1
 74
     1
 75
     0
 76
     0
 77
     0
 78
     0
  0
VPORT
  5
EF7C8556D
330
EF7C85523
100
AcDbSymbolTableRecord
100
AcDbViewportTableRecord
  2
4
 70
     0
 10
0.0
 20
0.5
 11
0.5
 21
1.0
 12
2.862090274555523
 22
1.052650975462766
 13
0.0
 23
0.0
 14
1.0
 24
1.0
 15
10.0
 25
10.0
 16
0.0
 26
0.0
 36
1.0
 17
0.0
 27
0.0
 37
0.0
 40
4.27520703030907
 41
1.772727272727272
 42
50.0
 43
0.0
 44
0.0
 50
0.0
 51
0.0
 71
     0
 72
   500
 73
     1
 74
     1
 75
     0
 76
     0
 77
     0
 78
     0
  0
VPORT
  5
EF7C8556E
330
EF7C85523
100
AcDbSymbolTableRecord
100
AcDbViewportTableRecord
  2
4
 70
     0
 10
0.0
 20
0.0
 11
0.5
 21
0.5
 12
2.886857516709719
 22
1.052650975462766
 13
0.0
 23
0.0
 14
1.0
 24
1.0
 15
10.0
 25
10.0
 16
0.0
 26
0.0
 36
1.0
 17
0.0
 27
0.0
 37
0.0
 40
4.27520703030907
 41
1.784313725490195
 42
50.0
 43
0.0
 44
0.0
 50
0.0
 51
0.0
 71
     0
 72
   500
 73
     1
 74
     1
 75
     0
 76
     0
 77
     0
 78
     0
  0
VPORT
  5
EF7C899E4
330
EF7C85523
100
AcDbSymbolTableRecord
100
AcDbViewportTableRecord
  2
*ACTIVE
 70
     0
 10
0.0
 20
0.0
 11
1.0
 21
1.0
 12
262.8393831941441
 22
141.5028227015202
 13
0.0
 23
0.0
 14
1.0
 24
1.0
 15
10.0
 25
10.0
 16
0.0
 26
0.0
 36
1.0
 17
0.0
 27
0.0
 37
0.0
 40
286.2552563097978
 41
1.771962616822429
 42
50.0
 43
0.0
 44
0.0
 50
0.0
 51
0.0
 71
     0
 72
   500
 73
     1
 74
     0
 75
     0
 76
     0
 77
     0
 78
     0
  0
ENDTAB
  0
TABLE
  2
LTYPE
  5
EF7C85520
330
0
100
AcDbSymbolTable
 70
     2
  0
LTYPE
  5
EF7C8552C
330
EF7C85520
100
AcDbSymbolTableRecord
100
AcDbLinetypeTableRecord
  2
BYBLOCK
 70
     0
  3

 72
    65
 73
     0
 40
0.0
  0
LTYPE
  5
EF7C8552D
330
EF7C85520
100
AcDbSymbolTableRecord
100
AcDbLinetypeTableRecord
  2
BYLAYER
 70
     0
  3

 72
    65
 73
     0
 40
0.0
  0
LTYPE
  5
EF7C8552E
330
EF7C85520
100
AcDbSymbolTableRecord
100
AcDbLinetypeTableRecord
  2
CONTINUOUS
 70
     0
  3
実線
 72
    65
 73
     0
 40
0.0
  0
LTYPE
  5
EF7C85565
330
EF7C85520
100
AcDbSymbolTableRecord
100
AcDbLinetypeTableRecord
  2
PHANTOM
 70
     0
  3
_____ _ _ _____ _ _ _____ _ _ _____ _ _ ____
 72
    65
 73
     6
 40
2.5
 49
1.25
 74
     0
 49
-0.25
 74
     0
 49
0.25
 74
     0
 49
-0.25
 74
     0
 49
0.25
 74
     0
 49
-0.25
 74
     0
  0
ENDTAB
  0
TABLE
  2
LAYER
  5
EF7C8551D
330
0
100
AcDbSymbolTable
 70
     8
  0
LAYER
  5
EF7C85529
330
EF7C8551D
100
AcDbSymbolTableRecord
100
AcDbLayerTableRecord
  2
0
 70
     0
 62
     6
  6
CONTINUOUS
  0
LAYER
  5
EF7C85574
330
EF7C8551D
100
AcDbSymbolTableRecord
100
AcDbLayerTableRecord
  2
NITEN
 70
     0
 62
     2
  6
PHANTOM
  0
LAYER
  5
EF7C85575
330
EF7C8551D
100
AcDbSymbolTableRecord
100
AcDbLayerTableRecord
  2
HATCH
 70
     0
 62
     4
  6
CONTINUOUS
  0
LAYER
  5
EF7C85576
330
EF7C8551D
100
AcDbSymbolTableRecord
100
AcDbLayerTableRecord
  2
SUNPOU
 70
     0
 62
     3
  6
CONTINUOUS
  0
LAYER
  5
EF7C85577
330
EF7C8551D
100
AcDbSymbolTableRecord
100
AcDbLayerTableRecord
  2
TEXT
 70
     0
 62
     3
  6
CONTINUOUS
  0
LAYER
  5
EF7C85578
330
EF7C8551D
100
AcDbSymbolTableRecord
100
AcDbLayerTableRecord
  2
SAISEN
 70
     0
 62
     4
  6
CONTINUOUS
  0
LAYER
  5
EF7C85579
330
EF7C8551D
100
AcDbSymbolTableRecord
100
AcDbLayerTableRecord
  2
JISSEN
 70
     0
 62
     7
  6
CONTINUOUS
  0
LAYER
  5
EF7C8557D
330
EF7C8551D
100
AcDbSymbolTableRecord
100
AcDbLayerTableRecord
  2
WAKU
 70
     0
 62
     5
  6
CONTINUOUS
  0
ENDTAB
  0
TABLE
  2
STYLE
  5
EF7C8551E
330
0
100
AcDbSymbolTable
 70
     3
  0
STYLE
  5
EF7C8552A
330
EF7C8551E
100
AcDbSymbolTableRecord
100
AcDbTextStyleTableRecord
  2
STANDARD
 70
     0
 40
0.0
 41
1.0
 50
0.0
 71
     0
 42
1.5
  3
SIMPLEX
  4

  0
STYLE
  5
EF7C85558
330
EF7C8551E
100
AcDbSymbolTableRecord
100
AcDbTextStyleTableRecord
  2
K
 70
     0
 40
0.0
 41
1.0
 50
0.0
 71
     0
 42
3.0
  3
ROMANS
  4
BIGFONT
  0
STYLE
  5
EF7C8555B
330
EF7C8551E
100
AcDbSymbolTableRecord
100
AcDbTextStyleTableRecord
  2
BIGFONT
 70
     0
 40
0.0
 41
1.0
 50
0.0
 71
     0
 42
3.0
  3
txt.shx
  4
bigfont
  0
ENDTAB
  0
TABLE
  2
VIEW
  5
EF7C85521
330
0
100
AcDbSymbolTable
 70
     0
  0
ENDTAB
  0
TABLE
  2
UCS
  5
EF7C85522
330
0
100
AcDbSymbolTable
 70
     0
  0
ENDTAB
  0
TABLE
  2
APPID
  5
EF7C85524
330
0
100
AcDbSymbolTable
 70
     1
  0
APPID
  5
EF7C8552B
330
EF7C85524
100
AcDbSymbolTableRecord
100
AcDbRegAppTableRecord
  2
ACAD
 70
     0
  0
ENDTAB
  0
TABLE
  2
DIMSTYLE
  5
EF7C85525
330
0
100
AcDbSymbolTable
 70
     1
  0
DIMSTYLE
105
EF7C85571
330
EF7C85525
100
AcDbSymbolTableRecord
100
AcDbDimStyleTableRecord
  2
IMAO
 70
     0
  3

  4

  5
ARROWANG
  6
ARROWANG
  7
ARROWANG
 40
1.0
 41
1.5
 42
1.0
 43
6.0
 44
1.0
 45
0.0
 46
0.0
 47
495.0
 48
0.0
140
3.0
141
0.0
142
0.0
143
25.4
144
1.0
145
0.0
146
1.0
147
0.09
 71
     0
 72
     0
 73
     0
 74
     0
 75
     0
 76
     0
 77
     1
 78
     8
170
     0
171
     2
172
     1
173
     0
174
     1
175
     0
176
     0
177
     0
178
     0
270
     2
271
     2
272
     2
273
     2
274
     2
340
EF7C8555B
275
     0
280
     0
281
     0
282
     0
283
     1
284
     8
285
     8
286
     8
287
     5
288
     0
  0
ENDTAB
  0
TABLE
  2
BLOCK_RECORD
  5
EF7C8551C
330
0
100
AcDbSymbolTable
 70
    10
  0
BLOCK_RECORD
  5
EF7C85532
102
{ACAD_XDICTIONARY
360
EF7C85D9A
102
}
330
EF7C8551C
100
AcDbSymbolTableRecord
100
AcDbBlockTableRecord
  2
*MODEL_SPACE
  0
BLOCK_RECORD
  5
EF7C8552F
102
{ACAD_XDICTIONARY
360
EF7C85D98
102
}
330
EF7C8551C
100
AcDbSymbolTableRecord
100
AcDbBlockTableRecord
  2
*PAPER_SPACE
  0
BLOCK_RECORD
  5
EF7C85537
330
EF7C8551C
100
AcDbSymbolTableRecord
100
AcDbBlockTableRecord
  2
ARROW
  0
BLOCK_RECORD
  5
EF7C8553B
330
EF7C8551C
100
AcDbSymbolTableRecord
100
AcDbBlockTableRecord
  2
WAKU
  0
BLOCK_RECORD
  5
EF7C8553D
330
EF7C8551C
100
AcDbSymbolTableRecord
100
AcDbBlockTableRecord
  2
*X2
  0
BLOCK_RECORD
  5
EF7C8553E
330
EF7C8551C
100
AcDbSymbolTableRecord
100
AcDbBlockTableRecord
  2
STDGX5
  0
BLOCK_RECORD
  5
EF7C8553F
330
EF7C8551C
100
AcDbSymbolTableRecord
100
AcDbBlockTableRecord
  2
*X4
  0
BLOCK_RECORD
  5
EF7C85540
330
EF7C8551C
100
AcDbSymbolTableRecord
100
AcDbBlockTableRecord
  2
*X5
  0
BLOCK_RECORD
  5
EF7C85541
330
EF7C8551C
100
AcDbSymbolTableRecord
100
AcDbBlockTableRecord
  2
*X6
  0
BLOCK_RECORD
  5
EF7C85542
330
EF7C8551C
100
AcDbSymbolTableRecord
100
AcDbBlockTableRecord
  2
*X7
  0
BLOCK_RECORD
  5
EF7C85543
330
EF7C8551C
100
AcDbSymbolTableRecord
100
AcDbBlockTableRecord
  2
ARROWANG
  0
BLOCK_RECORD
  5
EF7C85544
330
EF7C8551C
100
AcDbSymbolTableRecord
100
AcDbBlockTableRecord
  2
STDR12J
  0
ENDTAB
  0
ENDSEC
  0
SECTION
  2
BLOCKS
  0
BLOCK
  5
EF7C85580
330
EF7C85532
100
AcDbEntity
  8
0
100
AcDbBlockBegin
  2
*MODEL_SPACE
 70
     0
 10
0.0
 20
0.0
 30
0.0
  3
*MODEL_SPACE
  1

  0
ENDBLK
  5
EF7C85581
330
EF7C85532
100
AcDbEntity
  8
0
100
AcDbBlockEnd
  0
BLOCK
  5
EF7C8557E
330
EF7C8552F
100
AcDbEntity
 67
     1
  8
0
100
AcDbBlockBegin
  2
*PAPER_SPACE
 70
     0
 10
0.0
 20
0.0
 30
0.0
  3
*PAPER_SPACE
  1

  0
ENDBLK
  5
EF7C8557F
330
EF7C8552F
100
AcDbEntity
 67
     1
  8
0
100
AcDbBlockEnd
  0
BLOCK
  5
499
330
EF7C85537
100
AcDbEntity
  8
0
100
AcDbBlockBegin
  2
ARROW
 70
     0
 10
1.0
 20
0.5
 30
0.0
  3
ARROW
  1

  0
LINE
  5
49A
330
EF7C85537
100
AcDbEntity
  8
0
100
AcDbLine
 10
1.0
 20
0.5
 30
0.0
 11
-0.5000000000000214
 21
0.0980762113533018
 31
0.0
  0
LINE
  5
49B
330
EF7C85537
100
AcDbEntity
  8
0
100
AcDbLine
 10
0.0
 20
0.5
 30
0.0
 11
1.0
 21
0.5
 31
0.0
  0
LINE
  5
49C
330
EF7C85537
100
AcDbEntity
  8
0
100
AcDbLine
 10
1.0
 20
0.5
 30
0.0
 11
-0.4999999999999574
 21
0.9019237886467408
 31
0.0
  0
ENDBLK
  5
49D
330
EF7C85537
100
AcDbEntity
  8
0
100
AcDbBlockEnd
  0
BLOCK
  5
4A7
330
EF7C8553B
100
AcDbEntity
  8
0
100
AcDbBlockBegin
  2
WAKU
 70
     0
 10
0.0
 20
0.0
 30
0.0
  3
WAKU
  1

  0
LINE
  5
4A8
330
EF7C8553B
100
AcDbEntity
  8
WAKU
100
AcDbLine
 10
0.999999996
 20
0.0
 30
0.0
 11
0.999999996
 21
0.9999999999999998
 31
0.0
  0
LINE
  5
4A9
330
EF7C8553B
100
AcDbEntity
  8
WAKU
100
AcDbLine
 10
0.0
 20
0.9999999999999998
 30
0.0
 11
0.999999996
 21
0.9999999999999998
 31
0.0
  0
LINE
  5
4AA
330
EF7C8553B
100
AcDbEntity
  8
WAKU
100
AcDbLine
 10
0.999999996
 20
0.0
 30
0.0
 11
0.0
 21
0.0
 31
0.0
  0
LINE
  5
4AB
330
EF7C8553B
100
AcDbEntity
  8
WAKU
100
AcDbLine
 10
0.0
 20
0.0
 30
0.0
 11
0.0
 21
0.9999999999999998
 31
0.0
  0
ENDBLK
  5
4AC
330
EF7C8553B
100
AcDbEntity
  8
0
100
AcDbBlockEnd
  0
BLOCK
  5
2764
330
EF7C8553D
100
AcDbEntity
  8
0
100
AcDbBlockBegin
  2
*X2
 70
     1
 10
0.0
 20
0.0
 30
0.0
  3
*X2
  1

  0
ENDBLK
  5
2765
330
EF7C8553D
100
AcDbEntity
  8
0
100
AcDbBlockEnd
  0
BLOCK
  5
2766
330
EF7C8553E
100
AcDbEntity
  8
0
100
AcDbBlockBegin
  2
STDGX5
 70
     0
 10
0.0
 20
0.0
 30
0.0
  3
STDGX5
  1

  0
ENDBLK
  5
2767
330
EF7C8553E
100
AcDbEntity
  8
0
100
AcDbBlockEnd
  0
BLOCK
  5
2F5A
330
EF7C8553F
100
AcDbEntity
  8
0
100
AcDbBlockBegin
  2
*X4
 70
     1
 10
0.0
 20
0.0
 30
0.0
  3
*X4
  1

  0
ENDBLK
  5
2F5B
330
EF7C8553F
100
AcDbEntity
  8
0
100
AcDbBlockEnd
  0
BLOCK
  5
32BB
330
EF7C85540
100
AcDbEntity
  8
0
100
AcDbBlockBegin
  2
*X5
 70
     1
 10
0.0
 20
0.0
 30
0.0
  3
*X5
  1

  0
ENDBLK
  5
32BC
330
EF7C85540
100
AcDbEntity
  8
0
100
AcDbBlockEnd
  0
BLOCK
  5
372F
330
EF7C85541
100
AcDbEntity
  8
0
100
AcDbBlockBegin
  2
*X6
 70
     1
 10
0.0
 20
0.0
 30
0.0
  3
*X6
  1

  0
ENDBLK
  5
3730
330
EF7C85541
100
AcDbEntity
  8
0
100
AcDbBlockEnd
  0
BLOCK
  5
3A6D
330
EF7C85542
100
AcDbEntity
  8
0
100
AcDbBlockBegin
  2
*X7
 70
     1
 10
0.0
 20
0.0
 30
0.0
  3
*X7
  1

  0
ENDBLK
  5
3A6E
330
EF7C85542
100
AcDbEntity
  8
0
100
AcDbBlockEnd
  0
BLOCK
  5
4CC9
330
EF7C85543
100
AcDbEntity
  8
0
100
AcDbBlockBegin
  2
ARROWANG
 70
     0
 10
0.0
 20
0.0
 30
0.0
  3
ARROWANG
  1

  0
LINE
  5
4CCA
330
EF7C85543
100
AcDbEntity
  8
SUNPOU
100
AcDbLine
 10
0.0
 20
0.0
 30
0.0
 11
-1.499999999999957
 21
0.4019237886467409
 31
0.0
  0
LINE
  5
4CCB
330
EF7C85543
100
AcDbEntity
  8
SUNPOU
100
AcDbLine
 10
0.0
 20
0.0
 30
0.0
 11
-1.500000000000028
 21
-0.4019237886467124
 31
0.0
  0
ENDBLK
  5
4CCC
330
EF7C85543
100
AcDbEntity
  8
0
100
AcDbBlockEnd
  0
BLOCK
  5
4CCD
330
EF7C85544
100
AcDbEntity
  8
0
100
AcDbBlockBegin
  2
STDR12J
 70
     0
 10
0.0
 20
0.0
 30
0.0
  3
STDR12J
  1

  0
ENDBLK
  5
4CF2
330
EF7C85544
100
AcDbEntity
  8
0
100
AcDbBlockEnd
  0
ENDSEC
  0
SECTION
  2
ENTITIES
  0
TEXT
  5
1
330
EF7C85532
100
AcDbEntity
  8
SUNPOU
100
AcDbText
 10
95.05869565217389
 20
43.7966872748706
 30
0.0
 40
1.5
  1
                          
100
AcDbText
  0
TEXT
  5
2
330
EF7C85532
100
AcDbEntity
  8
SUNPOU
100
AcDbText
 10
332.2793466870868
 20
21.8983436374353
 30
0.0
 40
0.75
  1
                          
100
AcDbText
  0
TEXT
  5
1A
330
EF7C85532
100
AcDbEntity
  8
SUNPOU
100
AcDbText
 10
289.9834441000535
 20
43.7966872748706
 30
0.0
 40
1.5
  1
                          
100
AcDbText
  0
TEXT
  5
1B
330
EF7C85532
100
AcDbEntity
  8
SUNPOU
100
AcDbText
 10
527.2040951349665
 20
21.8983436374353
 30
0.0
 40
0.75
  1
                          
100
AcDbText
  0
TEXT
  5
1C
330
EF7C85532
100
AcDbEntity
  8
SUNPOU
100
AcDbText
 10
490.6272568090836
 20
43.79668727487057
 30
0.0
 40
1.5
  1
                          
100
AcDbText
  0
TEXT
  5
1D
330
EF7C85532
100
AcDbEntity
  8
SUNPOU
100
AcDbText
 10
727.8479078439966
 20
21.89834363743527
 30
0.0
 40
0.75
  1
                          
100
AcDbText
  0
INSERT
  5
1E
330
EF7C85532
100
AcDbEntity
  8
HATCH
100
AcDbBlockReference
  2
*X2
 10
194.9247484478796
 20
0.0
 30
0.0
  0
TEXT
  5
1F
330
EF7C85532
100
AcDbEntity
  8
SUNPOU
100
AcDbText
 10
493.0101992368964
 20
43.7966872748706
 30
0.0
 40
1.5
  1
                          
100
AcDbText
  0
TEXT
  5
20
330
EF7C85532
100
AcDbEntity
  8
SUNPOU
100
AcDbText
 10
730.2308502718094
 20
21.8983436374353
 30
0.0
 40
0.75
  1
                          
100
AcDbText
  0
TEXT
  5
21
330
EF7C85532
100
AcDbEntity
  8
SUNPOU
100
AcDbText
 10
482.0486607753579
 20
43.7966872748706
 30
0.0
 40
1.5
  1
                          
100
AcDbText
  0
TEXT
  5
22
330
EF7C85532
100
AcDbEntity
  8
SUNPOU
100
AcDbText
 10
719.269311810271
 20
21.8983436374353
 30
0.0
 40
0.75
  1
                          
100
AcDbText
  0
INSERT
  5
25
330
EF7C85532
100
AcDbEntity
  8
JISSEN
100
AcDbBlockReference
  2
STDGX5
 10
0.0
 20
0.0
 30
0.0
  0
TEXT
  5
60
330
EF7C85532
100
AcDbEntity
  8
SUNPOU
100
AcDbText
 10
274.0586949361738
 20
43.7966872748706
 30
0.0
 40
1.5
  1
                          
100
AcDbText
  0
TEXT
  5
61
330
EF7C85532
100
AcDbEntity
  8
SUNPOU
100
AcDbText
 10
511.2793459710869
 20
21.8983436374353
 30
0.0
 40
0.75
  1
                          
100
AcDbText
  0
TEXT
  5
62
330
EF7C85532
100
AcDbEntity
  8
SUNPOU
100
AcDbText
 10
474.702507645204
 20
43.79668727487057
 30
0.0
 40
1.5
  1
                          
100
AcDbText
  0
TEXT
  5
63
330
EF7C85532
100
AcDbEntity
  8
SUNPOU
100
AcDbText
 10
711.923158680117
 20
21.89834363743527
 30
0.0
 40
0.75
  1
                          
100
AcDbText
  0
INSERT
  5
64
330
EF7C85532
100
AcDbEntity
  8
HATCH
100
AcDbBlockReference
  2
*X4
 10
178.999999284
 20
0.0
 30
0.0
  0
TEXT
  5
65
330
EF7C85532
100
AcDbEntity
  8
SUNPOU
100
AcDbText
 10
477.0854500730167
 20
43.7966872748706
 30
0.0
 40
1.5
  1
                          
100
AcDbText
  0
TEXT
  5
66
330
EF7C85532
100
AcDbEntity
  8
SUNPOU
100
AcDbText
 10
714.3061011079298
 20
21.8983436374353
 30
0.0
 40
0.75
  1
                          
100
AcDbText
  0
TEXT
  5
67
330
EF7C85532
100
AcDbEntity
  8
SUNPOU
100
AcDbText
 10
466.1239116114783
 20
43.7966872748706
 30
0.0
 40
1.5
  1
                          
100
AcDbText
  0
TEXT
  5
68
330
EF7C85532
100
AcDbEntity
  8
SUNPOU
100
AcDbText
 10
703.3445626463913
 20
21.8983436374353
 30
0.0
 40
0.75
  1
                          
100
AcDbText
  0
INSERT
  5
69
330
EF7C85532
100
AcDbEntity
  8
TEXT
100
AcDbBlockReference
  2
STDGX5
 10
178.999999284
 20
0.0
 30
0.0
  0
TEXT
  5
6A
330
EF7C85532
100
AcDbEntity
  8
SUNPOU
100
AcDbText
 10
453.0586949361739
 20
43.7966872748706
 30
0.0
 40
1.5
  1
                          
100
AcDbText
  0
TEXT
  5
6B
330
EF7C85532
100
AcDbEntity
  8
SUNPOU
100
AcDbText
 10
690.279345971087
 20
21.8983436374353
 30
0.0
 40
0.75
  1
                          
100
AcDbText
  0
TEXT
  5
6C
330
EF7C85532
100
AcDbEntity
  8
SUNPOU
100
AcDbText
 10
647.9834433840535
 20
43.7966872748706
 30
0.0
 40
1.5
  1
                          
100
AcDbText
  0
TEXT
  5
6D
330
EF7C85532
100
AcDbEntity
  8
SUNPOU
100
AcDbText
 10
885.2040944189665
 20
21.8983436374353
 30
0.0
 40
0.75
  1
                          
100
AcDbText
  0
TEXT
  5
6E
330
EF7C85532
100
AcDbEntity
  8
SUNPOU
100
AcDbText
 10
848.6272560930835
 20
43.79668727487057
 30
0.0
 40
1.5
  1
                          
100
AcDbText
  0
TEXT
  5
6F
330
EF7C85532
100
AcDbEntity
  8
SUNPOU
100
AcDbText
 10
1085.847907127996
 20
21.89834363743527
 30
0.0
 40
0.75
  1
                          
100
AcDbText
  0
INSERT
  5
70
330
EF7C85532
100
AcDbEntity
  8
HATCH
100
AcDbBlockReference
  2
*X5
 10
552.9247477318797
 20
0.0
 30
0.0
  0
TEXT
  5
71
330
EF7C85532
100
AcDbEntity
  8
SUNPOU
100
AcDbText
 10
851.0101985208963
 20
43.7966872748706
 30
0.0
 40
1.5
  1
                          
100
AcDbText
  0
TEXT
  5
72
330
EF7C85532
100
AcDbEntity
  8
SUNPOU
100
AcDbText
 10
1088.230849555809
 20
21.8983436374353
 30
0.0
 40
0.75
  1
                          
100
AcDbText
  0
TEXT
  5
73
330
EF7C85532
100
AcDbEntity
  8
SUNPOU
100
AcDbText
 10
840.048660059358
 20
43.7966872748706
 30
0.0
 40
1.5
  1
                          
100
AcDbText
  0
TEXT
  5
74
330
EF7C85532
100
AcDbEntity
  8
SUNPOU
100
AcDbText
 10
1077.269311094271
 20
21.8983436374353
 30
0.0
 40
0.75
  1
                          
100
AcDbText
  0
INSERT
  5
75
330
EF7C85532
100
AcDbEntity
  8
JISSEN
100
AcDbBlockReference
  2
STDGX5
 10
357.999999284
 20
0.0
 30
0.0
  0
TEXT
  5
76
330
EF7C85532
100
AcDbEntity
  8
SUNPOU
100
AcDbText
 10
453.0586949361739
 20
43.7966872748706
 30
0.0
 40
1.5
  1
                          
100
AcDbText
  0
TEXT
  5
77
330
EF7C85532
100
AcDbEntity
  8
SUNPOU
100
AcDbText
 10
690.279345971087
 20
21.8983436374353
 30
0.0
 40
0.75
  1
                          
100
AcDbText
  0
TEXT
  5
78
330
EF7C85532
100
AcDbEntity
  8
SUNPOU
100
AcDbText
 10
647.9834433840535
 20
43.7966872748706
 30
0.0
 40
1.5
  1
                          
100
AcDbText
  0
TEXT
  5
79
330
EF7C85532
100
AcDbEntity
  8
SUNPOU
100
AcDbText
 10
885.2040944189665
 20
21.8983436374353
 30
0.0
 40
0.75
  1
                          
100
AcDbText
  0
TEXT
  5
7A
330
EF7C85532
100
AcDbEntity
  8
SUNPOU
100
AcDbText
 10
848.6272560930835
 20
43.79668727487057
 30
0.0
 40
1.5
  1
                          
100
AcDbText
  0
TEXT
  5
7B
330
EF7C85532
100
AcDbEntity
  8
SUNPOU
100
AcDbText
 10
1085.847907127996
 20
21.89834363743527
 30
0.0
 40
0.75
  1
                          
100
AcDbText
  0
INSERT
  5
7C
330
EF7C85532
100
AcDbEntity
  8
HATCH
100
AcDbBlockReference
  2
*X6
 10
552.9247477318797
 20
0.0
 30
0.0
  0
TEXT
  5
7D
330
EF7C85532
100
AcDbEntity
  8
SUNPOU
100
AcDbText
 10
851.0101985208963
 20
43.7966872748706
 30
0.0
 40
1.5
  1
                          
100
AcDbText
  0
TEXT
  5
7E
330
EF7C85532
100
AcDbEntity
  8
SUNPOU
100
AcDbText
 10
1088.230849555809
 20
21.8983436374353
 30
0.0
 40
0.75
  1
                          
100
AcDbText
  0
TEXT
  5
7F
330
EF7C85532
100
AcDbEntity
  8
SUNPOU
100
AcDbText
 10
840.048660059358
 20
43.7966872748706
 30
0.0
 40
1.5
  1
                          
100
AcDbText
  0
TEXT
  5
80
330
EF7C85532
100
AcDbEntity
  8
SUNPOU
100
AcDbText
 10
1077.269311094271
 20
21.8983436374353
 30
0.0
 40
0.75
  1
                          
100
AcDbText
  0
INSERT
  5
81
330
EF7C85532
100
AcDbEntity
  8
JISSEN
100
AcDbBlockReference
  2
STDGX5
 10
357.999999284
 20
0.0
 30
0.0
  0
TEXT
  5
82
330
EF7C85532
100
AcDbEntity
  8
SUNPOU
100
AcDbText
 10
632.0586942201739
 20
43.7966872748706
 30
0.0
 40
1.5
  1
                          
100
AcDbText
  0
TEXT
  5
83
330
EF7C85532
100
AcDbEntity
  8
SUNPOU
100
AcDbText
 10
869.2793452550871
 20
21.8983436374353
 30
0.0
 40
0.75
  1
                          
100
AcDbText
  0
TEXT
  5
84
330
EF7C85532
100
AcDbEntity
  8
SUNPOU
100
AcDbText
 10
826.9834426680535
 20
43.7966872748706
 30
0.0
 40
1.5
  1
                          
100
AcDbText
  0
TEXT
  5
85
330
EF7C85532
100
AcDbEntity
  8
SUNPOU
100
AcDbText
 10
1064.204093702966
 20
21.8983436374353
 30
0.0
 40
0.75
  1
                          
100
AcDbText
  0
TEXT
  5
86
330
EF7C85532
100
AcDbEntity
  8
SUNPOU
100
AcDbText
 10
1027.627255377083
 20
43.79668727487057
 30
0.0
 40
1.5
  1
                          
100
AcDbText
  0
TEXT
  5
87
330
EF7C85532
100
AcDbEntity
  8
SUNPOU
100
AcDbText
 10
1264.847906411996
 20
21.89834363743527
 30
0.0
 40
0.75
  1
                          
100
AcDbText
  0
INSERT
  5
88
330
EF7C85532
100
AcDbEntity
  8
HATCH
100
AcDbBlockReference
  2
*X7
 10
731.9247470158797
 20
0.0
 30
0.0
  0
TEXT
  5
89
330
EF7C85532
100
AcDbEntity
  8
SUNPOU
100
AcDbText
 10
1030.010197804896
 20
43.7966872748706
 30
0.0
 40
1.5
  1
                          
100
AcDbText
  0
TEXT
  5
8A
330
EF7C85532
100
AcDbEntity
  8
SUNPOU
100
AcDbText
 10
1267.230848839809
 20
21.8983436374353
 30
0.0
 40
0.75
  1
                          
100
AcDbText
  0
TEXT
  5
8B
330
EF7C85532
100
AcDbEntity
  8
SUNPOU
100
AcDbText
 10
1019.048659343358
 20
43.7966872748706
 30
0.0
 40
1.5
  1
                          
100
AcDbText
  0
TEXT
  5
8C
330
EF7C85532
100
AcDbEntity
  8
SUNPOU
100
AcDbText
 10
1256.269310378271
 20
21.8983436374353
 30
0.0
 40
0.75
  1
                          
100
AcDbText
  0
INSERT
  5
8D
330
EF7C85532
100
AcDbEntity
  8
JISSEN
100
AcDbBlockReference
  2
STDGX5
 10
536.999998568
 20
0.0
 30
0.0
  0
INSERT
  5
8E
330
EF7C85532
100
AcDbEntity
  8
SUNPOU
100
AcDbBlockReference
  2
STDGX5
 10
739.0804232644236
 20
50.83533235670902
 30
0.0
 41
0.5
 42
0.5
 43
0.5
  0
INSERT
  5
8F
330
EF7C85532
100
AcDbEntity
  8
SUNPOU
100
AcDbBlockReference
  2
STDGX5
 10
726.2208210623692
 20
105.0763138619288
 30
0.0
 41
0.5
 42
0.5
 43
0.5
  0
INSERT
  5
90
330
EF7C85532
100
AcDbEntity
  8
HATCH
100
AcDbBlockReference
  2
STDGX5
 10
852.3985550581901
 20
151.7065097967401
 30
0.0
 41
0.5
 42
0.5
 43
0.5
  0
INSERT
  5
91
330
EF7C85532
100
AcDbEntity
  8
HATCH
100
AcDbBlockReference
  2
STDGX5
 10
866.6806796277285
 20
102.7017487639613
 30
0.0
 41
0.5
 42
0.5
 43
0.5
  0
INSERT
  5
92
330
EF7C85532
100
AcDbEntity
  8
TEXT
100
AcDbBlockReference
  2
STDGX5
 10
970.3434408521969
 20
102.8213468229236
 30
0.0
 41
0.5
 42
0.5
 43
0.5
  0
INSERT
  5
93
330
EF7C85532
100
AcDbEntity
  8
SUNPOU
100
AcDbBlockReference
  2
STDGX5
 10
996.1728907397869
 20
174.5475645486174
 30
0.0
 41
0.5
 42
0.5
 43
0.5
  0
INSERT
  5
94
330
EF7C85532
100
AcDbEntity
  8
TEXT
100
AcDbBlockReference
  2
STDGX5
 10
725.7513886810995
 20
124.5860190441302
 30
0.0
 41
0.5
 42
0.5
 43
0.5
  0
INSERT
  5
95
330
EF7C85532
100
AcDbEntity
  8
HATCH
100
AcDbBlockReference
  2
STDGX5
 10
777.1755722656421
 20
145.5222028932424
 30
0.0
 41
0.5
 42
0.5
 43
0.5
  0
INSERT
  5
96
330
EF7C85532
100
AcDbEntity
  8
SUNPOU
100
AcDbBlockReference
  2
STDGX5
 10
846.1963575359604
 20
112.6957974729892
 30
0.0
 41
0.5
 42
0.5
 43
0.5
  0
INSERT
  5
97
330
EF7C85532
100
AcDbEntity
  8
SUNPOU
100
AcDbBlockReference
  2
STDGX5
 10
916.6681156211122
 20
121.7330617103085
 30
0.0
 41
0.5
 42
0.5
 43
0.5
  0
INSERT
  5
98
330
EF7C85532
100
AcDbEntity
  8
TEXT
100
AcDbBlockReference
  2
STDGX5
 10
983.7969461426769
 20
84.61852224867081
 30
0.0
 41
0.5
 42
0.5
 43
0.5
  0
INSERT
  5
99
330
EF7C85532
100
AcDbEntity
  8
HATCH
100
AcDbBlockReference
  2
STDGX5
 10
974.2802715042099
 20
136.4849386559231
 30
0.0
 41
0.5
 42
0.5
 43
0.5
  0
INSERT
  5
9A
330
EF7C85532
100
AcDbEntity
  8
SUNPOU
100
AcDbBlockReference
  2
STDGX5
 10
749.7834008663489
 20
95.14721172234004
 30
0.0
 41
0.5
 42
0.5
 43
0.5
  0
INSERT
  5
9B
330
EF7C85532
100
AcDbEntity
  8
SUNPOU
100
AcDbBlockReference
  2
STDGX5
 10
736.9237986642947
 20
149.3881932275598
 30
0.0
 41
0.5
 42
0.5
 43
0.5
  0
INSERT
  5
9C
330
EF7C85532
100
AcDbEntity
  8
HATCH
100
AcDbBlockReference
  2
STDGX5
 10
863.1015326601156
 20
196.0183891623711
 30
0.0
 41
0.5
 42
0.5
 43
0.5
  0
INSERT
  5
9D
330
EF7C85532
100
AcDbEntity
  8
HATCH
100
AcDbBlockReference
  2
STDGX5
 10
877.3836572296538
 20
147.0136281295923
 30
0.0
 41
0.5
 42
0.5
 43
0.5
  0
INSERT
  5
9E
330
EF7C85532
100
AcDbEntity
  8
TEXT
100
AcDbBlockReference
  2
STDGX5
 10
981.0464184541224
 20
147.1332261885546
 30
0.0
 41
0.5
 42
0.5
 43
0.5
  0
INSERT
  5
9F
330
EF7C85532
100
AcDbEntity
  8
SUNPOU
100
AcDbBlockReference
  2
STDGX5
 10
1006.875868341712
 20
218.8594439142484
 30
0.0
 41
0.5
 42
0.5
 43
0.5
  0
INSERT
  5
A0
330
EF7C85532
100
AcDbEntity
  8
TEXT
100
AcDbBlockReference
  2
STDGX5
 10
736.4543662830251
 20
168.8978984097612
 30
0.0
 41
0.5
 42
0.5
 43
0.5
  0
INSERT
  5
A1
330
EF7C85532
100
AcDbEntity
  8
HATCH
100
AcDbBlockReference
  2
STDGX5
 10
787.8785498675677
 20
189.8340822588735
 30
0.0
 41
0.5
 42
0.5
 43
0.5
  0
INSERT
  5
A2
330
EF7C85532
100
AcDbEntity
  8
SUNPOU
100
AcDbBlockReference
  2
STDGX5
 10
856.899335137886
 20
157.0076768386202
 30
0.0
 41
0.5
 42
0.5
 43
0.5
  0
INSERT
  5
A3
330
EF7C85532
100
AcDbEntity
  8
SUNPOU
100
AcDbBlockReference
  2
STDGX5
 10
927.3710932230379
 20
166.0449410759395
 30
0.0
 41
0.5
 42
0.5
 43
0.5
  0
INSERT
  5
A4
330
EF7C85532
100
AcDbEntity
  8
TEXT
100
AcDbBlockReference
  2
STDGX5
 10
994.4999237446024
 20
128.9304016143018
 30
0.0
 41
0.5
 42
0.5
 43
0.5
  0
INSERT
  5
A5
330
EF7C85532
100
AcDbEntity
  8
HATCH
100
AcDbBlockReference
  2
STDGX5
 10
984.9832491061354
 20
180.7968180215541
 30
0.0
 41
0.5
 42
0.5
 43
0.5
  0
TEXT
  5
DE
330
EF7C85532
100
AcDbEntity
  8
SUNPOU
100
AcDbText
 10
274.0586949361738
 20
43.7966872748706
 30
0.0
 40
1.5
  1
                          
100
AcDbText
  0
TEXT
  5
145
330
EF7C85532
100
AcDbEntity
  8
SUNPOU
100
AcDbText
 10
511.2793459710869
 20
21.8983436374353
 30
0.0
 40
0.75
  1
                          
100
AcDbText
  0
TEXT
  5
265
330
EF7C85532
100
AcDbEntity
  8
SUNPOU
100
AcDbText
 10
474.702507645204
 20
43.79668727487057
 30
0.0
 40
1.5
  1
                          
100
AcDbText
  0
TEXT
  5
266
330
EF7C85532
100
AcDbEntity
  8
SUNPOU
100
AcDbText
 10
711.923158680117
 20
21.89834363743527
 30
0.0
 40
0.75
  1
                          
100
AcDbText
  0
INSERT
  5
2F7
330
EF7C85532
100
AcDbEntity
  8
HATCH
100
AcDbBlockReference
  2
*X4
 10
178.999999284
 20
0.0
 30
0.0
  0
TEXT
  5
31A
330
EF7C85532
100
AcDbEntity
  8
SUNPOU
100
AcDbText
 10
477.0854500730167
 20
43.7966872748706
 30
0.0
 40
1.5
  1
                          
100
AcDbText
  0
TEXT
  5
31C
330
EF7C85532
100
AcDbEntity
  8
SUNPOU
100
AcDbText
 10
714.3061011079298
 20
21.8983436374353
 30
0.0
 40
0.75
  1
                          
100
AcDbText
  0
TEXT
  5
3A6
330
EF7C85532
100
AcDbEntity
  8
TEXT
100
AcDbText
 10
100.9999992839998
 20
244.9999999999999
 30
0.0
 40
3.0
  1
 
  7
K
100
AcDbText
  0
TEXT
  5
3AB
330
EF7C85532
100
AcDbEntity
  8
SUNPOU
100
AcDbText
 10
466.1239116114783
 20
43.7966872748706
 30
0.0
 40
1.5
  1
                          
100
AcDbText
  0
TEXT
  5
3AC
330
EF7C85532
100
AcDbEntity
  8
SUNPOU
100
AcDbText
 10
703.3445626463913
 20
21.8983436374353
 30
0.0
 40
0.75
  1
                          
100
AcDbText
  0
INSERT
  5
3F6
330
EF7C85532
100
AcDbEntity
  8
TEXT
100
AcDbBlockReference
  2
STDGX5
 10
178.999999284
 20
0.0
 30
0.0
  0
TEXT
  5
3F7
330
EF7C85532
100
AcDbEntity
  8
SUNPOU
100
AcDbText
 10
453.0586949361739
 20
43.7966872748706
 30
0.0
 40
1.5
  1
                          
100
AcDbText
  0
TEXT
  5
3F8
330
EF7C85532
100
AcDbEntity
  8
SUNPOU
100
AcDbText
 10
690.279345971087
 20
21.8983436374353
 30
0.0
 40
0.75
  1
                          
100
AcDbText
  0
TEXT
  5
3F9
330
EF7C85532
100
AcDbEntity
  8
SUNPOU
100
AcDbText
 10
647.9834433840535
 20
43.7966872748706
 30
0.0
 40
1.5
  1
                          
100
AcDbText
  0
TEXT
  5
3FA
330
EF7C85532
100
AcDbEntity
  8
SUNPOU
100
AcDbText
 10
885.2040944189665
 20
21.8983436374353
 30
0.0
 40
0.75
  1
                          
100
AcDbText
  0
TEXT
  5
3FB
330
EF7C85532
100
AcDbEntity
  8
SUNPOU
100
AcDbText
 10
848.6272560930835
 20
43.79668727487057
 30
0.0
 40
1.5
  1
                          
100
AcDbText
  0
TEXT
  5
3FC
330
EF7C85532
100
AcDbEntity
  8
SUNPOU
100
AcDbText
 10
1085.847907127996
 20
21.89834363743527
 30
0.0
 40
0.75
  1
                          
100
AcDbText
  0
INSERT
  5
3FD
330
EF7C85532
100
AcDbEntity
  8
HATCH
100
AcDbBlockReference
  2
*X5
 10
552.9247477318797
 20
0.0
 30
0.0
  0
TEXT
  5
3FE
330
EF7C85532
100
AcDbEntity
  8
SUNPOU
100
AcDbText
 10
851.0101985208963
 20
43.7966872748706
 30
0.0
 40
1.5
  1
                          
100
AcDbText
  0
TEXT
  5
3FF
330
EF7C85532
100
AcDbEntity
  8
SUNPOU
100
AcDbText
 10
1088.230849555809
 20
21.8983436374353
 30
0.0
 40
0.75
  1
                          
100
AcDbText
  0
TEXT
  5
400
330
EF7C85532
100
AcDbEntity
  8
SUNPOU
100
AcDbText
 10
840.048660059358
 20
43.7966872748706
 30
0.0
 40
1.5
  1
                          
100
AcDbText
  0
TEXT
  5
401
330
EF7C85532
100
AcDbEntity
  8
SUNPOU
100
AcDbText
 10
1077.269311094271
 20
21.8983436374353
 30
0.0
 40
0.75
  1
                          
100
AcDbText
  0
INSERT
  5
402
330
EF7C85532
100
AcDbEntity
  8
JISSEN
100
AcDbBlockReference
  2
STDGX5
 10
357.999999284
 20
0.0
 30
0.0
  0
TEXT
  5
409
330
EF7C85532
100
AcDbEntity
  8
SUNPOU
100
AcDbText
 10
453.0586949361739
 20
43.7966872748706
 30
0.0
 40
1.5
  1
                          
100
AcDbText
  0
TEXT
  5
40A
330
EF7C85532
100
AcDbEntity
  8
SUNPOU
100
AcDbText
 10
690.279345971087
 20
21.8983436374353
 30
0.0
 40
0.75
  1
                          
100
AcDbText
  0
TEXT
  5
41B
330
EF7C85532
100
AcDbEntity
  8
SUNPOU
100
AcDbText
 10
647.9834433840535
 20
43.7966872748706
 30
0.0
 40
1.5
  1
                          
100
AcDbText
  0
TEXT
  5
41C
330
EF7C85532
100
AcDbEntity
  8
SUNPOU
100
AcDbText
 10
885.2040944189665
 20
21.8983436374353
 30
0.0
 40
0.75
  1
                          
100
AcDbText
  0
TEXT
  5
41D
330
EF7C85532
100
AcDbEntity
  8
SUNPOU
100
AcDbText
 10
848.6272560930835
 20
43.79668727487057
 30
0.0
 40
1.5
  1
                          
100
AcDbText
  0
TEXT
  5
41E
330
EF7C85532
100
AcDbEntity
  8
SUNPOU
100
AcDbText
 10
1085.847907127996
 20
21.89834363743527
 30
0.0
 40
0.75
  1
                          
100
AcDbText
  0
INSERT
  5
41F
330
EF7C85532
100
AcDbEntity
  8
HATCH
100
AcDbBlockReference
  2
*X6
 10
552.9247477318797
 20
0.0
 30
0.0
  0
TEXT
  5
420
330
EF7C85532
100
AcDbEntity
  8
SUNPOU
100
AcDbText
 10
851.0101985208963
 20
43.7966872748706
 30
0.0
 40
1.5
  1
                          
100
AcDbText
  0
TEXT
  5
421
330
EF7C85532
100
AcDbEntity
  8
SUNPOU
100
AcDbText
 10
1088.230849555809
 20
21.8983436374353
 30
0.0
 40
0.75
  1
                          
100
AcDbText
  0
TEXT
  5
422
330
EF7C85532
100
AcDbEntity
  8
SUNPOU
100
AcDbText
 10
840.048660059358
 20
43.7966872748706
 30
0.0
 40
1.5
  1
                          
100
AcDbText
  0
TEXT
  5
423
330
EF7C85532
100
AcDbEntity
  8
SUNPOU
100
AcDbText
 10
1077.269311094271
 20
21.8983436374353
 30
0.0
 40
0.75
  1
                          
100
AcDbText
  0
INSERT
  5
424
330
EF7C85532
100
AcDbEntity
  8
JISSEN
100
AcDbBlockReference
  2
STDGX5
 10
357.999999284
 20
0.0
 30
0.0
  0
TEXT
  5
425
330
EF7C85532
100
AcDbEntity
  8
SUNPOU
100
AcDbText
 10
632.0586942201739
 20
43.7966872748706
 30
0.0
 40
1.5
  1
                          
100
AcDbText
  0
TEXT
  5
426
330
EF7C85532
100
AcDbEntity
  8
SUNPOU
100
AcDbText
 10
869.2793452550871
 20
21.8983436374353
 30
0.0
 40
0.75
  1
                          
100
AcDbText
  0
TEXT
  5
427
330
EF7C85532
100
AcDbEntity
  8
SUNPOU
100
AcDbText
 10
826.9834426680535
 20
43.7966872748706
 30
0.0
 40
1.5
  1
                          
100
AcDbText
  0
TEXT
  5
428
330
EF7C85532
100
AcDbEntity
  8
SUNPOU
100
AcDbText
 10
1064.204093702966
 20
21.8983436374353
 30
0.0
 40
0.75
  1
                          
100
AcDbText
  0
TEXT
  5
429
330
EF7C85532
100
AcDbEntity
  8
SUNPOU
100
AcDbText
 10
1027.627255377083
 20
43.79668727487057
 30
0.0
 40
1.5
  1
                          
100
AcDbText
  0
TEXT
  5
42A
330
EF7C85532
100
AcDbEntity
  8
SUNPOU
100
AcDbText
 10
1264.847906411996
 20
21.89834363743527
 30
0.0
 40
0.75
  1
                          
100
AcDbText
  0
INSERT
  5
42B
330
EF7C85532
100
AcDbEntity
  8
HATCH
100
AcDbBlockReference
  2
*X7
 10
731.9247470158797
 20
0.0
 30
0.0
  0
TEXT
  5
42C
330
EF7C85532
100
AcDbEntity
  8
SUNPOU
100
AcDbText
 10
1030.010197804896
 20
43.7966872748706
 30
0.0
 40
1.5
  1
                          
100
AcDbText
  0
TEXT
  5
42D
330
EF7C85532
100
AcDbEntity
  8
SUNPOU
100
AcDbText
 10
1267.230848839809
 20
21.8983436374353
 30
0.0
 40
0.75
  1
                          
100
AcDbText
  0
TEXT
  5
42E
330
EF7C85532
100
AcDbEntity
  8
SUNPOU
100
AcDbText
 10
1019.048659343358
 20
43.7966872748706
 30
0.0
 40
1.5
  1
                          
100
AcDbText
  0
TEXT
  5
42F
330
EF7C85532
100
AcDbEntity
  8
SUNPOU
100
AcDbText
 10
1256.269310378271
 20
21.8983436374353
 30
0.0
 40
0.75
  1
                          
100
AcDbText
  0
INSERT
  5
430
330
EF7C85532
100
AcDbEntity
  8
JISSEN
100
AcDbBlockReference
  2
STDGX5
 10
536.999998568
 20
0.0
 30
0.0
  0
INSERT
  5
43B
330
EF7C85532
100
AcDbEntity
  8
SUNPOU
100
AcDbBlockReference
  2
STDGX5
 10
739.0804232644236
 20
50.83533235670902
 30
0.0
 41
0.5
 42
0.5
 43
0.5
  0
INSERT
  5
43C
330
EF7C85532
100
AcDbEntity
  8
SUNPOU
100
AcDbBlockReference
  2
STDGX5
 10
726.2208210623692
 20
105.0763138619288
 30
0.0
 41
0.5
 42
0.5
 43
0.5
  0
INSERT
  5
43D
330
EF7C85532
100
AcDbEntity
  8
HATCH
100
AcDbBlockReference
  2
STDGX5
 10
852.3985550581901
 20
151.7065097967401
 30
0.0
 41
0.5
 42
0.5
 43
0.5
  0
INSERT
  5
43E
330
EF7C85532
100
AcDbEntity
  8
HATCH
100
AcDbBlockReference
  2
STDGX5
 10
866.6806796277285
 20
102.7017487639613
 30
0.0
 41
0.5
 42
0.5
 43
0.5
  0
INSERT
  5
43F
330
EF7C85532
100
AcDbEntity
  8
TEXT
100
AcDbBlockReference
  2
STDGX5
 10
970.3434408521969
 20
102.8213468229236
 30
0.0
 41
0.5
 42
0.5
 43
0.5
  0
INSERT
  5
440
330
EF7C85532
100
AcDbEntity
  8
SUNPOU
100
AcDbBlockReference
  2
STDGX5
 10
996.1728907397869
 20
174.5475645486174
 30
0.0
 41
0.5
 42
0.5
 43
0.5
  0
INSERT
  5
441
330
EF7C85532
100
AcDbEntity
  8
TEXT
100
AcDbBlockReference
  2
STDGX5
 10
725.7513886810995
 20
124.5860190441302
 30
0.0
 41
0.5
 42
0.5
 43
0.5
  0
INSERT
  5
442
330
EF7C85532
100
AcDbEntity
  8
HATCH
100
AcDbBlockReference
  2
STDGX5
 10
777.1755722656421
 20
145.5222028932424
 30
0.0
 41
0.5
 42
0.5
 43
0.5
  0
INSERT
  5
443
330
EF7C85532
100
AcDbEntity
  8
SUNPOU
100
AcDbBlockReference
  2
STDGX5
 10
846.1963575359604
 20
112.6957974729892
 30
0.0
 41
0.5
 42
0.5
 43
0.5
  0
INSERT
  5
444
330
EF7C85532
100
AcDbEntity
  8
SUNPOU
100
AcDbBlockReference
  2
STDGX5
 10
916.6681156211122
 20
121.7330617103085
 30
0.0
 41
0.5
 42
0.5
 43
0.5
  0
INSERT
  5
445
330
EF7C85532
100
AcDbEntity
  8
TEXT
100
AcDbBlockReference
  2
STDGX5
 10
983.7969461426769
 20
84.61852224867081
 30
0.0
 41
0.5
 42
0.5
 43
0.5
  0
INSERT
  5
446
330
EF7C85532
100
AcDbEntity
  8
HATCH
100
AcDbBlockReference
  2
STDGX5
 10
974.2802715042099
 20
136.4849386559231
 30
0.0
 41
0.5
 42
0.5
 43
0.5
  0
INSERT
  5
447
330
EF7C85532
100
AcDbEntity
  8
SUNPOU
100
AcDbBlockReference
  2
STDGX5
 10
749.7834008663489
 20
95.14721172234004
 30
0.0
 41
0.5
 42
0.5
 43
0.5
  0
INSERT
  5
448
330
EF7C85532
100
AcDbEntity
  8
SUNPOU
100
AcDbBlockReference
  2
STDGX5
 10
736.9237986642947
 20
149.3881932275598
 30
0.0
 41
0.5
 42
0.5
 43
0.5
  0
INSERT
  5
449
330
EF7C85532
100
AcDbEntity
  8
HATCH
100
AcDbBlockReference
  2
STDGX5
 10
863.1015326601156
 20
196.0183891623711
 30
0.0
 41
0.5
 42
0.5
 43
0.5
  0
INSERT
  5
44A
330
EF7C85532
100
AcDbEntity
  8
HATCH
100
AcDbBlockReference
  2
STDGX5
 10
877.3836572296538
 20
147.0136281295923
 30
0.0
 41
0.5
 42
0.5
 43
0.5
  0
INSERT
  5
44B
330
EF7C85532
100
AcDbEntity
  8
TEXT
100
AcDbBlockReference
  2
STDGX5
 10
981.0464184541224
 20
147.1332261885546
 30
0.0
 41
0.5
 42
0.5
 43
0.5
  0
INSERT
  5
44C
330
EF7C85532
100
AcDbEntity
  8
SUNPOU
100
AcDbBlockReference
  2
STDGX5
 10
1006.875868341712
 20
218.8594439142484
 30
0.0
 41
0.5
 42
0.5
 43
0.5
  0
INSERT
  5
44D
330
EF7C85532
100
AcDbEntity
  8
TEXT
100
AcDbBlockReference
  2
STDGX5
 10
736.4543662830251
 20
168.8978984097612
 30
0.0
 41
0.5
 42
0.5
 43
0.5
  0
INSERT
  5
44E
330
EF7C85532
100
AcDbEntity
  8
HATCH
100
AcDbBlockReference
  2
STDGX5
 10
787.8785498675677
 20
189.8340822588735
 30
0.0
 41
0.5
 42
0.5
 43
0.5
  0
INSERT
  5
44F
330
EF7C85532
100
AcDbEntity
  8
SUNPOU
100
AcDbBlockReference
  2
STDGX5
 10
856.899335137886
 20
157.0076768386202
 30
0.0
 41
0.5
 42
0.5
 43
0.5
  0
INSERT
  5
450
330
EF7C85532
100
AcDbEntity
  8
SUNPOU
100
AcDbBlockReference
  2
STDGX5
 10
927.3710932230379
 20
166.0449410759395
 30
0.0
 41
0.5
 42
0.5
 43
0.5
  0
INSERT
  5
451
330
EF7C85532
100
AcDbEntity
  8
TEXT
100
AcDbBlockReference
  2
STDGX5
 10
994.4999237446024
 20
128.9304016143018
 30
0.0
 41
0.5
 42
0.5
 43
0.5
  0
INSERT
  5
452
330
EF7C85532
100
AcDbEntity
  8
HATCH
100
AcDbBlockReference
  2
STDGX5
 10
984.9832491061354
 20
180.7968180215541
 30
0.0
 41
0.5
 42
0.5
 43
0.5
  0
INSERT
  5
4CF3
330
EF7C85532
100
AcDbEntity
  8
JISSEN
100
AcDbBlockReference
  2
STDR12J
 10
0.0
 20
0.0
 30
0.0
  0
LINE
  5
EAFFB3C99
330
EF7C85532
100
AcDbEntity
  8
JISSEN
100
AcDbLine
 10
91.49999927599997
 20
276.9999999999999
 30
0.0
 11
180.999999276
 21
276.9999999999999
 31
0.0
  0
LINE
  5
EAFFB3C9A
330
EF7C85532
100
AcDbEntity
  8
JISSEN
100
AcDbLine
 10
91.49999927599997
 20
270.9999999999999
 30
0.0
 11
180.999999276
 21
270.9999999999999
 31
0.0
  0
TEXT
  5
EAFFB3C9B
330
EF7C85532
100
AcDbEntity
  8
TEXT
100
AcDbText
 10
107.8999992759999
 20
278.4999999999999
 30
0.0
 40
3.0
  1
名      称
  7
K
 72
     4
 11
116.4999992759999
 21
279.9999999999999
 31
0.0
100
AcDbText
  0
TEXT
  5
EAFFB3C9C
330
EF7C85532
100
AcDbEntity
  8
TEXT
100
AcDbText
 10
93.29999927599997
 20
278.4999999999999
 30
0.0
 40
3.0
  1
番号
  7
K
 72
     4
 11
96.49999927599999
 21
279.9999999999999
 31
0.0
100
AcDbText
  0
LINE
  5
EAFFB3C9D
330
EF7C85532
100
AcDbEntity
  8
JISSEN
100
AcDbLine
 10
91.49999927599997
 20
270.9999999999999
 30
0.0
 11
91.49999927599997
 21
282.9999999999999
 31
0.0
  0
LINE
  5
EAFFB3C9E
330
EF7C85532
100
AcDbEntity
  8
JISSEN
100
AcDbLine
 10
101.4999992759999
 20
282.9999999999999
 30
0.0
 11
101.4999992759999
 21
270.9999999999999
 31
0.0
  0
TEXT
  5
EAFFB3C9F
330
EF7C85532
100
AcDbEntity
  8
TEXT
100
AcDbText
 10
135.1999992759999
 20
278.4999999999999
 30
0.0
 40
3.0
  1
材    質
  7
K
 72
     4
 11
141.9999992759999
 21
279.9999999999999
 31
0.0
100
AcDbText
  0
LINE
  5
EAFFB3CA0
330
EF7C85532
100
AcDbEntity
  8
JISSEN
100
AcDbLine
 10
131.4999992759999
 20
282.9999999999999
 30
0.0
 11
131.4999992759999
 21
270.9999999999999
 31
0.0
  0
LINE
  5
EAFFB3CA1
330
EF7C85532
100
AcDbEntity
  8
JISSEN
100
AcDbLine
 10
152.4999992759999
 20
270.9999999999999
 30
0.0
 11
152.4999992759999
 21
282.9999999999999
 31
0.0
  0
TEXT
  5
EAFFB3CA2
330
EF7C85532
100
AcDbEntity
  8
TEXT
100
AcDbText
 10
165.6999992759999
 20
278.4999999999999
 30
0.0
 40
3.0
  1
備    考
  7
K
 72
     4
 11
172.4999992759999
 21
279.9999999999999
 31
0.0
100
AcDbText
  0
TEXT
  5
EAFFB3CA3
330
EF7C85532
100
AcDbEntity
  8
TEXT
100
AcDbText
 10
154.7999992759999
 20
278.4999999999999
 30
0.0
 40
3.0
  1
個数
  7
K
 72
     4
 11
157.9999992759999
 21
279.9999999999999
 31
0.0
100
AcDbText
  0
LINE
  5
EAFFB3CA4
330
EF7C85532
100
AcDbEntity
  8
JISSEN
100
AcDbLine
 10
163.4999992759999
 20
282.9999999999999
 30
0.0
 11
163.4999992759999
 21
270.9999999999999
 31
0.0
  0
TEXT
  5
EAFFB3CAC
330
EF7C85532
100
AcDbEntity
  8
TEXT
100
AcDbText
 10
95.28571356171427
 20
272.4999999999999
 30
0.0
 40
3.0
  1
1
  7
K
 72
     4
 11
96.49999927599999
 21
273.9999999999999
 31
0.0
100
AcDbText
  0
TEXT
  5
EAFFB3CC2
330
EF7C85532
100
AcDbEntity
  8
TEXT
100
AcDbText
 10
136.8249992759999
 20
274.2999999999999
 30
0.0
 40
3.0
  1
%%u      
  7
K
 72
     4
 11
141.9999992759999
 21
273.9999999999999
 31
0.0
100
AcDbText
  0
INSERT
  5
EAFFB3CF7
330
EF7C85532
100
AcDbEntity
  8
WAKU
100
AcDbBlockReference
  2
WAKU
 10
0.0
 20
0.0
 30
0.0
 41
181.0
 42
283.0
 43
181.0
  0
TEXT
  5
EF7C85BB1
330
EF7C85532
100
AcDbEntity
  8
TEXT
100
AcDbText
 10
156.6795477624092
 20
272.4999999999999
 30
0.0
 40
3.0
  1
1
  7
K
 72
     4
 11
157.8938334766949
 21
273.9999999999999
 31
0.0
100
AcDbText
  0
TEXT
  5
EF7C85D65
330
EF7C85532
100
AcDbEntity
  8
SUNPOU
100
AcDbText
 10
153.4613145433404
 20
7.849423898685245
 30
0.0
 40
3.0
  1
XP   取付状態
  7
K
100
AcDbText
  0
TEXT
  5
EF7C85D66
330
EF7C85532
100
AcDbEntity
  8
SUNPOU
100
AcDbText
 10
153.4613145433404
 20
2.849423898685245
 30
0.0
 40
3.0
  1
尺度　1/1
  7
K
100
AcDbText
  0
TEXT
  5
EF7C85DB5
330
EF7C85532
100
AcDbEntity
  8
TEXT
100
AcDbText
 10
105.3014278474285
 20
272.4999999999999
 30
0.0
 40
3.0
  1
XP   型ヘッド
 41
0.9
  7
K
 72
     4
 11
116.4999992759999
 21
273.9999999999999
 31
0.0
100
AcDbText
  0
LWPOLYLINE
  5
EF7C873F5
330
EF7C85532
100
AcDbEntity
  8
NITEN
100
AcDbPolyline
 90
        5
 70
     0
 43
0.0
 10
108.9060322670196
 20
202.6113029094276
 10
108.9060322670196
 20
223.4490205605735
 42
-0.5882352941176475
 10
91.90603226701961
 20
223.4490205605735
 42
0.5882352941176476
 10
74.90603226701961
 20
223.4490205605732
 10
74.90603226701961
 20
202.6113029094276
  0
LWPOLYLINE
  5
EF7C873F6
330
EF7C85532
100
AcDbEntity
  8
NITEN
100
AcDbPolyline
 90
        2
 70
     0
 43
0.0
 10
108.9060322670196
 20
223.4490205605735
 42
0.5882352941176294
 10
91.90603226701957
 20
223.4490205605737
 42
0.5882352941176294
  0
LWPOLYLINE
  5
EF7C873FD
330
EF7C85532
100
AcDbEntity
  8
NITEN
100
AcDbPolyline
 90
       15
 70
     1
 43
0.0
 10
77.90603226701961
 20
162.1113029094276
 42
0.4142135623730927
 10
79.40603226701956
 20
160.6113029094276
 10
102.5000834380161
 20
160.6113029094276
 10
104.4060322670196
 20
160.6113029094276
 42
0.4142135623730925
 10
105.9060322670196
 20
162.1113029094276
 10
105.9060322670196
 20
173.1573189356456
 42
-0.4142135623730943
 10
110.9060322670196
 20
178.1573189356456
 42
0.4142135623730951
 10
112.9060322670196
 20
180.1573189356456
 10
112.9060322670195
 20
200.6113029094276
 42
0.4142135623730948
 10
110.9060322670196
 20
202.6113029094276
 10
72.90603226701961
 20
202.6113029094276
 42
0.4142135623730951
 10
70.90603226701961
 20
200.6113029094276
 10
70.90603226701961
 20
180.1573189356456
 42
0.4142135623730951
 10
72.90603226701961
 20
178.1573189356456
 42
-0.4142135623730961
 10
77.90603226701961
 20
173.1573189356456
  0
CIRCLE
  5
EF7C87CDD
330
EF7C85532
100
AcDbEntity
  8
SUNPOU
100
AcDbCircle
 10
104.1893540496603
 20
97.96276429978556
 30
0.0
 40
6.0
  0
LINE
  5
EF7C87CDE
330
EF7C85532
100
AcDbEntity
  8
SUNPOU
100
AcDbLine
 10
91.90603226701972
 20
123.2277647103829
 30
0.0
 11
101.5658999192724
 21
103.3588266072232
 31
0.0
  0
INSERT
  5
EF7C87CDF
330
EF7C85532
100
AcDbEntity
  8
SUNPOU
100
AcDbBlockReference
  2
ARROW
 10
91.90603226701961
 20
123.227764710383
 30
0.0
 41
-1.500000000000002
 42
1.5
 43
1.5
 50
295.9280644736465
  0
TEXT
  5
EF7C87CE0
330
EF7C85532
100
AcDbEntity
  8
SUNPOU
100
AcDbText
 10
102.3679254782318
 20
95.71276429978556
 30
0.0
 40
4.5
  1
1
  7
K
 72
     4
 11
104.1893540496603
 21
97.96276429978556
 31
0.0
100
AcDbText
  0
POLYLINE
  5
EF7C89068
330
EF7C85532
100
AcDbEntity
  8
JISSEN
 62
     0
100
AcDb2dPolyline
 66
     1
 10
0.0
 20
0.0
 30
0.0
 70
     4
 75
     6
  0
VERTEX
  5
EF7C89069
330
EF7C89068
100
AcDbEntity
  8
JISSEN
 62
     0
100
AcDbVertex
100
AcDb2dVertex
 10
129.4746155449509
 20
167.0577396729264
 30
0.0
 70
    16
  0
VERTEX
  5
EF7C8906A
330
EF7C89068
100
AcDbEntity
  8
JISSEN
 62
     0
100
AcDbVertex
100
AcDb2dVertex
 10
129.4746155449509
 20
167.0577396729264
 30
0.0
 70
     8
  0
VERTEX
  5
EF7C8906B
330
EF7C89068
100
AcDbEntity
  8
JISSEN
 62
     0
100
AcDbVertex
100
AcDb2dVertex
 10
129.889540451755
 20
166.8552355076464
 30
0.0
 70
     8
  0
VERTEX
  5
EF7C8906C
330
EF7C89068
100
AcDbEntity
  8
JISSEN
 62
     0
100
AcDbVertex
100
AcDb2dVertex
 10
130.1265173020786
 20
166.6775829242693
 30
0.0
 70
     8
  0
VERTEX
  5
EF7C8906D
330
EF7C89068
100
AcDbEntity
  8
JISSEN
 62
     0
100
AcDbVertex
100
AcDb2dVertex
 10
130.2240301460135
 20
166.5222870104672
 30
0.0
 70
     8
  0
VERTEX
  5
EF7C8906E
330
EF7C89068
100
AcDbEntity
  8
JISSEN
 62
     0
100
AcDbVertex
100
AcDb2dVertex
 10
130.2205630336511
 20
166.3868528539121
 30
0.0
 70
     8
  0
VERTEX
  5
EF7C8906F
330
EF7C89068
100
AcDbEntity
  8
JISSEN
 62
     0
100
AcDbVertex
100
AcDb2dVertex
 10
130.1546000150836
 20
166.2687855422765
 30
0.0
 70
     8
  0
VERTEX
  5
EF7C89070
330
EF7C89068
100
AcDbEntity
  8
JISSEN
 62
     0
100
AcDbVertex
100
AcDb2dVertex
 10
130.0646251404018
 20
166.1655901632322
 30
0.0
 70
     8
  0
VERTEX
  5
EF7C89071
330
EF7C89068
100
AcDbEntity
  8
JISSEN
 62
     0
100
AcDbVertex
100
AcDb2dVertex
 10
129.9891224596979
 20
166.0747718044514
 30
0.0
 70
     8
  0
VERTEX
  5
EF7C89072
330
EF7C89068
100
AcDbEntity
  8
JISSEN
 62
     0
100
AcDbVertex
100
AcDb2dVertex
 10
129.9665760230634
 20
165.9938355536062
 30
0.0
 70
     8
  0
VERTEX
  5
EF7C89073
330
EF7C89068
100
AcDbEntity
  8
JISSEN
 62
     0
100
AcDbVertex
100
AcDb2dVertex
 10
130.0246861701046
 20
165.9203739968727
 30
0.0
 70
     8
  0
VERTEX
  5
EF7C89074
330
EF7C89068
100
AcDbEntity
  8
JISSEN
 62
     0
100
AcDbVertex
100
AcDb2dVertex
 10
130.1480183984872
 20
165.8523297144438
 30
0.0
 70
     8
  0
VERTEX
  5
EF7C89075
330
EF7C89068
100
AcDbEntity
  8
JISSEN
 62
     0
100
AcDbVertex
100
AcDb2dVertex
 10
130.3103544953917
 20
165.787732785016
 30
0.0
 70
     8
  0
VERTEX
  5
EF7C89076
330
EF7C89068
100
AcDbEntity
  8
JISSEN
 62
     0
100
AcDbVertex
100
AcDb2dVertex
 10
130.485476247999
 20
165.7246132872858
 30
0.0
 70
     8
  0
VERTEX
  5
EF7C89077
330
EF7C89068
100
AcDbEntity
  8
JISSEN
 62
     0
100
AcDbVertex
100
AcDb2dVertex
 10
130.6471654434892
 20
165.6610012999503
 30
0.0
 70
     8
  0
VERTEX
  5
EF7C89078
330
EF7C89068
100
AcDbEntity
  8
JISSEN
 62
     0
100
AcDbVertex
100
AcDb2dVertex
 10
130.7692038690432
 20
165.594926901706
 30
0.0
 70
     8
  0
VERTEX
  5
EF7C89079
330
EF7C89068
100
AcDbEntity
  8
JISSEN
 62
     0
100
AcDbVertex
100
AcDb2dVertex
 10
130.8253733118413
 20
165.5244201712495
 30
0.0
 70
     8
  0
VERTEX
  5
EF7C8907A
330
EF7C89068
100
AcDbEntity
  8
JISSEN
 62
     0
100
AcDbVertex
100
AcDb2dVertex
 10
130.789455559064
 20
165.4475111872777
 30
0.0
 70
     8
  0
VERTEX
  5
EF7C8907B
330
EF7C89068
100
AcDbEntity
  8
JISSEN
 62
     0
100
AcDbVertex
100
AcDb2dVertex
 10
130.6444185266757
 20
165.3627840693952
 30
0.0
 70
     8
  0
VERTEX
  5
EF7C8907C
330
EF7C89068
100
AcDbEntity
  8
JISSEN
 62
     0
100
AcDbVertex
100
AcDb2dVertex
 10
130.4099746457743
 20
165.2710391008379
 30
0.0
 70
     8
  0
VERTEX
  5
EF7C8907D
330
EF7C89068
100
AcDbEntity
  8
JISSEN
 62
     0
100
AcDbVertex
100
AcDb2dVertex
 10
130.1150224762421
 20
165.1736306057498
 30
0.0
 70
     8
  0
VERTEX
  5
EF7C8907E
330
EF7C89068
100
AcDbEntity
  8
JISSEN
 62
     0
100
AcDbVertex
100
AcDb2dVertex
 10
129.7884605779607
 20
165.0719129082747
 30
0.0
 70
     8
  0
VERTEX
  5
EF7C8907F
330
EF7C89068
100
AcDbEntity
  8
JISSEN
 62
     0
100
AcDbVertex
100
AcDb2dVertex
 10
129.4591875108122
 20
164.9672403325564
 30
0.0
 70
     8
  0
VERTEX
  5
EF7C89080
330
EF7C89068
100
AcDbEntity
  8
JISSEN
 62
     0
100
AcDbVertex
100
AcDb2dVertex
 10
129.1561018346779
 20
164.8609672027391
 30
0.0
 70
     8
  0
VERTEX
  5
EF7C89081
330
EF7C89068
100
AcDbEntity
  8
JISSEN
 62
     0
100
AcDbVertex
100
AcDb2dVertex
 10
128.9081021094405
 20
164.7544478429664
 30
0.0
 70
     8
  0
VERTEX
  5
EF7C89082
330
EF7C89068
100
AcDbEntity
  8
JISSEN
 62
     0
100
AcDbVertex
100
AcDb2dVertex
 10
128.7440868949811
 20
164.6490365773822
 30
0.0
 70
     8
  0
VERTEX
  5
EF7C89083
330
EF7C89068
100
AcDbEntity
  8
JISSEN
 62
     0
100
AcDbVertex
100
AcDb2dVertex
 10
128.6843488543986
 20
164.5457491485997
 30
0.0
 70
     8
  0
VERTEX
  5
EF7C89084
330
EF7C89068
100
AcDbEntity
  8
JISSEN
 62
     0
100
AcDbVertex
100
AcDb2dVertex
 10
128.7147570636566
 20
164.4442469731084
 30
0.0
 70
     8
  0
VERTEX
  5
EF7C89085
330
EF7C89068
100
AcDbEntity
  8
JISSEN
 62
     0
100
AcDbVertex
100
AcDb2dVertex
 10
128.8125747019355
 20
164.3438528858665
 30
0.0
 70
     8
  0
VERTEX
  5
EF7C89086
330
EF7C89068
100
AcDbEntity
  8
JISSEN
 62
     0
100
AcDbVertex
100
AcDb2dVertex
 10
128.9550649484158
 20
164.243889721833
 30
0.0
 70
     8
  0
VERTEX
  5
EF7C89087
330
EF7C89068
100
AcDbEntity
  8
JISSEN
 62
     0
100
AcDbVertex
100
AcDb2dVertex
 10
129.1194909822779
 20
164.143680315966
 30
0.0
 70
     8
  0
VERTEX
  5
EF7C89088
330
EF7C89068
100
AcDbEntity
  8
JISSEN
 62
     0
100
AcDbVertex
100
AcDb2dVertex
 10
129.2831159827024
 20
164.0425475032245
 30
0.0
 70
     8
  0
VERTEX
  5
EF7C89089
330
EF7C89068
100
AcDbEntity
  8
JISSEN
 62
     0
100
AcDbVertex
100
AcDb2dVertex
 10
129.4232031288693
 20
163.9398141185667
 30
0.0
 70
     8
  0
VERTEX
  5
EF7C8908A
330
EF7C89068
100
AcDbEntity
  8
JISSEN
 62
     0
100
AcDbVertex
100
AcDb2dVertex
 10
129.517015599959
 20
163.8348029969517
 30
0.0
 70
     8
  0
VERTEX
  5
EF7C8908B
330
EF7C89068
100
AcDbEntity
  8
JISSEN
 62
     0
100
AcDbVertex
100
AcDb2dVertex
 10
129.5487074550233
 20
163.7271191249433
 30
0.0
 70
     8
  0
VERTEX
  5
EF7C8908C
330
EF7C89068
100
AcDbEntity
  8
JISSEN
 62
     0
100
AcDbVertex
100
AcDb2dVertex
 10
129.5299962725987
 20
163.6174960955283
 30
0.0
 70
     8
  0
VERTEX
  5
EF7C8908D
330
EF7C89068
100
AcDbEntity
  8
JISSEN
 62
     0
100
AcDbVertex
100
AcDb2dVertex
 10
129.4794905110932
 20
163.5069496532999
 30
0.0
 70
     8
  0
VERTEX
  5
EF7C8908E
330
EF7C89068
100
AcDbEntity
  8
JISSEN
 62
     0
100
AcDbVertex
100
AcDb2dVertex
 10
129.4157986289144
 20
163.3964955428505
 30
0.0
 70
     8
  0
VERTEX
  5
EF7C8908F
330
EF7C89068
100
AcDbEntity
  8
JISSEN
 62
     0
100
AcDbVertex
100
AcDb2dVertex
 10
129.3575290844701
 20
163.2871495087726
 30
0.0
 70
     8
  0
VERTEX
  5
EF7C89090
330
EF7C89068
100
AcDbEntity
  8
JISSEN
 62
     0
100
AcDbVertex
100
AcDb2dVertex
 10
129.3232903361681
 20
163.1799272956592
 30
0.0
 70
     8
  0
VERTEX
  5
EF7C89091
330
EF7C89068
100
AcDbEntity
  8
JISSEN
 62
     0
100
AcDbVertex
100
AcDb2dVertex
 10
129.3316908424162
 20
163.0758446481028
 30
0.0
 70
     8
  0
VERTEX
  5
EF7C89092
330
EF7C89068
100
AcDbEntity
  8
JISSEN
 62
     0
100
AcDbVertex
100
AcDb2dVertex
 10
129.4013390616221
 20
162.9759173106958
 30
0.0
 70
     8
  0
VERTEX
  5
EF7C89093
330
EF7C89068
100
AcDbEntity
  8
JISSEN
 62
     0
100
AcDbVertex
100
AcDb2dVertex
 10
129.5412304796436
 20
162.8803988415957
 30
0.0
 70
     8
  0
VERTEX
  5
EF7C89094
330
EF7C89068
100
AcDbEntity
  8
JISSEN
 62
     0
100
AcDbVertex
100
AcDb2dVertex
 10
129.721908692137
 20
162.7864940532169
 30
0.0
 70
     8
  0
VERTEX
  5
EF7C89095
330
EF7C89068
100
AcDbEntity
  8
JISSEN
 62
     0
100
AcDbVertex
100
AcDb2dVertex
 10
129.9043043222086
 20
162.690645571539
 30
0.0
 70
     8
  0
VERTEX
  5
EF7C89096
330
EF7C89068
100
AcDbEntity
  8
JISSEN
 62
     0
100
AcDbVertex
100
AcDb2dVertex
 10
130.0493479929641
 20
162.5892960225406
 30
0.0
 70
     8
  0
VERTEX
  5
EF7C89097
330
EF7C89068
100
AcDbEntity
  8
JISSEN
 62
     0
100
AcDbVertex
100
AcDb2dVertex
 10
130.11797032751
 20
162.4788880322009
 30
0.0
 70
     8
  0
VERTEX
  5
EF7C89098
330
EF7C89068
100
AcDbEntity
  8
JISSEN
 62
     0
100
AcDbVertex
100
AcDb2dVertex
 10
130.0711019489524
 20
162.3558642264994
 30
0.0
 70
     8
  0
VERTEX
  5
EF7C89099
330
EF7C89068
100
AcDbEntity
  8
JISSEN
 62
     0
100
AcDbVertex
100
AcDb2dVertex
 10
129.8696734803973
 20
162.2166672314149
 30
0.0
 70
     8
  0
VERTEX
  5
EF7C8909A
330
EF7C89068
100
AcDbEntity
  8
JISSEN
 62
     0
100
AcDbVertex
100
AcDb2dVertex
 10
129.4746155449509
 20
162.0577396729265
 30
0.0
 70
     8
  0
VERTEX
  5
EF7C8909B
330
EF7C89068
100
AcDbEntity
  8
JISSEN
 62
     0
100
AcDbVertex
100
AcDb2dVertex
 10
130.852554082928
 20
166.4823754231289
 30
0.0
 70
    16
  0
VERTEX
  5
EF7C8909C
330
EF7C89068
100
AcDbEntity
  8
JISSEN
 62
     0
100
AcDbVertex
100
AcDb2dVertex
 10
128.9912128853468
 20
165.9150388004574
 30
0.0
 70
    16
  0
VERTEX
  5
EF7C8909D
330
EF7C89068
100
AcDbEntity
  8
JISSEN
 62
     0
100
AcDbVertex
100
AcDb2dVertex
 10
132.0513799152748
 20
165.5368143853435
 30
0.0
 70
    16
  0
VERTEX
  5
EF7C8909E
330
EF7C89068
100
AcDbEntity
  8
JISSEN
 62
     0
100
AcDbVertex
100
AcDb2dVertex
 10
127.5400008079389
 20
164.6227707818358
 30
0.0
 70
    16
  0
VERTEX
  5
EF7C8909F
330
EF7C89068
100
AcDbEntity
  8
JISSEN
 62
     0
100
AcDbVertex
100
AcDb2dVertex
 10
130.2531382228569
 20
163.8663219516075
 30
0.0
 70
    16
  0
VERTEX
  5
EF7C890A0
330
EF7C89068
100
AcDbEntity
  8
JISSEN
 62
     0
100
AcDbVertex
100
AcDb2dVertex
 10
128.5495399003878
 20
162.9207593934444
 30
0.0
 70
    16
  0
VERTEX
  5
EF7C890A1
330
EF7C89068
100
AcDbEntity
  8
JISSEN
 62
     0
100
AcDbVertex
100
AcDb2dVertex
 10
130.8210043303463
 20
162.5110160236746
 30
0.0
 70
    16
  0
VERTEX
  5
EF7C890A2
330
EF7C89068
100
AcDbEntity
  8
JISSEN
 62
     0
100
AcDbVertex
100
AcDb2dVertex
 10
129.4746155449509
 20
162.0577396729264
 30
0.0
 70
    16
  0
SEQEND
  5
EF7C890A3
330
EF7C89068
100
AcDbEntity
  8
JISSEN
 62
     0
  0
HATCH
  5
EF7C890A4
330
EF7C85532
100
AcDbEntity
  8
JISSEN
 62
     0
100
AcDbHatch
 10
0.0
 20
0.0
 30
0.0
210
0.0
220
0.0
230
1.0
  2
ANSI31
 70
     0
 71
     0
 91
        2
 92
        7
 72
     0
 73
     1
 93
       50
 10
130.7692038690433
 20
165.594926901706
 10
130.6471654434895
 20
165.6610012999502
 10
130.4854762479981
 20
165.7246132872863
 10
130.310354495391
 20
165.7877327850159
 10
130.1480183984869
 20
165.8523297144437
 10
130.0246861701046
 20
165.9203739968726
 10
129.9665760230634
 20
165.9938355536062
 10
129.9891224596979
 20
166.0747718044514
 10
130.0646251404037
 20
166.1655901632341
 10
130.1546000150833
 20
166.2687855422764
 10
130.2205630336511
 20
166.386852853912
 10
130.2240301460134
 20
166.5222870104673
 10
130.1265173020786
 20
166.6775829242694
 10
129.889540451755
 20
166.8552355076464
 10
129.4746155449513
 20
167.0577396729262
 10
111.9746155449509
 20
167.0577396729263
 10
111.9746155449509
 20
162.0577396729262
 10
129.4746155449506
 20
162.0577396729264
 10
129.8696734803973
 20
162.2166672314149
 10
130.0711019489524
 20
162.3558642264994
 10
130.11797032751
 20
162.4788880322009
 10
130.0493479929641
 20
162.5892960225406
 10
129.9043043222086
 20
162.6906455715388
 10
129.7219086921394
 20
162.7864940532219
 10
129.5412304796436
 20
162.8803988415956
 10
129.4013390616221
 20
162.9759173106958
 10
129.3031363584761
 20
163.1168130114535
 10
129.3575290844701
 20
163.2871495087726
 10
129.415798628914
 20
163.3964955428489
 10
129.4794905110934
 20
163.5069496533
 10
129.5299962725988
 20
163.6174960955287
 10
129.5487074550233
 20
163.7271191249434
 10
129.517015599959
 20
163.8348029969518
 10
129.4232031288693
 20
163.9398141185667
 10
129.2831159827024
 20
164.0425475032245
 10
129.1194909822768
 20
164.1436803159649
 10
128.955064948416
 20
164.2438897218331
 10
128.8125747019355
 20
164.3438528858663
 10
128.7147570636566
 20
164.4442469731083
 10
128.6843488543986
 20
164.5457491485997
 10
128.7440868949811
 20
164.6490365773822
 10
128.9081021094405
 20
164.7544478429665
 10
129.1561018346783
 20
164.8609672027393
 10
129.4591875108118
 20
164.9672403325563
 10
129.7884605779636
 20
165.0719129082759
 10
130.1150224762412
 20
165.1736306057495
 10
130.4099746457746
 20
165.2710391008379
 10
130.6444185266755
 20
165.3627840693952
 10
130.789455559064
 20
165.4475111872777
 10
130.8253733118413
 20
165.5244201712494
 97
        0
 92
        7
 72
     0
 73
     1
 93
       50
 10
71.97461554495089
 20
167.0577396729265
 10
54.47461554495101
 20
167.0577396729264
 10
54.05969063814689
 20
166.8552355076463
 10
53.8227137878232
 20
166.6775829242694
 10
53.72520094388836
 20
166.5222870104672
 10
53.72866805625074
 20
166.3868528539122
 10
53.79463107481843
 20
166.2687855422764
 10
53.88460594950084
 20
166.165590163231
 10
53.96010863020388
 20
166.0747718044514
 10
53.98265506683845
 20
165.9938355536062
 10
53.92454491979743
 20
165.9203739968728
 10
53.80121269141477
 20
165.8523297144439
 10
53.63887659451006
 20
165.787732785016
 10
53.46375484190275
 20
165.7246132872858
 10
53.30206564641264
 20
165.6610012999503
 10
53.18002722085862
 20
165.594926901706
 10
53.12385777806071
 20
165.5244201712495
 10
53.15977553083792
 20
165.4475111872777
 10
53.30481256322639
 20
165.3627840693953
 10
53.53925644412834
 20
165.2710391008377
 10
53.83420861365744
 20
165.1736306057501
 10
54.16077051194111
 20
165.0719129082759
 10
54.49004357908961
 20
164.9672403325564
 10
54.79312925522368
 20
164.8609672027391
 10
55.04112898046173
 20
164.7544478429665
 10
55.20514419492065
 20
164.6490365773823
 10
55.26488223550336
 20
164.5457491485996
 10
55.23447402624526
 20
164.4442469731083
 10
55.13665638796658
 20
164.3438528858667
 10
54.99416614148628
 20
164.2438897218332
 10
54.82974010762041
 20
164.143680315964
 10
54.6661151071994
 20
164.0425475032245
 10
54.5260279610327
 20
163.9398141185667
 10
54.43221548994279
 20
163.8348029969518
 10
54.40052363487859
 20
163.7271191249432
 10
54.41923481730305
 20
163.6174960955285
 10
54.46974057880857
 20
163.5069496532996
 10
54.53343246098723
 20
163.3964955428503
 10
54.5917020054319
 20
163.2871495087725
 10
54.64609473142582
 20
163.1168130114535
 10
54.54789202827964
 20
162.9759173106958
 10
54.40800061025811
 20
162.8803988415957
 10
54.22732239776678
 20
162.786494053218
 10
54.04492676769326
 20
162.6906455715389
 10
53.89988309693785
 20
162.5892960225407
 10
53.83126076239193
 20
162.478888032201
 10
53.87812914094957
 20
162.3558642264994
 10
54.07955760950471
 20
162.2166672314149
 10
54.47461554495124
 20
162.0577396729264
 10
71.97461554495089
 20
162.0577396729264
 97
        0
 75
     0
 76
     1
 52
0.0
 41
20.0
 77
     0
 78
     1
 53
45.0
 43
33.61511078150602
 44
-544.2967175276191
 45
-1.767766952966368
 46
1.767766952966368
 79
     0
 47
0.1350417537953048
 98
        2
 10
198.5383570654296
 20
164.2419035301762
 10
142.4437654253127
 20
165.7273629303139
  0
LINE
  5
EF7C890A5
330
EF7C85532
100
AcDbEntity
  8
JISSEN
100
AcDbLine
 10
111.9746155449509
 20
167.0577396729264
 30
0.0
 11
111.9746155449509
 21
162.0577396729265
 31
0.0
  0
LINE
  5
EF7C890A6
330
EF7C85532
100
AcDbEntity
  8
JISSEN
100
AcDbLine
 10
102.4548800302502
 20
162.057739672926
 30
0.0
 11
129.4746155449506
 21
162.0577396729264
 31
0.0
  0
LINE
  5
EF7C890A7
330
EF7C85532
100
AcDbEntity
  8
JISSEN
100
AcDbLine
 10
102.2986222217296
 20
167.0577396729264
 30
0.0
 11
129.4746155449513
 21
167.0577396729262
 31
0.0
  0
LINE
  5
EF7C890A8
330
EF7C85532
100
AcDbEntity
  8
JISSEN
100
AcDbLine
 10
54.47461554495134
 20
162.0577396729264
 30
0.0
 11
81.35718450378888
 21
162.0577396729264
 31
0.0
  0
LINE
  5
EF7C890A9
330
EF7C85532
100
AcDbEntity
  8
JISSEN
100
AcDbLine
 10
81.51344231230954
 20
167.0577396729266
 30
0.0
 11
54.47461554495112
 21
167.0577396729264
 31
0.0
  0
POLYLINE
  5
EF7C890AA
330
EF7C85532
100
AcDbEntity
  8
JISSEN
 62
     0
100
AcDb2dPolyline
 66
     1
 10
0.0
 20
0.0
 30
0.0
 70
     4
 75
     6
  0
VERTEX
  5
EF7C890AB
330
EF7C890AA
100
AcDbEntity
  8
JISSEN
 62
     0
100
AcDbVertex
100
AcDb2dVertex
 10
54.47461554495089
 20
167.0577396729264
 30
0.0
 70
    16
  0
VERTEX
  5
EF7C890AC
330
EF7C890AA
100
AcDbEntity
  8
JISSEN
 62
     0
100
AcDbVertex
100
AcDb2dVertex
 10
54.47461554495089
 20
167.0577396729264
 30
0.0
 70
     8
  0
VERTEX
  5
EF7C890AD
330
EF7C890AA
100
AcDbEntity
  8
JISSEN
 62
     0
100
AcDbVertex
100
AcDb2dVertex
 10
54.059690638147
 20
166.8552355076464
 30
0.0
 70
     8
  0
VERTEX
  5
EF7C890AE
330
EF7C890AA
100
AcDbEntity
  8
JISSEN
 62
     0
100
AcDbVertex
100
AcDb2dVertex
 10
53.8227137878232
 20
166.6775829242693
 30
0.0
 70
     8
  0
VERTEX
  5
EF7C890AF
330
EF7C890AA
100
AcDbEntity
  8
JISSEN
 62
     0
100
AcDbVertex
100
AcDb2dVertex
 10
53.72520094388846
 20
166.5222870104672
 30
0.0
 70
     8
  0
VERTEX
  5
EF7C890B0
330
EF7C890AA
100
AcDbEntity
  8
JISSEN
 62
     0
100
AcDbVertex
100
AcDb2dVertex
 10
53.72866805625062
 20
166.3868528539121
 30
0.0
 70
     8
  0
VERTEX
  5
EF7C890B1
330
EF7C890AA
100
AcDbEntity
  8
JISSEN
 62
     0
100
AcDbVertex
100
AcDb2dVertex
 10
53.79463107481843
 20
166.2687855422765
 30
0.0
 70
     8
  0
VERTEX
  5
EF7C890B2
330
EF7C890AA
100
AcDbEntity
  8
JISSEN
 62
     0
100
AcDbVertex
100
AcDb2dVertex
 10
53.88460594949993
 20
166.1655901632322
 30
0.0
 70
     8
  0
VERTEX
  5
EF7C890B3
330
EF7C890AA
100
AcDbEntity
  8
JISSEN
 62
     0
100
AcDbVertex
100
AcDb2dVertex
 10
53.96010863020388
 20
166.0747718044514
 30
0.0
 70
     8
  0
VERTEX
  5
EF7C890B4
330
EF7C890AA
100
AcDbEntity
  8
JISSEN
 62
     0
100
AcDbVertex
100
AcDb2dVertex
 10
53.98265506683856
 20
165.9938355536062
 30
0.0
 70
     8
  0
VERTEX
  5
EF7C890B5
330
EF7C890AA
100
AcDbEntity
  8
JISSEN
 62
     0
100
AcDbVertex
100
AcDb2dVertex
 10
53.92454491979743
 20
165.9203739968727
 30
0.0
 70
     8
  0
VERTEX
  5
EF7C890B6
330
EF7C890AA
100
AcDbEntity
  8
JISSEN
 62
     0
100
AcDbVertex
100
AcDb2dVertex
 10
53.80121269141477
 20
165.8523297144438
 30
0.0
 70
     8
  0
VERTEX
  5
EF7C890B7
330
EF7C890AA
100
AcDbEntity
  8
JISSEN
 62
     0
100
AcDbVertex
100
AcDb2dVertex
 10
53.63887659451006
 20
165.787732785016
 30
0.0
 70
     8
  0
VERTEX
  5
EF7C890B8
330
EF7C890AA
100
AcDbEntity
  8
JISSEN
 62
     0
100
AcDbVertex
100
AcDb2dVertex
 10
53.46375484190298
 20
165.7246132872858
 30
0.0
 70
     8
  0
VERTEX
  5
EF7C890B9
330
EF7C890AA
100
AcDbEntity
  8
JISSEN
 62
     0
100
AcDbVertex
100
AcDb2dVertex
 10
53.30206564641253
 20
165.6610012999503
 30
0.0
 70
     8
  0
VERTEX
  5
EF7C890BA
330
EF7C890AA
100
AcDbEntity
  8
JISSEN
 62
     0
100
AcDbVertex
100
AcDb2dVertex
 10
53.18002722085862
 20
165.594926901706
 30
0.0
 70
     8
  0
VERTEX
  5
EF7C890BB
330
EF7C890AA
100
AcDbEntity
  8
JISSEN
 62
     0
100
AcDbVertex
100
AcDb2dVertex
 10
53.12385777806071
 20
165.5244201712495
 30
0.0
 70
     8
  0
VERTEX
  5
EF7C890BC
330
EF7C890AA
100
AcDbEntity
  8
JISSEN
 62
     0
100
AcDbVertex
100
AcDb2dVertex
 10
53.1597755308378
 20
165.4475111872777
 30
0.0
 70
     8
  0
VERTEX
  5
EF7C890BD
330
EF7C890AA
100
AcDbEntity
  8
JISSEN
 62
     0
100
AcDbVertex
100
AcDb2dVertex
 10
53.30481256322627
 20
165.3627840693952
 30
0.0
 70
     8
  0
VERTEX
  5
EF7C890BE
330
EF7C890AA
100
AcDbEntity
  8
JISSEN
 62
     0
100
AcDbVertex
100
AcDb2dVertex
 10
53.53925644412743
 20
165.2710391008379
 30
0.0
 70
     8
  0
VERTEX
  5
EF7C890BF
330
EF7C890AA
100
AcDbEntity
  8
JISSEN
 62
     0
100
AcDbVertex
100
AcDb2dVertex
 10
53.83420861365971
 20
165.1736306057498
 30
0.0
 70
     8
  0
VERTEX
  5
EF7C890C0
330
EF7C890AA
100
AcDbEntity
  8
JISSEN
 62
     0
100
AcDbVertex
100
AcDb2dVertex
 10
54.16077051194111
 20
165.0719129082747
 30
0.0
 70
     8
  0
VERTEX
  5
EF7C890C1
330
EF7C890AA
100
AcDbEntity
  8
JISSEN
 62
     0
100
AcDbVertex
100
AcDb2dVertex
 10
54.49004357908984
 20
164.9672403325564
 30
0.0
 70
     8
  0
VERTEX
  5
EF7C890C2
330
EF7C890AA
100
AcDbEntity
  8
JISSEN
 62
     0
100
AcDbVertex
100
AcDb2dVertex
 10
54.7931292552239
 20
164.8609672027391
 30
0.0
 70
     8
  0
VERTEX
  5
EF7C890C3
330
EF7C890AA
100
AcDbEntity
  8
JISSEN
 62
     0
100
AcDbVertex
100
AcDb2dVertex
 10
55.04112898046151
 20
164.7544478429664
 30
0.0
 70
     8
  0
VERTEX
  5
EF7C890C4
330
EF7C890AA
100
AcDbEntity
  8
JISSEN
 62
     0
100
AcDbVertex
100
AcDb2dVertex
 10
55.20514419492065
 20
164.6490365773822
 30
0.0
 70
     8
  0
VERTEX
  5
EF7C890C5
330
EF7C890AA
100
AcDbEntity
  8
JISSEN
 62
     0
100
AcDbVertex
100
AcDb2dVertex
 10
55.26488223550336
 20
164.5457491485997
 30
0.0
 70
     8
  0
VERTEX
  5
EF7C890C6
330
EF7C890AA
100
AcDbEntity
  8
JISSEN
 62
     0
100
AcDbVertex
100
AcDb2dVertex
 10
55.23447402624538
 20
164.4442469731084
 30
0.0
 70
     8
  0
VERTEX
  5
EF7C890C7
330
EF7C890AA
100
AcDbEntity
  8
JISSEN
 62
     0
100
AcDbVertex
100
AcDb2dVertex
 10
55.13665638796647
 20
164.3438528858665
 30
0.0
 70
     8
  0
VERTEX
  5
EF7C890C8
330
EF7C890AA
100
AcDbEntity
  8
JISSEN
 62
     0
100
AcDbVertex
100
AcDb2dVertex
 10
54.99416614148595
 20
164.243889721833
 30
0.0
 70
     8
  0
VERTEX
  5
EF7C890C9
330
EF7C890AA
100
AcDbEntity
  8
JISSEN
 62
     0
100
AcDbVertex
100
AcDb2dVertex
 10
54.82974010762382
 20
164.143680315966
 30
0.0
 70
     8
  0
VERTEX
  5
EF7C890CA
330
EF7C890AA
100
AcDbEntity
  8
JISSEN
 62
     0
100
AcDbVertex
100
AcDb2dVertex
 10
54.66611510719963
 20
164.0425475032245
 30
0.0
 70
     8
  0
VERTEX
  5
EF7C890CB
330
EF7C890AA
100
AcDbEntity
  8
JISSEN
 62
     0
100
AcDbVertex
100
AcDb2dVertex
 10
54.5260279610327
 20
163.9398141185667
 30
0.0
 70
     8
  0
VERTEX
  5
EF7C890CC
330
EF7C890AA
100
AcDbEntity
  8
JISSEN
 62
     0
100
AcDbVertex
100
AcDb2dVertex
 10
54.43221548994279
 20
163.8348029969517
 30
0.0
 70
     8
  0
VERTEX
  5
EF7C890CD
330
EF7C890AA
100
AcDbEntity
  8
JISSEN
 62
     0
100
AcDbVertex
100
AcDb2dVertex
 10
54.40052363487848
 20
163.7271191249433
 30
0.0
 70
     8
  0
VERTEX
  5
EF7C890CE
330
EF7C890AA
100
AcDbEntity
  8
JISSEN
 62
     0
100
AcDbVertex
100
AcDb2dVertex
 10
54.41923481730305
 20
163.6174960955283
 30
0.0
 70
     8
  0
VERTEX
  5
EF7C890CF
330
EF7C890AA
100
AcDbEntity
  8
JISSEN
 62
     0
100
AcDbVertex
100
AcDb2dVertex
 10
54.46974057880857
 20
163.5069496532999
 30
0.0
 70
     8
  0
VERTEX
  5
EF7C890D0
330
EF7C890AA
100
AcDbEntity
  8
JISSEN
 62
     0
100
AcDbVertex
100
AcDb2dVertex
 10
54.53343246098757
 20
163.3964955428505
 30
0.0
 70
     8
  0
VERTEX
  5
EF7C890D1
330
EF7C890AA
100
AcDbEntity
  8
JISSEN
 62
     0
100
AcDbVertex
100
AcDb2dVertex
 10
54.5917020054319
 20
163.2871495087726
 30
0.0
 70
     8
  0
VERTEX
  5
EF7C890D2
330
EF7C890AA
100
AcDbEntity
  8
JISSEN
 62
     0
100
AcDbVertex
100
AcDb2dVertex
 10
54.62594075373385
 20
163.1799272956592
 30
0.0
 70
     8
  0
VERTEX
  5
EF7C890D3
330
EF7C890AA
100
AcDbEntity
  8
JISSEN
 62
     0
100
AcDbVertex
100
AcDb2dVertex
 10
54.61754024748575
 20
163.0758446481028
 30
0.0
 70
     8
  0
VERTEX
  5
EF7C890D4
330
EF7C890AA
100
AcDbEntity
  8
JISSEN
 62
     0
100
AcDbVertex
100
AcDb2dVertex
 10
54.54789202827964
 20
162.9759173106958
 30
0.0
 70
     8
  0
VERTEX
  5
EF7C890D5
330
EF7C890AA
100
AcDbEntity
  8
JISSEN
 62
     0
100
AcDbVertex
100
AcDb2dVertex
 10
54.40800061025811
 20
162.8803988415957
 30
0.0
 70
     8
  0
VERTEX
  5
EF7C890D6
330
EF7C890AA
100
AcDbEntity
  8
JISSEN
 62
     0
100
AcDbVertex
100
AcDb2dVertex
 10
54.22732239776474
 20
162.7864940532169
 30
0.0
 70
     8
  0
VERTEX
  5
EF7C890D7
330
EF7C890AA
100
AcDbEntity
  8
JISSEN
 62
     0
100
AcDbVertex
100
AcDb2dVertex
 10
54.04492676769336
 20
162.690645571539
 30
0.0
 70
     8
  0
VERTEX
  5
EF7C890D8
330
EF7C890AA
100
AcDbEntity
  8
JISSEN
 62
     0
100
AcDbVertex
100
AcDb2dVertex
 10
53.89988309693785
 20
162.5892960225406
 30
0.0
 70
     8
  0
VERTEX
  5
EF7C890D9
330
EF7C890AA
100
AcDbEntity
  8
JISSEN
 62
     0
100
AcDbVertex
100
AcDb2dVertex
 10
53.83126076239182
 20
162.4788880322009
 30
0.0
 70
     8
  0
VERTEX
  5
EF7C890DA
330
EF7C890AA
100
AcDbEntity
  8
JISSEN
 62
     0
100
AcDbVertex
100
AcDb2dVertex
 10
53.87812914094957
 20
162.3558642264994
 30
0.0
 70
     8
  0
VERTEX
  5
EF7C890DB
330
EF7C890AA
100
AcDbEntity
  8
JISSEN
 62
     0
100
AcDbVertex
100
AcDb2dVertex
 10
54.07955760950471
 20
162.2166672314149
 30
0.0
 70
     8
  0
VERTEX
  5
EF7C890DC
330
EF7C890AA
100
AcDbEntity
  8
JISSEN
 62
     0
100
AcDbVertex
100
AcDb2dVertex
 10
54.47461554495089
 20
162.0577396729265
 30
0.0
 70
     8
  0
VERTEX
  5
EF7C890DD
330
EF7C890AA
100
AcDbEntity
  8
JISSEN
 62
     0
100
AcDbVertex
100
AcDb2dVertex
 10
53.096677006974
 20
166.4823754231289
 30
0.0
 70
    16
  0
VERTEX
  5
EF7C890DE
330
EF7C890AA
100
AcDbEntity
  8
JISSEN
 62
     0
100
AcDbVertex
100
AcDb2dVertex
 10
54.95801820455517
 20
165.9150388004574
 30
0.0
 70
    16
  0
VERTEX
  5
EF7C890DF
330
EF7C890AA
100
AcDbEntity
  8
JISSEN
 62
     0
100
AcDbVertex
100
AcDb2dVertex
 10
51.89785117462725
 20
165.5368143853435
 30
0.0
 70
    16
  0
VERTEX
  5
EF7C890E0
330
EF7C890AA
100
AcDbEntity
  8
JISSEN
 62
     0
100
AcDbVertex
100
AcDb2dVertex
 10
56.40923028196311
 20
164.6227707818358
 30
0.0
 70
    16
  0
VERTEX
  5
EF7C890E1
330
EF7C890AA
100
AcDbEntity
  8
JISSEN
 62
     0
100
AcDbVertex
100
AcDb2dVertex
 10
53.69609286704508
 20
163.8663219516075
 30
0.0
 70
    16
  0
VERTEX
  5
EF7C890E2
330
EF7C890AA
100
AcDbEntity
  8
JISSEN
 62
     0
100
AcDbVertex
100
AcDb2dVertex
 10
55.39969118951422
 20
162.9207593934444
 30
0.0
 70
    16
  0
VERTEX
  5
EF7C890E3
330
EF7C890AA
100
AcDbEntity
  8
JISSEN
 62
     0
100
AcDbVertex
100
AcDb2dVertex
 10
53.12822675955567
 20
162.5110160236746
 30
0.0
 70
    16
  0
VERTEX
  5
EF7C890E4
330
EF7C890AA
100
AcDbEntity
  8
JISSEN
 62
     0
100
AcDbVertex
100
AcDb2dVertex
 10
54.47461554495089
 20
162.0577396729264
 30
0.0
 70
    16
  0
SEQEND
  5
EF7C890E5
330
EF7C890AA
100
AcDbEntity
  8
JISSEN
 62
     0
  0
LINE
  5
EF7C890E6
330
EF7C85532
100
AcDbEntity
  8
JISSEN
100
AcDbLine
 10
71.97461554495089
 20
162.0577396729264
 30
0.0
 11
71.97461554495089
 21
167.0577396729264
 31
0.0
  0
LINE
  5
EF7C894DD
330
EF7C85532
100
AcDbEntity
  8
JISSEN
100
AcDbLine
 10
100.3432790166344
 20
123.7445349032064
 30
0.0
 11
83.4687855174017
 21
123.7445349032064
 31
0.0
  0
LINE
  5
EF7C894DE
330
EF7C85532
100
AcDbEntity
  8
JISSEN
100
AcDbLine
 10
102.8513059426384
 20
156.580355930072
 30
0.0
 11
91.90603226701659
 21
156.580355930072
 31
0.0
  0
LINE
  5
EF7C894DF
330
EF7C85532
100
AcDbEntity
  8
JISSEN
100
AcDbLine
 10
91.90603226701659
 20
172.5007540037038
 30
0.0
 11
100.6124999635341
 21
172.5007540037039
 31
0.0
  0
LINE
  5
EF7C894E0
330
EF7C85532
100
AcDbEntity
  8
JISSEN
100
AcDbLine
 10
102.125195825059
 20
170.9880581421788
 30
0.0
 11
91.90603226701659
 21
170.9880581421788
 31
0.0
  0
LINE
  5
EF7C894E1
330
EF7C85532
100
AcDbEntity
  8
JISSEN
100
AcDbLine
 10
102.5132451628534
 20
158.570405689276
 30
0.0
 11
91.90603226701659
 21
158.570405689276
 31
0.0
  0
ARC
  5
EF7C894E2
330
EF7C85532
100
AcDbEntity
  8
JISSEN
100
AcDbCircle
 10
91.90603226701659
 20
135.6848334584303
 30
0.0
 40
2.487562199004975
100
AcDbArc
 50
9.594068226859922
 51
90.0
  0
LINE
  5
EF7C894E3
330
EF7C85532
100
AcDbEntity
  8
JISSEN
100
AcDbLine
 10
100.6124999635339
 20
150.6102066524601
 30
0.0
 11
91.90603226701659
 21
153.5952812912661
 31
0.0
  0
LINE
  5
EF7C894E4
330
EF7C85532
100
AcDbEntity
  8
JISSEN
100
AcDbLine
 10
101.6075248431359
 20
150.6102066524601
 30
0.0
 11
91.90603226701659
 21
150.6102066524601
 31
0.0
  0
LINE
  5
EF7C894E5
330
EF7C85532
100
AcDbEntity
  8
JISSEN
100
AcDbLine
 10
91.90603226701659
 20
150.1126942126591
 30
0.0
 11
99.70012341268352
 21
150.1126942126591
 31
0.0
  0
LINE
  5
EF7C894E6
330
EF7C85532
100
AcDbEntity
  8
JISSEN
100
AcDbLine
 10
91.90603226701659
 20
153.5952812912661
 30
0.0
 11
100.6124999635339
 21
156.580355930072
 31
0.0
  0
LINE
  5
EF7C894E7
330
EF7C85532
100
AcDbEntity
  8
JISSEN
100
AcDbLine
 10
94.14922104489198
 20
126.5306129237973
 30
0.0
 11
91.90603226701671
 21
126.5306129237973
 31
0.0
  0
LINE
  5
EF7C894E8
330
EF7C85532
100
AcDbEntity
  8
JISSEN
100
AcDbLine
 10
96.8811566650266
 20
123.2277647103833
 30
0.0
 11
91.90603226701659
 21
123.2277647103833
 31
0.0
  0
LINE
  5
EF7C894E9
330
EF7C85532
100
AcDbEntity
  8
JISSEN
100
AcDbLine
 10
108.8214552202519
 20
124.2420473430073
 30
0.0
 11
91.90603226701659
 21
124.2420473430073
 31
0.0
  0
LINE
  5
EF7C894EA
330
EF7C85532
100
AcDbEntity
  8
JISSEN
100
AcDbLine
 10
91.90603226701659
 20
125.2370722226093
 30
0.0
 11
108.9085086171433
 21
125.2370722226093
 31
0.0
  0
LINE
  5
EF7C894EB
330
EF7C85532
100
AcDbEntity
  8
JISSEN
100
AcDbLine
 10
86.34803578943744
 20
128.3075065011866
 30
0.0
 11
78.26711999237779
 21
136.3884222982461
 31
0.0
  0
SPLINE
  5
EF7C894EC
330
EF7C85532
100
AcDbEntity
  8
JISSEN
100
AcDbSpline
210
0.0
220
0.0
230
1.0
 70
     8
 71
     3
 72
     9
 73
     5
 74
     3
 42
0.0000000001
 43
0.0000000001
 44
0.0000000001
 40
0.0
 40
0.0
 40
0.0
 40
0.0
 40
0.743700459249752
 40
6.542840924218363
 40
6.542840924218363
 40
6.542840924218363
 40
6.542840924218363
 10
87.49610198343228
 20
128.2022938125176
 30
0.0
 10
87.62743778837469
 20
128.4132515450743
 30
0.0
 10
88.78288857330394
 20
130.2691908129404
 30
0.0
 10
89.08193846917416
 20
132.4856094670057
 30
0.0
 10
89.34699647261211
 20
134.4500960337698
 30
0.0
 11
87.49610198343228
 21
128.2022938125176
 31
0.0
 11
87.87904467679103
 21
128.8398244131098
 31
0.0
 11
89.34699647261211
 21
134.4500960337698
 31
0.0
  0
LINE
  5
EF7C894ED
330
EF7C85532
100
AcDbEntity
  8
JISSEN
100
AcDbLine
 10
78.72195261229319
 20
125.2370722226093
 30
0.0
 11
80.22096660170911
 21
126.28669311788
 31
0.0
  0
LINE
  5
EF7C894EE
330
EF7C85532
100
AcDbEntity
  8
JISSEN
100
AcDbLine
 10
82.62120120543366
 20
123.9340572735007
 30
0.0
 11
73.17114979802491
 21
123.9340572735007
 31
0.0
  0
LINE
  5
EF7C894EF
330
EF7C85532
100
AcDbEntity
  8
JISSEN
100
AcDbLine
 10
91.90603226701956
 20
125.2370722226093
 30
0.0
 11
74.90355591689286
 21
125.2370722226093
 31
0.0
  0
LINE
  5
EF7C894F0
330
EF7C85532
100
AcDbEntity
  8
JISSEN
100
AcDbLine
 10
74.9906093137842
 20
124.2420473430073
 30
0.0
 11
91.90603226701956
 21
124.2420473430073
 31
0.0
  0
LINE
  5
EF7C894F1
330
EF7C85532
100
AcDbEntity
  8
JISSEN
100
AcDbLine
 10
74.9906093137842
 20
124.2420473430073
 30
0.0
 11
79.0356827517362
 21
124.2420473430073
 31
0.0
  0
LINE
  5
EF7C894F2
330
EF7C85532
100
AcDbEntity
  8
JISSEN
100
AcDbLine
 10
73.00055955458168
 20
124.901522619744
 30
0.0
 11
74.90355591689416
 21
125.2370722226096
 31
0.0
  0
LINE
  5
EF7C894F3
330
EF7C85532
100
AcDbEntity
  8
JISSEN
100
AcDbLine
 10
74.99060931378551
 20
124.2420473430076
 30
0.0
 11
73.17334381165799
 21
123.9216144038717
 31
0.0
  0
LINE
  5
EF7C894F4
330
EF7C85532
100
AcDbEntity
  8
JISSEN
100
AcDbLine
 10
73.17334381165799
 20
123.9216144038717
 30
0.0
 11
73.00055955458168
 21
124.901522619744
 31
0.0
  0
LINE
  5
EF7C894F5
330
EF7C85532
100
AcDbEntity
  8
SUNPOU
100
AcDbLine
 10
75.53271899034726
 20
125.2370722226093
 30
0.0
 11
75.53271899034726
 21
125.2370722226093
 31
0.0
  0
LINE
  5
EF7C894F6
330
EF7C85532
100
AcDbEntity
  8
JISSEN
100
AcDbLine
 10
84.75728817760488
 20
126.5306129237973
 30
0.0
 11
88.67533658979651
 21
126.5306129237973
 31
0.0
  0
LINE
  5
EF7C894F7
330
EF7C85532
100
AcDbEntity
  8
JISSEN
100
AcDbLine
 10
82.16246262929486
 20
125.2370722226093
 30
0.0
 11
83.64361609577299
 21
126.4216380957932
 31
0.0
  0
ARC
  5
EF7C894F8
330
EF7C85532
100
AcDbEntity
  8
JISSEN
100
AcDbCircle
 10
83.4687855174017
 20
125.7345846624104
 30
0.0
 40
1.99004975920398
100
AcDbArc
 50
228.590377890729
 51
270.0
  0
LINE
  5
EF7C894F9
330
EF7C85532
100
AcDbEntity
  8
JISSEN
100
AcDbLine
 10
80.99458139034959
 20
126.5306129237973
 30
0.0
 11
83.95435256285725
 21
126.5306129237973
 31
0.0
  0
ARC
  5
EF7C894FA
330
EF7C85532
100
AcDbEntity
  8
JISSEN
100
AcDbCircle
 10
80.99458139034959
 20
125.1818566994968
 30
0.0
 40
1.348756224300497
100
AcDbArc
 50
89.99999999998818
 51
124.9999999999973
  0
LINE
  5
EF7C894FB
330
EF7C85532
100
AcDbEntity
  8
JISSEN
100
AcDbLine
 10
79.75197029603805
 20
125.2370722226093
 30
0.0
 11
81.53668689443202
 21
126.5306129237973
 31
0.0
  0
LINE
  5
EF7C894FC
330
EF7C85532
100
AcDbEntity
  8
JISSEN
100
AcDbLine
 10
83.49718291884082
 20
125.2370722226093
 30
0.0
 11
84.56391880499735
 21
126.4614440666501
 31
0.0
  0
ARC
  5
EF7C894FD
330
EF7C85532
100
AcDbEntity
  8
JISSEN
100
AcDbCircle
 10
83.95435256285708
 20
126.0331004839963
 30
0.0
 40
0.4975124398009951
100
AcDbArc
 50
27.94511501380438
 51
128.6513889475975
  0
ARC
  5
EF7C894FE
330
EF7C85532
100
AcDbEntity
  8
JISSEN
100
AcDbCircle
 10
84.75728817760488
 20
126.2257355064072
 30
0.0
 40
0.3048774173901127
100
AcDbArc
 50
89.99999999998818
 51
129.3645921709706
  0
LINE
  5
EF7C894FF
330
EF7C85532
100
AcDbEntity
  8
JISSEN
100
AcDbLine
 10
86.93090786900956
 20
123.7252771501843
 30
0.0
 11
86.93090786900956
 21
123.2277647103833
 31
0.0
  0
LINE
  5
EF7C89500
330
EF7C85532
100
AcDbEntity
  8
JISSEN
100
AcDbLine
 10
86.93090786900956
 20
123.2277647103833
 30
0.0
 11
91.90603226701956
 21
123.2277647103833
 31
0.0
  0
LINE
  5
EF7C89501
330
EF7C85532
100
AcDbEntity
  8
JISSEN
100
AcDbLine
 10
89.66284348914417
 20
126.5306129237973
 30
0.0
 11
91.90603226701943
 21
126.5306129237973
 31
0.0
  0
LINE
  5
EF7C89502
330
EF7C85532
100
AcDbEntity
  8
JISSEN
100
AcDbLine
 10
87.67227811129638
 20
125.2370722226093
 30
0.0
 11
88.41939084159893
 21
126.3913918181314
 31
0.0
  0
LINE
  5
EF7C89503
330
EF7C85532
100
AcDbEntity
  8
JISSEN
100
AcDbLine
 10
86.93090786900961
 20
126.5306129237973
 30
0.0
 11
86.93090786900961
 21
126.9003288215548
 31
0.0
  0
ARC
  5
EF7C89504
330
EF7C85532
100
AcDbEntity
  8
JISSEN
100
AcDbCircle
 10
84.94085810980568
 20
126.9003288215548
 30
0.0
 40
1.99004975920398
100
AcDbArc
 50
0.0
 51
45.00000000000029
  0
LINE
  5
EF7C89505
330
EF7C85532
100
AcDbEntity
  8
JISSEN
100
AcDbLine
 10
88.72327910714941
 20
125.6173067982825
 30
0.0
 11
88.51168881964957
 21
125.2394285025757
 31
0.0
  0
ARC
  5
EF7C89506
330
EF7C85532
100
AcDbEntity
  8
JISSEN
100
AcDbCircle
 10
88.85350705333525
 20
125.5443865779708
 30
0.0
 40
0.1492537319402985
100
AcDbArc
 50
29.75312361994555
 51
150.7536621110961
  0
LINE
  5
EF7C89507
330
EF7C85532
100
AcDbEntity
  8
JISSEN
100
AcDbLine
 10
88.98308492859081
 20
125.6184558073604
 30
0.0
 11
89.20584160984299
 21
125.2287617644568
 31
0.0
  0
LINE
  5
EF7C89508
330
EF7C85532
100
AcDbEntity
  8
JISSEN
100
AcDbLine
 10
88.94947468426471
 20
126.3591466933285
 30
0.0
 11
89.49553993376298
 21
125.2370722226093
 31
0.0
  0
ARC
  5
EF7C89509
330
EF7C85532
100
AcDbEntity
  8
JISSEN
100
AcDbCircle
 10
88.67533658979644
 20
126.2257355064072
 30
0.0
 40
0.3048774173901127
100
AcDbArc
 50
25.95018893933627
 51
147.0877583892837
  0
LINE
  5
EF7C8950A
330
EF7C85532
100
AcDbEntity
  8
JISSEN
100
AcDbLine
 10
89.49553993376298
 20
125.2370722226093
 30
0.0
 11
89.66284348914417
 21
126.5306129237973
 31
0.0
  0
LINE
  5
EF7C8950B
330
EF7C85532
100
AcDbEntity
  8
JISSEN
100
AcDbLine
 10
78.0514257115899
 20
136.7112316018473
 30
0.0
 11
80.21448993169617
 21
137.6072021380993
 31
0.0
  0
ARC
  5
EF7C8950C
330
EF7C85532
100
AcDbEntity
  8
JISSEN
100
AcDbCircle
 10
80.96075859139768
 20
153.5952812912661
 30
0.0
 40
2.985074638805969
100
AcDbArc
 50
90.0
 51
180.0
  0
LINE
  5
EF7C8950D
330
EF7C85532
100
AcDbEntity
  8
JISSEN
100
AcDbLine
 10
77.97568395259171
 20
137.092011138062
 30
0.0
 11
77.97568395259171
 21
153.5952812912661
 31
0.0
  0
ARC
  5
EF7C8950E
330
EF7C85532
100
AcDbEntity
  8
JISSEN
100
AcDbCircle
 10
78.97070883219374
 20
137.092011138062
 30
0.0
 40
0.99502487960199
100
AcDbArc
 50
180.0
 51
225.0000000000003
  0
LINE
  5
EF7C8950F
330
EF7C85532
100
AcDbEntity
  8
JISSEN
100
AcDbLine
 10
80.21448993169611
 20
148.6201568932561
 30
0.0
 11
80.21448993169617
 21
156.4855673820864
 31
0.0
  0
LINE
  5
EF7C89510
330
EF7C85532
100
AcDbEntity
  8
JISSEN
100
AcDbLine
 10
83.19956457050215
 20
150.6102066524601
 30
0.0
 11
83.19956457050215
 21
156.580355930072
 31
0.0
  0
LINE
  5
EF7C89511
330
EF7C85532
100
AcDbEntity
  8
JISSEN
100
AcDbLine
 10
91.90603226701956
 20
153.5952812912661
 30
0.0
 11
83.19956457050215
 21
156.580355930072
 31
0.0
  0
LINE
  5
EF7C89512
330
EF7C85532
100
AcDbEntity
  8
JISSEN
100
AcDbLine
 10
86.56446805027551
 20
135.8305514783233
 30
0.0
 11
83.44832079040271
 21
138.9466987381961
 31
0.0
  0
LINE
  5
EF7C89513
330
EF7C85532
100
AcDbEntity
  8
JISSEN
100
AcDbLine
 10
91.90603226701956
 20
150.1126942126591
 30
0.0
 11
84.11194112135262
 21
150.1126942126591
 31
0.0
  0
LINE
  5
EF7C89514
330
EF7C85532
100
AcDbEntity
  8
JISSEN
100
AcDbLine
 10
82.20453969090016
 20
150.6102066524601
 30
0.0
 11
91.90603226701956
 21
150.6102066524601
 31
0.0
  0
LINE
  5
EF7C89515
330
EF7C85532
100
AcDbEntity
  8
JISSEN
100
AcDbLine
 10
83.19956457050215
 20
150.6102066524601
 30
0.0
 11
91.90603226701956
 21
153.5952812912661
 31
0.0
  0
LINE
  5
EF7C89516
330
EF7C85532
100
AcDbEntity
  8
JISSEN
100
AcDbLine
 10
79.71697749189525
 20
148.6201568932561
 30
0.0
 11
79.71697749189525
 21
139.6649329768382
 31
0.0
  0
LINE
  5
EF7C89517
330
EF7C85532
100
AcDbEntity
  8
JISSEN
100
AcDbLine
 10
83.44832079040271
 20
138.9466987381961
 30
0.0
 11
83.44832079040259
 21
149.1744801986091
 31
0.0
  0
LINE
  5
EF7C89518
330
EF7C85532
100
AcDbEntity
  8
JISSEN
100
AcDbLine
 10
81.7070272510991
 20
148.6201568932561
 30
0.0
 11
81.7070272510991
 21
139.6649329768382
 31
0.0
  0
LINE
  5
EF7C89519
330
EF7C85532
100
AcDbEntity
  8
JISSEN
100
AcDbLine
 10
79.71697749189525
 20
139.6649329768382
 30
0.0
 11
81.7070272510991
 21
148.6201568932561
 31
0.0
  0
LINE
  5
EF7C8951A
330
EF7C85532
100
AcDbEntity
  8
JISSEN
100
AcDbLine
 10
81.7070272510991
 20
139.6649329768382
 30
0.0
 11
79.71697749189525
 21
148.6201568932561
 31
0.0
  0
LINE
  5
EF7C8951B
330
EF7C85532
100
AcDbEntity
  8
JISSEN
100
AcDbLine
 10
83.44832079040271
 20
138.9466987381961
 30
0.0
 11
81.16165706100105
 21
136.6600350087944
 31
0.0
  0
LINE
  5
EF7C8951C
330
EF7C85532
100
AcDbEntity
  8
JISSEN
100
AcDbLine
 10
81.20951481129827
 20
138.0193549381291
 30
0.0
 11
83.44832079040271
 21
138.9466987381961
 31
0.0
  0
LINE
  5
EF7C8951D
330
EF7C85532
100
AcDbEntity
  8
JISSEN
100
AcDbLine
 10
80.21448993169617
 20
137.6072021380993
 30
0.0
 11
80.21448993169617
 21
139.6649329768382
 31
0.0
  0
LINE
  5
EF7C8951E
330
EF7C85532
100
AcDbEntity
  8
JISSEN
100
AcDbLine
 10
81.20951481129822
 20
138.0193549381291
 30
0.0
 11
81.20951481129822
 21
139.6649329768382
 31
0.0
  0
LINE
  5
EF7C8951F
330
EF7C85532
100
AcDbEntity
  8
JISSEN
100
AcDbLine
 10
81.16165706100105
 20
136.6600350087944
 30
0.0
 11
80.21448993169627
 21
137.6072021380992
 31
0.0
  0
LINE
  5
EF7C89520
330
EF7C85532
100
AcDbEntity
  8
JISSEN
100
AcDbLine
 10
81.16165706100105
 20
136.6600350087945
 30
0.0
 11
79.57858217141529
 21
135.0769601192087
 31
0.0
  0
LINE
  5
EF7C89521
330
EF7C85532
100
AcDbEntity
  8
JISSEN
100
AcDbLine
 10
81.86524590081701
 20
137.3636238486103
 30
0.0
 11
81.20951481129822
 21
138.0193549381291
 31
0.0
  0
LINE
  5
EF7C89522
330
EF7C85532
100
AcDbEntity
  8
JISSEN
100
AcDbLine
 10
81.7070272510991
 20
139.6649329768382
 30
0.0
 11
79.71697749189525
 21
139.6649329768382
 31
0.0
  0
ARC
  5
EF7C89523
330
EF7C85532
100
AcDbEntity
  8
JISSEN
100
AcDbCircle
 10
82.20453969090016
 20
149.6151817728581
 30
0.0
 40
0.99502487960199
100
AcDbArc
 50
90.0
 51
180.0
  0
LINE
  5
EF7C89524
330
EF7C85532
100
AcDbEntity
  8
JISSEN
100
AcDbLine
 10
81.7070272510991
 20
148.6201568932561
 30
0.0
 11
79.71697749189525
 21
148.6201568932561
 31
0.0
  0
LINE
  5
EF7C89525
330
EF7C85532
100
AcDbEntity
  8
JISSEN
100
AcDbLine
 10
81.20951481129811
 20
148.6201568932561
 30
0.0
 11
81.20951481129811
 21
149.6151817728581
 31
0.0
  0
ARC
  5
EF7C89526
330
EF7C85532
100
AcDbEntity
  8
JISSEN
100
AcDbCircle
 10
84.44334567000465
 20
149.1744801986091
 30
0.0
 40
0.99502487960199
100
AcDbArc
 50
109.4547060545447
 51
180.0
  0
ARC
  5
EF7C89527
330
EF7C85532
100
AcDbEntity
  8
JISSEN
100
AcDbCircle
 10
91.90603226701956
 20
135.6848334584303
 30
0.0
 40
2.487562199004975
100
AcDbArc
 50
90.0
 51
170.4059317731401
  0
LINE
  5
EF7C89528
330
EF7C85532
100
AcDbEntity
  8
JISSEN
100
AcDbLine
 10
86.91626247018339
 20
135.6848334584302
 30
0.0
 11
88.96270898007236
 21
135.6848334584302
 31
0.0
  0
ARC
  5
EF7C89529
330
EF7C85532
100
AcDbEntity
  8
JISSEN
100
AcDbCircle
 10
86.91626247018339
 20
136.1823458982312
 30
0.0
 40
0.4975124398009951
100
AcDbArc
 50
225.0
 51
270.0000000000004
  0
ARC
  5
EF7C8952A
330
EF7C85532
100
AcDbEntity
  8
JISSEN
100
AcDbCircle
 10
88.96270898007236
 20
136.1823458982312
 30
0.0
 40
0.4975124398009951
100
AcDbArc
 50
270.0
 51
350.4059317731401
  0
LINE
  5
EF7C8952B
330
EF7C85532
100
AcDbEntity
  8
JISSEN
100
AcDbLine
 10
81.29881937118273
 20
158.570405689276
 30
0.0
 11
91.90603226701956
 21
158.570405689276
 31
0.0
  0
LINE
  5
EF7C8952C
330
EF7C85532
100
AcDbEntity
  8
JISSEN
100
AcDbLine
 10
81.6868687089771
 20
170.9880581421788
 30
0.0
 11
91.90603226701956
 21
170.9880581421788
 31
0.0
  0
LINE
  5
EF7C8952D
330
EF7C85532
100
AcDbEntity
  8
JISSEN
100
AcDbLine
 10
91.90603226701956
 20
172.5007540037038
 30
0.0
 11
83.19956457050199
 21
172.5007540037039
 31
0.0
  0
LINE
  5
EF7C8952E
330
EF7C85532
100
AcDbEntity
  8
JISSEN
100
AcDbLine
 10
80.96075859139768
 20
156.580355930072
 30
0.0
 11
91.90603226701956
 21
156.580355930072
 31
0.0
  0
LINE
  5
EF7C8952F
330
EF7C85532
100
AcDbEntity
  8
SAISEN
 48
2.0
100
AcDbLine
 10
82.43077133164778
 20
157.785898449442
 30
0.0
 11
82.88064155550719
 21
172.181830988709
 31
0.0
  0
LINE
  5
EF7C89530
330
EF7C85532
100
AcDbEntity
  8
JISSEN
 48
2.0
100
AcDbLine
 10
81.29881937118273
 20
158.570405689276
 30
0.0
 11
81.6868687089771
 21
170.9880581421788
 31
0.0
  0
LINE
  5
EF7C89531
330
EF7C85532
100
AcDbEntity
  8
JISSEN
100
AcDbLine
 10
81.45827103119865
 20
158.570405689276
 30
0.0
 11
81.29881937118273
 21
158.570405689276
 31
0.0
  0
ARC
  5
EF7C89532
330
EF7C85532
100
AcDbEntity
  8
JISSEN
100
AcDbCircle
 10
81.45827103119865
 20
157.5753808096741
 30
0.0
 40
0.9950248796020188
100
AcDbArc
 50
270.0
 51
90.0
  0
LINE
  5
EF7C89533
330
EF7C85532
100
AcDbEntity
  8
JISSEN
100
AcDbLine
 10
80.96075859139768
 20
156.580355930072
 30
0.0
 11
82.15478844692009
 21
156.580355930072
 31
0.0
  0
LINE
  5
EF7C89534
330
EF7C85532
100
AcDbEntity
  8
JISSEN
100
AcDbLine
 10
83.19956457050215
 20
172.5007540037039
 30
0.0
 11
81.6868687089771
 21
170.9880581421788
 31
0.0
  0
SPLINE
  5
EF7C89535
330
EF7C85532
100
AcDbEntity
  8
JISSEN
100
AcDbSpline
210
0.0
220
0.0
230
1.0
 70
     8
 71
     3
 72
     9
 73
     5
 74
     3
 42
0.0000000001
 43
0.0000000001
 44
0.0000000001
 40
0.0
 40
0.0
 40
0.0
 40
0.0
 40
0.743700459249752
 40
6.542840924218363
 40
6.542840924218363
 40
6.542840924218363
 40
6.542840924218363
 10
96.31596255060388
 20
128.2022938125176
 30
0.0
 10
96.18462674566147
 20
128.4132515450743
 30
0.0
 10
95.02917596073222
 20
130.2691908129404
 30
0.0
 10
94.73012606486202
 20
132.4856094670057
 30
0.0
 10
94.46506806142405
 20
134.4500960337698
 30
0.0
 11
96.31596255060388
 21
128.2022938125176
 31
0.0
 11
95.93301985724513
 21
128.8398244131098
 31
0.0
 11
94.46506806142405
 21
134.4500960337698
 31
0.0
  0
LINE
  5
EF7C89536
330
EF7C85532
100
AcDbEntity
  8
JISSEN
100
AcDbLine
 10
97.46402874459874
 20
128.3075065011866
 30
0.0
 11
105.5449445416583
 21
136.3884222982461
 31
0.0
  0
LINE
  5
EF7C89537
330
EF7C85532
100
AcDbEntity
  8
JISSEN
100
AcDbLine
 10
108.8214552202519
 20
124.2420473430073
 30
0.0
 11
104.7763817822999
 21
124.2420473430073
 31
0.0
  0
LINE
  5
EF7C89538
330
EF7C85532
100
AcDbEntity
  8
JISSEN
100
AcDbLine
 10
101.1908633286025
 20
123.9340572735007
 30
0.0
 11
110.6409147360112
 21
123.9340572735007
 31
0.0
  0
LINE
  5
EF7C89539
330
EF7C85532
100
AcDbEntity
  8
JISSEN
100
AcDbLine
 10
102.8174831436865
 20
126.5306129237973
 30
0.0
 11
99.85771197117891
 21
126.5306129237973
 31
0.0
  0
ARC
  5
EF7C8953A
330
EF7C85532
100
AcDbEntity
  8
JISSEN
100
AcDbCircle
 10
100.3432790166344
 20
125.7345846624104
 30
0.0
 40
1.99004975920398
100
AcDbArc
 50
270.0
 51
311.4096221092709
  0
LINE
  5
EF7C8953B
330
EF7C85532
100
AcDbEntity
  8
JISSEN
100
AcDbLine
 10
101.6496019047413
 20
125.2370722226093
 30
0.0
 11
100.1684484382631
 21
126.4216380957932
 31
0.0
  0
LINE
  5
EF7C8953C
330
EF7C85532
100
AcDbEntity
  8
JISSEN
100
AcDbLine
 10
96.8811566650266
 20
123.7252771501843
 30
0.0
 11
96.8811566650266
 21
123.2277647103833
 31
0.0
  0
ARC
  5
EF7C8953D
330
EF7C85532
100
AcDbEntity
  8
JISSEN
100
AcDbCircle
 10
98.87120642423049
 20
126.9003288215548
 30
0.0
 40
1.99004975920398
100
AcDbArc
 50
134.9999999999997
 51
180.0
  0
LINE
  5
EF7C8953E
330
EF7C85532
100
AcDbEntity
  8
JISSEN
100
AcDbLine
 10
99.05477635643126
 20
126.5306129237973
 30
0.0
 11
95.13672794423968
 21
126.5306129237973
 31
0.0
  0
ARC
  5
EF7C8953F
330
EF7C85532
100
AcDbEntity
  8
JISSEN
100
AcDbCircle
 10
95.13672794423973
 20
126.2257355064072
 30
0.0
 40
0.3048774173901127
100
AcDbArc
 50
32.91224161071621
 51
154.0498110606622
  0
LINE
  5
EF7C89540
330
EF7C85532
100
AcDbEntity
  8
JISSEN
100
AcDbLine
 10
95.08878542688677
 20
125.6173067982825
 30
0.0
 11
95.30037571438658
 21
125.2394285025757
 31
0.0
  0
LINE
  5
EF7C89541
330
EF7C85532
100
AcDbEntity
  8
JISSEN
100
AcDbLine
 10
94.31652460027317
 20
125.2370722226093
 30
0.0
 11
94.14922104489198
 21
126.5306129237973
 31
0.0
  0
LINE
  5
EF7C89542
330
EF7C85532
100
AcDbEntity
  8
JISSEN
100
AcDbLine
 10
94.86258984977144
 20
126.3591466933285
 30
0.0
 11
94.31652460027317
 21
125.2370722226093
 31
0.0
  0
LINE
  5
EF7C89543
330
EF7C85532
100
AcDbEntity
  8
JISSEN
100
AcDbLine
 10
94.82897960544534
 20
125.6184558073604
 30
0.0
 11
94.60622292419316
 21
125.2287617644568
 31
0.0
  0
ARC
  5
EF7C89544
330
EF7C85532
100
AcDbEntity
  8
JISSEN
100
AcDbCircle
 10
94.9585574807009
 20
125.5443865779708
 30
0.0
 40
0.1492537319402985
100
AcDbArc
 50
29.24633788890385
 51
150.2468763800544
  0
LINE
  5
EF7C89545
330
EF7C85532
100
AcDbEntity
  8
JISSEN
100
AcDbLine
 10
96.13978642273981
 20
125.2370722226093
 30
0.0
 11
95.39267369243725
 21
126.3913918181314
 31
0.0
  0
LINE
  5
EF7C89546
330
EF7C85532
100
AcDbEntity
  8
JISSEN
100
AcDbLine
 10
96.88115666502653
 20
126.5306129237973
 30
0.0
 11
96.88115666502653
 21
126.9003288215548
 31
0.0
  0
ARC
  5
EF7C89547
330
EF7C85532
100
AcDbEntity
  8
JISSEN
100
AcDbCircle
 10
99.05477635643126
 20
126.2257355064072
 30
0.0
 40
0.3048774173901127
100
AcDbArc
 50
50.6354078290294
 51
90.00000000001181
  0
ARC
  5
EF7C89548
330
EF7C85532
100
AcDbEntity
  8
JISSEN
100
AcDbCircle
 10
99.85771197117907
 20
126.0331004839963
 30
0.0
 40
0.4975124398009951
100
AcDbArc
 50
51.34861105240246
 51
152.0548849861956
  0
LINE
  5
EF7C89549
330
EF7C85532
100
AcDbEntity
  8
JISSEN
100
AcDbLine
 10
100.3148816151953
 20
125.2370722226093
 30
0.0
 11
99.24814572903882
 21
126.4614440666501
 31
0.0
  0
LINE
  5
EF7C8954A
330
EF7C85532
100
AcDbEntity
  8
JISSEN
100
AcDbLine
 10
104.0600942379981
 20
125.2370722226093
 30
0.0
 11
102.2753776396041
 21
126.5306129237973
 31
0.0
  0
LINE
  5
EF7C8954B
330
EF7C85532
100
AcDbEntity
  8
JISSEN
100
AcDbLine
 10
105.0901119217429
 20
125.2370722226093
 30
0.0
 11
103.591097932327
 21
126.28669311788
 31
0.0
  0
ARC
  5
EF7C8954C
330
EF7C85532
100
AcDbEntity
  8
JISSEN
100
AcDbCircle
 10
102.8174831436865
 20
125.1818566994968
 30
0.0
 40
1.348756224300497
100
AcDbArc
 50
55.00000000000263
 51
90.00000000001181
  0
LINE
  5
EF7C8954D
330
EF7C85532
100
AcDbEntity
  8
JISSEN
100
AcDbLine
 10
108.8214552202506
 20
124.2420473430076
 30
0.0
 11
110.6387207223781
 21
123.9216144038717
 31
0.0
  0
LINE
  5
EF7C8954E
330
EF7C85532
100
AcDbEntity
  8
JISSEN
100
AcDbLine
 10
110.8115049794544
 20
124.901522619744
 30
0.0
 11
108.908508617142
 21
125.2370722226096
 31
0.0
  0
LINE
  5
EF7C8954F
330
EF7C85532
100
AcDbEntity
  8
SUNPOU
100
AcDbLine
 10
108.2793455436888
 20
125.2370722226093
 30
0.0
 11
108.2793455436888
 21
125.2370722226093
 31
0.0
  0
LINE
  5
EF7C89550
330
EF7C85532
100
AcDbEntity
  8
JISSEN
100
AcDbLine
 10
110.6387207223781
 20
123.9216144038717
 30
0.0
 11
110.8115049794544
 21
124.901522619744
 31
0.0
  0
LINE
  5
EF7C89551
330
EF7C85532
100
AcDbEntity
  8
JISSEN
100
AcDbLine
 10
100.6124999635339
 20
150.6102066524601
 30
0.0
 11
100.6124999635339
 21
156.580355930072
 31
0.0
  0
LINE
  5
EF7C89552
330
EF7C85532
100
AcDbEntity
  8
JISSEN
100
AcDbLine
 10
103.59757460234
 20
148.6201568932561
 30
0.0
 11
103.5975746023399
 21
156.4855673820864
 31
0.0
  0
ARC
  5
EF7C89553
330
EF7C85532
100
AcDbEntity
  8
JISSEN
100
AcDbCircle
 10
102.8513059426384
 20
153.5952812912661
 30
0.0
 40
2.985074638805969
100
AcDbArc
 50
0.0
 51
90.0
  0
ARC
  5
EF7C89554
330
EF7C85532
100
AcDbEntity
  8
JISSEN
100
AcDbCircle
 10
99.36871886403151
 20
149.1744801986091
 30
0.0
 40
0.99502487960199
100
AcDbArc
 50
0.0
 51
70.54529394545522
  0
LINE
  5
EF7C89555
330
EF7C85532
100
AcDbEntity
  8
JISSEN
100
AcDbLine
 10
102.6025497227378
 20
138.0193549381291
 30
0.0
 11
100.3637437436334
 21
138.9466987381961
 31
0.0
  0
LINE
  5
EF7C89556
330
EF7C85532
100
AcDbEntity
  8
JISSEN
100
AcDbLine
 10
100.3637437436334
 20
138.9466987381961
 30
0.0
 11
102.6504074730351
 21
136.6600350087944
 31
0.0
  0
LINE
  5
EF7C89557
330
EF7C85532
100
AcDbEntity
  8
JISSEN
100
AcDbLine
 10
100.3637437436334
 20
138.9466987381961
 30
0.0
 11
100.3637437436335
 21
149.1744801986091
 31
0.0
  0
LINE
  5
EF7C89558
330
EF7C85532
100
AcDbEntity
  8
JISSEN
100
AcDbLine
 10
96.89580206385279
 20
135.6848334584302
 30
0.0
 11
94.84935555396379
 21
135.6848334584302
 31
0.0
  0
ARC
  5
EF7C89559
330
EF7C85532
100
AcDbEntity
  8
JISSEN
100
AcDbCircle
 10
94.84935555396379
 20
136.1823458982312
 30
0.0
 40
0.4975124398009951
100
AcDbArc
 50
189.5940682268599
 51
270.0
  0
LINE
  5
EF7C8955A
330
EF7C85532
100
AcDbEntity
  8
JISSEN
100
AcDbLine
 10
97.24759648376068
 20
135.8305514783233
 30
0.0
 11
100.3637437436334
 21
138.9466987381961
 31
0.0
  0
ARC
  5
EF7C8955B
330
EF7C85532
100
AcDbEntity
  8
JISSEN
100
AcDbCircle
 10
96.89580206385279
 20
136.1823458982312
 30
0.0
 40
0.4975124398009951
100
AcDbArc
 50
269.9999999999996
 51
315.0
  0
LINE
  5
EF7C8955C
330
EF7C85532
100
AcDbEntity
  8
JISSEN
100
AcDbLine
 10
102.105037282937
 20
139.6649329768382
 30
0.0
 11
104.0950870421408
 21
148.6201568932561
 31
0.0
  0
LINE
  5
EF7C8955D
330
EF7C85532
100
AcDbEntity
  8
JISSEN
100
AcDbLine
 10
104.0950870421408
 20
139.6649329768382
 30
0.0
 11
102.105037282937
 21
148.6201568932561
 31
0.0
  0
LINE
  5
EF7C8955E
330
EF7C85532
100
AcDbEntity
  8
JISSEN
100
AcDbLine
 10
102.105037282937
 20
148.6201568932561
 30
0.0
 11
102.105037282937
 21
139.6649329768382
 31
0.0
  0
LINE
  5
EF7C8955F
330
EF7C85532
100
AcDbEntity
  8
JISSEN
100
AcDbLine
 10
104.0950870421408
 20
148.6201568932561
 30
0.0
 11
104.0950870421408
 21
139.6649329768382
 31
0.0
  0
LINE
  5
EF7C89560
330
EF7C85532
100
AcDbEntity
  8
JISSEN
100
AcDbLine
 10
105.8363805814444
 20
137.092011138062
 30
0.0
 11
105.8363805814444
 21
153.5952812912661
 31
0.0
  0
LINE
  5
EF7C89561
330
EF7C85532
100
AcDbEntity
  8
JISSEN
100
AcDbLine
 10
102.105037282937
 20
139.6649329768382
 30
0.0
 11
104.0950870421408
 21
139.6649329768382
 31
0.0
  0
LINE
  5
EF7C89562
330
EF7C85532
100
AcDbEntity
  8
JISSEN
100
AcDbLine
 10
102.6504074730351
 20
136.6600350087945
 30
0.0
 11
104.2334823626208
 21
135.0769601192087
 31
0.0
  0
LINE
  5
EF7C89563
330
EF7C85532
100
AcDbEntity
  8
JISSEN
100
AcDbLine
 10
105.7606388224462
 20
136.7112316018473
 30
0.0
 11
103.5975746023399
 21
137.6072021380993
 31
0.0
  0
LINE
  5
EF7C89564
330
EF7C85532
100
AcDbEntity
  8
JISSEN
100
AcDbLine
 10
102.6025497227379
 20
138.0193549381291
 30
0.0
 11
102.6025497227379
 21
139.6649329768382
 31
0.0
  0
LINE
  5
EF7C89565
330
EF7C85532
100
AcDbEntity
  8
JISSEN
100
AcDbLine
 10
103.5975746023399
 20
137.6072021380993
 30
0.0
 11
103.5975746023399
 21
139.6649329768382
 31
0.0
  0
LINE
  5
EF7C89566
330
EF7C85532
100
AcDbEntity
  8
JISSEN
100
AcDbLine
 10
101.9468186332191
 20
137.3636238486103
 30
0.0
 11
102.6025497227379
 21
138.0193549381291
 31
0.0
  0
LINE
  5
EF7C89567
330
EF7C85532
100
AcDbEntity
  8
JISSEN
100
AcDbLine
 10
102.6504074730351
 20
136.6600350087944
 30
0.0
 11
103.5975746023398
 21
137.6072021380992
 31
0.0
  0
ARC
  5
EF7C89568
330
EF7C85532
100
AcDbEntity
  8
JISSEN
100
AcDbCircle
 10
104.8413557018424
 20
137.092011138062
 30
0.0
 40
0.99502487960199
100
AcDbArc
 50
314.9999999999997
 51
0.0
  0
LINE
  5
EF7C89569
330
EF7C85532
100
AcDbEntity
  8
JISSEN
100
AcDbLine
 10
102.105037282937
 20
148.6201568932561
 30
0.0
 11
104.0950870421408
 21
148.6201568932561
 31
0.0
  0
ARC
  5
EF7C8956A
330
EF7C85532
100
AcDbEntity
  8
JISSEN
100
AcDbCircle
 10
101.6075248431359
 20
149.6151817728581
 30
0.0
 40
0.99502487960199
100
AcDbArc
 50
0.0
 51
90.0
  0
LINE
  5
EF7C8956B
330
EF7C85532
100
AcDbEntity
  8
JISSEN
100
AcDbLine
 10
102.602549722738
 20
148.6201568932561
 30
0.0
 11
102.602549722738
 21
149.6151817728581
 31
0.0
  0
LINE
  5
EF7C8956C
330
EF7C85532
100
AcDbEntity
  8
JISSEN
 48
2.0
100
AcDbLine
 10
102.5132451628534
 20
158.570405689276
 30
0.0
 11
102.125195825059
 21
170.9880581421788
 31
0.0
  0
LINE
  5
EF7C8956D
330
EF7C85532
100
AcDbEntity
  8
SAISEN
 48
2.0
100
AcDbLine
 10
101.3812932023884
 20
157.785898449442
 30
0.0
 11
100.9314229785289
 21
172.181830988709
 31
0.0
  0
LINE
  5
EF7C8956E
330
EF7C85532
100
AcDbEntity
  8
JISSEN
100
AcDbLine
 10
102.8513059426384
 20
156.580355930072
 30
0.0
 11
101.657276087116
 21
156.580355930072
 31
0.0
  0
ARC
  5
EF7C8956F
330
EF7C85532
100
AcDbEntity
  8
JISSEN
100
AcDbCircle
 10
102.3537935028375
 20
157.5753808096741
 30
0.0
 40
0.9950248796020188
100
AcDbArc
 50
90.0
 51
270.0
  0
LINE
  5
EF7C89570
330
EF7C85532
100
AcDbEntity
  8
JISSEN
100
AcDbLine
 10
102.3537935028375
 20
158.570405689276
 30
0.0
 11
102.5132451628534
 21
158.570405689276
 31
0.0
  0
LINE
  5
EF7C89571
330
EF7C85532
100
AcDbEntity
  8
JISSEN
100
AcDbLine
 10
100.6124999635339
 20
172.5007540037039
 30
0.0
 11
102.125195825059
 21
170.9880581421788
 31
0.0
  0
LINE
  5
EF7C89573
330
EF7C85532
100
AcDbEntity
  8
TEXT
100
AcDbLine
 10
111.3905005122548
 20
275.5009095304161
 30
0.0
 11
113.3905005122548
 21
275.5009095304161
 31
0.0
  0
LINE
  5
EF7C89574
330
EF7C85532
100
AcDbEntity
  8
TEXT
100
AcDbLine
 10
111.3905005122548
 20
272.5009095304161
 30
0.0
 11
113.3905005122548
 21
272.5009095304161
 31
0.0
  0
LINE
  5
EF7C89577
330
EF7C85532
100
AcDbEntity
  8
TEXT
100
AcDbLine
 10
111.9905005122548
 20
275.5009095304161
 30
0.0
 11
111.9905005122548
 21
272.5009095304161
 31
0.0
  0
LINE
  5
EF7C89578
330
EF7C85532
100
AcDbEntity
  8
TEXT
100
AcDbLine
 10
112.7905005122548
 20
275.5009095304161
 30
0.0
 11
112.7905005122548
 21
272.5009095304161
 31
0.0
  0
LINE
  5
EF7C89579
330
EF7C85532
100
AcDbEntity
  8
TEXT
100
AcDbLine
 10
160.694266186426
 20
10.84872432068993
 30
0.0
 11
160.694266186426
 21
7.848724320689939
 31
0.0
  0
LINE
  5
EF7C8957A
330
EF7C85532
100
AcDbEntity
  8
TEXT
100
AcDbLine
 10
161.4942661864259
 20
10.84872432068993
 30
0.0
 11
161.4942661864259
 21
7.848724320689939
 31
0.0
  0
LINE
  5
EF7C8957B
330
EF7C85532
100
AcDbEntity
  8
TEXT
100
AcDbLine
 10
160.094266186426
 20
7.848724320689939
 30
0.0
 11
162.094266186426
 21
7.848724320689939
 31
0.0
  0
LINE
  5
EF7C8957C
330
EF7C85532
100
AcDbEntity
  8
TEXT
100
AcDbLine
 10
160.094266186426
 20
10.84872432068993
 30
0.0
 11
162.094266186426
 21
10.84872432068993
 31
0.0
  0
LINE
  5
EF7C897F2
330
EF7C85532
100
AcDbEntity
  8
JISSEN
100
AcDbLine
 10
290.9975113138009
 20
156.595281291266
 30
0.0
 11
296.9975113138009
 21
156.595281291266
 31
0.0
  0
LINE
  5
EF7C897F3
330
EF7C85532
100
AcDbEntity
  8
JISSEN
100
AcDbLine
 10
299.4975113138009
 20
118.595281291266
 30
0.0
 11
271.4975113138009
 21
118.595281291266
 31
0.0
  0
LINE
  5
EF7C897F4
330
EF7C85532
100
AcDbEntity
  8
JISSEN
100
AcDbLine
 10
271.4975113138009
 20
121.595281291266
 30
0.0
 11
299.4975113138009
 21
121.595281291266
 31
0.0
  0
LINE
  5
EF7C897F5
330
EF7C85532
100
AcDbEntity
  8
JISSEN
100
AcDbLine
 10
299.4975113138009
 20
140.595281291266
 30
0.0
 11
271.4975113138009
 21
140.595281291266
 31
0.0
  0
LINE
  5
EF7C897F6
330
EF7C85532
100
AcDbEntity
  8
JISSEN
100
AcDbLine
 10
299.4975113138009
 20
137.595281291266
 30
0.0
 11
271.4975113138009
 21
137.595281291266
 31
0.0
  0
LINE
  5
EF7C897F7
330
EF7C85532
100
AcDbEntity
  8
JISSEN
100
AcDbLine
 10
299.4975113138009
 20
148.595281291266
 30
0.0
 11
271.4975113138009
 21
148.595281291266
 31
0.0
  0
LINE
  5
EF7C897F8
330
EF7C85532
100
AcDbEntity
  8
JISSEN
100
AcDbLine
 10
271.4975113138009
 20
150.595281291266
 30
0.0
 11
299.4975113138009
 21
150.595281291266
 31
0.0
  0
LINE
  5
EF7C897F9
330
EF7C85532
100
AcDbEntity
  8
JISSEN
100
AcDbLine
 10
261.9975113138009
 20
156.595281291266
 30
0.0
 11
261.9975113138009
 21
150.595281291266
 31
0.0
  0
LINE
  5
EF7C897FA
330
EF7C85532
100
AcDbEntity
  8
JISSEN
100
AcDbLine
 10
290.9975113138009
 20
150.595281291266
 30
0.0
 11
290.9975113138009
 21
156.595281291266
 31
0.0
  0
LINE
  5
EF7C897FB
330
EF7C85532
100
AcDbEntity
  8
JISSEN
100
AcDbLine
 10
261.9975113138009
 20
151.5544988130207
 30
0.0
 11
261.9975113138009
 21
157.5753808096741
 31
0.0
  0
LINE
  5
EF7C897FC
330
EF7C85532
100
AcDbEntity
  8
JISSEN
100
AcDbLine
 10
281.002486514199
 20
151.5544988130207
 30
0.0
 11
281.002486514199
 21
157.5753808096741
 31
0.0
  0
LINE
  5
EF7C897FD
330
EF7C85532
100
AcDbEntity
  8
JISSEN
100
AcDbLine
 10
274.2346362640388
 20
156.5803559300722
 30
0.0
 11
274.2346362640388
 21
150.595281291266
 31
0.0
  0
LINE
  5
EF7C897FE
330
EF7C85532
100
AcDbEntity
  8
JISSEN
100
AcDbLine
 10
271.9975113538009
 20
150.595281291266
 30
0.0
 11
271.9975113538009
 21
156.5803559300722
 31
0.0
  0
LINE
  5
EF7C897FF
330
EF7C85532
100
AcDbEntity
  8
JISSEN
100
AcDbLine
 10
271.0024864741989
 20
150.595281291266
 30
0.0
 11
271.002486474199
 21
156.5803559300722
 31
0.0
  0
LINE
  5
EF7C89800
330
EF7C85532
100
AcDbEntity
  8
JISSEN
100
AcDbLine
 10
268.7636804950946
 20
156.5803559300722
 30
0.0
 11
268.7636804950946
 21
150.595281291266
 31
0.0
  0
LINE
  5
EF7C89801
330
EF7C85532
100
AcDbEntity
  8
JISSEN
100
AcDbLine
 10
255.9975113138009
 20
150.595281291266
 30
0.0
 11
255.9975113138009
 21
156.595281291266
 31
0.0
  0
LINE
  5
EF7C89802
330
EF7C85532
100
AcDbEntity
  8
JISSEN
100
AcDbLine
 10
267.519899395592
 20
124.7395597828085
 30
0.0
 11
262.5447749975821
 21
124.7395597828085
 31
0.0
  0
LINE
  5
EF7C89803
330
EF7C85532
100
AcDbEntity
  8
JISSEN
100
AcDbLine
 10
263.0627521643821
 20
123.7445349032064
 30
0.0
 11
267.519899395592
 21
123.7445349032064
 31
0.0
  0
LINE
  5
EF7C89805
330
EF7C85532
100
AcDbEntity
  8
JISSEN
100
AcDbLine
 10
271.4975113138009
 20
107.595281291266
 30
0.0
 11
259.3198423138009
 21
107.595281291266
 31
0.0
  0
LINE
  5
EF7C89806
330
EF7C85532
100
AcDbEntity
  8
JISSEN
100
AcDbLine
 10
271.4975113138009
 20
110.595281291266
 30
0.0
 11
259.3198423138009
 21
110.595281291266
 31
0.0
  0
LINE
  5
EF7C89807
330
EF7C85532
100
AcDbEntity
  8
JISSEN
100
AcDbLine
 10
271.4975113138009
 20
113.595281291266
 30
0.0
 11
259.3198423138009
 21
113.595281291266
 31
0.0
  0
LINE
  5
EF7C89808
330
EF7C85532
100
AcDbEntity
  8
JISSEN
100
AcDbLine
 10
243.4975113138009
 20
148.595281291266
 30
0.0
 11
271.4975113138009
 21
148.595281291266
 31
0.0
  0
LINE
  5
EF7C89809
330
EF7C85532
100
AcDbEntity
  8
JISSEN
100
AcDbLine
 10
271.4975113138009
 20
150.595281291266
 30
0.0
 11
243.4975113138009
 21
150.595281291266
 31
0.0
  0
LINE
  5
EF7C8980A
330
EF7C85532
100
AcDbEntity
  8
JISSEN
100
AcDbLine
 10
271.4975113138009
 20
118.595281291266
 30
0.0
 11
243.4975113138009
 21
118.595281291266
 31
0.0
  0
LINE
  5
EF7C8980B
330
EF7C85532
100
AcDbEntity
  8
JISSEN
100
AcDbLine
 10
243.4975113138009
 20
121.595281291266
 30
0.0
 11
271.4975113138009
 21
121.595281291266
 31
0.0
  0
LINE
  5
EF7C8980C
330
EF7C85532
100
AcDbEntity
  8
JISSEN
100
AcDbLine
 10
271.4975113138009
 20
137.595281291266
 30
0.0
 11
243.4975113138009
 21
137.595281291266
 31
0.0
  0
LINE
  5
EF7C8980D
330
EF7C85532
100
AcDbEntity
  8
JISSEN
100
AcDbLine
 10
271.4975113138009
 20
140.595281291266
 30
0.0
 11
243.4975113138009
 21
140.595281291266
 31
0.0
  0
LINE
  5
EF7C8980E
330
EF7C85532
100
AcDbEntity
  8
JISSEN
100
AcDbLine
 10
266.6009222521513
 20
126.5306129237973
 30
0.0
 11
260.58854803733
 21
126.5306129237973
 31
0.0
  0
ARC
  5
EF7C89812
330
EF7C85532
100
AcDbEntity
  8
JISSEN
100
AcDbCircle
 10
259.3198423138009
 20
117.595281291266
 30
0.0
 40
4.0
100
AcDbArc
 50
180.0
 51
270.0
  0
ARC
  5
EF7C89813
330
EF7C85532
100
AcDbEntity
  8
JISSEN
100
AcDbCircle
 10
259.3198423138009
 20
117.595281291266
 30
0.0
 40
7.0
100
AcDbArc
 50
180.0
 51
270.0
  0
ARC
  5
EF7C89814
330
EF7C85532
100
AcDbEntity
  8
JISSEN
100
AcDbCircle
 10
259.3198423138009
 20
114.595281291266
 30
0.0
 40
7.0
100
AcDbArc
 50
180.0
 51
270.0
  0
ARC
  5
EF7C89816
330
EF7C85532
100
AcDbEntity
  8
JISSEN
100
AcDbCircle
 10
243.4975113138009
 20
120.095281291266
 30
0.0
 40
1.5
100
AcDbArc
 50
90.0
 51
270.0
  0
ARC
  5
EF7C89817
330
EF7C85532
100
AcDbEntity
  8
JISSEN
100
AcDbCircle
 10
243.4975113138009
 20
139.095281291266
 30
0.0
 40
1.5
100
AcDbArc
 50
90.0
 51
270.0
  0
LINE
  5
EF7C89818
330
EF7C85532
100
AcDbEntity
  8
JISSEN
100
AcDbLine
 10
243.4975113138009
 20
150.595281291266
 30
0.0
 11
243.4975113138009
 21
148.595281291266
 31
0.0
  0
LINE
  5
EF7C89819
330
EF7C85532
100
AcDbEntity
  8
JISSEN
100
AcDbLine
 10
255.3198423138009
 20
121.595281291266
 30
0.0
 11
255.3198423138009
 21
137.595281291266
 31
0.0
  0
LINE
  5
EF7C8981A
330
EF7C85532
100
AcDbEntity
  8
JISSEN
100
AcDbLine
 10
252.3198423138009
 20
121.595281291266
 30
0.0
 11
252.3198423138009
 21
137.595281291266
 31
0.0
  0
LINE
  5
EF7C8981B
330
EF7C85532
100
AcDbEntity
  8
JISSEN
100
AcDbLine
 10
255.3198423138009
 20
125.2370722226094
 30
0.0
 11
258.3159192592736
 21
125.2370722226094
 31
0.0
  0
LINE
  5
EF7C8981C
330
EF7C85532
100
AcDbEntity
  8
JISSEN
100
AcDbLine
 10
258.6296493987169
 20
124.2420473430075
 30
0.0
 11
255.3198423138009
 21
124.2420473430075
 31
0.0
  0
LINE
  5
EF7C8981D
330
EF7C85532
100
AcDbEntity
  8
JISSEN
100
AcDbLine
 10
262.2151678524141
 20
123.9340572735008
 30
0.0
 11
255.3198423138009
 21
123.9340572735008
 31
0.0
  0
LINE
  5
EF7C8981E
330
EF7C85532
100
AcDbEntity
  8
JISSEN
100
AcDbLine
 10
255.3198423138009
 20
124.2420473430075
 30
0.0
 11
261.7464579745076
 21
124.2420473430075
 31
0.0
  0
LINE
  5
EF7C8981F
330
EF7C85532
100
AcDbEntity
  8
JISSEN
100
AcDbLine
 10
252.3198423138009
 20
114.595281291266
 30
0.0
 11
252.3198423138009
 21
118.595281291266
 31
0.0
  0
LINE
  5
EF7C89820
330
EF7C85532
100
AcDbEntity
  8
JISSEN
100
AcDbLine
 10
255.3198423138009
 20
117.595281291266
 30
0.0
 11
255.3198423138009
 21
118.595281291266
 31
0.0
  0
ARC
  5
EF7C89821
330
EF7C85532
100
AcDbEntity
  8
JISSEN
100
AcDbCircle
 10
263.0627521643821
 20
125.7345846624104
 30
0.0
 40
1.99004975920398
100
AcDbArc
 50
214.999999999999
 51
270.0
  0
ARC
  5
EF7C89822
330
EF7C85532
100
AcDbEntity
  8
JISSEN
100
AcDbCircle
 10
260.5885480373301
 20
125.1818566994968
 30
0.0
 40
0.3537313446985074
100
AcDbArc
 50
34.99999999999903
 51
125.0000000000009
  0
ARC
  5
EF7C89823
330
EF7C85532
100
AcDbEntity
  8
JISSEN
100
AcDbCircle
 10
260.58854803733
 20
125.1818566994969
 30
0.0
 40
1.348756224300497
100
AcDbArc
 50
34.99999999999903
 51
124.9999999999968
  0
LINE
  5
EF7C89824
330
EF7C85532
100
AcDbEntity
  8
JISSEN
100
AcDbLine
 10
258.3159192592736
 20
125.2370722226094
 30
0.0
 11
259.8149332486896
 21
126.2866931178801
 31
0.0
  0
LINE
  5
EF7C89825
330
EF7C85532
100
AcDbEntity
  8
JISSEN
100
AcDbLine
 10
258.6296493987169
 20
124.2420473430075
 30
0.0
 11
260.3856560732123
 21
125.4716164536357
 31
0.0
  0
LINE
  5
EF7C89826
330
EF7C85532
100
AcDbEntity
  8
JISSEN
100
AcDbLine
 10
261.6933844557133
 20
125.9554714881375
 30
0.0
 11
262.5447749975821
 21
124.7395597828085
 31
0.0
  0
LINE
  5
EF7C89827
330
EF7C85532
100
AcDbEntity
  8
JISSEN
100
AcDbLine
 10
261.4325988358933
 20
124.593139013365
 30
0.0
 11
260.878307791469
 21
125.3847486636146
 31
0.0
  0
LINE
  5
EF7C89828
330
EF7C85532
100
AcDbEntity
  8
JISSEN
100
AcDbLine
 10
255.3198423138009
 20
140.595281291266
 30
0.0
 11
255.3198423138009
 21
148.595281291266
 31
0.0
  0
LINE
  5
EF7C89829
330
EF7C85532
100
AcDbEntity
  8
JISSEN
100
AcDbLine
 10
252.3198423138009
 20
140.595281291266
 30
0.0
 11
252.3198423138009
 21
148.595281291266
 31
0.0
  0
ARC
  5
EF7C8982A
330
EF7C85532
100
AcDbEntity
  8
JISSEN
100
AcDbCircle
 10
253.8198423138009
 20
145.370281291266
 30
0.0
 40
6.025
100
AcDbArc
 50
68.81140800000081
 51
119.8628339999991
  0
ARC
  5
EF7C8982B
330
EF7C85532
100
AcDbEntity
  8
JISSEN
100
AcDbCircle
 10
262.9925361934029
 20
151.5544988130207
 30
0.0
 40
0.99502487960199
100
AcDbArc
 50
180.0
 51
254.5823611510043
  0
LINE
  5
EF7C8982C
330
EF7C85532
100
AcDbEntity
  8
JISSEN
100
AcDbLine
 10
263.9975113138009
 20
150.595281291266
 30
0.0
 11
263.9975113138009
 21
148.595281291266
 31
0.0
  0
ARC
  5
EF7C8982D
330
EF7C85532
100
AcDbEntity
  8
JISSEN
100
AcDbCircle
 10
283.6751813138009
 20
117.595281291266
 30
0.0
 40
4.0
100
AcDbArc
 50
270.0
 51
0.0
  0
ARC
  5
EF7C8982E
330
EF7C85532
100
AcDbEntity
  8
JISSEN
100
AcDbCircle
 10
283.6751813138009
 20
117.595281291266
 30
0.0
 40
7.0
100
AcDbArc
 50
270.0
 51
0.0
  0
ARC
  5
EF7C8982F
330
EF7C85532
100
AcDbEntity
  8
JISSEN
100
AcDbCircle
 10
283.6751813138009
 20
114.595281291266
 30
0.0
 40
7.0
100
AcDbArc
 50
270.0
 51
0.0
  0
LINE
  5
EF7C89832
330
EF7C85532
100
AcDbEntity
  8
JISSEN
100
AcDbLine
 10
283.6751813138009
 20
110.595281291266
 30
0.0
 11
271.4975113138009
 21
110.595281291266
 31
0.0
  0
LINE
  5
EF7C89833
330
EF7C85532
100
AcDbEntity
  8
JISSEN
100
AcDbLine
 10
283.6751813138009
 20
107.595281291266
 30
0.0
 11
271.4975113138009
 21
107.595281291266
 31
0.0
  0
LINE
  5
EF7C89856
330
EF7C85532
100
AcDbEntity
  8
JISSEN
100
AcDbLine
 10
275.4800984324079
 20
124.7395597828085
 30
0.0
 11
280.455222830418
 21
124.7395597828085
 31
0.0
  0
LINE
  5
EF7C89857
330
EF7C85532
100
AcDbEntity
  8
0
 62
     7
100
AcDbLine
 10
279.9372456636179
 20
123.7445349032064
 30
0.0
 11
275.4800984324079
 21
123.7445349032064
 31
0.0
  0
LINE
  5
EF7C89858
330
EF7C85532
100
AcDbEntity
  8
JISSEN
100
AcDbLine
 10
282.4114497906699
 20
126.5306129237973
 30
0.0
 11
276.3990755758488
 21
126.5306129237973
 31
0.0
  0
LINE
  5
EF7C89859
330
EF7C85532
100
AcDbEntity
  8
JISSEN
100
AcDbLine
 10
283.6751813138009
 20
113.595281291266
 30
0.0
 11
271.4975113138009
 21
113.595281291266
 31
0.0
  0
LINE
  5
EF7C8985A
330
EF7C85532
100
AcDbEntity
  8
JISSEN
100
AcDbLine
 10
266.52487451599
 20
126.2320971022115
 30
0.0
 11
269.1188200911403
 21
136.4143041421924
 31
0.0
  0
LINE
  5
EF7C8985B
330
EF7C85532
100
AcDbEntity
  8
JISSEN
100
AcDbLine
 10
269.7587053746965
 20
131.0452458044895
 30
0.0
 11
269.7587053746965
 21
135.95710705144
 31
0.0
  0
LINE
  5
EF7C8985C
330
EF7C85532
100
AcDbEntity
  8
JISSEN
100
AcDbLine
 10
273.2412924533035
 20
131.0452458044902
 30
0.0
 11
273.2412924533035
 21
135.95710705144
 31
0.0
  0
LINE
  5
EF7C8985D
330
EF7C85532
100
AcDbEntity
  8
JISSEN
100
AcDbLine
 10
276.4751233120099
 20
126.2320971022115
 30
0.0
 11
273.8811777368597
 21
136.4143041421924
 31
0.0
  0
LINE
  5
EF7C8985E
330
EF7C85532
100
AcDbEntity
  8
JISSEN
100
AcDbLine
 10
271.4999989140001
 20
129.0448395705088
 30
0.0
 11
269.012436714995
 21
129.0448395705088
 31
0.0
  0
LINE
  5
EF7C8985F
330
EF7C85532
100
AcDbEntity
  8
JISSEN
100
AcDbLine
 10
268.1645300671754
 20
124.7395597828085
 30
0.0
 11
274.8354677608247
 21
124.7395597828085
 31
0.0
  0
LINE
  5
EF7C89860
330
EF7C85532
100
AcDbEntity
  8
JISSEN
100
AcDbLine
 10
266.5248745159899
 20
123.2470224634055
 30
0.0
 11
271.4999989140001
 21
123.2470224634055
 31
0.0
  0
LINE
  5
EF7C89861
330
EF7C85532
100
AcDbEntity
  8
JISSEN
100
AcDbLine
 10
268.1645300671754
 20
123.2470224634055
 30
0.0
 11
268.1645300671754
 21
124.7395597828085
 31
0.0
  0
LINE
  5
EF7C89862
330
EF7C85532
100
AcDbEntity
  8
0
 62
     7
100
AcDbLine
 10
267.519899395592
 20
123.7445349032064
 30
0.0
 11
267.519899395592
 21
124.2420473430075
 31
0.0
  0
LINE
  5
EF7C89863
330
EF7C85532
100
AcDbEntity
  8
JISSEN
 48
2.0
100
AcDbLine
 10
267.5198993955921
 20
123.7445349032064
 30
0.0
 11
267.5198993955922
 21
124.7395597828085
 31
0.0
  0
LINE
  5
EF7C89864
330
EF7C85532
100
AcDbEntity
  8
0
 62
     7
100
AcDbLine
 10
266.52487451599
 20
123.7445349032064
 30
0.0
 11
267.5198993955921
 21
123.7445349032064
 31
0.0
  0
LINE
  5
EF7C89865
330
EF7C85532
100
AcDbEntity
  8
JISSEN
100
AcDbLine
 10
266.5248745159899
 20
123.7445349032064
 30
0.0
 11
266.5248745159899
 21
123.2470224634055
 31
0.0
  0
LINE
  5
EF7C89866
330
EF7C85532
100
AcDbEntity
  8
JISSEN
100
AcDbLine
 10
266.52487451599
 20
124.7395597828085
 30
0.0
 11
267.5198993955922
 21
124.7395597828085
 31
0.0
  0
LINE
  5
EF7C89867
330
EF7C85532
100
AcDbEntity
  8
JISSEN
100
AcDbLine
 10
266.5248745159899
 20
124.7395597828085
 30
0.0
 11
266.52487451599
 21
126.2320971022115
 31
0.0
  0
ARC
  5
EF7C89868
330
EF7C85532
100
AcDbEntity
  8
JISSEN
100
AcDbCircle
 10
273.1616904629352
 20
131.0452458044896
 30
0.0
 40
3.402985088238805
100
AcDbArc
 50
180.0
 51
216.0037833300042
  0
LINE
  5
EF7C89869
330
EF7C85532
100
AcDbEntity
  8
JISSEN
100
AcDbLine
 10
269.012436714995
 20
124.7395597828085
 30
0.0
 11
269.012436714995
 21
129.0448395705088
 31
0.0
  0
LINE
  5
EF7C8986A
330
EF7C85532
100
AcDbEntity
  8
0
 62
     7
100
AcDbLine
 10
275.4800984324079
 20
123.7445349032064
 30
0.0
 11
275.4800984324079
 21
124.2420473430075
 31
0.0
  0
LINE
  5
EF7C8986B
330
EF7C85532
100
AcDbEntity
  8
JISSEN
 48
2.0
100
AcDbLine
 10
275.4800984324079
 20
123.7445349032064
 30
0.0
 11
275.4800984324077
 21
124.7395597828085
 31
0.0
  0
LINE
  5
EF7C8986C
330
EF7C85532
100
AcDbEntity
  8
JISSEN
100
AcDbLine
 10
274.8354677608247
 20
123.2470224634055
 30
0.0
 11
274.8354677608247
 21
124.7395597828085
 31
0.0
  0
LINE
  5
EF7C8986D
330
EF7C85532
100
AcDbEntity
  8
JISSEN
100
AcDbLine
 10
276.47512331201
 20
123.2470224634055
 30
0.0
 11
271.4999989140001
 21
123.2470224634055
 31
0.0
  0
LINE
  5
EF7C8986E
330
EF7C85532
100
AcDbEntity
  8
JISSEN
100
AcDbLine
 10
275.4800984324079
 20
123.2470224634055
 30
0.0
 11
271.4999989140001
 21
123.2470224634055
 31
0.0
  0
LINE
  5
EF7C8986F
330
EF7C85532
100
AcDbEntity
  8
JISSEN
100
AcDbLine
 10
276.47512331201
 20
123.7445349032064
 30
0.0
 11
276.47512331201
 21
123.2470224634055
 31
0.0
  0
ARC
  5
EF7C89870
330
EF7C85532
100
AcDbEntity
  8
JISSEN
100
AcDbCircle
 10
269.8383073650648
 20
131.0452458044896
 30
0.0
 40
3.402985088238805
100
AcDbArc
 50
323.9962166699957
 51
0.0000000000113991
  0
LINE
  5
EF7C89871
330
EF7C85532
100
AcDbEntity
  8
JISSEN
100
AcDbLine
 10
271.4999989140001
 20
129.0448395705088
 30
0.0
 11
273.9875611130049
 21
129.0448395705088
 31
0.0
  0
LINE
  5
EF7C89872
330
EF7C85532
100
AcDbEntity
  8
JISSEN
100
AcDbLine
 10
273.9875611130049
 20
124.7395597828085
 30
0.0
 11
273.9875611130049
 21
129.0448395705088
 31
0.0
  0
LINE
  5
EF7C89873
330
EF7C85532
100
AcDbEntity
  8
JISSEN
100
AcDbLine
 10
275.4800984324077
 20
124.7395597828085
 30
0.0
 11
276.4751233120099
 21
124.7395597828085
 31
0.0
  0
LINE
  5
EF7C89874
330
EF7C85532
100
AcDbEntity
  8
JISSEN
100
AcDbLine
 10
275.4800984324079
 20
124.7395597828085
 30
0.0
 11
276.4751233120099
 21
124.7395597828085
 31
0.0
  0
LINE
  5
EF7C89875
330
EF7C85532
100
AcDbEntity
  8
JISSEN
100
AcDbLine
 10
276.4751233120099
 20
124.7395597828085
 30
0.0
 11
276.4751233120099
 21
126.2320971022115
 31
0.0
  0
ARC
  5
EF7C89876
330
EF7C85532
100
AcDbEntity
  8
JISSEN
100
AcDbCircle
 10
271.3189364418604
 20
136.0719849988108
 30
0.0
 40
0.99502487960199
100
AcDbArc
 50
234.7153193448467
 51
270.0
  0
LINE
  5
EF7C89877
330
EF7C85532
100
AcDbEntity
  8
JISSEN
100
AcDbLine
 10
271.795549440167
 20
136.6600350087946
 30
0.0
 11
271.002486474199
 21
136.6600350087946
 31
0.0
  0
LINE
  5
EF7C89878
330
EF7C85532
100
AcDbEntity
  8
JISSEN
100
AcDbLine
 10
269.2611929348955
 20
148.1635057706523
 30
0.0
 11
269.2611929348955
 21
140.595281291266
 31
0.0
  0
LINE
  5
EF7C89879
330
EF7C85532
100
AcDbEntity
  8
JISSEN
100
AcDbLine
 10
269.2611929348955
 20
148.1635057706523
 30
0.0
 11
269.2611929348955
 21
140.595281291266
 31
0.0
  0
LINE
  5
EF7C8987A
330
EF7C85532
100
AcDbEntity
  8
JISSEN
100
AcDbLine
 10
271.002486474199
 20
140.595281291266
 30
0.0
 11
271.0024864741989
 21
148.595281291266
 31
0.0
  0
LINE
  5
EF7C8987B
330
EF7C85532
100
AcDbEntity
  8
JISSEN
100
AcDbLine
 10
269.3724448479732
 20
137.3501716393842
 30
0.0
 11
270.816506792243
 21
136.7387761826383
 31
0.0
  0
LINE
  5
EF7C8987C
330
EF7C85532
100
AcDbEntity
  8
JISSEN
100
AcDbLine
 10
269.1856208785083
 20
136.3626434930462
 30
0.0
 11
270.7441708768056
 21
135.2597540856746
 31
0.0
  0
ARC
  5
EF7C8987D
330
EF7C85532
100
AcDbEntity
  8
JISSEN
100
AcDbCircle
 10
269.7603864435631
 20
137.1748744061824
 30
0.0
 40
0.99502487960199
100
AcDbArc
 50
180.0
 51
234.7153193448465
  0
LINE
  5
EF7C8987E
330
EF7C85532
100
AcDbEntity
  8
JISSEN
100
AcDbLine
 10
268.7653615639612
 20
137.595281291266
 30
0.0
 11
268.7653615639612
 21
137.1748744061826
 31
0.0
  0
ARC
  5
EF7C8987F
330
EF7C85532
100
AcDbEntity
  8
JISSEN
100
AcDbCircle
 10
269.7603864435631
 20
138.2664553451425
 30
0.0
 40
0.99502487960199
100
AcDbArc
 50
222.4176565380103
 51
247.0528861314108
  0
ARC
  5
EF7C89880
330
EF7C85532
100
AcDbEntity
  8
JISSEN
100
AcDbCircle
 10
271.2044483878331
 20
137.6550598883966
 30
0.0
 40
0.99502487960199
100
AcDbArc
 50
247.0528861314108
 51
270.0
  0
LINE
  5
EF7C89881
330
EF7C85532
100
AcDbEntity
  8
JISSEN
100
AcDbLine
 10
271.002486474199
 20
135.0769601192088
 30
0.0
 11
271.002486474199
 21
137.595281291266
 31
0.0
  0
ARC
  5
EF7C89882
330
EF7C85532
100
AcDbEntity
  8
JISSEN
100
AcDbCircle
 10
268.7653615639612
 20
148.1226416133246
 30
0.0
 40
0.4975124398009951
100
AcDbArc
 50
4.711408647062046
 51
71.80618256874389
  0
LINE
  5
EF7C89883
330
EF7C85532
100
AcDbEntity
  8
JISSEN
100
AcDbLine
 10
273.7388048931045
 20
148.1635057706523
 30
0.0
 11
273.7388048931045
 21
140.595281291266
 31
0.0
  0
LINE
  5
EF7C89884
330
EF7C85532
100
AcDbEntity
  8
JISSEN
100
AcDbLine
 10
271.9975113538009
 20
140.595281291266
 30
0.0
 11
271.9975113538009
 21
148.595281291266
 31
0.0
  0
LINE
  5
EF7C89885
330
EF7C85532
100
AcDbEntity
  8
JISSEN
100
AcDbLine
 10
273.6275529800268
 20
137.3501716393842
 30
0.0
 11
272.183491035757
 21
136.7387761826383
 31
0.0
  0
LINE
  5
EF7C89886
330
EF7C85532
100
AcDbEntity
  8
JISSEN
100
AcDbLine
 10
273.8143769494918
 20
136.3626434930462
 30
0.0
 11
272.2558269511943
 21
135.2597540856746
 31
0.0
  0
ARC
  5
EF7C89887
330
EF7C85532
100
AcDbEntity
  8
JISSEN
100
AcDbCircle
 10
271.795549440167
 20
137.6550598883966
 30
0.0
 40
0.99502487960199
100
AcDbArc
 50
270.0
 51
292.9471138685891
  0
ARC
  5
EF7C89888
330
EF7C85532
100
AcDbEntity
  8
JISSEN
100
AcDbCircle
 10
271.6810613861395
 20
136.0719849988108
 30
0.0
 40
0.99502487960199
100
AcDbArc
 50
270.0
 51
305.2846806551532
  0
LINE
  5
EF7C89889
330
EF7C85532
100
AcDbEntity
  8
JISSEN
100
AcDbLine
 10
271.9975113538009
 20
135.1286219038182
 30
0.0
 11
271.9975113538009
 21
137.595281291266
 31
0.0
  0
LINE
  5
EF7C8988A
330
EF7C85532
100
AcDbEntity
  8
JISSEN
100
AcDbLine
 10
271.5853585537711
 20
135.0769601192089
 30
0.0
 11
271.4146392742289
 21
135.0769601192089
 31
0.0
  0
ARC
  5
EF7C8988B
330
EF7C85532
100
AcDbEntity
  8
JISSEN
100
AcDbCircle
 10
273.2396113844369
 20
137.1748744061824
 30
0.0
 40
0.99502487960199
100
AcDbArc
 50
305.2846806551535
 51
0.0
  0
ARC
  5
EF7C8988C
330
EF7C85532
100
AcDbEntity
  8
JISSEN
100
AcDbCircle
 10
271.4999989140001
 20
135.6848334584304
 30
0.0
 40
2.487562199004975
100
AcDbArc
 50
14.29225135214898
 51
14.59291434228357
  0
LINE
  5
EF7C8988D
330
EF7C85532
100
AcDbEntity
  8
JISSEN
100
AcDbLine
 10
274.2346362640388
 20
137.595281291266
 30
0.0
 11
274.2346362640388
 21
137.1748744061826
 31
0.0
  0
ARC
  5
EF7C8988E
330
EF7C85532
100
AcDbEntity
  8
JISSEN
100
AcDbCircle
 10
273.2396113844369
 20
138.2664553451425
 30
0.0
 40
0.99502487960199
100
AcDbArc
 50
292.9471138685891
 51
317.5823434619896
  0
ARC
  5
EF7C8988F
330
EF7C85532
100
AcDbEntity
  8
JISSEN
100
AcDbCircle
 10
274.2346362640388
 20
148.1226416133246
 30
0.0
 40
0.4975124398009951
100
AcDbArc
 50
108.1938174312561
 51
175.2885913529379
  0
LINE
  5
EF7C89890
330
EF7C85532
100
AcDbEntity
  8
JISSEN
100
AcDbLine
 10
290.6751813138009
 20
121.595281291266
 30
0.0
 11
290.6751813138009
 21
137.595281291266
 31
0.0
  0
LINE
  5
EF7C89891
330
EF7C85532
100
AcDbEntity
  8
JISSEN
100
AcDbLine
 10
287.6751813138009
 20
121.595281291266
 30
0.0
 11
287.6751813138009
 21
137.595281291266
 31
0.0
  0
LINE
  5
EF7C89892
330
EF7C85532
100
AcDbEntity
  8
JISSEN
100
AcDbLine
 10
284.6840785687264
 20
125.2370722226094
 30
0.0
 11
287.6751813138009
 21
125.2370722226094
 31
0.0
  0
LINE
  5
EF7C89893
330
EF7C85532
100
AcDbEntity
  8
JISSEN
100
AcDbLine
 10
287.6751813138009
 20
124.2420473430075
 30
0.0
 11
284.3703484292834
 21
124.2420473430075
 31
0.0
  0
LINE
  5
EF7C89894
330
EF7C85532
100
AcDbEntity
  8
JISSEN
100
AcDbLine
 10
287.6751813138009
 20
124.2420473430075
 30
0.0
 11
281.2535398534923
 21
124.2420473430075
 31
0.0
  0
LINE
  5
EF7C89895
330
EF7C85532
100
AcDbEntity
  8
JISSEN
100
AcDbLine
 10
280.7848299755859
 20
123.9340572735008
 30
0.0
 11
287.6751813138009
 21
123.9340572735008
 31
0.0
  0
ARC
  5
EF7C89896
330
EF7C85532
100
AcDbEntity
  8
JISSEN
100
AcDbCircle
 10
279.9372456636179
 20
125.7345846624104
 30
0.0
 40
1.99004975920398
100
AcDbArc
 50
270.0
 51
325.0000000000009
  0
LINE
  5
EF7C89897
330
EF7C85532
100
AcDbEntity
  8
JISSEN
100
AcDbLine
 10
281.5673989921066
 20
124.593139013365
 30
0.0
 11
282.121690036531
 21
125.3847486636146
 31
0.0
  0
ARC
  5
EF7C89898
330
EF7C85532
100
AcDbEntity
  8
JISSEN
100
AcDbCircle
 10
282.4114497906699
 20
125.1818566994969
 30
0.0
 40
1.348756224300497
100
AcDbArc
 50
55.00000000000287
 51
145.0000000000009
  0
LINE
  5
EF7C89899
330
EF7C85532
100
AcDbEntity
  8
JISSEN
100
AcDbLine
 10
281.3066133722867
 20
125.9554714881375
 30
0.0
 11
280.455222830418
 21
124.7395597828085
 31
0.0
  0
LINE
  5
EF7C8989A
330
EF7C85532
100
AcDbEntity
  8
JISSEN
100
AcDbLine
 10
284.6840785687264
 20
125.2370722226094
 30
0.0
 11
283.1850645793105
 21
126.2866931178801
 31
0.0
  0
LINE
  5
EF7C8989B
330
EF7C85532
100
AcDbEntity
  8
JISSEN
100
AcDbLine
 10
284.3703484292831
 20
124.2420473430075
 30
0.0
 11
282.6143417547876
 21
125.4716164536357
 31
0.0
  0
ARC
  5
EF7C8989C
330
EF7C85532
100
AcDbEntity
  8
JISSEN
100
AcDbCircle
 10
282.4114497906699
 20
125.1818566994968
 30
0.0
 40
0.3537313446985074
100
AcDbArc
 50
54.99999999999904
 51
145.0000000000009
  0
LINE
  5
EF7C8989D
330
EF7C85532
100
AcDbEntity
  8
JISSEN
100
AcDbLine
 10
287.6751813138009
 20
117.595281291266
 30
0.0
 11
287.6751813138009
 21
118.595281291266
 31
0.0
  0
LINE
  5
EF7C8989E
330
EF7C85532
100
AcDbEntity
  8
JISSEN
100
AcDbLine
 10
290.6751813138009
 20
114.595281291266
 30
0.0
 11
290.6751813138009
 21
118.595281291266
 31
0.0
  0
LINE
  5
EF7C8989F
330
EF7C85532
100
AcDbEntity
  8
JISSEN
 62
     7
100
AcDbLine
 10
281.499886514199
 20
152.095281291266
 30
0.0
 11
291.002486514199
 21
152.095281291266
 31
0.0
  0
LINE
  5
EF7C898A0
330
EF7C85532
100
AcDbEntity
  8
SAISEN
 62
     4
100
AcDbLine
 10
291.002486514199
 20
154.811138291266
 30
0.0
 11
281.002486514199
 21
154.811138291266
 31
0.0
  0
LINE
  5
EF7C898A1
330
EF7C85532
100
AcDbEntity
  8
JISSEN
 62
     7
100
AcDbLine
 10
291.002486514199
 20
155.095281291266
 30
0.0
 11
281.499886514199
 21
155.095281291266
 31
0.0
  0
LINE
  5
EF7C898A2
330
EF7C85532
100
AcDbEntity
  8
SAISEN
 62
     4
100
AcDbLine
 10
291.002486514199
 20
152.379425291266
 30
0.0
 11
281.002486514199
 21
152.379425291266
 31
0.0
  0
ARC
  5
EF7C898A3
330
EF7C85532
100
AcDbEntity
  8
JISSEN
100
AcDbCircle
 10
280.007461634597
 20
151.5544988130207
 30
0.0
 40
0.99502487960199
100
AcDbArc
 50
285.4176388489956
 51
0.0
  0
LINE
  5
EF7C898A4
330
EF7C85532
100
AcDbEntity
  8
JISSEN
100
AcDbLine
 10
281.499886514199
 20
155.095281291266
 30
0.0
 11
281.002486514199
 21
154.811138291266
 31
0.0
  0
LINE
  5
EF7C898A5
330
EF7C85532
100
AcDbEntity
  8
JISSEN
100
AcDbLine
 10
281.499886514199
 20
152.095281291266
 30
0.0
 11
281.002486514199
 21
152.379425291266
 31
0.0
  0
LINE
  5
EF7C898A6
330
EF7C85532
100
AcDbEntity
  8
JISSEN
100
AcDbLine
 10
281.002486514199
 20
154.811138291266
 30
0.0
 11
281.002486514199
 21
152.379425291266
 31
0.0
  0
LINE
  5
EF7C898A7
330
EF7C85532
100
AcDbEntity
  8
SAISEN
 62
     4
100
AcDbLine
 10
281.499886514199
 20
152.095281291266
 30
0.0
 11
281.499886514199
 21
155.095281291266
 31
0.0
  0
LINE
  5
EF7C898A8
330
EF7C85532
100
AcDbEntity
  8
JISSEN
100
AcDbLine
 10
290.6751813138009
 20
140.595281291266
 30
0.0
 11
290.6751813138009
 21
148.595281291266
 31
0.0
  0
LINE
  5
EF7C898A9
330
EF7C85532
100
AcDbEntity
  8
JISSEN
100
AcDbLine
 10
287.6751813138009
 20
140.595281291266
 30
0.0
 11
287.6751813138009
 21
148.595281291266
 31
0.0
  0
ARC
  5
EF7C898AA
330
EF7C85532
100
AcDbEntity
  8
JISSEN
100
AcDbCircle
 10
289.1751813138009
 20
145.370281291266
 30
0.0
 40
6.025
100
AcDbArc
 50
72.39449400000022
 51
119.8628339999991
  0
LINE
  5
EF7C898AB
330
EF7C85532
100
AcDbEntity
  8
JISSEN
100
AcDbLine
 10
290.9975113138009
 20
150.595281291266
 30
0.0
 11
290.9975113138009
 21
148.595281291266
 31
0.0
  0
LINE
  5
EF7C898AC
330
EF7C85532
100
AcDbEntity
  8
JISSEN
100
AcDbLine
 10
261.2808353559575
 20
170.9880581421788
 30
0.0
 11
271.4999989140001
 21
170.9880581421788
 31
0.0
  0
LINE
  5
EF7C898AD
330
EF7C85532
100
AcDbEntity
  8
JISSEN
100
AcDbLine
 10
262.7935312174825
 20
172.5007540037038
 30
0.0
 11
280.2064666105175
 21
172.5007540037038
 31
0.0
  0
LINE
  5
EF7C898AE
330
EF7C85532
100
AcDbEntity
  8
JISSEN
100
AcDbLine
 10
281.002486514199
 20
156.580355930072
 30
0.0
 11
261.9975113138009
 21
156.5803559300721
 31
0.0
  0
LINE
  5
EF7C898AF
330
EF7C85532
100
AcDbEntity
  8
JISSEN
100
AcDbLine
 10
282.1072118098368
 20
158.570405689276
 30
0.0
 11
261.0522376781791
 21
158.5704056892761
 31
0.0
  0
LINE
  5
EF7C898B0
330
EF7C85532
100
AcDbEntity
  8
JISSEN
100
AcDbLine
 10
255.9975113138009
 20
156.595281291266
 30
0.0
 11
261.9975113138009
 21
156.595281291266
 31
0.0
  0
LINE
  5
EF7C898B1
330
EF7C85532
100
AcDbEntity
  8
SAISEN
 48
2.0
100
AcDbLine
 10
261.9975113138009
 20
156.9146400079311
 30
0.0
 11
262.4746082024877
 21
172.181830988709
 31
0.0
  0
LINE
  5
EF7C898B2
330
EF7C85532
100
AcDbEntity
  8
JISSEN
 48
2.0
100
AcDbLine
 10
260.8927860181631
 20
158.570405689276
 30
0.0
 11
261.2808353559575
 21
170.9880581421788
 31
0.0
  0
LINE
  5
EF7C898B3
330
EF7C85532
100
AcDbEntity
  8
JISSEN
100
AcDbLine
 10
261.9975113138009
 20
157.5753808096741
 30
0.0
 11
261.9975113138009
 21
156.5803559300722
 31
0.0
  0
ARC
  5
EF7C898B4
330
EF7C85532
100
AcDbEntity
  8
JISSEN
100
AcDbCircle
 10
260.9970397492512
 20
157.575380809674
 30
0.0
 40
1.000471564549803
100
AcDbArc
 50
0.0
 51
95.98134164212968
  0
LINE
  5
EF7C898B5
330
EF7C85532
100
AcDbEntity
  8
JISSEN
100
AcDbLine
 10
262.7935312174826
 20
172.5007540037038
 30
0.0
 11
261.2808353559575
 21
170.9880581421788
 31
0.0
  0
LINE
  5
EF7C898B6
330
EF7C85532
100
AcDbEntity
  8
JISSEN
100
AcDbLine
 10
281.7191624720425
 20
170.9880581421788
 30
0.0
 11
271.4999989140001
 21
170.9880581421788
 31
0.0
  0
LINE
  5
EF7C898B7
330
EF7C85532
100
AcDbEntity
  8
SAISEN
 48
2.0
100
AcDbLine
 10
281.002486514199
 20
156.9146400079311
 30
0.0
 11
280.5253896255123
 21
172.181830988709
 31
0.0
  0
LINE
  5
EF7C898B8
330
EF7C85532
100
AcDbEntity
  8
JISSEN
 48
2.0
100
AcDbLine
 10
282.1072118098368
 20
158.570405689276
 30
0.0
 11
281.7191624720425
 21
170.9880581421788
 31
0.0
  0
ARC
  5
EF7C898B9
330
EF7C85532
100
AcDbEntity
  8
JISSEN
100
AcDbCircle
 10
282.0029580787488
 20
157.575380809674
 30
0.0
 40
1.000471564549803
100
AcDbArc
 50
84.01865835787033
 51
180.0
  0
LINE
  5
EF7C898BA
330
EF7C85532
100
AcDbEntity
  8
JISSEN
100
AcDbLine
 10
281.002486514199
 20
157.5753808096741
 30
0.0
 11
281.002486514199
 21
156.5803559300722
 31
0.0
  0
LINE
  5
EF7C898BB
330
EF7C85532
100
AcDbEntity
  8
JISSEN
100
AcDbLine
 10
280.2064666105173
 20
172.5007540037038
 30
0.0
 11
281.7191624720425
 21
170.9880581421788
 31
0.0
  0
LINE
  5
EF7C898BC
330
EF7C85532
100
AcDbEntity
  8
JISSEN
100
AcDbLine
 10
296.9975113138009
 20
156.595281291266
 30
0.0
 11
296.9975113138009
 21
150.595281291266
 31
0.0
  0
ARC
  5
EF7C898BD
330
EF7C85532
100
AcDbEntity
  8
JISSEN
 62
     7
100
AcDbCircle
 10
301.7486525141989
 20
155.204838291266
 30
0.0
 40
0.975
100
AcDbArc
 50
16.18329899999999
 51
87.00000000000093
  0
LINE
  5
EF7C898BE
330
EF7C85532
100
AcDbEntity
  8
JISSEN
 62
     7
100
AcDbLine
 10
301.002486514199
 20
156.220281291266
 30
0.0
 11
301.002486514199
 21
150.970281291266
 31
0.0
  0
ARC
  5
EF7C898C3
330
EF7C85532
100
AcDbEntity
  8
JISSEN
100
AcDbCircle
 10
299.4975113138009
 20
120.095281291266
 30
0.0
 40
1.5
100
AcDbArc
 50
270.0
 51
90.0
  0
LINE
  5
EF7C898C4
330
EF7C85532
100
AcDbEntity
  8
SAISEN
 62
     4
100
AcDbLine
 10
301.002486514199
 20
154.811138291266
 30
0.0
 11
297.002486514199
 21
154.811138291266
 31
0.0
  0
LINE
  5
EF7C898C5
330
EF7C85532
100
AcDbEntity
  8
JISSEN
 62
     7
100
AcDbLine
 10
301.002486514199
 20
155.095281291266
 30
0.0
 11
297.002486514199
 21
155.095281291266
 31
0.0
  0
LINE
  5
EF7C898C6
330
EF7C85532
100
AcDbEntity
  8
SAISEN
 62
     4
100
AcDbLine
 10
301.002486514199
 20
152.379425291266
 30
0.0
 11
297.002486514199
 21
152.379425291266
 31
0.0
  0
LINE
  5
EF7C898C7
330
EF7C85532
100
AcDbEntity
  8
JISSEN
 62
     7
100
AcDbLine
 10
297.002486514199
 20
152.095281291266
 30
0.0
 11
301.002486514199
 21
152.095281291266
 31
0.0
  0
ARC
  5
EF7C898C8
330
EF7C85532
100
AcDbEntity
  8
JISSEN
100
AcDbCircle
 10
299.4975113138009
 20
139.095281291266
 30
0.0
 40
1.5
100
AcDbArc
 50
270.0
 51
90.0
  0
LINE
  5
EF7C898C9
330
EF7C85532
100
AcDbEntity
  8
JISSEN
100
AcDbLine
 10
299.4975113138009
 20
150.595281291266
 30
0.0
 11
299.4975113138009
 21
148.595281291266
 31
0.0
  0
LINE
  5
EF7C898CA
330
EF7C85532
100
AcDbEntity
  8
JISSEN
 62
     7
100
AcDbLine
 10
301.002486514199
 20
150.970281291266
 30
0.0
 11
301.799679514199
 21
151.012060291266
 31
0.0
  0
ARC
  5
EF7C898CB
330
EF7C85532
100
AcDbEntity
  8
JISSEN
 62
     7
100
AcDbCircle
 10
301.7486525141989
 20
151.985724291266
 30
0.0
 40
0.975
100
AcDbArc
 50
272.999999999999
 51
343.816701
  0
ARC
  5
EF7C898CC
330
EF7C85532
100
AcDbEntity
  8
JISSEN
 62
     7
100
AcDbCircle
 10
296.2024865141989
 20
153.595281291266
 30
0.0
 40
6.75
100
AcDbArc
 50
343.816701
 51
16.18329899999999
  0
LINE
  5
EF7C898CD
330
EF7C85532
100
AcDbEntity
  8
JISSEN
 62
     7
100
AcDbLine
 10
301.799679514199
 20
156.178502291266
 30
0.0
 11
301.002486514199
 21
156.220281291266
 31
0.0
  0
INSERT
  5
EF7C898CE
330
EF7C85532
100
AcDbEntity
  8
WAKU
100
AcDbBlockReference
  2
WAKU
 10
180.999999276
 20
0.0
 30
0.0
 41
181.0
 42
283.0
 43
181.0
  0
TEXT
  5
EF7C898D1
330
EF7C85532
100
AcDbEntity
  8
SUNPOU
100
AcDbText
 10
325.084253497779
 20
7.849423898685245
 30
0.0
 40
3.0
  1
XP   ガード取付状態
  7
K
100
AcDbText
  0
LINE
  5
EF7C898D2
330
EF7C85532
100
AcDbEntity
  8
TEXT
100
AcDbLine
 10
333.1172051408646
 20
10.84872432068993
 30
0.0
 11
333.1172051408646
 21
7.848724320689939
 31
0.0
  0
LINE
  5
EF7C898D3
330
EF7C85532
100
AcDbEntity
  8
TEXT
100
AcDbLine
 10
332.3172051408645
 20
10.84872432068993
 30
0.0
 11
332.3172051408645
 21
7.848724320689939
 31
0.0
  0
LINE
  5
EF7C898D4
330
EF7C85532
100
AcDbEntity
  8
TEXT
100
AcDbLine
 10
331.7172051408646
 20
7.848724320689939
 30
0.0
 11
333.7172051408646
 21
7.848724320689939
 31
0.0
  0
TEXT
  5
EF7C898D5
330
EF7C85532
100
AcDbEntity
  8
SUNPOU
100
AcDbText
 10
325.084253497779
 20
2.849423898685245
 30
0.0
 40
3.0
  1
尺度　1/1
  7
K
100
AcDbText
  0
LINE
  5
EF7C898D6
330
EF7C85532
100
AcDbEntity
  8
TEXT
100
AcDbLine
 10
331.7172051408646
 20
10.84872432068993
 30
0.0
 11
333.7172051408646
 21
10.84872432068993
 31
0.0
  0
LINE
  5
EF7C89919
330
EF7C85532
100
AcDbEntity
  8
JISSEN
100
AcDbLine
 10
261.0568042863821
 20
167.0577396729268
 30
0.0
 11
234.0179775190236
 21
167.0577396729266
 31
0.0
  0
LINE
  5
EF7C8991A
330
EF7C85532
100
AcDbEntity
  8
JISSEN
100
AcDbLine
 10
234.0179775190239
 20
162.0577396729266
 30
0.0
 11
260.9005464778614
 21
162.0577396729266
 31
0.0
  0
HATCH
  5
EF7C8991B
330
EF7C85532
100
AcDbEntity
  8
JISSEN
 62
     0
100
AcDbHatch
 10
0.0
 20
0.0
 30
0.0
210
0.0
220
0.0
230
1.0
  2
ANSI31
 70
     0
 71
     0
 91
        2
 92
        7
 72
     0
 73
     1
 93
       50
 10
310.3125658431158
 20
165.5949269017062
 10
310.190527417562
 20
165.6610012999504
 10
310.0288382220707
 20
165.7246132872866
 10
309.8537164694636
 20
165.7877327850161
 10
309.6913803725594
 20
165.8523297144439
 10
309.5680481441771
 20
165.9203739968729
 10
309.509937997136
 20
165.9938355536064
 10
309.5324844337704
 20
166.0747718044516
 10
309.6079871144762
 20
166.1655901632344
 10
309.6979619891559
 20
166.2687855422767
 10
309.7639250077237
 20
166.3868528539123
 10
309.767392120086
 20
166.5222870104675
 10
309.6698792761511
 20
166.6775829242696
 10
309.4329024258275
 20
166.8552355076466
 10
309.0179775190239
 20
167.0577396729264
 10
291.5179775190234
 20
167.0577396729265
 10
291.5179775190234
 20
162.0577396729264
 10
309.0179775190232
 20
162.0577396729266
 10
309.4130354544698
 20
162.2166672314151
 10
309.614463923025
 20
162.3558642264996
 10
309.6613323015825
 20
162.4788880322011
 10
309.5927099670367
 20
162.5892960225409
 10
309.4476662962812
 20
162.690645571539
 10
309.265270666212
 20
162.7864940532222
 10
309.0845924537162
 20
162.8803988415958
 10
308.9447010356947
 20
162.975917310696
 10
308.8464983325486
 20
163.1168130114537
 10
308.9008910585427
 20
163.2871495087728
 10
308.9591606029865
 20
163.3964955428492
 10
309.022852485166
 20
163.5069496533002
 10
309.0733582466714
 20
163.6174960955289
 10
309.0920694290959
 20
163.7271191249436
 10
309.0603775740315
 20
163.834802996952
 10
308.9665651029418
 20
163.939814118567
 10
308.8264779567749
 20
164.0425475032247
 10
308.6628529563494
 20
164.1436803159651
 10
308.4984269224886
 20
164.2438897218333
 10
308.3559366760081
 20
164.3438528858666
 10
308.2581190377292
 20
164.4442469731085
 10
308.2277108284712
 20
164.5457491486
 10
308.2874488690537
 20
164.6490365773824
 10
308.4514640835131
 20
164.7544478429667
 10
308.6994638087509
 20
164.8609672027395
 10
309.0025494848844
 20
164.9672403325565
 10
309.3318225520362
 20
165.0719129082761
 10
309.6583844503137
 20
165.1736306057497
 10
309.9533366198471
 20
165.2710391008382
 10
310.1877805007481
 20
165.3627840693954
 10
310.3328175331365
 20
165.447511187278
 10
310.3687352859139
 20
165.5244201712496
 97
        0
 92
        7
 72
     0
 73
     1
 93
       50
 10
251.5179775190234
 20
167.0577396729267
 10
234.0179775190236
 20
167.0577396729266
 10
233.6030526122194
 20
166.8552355076465
 10
233.3660757618957
 20
166.6775829242696
 10
233.2685629179609
 20
166.5222870104674
 10
233.2720300303233
 20
166.3868528539124
 10
233.337993048891
 20
166.2687855422766
 10
233.4279679235734
 20
166.1655901632312
 10
233.5034706042764
 20
166.0747718044516
 10
233.526017040911
 20
165.9938355536065
 10
233.46790689387
 20
165.920373996873
 10
233.3445746654873
 20
165.8523297144441
 10
233.1822385685826
 20
165.7877327850163
 10
233.0071168159753
 20
165.7246132872861
 10
232.8454276204852
 20
165.6610012999506
 10
232.7233891949311
 20
165.5949269017062
 10
232.6672197521332
 20
165.5244201712497
 10
232.7031375049104
 20
165.4475111872779
 10
232.8481745372989
 20
165.3627840693955
 10
233.0826184182009
 20
165.2710391008379
 10
233.37757058773
 20
165.1736306057504
 10
233.7041324860137
 20
165.0719129082761
 10
234.0334055531621
 20
164.9672403325566
 10
234.3364912292962
 20
164.8609672027393
 10
234.5844909545343
 20
164.7544478429667
 10
234.7485061689932
 20
164.6490365773825
 10
234.8082442095759
 20
164.5457491485998
 10
234.7778360003178
 20
164.4442469731085
 10
234.6800183620391
 20
164.3438528858669
 10
234.5375281155588
 20
164.2438897218334
 10
234.3731020816929
 20
164.1436803159642
 10
234.2094770812719
 20
164.0425475032247
 10
234.0693899351052
 20
163.939814118567
 10
233.9755774640153
 20
163.834802996952
 10
233.9438856089511
 20
163.7271191249435
 10
233.9625967913756
 20
163.6174960955287
 10
234.0131025528811
 20
163.5069496532998
 10
234.0767944350598
 20
163.3964955428505
 10
234.1350639795044
 20
163.2871495087727
 10
234.1894567054984
 20
163.1168130114537
 10
234.0912540023522
 20
162.9759173106961
 10
233.9513625843307
 20
162.8803988415959
 10
233.7706843718393
 20
162.7864940532182
 10
233.5882887417658
 20
162.6906455715391
 10
233.4432450710104
 20
162.5892960225409
 10
233.3746227364645
 20
162.4788880322012
 10
233.4214911150221
 20
162.3558642264996
 10
233.6229195835773
 20
162.2166672314152
 10
234.0179775190238
 20
162.0577396729266
 10
251.5179775190234
 20
162.0577396729266
 97
        0
 75
     0
 76
     1
 52
0.0
 41
20.0
 77
     0
 78
     1
 53
45.0
 43
213.1584727555785
 44
-544.2967175276188
 45
-1.767766952966368
 46
1.767766952966368
 79
     0
 47
0.1350417537953048
 98
        2
 10
378.0817190395022
 20
164.2419035301765
 10
321.9871273993852
 20
165.7273629303141
  0
POLYLINE
  5
EF7C8991C
330
EF7C85532
100
AcDbEntity
  8
JISSEN
 62
     0
100
AcDb2dPolyline
 66
     1
 10
0.0
 20
0.0
 30
0.0
 70
     4
 75
     6
  0
VERTEX
  5
EF7C8991D
330
EF7C8991C
100
AcDbEntity
  8
JISSEN
 62
     0
100
AcDbVertex
100
AcDb2dVertex
 10
234.0179775190234
 20
167.0577396729266
 30
0.0
 70
    16
  0
VERTEX
  5
EF7C8991E
330
EF7C8991C
100
AcDbEntity
  8
JISSEN
 62
     0
100
AcDbVertex
100
AcDb2dVertex
 10
234.0179775190234
 20
167.0577396729266
 30
0.0
 70
     8
  0
VERTEX
  5
EF7C8991F
330
EF7C8991C
100
AcDbEntity
  8
JISSEN
 62
     0
100
AcDbVertex
100
AcDb2dVertex
 10
233.6030526122196
 20
166.8552355076466
 30
0.0
 70
     8
  0
VERTEX
  5
EF7C89920
330
EF7C8991C
100
AcDbEntity
  8
JISSEN
 62
     0
100
AcDbVertex
100
AcDb2dVertex
 10
233.3660757618957
 20
166.6775829242696
 30
0.0
 70
     8
  0
VERTEX
  5
EF7C89921
330
EF7C8991C
100
AcDbEntity
  8
JISSEN
 62
     0
100
AcDbVertex
100
AcDb2dVertex
 10
233.268562917961
 20
166.5222870104674
 30
0.0
 70
     8
  0
VERTEX
  5
EF7C89922
330
EF7C8991C
100
AcDbEntity
  8
JISSEN
 62
     0
100
AcDbVertex
100
AcDb2dVertex
 10
233.2720300303232
 20
166.3868528539123
 30
0.0
 70
     8
  0
VERTEX
  5
EF7C89923
330
EF7C8991C
100
AcDbEntity
  8
JISSEN
 62
     0
100
AcDbVertex
100
AcDb2dVertex
 10
233.337993048891
 20
166.2687855422767
 30
0.0
 70
     8
  0
VERTEX
  5
EF7C89924
330
EF7C8991C
100
AcDbEntity
  8
JISSEN
 62
     0
100
AcDbVertex
100
AcDb2dVertex
 10
233.4279679235724
 20
166.1655901632324
 30
0.0
 70
     8
  0
VERTEX
  5
EF7C89925
330
EF7C8991C
100
AcDbEntity
  8
JISSEN
 62
     0
100
AcDbVertex
100
AcDb2dVertex
 10
233.5034706042764
 20
166.0747718044516
 30
0.0
 70
     8
  0
VERTEX
  5
EF7C89926
330
EF7C8991C
100
AcDbEntity
  8
JISSEN
 62
     0
100
AcDbVertex
100
AcDb2dVertex
 10
233.5260170409111
 20
165.9938355536064
 30
0.0
 70
     8
  0
VERTEX
  5
EF7C89927
330
EF7C8991C
100
AcDbEntity
  8
JISSEN
 62
     0
100
AcDbVertex
100
AcDb2dVertex
 10
233.46790689387
 20
165.9203739968729
 30
0.0
 70
     8
  0
VERTEX
  5
EF7C89928
330
EF7C8991C
100
AcDbEntity
  8
JISSEN
 62
     0
100
AcDbVertex
100
AcDb2dVertex
 10
233.3445746654873
 20
165.852329714444
 30
0.0
 70
     8
  0
VERTEX
  5
EF7C89929
330
EF7C8991C
100
AcDbEntity
  8
JISSEN
 62
     0
100
AcDbVertex
100
AcDb2dVertex
 10
233.1822385685826
 20
165.7877327850162
 30
0.0
 70
     8
  0
VERTEX
  5
EF7C8992A
330
EF7C8991C
100
AcDbEntity
  8
JISSEN
 62
     0
100
AcDbVertex
100
AcDb2dVertex
 10
233.0071168159755
 20
165.724613287286
 30
0.0
 70
     8
  0
VERTEX
  5
EF7C8992B
330
EF7C8991C
100
AcDbEntity
  8
JISSEN
 62
     0
100
AcDbVertex
100
AcDb2dVertex
 10
232.8454276204851
 20
165.6610012999506
 30
0.0
 70
     8
  0
VERTEX
  5
EF7C8992C
330
EF7C8991C
100
AcDbEntity
  8
JISSEN
 62
     0
100
AcDbVertex
100
AcDb2dVertex
 10
232.7233891949311
 20
165.5949269017062
 30
0.0
 70
     8
  0
VERTEX
  5
EF7C8992D
330
EF7C8991C
100
AcDbEntity
  8
JISSEN
 62
     0
100
AcDbVertex
100
AcDb2dVertex
 10
232.6672197521332
 20
165.5244201712497
 30
0.0
 70
     8
  0
VERTEX
  5
EF7C8992E
330
EF7C8991C
100
AcDbEntity
  8
JISSEN
 62
     0
100
AcDbVertex
100
AcDb2dVertex
 10
232.7031375049104
 20
165.447511187278
 30
0.0
 70
     8
  0
VERTEX
  5
EF7C8992F
330
EF7C8991C
100
AcDbEntity
  8
JISSEN
 62
     0
100
AcDbVertex
100
AcDb2dVertex
 10
232.8481745372988
 20
165.3627840693955
 30
0.0
 70
     8
  0
VERTEX
  5
EF7C89930
330
EF7C8991C
100
AcDbEntity
  8
JISSEN
 62
     0
100
AcDbVertex
100
AcDb2dVertex
 10
233.0826184182
 20
165.2710391008381
 30
0.0
 70
     8
  0
VERTEX
  5
EF7C89931
330
EF7C8991C
100
AcDbEntity
  8
JISSEN
 62
     0
100
AcDbVertex
100
AcDb2dVertex
 10
233.3775705877322
 20
165.17363060575
 30
0.0
 70
     8
  0
VERTEX
  5
EF7C89932
330
EF7C8991C
100
AcDbEntity
  8
JISSEN
 62
     0
100
AcDbVertex
100
AcDb2dVertex
 10
233.7041324860137
 20
165.0719129082749
 30
0.0
 70
     8
  0
VERTEX
  5
EF7C89933
330
EF7C8991C
100
AcDbEntity
  8
JISSEN
 62
     0
100
AcDbVertex
100
AcDb2dVertex
 10
234.0334055531624
 20
164.9672403325566
 30
0.0
 70
     8
  0
VERTEX
  5
EF7C89934
330
EF7C8991C
100
AcDbEntity
  8
JISSEN
 62
     0
100
AcDbVertex
100
AcDb2dVertex
 10
234.3364912292964
 20
164.8609672027394
 30
0.0
 70
     8
  0
VERTEX
  5
EF7C89935
330
EF7C8991C
100
AcDbEntity
  8
JISSEN
 62
     0
100
AcDbVertex
100
AcDb2dVertex
 10
234.584490954534
 20
164.7544478429666
 30
0.0
 70
     8
  0
VERTEX
  5
EF7C89936
330
EF7C8991C
100
AcDbEntity
  8
JISSEN
 62
     0
100
AcDbVertex
100
AcDb2dVertex
 10
234.7485061689932
 20
164.6490365773825
 30
0.0
 70
     8
  0
VERTEX
  5
EF7C89937
330
EF7C8991C
100
AcDbEntity
  8
JISSEN
 62
     0
100
AcDbVertex
100
AcDb2dVertex
 10
234.8082442095759
 20
164.5457491485999
 30
0.0
 70
     8
  0
VERTEX
  5
EF7C89938
330
EF7C8991C
100
AcDbEntity
  8
JISSEN
 62
     0
100
AcDbVertex
100
AcDb2dVertex
 10
234.7778360003179
 20
164.4442469731086
 30
0.0
 70
     8
  0
VERTEX
  5
EF7C89939
330
EF7C8991C
100
AcDbEntity
  8
JISSEN
 62
     0
100
AcDbVertex
100
AcDb2dVertex
 10
234.680018362039
 20
164.3438528858667
 30
0.0
 70
     8
  0
VERTEX
  5
EF7C8993A
330
EF7C8991C
100
AcDbEntity
  8
JISSEN
 62
     0
100
AcDbVertex
100
AcDb2dVertex
 10
234.5375281155585
 20
164.2438897218332
 30
0.0
 70
     8
  0
VERTEX
  5
EF7C8993B
330
EF7C8991C
100
AcDbEntity
  8
JISSEN
 62
     0
100
AcDbVertex
100
AcDb2dVertex
 10
234.3731020816964
 20
164.1436803159663
 30
0.0
 70
     8
  0
VERTEX
  5
EF7C8993C
330
EF7C8991C
100
AcDbEntity
  8
JISSEN
 62
     0
100
AcDbVertex
100
AcDb2dVertex
 10
234.2094770812721
 20
164.0425475032247
 30
0.0
 70
     8
  0
VERTEX
  5
EF7C8993D
330
EF7C8991C
100
AcDbEntity
  8
JISSEN
 62
     0
100
AcDbVertex
100
AcDb2dVertex
 10
234.0693899351052
 20
163.939814118567
 30
0.0
 70
     8
  0
VERTEX
  5
EF7C8993E
330
EF7C8991C
100
AcDbEntity
  8
JISSEN
 62
     0
100
AcDbVertex
100
AcDb2dVertex
 10
233.9755774640153
 20
163.834802996952
 30
0.0
 70
     8
  0
VERTEX
  5
EF7C8993F
330
EF7C8991C
100
AcDbEntity
  8
JISSEN
 62
     0
100
AcDbVertex
100
AcDb2dVertex
 10
233.943885608951
 20
163.7271191249435
 30
0.0
 70
     8
  0
VERTEX
  5
EF7C89940
330
EF7C8991C
100
AcDbEntity
  8
JISSEN
 62
     0
100
AcDbVertex
100
AcDb2dVertex
 10
233.9625967913756
 20
163.6174960955286
 30
0.0
 70
     8
  0
VERTEX
  5
EF7C89941
330
EF7C8991C
100
AcDbEntity
  8
JISSEN
 62
     0
100
AcDbVertex
100
AcDb2dVertex
 10
234.0131025528811
 20
163.5069496533001
 30
0.0
 70
     8
  0
VERTEX
  5
EF7C89942
330
EF7C8991C
100
AcDbEntity
  8
JISSEN
 62
     0
100
AcDbVertex
100
AcDb2dVertex
 10
234.0767944350601
 20
163.3964955428507
 30
0.0
 70
     8
  0
VERTEX
  5
EF7C89943
330
EF7C8991C
100
AcDbEntity
  8
JISSEN
 62
     0
100
AcDbVertex
100
AcDb2dVertex
 10
234.1350639795044
 20
163.2871495087729
 30
0.0
 70
     8
  0
VERTEX
  5
EF7C89944
330
EF7C8991C
100
AcDbEntity
  8
JISSEN
 62
     0
100
AcDbVertex
100
AcDb2dVertex
 10
234.1693027278064
 20
163.1799272956594
 30
0.0
 70
     8
  0
VERTEX
  5
EF7C89945
330
EF7C8991C
100
AcDbEntity
  8
JISSEN
 62
     0
100
AcDbVertex
100
AcDb2dVertex
 10
234.1609022215583
 20
163.075844648103
 30
0.0
 70
     8
  0
VERTEX
  5
EF7C89946
330
EF7C8991C
100
AcDbEntity
  8
JISSEN
 62
     0
100
AcDbVertex
100
AcDb2dVertex
 10
234.0912540023522
 20
162.9759173106961
 30
0.0
 70
     8
  0
VERTEX
  5
EF7C89947
330
EF7C8991C
100
AcDbEntity
  8
JISSEN
 62
     0
100
AcDbVertex
100
AcDb2dVertex
 10
233.9513625843307
 20
162.8803988415959
 30
0.0
 70
     8
  0
VERTEX
  5
EF7C89948
330
EF7C8991C
100
AcDbEntity
  8
JISSEN
 62
     0
100
AcDbVertex
100
AcDb2dVertex
 10
233.7706843718373
 20
162.7864940532172
 30
0.0
 70
     8
  0
VERTEX
  5
EF7C89949
330
EF7C8991C
100
AcDbEntity
  8
JISSEN
 62
     0
100
AcDbVertex
100
AcDb2dVertex
 10
233.5882887417659
 20
162.6906455715392
 30
0.0
 70
     8
  0
VERTEX
  5
EF7C8994A
330
EF7C8991C
100
AcDbEntity
  8
JISSEN
 62
     0
100
AcDbVertex
100
AcDb2dVertex
 10
233.4432450710104
 20
162.5892960225409
 30
0.0
 70
     8
  0
VERTEX
  5
EF7C8994B
330
EF7C8991C
100
AcDbEntity
  8
JISSEN
 62
     0
100
AcDbVertex
100
AcDb2dVertex
 10
233.3746227364644
 20
162.4788880322012
 30
0.0
 70
     8
  0
VERTEX
  5
EF7C8994C
330
EF7C8991C
100
AcDbEntity
  8
JISSEN
 62
     0
100
AcDbVertex
100
AcDb2dVertex
 10
233.4214911150221
 20
162.3558642264996
 30
0.0
 70
     8
  0
VERTEX
  5
EF7C8994D
330
EF7C8991C
100
AcDbEntity
  8
JISSEN
 62
     0
100
AcDbVertex
100
AcDb2dVertex
 10
233.6229195835773
 20
162.2166672314151
 30
0.0
 70
     8
  0
VERTEX
  5
EF7C8994E
330
EF7C8991C
100
AcDbEntity
  8
JISSEN
 62
     0
100
AcDbVertex
100
AcDb2dVertex
 10
234.0179775190234
 20
162.0577396729268
 30
0.0
 70
     8
  0
VERTEX
  5
EF7C8994F
330
EF7C8991C
100
AcDbEntity
  8
JISSEN
 62
     0
100
AcDbVertex
100
AcDb2dVertex
 10
232.6400389810465
 20
166.4823754231291
 30
0.0
 70
    16
  0
VERTEX
  5
EF7C89950
330
EF7C8991C
100
AcDbEntity
  8
JISSEN
 62
     0
100
AcDbVertex
100
AcDb2dVertex
 10
234.5013801786277
 20
165.9150388004576
 30
0.0
 70
    16
  0
VERTEX
  5
EF7C89951
330
EF7C8991C
100
AcDbEntity
  8
JISSEN
 62
     0
100
AcDbVertex
100
AcDb2dVertex
 10
231.4412131486998
 20
165.5368143853437
 30
0.0
 70
    16
  0
VERTEX
  5
EF7C89952
330
EF7C8991C
100
AcDbEntity
  8
JISSEN
 62
     0
100
AcDbVertex
100
AcDb2dVertex
 10
235.9525922560357
 20
164.622770781836
 30
0.0
 70
    16
  0
VERTEX
  5
EF7C89953
330
EF7C8991C
100
AcDbEntity
  8
JISSEN
 62
     0
100
AcDbVertex
100
AcDb2dVertex
 10
233.2394548411176
 20
163.8663219516077
 30
0.0
 70
    16
  0
VERTEX
  5
EF7C89954
330
EF7C8991C
100
AcDbEntity
  8
JISSEN
 62
     0
100
AcDbVertex
100
AcDb2dVertex
 10
234.9430531635868
 20
162.9207593934446
 30
0.0
 70
    16
  0
VERTEX
  5
EF7C89955
330
EF7C8991C
100
AcDbEntity
  8
JISSEN
 62
     0
100
AcDbVertex
100
AcDb2dVertex
 10
232.6715887336282
 20
162.5110160236748
 30
0.0
 70
    16
  0
VERTEX
  5
EF7C89956
330
EF7C8991C
100
AcDbEntity
  8
JISSEN
 62
     0
100
AcDbVertex
100
AcDb2dVertex
 10
234.0179775190234
 20
162.0577396729266
 30
0.0
 70
    16
  0
SEQEND
  5
EF7C89957
330
EF7C8991C
100
AcDbEntity
  8
JISSEN
 62
     0
  0
LINE
  5
EF7C89958
330
EF7C85532
100
AcDbEntity
  8
JISSEN
100
AcDbLine
 10
281.8419841958021
 20
167.0577396729266
 30
0.0
 11
309.0179775190239
 21
167.0577396729264
 31
0.0
  0
LINE
  5
EF7C89959
330
EF7C85532
100
AcDbEntity
  8
JISSEN
100
AcDbLine
 10
281.9982420043228
 20
162.0577396729262
 30
0.0
 11
309.0179775190232
 21
162.0577396729266
 31
0.0
  0
LWPOLYLINE
  5
EF7C8995A
330
EF7C85532
100
AcDbEntity
  8
NITEN
100
AcDbPolyline
 90
       15
 70
     1
 43
0.0
 10
257.4493942410922
 20
162.1113029094278
 42
0.4142135623730927
 10
258.9493942410921
 20
160.6113029094278
 10
282.0434454120887
 20
160.6113029094278
 10
283.9493942410921
 20
160.6113029094278
 42
0.4142135623730925
 10
285.4493942410922
 20
162.1113029094278
 10
285.4493942410922
 20
173.1573189356458
 42
-0.4142135623730943
 10
290.4493942410922
 20
178.1573189356458
 42
0.4142135623730951
 10
292.4493942410922
 20
180.1573189356458
 10
292.4493942410921
 20
200.6113029094279
 42
0.4142135623730948
 10
290.4493942410922
 20
202.6113029094278
 10
252.4493942410921
 20
202.6113029094278
 42
0.4142135623730951
 10
250.4493942410921
 20
200.6113029094279
 10
250.4493942410921
 20
180.1573189356458
 42
0.4142135623730951
 10
252.4493942410921
 20
178.1573189356458
 42
-0.4142135623730961
 10
257.4493942410922
 20
173.1573189356458
  0
LINE
  5
EF7C8995D
330
EF7C85532
100
AcDbEntity
  8
JISSEN
100
AcDbLine
 10
251.5179775190234
 20
162.0577396729266
 30
0.0
 11
251.5179775190234
 21
167.0577396729266
 31
0.0
  0
LINE
  5
EF7C89961
330
EF7C85532
100
AcDbEntity
  8
JISSEN
100
AcDbLine
 10
291.5179775190234
 20
167.0577396729266
 30
0.0
 11
291.5179775190234
 21
162.0577396729268
 31
0.0
  0
LWPOLYLINE
  5
EF7C89963
330
EF7C85532
100
AcDbEntity
  8
NITEN
100
AcDbPolyline
 90
        2
 70
     0
 43
0.0
 10
288.4493942410922
 20
223.4490205605737
 42
0.5882352941176294
 10
271.4493942410921
 20
223.449020560574
 42
0.5882352941176294
  0
LWPOLYLINE
  5
EF7C89964
330
EF7C85532
100
AcDbEntity
  8
NITEN
100
AcDbPolyline
 90
        5
 70
     0
 43
0.0
 10
288.4493942410922
 20
202.6113029094278
 10
288.4493942410922
 20
223.4490205605737
 42
-0.5882352941176475
 10
271.4493942410921
 20
223.4490205605737
 42
0.5882352941176476
 10
254.4493942410921
 20
223.4490205605734
 10
254.4493942410921
 20
202.6113029094278
  0
POLYLINE
  5
EF7C89965
330
EF7C85532
100
AcDbEntity
  8
JISSEN
 62
     0
100
AcDb2dPolyline
 66
     1
 10
0.0
 20
0.0
 30
0.0
 70
     4
 75
     6
  0
VERTEX
  5
EF7C89966
330
EF7C89965
100
AcDbEntity
  8
JISSEN
 62
     0
100
AcDbVertex
100
AcDb2dVertex
 10
309.0179775190234
 20
167.0577396729266
 30
0.0
 70
    16
  0
VERTEX
  5
EF7C89967
330
EF7C89965
100
AcDbEntity
  8
JISSEN
 62
     0
100
AcDbVertex
100
AcDb2dVertex
 10
309.0179775190234
 20
167.0577396729266
 30
0.0
 70
     8
  0
VERTEX
  5
EF7C89968
330
EF7C89965
100
AcDbEntity
  8
JISSEN
 62
     0
100
AcDbVertex
100
AcDb2dVertex
 10
309.4329024258275
 20
166.8552355076466
 30
0.0
 70
     8
  0
VERTEX
  5
EF7C89969
330
EF7C89965
100
AcDbEntity
  8
JISSEN
 62
     0
100
AcDbVertex
100
AcDb2dVertex
 10
309.6698792761511
 20
166.6775829242696
 30
0.0
 70
     8
  0
VERTEX
  5
EF7C8996A
330
EF7C89965
100
AcDbEntity
  8
JISSEN
 62
     0
100
AcDbVertex
100
AcDb2dVertex
 10
309.7673921200861
 20
166.5222870104674
 30
0.0
 70
     8
  0
VERTEX
  5
EF7C8996B
330
EF7C89965
100
AcDbEntity
  8
JISSEN
 62
     0
100
AcDbVertex
100
AcDb2dVertex
 10
309.7639250077237
 20
166.3868528539123
 30
0.0
 70
     8
  0
VERTEX
  5
EF7C8996C
330
EF7C89965
100
AcDbEntity
  8
JISSEN
 62
     0
100
AcDbVertex
100
AcDb2dVertex
 10
309.6979619891561
 20
166.2687855422767
 30
0.0
 70
     8
  0
VERTEX
  5
EF7C8996D
330
EF7C89965
100
AcDbEntity
  8
JISSEN
 62
     0
100
AcDbVertex
100
AcDb2dVertex
 10
309.6079871144744
 20
166.1655901632324
 30
0.0
 70
     8
  0
VERTEX
  5
EF7C8996E
330
EF7C89965
100
AcDbEntity
  8
JISSEN
 62
     0
100
AcDbVertex
100
AcDb2dVertex
 10
309.5324844337704
 20
166.0747718044516
 30
0.0
 70
     8
  0
VERTEX
  5
EF7C8996F
330
EF7C89965
100
AcDbEntity
  8
JISSEN
 62
     0
100
AcDbVertex
100
AcDb2dVertex
 10
309.509937997136
 20
165.9938355536064
 30
0.0
 70
     8
  0
VERTEX
  5
EF7C89970
330
EF7C89965
100
AcDbEntity
  8
JISSEN
 62
     0
100
AcDbVertex
100
AcDb2dVertex
 10
309.5680481441771
 20
165.9203739968729
 30
0.0
 70
     8
  0
VERTEX
  5
EF7C89971
330
EF7C89965
100
AcDbEntity
  8
JISSEN
 62
     0
100
AcDbVertex
100
AcDb2dVertex
 10
309.6913803725598
 20
165.852329714444
 30
0.0
 70
     8
  0
VERTEX
  5
EF7C89972
330
EF7C89965
100
AcDbEntity
  8
JISSEN
 62
     0
100
AcDbVertex
100
AcDb2dVertex
 10
309.8537164694643
 20
165.7877327850162
 30
0.0
 70
     8
  0
VERTEX
  5
EF7C89973
330
EF7C89965
100
AcDbEntity
  8
JISSEN
 62
     0
100
AcDbVertex
100
AcDb2dVertex
 10
310.0288382220716
 20
165.724613287286
 30
0.0
 70
     8
  0
VERTEX
  5
EF7C89974
330
EF7C89965
100
AcDbEntity
  8
JISSEN
 62
     0
100
AcDbVertex
100
AcDb2dVertex
 10
310.1905274175618
 20
165.6610012999506
 30
0.0
 70
     8
  0
VERTEX
  5
EF7C89975
330
EF7C89965
100
AcDbEntity
  8
JISSEN
 62
     0
100
AcDbVertex
100
AcDb2dVertex
 10
310.3125658431157
 20
165.5949269017062
 30
0.0
 70
     8
  0
VERTEX
  5
EF7C89976
330
EF7C89965
100
AcDbEntity
  8
JISSEN
 62
     0
100
AcDbVertex
100
AcDb2dVertex
 10
310.3687352859139
 20
165.5244201712497
 30
0.0
 70
     8
  0
VERTEX
  5
EF7C89977
330
EF7C89965
100
AcDbEntity
  8
JISSEN
 62
     0
100
AcDbVertex
100
AcDb2dVertex
 10
310.3328175331365
 20
165.447511187278
 30
0.0
 70
     8
  0
VERTEX
  5
EF7C89978
330
EF7C89965
100
AcDbEntity
  8
JISSEN
 62
     0
100
AcDbVertex
100
AcDb2dVertex
 10
310.1877805007483
 20
165.3627840693955
 30
0.0
 70
     8
  0
VERTEX
  5
EF7C89979
330
EF7C89965
100
AcDbEntity
  8
JISSEN
 62
     0
100
AcDbVertex
100
AcDb2dVertex
 10
309.9533366198469
 20
165.2710391008381
 30
0.0
 70
     8
  0
VERTEX
  5
EF7C8997A
330
EF7C89965
100
AcDbEntity
  8
JISSEN
 62
     0
100
AcDbVertex
100
AcDb2dVertex
 10
309.6583844503146
 20
165.17363060575
 30
0.0
 70
     8
  0
VERTEX
  5
EF7C8997B
330
EF7C89965
100
AcDbEntity
  8
JISSEN
 62
     0
100
AcDbVertex
100
AcDb2dVertex
 10
309.3318225520332
 20
165.0719129082749
 30
0.0
 70
     8
  0
VERTEX
  5
EF7C8997C
330
EF7C89965
100
AcDbEntity
  8
JISSEN
 62
     0
100
AcDbVertex
100
AcDb2dVertex
 10
309.0025494848847
 20
164.9672403325566
 30
0.0
 70
     8
  0
VERTEX
  5
EF7C8997D
330
EF7C89965
100
AcDbEntity
  8
JISSEN
 62
     0
100
AcDbVertex
100
AcDb2dVertex
 10
308.6994638087504
 20
164.8609672027394
 30
0.0
 70
     8
  0
VERTEX
  5
EF7C8997E
330
EF7C89965
100
AcDbEntity
  8
JISSEN
 62
     0
100
AcDbVertex
100
AcDb2dVertex
 10
308.4514640835131
 20
164.7544478429666
 30
0.0
 70
     8
  0
VERTEX
  5
EF7C8997F
330
EF7C89965
100
AcDbEntity
  8
JISSEN
 62
     0
100
AcDbVertex
100
AcDb2dVertex
 10
308.2874488690537
 20
164.6490365773825
 30
0.0
 70
     8
  0
VERTEX
  5
EF7C89980
330
EF7C89965
100
AcDbEntity
  8
JISSEN
 62
     0
100
AcDbVertex
100
AcDb2dVertex
 10
308.2277108284712
 20
164.5457491485999
 30
0.0
 70
     8
  0
VERTEX
  5
EF7C89981
330
EF7C89965
100
AcDbEntity
  8
JISSEN
 62
     0
100
AcDbVertex
100
AcDb2dVertex
 10
308.2581190377292
 20
164.4442469731086
 30
0.0
 70
     8
  0
VERTEX
  5
EF7C89982
330
EF7C89965
100
AcDbEntity
  8
JISSEN
 62
     0
100
AcDbVertex
100
AcDb2dVertex
 10
308.3559366760081
 20
164.3438528858667
 30
0.0
 70
     8
  0
VERTEX
  5
EF7C89983
330
EF7C89965
100
AcDbEntity
  8
JISSEN
 62
     0
100
AcDbVertex
100
AcDb2dVertex
 10
308.4984269224884
 20
164.2438897218332
 30
0.0
 70
     8
  0
VERTEX
  5
EF7C89984
330
EF7C89965
100
AcDbEntity
  8
JISSEN
 62
     0
100
AcDbVertex
100
AcDb2dVertex
 10
308.6628529563505
 20
164.1436803159663
 30
0.0
 70
     8
  0
VERTEX
  5
EF7C89985
330
EF7C89965
100
AcDbEntity
  8
JISSEN
 62
     0
100
AcDbVertex
100
AcDb2dVertex
 10
308.8264779567749
 20
164.0425475032247
 30
0.0
 70
     8
  0
VERTEX
  5
EF7C89986
330
EF7C89965
100
AcDbEntity
  8
JISSEN
 62
     0
100
AcDbVertex
100
AcDb2dVertex
 10
308.9665651029418
 20
163.939814118567
 30
0.0
 70
     8
  0
VERTEX
  5
EF7C89987
330
EF7C89965
100
AcDbEntity
  8
JISSEN
 62
     0
100
AcDbVertex
100
AcDb2dVertex
 10
309.0603775740315
 20
163.834802996952
 30
0.0
 70
     8
  0
VERTEX
  5
EF7C89988
330
EF7C89965
100
AcDbEntity
  8
JISSEN
 62
     0
100
AcDbVertex
100
AcDb2dVertex
 10
309.0920694290959
 20
163.7271191249435
 30
0.0
 70
     8
  0
VERTEX
  5
EF7C89989
330
EF7C89965
100
AcDbEntity
  8
JISSEN
 62
     0
100
AcDbVertex
100
AcDb2dVertex
 10
309.0733582466713
 20
163.6174960955286
 30
0.0
 70
     8
  0
VERTEX
  5
EF7C8998A
330
EF7C89965
100
AcDbEntity
  8
JISSEN
 62
     0
100
AcDbVertex
100
AcDb2dVertex
 10
309.0228524851657
 20
163.5069496533001
 30
0.0
 70
     8
  0
VERTEX
  5
EF7C8998B
330
EF7C89965
100
AcDbEntity
  8
JISSEN
 62
     0
100
AcDbVertex
100
AcDb2dVertex
 10
308.959160602987
 20
163.3964955428507
 30
0.0
 70
     8
  0
VERTEX
  5
EF7C8998C
330
EF7C89965
100
AcDbEntity
  8
JISSEN
 62
     0
100
AcDbVertex
100
AcDb2dVertex
 10
308.9008910585427
 20
163.2871495087729
 30
0.0
 70
     8
  0
VERTEX
  5
EF7C8998D
330
EF7C89965
100
AcDbEntity
  8
JISSEN
 62
     0
100
AcDbVertex
100
AcDb2dVertex
 10
308.8666523102407
 20
163.1799272956594
 30
0.0
 70
     8
  0
VERTEX
  5
EF7C8998E
330
EF7C89965
100
AcDbEntity
  8
JISSEN
 62
     0
100
AcDbVertex
100
AcDb2dVertex
 10
308.8750528164888
 20
163.075844648103
 30
0.0
 70
     8
  0
VERTEX
  5
EF7C8998F
330
EF7C89965
100
AcDbEntity
  8
JISSEN
 62
     0
100
AcDbVertex
100
AcDb2dVertex
 10
308.9447010356947
 20
162.9759173106961
 30
0.0
 70
     8
  0
VERTEX
  5
EF7C89990
330
EF7C89965
100
AcDbEntity
  8
JISSEN
 62
     0
100
AcDbVertex
100
AcDb2dVertex
 10
309.0845924537162
 20
162.8803988415959
 30
0.0
 70
     8
  0
VERTEX
  5
EF7C89991
330
EF7C89965
100
AcDbEntity
  8
JISSEN
 62
     0
100
AcDbVertex
100
AcDb2dVertex
 10
309.2652706662096
 20
162.7864940532172
 30
0.0
 70
     8
  0
VERTEX
  5
EF7C89992
330
EF7C89965
100
AcDbEntity
  8
JISSEN
 62
     0
100
AcDbVertex
100
AcDb2dVertex
 10
309.4476662962812
 20
162.6906455715392
 30
0.0
 70
     8
  0
VERTEX
  5
EF7C89993
330
EF7C89965
100
AcDbEntity
  8
JISSEN
 62
     0
100
AcDbVertex
100
AcDb2dVertex
 10
309.5927099670367
 20
162.5892960225409
 30
0.0
 70
     8
  0
VERTEX
  5
EF7C89994
330
EF7C89965
100
AcDbEntity
  8
JISSEN
 62
     0
100
AcDbVertex
100
AcDb2dVertex
 10
309.6613323015825
 20
162.4788880322012
 30
0.0
 70
     8
  0
VERTEX
  5
EF7C89995
330
EF7C89965
100
AcDbEntity
  8
JISSEN
 62
     0
100
AcDbVertex
100
AcDb2dVertex
 10
309.614463923025
 20
162.3558642264996
 30
0.0
 70
     8
  0
VERTEX
  5
EF7C89996
330
EF7C89965
100
AcDbEntity
  8
JISSEN
 62
     0
100
AcDbVertex
100
AcDb2dVertex
 10
309.4130354544698
 20
162.2166672314151
 30
0.0
 70
     8
  0
VERTEX
  5
EF7C89997
330
EF7C89965
100
AcDbEntity
  8
JISSEN
 62
     0
100
AcDbVertex
100
AcDb2dVertex
 10
309.0179775190234
 20
162.0577396729268
 30
0.0
 70
     8
  0
VERTEX
  5
EF7C89998
330
EF7C89965
100
AcDbEntity
  8
JISSEN
 62
     0
100
AcDbVertex
100
AcDb2dVertex
 10
310.3959160570005
 20
166.4823754231291
 30
0.0
 70
    16
  0
VERTEX
  5
EF7C89999
330
EF7C89965
100
AcDbEntity
  8
JISSEN
 62
     0
100
AcDbVertex
100
AcDb2dVertex
 10
308.5345748594194
 20
165.9150388004576
 30
0.0
 70
    16
  0
VERTEX
  5
EF7C8999A
330
EF7C89965
100
AcDbEntity
  8
JISSEN
 62
     0
100
AcDbVertex
100
AcDb2dVertex
 10
311.5947418893473
 20
165.5368143853437
 30
0.0
 70
    16
  0
VERTEX
  5
EF7C8999B
330
EF7C89965
100
AcDbEntity
  8
JISSEN
 62
     0
100
AcDbVertex
100
AcDb2dVertex
 10
307.0833627820114
 20
164.622770781836
 30
0.0
 70
    16
  0
VERTEX
  5
EF7C8999C
330
EF7C89965
100
AcDbEntity
  8
JISSEN
 62
     0
100
AcDbVertex
100
AcDb2dVertex
 10
309.7965001969295
 20
163.8663219516077
 30
0.0
 70
    16
  0
VERTEX
  5
EF7C8999D
330
EF7C89965
100
AcDbEntity
  8
JISSEN
 62
     0
100
AcDbVertex
100
AcDb2dVertex
 10
308.0929018744603
 20
162.9207593934446
 30
0.0
 70
    16
  0
VERTEX
  5
EF7C8999E
330
EF7C89965
100
AcDbEntity
  8
JISSEN
 62
     0
100
AcDbVertex
100
AcDb2dVertex
 10
310.3643663044189
 20
162.5110160236748
 30
0.0
 70
    16
  0
VERTEX
  5
EF7C8999F
330
EF7C89965
100
AcDbEntity
  8
JISSEN
 62
     0
100
AcDbVertex
100
AcDb2dVertex
 10
309.0179775190234
 20
162.0577396729266
 30
0.0
 70
    16
  0
SEQEND
  5
EF7C899A0
330
EF7C89965
100
AcDbEntity
  8
JISSEN
 62
     0
  0
ENDSEC
  0
SECTION
  2
OBJECTS
  0
DICTIONARY
  5
EF7C85527
330
0
100
AcDbDictionary
  3
ACAD_GROUP
350
EF7C85528
  3
ACAD_LAYOUT
350
EF7C85BB7
  3
ACAD_MLINESTYLE
350
EF7C85535
  3
ACAD_PLOTSETTINGS
350
EF7C85BB8
  3
ACAD_PLOTSTYLENAME
350
EF7C85BB5
  3
ACDBHEADERROUNDTRIPXREC
350
EF7C899E5
  3
ACDBVARIABLEDICTIONARY
350
EF7C85DB7
  0
DICTIONARY
  5
EF7C85D9A
330
EF7C85532
100
AcDbDictionary
280
     1
  3
ACAD_LAYOUTSELFREF
360
EF7C89A07
  0
DICTIONARY
  5
EF7C85D98
330
EF7C8552F
100
AcDbDictionary
280
     1
  3
ACAD_LAYOUTSELFREF
360
EF7C89A06
  0
DICTIONARY
  5
EF7C85528
102
{ACAD_REACTORS
330
EF7C85527
102
}
330
EF7C85527
100
AcDbDictionary
  0
DICTIONARY
  5
EF7C85BB7
102
{ACAD_REACTORS
330
EF7C85527
102
}
330
EF7C85527
100
AcDbDictionary
  0
DICTIONARY
  5
EF7C85535
102
{ACAD_REACTORS
330
EF7C85527
102
}
330
EF7C85527
100
AcDbDictionary
  3
STANDARD
350
EF7C85536
  0
DICTIONARY
  5
EF7C85BB8
102
{ACAD_REACTORS
330
EF7C85527
102
}
330
EF7C85527
100
AcDbDictionary
  0
ACDBDICTIONARYWDFLT
  5
EF7C85BB5
102
{ACAD_REACTORS
330
EF7C85527
102
}
330
EF7C85527
100
AcDbDictionary
281
     1
  3
Normal
350
EF7C85BB6
100
AcDbDictionaryWithDefault
340
EF7C85BB6
  0
DICTIONARY
  5
EF7C899E5
102
{ACAD_REACTORS
330
EF7C85527
102
}
330
EF7C85527
100
AcDbDictionary
  3
CEPSNTYPE
350
EF7C899EF
  3
DIMSTYLEDATA
350
EF7C899F3
  3
FINGERPRINTGUID
350
EF7C899F0
  3
HYPERLINKBASE
350
EF7C899E8
  3
INSUNITS
350
EF7C899EE
  3
LAYOUTDICT
350
EF7C899EA
  3
LWETCUNION
350
EF7C899ED
  3
PLOTSETDICT
350
EF7C899EB
  3
PLOTSTYLNAMDICT
350
EF7C899EC
  3
PSVPSCALE
350
EF7C899F2
  3
PUCSBASE
350
EF7C899F6
  3
PUCSORGBACK
350
EF7C899FC
  3
PUCSORGBOTTOM
350
EF7C899F8
  3
PUCSORGFRONT
350
EF7C899FB
  3
PUCSORGLEFT
350
EF7C899F9
  3
PUCSORGRIGHT
350
EF7C899FA
  3
PUCSORGTOP
350
EF7C899F7
  3
PUCSORTHOREF
350
EF7C899F4
  3
PUCSORTHOVIEW
350
EF7C899F5
  3
STYLESHEET
350
EF7C899E9
  3
TSTACKALIGN
350
EF7C899E6
  3
TSTACKSIZE
350
EF7C899E7
  3
UCSBASE
350
EF7C899FF
  3
UCSORGBACK
350
EF7C89A05
  3
UCSORGBOTTOM
350
EF7C89A01
  3
UCSORGFRONT
350
EF7C89A04
  3
UCSORGLEFT
350
EF7C89A02
  3
UCSORGRIGHT
350
EF7C89A03
  3
UCSORGTOP
350
EF7C89A00
  3
UCSORTHOREF
350
EF7C899FD
  3
UCSORTHOVIEW
350
EF7C899FE
  3
VERSIONGUID
350
EF7C899F1
  0
DICTIONARY
  5
EF7C85DB7
102
{ACAD_REACTORS
330
EF7C85527
102
}
330
EF7C85527
100
AcDbDictionary
  3
DIMASSOC
350
EF7C899E3
  3
SORTENTS
350
EF7C85DB8
  0
XRECORD
  5
EF7C89A07
102
{ACAD_REACTORS
330
EF7C85D9A
102
}
330
EF7C85D9A
100
AcDbXrecord
340
EF7C85532
  0
XRECORD
  5
EF7C89A06
102
{ACAD_REACTORS
330
EF7C85D98
102
}
330
EF7C85D98
100
AcDbXrecord
340
EF7C8552F
  0
MLINESTYLE
  5
EF7C85536
102
{ACAD_REACTORS
330
EF7C85535
102
}
330
EF7C85535
100
AcDbMlineStyle
  2
STANDARD
 70
     0
  3

 62
   256
 51
90.0
 52
90.0
 71
     2
 49
0.5
 62
   256
  6
BYLAYER
 49
-0.5
 62
   256
  6
BYLAYER
  0
ACDBPLACEHOLDER
  5
EF7C85BB6
102
{ACAD_REACTORS
330
EF7C85BB5
102
}
330
EF7C85BB5
100
AcDbPlaceHolder
280
     0
  0
XRECORD
  5
EF7C899EF
102
{ACAD_REACTORS
330
EF7C899E5
102
}
330
EF7C899E5
100
AcDbXrecord
 90
        0
  0
XRECORD
  5
EF7C899F3
102
{ACAD_REACTORS
330
EF7C899E5
102
}
330
EF7C899E5
100
AcDbXrecord
1000
DSTYLE
1002
{
1070
   279
 70
     2
1070
   341
340
EF7C85537
1070
   342
340
EF7C85537
1070
   343
340
EF7C85543
1070
   344
340
EF7C85543
1002
}
  0
XRECORD
  5
EF7C899F0
102
{ACAD_REACTORS
330
EF7C899E5
102
}
330
EF7C899E5
100
AcDbXrecord
  1
{09AA4C7A-3D6F-4857-A850-771461888CEC}
  0
XRECORD
  5
EF7C899E8
102
{ACAD_REACTORS
330
EF7C899E5
102
}
330
EF7C899E5
100
AcDbXrecord
  1

  0
XRECORD
  5
EF7C899EE
102
{ACAD_REACTORS
330
EF7C899E5
102
}
330
EF7C899E5
100
AcDbXrecord
 90
        0
  0
XRECORD
  5
EF7C899EA
102
{ACAD_REACTORS
330
EF7C899E5
102
}
330
EF7C899E5
100
AcDbXrecord
340
EF7C85BB7
  0
XRECORD
  5
EF7C899ED
102
{ACAD_REACTORS
330
EF7C899E5
102
}
330
EF7C899E5
100
AcDbXrecord
 90
    14877
  0
XRECORD
  5
EF7C899EB
102
{ACAD_REACTORS
330
EF7C899E5
102
}
330
EF7C899E5
100
AcDbXrecord
340
EF7C85BB8
  0
XRECORD
  5
EF7C899EC
102
{ACAD_REACTORS
330
EF7C899E5
102
}
330
EF7C899E5
100
AcDbXrecord
340
EF7C85BB5
  0
XRECORD
  5
EF7C899F2
102
{ACAD_REACTORS
330
EF7C899E5
102
}
330
EF7C899E5
100
AcDbXrecord
 40
0.0
  0
XRECORD
  5
EF7C899F6
102
{ACAD_REACTORS
330
EF7C899E5
102
}
330
EF7C899E5
100
AcDbXrecord
340
0
  0
XRECORD
  5
EF7C899FC
102
{ACAD_REACTORS
330
EF7C899E5
102
}
330
EF7C899E5
100
AcDbXrecord
 10
0.0
 20
0.0
 30
0.0
  0
XRECORD
  5
EF7C899F8
102
{ACAD_REACTORS
330
EF7C899E5
102
}
330
EF7C899E5
100
AcDbXrecord
 10
0.0
 20
0.0
 30
0.0
  0
XRECORD
  5
EF7C899FB
102
{ACAD_REACTORS
330
EF7C899E5
102
}
330
EF7C899E5
100
AcDbXrecord
 10
0.0
 20
0.0
 30
0.0
  0
XRECORD
  5
EF7C899F9
102
{ACAD_REACTORS
330
EF7C899E5
102
}
330
EF7C899E5
100
AcDbXrecord
 10
0.0
 20
0.0
 30
0.0
  0
XRECORD
  5
EF7C899FA
102
{ACAD_REACTORS
330
EF7C899E5
102
}
330
EF7C899E5
100
AcDbXrecord
 10
0.0
 20
0.0
 30
0.0
  0
XRECORD
  5
EF7C899F7
102
{ACAD_REACTORS
330
EF7C899E5
102
}
330
EF7C899E5
100
AcDbXrecord
 10
0.0
 20
0.0
 30
0.0
  0
XRECORD
  5
EF7C899F4
102
{ACAD_REACTORS
330
EF7C899E5
102
}
330
EF7C899E5
100
AcDbXrecord
340
0
  0
XRECORD
  5
EF7C899F5
102
{ACAD_REACTORS
330
EF7C899E5
102
}
330
EF7C899E5
100
AcDbXrecord
 70
     0
  0
XRECORD
  5
EF7C899E9
102
{ACAD_REACTORS
330
EF7C899E5
102
}
330
EF7C899E5
100
AcDbXrecord
  1

  0
XRECORD
  5
EF7C899E6
102
{ACAD_REACTORS
330
EF7C899E5
102
}
330
EF7C899E5
100
AcDbXrecord
 90
        1
  0
XRECORD
  5
EF7C899E7
102
{ACAD_REACTORS
330
EF7C899E5
102
}
330
EF7C899E5
100
AcDbXrecord
 90
       70
  0
XRECORD
  5
EF7C899FF
102
{ACAD_REACTORS
330
EF7C899E5
102
}
330
EF7C899E5
100
AcDbXrecord
340
0
  0
XRECORD
  5
EF7C89A05
102
{ACAD_REACTORS
330
EF7C899E5
102
}
330
EF7C899E5
100
AcDbXrecord
 10
0.0
 20
0.0
 30
0.0
  0
XRECORD
  5
EF7C89A01
102
{ACAD_REACTORS
330
EF7C899E5
102
}
330
EF7C899E5
100
AcDbXrecord
 10
0.0
 20
0.0
 30
0.0
  0
XRECORD
  5
EF7C89A04
102
{ACAD_REACTORS
330
EF7C899E5
102
}
330
EF7C899E5
100
AcDbXrecord
 10
0.0
 20
0.0
 30
0.0
  0
XRECORD
  5
EF7C89A02
102
{ACAD_REACTORS
330
EF7C899E5
102
}
330
EF7C899E5
100
AcDbXrecord
 10
0.0
 20
0.0
 30
0.0
  0
XRECORD
  5
EF7C89A03
102
{ACAD_REACTORS
330
EF7C899E5
102
}
330
EF7C899E5
100
AcDbXrecord
 10
0.0
 20
0.0
 30
0.0
  0
XRECORD
  5
EF7C89A00
102
{ACAD_REACTORS
330
EF7C899E5
102
}
330
EF7C899E5
100
AcDbXrecord
 10
0.0
 20
0.0
 30
0.0
  0
XRECORD
  5
EF7C899FD
102
{ACAD_REACTORS
330
EF7C899E5
102
}
330
EF7C899E5
100
AcDbXrecord
340
0
  0
XRECORD
  5
EF7C899FE
102
{ACAD_REACTORS
330
EF7C899E5
102
}
330
EF7C899E5
100
AcDbXrecord
 70
     0
  0
XRECORD
  5
EF7C899F1
102
{ACAD_REACTORS
330
EF7C899E5
102
}
330
EF7C899E5
100
AcDbXrecord
  1
{56671BF0-A084-436D-A712-9D4C12C52D40}
  0
DICTIONARYVAR
  5
EF7C899E3
102
{ACAD_REACTORS
330
EF7C85DB7
102
}
330
EF7C85DB7
100
DictionaryVariables
280
     0
  1
0
  0
DICTIONARYVAR
  5
EF7C85DB8
102
{ACAD_REACTORS
330
EF7C85DB7
102
}
330
EF7C85DB7
100
DictionaryVariables
280
     0
  1
96
  0
ENDSEC
  0
EOF
