  0
SECTION
  2
HEADER
  9
$ACADVER
  1
AC1014
  9
$ACADMAINTVER
 70
     9
  9
$DWGCODEPAGE
  3
ANSI_932
  9
$INSBASE
 10
0.0
 20
0.0
 30
0.0
  9
$EXTMIN
 10
0.0
 20
0.0
 30
0.0
  9
$EXTMAX
 10
180.999999276
 20
282.9999999999999
 30
0.0
  9
$LIMMIN
 10
0.0
 20
0.0
  9
$LIMMAX
 10
181.0
 20
283.0
  9
$ORTHOMODE
 70
     1
  9
$REGENMODE
 70
     1
  9
$FILLMODE
 70
     1
  9
$QTEXTMODE
 70
     0
  9
$MIRRTEXT
 70
     0
  9
$DRAGMODE
 70
     2
  9
$LTSCALE
 40
5.0
  9
$OSMODE
 70
   167
  9
$ATTMODE
 70
     1
  9
$TEXTSIZE
 40
3.0
  9
$TRACEWID
 40
0.05
  9
$TEXTSTYLE
  7
BIGFONT
  9
$CLAYER
  8
JISSEN
  9
$CELTYPE
  6
BYLAYER
  9
$CECOLOR
 62
   256
  9
$CELTSCALE
 40
1.0
  9
$DELOBJ
 70
     1
  9
$DISPSILH
 70
     0
  9
$DIMSCALE
 40
1.0
  9
$DIMASZ
 40
1.5
  9
$DIMEXO
 40
1.0
  9
$DIMDLI
 40
6.0
  9
$DIMRND
 40
0.0
  9
$DIMDLE
 40
0.0
  9
$DIMEXE
 40
1.0
  9
$DIMTP
 40
0.0
  9
$DIMTM
 40
0.0
  9
$DIMTXT
 40
3.0
  9
$DIMCEN
 40
1.0
  9
$DIMTSZ
 40
0.0
  9
$DIMTOL
 70
     0
  9
$DIMLIM
 70
     0
  9
$DIMTIH
 70
     0
  9
$DIMTOH
 70
     0
  9
$DIMSE1
 70
     0
  9
$DIMSE2
 70
     0
  9
$DIMTAD
 70
     0
  9
$DIMZIN
 70
     8
  9
$DIMBLK
  1
ARROW
  9
$DIMASO
 70
     0
  9
$DIMSHO
 70
     0
  9
$DIMPOST
  1

  9
$DIMAPOST
  1

  9
$DIMALT
 70
     0
  9
$DIMALTD
 70
     2
  9
$DIMALTF
 40
25.4
  9
$DIMLFAC
 40
1.0
  9
$DIMTOFL
 70
     1
  9
$DIMTVP
 40
0.0
  9
$DIMTIX
 70
     0
  9
$DIMSOXD
 70
     0
  9
$DIMSAH
 70
     0
  9
$DIMBLK1
  1
ARROWANG
  9
$DIMBLK2
  1
ARROWANG
  9
$DIMSTYLE
  2
IMAO
  9
$DIMCLRD
 70
     0
  9
$DIMCLRE
 70
     0
  9
$DIMCLRT
 70
     0
  9
$DIMTFAC
 40
1.0
  9
$DIMGAP
 40
0.09
  9
$DIMJUST
 70
     0
  9
$DIMSD1
 70
     0
  9
$DIMSD2
 70
     0
  9
$DIMTOLJ
 70
     1
  9
$DIMTZIN
 70
     8
  9
$DIMALTZ
 70
     8
  9
$DIMALTTZ
 70
     8
  9
$DIMFIT
 70
     5
  9
$DIMUPT
 70
     0
  9
$DIMUNIT
 70
     2
  9
$DIMDEC
 70
     2
  9
$DIMTDEC
 70
     2
  9
$DIMALTU
 70
     2
  9
$DIMALTTD
 70
     2
  9
$DIMTXSTY
  7
BIGFONT
  9
$DIMAUNIT
 70
     0
  9
$LUNITS
 70
     2
  9
$LUPREC
 70
     2
  9
$SKETCHINC
 40
0.1
  9
$FILLETRAD
 40
0.2
  9
$AUNITS
 70
     0
  9
$AUPREC
 70
     2
  9
$MENU
  1
stdr12j
  9
$ELEVATION
 40
0.0
  9
$PELEVATION
 40
0.0
  9
$THICKNESS
 40
0.0
  9
$LIMCHECK
 70
     0
  9
$BLIPMODE
 70
     0
  9
$CHAMFERA
 40
0.0
  9
$CHAMFERB
 40
0.0
  9
$CHAMFERC
 40
0.0
  9
$CHAMFERD
 40
0.0
  9
$SKPOLY
 70
     0
  9
$TDCREATE
 40
2450617.453041203
  9
$TDUPDATE
 40
2453334.734764502
  9
$TDINDWG
 40
0.1924319444
  9
$TDUSRTIMER
 40
0.1924319444
  9
$USRTIMER
 70
     1
  9
$ANGBASE
 50
0.0
  9
$ANGDIR
 70
     0
  9
$PDMODE
 70
     0
  9
$PDSIZE
 40
0.0
  9
$PLINEWID
 40
0.0
  9
$COORDS
 70
     2
  9
$SPLFRAME
 70
     0
  9
$SPLINETYPE
 70
     6
  9
$SPLINESEGS
 70
     8
  9
$ATTDIA
 70
     0
  9
$ATTREQ
 70
     1
  9
$HANDLING
 70
 22529
  9
$HANDSEED
  5
EF7C89C90
  9
$SURFTAB1
 70
     6
  9
$SURFTAB2
 70
     6
  9
$SURFTYPE
 70
     6
  9
$SURFU
 70
     6
  9
$SURFV
 70
     6
  9
$UCSNAME
  2

  9
$UCSORG
 10
0.0
 20
0.0
 30
0.0
  9
$UCSXDIR
 10
1.0
 20
0.0
 30
0.0
  9
$UCSYDIR
 10
0.0
 20
1.0
 30
0.0
  9
$PUCSNAME
  2

  9
$PUCSORG
 10
0.0
 20
0.0
 30
0.0
  9
$PUCSXDIR
 10
1.0
 20
0.0
 30
0.0
  9
$PUCSYDIR
 10
0.0
 20
1.0
 30
0.0
  9
$USERI1
 70
     0
  9
$USERI2
 70
     1
  9
$USERI3
 70
     1
  9
$USERI4
 70
     3
  9
$USERI5
 70
     0
  9
$USERR1
 40
1.0
  9
$USERR2
 40
3.0
  9
$USERR3
 40
3.0
  9
$USERR4
 40
1.5
  9
$USERR5
 40
8.0
  9
$WORLDVIEW
 70
     1
  9
$SHADEDGE
 70
     3
  9
$SHADEDIF
 70
    70
  9
$TILEMODE
 70
     1
  9
$MAXACTVP
 70
    16
  9
$PINSBASE
 10
0.0
 20
0.0
 30
0.0
  9
$PLIMCHECK
 70
     0
  9
$PEXTMIN
 10
1.000000000000000E+20
 20
1.000000000000000E+20
 30
1.000000000000000E+20
  9
$PEXTMAX
 10
-1.000000000000000E+20
 20
-1.000000000000000E+20
 30
-1.000000000000000E+20
  9
$PLIMMIN
 10
0.0
 20
0.0
  9
$PLIMMAX
 10
12.0
 20
9.0
  9
$UNITMODE
 70
     0
  9
$VISRETAIN
 70
     0
  9
$PLINEGEN
 70
     0
  9
$PSLTSCALE
 70
     0
  9
$TREEDEPTH
 70
  3020
  9
$PICKSTYLE
 70
     1
  9
$CMLSTYLE
  2
STANDARD
  9
$CMLJUST
 70
     0
  9
$CMLSCALE
 40
1.0
  9
$PROXYGRAPHICS
 70
     1
  9
$MEASUREMENT
 70
     0
  0
ENDSEC
  0
SECTION
  2
CLASSES
  0
CLASS
  1
LWPOLYLINE
  2
AcDbPolyline
  3
AutoCAD 2000
 90
        0
280
     0
281
     1
  0
CLASS
  1
HATCH
  2
AcDbHatch
  3
AutoCAD 2000
 90
        0
280
     0
281
     1
  0
CLASS
  1
ACDBDICTIONARYWDFLT
  2
AcDbDictionaryWithDefault
  3
AutoCAD 2000
 90
        0
280
     0
281
     0
  0
CLASS
  1
ACDBPLACEHOLDER
  2
AcDbPlaceHolder
  3
AutoCAD 2000
 90
        0
280
     0
281
     0
  0
CLASS
  1
LAYOUT
  2
AcDbLayout
  3
AutoCAD 2000
 90
        0
280
     0
281
     0
  0
CLASS
  1
LONG_TRANSACTION
  2
AcDbLongTransaction
  3
AutoCAD 2000
 90
        0
280
     0
281
     0
  0
CLASS
  1
LWPOLYLINE
  2
AcDbPolyline
  3
AutoCAD 2000
 90
        0
280
     0
281
     1
  0
CLASS
  1
HATCH
  2
AcDbHatch
  3
AutoCAD 2000
 90
        0
280
     0
281
     1
  0
CLASS
  1
XRECORD
  2
AcDbXrecord
  3
AutoCAD 2000
 90
        0
280
     0
281
     0
  0
CLASS
  1
DICTIONARYVAR
  2
AcDbDictionaryVar
  3
AutoCAD 2000
 90
        0
280
     0
281
     0
  0
CLASS
  1
LONG_TRANSACTION
  2
AcDbLongTransaction
  3
AutoCAD 2000
 90
        0
280
     0
281
     0
  0
CLASS
  1
LWPOLYLINE
  2
AcDbPolyline
  3
AutoCAD 2000
 90
        0
280
     0
281
     1
  0
CLASS
  1
HATCH
  2
AcDbHatch
  3
AutoCAD 2000
 90
        0
280
     0
281
     1
  0
CLASS
  1
XRECORD
  2
AcDbXrecord
  3
AutoCAD 2000
 90
        0
280
     0
281
     0
  0
CLASS
  1
LONG_TRANSACTION
  2
AcDbLongTransaction
  3
AutoCAD 2000
 90
        0
280
     0
281
     0
  0
CLASS
  1
LWPOLYLINE
  2
AcDbPolyline
  3
AutoCAD 2000
 90
        0
280
     0
281
     1
  0
CLASS
  1
HATCH
  2
AcDbHatch
  3
AutoCAD 2000
 90
        0
280
     0
281
     1
  0
CLASS
  1
XRECORD
  2
AcDbXrecord
  3
AutoCAD 2000
 90
        0
280
     0
281
     0
  0
CLASS
  1
LONG_TRANSACTION
  2
AcDbLongTransaction
  3
AutoCAD 2000
 90
        0
280
     0
281
     0
  0
CLASS
  1
LWPOLYLINE
  2
AcDbPolyline
  3
AutoCAD 2000
 90
        0
280
     0
281
     1
  0
CLASS
  1
HATCH
  2
AcDbHatch
  3
AutoCAD 2000
 90
        0
280
     0
281
     1
  0
CLASS
  1
XRECORD
  2
AcDbXrecord
  3
AutoCAD 2000
 90
        0
280
     0
281
     0
  0
CLASS
  1
LONG_TRANSACTION
  2
AcDbLongTransaction
  3
AutoCAD 2000
 90
        0
280
     0
281
     0
  0
CLASS
  1
LWPOLYLINE
  2
AcDbPolyline
  3
AutoCAD 2000
 90
        0
280
     0
281
     1
  0
CLASS
  1
HATCH
  2
AcDbHatch
  3
AutoCAD 2000
 90
        0
280
     0
281
     1
  0
CLASS
  1
XRECORD
  2
AcDbXrecord
  3
AutoCAD 2000
 90
        0
280
     0
281
     0
  0
CLASS
  1
LONG_TRANSACTION
  2
AcDbLongTransaction
  3
AutoCAD 2000
 90
        0
280
     0
281
     0
  0
CLASS
  1
LWPOLYLINE
  2
AcDbPolyline
  3
AutoCAD 2000
 90
        0
280
     0
281
     1
  0
CLASS
  1
HATCH
  2
AcDbHatch
  3
AutoCAD 2000
 90
        0
280
     0
281
     1
  0
CLASS
  1
XRECORD
  2
AcDbXrecord
  3
AutoCAD 2000
 90
        0
280
     0
281
     0
  0
CLASS
  1
LONG_TRANSACTION
  2
AcDbLongTransaction
  3
AutoCAD 2000
 90
        0
280
     0
281
     0
  0
CLASS
  1
LWPOLYLINE
  2
AcDbPolyline
  3
AutoCAD 2000
 90
        0
280
     0
281
     1
  0
CLASS
  1
HATCH
  2
AcDbHatch
  3
AutoCAD 2000
 90
        0
280
     0
281
     1
  0
CLASS
  1
XRECORD
  2
AcDbXrecord
  3
AutoCAD 2000
 90
        0
280
     0
281
     0
  0
CLASS
  1
LONG_TRANSACTION
  2
AcDbLongTransaction
  3
AutoCAD 2000
 90
        0
280
     0
281
     0
  0
CLASS
  1
LWPOLYLINE
  2
AcDbPolyline
  3
AutoCAD 2000
 90
        0
280
     0
281
     1
  0
CLASS
  1
HATCH
  2
AcDbHatch
  3
AutoCAD 2000
 90
        0
280
     0
281
     1
  0
CLASS
  1
XRECORD
  2
AcDbXrecord
  3
AutoCAD 2000
 90
        0
280
     0
281
     0
  0
CLASS
  1
LONG_TRANSACTION
  2
AcDbLongTransaction
  3
AutoCAD 2000
 90
        0
280
     0
281
     0
  0
CLASS
  1
LWPOLYLINE
  2
AcDbPolyline
  3
AutoCAD 2000
 90
        0
280
     0
281
     1
  0
CLASS
  1
HATCH
  2
AcDbHatch
  3
AutoCAD 2000
 90
        0
280
     0
281
     1
  0
CLASS
  1
XRECORD
  2
AcDbXrecord
  3
AutoCAD 2000
 90
        0
280
     0
281
     0
  0
CLASS
  1
LONG_TRANSACTION
  2
AcDbLongTransaction
  3
AutoCAD 2000
 90
        0
280
     0
281
     0
  0
CLASS
  1
LWPOLYLINE
  2
AcDbPolyline
  3
AutoCAD 2000
 90
        0
280
     0
281
     1
  0
CLASS
  1
HATCH
  2
AcDbHatch
  3
AutoCAD 2000
 90
        0
280
     0
281
     1
  0
CLASS
  1
XRECORD
  2
AcDbXrecord
  3
AutoCAD 2000
 90
        0
280
     0
281
     0
  0
CLASS
  1
LONG_TRANSACTION
  2
AcDbLongTransaction
  3
AutoCAD 2000
 90
        0
280
     0
281
     0
  0
CLASS
  1
LWPOLYLINE
  2
AcDbPolyline
  3
AutoCAD 2000
 90
        0
280
     0
281
     1
  0
CLASS
  1
HATCH
  2
AcDbHatch
  3
AutoCAD 2000
 90
        0
280
     0
281
     1
  0
CLASS
  1
XRECORD
  2
AcDbXrecord
  3
AutoCAD 2000
 90
        0
280
     0
281
     0
  0
CLASS
  1
LONG_TRANSACTION
  2
AcDbLongTransaction
  3
AutoCAD 2000
 90
        0
280
     0
281
     0
  0
CLASS
  1
LWPOLYLINE
  2
AcDbPolyline
  3
AutoCAD 2000
 90
        0
280
     0
281
     1
  0
CLASS
  1
HATCH
  2
AcDbHatch
  3
AutoCAD 2000
 90
        0
280
     0
281
     1
  0
CLASS
  1
XRECORD
  2
AcDbXrecord
  3
AutoCAD 2000
 90
        0
280
     0
281
     0
  0
CLASS
  1
LONG_TRANSACTION
  2
AcDbLongTransaction
  3
AutoCAD 2000
 90
        0
280
     0
281
     0
  0
CLASS
  1
LWPOLYLINE
  2
AcDbPolyline
  3
AutoCAD 2000
 90
        0
280
     0
281
     1
  0
CLASS
  1
HATCH
  2
AcDbHatch
  3
AutoCAD 2000
 90
        0
280
     0
281
     1
  0
CLASS
  1
XRECORD
  2
AcDbXrecord
  3
AutoCAD 2000
 90
        0
280
     0
281
     0
  0
CLASS
  1
LONG_TRANSACTION
  2
AcDbLongTransaction
  3
AutoCAD 2000
 90
        0
280
     0
281
     0
  0
CLASS
  1
LWPOLYLINE
  2
AcDbPolyline
  3
AutoCAD 2000
 90
        0
280
     0
281
     1
  0
CLASS
  1
HATCH
  2
AcDbHatch
  3
AutoCAD 2000
 90
        0
280
     0
281
     1
  0
CLASS
  1
XRECORD
  2
AcDbXrecord
  3
AutoCAD 2000
 90
        0
280
     0
281
     0
  0
CLASS
  1
LONG_TRANSACTION
  2
AcDbLongTransaction
  3
AutoCAD 2000
 90
        0
280
     0
281
     0
  0
CLASS
  1
LWPOLYLINE
  2
AcDbPolyline
  3
AutoCAD 2000
 90
        0
280
     0
281
     1
  0
CLASS
  1
HATCH
  2
AcDbHatch
  3
AutoCAD 2000
 90
        0
280
     0
281
     1
  0
CLASS
  1
XRECORD
  2
AcDbXrecord
  3
AutoCAD 2000
 90
        0
280
     0
281
     0
  0
CLASS
  1
LONG_TRANSACTION
  2
AcDbLongTransaction
  3
AutoCAD 2000
 90
        0
280
     0
281
     0
  0
CLASS
  1
LWPOLYLINE
  2
AcDbPolyline
  3
AutoCAD 2000
 90
        0
280
     0
281
     1
  0
CLASS
  1
HATCH
  2
AcDbHatch
  3
AutoCAD 2000
 90
        0
280
     0
281
     1
  0
CLASS
  1
XRECORD
  2
AcDbXrecord
  3
AutoCAD 2000
 90
        0
280
     0
281
     0
  0
CLASS
  1
LONG_TRANSACTION
  2
AcDbLongTransaction
  3
AutoCAD 2000
 90
        0
280
     0
281
     0
  0
CLASS
  1
LWPOLYLINE
  2
AcDbPolyline
  3
AutoCAD 2000
 90
        0
280
     0
281
     1
  0
CLASS
  1
HATCH
  2
AcDbHatch
  3
AutoCAD 2000
 90
        0
280
     0
281
     1
  0
CLASS
  1
XRECORD
  2
AcDbXrecord
  3
AutoCAD 2000
 90
        0
280
     0
281
     0
  0
CLASS
  1
LONG_TRANSACTION
  2
AcDbLongTransaction
  3
AutoCAD 2000
 90
        0
280
     0
281
     0
  0
CLASS
  1
LWPOLYLINE
  2
AcDbPolyline
  3
AutoCAD 2000
 90
        0
280
     0
281
     1
  0
CLASS
  1
HATCH
  2
AcDbHatch
  3
AutoCAD 2000
 90
        0
280
     0
281
     1
  0
CLASS
  1
XRECORD
  2
AcDbXrecord
  3
AutoCAD 2000
 90
        0
280
     0
281
     0
  0
CLASS
  1
LONG_TRANSACTION
  2
AcDbLongTransaction
  3
AutoCAD 2000
 90
        0
280
     0
281
     0
  0
CLASS
  1
LWPOLYLINE
  2
AcDbPolyline
  3
AutoCAD 2000
 90
        0
280
     0
281
     1
  0
CLASS
  1
HATCH
  2
AcDbHatch
  3
AutoCAD 2000
 90
        0
280
     0
281
     1
  0
CLASS
  1
XRECORD
  2
AcDbXrecord
  3
AutoCAD 2000
 90
        0
280
     0
281
     0
  0
ENDSEC
  0
SECTION
  2
TABLES
  0
TABLE
  2
VPORT
  5
EF7C85523
330
0
100
AcDbSymbolTable
 70
    10
  0
VPORT
  5
EF7C85567
330
EF7C85523
100
AcDbSymbolTableRecord
100
AcDbViewportTableRecord
  2
2
 70
     0
 10
0.5
 20
0.0
 11
1.0
 21
1.0
 12
0.9240312421264802
 22
1.052650975462766
 13
0.0
 23
0.0
 14
1.0
 24
1.0
 15
10.0
 25
10.0
 16
0.0
 26
0.0
 36
1.0
 17
0.0
 27
0.0
 37
0.0
 40
2.105301950925533
 41
0.8778135048231511
 42
50.0
 43
0.0
 44
0.0
 50
0.0
 51
0.0
 71
     0
 72
   500
 73
     1
 74
     1
 75
     0
 76
     0
 77
     0
 78
     0
  0
VPORT
  5
EF7C85568
330
EF7C85523
100
AcDbSymbolTableRecord
100
AcDbViewportTableRecord
  2
2
 70
     0
 10
0.0
 20
0.0
 11
0.5
 21
1.0
 12
0.9240312421264802
 22
1.052650975462766
 13
0.0
 23
0.0
 14
1.0
 24
1.0
 15
10.0
 25
10.0
 16
0.0
 26
0.0
 36
1.0
 17
0.0
 27
0.0
 37
0.0
 40
2.105301950925533
 41
0.8778135048231511
 42
50.0
 43
0.0
 44
0.0
 50
0.0
 51
0.0
 71
     0
 72
   500
 73
     1
 74
     1
 75
     0
 76
     0
 77
     0
 78
     0
  0
VPORT
  5
EF7C85569
330
EF7C85523
100
AcDbSymbolTableRecord
100
AcDbViewportTableRecord
  2
3
 70
     0
 10
0.0
 20
0.5
 11
1.0
 21
1.0
 12
2.832169994473273
 22
1.052650975462766
 13
0.0
 23
0.0
 14
1.0
 24
1.0
 15
10.0
 25
10.0
 16
0.0
 26
0.0
 36
1.0
 17
0.0
 27
0.0
 37
0.0
 40
2.105301950925533
 41
3.571428571428571
 42
50.0
 43
0.0
 44
0.0
 50
0.0
 51
0.0
 71
     0
 72
   500
 73
     1
 74
     1
 75
     0
 76
     0
 77
     0
 78
     0
  0
VPORT
  5
EF7C8556A
330
EF7C85523
100
AcDbSymbolTableRecord
100
AcDbViewportTableRecord
  2
3
 70
     0
 10
0.0
 20
0.0
 11
1.0
 21
0.5
 12
2.856741679241311
 22
1.052650975462766
 13
0.0
 23
0.0
 14
1.0
 24
1.0
 15
10.0
 25
10.0
 16
0.0
 26
0.0
 36
1.0
 17
0.0
 27
0.0
 37
0.0
 40
2.105301950925533
 41
3.594771241830065
 42
50.0
 43
0.0
 44
0.0
 50
0.0
 51
0.0
 71
     0
 72
   500
 73
     1
 74
     1
 75
     0
 76
     0
 77
     0
 78
     0
  0
VPORT
  5
EF7C8556B
330
EF7C85523
100
AcDbSymbolTableRecord
100
AcDbViewportTableRecord
  2
4
 70
     0
 10
0.5
 20
0.0
 11
1.0
 21
0.5
 12
2.886857516709719
 22
1.052650975462766
 13
0.0
 23
0.0
 14
1.0
 24
1.0
 15
10.0
 25
10.0
 16
0.0
 26
0.0
 36
1.0
 17
0.0
 27
0.0
 37
0.0
 40
4.27520703030907
 41
1.784313725490195
 42
50.0
 43
0.0
 44
0.0
 50
0.0
 51
0.0
 71
     0
 72
   500
 73
     1
 74
     1
 75
     0
 76
     0
 77
     0
 78
     0
  0
VPORT
  5
EF7C8556C
330
EF7C85523
100
AcDbSymbolTableRecord
100
AcDbViewportTableRecord
  2
4
 70
     0
 10
0.5
 20
0.5
 11
1.0
 21
1.0
 12
2.862090274555523
 22
1.052650975462766
 13
0.0
 23
0.0
 14
1.0
 24
1.0
 15
10.0
 25
10.0
 16
0.0
 26
0.0
 36
1.0
 17
0.0
 27
0.0
 37
0.0
 40
4.27520703030907
 41
1.772727272727272
 42
50.0
 43
0.0
 44
0.0
 50
0.0
 51
0.0
 71
     0
 72
   500
 73
     1
 74
     1
 75
     0
 76
     0
 77
     0
 78
     0
  0
VPORT
  5
EF7C8556D
330
EF7C85523
100
AcDbSymbolTableRecord
100
AcDbViewportTableRecord
  2
4
 70
     0
 10
0.0
 20
0.5
 11
0.5
 21
1.0
 12
2.862090274555523
 22
1.052650975462766
 13
0.0
 23
0.0
 14
1.0
 24
1.0
 15
10.0
 25
10.0
 16
0.0
 26
0.0
 36
1.0
 17
0.0
 27
0.0
 37
0.0
 40
4.27520703030907
 41
1.772727272727272
 42
50.0
 43
0.0
 44
0.0
 50
0.0
 51
0.0
 71
     0
 72
   500
 73
     1
 74
     1
 75
     0
 76
     0
 77
     0
 78
     0
  0
VPORT
  5
EF7C8556E
330
EF7C85523
100
AcDbSymbolTableRecord
100
AcDbViewportTableRecord
  2
4
 70
     0
 10
0.0
 20
0.0
 11
0.5
 21
0.5
 12
2.886857516709719
 22
1.052650975462766
 13
0.0
 23
0.0
 14
1.0
 24
1.0
 15
10.0
 25
10.0
 16
0.0
 26
0.0
 36
1.0
 17
0.0
 27
0.0
 37
0.0
 40
4.27520703030907
 41
1.784313725490195
 42
50.0
 43
0.0
 44
0.0
 50
0.0
 51
0.0
 71
     0
 72
   500
 73
     1
 74
     1
 75
     0
 76
     0
 77
     0
 78
     0
  0
VPORT
  5
EF7C89C6C
330
EF7C85523
100
AcDbSymbolTableRecord
100
AcDbViewportTableRecord
  2
*ACTIVE
 70
     0
 10
0.0
 20
0.0
 11
1.0
 21
1.0
 12
172.3374077052801
 22
141.5028227015202
 13
0.0
 23
0.0
 14
1.0
 24
1.0
 15
10.0
 25
10.0
 16
0.0
 26
0.0
 36
1.0
 17
0.0
 27
0.0
 37
0.0
 40
286.2552563097978
 41
1.771962616822429
 42
50.0
 43
0.0
 44
0.0
 50
0.0
 51
0.0
 71
     0
 72
   500
 73
     1
 74
     0
 75
     0
 76
     0
 77
     0
 78
     0
  0
ENDTAB
  0
TABLE
  2
LTYPE
  5
EF7C85520
330
0
100
AcDbSymbolTable
 70
     4
  0
LTYPE
  5
EF7C8552C
330
EF7C85520
100
AcDbSymbolTableRecord
100
AcDbLinetypeTableRecord
  2
BYBLOCK
 70
     0
  3

 72
    65
 73
     0
 40
0.0
  0
LTYPE
  5
EF7C8552D
330
EF7C85520
100
AcDbSymbolTableRecord
100
AcDbLinetypeTableRecord
  2
BYLAYER
 70
     0
  3

 72
    65
 73
     0
 40
0.0
  0
LTYPE
  5
EF7C8552E
330
EF7C85520
100
AcDbSymbolTableRecord
100
AcDbLinetypeTableRecord
  2
CONTINUOUS
 70
     0
  3
実線
 72
    65
 73
     0
 40
0.0
  0
LTYPE
  5
EF7C85565
330
EF7C85520
100
AcDbSymbolTableRecord
100
AcDbLinetypeTableRecord
  2
PHANTOM
 70
     0
  3
_____ _ _ _____ _ _ _____ _ _ _____ _ _ ____
 72
    65
 73
     6
 40
2.5
 49
1.25
 74
     0
 49
-0.25
 74
     0
 49
0.25
 74
     0
 49
-0.25
 74
     0
 49
0.25
 74
     0
 49
-0.25
 74
     0
  0
LTYPE
  5
EF7C8711F
330
EF7C85520
100
AcDbSymbolTableRecord
100
AcDbLinetypeTableRecord
  2
CENTER
 70
     0
  3
____ _ ____ _ ____ _ ____ _ ____ _ ____ _ ____
 72
    65
 73
     4
 40
2.0
 49
1.25
 74
     0
 49
-0.25
 74
     0
 49
0.25
 74
     0
 49
-0.25
 74
     0
  0
LTYPE
  5
EF7C87AC6
330
EF7C85520
100
AcDbSymbolTableRecord
100
AcDbLinetypeTableRecord
  2
HIDDEN
 70
     0
  3
_ _ _ _ _ _ _ _ _ _ _ _ _ _ _ _ _ _ _ _ _ _ _
 72
    65
 73
     2
 40
0.375
 49
0.25
 74
     0
 49
-0.125
 74
     0
  0
ENDTAB
  0
TABLE
  2
LAYER
  5
EF7C8551D
330
0
100
AcDbSymbolTable
 70
    10
  0
LAYER
  5
EF7C85529
330
EF7C8551D
100
AcDbSymbolTableRecord
100
AcDbLayerTableRecord
  2
0
 70
     0
 62
     6
  6
CONTINUOUS
  0
LAYER
  5
EF7C85574
330
EF7C8551D
100
AcDbSymbolTableRecord
100
AcDbLayerTableRecord
  2
NITEN
 70
     0
 62
     2
  6
PHANTOM
  0
LAYER
  5
EF7C85575
330
EF7C8551D
100
AcDbSymbolTableRecord
100
AcDbLayerTableRecord
  2
HATCH
 70
     0
 62
     4
  6
CONTINUOUS
  0
LAYER
  5
EF7C85576
330
EF7C8551D
100
AcDbSymbolTableRecord
100
AcDbLayerTableRecord
  2
SUNPOU
 70
     0
 62
     3
  6
CONTINUOUS
  0
LAYER
  5
EF7C85577
330
EF7C8551D
100
AcDbSymbolTableRecord
100
AcDbLayerTableRecord
  2
TEXT
 70
     0
 62
     3
  6
CONTINUOUS
  0
LAYER
  5
EF7C85578
330
EF7C8551D
100
AcDbSymbolTableRecord
100
AcDbLayerTableRecord
  2
SAISEN
 70
     0
 62
     4
  6
CONTINUOUS
  0
LAYER
  5
EF7C85579
330
EF7C8551D
100
AcDbSymbolTableRecord
100
AcDbLayerTableRecord
  2
JISSEN
 70
     0
 62
     7
  6
CONTINUOUS
  0
LAYER
  5
EF7C8557D
330
EF7C8551D
100
AcDbSymbolTableRecord
100
AcDbLayerTableRecord
  2
WAKU
 70
     0
 62
     5
  6
CONTINUOUS
  0
LAYER
  5
EF7C87120
330
EF7C8551D
100
AcDbSymbolTableRecord
100
AcDbLayerTableRecord
  2
ITTEN
 70
     0
 62
     1
  6
CENTER
  0
LAYER
  5
EF7C87AC7
330
EF7C8551D
100
AcDbSymbolTableRecord
100
AcDbLayerTableRecord
  2
TENSEN
 70
     0
 62
     2
  6
HIDDEN
  0
ENDTAB
  0
TABLE
  2
STYLE
  5
EF7C8551E
330
0
100
AcDbSymbolTable
 70
     3
  0
STYLE
  5
EF7C8552A
330
EF7C8551E
100
AcDbSymbolTableRecord
100
AcDbTextStyleTableRecord
  2
STANDARD
 70
     0
 40
0.0
 41
1.0
 50
0.0
 71
     0
 42
1.5
  3
SIMPLEX
  4

  0
STYLE
  5
EF7C85558
330
EF7C8551E
100
AcDbSymbolTableRecord
100
AcDbTextStyleTableRecord
  2
K
 70
     0
 40
0.0
 41
1.0
 50
0.0
 71
     0
 42
3.0
  3
ROMANS
  4
BIGFONT
  0
STYLE
  5
EF7C8555B
330
EF7C8551E
100
AcDbSymbolTableRecord
100
AcDbTextStyleTableRecord
  2
BIGFONT
 70
     0
 40
0.0
 41
1.0
 50
0.0
 71
     0
 42
3.0
  3
txt.shx
  4
bigfont
  0
ENDTAB
  0
TABLE
  2
VIEW
  5
EF7C85521
330
0
100
AcDbSymbolTable
 70
     0
  0
ENDTAB
  0
TABLE
  2
UCS
  5
EF7C85522
330
0
100
AcDbSymbolTable
 70
     0
  0
ENDTAB
  0
TABLE
  2
APPID
  5
EF7C85524
330
0
100
AcDbSymbolTable
 70
     1
  0
APPID
  5
EF7C8552B
330
EF7C85524
100
AcDbSymbolTableRecord
100
AcDbRegAppTableRecord
  2
ACAD
 70
     0
  0
ENDTAB
  0
TABLE
  2
DIMSTYLE
  5
EF7C85525
330
0
100
AcDbSymbolTable
 70
     1
  0
DIMSTYLE
105
EF7C85571
330
EF7C85525
100
AcDbSymbolTableRecord
100
AcDbDimStyleTableRecord
  2
IMAO
 70
     0
  3

  4

  5
ARROWANG
  6
ARROWANG
  7
ARROWANG
 40
1.0
 41
1.5
 42
1.0
 43
6.0
 44
1.0
 45
0.0
 46
0.0
 47
495.0
 48
0.0
140
3.0
141
0.0
142
0.0
143
25.4
144
1.0
145
0.0
146
1.0
147
0.09
 71
     0
 72
     0
 73
     0
 74
     0
 75
     0
 76
     0
 77
     1
 78
     8
170
     0
171
     2
172
     1
173
     0
174
     1
175
     0
176
     0
177
     0
178
     0
270
     2
271
     2
272
     2
273
     2
274
     2
340
EF7C8555B
275
     0
280
     0
281
     0
282
     0
283
     1
284
     8
285
     8
286
     8
287
     5
288
     0
  0
ENDTAB
  0
TABLE
  2
BLOCK_RECORD
  5
EF7C8551C
330
0
100
AcDbSymbolTable
 70
    10
  0
BLOCK_RECORD
  5
EF7C85532
102
{ACAD_XDICTIONARY
360
EF7C85D9A
102
}
330
EF7C8551C
100
AcDbSymbolTableRecord
100
AcDbBlockTableRecord
  2
*MODEL_SPACE
  0
BLOCK_RECORD
  5
EF7C8552F
102
{ACAD_XDICTIONARY
360
EF7C85D98
102
}
330
EF7C8551C
100
AcDbSymbolTableRecord
100
AcDbBlockTableRecord
  2
*PAPER_SPACE
  0
BLOCK_RECORD
  5
EF7C85537
330
EF7C8551C
100
AcDbSymbolTableRecord
100
AcDbBlockTableRecord
  2
ARROW
  0
BLOCK_RECORD
  5
EF7C8553B
330
EF7C8551C
100
AcDbSymbolTableRecord
100
AcDbBlockTableRecord
  2
WAKU
  0
BLOCK_RECORD
  5
EF7C8553D
330
EF7C8551C
100
AcDbSymbolTableRecord
100
AcDbBlockTableRecord
  2
*X2
  0
BLOCK_RECORD
  5
EF7C8553E
330
EF7C8551C
100
AcDbSymbolTableRecord
100
AcDbBlockTableRecord
  2
STDGX5
  0
BLOCK_RECORD
  5
EF7C8553F
330
EF7C8551C
100
AcDbSymbolTableRecord
100
AcDbBlockTableRecord
  2
*X4
  0
BLOCK_RECORD
  5
EF7C85540
330
EF7C8551C
100
AcDbSymbolTableRecord
100
AcDbBlockTableRecord
  2
*X5
  0
BLOCK_RECORD
  5
EF7C85541
330
EF7C8551C
100
AcDbSymbolTableRecord
100
AcDbBlockTableRecord
  2
*X6
  0
BLOCK_RECORD
  5
EF7C85542
330
EF7C8551C
100
AcDbSymbolTableRecord
100
AcDbBlockTableRecord
  2
*X7
  0
BLOCK_RECORD
  5
EF7C85543
330
EF7C8551C
100
AcDbSymbolTableRecord
100
AcDbBlockTableRecord
  2
ARROWANG
  0
BLOCK_RECORD
  5
EF7C85544
330
EF7C8551C
100
AcDbSymbolTableRecord
100
AcDbBlockTableRecord
  2
STDR12J
  0
ENDTAB
  0
ENDSEC
  0
SECTION
  2
BLOCKS
  0
BLOCK
  5
EF7C85580
330
EF7C85532
100
AcDbEntity
  8
0
100
AcDbBlockBegin
  2
*MODEL_SPACE
 70
     0
 10
0.0
 20
0.0
 30
0.0
  3
*MODEL_SPACE
  1

  0
ENDBLK
  5
EF7C85581
330
EF7C85532
100
AcDbEntity
  8
0
100
AcDbBlockEnd
  0
BLOCK
  5
EF7C8557E
330
EF7C8552F
100
AcDbEntity
 67
     1
  8
0
100
AcDbBlockBegin
  2
*PAPER_SPACE
 70
     0
 10
0.0
 20
0.0
 30
0.0
  3
*PAPER_SPACE
  1

  0
ENDBLK
  5
EF7C8557F
330
EF7C8552F
100
AcDbEntity
 67
     1
  8
0
100
AcDbBlockEnd
  0
BLOCK
  5
499
330
EF7C85537
100
AcDbEntity
  8
0
100
AcDbBlockBegin
  2
ARROW
 70
     0
 10
1.0
 20
0.5
 30
0.0
  3
ARROW
  1

  0
LINE
  5
49A
330
EF7C85537
100
AcDbEntity
  8
0
100
AcDbLine
 10
1.0
 20
0.5
 30
0.0
 11
-0.5000000000000214
 21
0.0980762113533018
 31
0.0
  0
LINE
  5
49B
330
EF7C85537
100
AcDbEntity
  8
0
100
AcDbLine
 10
0.0
 20
0.5
 30
0.0
 11
1.0
 21
0.5
 31
0.0
  0
LINE
  5
49C
330
EF7C85537
100
AcDbEntity
  8
0
100
AcDbLine
 10
1.0
 20
0.5
 30
0.0
 11
-0.4999999999999574
 21
0.9019237886467408
 31
0.0
  0
ENDBLK
  5
49D
330
EF7C85537
100
AcDbEntity
  8
0
100
AcDbBlockEnd
  0
BLOCK
  5
4A7
330
EF7C8553B
100
AcDbEntity
  8
0
100
AcDbBlockBegin
  2
WAKU
 70
     0
 10
0.0
 20
0.0
 30
0.0
  3
WAKU
  1

  0
LINE
  5
4A8
330
EF7C8553B
100
AcDbEntity
  8
WAKU
100
AcDbLine
 10
0.999999996
 20
0.0
 30
0.0
 11
0.999999996
 21
0.9999999999999998
 31
0.0
  0
LINE
  5
4A9
330
EF7C8553B
100
AcDbEntity
  8
WAKU
100
AcDbLine
 10
0.0
 20
0.9999999999999998
 30
0.0
 11
0.999999996
 21
0.9999999999999998
 31
0.0
  0
LINE
  5
4AA
330
EF7C8553B
100
AcDbEntity
  8
WAKU
100
AcDbLine
 10
0.999999996
 20
0.0
 30
0.0
 11
0.0
 21
0.0
 31
0.0
  0
LINE
  5
4AB
330
EF7C8553B
100
AcDbEntity
  8
WAKU
100
AcDbLine
 10
0.0
 20
0.0
 30
0.0
 11
0.0
 21
0.9999999999999998
 31
0.0
  0
ENDBLK
  5
4AC
330
EF7C8553B
100
AcDbEntity
  8
0
100
AcDbBlockEnd
  0
BLOCK
  5
2764
330
EF7C8553D
100
AcDbEntity
  8
0
100
AcDbBlockBegin
  2
*X2
 70
     1
 10
0.0
 20
0.0
 30
0.0
  3
*X2
  1

  0
ENDBLK
  5
2765
330
EF7C8553D
100
AcDbEntity
  8
0
100
AcDbBlockEnd
  0
BLOCK
  5
2766
330
EF7C8553E
100
AcDbEntity
  8
0
100
AcDbBlockBegin
  2
STDGX5
 70
     0
 10
0.0
 20
0.0
 30
0.0
  3
STDGX5
  1

  0
ENDBLK
  5
2767
330
EF7C8553E
100
AcDbEntity
  8
0
100
AcDbBlockEnd
  0
BLOCK
  5
2F5A
330
EF7C8553F
100
AcDbEntity
  8
0
100
AcDbBlockBegin
  2
*X4
 70
     1
 10
0.0
 20
0.0
 30
0.0
  3
*X4
  1

  0
ENDBLK
  5
2F5B
330
EF7C8553F
100
AcDbEntity
  8
0
100
AcDbBlockEnd
  0
BLOCK
  5
32BB
330
EF7C85540
100
AcDbEntity
  8
0
100
AcDbBlockBegin
  2
*X5
 70
     1
 10
0.0
 20
0.0
 30
0.0
  3
*X5
  1

  0
ENDBLK
  5
32BC
330
EF7C85540
100
AcDbEntity
  8
0
100
AcDbBlockEnd
  0
BLOCK
  5
372F
330
EF7C85541
100
AcDbEntity
  8
0
100
AcDbBlockBegin
  2
*X6
 70
     1
 10
0.0
 20
0.0
 30
0.0
  3
*X6
  1

  0
ENDBLK
  5
3730
330
EF7C85541
100
AcDbEntity
  8
0
100
AcDbBlockEnd
  0
BLOCK
  5
3A6D
330
EF7C85542
100
AcDbEntity
  8
0
100
AcDbBlockBegin
  2
*X7
 70
     1
 10
0.0
 20
0.0
 30
0.0
  3
*X7
  1

  0
ENDBLK
  5
3A6E
330
EF7C85542
100
AcDbEntity
  8
0
100
AcDbBlockEnd
  0
BLOCK
  5
4CC9
330
EF7C85543
100
AcDbEntity
  8
0
100
AcDbBlockBegin
  2
ARROWANG
 70
     0
 10
0.0
 20
0.0
 30
0.0
  3
ARROWANG
  1

  0
LINE
  5
4CCA
330
EF7C85543
100
AcDbEntity
  8
SUNPOU
100
AcDbLine
 10
0.0
 20
0.0
 30
0.0
 11
-1.499999999999957
 21
0.4019237886467409
 31
0.0
  0
LINE
  5
4CCB
330
EF7C85543
100
AcDbEntity
  8
SUNPOU
100
AcDbLine
 10
0.0
 20
0.0
 30
0.0
 11
-1.500000000000028
 21
-0.4019237886467124
 31
0.0
  0
ENDBLK
  5
4CCC
330
EF7C85543
100
AcDbEntity
  8
0
100
AcDbBlockEnd
  0
BLOCK
  5
4CCD
330
EF7C85544
100
AcDbEntity
  8
0
100
AcDbBlockBegin
  2
STDR12J
 70
     0
 10
0.0
 20
0.0
 30
0.0
  3
STDR12J
  1

  0
ENDBLK
  5
4CF2
330
EF7C85544
100
AcDbEntity
  8
0
100
AcDbBlockEnd
  0
ENDSEC
  0
SECTION
  2
ENTITIES
  0
TEXT
  5
1
330
EF7C85532
100
AcDbEntity
  8
SUNPOU
100
AcDbText
 10
95.05869565217389
 20
43.7966872748706
 30
0.0
 40
1.5
  1
                          
100
AcDbText
  0
TEXT
  5
2
330
EF7C85532
100
AcDbEntity
  8
SUNPOU
100
AcDbText
 10
332.2793466870868
 20
21.8983436374353
 30
0.0
 40
0.75
  1
                          
100
AcDbText
  0
TEXT
  5
1A
330
EF7C85532
100
AcDbEntity
  8
SUNPOU
100
AcDbText
 10
289.9834441000535
 20
43.7966872748706
 30
0.0
 40
1.5
  1
                          
100
AcDbText
  0
TEXT
  5
1B
330
EF7C85532
100
AcDbEntity
  8
SUNPOU
100
AcDbText
 10
527.2040951349665
 20
21.8983436374353
 30
0.0
 40
0.75
  1
                          
100
AcDbText
  0
TEXT
  5
1C
330
EF7C85532
100
AcDbEntity
  8
SUNPOU
100
AcDbText
 10
490.6272568090836
 20
43.79668727487057
 30
0.0
 40
1.5
  1
                          
100
AcDbText
  0
TEXT
  5
1D
330
EF7C85532
100
AcDbEntity
  8
SUNPOU
100
AcDbText
 10
727.8479078439966
 20
21.89834363743527
 30
0.0
 40
0.75
  1
                          
100
AcDbText
  0
INSERT
  5
1E
330
EF7C85532
100
AcDbEntity
  8
HATCH
100
AcDbBlockReference
  2
*X2
 10
194.9247484478796
 20
0.0
 30
0.0
  0
TEXT
  5
1F
330
EF7C85532
100
AcDbEntity
  8
SUNPOU
100
AcDbText
 10
493.0101992368964
 20
43.7966872748706
 30
0.0
 40
1.5
  1
                          
100
AcDbText
  0
TEXT
  5
20
330
EF7C85532
100
AcDbEntity
  8
SUNPOU
100
AcDbText
 10
730.2308502718094
 20
21.8983436374353
 30
0.0
 40
0.75
  1
                          
100
AcDbText
  0
TEXT
  5
21
330
EF7C85532
100
AcDbEntity
  8
SUNPOU
100
AcDbText
 10
482.0486607753579
 20
43.7966872748706
 30
0.0
 40
1.5
  1
                          
100
AcDbText
  0
TEXT
  5
22
330
EF7C85532
100
AcDbEntity
  8
SUNPOU
100
AcDbText
 10
719.269311810271
 20
21.8983436374353
 30
0.0
 40
0.75
  1
                          
100
AcDbText
  0
INSERT
  5
25
330
EF7C85532
100
AcDbEntity
  8
JISSEN
100
AcDbBlockReference
  2
STDGX5
 10
0.0
 20
0.0
 30
0.0
  0
TEXT
  5
60
330
EF7C85532
100
AcDbEntity
  8
SUNPOU
100
AcDbText
 10
274.0586949361738
 20
43.7966872748706
 30
0.0
 40
1.5
  1
                          
100
AcDbText
  0
TEXT
  5
61
330
EF7C85532
100
AcDbEntity
  8
SUNPOU
100
AcDbText
 10
511.2793459710869
 20
21.8983436374353
 30
0.0
 40
0.75
  1
                          
100
AcDbText
  0
TEXT
  5
62
330
EF7C85532
100
AcDbEntity
  8
SUNPOU
100
AcDbText
 10
474.702507645204
 20
43.79668727487057
 30
0.0
 40
1.5
  1
                          
100
AcDbText
  0
TEXT
  5
63
330
EF7C85532
100
AcDbEntity
  8
SUNPOU
100
AcDbText
 10
711.923158680117
 20
21.89834363743527
 30
0.0
 40
0.75
  1
                          
100
AcDbText
  0
INSERT
  5
64
330
EF7C85532
100
AcDbEntity
  8
HATCH
100
AcDbBlockReference
  2
*X4
 10
178.999999284
 20
0.0
 30
0.0
  0
TEXT
  5
65
330
EF7C85532
100
AcDbEntity
  8
SUNPOU
100
AcDbText
 10
477.0854500730167
 20
43.7966872748706
 30
0.0
 40
1.5
  1
                          
100
AcDbText
  0
TEXT
  5
66
330
EF7C85532
100
AcDbEntity
  8
SUNPOU
100
AcDbText
 10
714.3061011079298
 20
21.8983436374353
 30
0.0
 40
0.75
  1
                          
100
AcDbText
  0
TEXT
  5
67
330
EF7C85532
100
AcDbEntity
  8
SUNPOU
100
AcDbText
 10
466.1239116114783
 20
43.7966872748706
 30
0.0
 40
1.5
  1
                          
100
AcDbText
  0
TEXT
  5
68
330
EF7C85532
100
AcDbEntity
  8
SUNPOU
100
AcDbText
 10
703.3445626463913
 20
21.8983436374353
 30
0.0
 40
0.75
  1
                          
100
AcDbText
  0
INSERT
  5
69
330
EF7C85532
100
AcDbEntity
  8
TEXT
100
AcDbBlockReference
  2
STDGX5
 10
178.999999284
 20
0.0
 30
0.0
  0
TEXT
  5
6A
330
EF7C85532
100
AcDbEntity
  8
SUNPOU
100
AcDbText
 10
453.0586949361739
 20
43.7966872748706
 30
0.0
 40
1.5
  1
                          
100
AcDbText
  0
TEXT
  5
6B
330
EF7C85532
100
AcDbEntity
  8
SUNPOU
100
AcDbText
 10
690.279345971087
 20
21.8983436374353
 30
0.0
 40
0.75
  1
                          
100
AcDbText
  0
TEXT
  5
6C
330
EF7C85532
100
AcDbEntity
  8
SUNPOU
100
AcDbText
 10
647.9834433840535
 20
43.7966872748706
 30
0.0
 40
1.5
  1
                          
100
AcDbText
  0
TEXT
  5
6D
330
EF7C85532
100
AcDbEntity
  8
SUNPOU
100
AcDbText
 10
885.2040944189665
 20
21.8983436374353
 30
0.0
 40
0.75
  1
                          
100
AcDbText
  0
TEXT
  5
6E
330
EF7C85532
100
AcDbEntity
  8
SUNPOU
100
AcDbText
 10
848.6272560930835
 20
43.79668727487057
 30
0.0
 40
1.5
  1
                          
100
AcDbText
  0
TEXT
  5
6F
330
EF7C85532
100
AcDbEntity
  8
SUNPOU
100
AcDbText
 10
1085.847907127996
 20
21.89834363743527
 30
0.0
 40
0.75
  1
                          
100
AcDbText
  0
INSERT
  5
70
330
EF7C85532
100
AcDbEntity
  8
HATCH
100
AcDbBlockReference
  2
*X5
 10
552.9247477318797
 20
0.0
 30
0.0
  0
TEXT
  5
71
330
EF7C85532
100
AcDbEntity
  8
SUNPOU
100
AcDbText
 10
851.0101985208963
 20
43.7966872748706
 30
0.0
 40
1.5
  1
                          
100
AcDbText
  0
TEXT
  5
72
330
EF7C85532
100
AcDbEntity
  8
SUNPOU
100
AcDbText
 10
1088.230849555809
 20
21.8983436374353
 30
0.0
 40
0.75
  1
                          
100
AcDbText
  0
TEXT
  5
73
330
EF7C85532
100
AcDbEntity
  8
SUNPOU
100
AcDbText
 10
840.048660059358
 20
43.7966872748706
 30
0.0
 40
1.5
  1
                          
100
AcDbText
  0
TEXT
  5
74
330
EF7C85532
100
AcDbEntity
  8
SUNPOU
100
AcDbText
 10
1077.269311094271
 20
21.8983436374353
 30
0.0
 40
0.75
  1
                          
100
AcDbText
  0
INSERT
  5
75
330
EF7C85532
100
AcDbEntity
  8
JISSEN
100
AcDbBlockReference
  2
STDGX5
 10
357.999999284
 20
0.0
 30
0.0
  0
TEXT
  5
76
330
EF7C85532
100
AcDbEntity
  8
SUNPOU
100
AcDbText
 10
453.0586949361739
 20
43.7966872748706
 30
0.0
 40
1.5
  1
                          
100
AcDbText
  0
TEXT
  5
77
330
EF7C85532
100
AcDbEntity
  8
SUNPOU
100
AcDbText
 10
690.279345971087
 20
21.8983436374353
 30
0.0
 40
0.75
  1
                          
100
AcDbText
  0
TEXT
  5
78
330
EF7C85532
100
AcDbEntity
  8
SUNPOU
100
AcDbText
 10
647.9834433840535
 20
43.7966872748706
 30
0.0
 40
1.5
  1
                          
100
AcDbText
  0
TEXT
  5
79
330
EF7C85532
100
AcDbEntity
  8
SUNPOU
100
AcDbText
 10
885.2040944189665
 20
21.8983436374353
 30
0.0
 40
0.75
  1
                          
100
AcDbText
  0
TEXT
  5
7A
330
EF7C85532
100
AcDbEntity
  8
SUNPOU
100
AcDbText
 10
848.6272560930835
 20
43.79668727487057
 30
0.0
 40
1.5
  1
                          
100
AcDbText
  0
TEXT
  5
7B
330
EF7C85532
100
AcDbEntity
  8
SUNPOU
100
AcDbText
 10
1085.847907127996
 20
21.89834363743527
 30
0.0
 40
0.75
  1
                          
100
AcDbText
  0
INSERT
  5
7C
330
EF7C85532
100
AcDbEntity
  8
HATCH
100
AcDbBlockReference
  2
*X6
 10
552.9247477318797
 20
0.0
 30
0.0
  0
TEXT
  5
7D
330
EF7C85532
100
AcDbEntity
  8
SUNPOU
100
AcDbText
 10
851.0101985208963
 20
43.7966872748706
 30
0.0
 40
1.5
  1
                          
100
AcDbText
  0
TEXT
  5
7E
330
EF7C85532
100
AcDbEntity
  8
SUNPOU
100
AcDbText
 10
1088.230849555809
 20
21.8983436374353
 30
0.0
 40
0.75
  1
                          
100
AcDbText
  0
TEXT
  5
7F
330
EF7C85532
100
AcDbEntity
  8
SUNPOU
100
AcDbText
 10
840.048660059358
 20
43.7966872748706
 30
0.0
 40
1.5
  1
                          
100
AcDbText
  0
TEXT
  5
80
330
EF7C85532
100
AcDbEntity
  8
SUNPOU
100
AcDbText
 10
1077.269311094271
 20
21.8983436374353
 30
0.0
 40
0.75
  1
                          
100
AcDbText
  0
INSERT
  5
81
330
EF7C85532
100
AcDbEntity
  8
JISSEN
100
AcDbBlockReference
  2
STDGX5
 10
357.999999284
 20
0.0
 30
0.0
  0
TEXT
  5
82
330
EF7C85532
100
AcDbEntity
  8
SUNPOU
100
AcDbText
 10
632.0586942201739
 20
43.7966872748706
 30
0.0
 40
1.5
  1
                          
100
AcDbText
  0
TEXT
  5
83
330
EF7C85532
100
AcDbEntity
  8
SUNPOU
100
AcDbText
 10
869.2793452550871
 20
21.8983436374353
 30
0.0
 40
0.75
  1
                          
100
AcDbText
  0
TEXT
  5
84
330
EF7C85532
100
AcDbEntity
  8
SUNPOU
100
AcDbText
 10
826.9834426680535
 20
43.7966872748706
 30
0.0
 40
1.5
  1
                          
100
AcDbText
  0
TEXT
  5
85
330
EF7C85532
100
AcDbEntity
  8
SUNPOU
100
AcDbText
 10
1064.204093702966
 20
21.8983436374353
 30
0.0
 40
0.75
  1
                          
100
AcDbText
  0
TEXT
  5
86
330
EF7C85532
100
AcDbEntity
  8
SUNPOU
100
AcDbText
 10
1027.627255377083
 20
43.79668727487057
 30
0.0
 40
1.5
  1
                          
100
AcDbText
  0
TEXT
  5
87
330
EF7C85532
100
AcDbEntity
  8
SUNPOU
100
AcDbText
 10
1264.847906411996
 20
21.89834363743527
 30
0.0
 40
0.75
  1
                          
100
AcDbText
  0
INSERT
  5
88
330
EF7C85532
100
AcDbEntity
  8
HATCH
100
AcDbBlockReference
  2
*X7
 10
731.9247470158797
 20
0.0
 30
0.0
  0
TEXT
  5
89
330
EF7C85532
100
AcDbEntity
  8
SUNPOU
100
AcDbText
 10
1030.010197804896
 20
43.7966872748706
 30
0.0
 40
1.5
  1
                          
100
AcDbText
  0
TEXT
  5
8A
330
EF7C85532
100
AcDbEntity
  8
SUNPOU
100
AcDbText
 10
1267.230848839809
 20
21.8983436374353
 30
0.0
 40
0.75
  1
                          
100
AcDbText
  0
TEXT
  5
8B
330
EF7C85532
100
AcDbEntity
  8
SUNPOU
100
AcDbText
 10
1019.048659343358
 20
43.7966872748706
 30
0.0
 40
1.5
  1
                          
100
AcDbText
  0
TEXT
  5
8C
330
EF7C85532
100
AcDbEntity
  8
SUNPOU
100
AcDbText
 10
1256.269310378271
 20
21.8983436374353
 30
0.0
 40
0.75
  1
                          
100
AcDbText
  0
INSERT
  5
8D
330
EF7C85532
100
AcDbEntity
  8
JISSEN
100
AcDbBlockReference
  2
STDGX5
 10
536.999998568
 20
0.0
 30
0.0
  0
INSERT
  5
8E
330
EF7C85532
100
AcDbEntity
  8
SUNPOU
100
AcDbBlockReference
  2
STDGX5
 10
739.0804232644236
 20
50.83533235670902
 30
0.0
 41
0.5
 42
0.5
 43
0.5
  0
INSERT
  5
8F
330
EF7C85532
100
AcDbEntity
  8
SUNPOU
100
AcDbBlockReference
  2
STDGX5
 10
726.2208210623692
 20
105.0763138619288
 30
0.0
 41
0.5
 42
0.5
 43
0.5
  0
INSERT
  5
90
330
EF7C85532
100
AcDbEntity
  8
HATCH
100
AcDbBlockReference
  2
STDGX5
 10
852.3985550581901
 20
151.7065097967401
 30
0.0
 41
0.5
 42
0.5
 43
0.5
  0
INSERT
  5
91
330
EF7C85532
100
AcDbEntity
  8
HATCH
100
AcDbBlockReference
  2
STDGX5
 10
866.6806796277285
 20
102.7017487639613
 30
0.0
 41
0.5
 42
0.5
 43
0.5
  0
INSERT
  5
92
330
EF7C85532
100
AcDbEntity
  8
TEXT
100
AcDbBlockReference
  2
STDGX5
 10
970.3434408521969
 20
102.8213468229236
 30
0.0
 41
0.5
 42
0.5
 43
0.5
  0
INSERT
  5
93
330
EF7C85532
100
AcDbEntity
  8
SUNPOU
100
AcDbBlockReference
  2
STDGX5
 10
996.1728907397869
 20
174.5475645486174
 30
0.0
 41
0.5
 42
0.5
 43
0.5
  0
INSERT
  5
94
330
EF7C85532
100
AcDbEntity
  8
TEXT
100
AcDbBlockReference
  2
STDGX5
 10
725.7513886810995
 20
124.5860190441302
 30
0.0
 41
0.5
 42
0.5
 43
0.5
  0
INSERT
  5
95
330
EF7C85532
100
AcDbEntity
  8
HATCH
100
AcDbBlockReference
  2
STDGX5
 10
777.1755722656421
 20
145.5222028932424
 30
0.0
 41
0.5
 42
0.5
 43
0.5
  0
INSERT
  5
96
330
EF7C85532
100
AcDbEntity
  8
SUNPOU
100
AcDbBlockReference
  2
STDGX5
 10
846.1963575359604
 20
112.6957974729892
 30
0.0
 41
0.5
 42
0.5
 43
0.5
  0
INSERT
  5
97
330
EF7C85532
100
AcDbEntity
  8
SUNPOU
100
AcDbBlockReference
  2
STDGX5
 10
916.6681156211122
 20
121.7330617103085
 30
0.0
 41
0.5
 42
0.5
 43
0.5
  0
INSERT
  5
98
330
EF7C85532
100
AcDbEntity
  8
TEXT
100
AcDbBlockReference
  2
STDGX5
 10
983.7969461426769
 20
84.61852224867081
 30
0.0
 41
0.5
 42
0.5
 43
0.5
  0
INSERT
  5
99
330
EF7C85532
100
AcDbEntity
  8
HATCH
100
AcDbBlockReference
  2
STDGX5
 10
974.2802715042099
 20
136.4849386559231
 30
0.0
 41
0.5
 42
0.5
 43
0.5
  0
INSERT
  5
9A
330
EF7C85532
100
AcDbEntity
  8
SUNPOU
100
AcDbBlockReference
  2
STDGX5
 10
749.7834008663489
 20
95.14721172234004
 30
0.0
 41
0.5
 42
0.5
 43
0.5
  0
INSERT
  5
9B
330
EF7C85532
100
AcDbEntity
  8
SUNPOU
100
AcDbBlockReference
  2
STDGX5
 10
736.9237986642947
 20
149.3881932275598
 30
0.0
 41
0.5
 42
0.5
 43
0.5
  0
INSERT
  5
9C
330
EF7C85532
100
AcDbEntity
  8
HATCH
100
AcDbBlockReference
  2
STDGX5
 10
863.1015326601156
 20
196.0183891623711
 30
0.0
 41
0.5
 42
0.5
 43
0.5
  0
INSERT
  5
9D
330
EF7C85532
100
AcDbEntity
  8
HATCH
100
AcDbBlockReference
  2
STDGX5
 10
877.3836572296538
 20
147.0136281295923
 30
0.0
 41
0.5
 42
0.5
 43
0.5
  0
INSERT
  5
9E
330
EF7C85532
100
AcDbEntity
  8
TEXT
100
AcDbBlockReference
  2
STDGX5
 10
981.0464184541224
 20
147.1332261885546
 30
0.0
 41
0.5
 42
0.5
 43
0.5
  0
INSERT
  5
9F
330
EF7C85532
100
AcDbEntity
  8
SUNPOU
100
AcDbBlockReference
  2
STDGX5
 10
1006.875868341712
 20
218.8594439142484
 30
0.0
 41
0.5
 42
0.5
 43
0.5
  0
INSERT
  5
A0
330
EF7C85532
100
AcDbEntity
  8
TEXT
100
AcDbBlockReference
  2
STDGX5
 10
736.4543662830251
 20
168.8978984097612
 30
0.0
 41
0.5
 42
0.5
 43
0.5
  0
INSERT
  5
A1
330
EF7C85532
100
AcDbEntity
  8
HATCH
100
AcDbBlockReference
  2
STDGX5
 10
787.8785498675677
 20
189.8340822588735
 30
0.0
 41
0.5
 42
0.5
 43
0.5
  0
INSERT
  5
A2
330
EF7C85532
100
AcDbEntity
  8
SUNPOU
100
AcDbBlockReference
  2
STDGX5
 10
856.899335137886
 20
157.0076768386202
 30
0.0
 41
0.5
 42
0.5
 43
0.5
  0
INSERT
  5
A3
330
EF7C85532
100
AcDbEntity
  8
SUNPOU
100
AcDbBlockReference
  2
STDGX5
 10
927.3710932230379
 20
166.0449410759395
 30
0.0
 41
0.5
 42
0.5
 43
0.5
  0
INSERT
  5
A4
330
EF7C85532
100
AcDbEntity
  8
TEXT
100
AcDbBlockReference
  2
STDGX5
 10
994.4999237446024
 20
128.9304016143018
 30
0.0
 41
0.5
 42
0.5
 43
0.5
  0
INSERT
  5
A5
330
EF7C85532
100
AcDbEntity
  8
HATCH
100
AcDbBlockReference
  2
STDGX5
 10
984.9832491061354
 20
180.7968180215541
 30
0.0
 41
0.5
 42
0.5
 43
0.5
  0
TEXT
  5
DE
330
EF7C85532
100
AcDbEntity
  8
SUNPOU
100
AcDbText
 10
274.0586949361738
 20
43.7966872748706
 30
0.0
 40
1.5
  1
                          
100
AcDbText
  0
TEXT
  5
145
330
EF7C85532
100
AcDbEntity
  8
SUNPOU
100
AcDbText
 10
511.2793459710869
 20
21.8983436374353
 30
0.0
 40
0.75
  1
                          
100
AcDbText
  0
TEXT
  5
265
330
EF7C85532
100
AcDbEntity
  8
SUNPOU
100
AcDbText
 10
474.702507645204
 20
43.79668727487057
 30
0.0
 40
1.5
  1
                          
100
AcDbText
  0
TEXT
  5
266
330
EF7C85532
100
AcDbEntity
  8
SUNPOU
100
AcDbText
 10
711.923158680117
 20
21.89834363743527
 30
0.0
 40
0.75
  1
                          
100
AcDbText
  0
INSERT
  5
2F7
330
EF7C85532
100
AcDbEntity
  8
HATCH
100
AcDbBlockReference
  2
*X4
 10
178.999999284
 20
0.0
 30
0.0
  0
TEXT
  5
31A
330
EF7C85532
100
AcDbEntity
  8
SUNPOU
100
AcDbText
 10
477.0854500730167
 20
43.7966872748706
 30
0.0
 40
1.5
  1
                          
100
AcDbText
  0
TEXT
  5
31C
330
EF7C85532
100
AcDbEntity
  8
SUNPOU
100
AcDbText
 10
714.3061011079298
 20
21.8983436374353
 30
0.0
 40
0.75
  1
                          
100
AcDbText
  0
TEXT
  5
3A6
330
EF7C85532
100
AcDbEntity
  8
TEXT
100
AcDbText
 10
100.9999992839998
 20
244.9999999999999
 30
0.0
 40
3.0
  1
 
  7
K
100
AcDbText
  0
TEXT
  5
3AB
330
EF7C85532
100
AcDbEntity
  8
SUNPOU
100
AcDbText
 10
466.1239116114783
 20
43.7966872748706
 30
0.0
 40
1.5
  1
                          
100
AcDbText
  0
TEXT
  5
3AC
330
EF7C85532
100
AcDbEntity
  8
SUNPOU
100
AcDbText
 10
703.3445626463913
 20
21.8983436374353
 30
0.0
 40
0.75
  1
                          
100
AcDbText
  0
INSERT
  5
3F6
330
EF7C85532
100
AcDbEntity
  8
TEXT
100
AcDbBlockReference
  2
STDGX5
 10
178.999999284
 20
0.0
 30
0.0
  0
TEXT
  5
3F7
330
EF7C85532
100
AcDbEntity
  8
SUNPOU
100
AcDbText
 10
453.0586949361739
 20
43.7966872748706
 30
0.0
 40
1.5
  1
                          
100
AcDbText
  0
TEXT
  5
3F8
330
EF7C85532
100
AcDbEntity
  8
SUNPOU
100
AcDbText
 10
690.279345971087
 20
21.8983436374353
 30
0.0
 40
0.75
  1
                          
100
AcDbText
  0
TEXT
  5
3F9
330
EF7C85532
100
AcDbEntity
  8
SUNPOU
100
AcDbText
 10
647.9834433840535
 20
43.7966872748706
 30
0.0
 40
1.5
  1
                          
100
AcDbText
  0
TEXT
  5
3FA
330
EF7C85532
100
AcDbEntity
  8
SUNPOU
100
AcDbText
 10
885.2040944189665
 20
21.8983436374353
 30
0.0
 40
0.75
  1
                          
100
AcDbText
  0
TEXT
  5
3FB
330
EF7C85532
100
AcDbEntity
  8
SUNPOU
100
AcDbText
 10
848.6272560930835
 20
43.79668727487057
 30
0.0
 40
1.5
  1
                          
100
AcDbText
  0
TEXT
  5
3FC
330
EF7C85532
100
AcDbEntity
  8
SUNPOU
100
AcDbText
 10
1085.847907127996
 20
21.89834363743527
 30
0.0
 40
0.75
  1
                          
100
AcDbText
  0
INSERT
  5
3FD
330
EF7C85532
100
AcDbEntity
  8
HATCH
100
AcDbBlockReference
  2
*X5
 10
552.9247477318797
 20
0.0
 30
0.0
  0
TEXT
  5
3FE
330
EF7C85532
100
AcDbEntity
  8
SUNPOU
100
AcDbText
 10
851.0101985208963
 20
43.7966872748706
 30
0.0
 40
1.5
  1
                          
100
AcDbText
  0
TEXT
  5
3FF
330
EF7C85532
100
AcDbEntity
  8
SUNPOU
100
AcDbText
 10
1088.230849555809
 20
21.8983436374353
 30
0.0
 40
0.75
  1
                          
100
AcDbText
  0
TEXT
  5
400
330
EF7C85532
100
AcDbEntity
  8
SUNPOU
100
AcDbText
 10
840.048660059358
 20
43.7966872748706
 30
0.0
 40
1.5
  1
                          
100
AcDbText
  0
TEXT
  5
401
330
EF7C85532
100
AcDbEntity
  8
SUNPOU
100
AcDbText
 10
1077.269311094271
 20
21.8983436374353
 30
0.0
 40
0.75
  1
                          
100
AcDbText
  0
INSERT
  5
402
330
EF7C85532
100
AcDbEntity
  8
JISSEN
100
AcDbBlockReference
  2
STDGX5
 10
357.999999284
 20
0.0
 30
0.0
  0
TEXT
  5
409
330
EF7C85532
100
AcDbEntity
  8
SUNPOU
100
AcDbText
 10
453.0586949361739
 20
43.7966872748706
 30
0.0
 40
1.5
  1
                          
100
AcDbText
  0
TEXT
  5
40A
330
EF7C85532
100
AcDbEntity
  8
SUNPOU
100
AcDbText
 10
690.279345971087
 20
21.8983436374353
 30
0.0
 40
0.75
  1
                          
100
AcDbText
  0
TEXT
  5
41B
330
EF7C85532
100
AcDbEntity
  8
SUNPOU
100
AcDbText
 10
647.9834433840535
 20
43.7966872748706
 30
0.0
 40
1.5
  1
                          
100
AcDbText
  0
TEXT
  5
41C
330
EF7C85532
100
AcDbEntity
  8
SUNPOU
100
AcDbText
 10
885.2040944189665
 20
21.8983436374353
 30
0.0
 40
0.75
  1
                          
100
AcDbText
  0
TEXT
  5
41D
330
EF7C85532
100
AcDbEntity
  8
SUNPOU
100
AcDbText
 10
848.6272560930835
 20
43.79668727487057
 30
0.0
 40
1.5
  1
                          
100
AcDbText
  0
TEXT
  5
41E
330
EF7C85532
100
AcDbEntity
  8
SUNPOU
100
AcDbText
 10
1085.847907127996
 20
21.89834363743527
 30
0.0
 40
0.75
  1
                          
100
AcDbText
  0
INSERT
  5
41F
330
EF7C85532
100
AcDbEntity
  8
HATCH
100
AcDbBlockReference
  2
*X6
 10
552.9247477318797
 20
0.0
 30
0.0
  0
TEXT
  5
420
330
EF7C85532
100
AcDbEntity
  8
SUNPOU
100
AcDbText
 10
851.0101985208963
 20
43.7966872748706
 30
0.0
 40
1.5
  1
                          
100
AcDbText
  0
TEXT
  5
421
330
EF7C85532
100
AcDbEntity
  8
SUNPOU
100
AcDbText
 10
1088.230849555809
 20
21.8983436374353
 30
0.0
 40
0.75
  1
                          
100
AcDbText
  0
TEXT
  5
422
330
EF7C85532
100
AcDbEntity
  8
SUNPOU
100
AcDbText
 10
840.048660059358
 20
43.7966872748706
 30
0.0
 40
1.5
  1
                          
100
AcDbText
  0
TEXT
  5
423
330
EF7C85532
100
AcDbEntity
  8
SUNPOU
100
AcDbText
 10
1077.269311094271
 20
21.8983436374353
 30
0.0
 40
0.75
  1
                          
100
AcDbText
  0
INSERT
  5
424
330
EF7C85532
100
AcDbEntity
  8
JISSEN
100
AcDbBlockReference
  2
STDGX5
 10
357.999999284
 20
0.0
 30
0.0
  0
TEXT
  5
425
330
EF7C85532
100
AcDbEntity
  8
SUNPOU
100
AcDbText
 10
632.0586942201739
 20
43.7966872748706
 30
0.0
 40
1.5
  1
                          
100
AcDbText
  0
TEXT
  5
426
330
EF7C85532
100
AcDbEntity
  8
SUNPOU
100
AcDbText
 10
869.2793452550871
 20
21.8983436374353
 30
0.0
 40
0.75
  1
                          
100
AcDbText
  0
TEXT
  5
427
330
EF7C85532
100
AcDbEntity
  8
SUNPOU
100
AcDbText
 10
826.9834426680535
 20
43.7966872748706
 30
0.0
 40
1.5
  1
                          
100
AcDbText
  0
TEXT
  5
428
330
EF7C85532
100
AcDbEntity
  8
SUNPOU
100
AcDbText
 10
1064.204093702966
 20
21.8983436374353
 30
0.0
 40
0.75
  1
                          
100
AcDbText
  0
TEXT
  5
429
330
EF7C85532
100
AcDbEntity
  8
SUNPOU
100
AcDbText
 10
1027.627255377083
 20
43.79668727487057
 30
0.0
 40
1.5
  1
                          
100
AcDbText
  0
TEXT
  5
42A
330
EF7C85532
100
AcDbEntity
  8
SUNPOU
100
AcDbText
 10
1264.847906411996
 20
21.89834363743527
 30
0.0
 40
0.75
  1
                          
100
AcDbText
  0
INSERT
  5
42B
330
EF7C85532
100
AcDbEntity
  8
HATCH
100
AcDbBlockReference
  2
*X7
 10
731.9247470158797
 20
0.0
 30
0.0
  0
TEXT
  5
42C
330
EF7C85532
100
AcDbEntity
  8
SUNPOU
100
AcDbText
 10
1030.010197804896
 20
43.7966872748706
 30
0.0
 40
1.5
  1
                          
100
AcDbText
  0
TEXT
  5
42D
330
EF7C85532
100
AcDbEntity
  8
SUNPOU
100
AcDbText
 10
1267.230848839809
 20
21.8983436374353
 30
0.0
 40
0.75
  1
                          
100
AcDbText
  0
TEXT
  5
42E
330
EF7C85532
100
AcDbEntity
  8
SUNPOU
100
AcDbText
 10
1019.048659343358
 20
43.7966872748706
 30
0.0
 40
1.5
  1
                          
100
AcDbText
  0
TEXT
  5
42F
330
EF7C85532
100
AcDbEntity
  8
SUNPOU
100
AcDbText
 10
1256.269310378271
 20
21.8983436374353
 30
0.0
 40
0.75
  1
                          
100
AcDbText
  0
INSERT
  5
430
330
EF7C85532
100
AcDbEntity
  8
JISSEN
100
AcDbBlockReference
  2
STDGX5
 10
536.999998568
 20
0.0
 30
0.0
  0
INSERT
  5
43B
330
EF7C85532
100
AcDbEntity
  8
SUNPOU
100
AcDbBlockReference
  2
STDGX5
 10
739.0804232644236
 20
50.83533235670902
 30
0.0
 41
0.5
 42
0.5
 43
0.5
  0
INSERT
  5
43C
330
EF7C85532
100
AcDbEntity
  8
SUNPOU
100
AcDbBlockReference
  2
STDGX5
 10
726.2208210623692
 20
105.0763138619288
 30
0.0
 41
0.5
 42
0.5
 43
0.5
  0
INSERT
  5
43D
330
EF7C85532
100
AcDbEntity
  8
HATCH
100
AcDbBlockReference
  2
STDGX5
 10
852.3985550581901
 20
151.7065097967401
 30
0.0
 41
0.5
 42
0.5
 43
0.5
  0
INSERT
  5
43E
330
EF7C85532
100
AcDbEntity
  8
HATCH
100
AcDbBlockReference
  2
STDGX5
 10
866.6806796277285
 20
102.7017487639613
 30
0.0
 41
0.5
 42
0.5
 43
0.5
  0
INSERT
  5
43F
330
EF7C85532
100
AcDbEntity
  8
TEXT
100
AcDbBlockReference
  2
STDGX5
 10
970.3434408521969
 20
102.8213468229236
 30
0.0
 41
0.5
 42
0.5
 43
0.5
  0
INSERT
  5
440
330
EF7C85532
100
AcDbEntity
  8
SUNPOU
100
AcDbBlockReference
  2
STDGX5
 10
996.1728907397869
 20
174.5475645486174
 30
0.0
 41
0.5
 42
0.5
 43
0.5
  0
INSERT
  5
441
330
EF7C85532
100
AcDbEntity
  8
TEXT
100
AcDbBlockReference
  2
STDGX5
 10
725.7513886810995
 20
124.5860190441302
 30
0.0
 41
0.5
 42
0.5
 43
0.5
  0
INSERT
  5
442
330
EF7C85532
100
AcDbEntity
  8
HATCH
100
AcDbBlockReference
  2
STDGX5
 10
777.1755722656421
 20
145.5222028932424
 30
0.0
 41
0.5
 42
0.5
 43
0.5
  0
INSERT
  5
443
330
EF7C85532
100
AcDbEntity
  8
SUNPOU
100
AcDbBlockReference
  2
STDGX5
 10
846.1963575359604
 20
112.6957974729892
 30
0.0
 41
0.5
 42
0.5
 43
0.5
  0
INSERT
  5
444
330
EF7C85532
100
AcDbEntity
  8
SUNPOU
100
AcDbBlockReference
  2
STDGX5
 10
916.6681156211122
 20
121.7330617103085
 30
0.0
 41
0.5
 42
0.5
 43
0.5
  0
INSERT
  5
445
330
EF7C85532
100
AcDbEntity
  8
TEXT
100
AcDbBlockReference
  2
STDGX5
 10
983.7969461426769
 20
84.61852224867081
 30
0.0
 41
0.5
 42
0.5
 43
0.5
  0
INSERT
  5
446
330
EF7C85532
100
AcDbEntity
  8
HATCH
100
AcDbBlockReference
  2
STDGX5
 10
974.2802715042099
 20
136.4849386559231
 30
0.0
 41
0.5
 42
0.5
 43
0.5
  0
INSERT
  5
447
330
EF7C85532
100
AcDbEntity
  8
SUNPOU
100
AcDbBlockReference
  2
STDGX5
 10
749.7834008663489
 20
95.14721172234004
 30
0.0
 41
0.5
 42
0.5
 43
0.5
  0
INSERT
  5
448
330
EF7C85532
100
AcDbEntity
  8
SUNPOU
100
AcDbBlockReference
  2
STDGX5
 10
736.9237986642947
 20
149.3881932275598
 30
0.0
 41
0.5
 42
0.5
 43
0.5
  0
INSERT
  5
449
330
EF7C85532
100
AcDbEntity
  8
HATCH
100
AcDbBlockReference
  2
STDGX5
 10
863.1015326601156
 20
196.0183891623711
 30
0.0
 41
0.5
 42
0.5
 43
0.5
  0
INSERT
  5
44A
330
EF7C85532
100
AcDbEntity
  8
HATCH
100
AcDbBlockReference
  2
STDGX5
 10
877.3836572296538
 20
147.0136281295923
 30
0.0
 41
0.5
 42
0.5
 43
0.5
  0
INSERT
  5
44B
330
EF7C85532
100
AcDbEntity
  8
TEXT
100
AcDbBlockReference
  2
STDGX5
 10
981.0464184541224
 20
147.1332261885546
 30
0.0
 41
0.5
 42
0.5
 43
0.5
  0
INSERT
  5
44C
330
EF7C85532
100
AcDbEntity
  8
SUNPOU
100
AcDbBlockReference
  2
STDGX5
 10
1006.875868341712
 20
218.8594439142484
 30
0.0
 41
0.5
 42
0.5
 43
0.5
  0
INSERT
  5
44D
330
EF7C85532
100
AcDbEntity
  8
TEXT
100
AcDbBlockReference
  2
STDGX5
 10
736.4543662830251
 20
168.8978984097612
 30
0.0
 41
0.5
 42
0.5
 43
0.5
  0
INSERT
  5
44E
330
EF7C85532
100
AcDbEntity
  8
HATCH
100
AcDbBlockReference
  2
STDGX5
 10
787.8785498675677
 20
189.8340822588735
 30
0.0
 41
0.5
 42
0.5
 43
0.5
  0
INSERT
  5
44F
330
EF7C85532
100
AcDbEntity
  8
SUNPOU
100
AcDbBlockReference
  2
STDGX5
 10
856.899335137886
 20
157.0076768386202
 30
0.0
 41
0.5
 42
0.5
 43
0.5
  0
INSERT
  5
450
330
EF7C85532
100
AcDbEntity
  8
SUNPOU
100
AcDbBlockReference
  2
STDGX5
 10
927.3710932230379
 20
166.0449410759395
 30
0.0
 41
0.5
 42
0.5
 43
0.5
  0
INSERT
  5
451
330
EF7C85532
100
AcDbEntity
  8
TEXT
100
AcDbBlockReference
  2
STDGX5
 10
994.4999237446024
 20
128.9304016143018
 30
0.0
 41
0.5
 42
0.5
 43
0.5
  0
INSERT
  5
452
330
EF7C85532
100
AcDbEntity
  8
HATCH
100
AcDbBlockReference
  2
STDGX5
 10
984.9832491061354
 20
180.7968180215541
 30
0.0
 41
0.5
 42
0.5
 43
0.5
  0
INSERT
  5
4CF3
330
EF7C85532
100
AcDbEntity
  8
JISSEN
100
AcDbBlockReference
  2
STDR12J
 10
0.0
 20
0.0
 30
0.0
  0
LINE
  5
EAFFB3C99
330
EF7C85532
100
AcDbEntity
  8
JISSEN
100
AcDbLine
 10
91.49999927599997
 20
276.9999999999999
 30
0.0
 11
180.999999276
 21
276.9999999999999
 31
0.0
  0
LINE
  5
EAFFB3C9A
330
EF7C85532
100
AcDbEntity
  8
JISSEN
100
AcDbLine
 10
91.49999927599997
 20
270.9999999999999
 30
0.0
 11
180.999999276
 21
270.9999999999999
 31
0.0
  0
TEXT
  5
EAFFB3C9B
330
EF7C85532
100
AcDbEntity
  8
TEXT
100
AcDbText
 10
107.8999992759999
 20
278.4999999999999
 30
0.0
 40
3.0
  1
名      称
  7
K
 72
     4
 11
116.4999992759999
 21
279.9999999999999
 31
0.0
100
AcDbText
  0
TEXT
  5
EAFFB3C9C
330
EF7C85532
100
AcDbEntity
  8
TEXT
100
AcDbText
 10
93.29999927599997
 20
278.4999999999999
 30
0.0
 40
3.0
  1
番号
  7
K
 72
     4
 11
96.49999927599999
 21
279.9999999999999
 31
0.0
100
AcDbText
  0
LINE
  5
EAFFB3C9D
330
EF7C85532
100
AcDbEntity
  8
JISSEN
100
AcDbLine
 10
91.49999927599997
 20
270.9999999999999
 30
0.0
 11
91.49999927599997
 21
282.9999999999999
 31
0.0
  0
LINE
  5
EAFFB3C9E
330
EF7C85532
100
AcDbEntity
  8
JISSEN
100
AcDbLine
 10
101.4999992759999
 20
282.9999999999999
 30
0.0
 11
101.4999992759999
 21
270.9999999999999
 31
0.0
  0
TEXT
  5
EAFFB3C9F
330
EF7C85532
100
AcDbEntity
  8
TEXT
100
AcDbText
 10
135.1999992759999
 20
278.4999999999999
 30
0.0
 40
3.0
  1
材    質
  7
K
 72
     4
 11
141.9999992759999
 21
279.9999999999999
 31
0.0
100
AcDbText
  0
LINE
  5
EAFFB3CA0
330
EF7C85532
100
AcDbEntity
  8
JISSEN
100
AcDbLine
 10
131.4999992759999
 20
282.9999999999999
 30
0.0
 11
131.4999992759999
 21
270.9999999999999
 31
0.0
  0
LINE
  5
EAFFB3CA1
330
EF7C85532
100
AcDbEntity
  8
JISSEN
100
AcDbLine
 10
152.4999992759999
 20
270.9999999999999
 30
0.0
 11
152.4999992759999
 21
282.9999999999999
 31
0.0
  0
TEXT
  5
EAFFB3CA2
330
EF7C85532
100
AcDbEntity
  8
TEXT
100
AcDbText
 10
165.6999992759999
 20
278.4999999999999
 30
0.0
 40
3.0
  1
備    考
  7
K
 72
     4
 11
172.4999992759999
 21
279.9999999999999
 31
0.0
100
AcDbText
  0
TEXT
  5
EAFFB3CA3
330
EF7C85532
100
AcDbEntity
  8
TEXT
100
AcDbText
 10
154.7999992759999
 20
278.4999999999999
 30
0.0
 40
3.0
  1
個数
  7
K
 72
     4
 11
157.9999992759999
 21
279.9999999999999
 31
0.0
100
AcDbText
  0
LINE
  5
EAFFB3CA4
330
EF7C85532
100
AcDbEntity
  8
JISSEN
100
AcDbLine
 10
163.4999992759999
 20
282.9999999999999
 30
0.0
 11
163.4999992759999
 21
270.9999999999999
 31
0.0
  0
TEXT
  5
EAFFB3CAC
330
EF7C85532
100
AcDbEntity
  8
TEXT
100
AcDbText
 10
95.28571356171427
 20
272.4999999999999
 30
0.0
 40
3.0
  1
1
  7
K
 72
     4
 11
96.49999927599999
 21
273.9999999999999
 31
0.0
100
AcDbText
  0
TEXT
  5
EAFFB3CC2
330
EF7C85532
100
AcDbEntity
  8
TEXT
100
AcDbText
 10
136.8249992759999
 20
274.2999999999999
 30
0.0
 40
3.0
  1
%%u      
  7
K
 72
     4
 11
141.9999992759999
 21
273.9999999999999
 31
0.0
100
AcDbText
  0
INSERT
  5
EAFFB3CF7
330
EF7C85532
100
AcDbEntity
  8
WAKU
100
AcDbBlockReference
  2
WAKU
 10
0.0
 20
0.0
 30
0.0
 41
181.0
 42
283.0
 43
181.0
  0
TEXT
  5
EF7C85BB1
330
EF7C85532
100
AcDbEntity
  8
TEXT
100
AcDbText
 10
156.6795477624092
 20
272.4999999999999
 30
0.0
 40
3.0
  1
1
  7
K
 72
     4
 11
157.8938334766949
 21
273.9999999999999
 31
0.0
100
AcDbText
  0
TEXT
  5
EF7C85D65
330
EF7C85532
100
AcDbEntity
  8
SUNPOU
100
AcDbText
 10
153.1071230896802
 20
7.849423898685245
 30
0.0
 40
3.0
  1
DHC 取付状態
  7
K
100
AcDbText
  0
TEXT
  5
EF7C85D66
330
EF7C85532
100
AcDbEntity
  8
SUNPOU
100
AcDbText
 10
153.1071230896802
 20
2.849423898685245
 30
0.0
 40
3.0
  1
尺度　1/1
  7
K
100
AcDbText
  0
TEXT
  5
EF7C85DB5
330
EF7C85532
100
AcDbEntity
  8
TEXT
100
AcDbText
 10
105.3785707045713
 20
272.4999999999999
 30
0.0
 40
3.0
  1
DHC 型ヘッド
 41
0.9
  7
K
 72
     4
 11
116.4999992759999
 21
273.9999999999999
 31
0.0
100
AcDbText
  0
LINE
  5
EF7C8988C
330
EF7C85532
100
AcDbEntity
  8
JISSEN
100
AcDbLine
 10
38.90603226701955
 20
184.1466048161676
 30
0.0
 11
39.90603226701955
 21
185.1466048161676
 31
0.0
  0
LINE
  5
EF7C8988E
330
EF7C85532
100
AcDbEntity
  8
JISSEN
100
AcDbLine
 10
38.90603226701955
 20
184.1466048161676
 30
0.0
 11
48.90603226701955
 21
184.1466048161677
 31
0.0
  0
LWPOLYLINE
  5
EF7C89893
330
EF7C85532
100
AcDbEntity
  8
JISSEN
100
AcDbPolyline
 90
        2
 70
     0
 43
0.0
 10
48.40603226701955
 20
169.1466048161677
 10
48.90603226701955
 20
169.1466048161677
  0
LWPOLYLINE
  5
EF7C89894
330
EF7C85532
100
AcDbEntity
  8
JISSEN
100
AcDbPolyline
 90
        3
 70
     0
 43
0.0
 10
48.90603226701955
 20
166.1466048161677
 10
48.40603226701955
 20
166.1466048161677
 10
48.40603226701955
 20
169.1466048161677
  0
LINE
  5
EF7C898A1
330
EF7C85532
100
AcDbEntity
  8
SAISEN
100
AcDbLine
 10
38.53103226701955
 20
170.1466048161677
 30
0.0
 11
39.55112155273383
 21
171.8966048161677
 31
0.0
  0
LINE
  5
EF7C898A4
330
EF7C85532
100
AcDbEntity
  8
JISSEN
100
AcDbLine
 10
37.40603226701955
 20
169.1466048161677
 30
0.0
 11
37.90603226701955
 21
169.1466048161677
 31
0.0
  0
LINE
  5
EF7C898A5
330
EF7C85532
100
AcDbEntity
  8
JISSEN
100
AcDbLine
 10
37.40603226701955
 20
166.1466048161677
 30
0.0
 11
37.90603226701955
 21
166.1466048161677
 31
0.0
  0
LINE
  5
EF7C898A6
330
EF7C85532
100
AcDbEntity
  8
JISSEN
100
AcDbLine
 10
37.90603226701955
 20
169.1466048161677
 30
0.0
 11
37.90603226701955
 21
166.1466048161677
 31
0.0
  0
LINE
  5
EF7C898AC
330
EF7C85532
100
AcDbEntity
  8
JISSEN
100
AcDbLine
 10
37.65603226701955
 20
151.1466048161677
 30
0.0
 11
38.65603226701955
 21
150.1466048161677
 31
0.0
  0
LINE
  5
EF7C898B0
330
EF7C85532
100
AcDbEntity
  8
JISSEN
100
AcDbLine
 10
38.65603226701955
 20
150.1466048161677
 30
0.0
 11
46.40603226701955
 21
150.1466048161677
 31
0.0
  0
LINE
  5
EF7C898B1
330
EF7C85532
100
AcDbEntity
  8
JISSEN
100
AcDbLine
 10
37.65603226701955
 20
151.1466048161677
 30
0.0
 11
46.40603226701955
 21
151.1466048161677
 31
0.0
  0
LINE
  5
EF7C898B2
330
EF7C85532
100
AcDbEntity
  8
JISSEN
100
AcDbLine
 10
37.65603226701955
 20
165.1466048161676
 30
0.0
 11
37.65603226701955
 21
151.1466048161677
 31
0.0
  0
LINE
  5
EF7C898B4
330
EF7C85532
100
AcDbEntity
  8
JISSEN
100
AcDbLine
 10
46.40603226701955
 20
163.1466048161677
 30
0.0
 11
46.40603226701955
 21
150.1466048161677
 31
0.0
  0
LINE
  5
EF7C898B5
330
EF7C85532
100
AcDbEntity
  8
JISSEN
100
AcDbLine
 10
38.57790726701955
 20
171.8966048161677
 30
0.0
 11
48.90603226701955
 21
171.8966048161677
 31
0.0
  0
ARC
  5
EF7C898B6
330
EF7C85532
100
AcDbEntity
  8
JISSEN
100
AcDbCircle
 10
43.15603226701955
 20
155.8653548161677
 30
0.0
 40
14.28125000000001
100
AcDbArc
 50
68.43140426487474
 51
111.5685957351252
  0
ARC
  5
EF7C898B7
330
EF7C85532
100
AcDbEntity
  8
JISSEN
100
AcDbCircle
 10
43.15603226701955
 20
179.4278548161677
 30
0.0
 40
14.28125
100
AcDbArc
 50
248.4314042648747
 51
291.5685957351252
  0
LWPOLYLINE
  5
EF7C898BB
330
EF7C85532
100
AcDbEntity
  8
JISSEN
100
AcDbPolyline
 90
        3
 70
     0
 43
0.0
 10
48.90603226701955
 20
165.1466048161676
 10
37.40603226701955
 20
165.1466048161676
 10
37.40603226701955
 20
170.1466048161677
  0
LWPOLYLINE
  5
EF7C898BC
330
EF7C85532
100
AcDbEntity
  8
JISSEN
100
AcDbPolyline
 90
        2
 70
     0
 43
0.0
 10
37.40603226701955
 20
170.1466048161677
 10
48.90603226701955
 20
170.1466048161677
  0
LINE
  5
EF7C898BE
330
EF7C85532
100
AcDbEntity
  8
JISSEN
100
AcDbLine
 10
38.53103226701955
 20
170.1466048161677
 30
0.0
 11
38.90603226701955
 21
184.1466048161676
 31
0.0
  0
LINE
  5
EF7C898C0
330
EF7C85532
100
AcDbEntity
  8
SAISEN
100
AcDbLine
 10
39.55112155273383
 20
171.8966048161677
 30
0.0
 11
39.90603226701955
 21
185.1466048161676
 31
0.0
  0
LINE
  5
EF7C898F1
330
EF7C85532
100
AcDbEntity
  8
SAISEN
100
AcDbLine
 10
58.26094298130527
 20
171.8966048161677
 30
0.0
 11
57.90603226701955
 21
185.1466048161676
 31
0.0
  0
LINE
  5
EF7C898F2
330
EF7C85532
100
AcDbEntity
  8
JISSEN
100
AcDbLine
 10
59.28103226701955
 20
170.1466048161677
 30
0.0
 11
58.90603226701955
 21
184.1466048161676
 31
0.0
  0
LWPOLYLINE
  5
EF7C898F3
330
EF7C85532
100
AcDbEntity
  8
JISSEN
100
AcDbPolyline
 90
        2
 70
     0
 43
0.0
 10
60.40603226701955
 20
170.1466048161677
 10
48.90603226701955
 20
170.1466048161677
  0
LWPOLYLINE
  5
EF7C898F4
330
EF7C85532
100
AcDbEntity
  8
JISSEN
100
AcDbPolyline
 90
        3
 70
     0
 43
0.0
 10
48.90603226701955
 20
165.1466048161676
 10
60.40603226701955
 20
165.1466048161676
 10
60.40603226701955
 20
170.1466048161677
  0
ARC
  5
EF7C898F5
330
EF7C85532
100
AcDbEntity
  8
JISSEN
100
AcDbCircle
 10
54.65603226701955
 20
179.4278548161677
 30
0.0
 40
14.28125
100
AcDbArc
 50
248.4314042648747
 51
291.5685957351252
  0
ARC
  5
EF7C898F6
330
EF7C85532
100
AcDbEntity
  8
JISSEN
100
AcDbCircle
 10
54.65603226701955
 20
155.8653548161677
 30
0.0
 40
14.28125000000001
100
AcDbArc
 50
68.43140426487472
 51
111.5685957351252
  0
LINE
  5
EF7C898F7
330
EF7C85532
100
AcDbEntity
  8
JISSEN
100
AcDbLine
 10
59.23415726701955
 20
171.8966048161677
 30
0.0
 11
48.90603226701955
 21
171.8966048161677
 31
0.0
  0
LINE
  5
EF7C898F8
330
EF7C85532
100
AcDbEntity
  8
JISSEN
100
AcDbLine
 10
60.15603226701955
 20
151.1466048161677
 30
0.0
 11
51.40603226701955
 21
151.1466048161677
 31
0.0
  0
LINE
  5
EF7C898F9
330
EF7C85532
100
AcDbEntity
  8
JISSEN
100
AcDbLine
 10
59.15603226701955
 20
150.1466048161677
 30
0.0
 11
51.40603226701955
 21
150.1466048161677
 31
0.0
  0
LINE
  5
EF7C898FA
330
EF7C85532
100
AcDbEntity
  8
JISSEN
100
AcDbLine
 10
60.15603226701955
 20
165.1466048161676
 30
0.0
 11
60.15603226701955
 21
151.1466048161677
 31
0.0
  0
LINE
  5
EF7C898FB
330
EF7C85532
100
AcDbEntity
  8
JISSEN
100
AcDbLine
 10
60.15603226701955
 20
151.1466048161677
 30
0.0
 11
59.15603226701955
 21
150.1466048161677
 31
0.0
  0
LINE
  5
EF7C898FC
330
EF7C85532
100
AcDbEntity
  8
SAISEN
100
AcDbLine
 10
59.28103226701955
 20
170.1466048161677
 30
0.0
 11
58.26094298130527
 21
171.8966048161677
 31
0.0
  0
LINE
  5
EF7C898FD
330
EF7C85532
100
AcDbEntity
  8
JISSEN
100
AcDbLine
 10
59.90603226701955
 20
169.1466048161677
 30
0.0
 11
59.90603226701955
 21
166.1466048161677
 31
0.0
  0
LINE
  5
EF7C898FE
330
EF7C85532
100
AcDbEntity
  8
JISSEN
100
AcDbLine
 10
60.40603226701955
 20
166.1466048161677
 30
0.0
 11
59.90603226701955
 21
166.1466048161677
 31
0.0
  0
LINE
  5
EF7C898FF
330
EF7C85532
100
AcDbEntity
  8
JISSEN
100
AcDbLine
 10
60.40603226701955
 20
169.1466048161677
 30
0.0
 11
59.90603226701955
 21
169.1466048161677
 31
0.0
  0
LINE
  5
EF7C89900
330
EF7C85532
100
AcDbEntity
  8
JISSEN
100
AcDbLine
 10
51.40603226701955
 20
163.1466048161677
 30
0.0
 11
51.40603226701955
 21
150.1466048161677
 31
0.0
  0
LWPOLYLINE
  5
EF7C89901
330
EF7C85532
100
AcDbEntity
  8
JISSEN
100
AcDbPolyline
 90
        3
 70
     0
 43
0.0
 10
48.90603226701955
 20
166.1466048161677
 10
49.40603226701956
 20
166.1466048161677
 10
49.40603226701956
 20
169.1466048161677
  0
LWPOLYLINE
  5
EF7C89902
330
EF7C85532
100
AcDbEntity
  8
JISSEN
100
AcDbPolyline
 90
        2
 70
     0
 43
0.0
 10
49.40603226701956
 20
169.1466048161677
 10
48.90603226701955
 20
169.1466048161677
  0
LINE
  5
EF7C89903
330
EF7C85532
100
AcDbEntity
  8
JISSEN
100
AcDbLine
 10
58.90603226701955
 20
184.1466048161676
 30
0.0
 11
48.90603226701955
 21
184.1466048161677
 31
0.0
  0
LINE
  5
EF7C89904
330
EF7C85532
100
AcDbEntity
  8
JISSEN
100
AcDbLine
 10
58.90603226701955
 20
184.1466048161676
 30
0.0
 11
57.90603226701955
 21
185.1466048161676
 31
0.0
  0
LINE
  5
EF7C89905
330
EF7C85532
100
AcDbEntity
  8
JISSEN
100
AcDbLine
 10
57.90603226701955
 20
185.1466048161676
 30
0.0
 11
39.90603226701955
 21
185.1466048161676
 31
0.0
  0
LINE
  5
EF7C89906
330
EF7C85532
100
AcDbEntity
  8
JISSEN
100
AcDbLine
 10
51.40603226701955
 20
163.1466048161677
 30
0.0
 11
46.40603226701955
 21
163.1466048161677
 31
0.0
  0
LWPOLYLINE
  5
EF7C89A9C
330
EF7C85532
100
AcDbEntity
  8
NITEN
100
AcDbPolyline
 90
        2
 70
     0
 43
0.0
 10
31.90603226701944
 20
236.0948713730373
 42
-0.5882352941176294
 10
48.90603226701955
 20
236.0948713730376
 42
-0.5882352941176294
  0
LWPOLYLINE
  5
EF7C89A9D
330
EF7C85532
100
AcDbEntity
  8
NITEN
100
AcDbPolyline
 90
        5
 70
     0
 43
0.0
 10
31.90603226701949
 20
215.2571537218914
 10
31.90603226701949
 20
236.0948713730373
 42
0.5882352941176475
 10
48.9060322670195
 20
236.0948713730373
 42
-0.5882352941176476
 10
65.9060322670195
 20
236.094871373037
 10
65.9060322670195
 20
215.2571537218914
  0
LWPOLYLINE
  5
EF7C89AA4
330
EF7C85532
100
AcDbEntity
  8
NITEN
100
AcDbPolyline
 90
       15
 70
     1
 43
0.0
 10
62.9060322670195
 20
174.7571537218914
 42
-0.4142135623730927
 10
61.40603226701955
 20
173.2571537218914
 10
38.31198109602297
 20
173.2571537218914
 10
36.4060322670195
 20
173.2571537218914
 42
-0.4142135623730925
 10
34.90603226701949
 20
174.7571537218914
 10
34.90603226701949
 20
185.8031697481094
 42
0.4142135623730943
 10
29.90603226701949
 20
190.8031697481094
 42
-0.4142135623730951
 10
27.9060322670195
 20
192.8031697481094
 10
27.90603226701955
 20
213.2571537218914
 42
-0.4142135623730948
 10
29.90603226701949
 20
215.2571537218914
 10
67.9060322670195
 20
215.2571537218914
 42
-0.4142135623730951
 10
69.90603226701949
 20
213.2571537218914
 10
69.90603226701949
 20
192.8031697481094
 42
-0.4142135623730951
 10
67.9060322670195
 20
190.8031697481094
 42
0.4142135623730961
 10
62.9060322670195
 20
185.8031697481094
  0
HATCH
  5
EF7C89AA5
330
EF7C85532
100
AcDbEntity
  8
JISSEN
 62
     0
100
AcDbHatch
 10
0.0
 20
0.0
 30
0.0
210
0.0
220
0.0
230
1.0
  2
ANSI31
 70
     0
 71
     0
 91
        2
 92
        7
 72
     0
 73
     1
 93
       50
 10
10.04286066499582
 20
178.2407777141698
 10
10.16489909054962
 20
178.306852112414
 10
10.32658828604098
 20
178.3704640997501
 10
10.50171003864807
 20
178.4335835974797
 10
10.66404613555221
 20
178.4981805269075
 10
10.78737836393452
 20
178.5662248093364
 10
10.84548851097565
 20
178.63968636607
 10
10.82294207434119
 20
178.7206226169152
 10
10.74743939363543
 20
178.8114409756979
 10
10.65746451895574
 20
178.9146363547402
 10
10.59150150038794
 20
179.0327036663759
 10
10.58803438802567
 20
179.1681378229311
 10
10.68554723196052
 20
179.3234337367332
 10
10.92252408228409
 20
179.5010863201102
 10
11.33744898908776
 20
179.70359048539
 10
28.83744898908821
 20
179.7035904853901
 10
28.83744898908821
 20
174.70359048539
 10
11.33744898908844
 20
174.7035904853902
 10
10.94239105364181
 20
174.8625180438787
 10
10.74096258508666
 20
175.0017150389632
 10
10.69409420652914
 20
175.1247388446647
 10
10.76271654107495
 20
175.2351468350044
 10
10.90776021183046
 20
175.3364963840026
 10
11.09015584189967
 20
175.4323448656857
 10
11.27083405439543
 20
175.5262496540594
 10
11.41072547241697
 20
175.6217681231596
 10
11.50892817556302
 20
175.7626638239173
 10
11.45453544956899
 20
175.9330003212364
 10
11.39626590512512
 20
176.0423463553127
 10
11.33257402294566
 20
176.1528004657638
 10
11.28206826144025
 20
176.2633469079925
 10
11.2633570790158
 20
176.3729699374071
 10
11.29504893408011
 20
176.4806538094156
 10
11.38886140516979
 20
176.5856649310306
 10
11.52894855133672
 20
176.6883983156883
 10
11.69257355176227
 20
176.7895311284287
 10
11.85699958562304
 20
176.8897405342969
 10
11.99948983210356
 20
176.9897036983302
 10
12.09730747038247
 20
177.0900977855721
 10
12.12771567964046
 20
177.1915999610635
 10
12.06797763905797
 20
177.294887389846
 10
11.9039624245986
 20
177.4002986554302
 10
11.65596269936077
 20
177.5068180152031
 10
11.35287702322727
 20
177.6130911450201
 10
11.02360395607547
 20
177.7177637207397
 10
10.69704205779794
 20
177.8194814182133
 10
10.40208988826452
 20
177.9168899133017
 10
10.1676460073636
 20
178.008634881859
 10
10.02260897497512
 20
178.0933619997415
 10
9.986691222197805
 20
178.1702709837132
 97
        0
 92
        7
 72
     0
 73
     1
 93
       50
 10
68.83744898908822
 20
179.7035904853903
 10
86.3374489890881
 20
179.7035904853902
 10
86.75237389589222
 20
179.5010863201101
 10
86.98935074621591
 20
179.3234337367332
 10
87.08686359015075
 20
179.168137822931
 10
87.08339647778837
 20
179.032703666376
 10
87.01743345922068
 20
178.9146363547402
 10
86.92745858453827
 20
178.8114409756948
 10
86.85195590383523
 20
178.7206226169152
 10
86.82940946720066
 20
178.6396863660701
 10
86.88751961424168
 20
178.5662248093366
 10
87.01085184262433
 20
178.4981805269077
 10
87.17318793952903
 20
178.4335835974798
 10
87.34830969213636
 20
178.3704640997496
 10
87.50999888762647
 20
178.3068521124141
 10
87.63203731318048
 20
178.2407777141698
 10
87.6882067559784
 20
178.1702709837133
 10
87.65228900320119
 20
178.0933619997415
 10
87.50725197081271
 20
178.0086348818591
 10
87.27280808991077
 20
177.9168899133015
 10
86.97785592038167
 20
177.8194814182139
 10
86.65129402209799
 20
177.7177637207397
 10
86.3220209549495
 20
177.6130911450202
 10
86.01893527881543
 20
177.5068180152029
 10
85.77093555357738
 20
177.4002986554302
 10
85.60692033911847
 20
177.2948873898461
 10
85.54718229853575
 20
177.1915999610634
 10
85.57759050779385
 20
177.0900977855721
 10
85.67540814607253
 20
176.9897036983305
 10
85.81789839255282
 20
176.889740534297
 10
85.98232442641871
 20
176.7895311284278
 10
86.1459494268397
 20
176.6883983156883
 10
86.28603657300642
 20
176.5856649310306
 10
86.37984904409632
 20
176.4806538094156
 10
86.41154089916051
 20
176.372969937407
 10
86.39282971673607
 20
176.2633469079923
 10
86.34232395523055
 20
176.1528004657634
 10
86.27863207305187
 20
176.0423463553141
 10
86.22036252860722
 20
175.9330003212363
 10
86.16596980261329
 20
175.7626638239173
 10
86.26417250575945
 20
175.6217681231596
 10
86.404063923781
 20
175.5262496540595
 10
86.58474213627233
 20
175.4323448656818
 10
86.76713776634585
 20
175.3364963840027
 10
86.91218143710125
 20
175.2351468350045
 10
86.98080377164718
 20
175.1247388446648
 10
86.93393539308955
 20
175.0017150389632
 10
86.73250692453439
 20
174.8625180438788
 10
86.33744898908787
 20
174.7035904853902
 10
68.83744898908822
 20
174.7035904853902
 97
        0
 75
     0
 76
     1
 52
0.0
 41
20.0
 77
     0
 78
     1
 53
135.0
 43
107.196953752533
 44
-531.6508667151553
 45
1.767766952966368
 46
1.767766952966368
 79
     0
 47
0.1350417537953048
 98
        2
 10
-57.72629253139053
 20
176.88775434264
 10
-1.631700891273567
 20
178.3732137427777
  0
LINE
  5
EF7C89AAB
330
EF7C85532
100
AcDbEntity
  8
JISSEN
100
AcDbLine
 10
150.1560322670195
 20
165.1466048161676
 30
0.0
 11
150.1560322670195
 21
151.1466048161677
 31
0.0
  0
LINE
  5
EF7C89AAC
330
EF7C85532
100
AcDbEntity
  8
JISSEN
100
AcDbLine
 10
127.6560322670195
 20
165.1466048161676
 30
0.0
 11
127.6560322670195
 21
151.1466048161677
 31
0.0
  0
LINE
  5
EF7C89AB0
330
EF7C85532
100
AcDbEntity
  8
JISSEN
100
AcDbLine
 10
128.6560322670195
 20
150.1466048161677
 30
0.0
 11
149.1560322670195
 21
150.1466048161677
 31
0.0
  0
LINE
  5
EF7C89AB1
330
EF7C85532
100
AcDbEntity
  8
JISSEN
100
AcDbLine
 10
127.6560322670195
 20
151.1466048161677
 30
0.0
 11
150.1560322670195
 21
151.1466048161677
 31
0.0
  0
LINE
  5
EF7C89AB2
330
EF7C85532
100
AcDbEntity
  8
SUNPOU
100
AcDbLine
 10
55.28103226701973
 20
150.1466048161673
 30
0.0
 11
64.94089991927245
 21
130.2776667130076
 31
0.0
  0
LINE
  5
EF7C89AB3
330
EF7C85532
100
AcDbEntity
  8
JISSEN
100
AcDbLine
 10
127.6560322670195
 20
151.1466048161677
 30
0.0
 11
128.6560322670195
 21
150.1466048161677
 31
0.0
  0
INSERT
  5
EF7C89AB4
330
EF7C85532
100
AcDbEntity
  8
SUNPOU
100
AcDbBlockReference
  2
ARROW
 10
55.28103226701961
 20
150.1466048161673
 30
0.0
 41
-1.49999999999999
 42
1.5
 43
1.5
 50
295.9280644736455
  0
CIRCLE
  5
EF7C89AB8
330
EF7C85532
100
AcDbEntity
  8
SUNPOU
100
AcDbCircle
 10
67.56435404966038
 20
124.8816044055699
 30
0.0
 40
6.0
  0
TEXT
  5
EF7C89AB9
330
EF7C85532
100
AcDbEntity
  8
SUNPOU
100
AcDbText
 10
65.74292547823181
 20
122.6316044055699
 30
0.0
 40
4.5
  1
1
  7
K
 72
     4
 11
67.56435404966038
 21
124.8816044055699
 31
0.0
100
AcDbText
  0
LINE
  5
EF7C89ABA
330
EF7C85532
100
AcDbEntity
  8
JISSEN
100
AcDbLine
 10
149.1560322670195
 20
150.1466048161677
 30
0.0
 11
150.1560322670195
 21
151.1466048161677
 31
0.0
  0
ARC
  5
EF7C89ABD
330
EF7C85532
100
AcDbEntity
  8
JISSEN
100
AcDbCircle
 10
138.9060322670195
 20
179.4278548161677
 30
0.0
 40
14.28125
100
AcDbArc
 50
248.4314042648762
 51
291.5685957351237
  0
ARC
  5
EF7C89ABE
330
EF7C85532
100
AcDbEntity
  8
JISSEN
100
AcDbCircle
 10
138.9060322670195
 20
155.8653548161677
 30
0.0
 40
14.28125000000001
100
AcDbArc
 50
68.43140426487626
 51
111.5685957351237
  0
LINE
  5
EF7C89ABF
330
EF7C85532
100
AcDbEntity
  8
JISSEN
100
AcDbLine
 10
128.9060322670195
 20
184.1466048161676
 30
0.0
 11
148.9060322670195
 21
184.1466048161676
 31
0.0
  0
LINE
  5
EF7C89AC0
330
EF7C85532
100
AcDbEntity
  8
JISSEN
100
AcDbLine
 10
129.9060322670195
 20
185.1466048161676
 30
0.0
 11
147.9060322670195
 21
185.1466048161676
 31
0.0
  0
LWPOLYLINE
  5
EF7C89AC1
330
EF7C85532
100
AcDbEntity
  8
JISSEN
100
AcDbPolyline
 90
        4
 70
     1
 43
0.0
 10
127.4060322670195
 20
170.1466048161677
 10
150.4060322670195
 20
170.1466048161677
 10
150.4060322670195
 20
165.1466048161676
 10
127.4060322670195
 20
165.1466048161676
  0
LINE
  5
EF7C89AC2
330
EF7C85532
100
AcDbEntity
  8
JISSEN
100
AcDbLine
 10
128.5779072670195
 20
171.8966048161677
 30
0.0
 11
149.2341572670195
 21
171.8966048161677
 31
0.0
  0
HATCH
  5
EF7C89AC3
330
EF7C85532
100
AcDbEntity
  8
JISSEN
 62
     0
100
AcDbHatch
 10
0.0
 20
0.0
 30
0.0
210
0.0
220
0.0
230
1.0
  2
ANSI31
 70
     0
 71
     0
 91
        2
 92
        7
 72
     0
 73
     1
 93
       50
 10
177.7692038690432
 20
178.2407777141698
 10
177.6471654434894
 20
178.306852112414
 10
177.4854762479981
 20
178.3704640997501
 10
177.310354495391
 20
178.4335835974797
 10
177.1480183984869
 20
178.4981805269075
 10
177.0246861701045
 20
178.5662248093364
 10
176.9665760230634
 20
178.63968636607
 10
176.9891224596979
 20
178.7206226169152
 10
177.0646251404036
 20
178.8114409756979
 10
177.1546000150833
 20
178.9146363547402
 10
177.2205630336511
 20
179.0327036663759
 10
177.2240301460134
 20
179.1681378229311
 10
177.1265173020785
 20
179.3234337367332
 10
176.889540451755
 20
179.5010863201102
 10
176.4746155449513
 20
179.70359048539
 10
158.9746155449509
 20
179.7035904853901
 10
158.9746155449509
 20
174.70359048539
 10
176.4746155449506
 20
174.7035904853902
 10
176.8696734803973
 20
174.8625180438787
 10
177.0711019489524
 20
175.0017150389632
 10
177.1179703275099
 20
175.1247388446647
 10
177.0493479929641
 20
175.2351468350044
 10
176.9043043222086
 20
175.3364963840026
 10
176.7219086921394
 20
175.4323448656857
 10
176.5412304796436
 20
175.5262496540594
 10
176.4013390616221
 20
175.6217681231596
 10
176.303136358476
 20
175.7626638239173
 10
176.3575290844701
 20
175.9330003212364
 10
176.4157986289139
 20
176.0423463553127
 10
176.4794905110934
 20
176.1528004657638
 10
176.5299962725988
 20
176.2633469079925
 10
176.5487074550233
 20
176.3729699374071
 10
176.517015599959
 20
176.4806538094156
 10
176.4232031288693
 20
176.5856649310306
 10
176.2831159827023
 20
176.6883983156883
 10
176.1194909822768
 20
176.7895311284287
 10
175.955064948416
 20
176.8897405342969
 10
175.8125747019355
 20
176.9897036983302
 10
175.7147570636566
 20
177.0900977855721
 10
175.6843488543986
 20
177.1915999610635
 10
175.7440868949811
 20
177.294887389846
 10
175.9081021094405
 20
177.4002986554302
 10
176.1561018346783
 20
177.5068180152031
 10
176.4591875108118
 20
177.6130911450201
 10
176.7884605779636
 20
177.7177637207397
 10
177.1150224762411
 20
177.8194814182133
 10
177.4099746457745
 20
177.9168899133017
 10
177.6444185266755
 20
178.008634881859
 10
177.7894555590639
 20
178.0933619997415
 10
177.8253733118413
 20
178.1702709837132
 97
        0
 92
        7
 72
     0
 73
     1
 93
       50
 10
118.9746155449509
 20
179.7035904853903
 10
101.474615544951
 20
179.7035904853902
 10
101.0596906381469
 20
179.5010863201101
 10
100.8227137878232
 20
179.3234337367332
 10
100.7252009438883
 20
179.168137822931
 10
100.7286680562507
 20
179.032703666376
 10
100.7946310748184
 20
178.9146363547402
 10
100.8846059495008
 20
178.8114409756948
 10
100.9601086302039
 20
178.7206226169152
 10
100.9826550668384
 20
178.6396863660701
 10
100.9245449197974
 20
178.5662248093366
 10
100.8012126914147
 20
178.4981805269077
 10
100.63887659451
 20
178.4335835974798
 10
100.4637548419027
 20
178.3704640997496
 10
100.3020656464126
 20
178.3068521124141
 10
100.1800272208586
 20
178.2407777141698
 10
100.1238577780607
 20
178.1702709837133
 10
100.1597755308379
 20
178.0933619997415
 10
100.3048125632264
 20
178.0086348818591
 10
100.5392564441283
 20
177.9168899133015
 10
100.8342086136574
 20
177.8194814182139
 10
101.1607705119411
 20
177.7177637207397
 10
101.4900435790896
 20
177.6130911450202
 10
101.7931292552237
 20
177.5068180152029
 10
102.0411289804617
 20
177.4002986554302
 10
102.2051441949206
 20
177.2948873898461
 10
102.2648822355033
 20
177.1915999610634
 10
102.2344740262453
 20
177.0900977855721
 10
102.1366563879666
 20
176.9897036983305
 10
101.9941661414863
 20
176.889740534297
 10
101.8297401076204
 20
176.7895311284278
 10
101.6661151071994
 20
176.6883983156883
 10
101.5260279610327
 20
176.5856649310306
 10
101.4322154899428
 20
176.4806538094156
 10
101.4005236348786
 20
176.372969937407
 10
101.419234817303
 20
176.2633469079923
 10
101.4697405788085
 20
176.1528004657634
 10
101.5334324609872
 20
176.0423463553141
 10
101.5917020054319
 20
175.9330003212363
 10
101.6460947314258
 20
175.7626638239173
 10
101.5478920282796
 20
175.6217681231596
 10
101.4080006102581
 20
175.5262496540595
 10
101.2273223977668
 20
175.4323448656818
 10
101.0449267676932
 20
175.3364963840027
 10
100.8998830969378
 20
175.2351468350045
 10
100.8312607623919
 20
175.1247388446648
 10
100.8781291409496
 20
175.0017150389632
 10
101.0795576095047
 20
174.8625180438788
 10
101.4746155449512
 20
174.7035904853902
 10
118.9746155449509
 20
174.7035904853902
 97
        0
 75
     0
 76
     1
 52
0.0
 41
20.0
 77
     0
 78
     1
 53
45.0
 43
80.61511078150605
 44
-531.6508667151553
 45
-1.767766952966368
 46
1.767766952966368
 79
     0
 47
0.1350417537953048
 98
        2
 10
245.5383570654296
 20
176.88775434264
 10
189.4437654253126
 20
178.3732137427777
  0
LWPOLYLINE
  5
EF7C89AC4
330
EF7C85532
100
AcDbEntity
  8
NITEN
100
AcDbPolyline
 90
       15
 70
     1
 43
0.0
 10
124.9060322670196
 20
174.7571537218914
 42
0.4142135623730927
 10
126.4060322670195
 20
173.2571537218914
 10
149.5000834380161
 20
173.2571537218914
 10
151.4060322670196
 20
173.2571537218914
 42
0.4142135623730925
 10
152.9060322670196
 20
174.7571537218914
 10
152.9060322670196
 20
185.8031697481094
 42
-0.4142135623730943
 10
157.9060322670196
 20
190.8031697481094
 42
0.4142135623730951
 10
159.9060322670196
 20
192.8031697481094
 10
159.9060322670195
 20
213.2571537218914
 42
0.4142135623730948
 10
157.9060322670196
 20
215.2571537218914
 10
119.9060322670196
 20
215.2571537218914
 42
0.4142135623730951
 10
117.9060322670196
 20
213.2571537218914
 10
117.9060322670196
 20
192.8031697481094
 42
0.4142135623730951
 10
119.9060322670196
 20
190.8031697481094
 42
-0.4142135623730961
 10
124.9060322670196
 20
185.8031697481094
  0
LWPOLYLINE
  5
EF7C89AC5
330
EF7C85532
100
AcDbEntity
  8
NITEN
100
AcDbPolyline
 90
        2
 70
     0
 43
0.0
 10
155.9060322670196
 20
236.0948713730373
 42
0.5882352941176294
 10
138.9060322670195
 20
236.0948713730376
 42
0.5882352941176294
  0
LWPOLYLINE
  5
EF7C89AC6
330
EF7C85532
100
AcDbEntity
  8
NITEN
100
AcDbPolyline
 90
        5
 70
     0
 43
0.0
 10
155.9060322670196
 20
215.2571537218914
 10
155.9060322670196
 20
236.0948713730373
 42
-0.5882352941176475
 10
138.9060322670196
 20
236.0948713730373
 42
0.5882352941176476
 10
121.9060322670196
 20
236.094871373037
 10
121.9060322670196
 20
215.2571537218914
  0
POLYLINE
  5
EF7C89AC7
330
EF7C85532
100
AcDbEntity
  8
JISSEN
 62
     0
100
AcDb2dPolyline
 66
     1
 10
0.0
 20
0.0
 30
0.0
 70
     4
 75
     6
  0
VERTEX
  5
EF7C89AC8
330
EF7C89AC7
100
AcDbEntity
  8
JISSEN
 62
     0
100
AcDbVertex
100
AcDb2dVertex
 10
101.4746155449508
 20
179.7035904853902
 30
0.0
 70
    16
  0
VERTEX
  5
EF7C89AC9
330
EF7C89AC7
100
AcDbEntity
  8
JISSEN
 62
     0
100
AcDbVertex
100
AcDb2dVertex
 10
101.4746155449508
 20
179.7035904853902
 30
0.0
 70
     8
  0
VERTEX
  5
EF7C89ACA
330
EF7C89AC7
100
AcDbEntity
  8
JISSEN
 62
     0
100
AcDbVertex
100
AcDb2dVertex
 10
101.059690638147
 20
179.5010863201102
 30
0.0
 70
     8
  0
VERTEX
  5
EF7C89ACB
330
EF7C89AC7
100
AcDbEntity
  8
JISSEN
 62
     0
100
AcDbVertex
100
AcDb2dVertex
 10
100.8227137878232
 20
179.3234337367331
 30
0.0
 70
     8
  0
VERTEX
  5
EF7C89ACC
330
EF7C89AC7
100
AcDbEntity
  8
JISSEN
 62
     0
100
AcDbVertex
100
AcDb2dVertex
 10
100.7252009438884
 20
179.168137822931
 30
0.0
 70
     8
  0
VERTEX
  5
EF7C89ACD
330
EF7C89AC7
100
AcDbEntity
  8
JISSEN
 62
     0
100
AcDbVertex
100
AcDb2dVertex
 10
100.7286680562506
 20
179.0327036663759
 30
0.0
 70
     8
  0
VERTEX
  5
EF7C89ACE
330
EF7C89AC7
100
AcDbEntity
  8
JISSEN
 62
     0
100
AcDbVertex
100
AcDb2dVertex
 10
100.7946310748184
 20
178.9146363547403
 30
0.0
 70
     8
  0
VERTEX
  5
EF7C89ACF
330
EF7C89AC7
100
AcDbEntity
  8
JISSEN
 62
     0
100
AcDbVertex
100
AcDb2dVertex
 10
100.8846059494999
 20
178.811440975696
 30
0.0
 70
     8
  0
VERTEX
  5
EF7C89AD0
330
EF7C89AC7
100
AcDbEntity
  8
JISSEN
 62
     0
100
AcDbVertex
100
AcDb2dVertex
 10
100.9601086302038
 20
178.7206226169152
 30
0.0
 70
     8
  0
VERTEX
  5
EF7C89AD1
330
EF7C89AC7
100
AcDbEntity
  8
JISSEN
 62
     0
100
AcDbVertex
100
AcDb2dVertex
 10
100.9826550668385
 20
178.63968636607
 30
0.0
 70
     8
  0
VERTEX
  5
EF7C89AD2
330
EF7C89AC7
100
AcDbEntity
  8
JISSEN
 62
     0
100
AcDbVertex
100
AcDb2dVertex
 10
100.9245449197974
 20
178.5662248093365
 30
0.0
 70
     8
  0
VERTEX
  5
EF7C89AD3
330
EF7C89AC7
100
AcDbEntity
  8
JISSEN
 62
     0
100
AcDbVertex
100
AcDb2dVertex
 10
100.8012126914147
 20
178.4981805269076
 30
0.0
 70
     8
  0
VERTEX
  5
EF7C89AD4
330
EF7C89AC7
100
AcDbEntity
  8
JISSEN
 62
     0
100
AcDbVertex
100
AcDb2dVertex
 10
100.63887659451
 20
178.4335835974798
 30
0.0
 70
     8
  0
VERTEX
  5
EF7C89AD5
330
EF7C89AC7
100
AcDbEntity
  8
JISSEN
 62
     0
100
AcDbVertex
100
AcDb2dVertex
 10
100.4637548419029
 20
178.3704640997496
 30
0.0
 70
     8
  0
VERTEX
  5
EF7C89AD6
330
EF7C89AC7
100
AcDbEntity
  8
JISSEN
 62
     0
100
AcDbVertex
100
AcDb2dVertex
 10
100.3020656464125
 20
178.3068521124141
 30
0.0
 70
     8
  0
VERTEX
  5
EF7C89AD7
330
EF7C89AC7
100
AcDbEntity
  8
JISSEN
 62
     0
100
AcDbVertex
100
AcDb2dVertex
 10
100.1800272208586
 20
178.2407777141698
 30
0.0
 70
     8
  0
VERTEX
  5
EF7C89AD8
330
EF7C89AC7
100
AcDbEntity
  8
JISSEN
 62
     0
100
AcDbVertex
100
AcDb2dVertex
 10
100.1238577780607
 20
178.1702709837133
 30
0.0
 70
     8
  0
VERTEX
  5
EF7C89AD9
330
EF7C89AC7
100
AcDbEntity
  8
JISSEN
 62
     0
100
AcDbVertex
100
AcDb2dVertex
 10
100.1597755308378
 20
178.0933619997415
 30
0.0
 70
     8
  0
VERTEX
  5
EF7C89ADA
330
EF7C89AC7
100
AcDbEntity
  8
JISSEN
 62
     0
100
AcDbVertex
100
AcDb2dVertex
 10
100.3048125632262
 20
178.008634881859
 30
0.0
 70
     8
  0
VERTEX
  5
EF7C89ADB
330
EF7C89AC7
100
AcDbEntity
  8
JISSEN
 62
     0
100
AcDbVertex
100
AcDb2dVertex
 10
100.5392564441274
 20
177.9168899133017
 30
0.0
 70
     8
  0
VERTEX
  5
EF7C89ADC
330
EF7C89AC7
100
AcDbEntity
  8
JISSEN
 62
     0
100
AcDbVertex
100
AcDb2dVertex
 10
100.8342086136597
 20
177.8194814182136
 30
0.0
 70
     8
  0
VERTEX
  5
EF7C89ADD
330
EF7C89AC7
100
AcDbEntity
  8
JISSEN
 62
     0
100
AcDbVertex
100
AcDb2dVertex
 10
101.1607705119411
 20
177.7177637207385
 30
0.0
 70
     8
  0
VERTEX
  5
EF7C89ADE
330
EF7C89AC7
100
AcDbEntity
  8
JISSEN
 62
     0
100
AcDbVertex
100
AcDb2dVertex
 10
101.4900435790898
 20
177.6130911450202
 30
0.0
 70
     8
  0
VERTEX
  5
EF7C89ADF
330
EF7C89AC7
100
AcDbEntity
  8
JISSEN
 62
     0
100
AcDbVertex
100
AcDb2dVertex
 10
101.7931292552239
 20
177.5068180152029
 30
0.0
 70
     8
  0
VERTEX
  5
EF7C89AE0
330
EF7C89AC7
100
AcDbEntity
  8
JISSEN
 62
     0
100
AcDbVertex
100
AcDb2dVertex
 10
102.0411289804615
 20
177.4002986554302
 30
0.0
 70
     8
  0
VERTEX
  5
EF7C89AE1
330
EF7C89AC7
100
AcDbEntity
  8
JISSEN
 62
     0
100
AcDbVertex
100
AcDb2dVertex
 10
102.2051441949206
 20
177.294887389846
 30
0.0
 70
     8
  0
VERTEX
  5
EF7C89AE2
330
EF7C89AC7
100
AcDbEntity
  8
JISSEN
 62
     0
100
AcDbVertex
100
AcDb2dVertex
 10
102.2648822355033
 20
177.1915999610635
 30
0.0
 70
     8
  0
VERTEX
  5
EF7C89AE3
330
EF7C89AC7
100
AcDbEntity
  8
JISSEN
 62
     0
100
AcDbVertex
100
AcDb2dVertex
 10
102.2344740262453
 20
177.0900977855722
 30
0.0
 70
     8
  0
VERTEX
  5
EF7C89AE4
330
EF7C89AC7
100
AcDbEntity
  8
JISSEN
 62
     0
100
AcDbVertex
100
AcDb2dVertex
 10
102.1366563879664
 20
176.9897036983303
 30
0.0
 70
     8
  0
VERTEX
  5
EF7C89AE5
330
EF7C89AC7
100
AcDbEntity
  8
JISSEN
 62
     0
100
AcDbVertex
100
AcDb2dVertex
 10
101.9941661414859
 20
176.8897405342968
 30
0.0
 70
     8
  0
VERTEX
  5
EF7C89AE6
330
EF7C89AC7
100
AcDbEntity
  8
JISSEN
 62
     0
100
AcDbVertex
100
AcDb2dVertex
 10
101.8297401076238
 20
176.7895311284298
 30
0.0
 70
     8
  0
VERTEX
  5
EF7C89AE7
330
EF7C89AC7
100
AcDbEntity
  8
JISSEN
 62
     0
100
AcDbVertex
100
AcDb2dVertex
 10
101.6661151071996
 20
176.6883983156883
 30
0.0
 70
     8
  0
VERTEX
  5
EF7C89AE8
330
EF7C89AC7
100
AcDbEntity
  8
JISSEN
 62
     0
100
AcDbVertex
100
AcDb2dVertex
 10
101.5260279610326
 20
176.5856649310306
 30
0.0
 70
     8
  0
VERTEX
  5
EF7C89AE9
330
EF7C89AC7
100
AcDbEntity
  8
JISSEN
 62
     0
100
AcDbVertex
100
AcDb2dVertex
 10
101.4322154899427
 20
176.4806538094155
 30
0.0
 70
     8
  0
VERTEX
  5
EF7C89AEA
330
EF7C89AC7
100
AcDbEntity
  8
JISSEN
 62
     0
100
AcDbVertex
100
AcDb2dVertex
 10
101.4005236348784
 20
176.3729699374071
 30
0.0
 70
     8
  0
VERTEX
  5
EF7C89AEB
330
EF7C89AC7
100
AcDbEntity
  8
JISSEN
 62
     0
100
AcDbVertex
100
AcDb2dVertex
 10
101.419234817303
 20
176.2633469079922
 30
0.0
 70
     8
  0
VERTEX
  5
EF7C89AEC
330
EF7C89AC7
100
AcDbEntity
  8
JISSEN
 62
     0
100
AcDbVertex
100
AcDb2dVertex
 10
101.4697405788085
 20
176.1528004657637
 30
0.0
 70
     8
  0
VERTEX
  5
EF7C89AED
330
EF7C89AC7
100
AcDbEntity
  8
JISSEN
 62
     0
100
AcDbVertex
100
AcDb2dVertex
 10
101.5334324609875
 20
176.0423463553143
 30
0.0
 70
     8
  0
VERTEX
  5
EF7C89AEE
330
EF7C89AC7
100
AcDbEntity
  8
JISSEN
 62
     0
100
AcDbVertex
100
AcDb2dVertex
 10
101.5917020054319
 20
175.9330003212365
 30
0.0
 70
     8
  0
VERTEX
  5
EF7C89AEF
330
EF7C89AC7
100
AcDbEntity
  8
JISSEN
 62
     0
100
AcDbVertex
100
AcDb2dVertex
 10
101.6259407537338
 20
175.825778108123
 30
0.0
 70
     8
  0
VERTEX
  5
EF7C89AF0
330
EF7C89AC7
100
AcDbEntity
  8
JISSEN
 62
     0
100
AcDbVertex
100
AcDb2dVertex
 10
101.6175402474857
 20
175.7216954605666
 30
0.0
 70
     8
  0
VERTEX
  5
EF7C89AF1
330
EF7C89AC7
100
AcDbEntity
  8
JISSEN
 62
     0
100
AcDbVertex
100
AcDb2dVertex
 10
101.5478920282796
 20
175.6217681231596
 30
0.0
 70
     8
  0
VERTEX
  5
EF7C89AF2
330
EF7C89AC7
100
AcDbEntity
  8
JISSEN
 62
     0
100
AcDbVertex
100
AcDb2dVertex
 10
101.4080006102581
 20
175.5262496540595
 30
0.0
 70
     8
  0
VERTEX
  5
EF7C89AF3
330
EF7C89AC7
100
AcDbEntity
  8
JISSEN
 62
     0
100
AcDbVertex
100
AcDb2dVertex
 10
101.2273223977647
 20
175.4323448656808
 30
0.0
 70
     8
  0
VERTEX
  5
EF7C89AF4
330
EF7C89AC7
100
AcDbEntity
  8
JISSEN
 62
     0
100
AcDbVertex
100
AcDb2dVertex
 10
101.0449267676933
 20
175.3364963840027
 30
0.0
 70
     8
  0
VERTEX
  5
EF7C89AF5
330
EF7C89AC7
100
AcDbEntity
  8
JISSEN
 62
     0
100
AcDbVertex
100
AcDb2dVertex
 10
100.8998830969378
 20
175.2351468350044
 30
0.0
 70
     8
  0
VERTEX
  5
EF7C89AF6
330
EF7C89AC7
100
AcDbEntity
  8
JISSEN
 62
     0
100
AcDbVertex
100
AcDb2dVertex
 10
100.8312607623918
 20
175.1247388446647
 30
0.0
 70
     8
  0
VERTEX
  5
EF7C89AF7
330
EF7C89AC7
100
AcDbEntity
  8
JISSEN
 62
     0
100
AcDbVertex
100
AcDb2dVertex
 10
100.8781291409495
 20
175.0017150389632
 30
0.0
 70
     8
  0
VERTEX
  5
EF7C89AF8
330
EF7C89AC7
100
AcDbEntity
  8
JISSEN
 62
     0
100
AcDbVertex
100
AcDb2dVertex
 10
101.0795576095047
 20
174.8625180438787
 30
0.0
 70
     8
  0
VERTEX
  5
EF7C89AF9
330
EF7C89AC7
100
AcDbEntity
  8
JISSEN
 62
     0
100
AcDbVertex
100
AcDb2dVertex
 10
101.4746155449508
 20
174.7035904853903
 30
0.0
 70
     8
  0
VERTEX
  5
EF7C89AFA
330
EF7C89AC7
100
AcDbEntity
  8
JISSEN
 62
     0
100
AcDbVertex
100
AcDb2dVertex
 10
100.0966770069739
 20
179.1282262355927
 30
0.0
 70
    16
  0
VERTEX
  5
EF7C89AFB
330
EF7C89AC7
100
AcDbEntity
  8
JISSEN
 62
     0
100
AcDbVertex
100
AcDb2dVertex
 10
101.9580182045551
 20
178.5608896129212
 30
0.0
 70
    16
  0
VERTEX
  5
EF7C89AFC
330
EF7C89AC7
100
AcDbEntity
  8
JISSEN
 62
     0
100
AcDbVertex
100
AcDb2dVertex
 10
98.89785117462725
 20
178.1826651978073
 30
0.0
 70
    16
  0
VERTEX
  5
EF7C89AFD
330
EF7C89AC7
100
AcDbEntity
  8
JISSEN
 62
     0
100
AcDbVertex
100
AcDb2dVertex
 10
103.4092302819631
 20
177.2686215942996
 30
0.0
 70
    16
  0
VERTEX
  5
EF7C89AFE
330
EF7C89AC7
100
AcDbEntity
  8
JISSEN
 62
     0
100
AcDbVertex
100
AcDb2dVertex
 10
100.696092867045
 20
176.5121727640713
 30
0.0
 70
    16
  0
VERTEX
  5
EF7C89AFF
330
EF7C89AC7
100
AcDbEntity
  8
JISSEN
 62
     0
100
AcDbVertex
100
AcDb2dVertex
 10
102.3996911895142
 20
175.5666102059082
 30
0.0
 70
    16
  0
VERTEX
  5
EF7C89B00
330
EF7C89AC7
100
AcDbEntity
  8
JISSEN
 62
     0
100
AcDbVertex
100
AcDb2dVertex
 10
100.1282267595556
 20
175.1568668361384
 30
0.0
 70
    16
  0
VERTEX
  5
EF7C89B01
330
EF7C89AC7
100
AcDbEntity
  8
JISSEN
 62
     0
100
AcDbVertex
100
AcDb2dVertex
 10
101.4746155449508
 20
174.7035904853902
 30
0.0
 70
    16
  0
SEQEND
  5
EF7C89B02
330
EF7C89AC7
100
AcDbEntity
  8
JISSEN
 62
     0
  0
LINE
  5
EF7C89B03
330
EF7C85532
100
AcDbEntity
  8
JISSEN
100
AcDbLine
 10
128.5134423123095
 20
179.7035904853904
 30
0.0
 11
101.4746155449511
 21
179.7035904853902
 31
0.0
  0
LINE
  5
EF7C89B04
330
EF7C85532
100
AcDbEntity
  8
JISSEN
100
AcDbLine
 10
101.4746155449513
 20
174.7035904853902
 30
0.0
 11
128.3571845037888
 21
174.7035904853902
 31
0.0
  0
LINE
  5
EF7C89B05
330
EF7C85532
100
AcDbEntity
  8
JISSEN
100
AcDbLine
 10
118.9746155449509
 20
174.7035904853902
 30
0.0
 11
118.9746155449509
 21
179.7035904853902
 31
0.0
  0
ARC
  5
EF7C89B06
330
EF7C85532
100
AcDbEntity
  8
JISSEN
100
AcDbCircle
 10
130.2810322670195
 20
169.7794173161677
 30
0.0
 40
4.632812500000004
100
AcDbArc
 50
231.6419839483777
 51
308.3580160516222
  0
ARC
  5
EF7C89B07
330
EF7C85532
100
AcDbEntity
  8
JISSEN
100
AcDbCircle
 10
130.2810322670195
 20
165.5137923161676
 30
0.0
 40
4.632812500000004
100
AcDbArc
 50
51.64198394837775
 51
128.3580160516222
  0
LINE
  5
EF7C89B08
330
EF7C85532
100
AcDbEntity
  8
JISSEN
100
AcDbLine
 10
128.5310322670195
 20
170.1466048161677
 30
0.0
 11
128.9060322670195
 21
184.1466048161676
 31
0.0
  0
LINE
  5
EF7C89B09
330
EF7C85532
100
AcDbEntity
  8
SAISEN
100
AcDbLine
 10
129.5511215527338
 20
171.8966048161677
 30
0.0
 11
129.9060322670195
 21
185.1466048161676
 31
0.0
  0
LINE
  5
EF7C89B0A
330
EF7C85532
100
AcDbEntity
  8
SAISEN
100
AcDbLine
 10
128.5310322670195
 20
170.1466048161677
 30
0.0
 11
129.5511215527338
 21
171.8966048161677
 31
0.0
  0
LINE
  5
EF7C89B0B
330
EF7C85532
100
AcDbEntity
  8
JISSEN
100
AcDbLine
 10
128.9060322670195
 20
184.1466048161676
 30
0.0
 11
129.9060322670195
 21
185.1466048161676
 31
0.0
  0
LINE
  5
EF7C89B0C
330
EF7C85532
100
AcDbEntity
  8
JISSEN
100
AcDbLine
 10
133.1560322670195
 20
169.1466048161677
 30
0.0
 11
133.1560322670195
 21
166.1466048161677
 31
0.0
  0
LINE
  5
EF7C89B0D
330
EF7C85532
100
AcDbEntity
  8
JISSEN
100
AcDbLine
 10
133.1560322670196
 20
166.1466048161677
 30
0.0
 11
133.6560322670195
 21
166.1466048161677
 31
0.0
  0
LINE
  5
EF7C89B0E
330
EF7C85532
100
AcDbEntity
  8
JISSEN
100
AcDbLine
 10
133.6560322670195
 20
169.1466048161677
 30
0.0
 11
133.6560322670195
 21
166.1466048161677
 31
0.0
  0
LINE
  5
EF7C89B0F
330
EF7C85532
100
AcDbEntity
  8
JISSEN
100
AcDbLine
 10
133.1560322670195
 20
169.1466048161677
 30
0.0
 11
133.6560322670195
 21
169.1466048161677
 31
0.0
  0
LINE
  5
EF7C89B10
330
EF7C85532
100
AcDbEntity
  8
JISSEN
100
AcDbLine
 10
149.2986222217296
 20
179.7035904853902
 30
0.0
 11
176.4746155449513
 21
179.70359048539
 31
0.0
  0
LINE
  5
EF7C89B11
330
EF7C85532
100
AcDbEntity
  8
JISSEN
100
AcDbLine
 10
149.4548800302502
 20
174.7035904853898
 30
0.0
 11
176.4746155449506
 21
174.7035904853902
 31
0.0
  0
LINE
  5
EF7C89B12
330
EF7C85532
100
AcDbEntity
  8
JISSEN
100
AcDbLine
 10
148.9060322670195
 20
184.1466048161676
 30
0.0
 11
149.2810322670195
 21
170.1466048161677
 31
0.0
  0
LINE
  5
EF7C89B13
330
EF7C85532
100
AcDbEntity
  8
SAISEN
100
AcDbLine
 10
147.9060322670195
 20
185.1466048161676
 30
0.0
 11
148.2609429813052
 21
171.8966048161677
 31
0.0
  0
ARC
  5
EF7C89B14
330
EF7C85532
100
AcDbEntity
  8
JISSEN
100
AcDbCircle
 10
147.5310322670195
 20
169.7794173161677
 30
0.0
 40
4.632812500000004
100
AcDbArc
 50
231.6419839483777
 51
308.3580160516222
  0
ARC
  5
EF7C89B15
330
EF7C85532
100
AcDbEntity
  8
JISSEN
100
AcDbCircle
 10
147.5310322670195
 20
165.5137923161676
 30
0.0
 40
4.632812500000004
100
AcDbArc
 50
51.64198394837775
 51
128.3580160516222
  0
LINE
  5
EF7C89B16
330
EF7C85532
100
AcDbEntity
  8
SAISEN
100
AcDbLine
 10
148.2609429813052
 20
171.8966048161677
 30
0.0
 11
149.2810322670195
 21
170.1466048161677
 31
0.0
  0
LINE
  5
EF7C89B17
330
EF7C85532
100
AcDbEntity
  8
JISSEN
100
AcDbLine
 10
144.6560322670196
 20
169.1466048161677
 30
0.0
 11
144.6560322670196
 21
166.1466048161677
 31
0.0
  0
LINE
  5
EF7C89B18
330
EF7C85532
100
AcDbEntity
  8
JISSEN
100
AcDbLine
 10
144.6560322670196
 20
169.1466048161677
 30
0.0
 11
144.1560322670195
 21
169.1466048161677
 31
0.0
  0
LINE
  5
EF7C89B19
330
EF7C85532
100
AcDbEntity
  8
JISSEN
100
AcDbLine
 10
144.6560322670196
 20
166.1466048161677
 30
0.0
 11
144.1560322670195
 21
166.1466048161677
 31
0.0
  0
LINE
  5
EF7C89B1A
330
EF7C85532
100
AcDbEntity
  8
JISSEN
100
AcDbLine
 10
144.1560322670195
 20
169.1466048161677
 30
0.0
 11
144.1560322670195
 21
166.1466048161677
 31
0.0
  0
LINE
  5
EF7C89B1B
330
EF7C85532
100
AcDbEntity
  8
JISSEN
100
AcDbLine
 10
150.4060322670195
 20
169.1466048161677
 30
0.0
 11
150.4060322670195
 21
166.1466048161677
 31
0.0
  0
LINE
  5
EF7C89B1C
330
EF7C85532
100
AcDbEntity
  8
JISSEN
100
AcDbLine
 10
147.9060322670195
 20
185.1466048161676
 30
0.0
 11
148.9060322670195
 21
184.1466048161676
 31
0.0
  0
LINE
  5
EF7C89B1D
330
EF7C85532
100
AcDbEntity
  8
JISSEN
100
AcDbLine
 10
158.9746155449509
 20
179.7035904853902
 30
0.0
 11
158.9746155449509
 21
174.7035904853903
 31
0.0
  0
POLYLINE
  5
EF7C89B1E
330
EF7C85532
100
AcDbEntity
  8
JISSEN
 62
     0
100
AcDb2dPolyline
 66
     1
 10
0.0
 20
0.0
 30
0.0
 70
     4
 75
     6
  0
VERTEX
  5
EF7C89B1F
330
EF7C89B1E
100
AcDbEntity
  8
JISSEN
 62
     0
100
AcDbVertex
100
AcDb2dVertex
 10
176.4746155449508
 20
179.7035904853902
 30
0.0
 70
    16
  0
VERTEX
  5
EF7C89B20
330
EF7C89B1E
100
AcDbEntity
  8
JISSEN
 62
     0
100
AcDbVertex
100
AcDb2dVertex
 10
176.4746155449508
 20
179.7035904853902
 30
0.0
 70
     8
  0
VERTEX
  5
EF7C89B21
330
EF7C89B1E
100
AcDbEntity
  8
JISSEN
 62
     0
100
AcDbVertex
100
AcDb2dVertex
 10
176.889540451755
 20
179.5010863201102
 30
0.0
 70
     8
  0
VERTEX
  5
EF7C89B22
330
EF7C89B1E
100
AcDbEntity
  8
JISSEN
 62
     0
100
AcDbVertex
100
AcDb2dVertex
 10
177.1265173020785
 20
179.3234337367331
 30
0.0
 70
     8
  0
VERTEX
  5
EF7C89B23
330
EF7C89B1E
100
AcDbEntity
  8
JISSEN
 62
     0
100
AcDbVertex
100
AcDb2dVertex
 10
177.2240301460135
 20
179.168137822931
 30
0.0
 70
     8
  0
VERTEX
  5
EF7C89B24
330
EF7C89B1E
100
AcDbEntity
  8
JISSEN
 62
     0
100
AcDbVertex
100
AcDb2dVertex
 10
177.2205630336511
 20
179.0327036663759
 30
0.0
 70
     8
  0
VERTEX
  5
EF7C89B25
330
EF7C89B1E
100
AcDbEntity
  8
JISSEN
 62
     0
100
AcDbVertex
100
AcDb2dVertex
 10
177.1546000150835
 20
178.9146363547403
 30
0.0
 70
     8
  0
VERTEX
  5
EF7C89B26
330
EF7C89B1E
100
AcDbEntity
  8
JISSEN
 62
     0
100
AcDbVertex
100
AcDb2dVertex
 10
177.0646251404018
 20
178.811440975696
 30
0.0
 70
     8
  0
VERTEX
  5
EF7C89B27
330
EF7C89B1E
100
AcDbEntity
  8
JISSEN
 62
     0
100
AcDbVertex
100
AcDb2dVertex
 10
176.9891224596979
 20
178.7206226169152
 30
0.0
 70
     8
  0
VERTEX
  5
EF7C89B28
330
EF7C89B1E
100
AcDbEntity
  8
JISSEN
 62
     0
100
AcDbVertex
100
AcDb2dVertex
 10
176.9665760230634
 20
178.63968636607
 30
0.0
 70
     8
  0
VERTEX
  5
EF7C89B29
330
EF7C89B1E
100
AcDbEntity
  8
JISSEN
 62
     0
100
AcDbVertex
100
AcDb2dVertex
 10
177.0246861701045
 20
178.5662248093365
 30
0.0
 70
     8
  0
VERTEX
  5
EF7C89B2A
330
EF7C89B1E
100
AcDbEntity
  8
JISSEN
 62
     0
100
AcDbVertex
100
AcDb2dVertex
 10
177.1480183984872
 20
178.4981805269076
 30
0.0
 70
     8
  0
VERTEX
  5
EF7C89B2B
330
EF7C89B1E
100
AcDbEntity
  8
JISSEN
 62
     0
100
AcDbVertex
100
AcDb2dVertex
 10
177.3103544953917
 20
178.4335835974798
 30
0.0
 70
     8
  0
VERTEX
  5
EF7C89B2C
330
EF7C89B1E
100
AcDbEntity
  8
JISSEN
 62
     0
100
AcDbVertex
100
AcDb2dVertex
 10
177.485476247999
 20
178.3704640997496
 30
0.0
 70
     8
  0
VERTEX
  5
EF7C89B2D
330
EF7C89B1E
100
AcDbEntity
  8
JISSEN
 62
     0
100
AcDbVertex
100
AcDb2dVertex
 10
177.6471654434892
 20
178.3068521124141
 30
0.0
 70
     8
  0
VERTEX
  5
EF7C89B2E
330
EF7C89B1E
100
AcDbEntity
  8
JISSEN
 62
     0
100
AcDbVertex
100
AcDb2dVertex
 10
177.7692038690431
 20
178.2407777141698
 30
0.0
 70
     8
  0
VERTEX
  5
EF7C89B2F
330
EF7C89B1E
100
AcDbEntity
  8
JISSEN
 62
     0
100
AcDbVertex
100
AcDb2dVertex
 10
177.8253733118413
 20
178.1702709837133
 30
0.0
 70
     8
  0
VERTEX
  5
EF7C89B30
330
EF7C89B1E
100
AcDbEntity
  8
JISSEN
 62
     0
100
AcDbVertex
100
AcDb2dVertex
 10
177.7894555590639
 20
178.0933619997415
 30
0.0
 70
     8
  0
VERTEX
  5
EF7C89B31
330
EF7C89B1E
100
AcDbEntity
  8
JISSEN
 62
     0
100
AcDbVertex
100
AcDb2dVertex
 10
177.6444185266757
 20
178.008634881859
 30
0.0
 70
     8
  0
VERTEX
  5
EF7C89B32
330
EF7C89B1E
100
AcDbEntity
  8
JISSEN
 62
     0
100
AcDbVertex
100
AcDb2dVertex
 10
177.4099746457743
 20
177.9168899133017
 30
0.0
 70
     8
  0
VERTEX
  5
EF7C89B33
330
EF7C89B1E
100
AcDbEntity
  8
JISSEN
 62
     0
100
AcDbVertex
100
AcDb2dVertex
 10
177.115022476242
 20
177.8194814182136
 30
0.0
 70
     8
  0
VERTEX
  5
EF7C89B34
330
EF7C89B1E
100
AcDbEntity
  8
JISSEN
 62
     0
100
AcDbVertex
100
AcDb2dVertex
 10
176.7884605779606
 20
177.7177637207385
 30
0.0
 70
     8
  0
VERTEX
  5
EF7C89B35
330
EF7C89B1E
100
AcDbEntity
  8
JISSEN
 62
     0
100
AcDbVertex
100
AcDb2dVertex
 10
176.4591875108121
 20
177.6130911450202
 30
0.0
 70
     8
  0
VERTEX
  5
EF7C89B36
330
EF7C89B1E
100
AcDbEntity
  8
JISSEN
 62
     0
100
AcDbVertex
100
AcDb2dVertex
 10
176.1561018346778
 20
177.5068180152029
 30
0.0
 70
     8
  0
VERTEX
  5
EF7C89B37
330
EF7C89B1E
100
AcDbEntity
  8
JISSEN
 62
     0
100
AcDbVertex
100
AcDb2dVertex
 10
175.9081021094405
 20
177.4002986554302
 30
0.0
 70
     8
  0
VERTEX
  5
EF7C89B38
330
EF7C89B1E
100
AcDbEntity
  8
JISSEN
 62
     0
100
AcDbVertex
100
AcDb2dVertex
 10
175.7440868949811
 20
177.294887389846
 30
0.0
 70
     8
  0
VERTEX
  5
EF7C89B39
330
EF7C89B1E
100
AcDbEntity
  8
JISSEN
 62
     0
100
AcDbVertex
100
AcDb2dVertex
 10
175.6843488543986
 20
177.1915999610635
 30
0.0
 70
     8
  0
VERTEX
  5
EF7C89B3A
330
EF7C89B1E
100
AcDbEntity
  8
JISSEN
 62
     0
100
AcDbVertex
100
AcDb2dVertex
 10
175.7147570636566
 20
177.0900977855722
 30
0.0
 70
     8
  0
VERTEX
  5
EF7C89B3B
330
EF7C89B1E
100
AcDbEntity
  8
JISSEN
 62
     0
100
AcDbVertex
100
AcDb2dVertex
 10
175.8125747019355
 20
176.9897036983303
 30
0.0
 70
     8
  0
VERTEX
  5
EF7C89B3C
330
EF7C89B1E
100
AcDbEntity
  8
JISSEN
 62
     0
100
AcDbVertex
100
AcDb2dVertex
 10
175.9550649484158
 20
176.8897405342968
 30
0.0
 70
     8
  0
VERTEX
  5
EF7C89B3D
330
EF7C89B1E
100
AcDbEntity
  8
JISSEN
 62
     0
100
AcDbVertex
100
AcDb2dVertex
 10
176.1194909822779
 20
176.7895311284298
 30
0.0
 70
     8
  0
VERTEX
  5
EF7C89B3E
330
EF7C89B1E
100
AcDbEntity
  8
JISSEN
 62
     0
100
AcDbVertex
100
AcDb2dVertex
 10
176.2831159827023
 20
176.6883983156883
 30
0.0
 70
     8
  0
VERTEX
  5
EF7C89B3F
330
EF7C89B1E
100
AcDbEntity
  8
JISSEN
 62
     0
100
AcDbVertex
100
AcDb2dVertex
 10
176.4232031288693
 20
176.5856649310306
 30
0.0
 70
     8
  0
VERTEX
  5
EF7C89B40
330
EF7C89B1E
100
AcDbEntity
  8
JISSEN
 62
     0
100
AcDbVertex
100
AcDb2dVertex
 10
176.517015599959
 20
176.4806538094155
 30
0.0
 70
     8
  0
VERTEX
  5
EF7C89B41
330
EF7C89B1E
100
AcDbEntity
  8
JISSEN
 62
     0
100
AcDbVertex
100
AcDb2dVertex
 10
176.5487074550233
 20
176.3729699374071
 30
0.0
 70
     8
  0
VERTEX
  5
EF7C89B42
330
EF7C89B1E
100
AcDbEntity
  8
JISSEN
 62
     0
100
AcDbVertex
100
AcDb2dVertex
 10
176.5299962725987
 20
176.2633469079922
 30
0.0
 70
     8
  0
VERTEX
  5
EF7C89B43
330
EF7C89B1E
100
AcDbEntity
  8
JISSEN
 62
     0
100
AcDbVertex
100
AcDb2dVertex
 10
176.4794905110932
 20
176.1528004657637
 30
0.0
 70
     8
  0
VERTEX
  5
EF7C89B44
330
EF7C89B1E
100
AcDbEntity
  8
JISSEN
 62
     0
100
AcDbVertex
100
AcDb2dVertex
 10
176.4157986289144
 20
176.0423463553143
 30
0.0
 70
     8
  0
VERTEX
  5
EF7C89B45
330
EF7C89B1E
100
AcDbEntity
  8
JISSEN
 62
     0
100
AcDbVertex
100
AcDb2dVertex
 10
176.3575290844701
 20
175.9330003212365
 30
0.0
 70
     8
  0
VERTEX
  5
EF7C89B46
330
EF7C89B1E
100
AcDbEntity
  8
JISSEN
 62
     0
100
AcDbVertex
100
AcDb2dVertex
 10
176.3232903361681
 20
175.825778108123
 30
0.0
 70
     8
  0
VERTEX
  5
EF7C89B47
330
EF7C89B1E
100
AcDbEntity
  8
JISSEN
 62
     0
100
AcDbVertex
100
AcDb2dVertex
 10
176.3316908424162
 20
175.7216954605666
 30
0.0
 70
     8
  0
VERTEX
  5
EF7C89B48
330
EF7C89B1E
100
AcDbEntity
  8
JISSEN
 62
     0
100
AcDbVertex
100
AcDb2dVertex
 10
176.4013390616221
 20
175.6217681231596
 30
0.0
 70
     8
  0
VERTEX
  5
EF7C89B49
330
EF7C89B1E
100
AcDbEntity
  8
JISSEN
 62
     0
100
AcDbVertex
100
AcDb2dVertex
 10
176.5412304796436
 20
175.5262496540595
 30
0.0
 70
     8
  0
VERTEX
  5
EF7C89B4A
330
EF7C89B1E
100
AcDbEntity
  8
JISSEN
 62
     0
100
AcDbVertex
100
AcDb2dVertex
 10
176.721908692137
 20
175.4323448656808
 30
0.0
 70
     8
  0
VERTEX
  5
EF7C89B4B
330
EF7C89B1E
100
AcDbEntity
  8
JISSEN
 62
     0
100
AcDbVertex
100
AcDb2dVertex
 10
176.9043043222086
 20
175.3364963840027
 30
0.0
 70
     8
  0
VERTEX
  5
EF7C89B4C
330
EF7C89B1E
100
AcDbEntity
  8
JISSEN
 62
     0
100
AcDbVertex
100
AcDb2dVertex
 10
177.0493479929641
 20
175.2351468350044
 30
0.0
 70
     8
  0
VERTEX
  5
EF7C89B4D
330
EF7C89B1E
100
AcDbEntity
  8
JISSEN
 62
     0
100
AcDbVertex
100
AcDb2dVertex
 10
177.1179703275099
 20
175.1247388446647
 30
0.0
 70
     8
  0
VERTEX
  5
EF7C89B4E
330
EF7C89B1E
100
AcDbEntity
  8
JISSEN
 62
     0
100
AcDbVertex
100
AcDb2dVertex
 10
177.0711019489524
 20
175.0017150389632
 30
0.0
 70
     8
  0
VERTEX
  5
EF7C89B4F
330
EF7C89B1E
100
AcDbEntity
  8
JISSEN
 62
     0
100
AcDbVertex
100
AcDb2dVertex
 10
176.8696734803973
 20
174.8625180438787
 30
0.0
 70
     8
  0
VERTEX
  5
EF7C89B50
330
EF7C89B1E
100
AcDbEntity
  8
JISSEN
 62
     0
100
AcDbVertex
100
AcDb2dVertex
 10
176.4746155449508
 20
174.7035904853903
 30
0.0
 70
     8
  0
VERTEX
  5
EF7C89B51
330
EF7C89B1E
100
AcDbEntity
  8
JISSEN
 62
     0
100
AcDbVertex
100
AcDb2dVertex
 10
177.852554082928
 20
179.1282262355927
 30
0.0
 70
    16
  0
VERTEX
  5
EF7C89B52
330
EF7C89B1E
100
AcDbEntity
  8
JISSEN
 62
     0
100
AcDbVertex
100
AcDb2dVertex
 10
175.9912128853468
 20
178.5608896129212
 30
0.0
 70
    16
  0
VERTEX
  5
EF7C89B53
330
EF7C89B1E
100
AcDbEntity
  8
JISSEN
 62
     0
100
AcDbVertex
100
AcDb2dVertex
 10
179.0513799152747
 20
178.1826651978073
 30
0.0
 70
    16
  0
VERTEX
  5
EF7C89B54
330
EF7C89B1E
100
AcDbEntity
  8
JISSEN
 62
     0
100
AcDbVertex
100
AcDb2dVertex
 10
174.5400008079388
 20
177.2686215942996
 30
0.0
 70
    16
  0
VERTEX
  5
EF7C89B55
330
EF7C89B1E
100
AcDbEntity
  8
JISSEN
 62
     0
100
AcDbVertex
100
AcDb2dVertex
 10
177.2531382228569
 20
176.5121727640713
 30
0.0
 70
    16
  0
VERTEX
  5
EF7C89B56
330
EF7C89B1E
100
AcDbEntity
  8
JISSEN
 62
     0
100
AcDbVertex
100
AcDb2dVertex
 10
175.5495399003877
 20
175.5666102059082
 30
0.0
 70
    16
  0
VERTEX
  5
EF7C89B57
330
EF7C89B1E
100
AcDbEntity
  8
JISSEN
 62
     0
100
AcDbVertex
100
AcDb2dVertex
 10
177.8210043303463
 20
175.1568668361384
 30
0.0
 70
    16
  0
VERTEX
  5
EF7C89B58
330
EF7C89B1E
100
AcDbEntity
  8
JISSEN
 62
     0
100
AcDbVertex
100
AcDb2dVertex
 10
176.4746155449508
 20
174.7035904853902
 30
0.0
 70
    16
  0
SEQEND
  5
EF7C89B59
330
EF7C89B1E
100
AcDbEntity
  8
JISSEN
 62
     0
  0
LINE
  5
EF7C89B5A
330
EF7C85532
100
AcDbEntity
  8
JISSEN
100
AcDbLine
 10
38.5134423123095
 20
179.7035904853902
 30
0.0
 11
11.33744898908776
 21
179.70359048539
 31
0.0
  0
LINE
  5
EF7C89B5B
330
EF7C85532
100
AcDbEntity
  8
JISSEN
100
AcDbLine
 10
38.35718450378886
 20
174.7035904853898
 30
0.0
 11
11.33744898908844
 21
174.7035904853902
 31
0.0
  0
POLYLINE
  5
EF7C89B5C
330
EF7C85532
100
AcDbEntity
  8
JISSEN
 62
     0
100
AcDb2dPolyline
 66
     1
 10
0.0
 20
0.0
 30
0.0
 70
     4
 75
     6
  0
VERTEX
  5
EF7C89B5D
330
EF7C89B5C
100
AcDbEntity
  8
JISSEN
 62
     0
100
AcDbVertex
100
AcDb2dVertex
 10
11.33744898908821
 20
179.7035904853902
 30
0.0
 70
    16
  0
VERTEX
  5
EF7C89B5E
330
EF7C89B5C
100
AcDbEntity
  8
JISSEN
 62
     0
100
AcDbVertex
100
AcDb2dVertex
 10
11.33744898908821
 20
179.7035904853902
 30
0.0
 70
     8
  0
VERTEX
  5
EF7C89B5F
330
EF7C89B5C
100
AcDbEntity
  8
JISSEN
 62
     0
100
AcDbVertex
100
AcDb2dVertex
 10
10.92252408228409
 20
179.5010863201102
 30
0.0
 70
     8
  0
VERTEX
  5
EF7C89B60
330
EF7C89B5C
100
AcDbEntity
  8
JISSEN
 62
     0
100
AcDbVertex
100
AcDb2dVertex
 10
10.68554723196052
 20
179.3234337367331
 30
0.0
 70
     8
  0
VERTEX
  5
EF7C89B61
330
EF7C89B5C
100
AcDbEntity
  8
JISSEN
 62
     0
100
AcDbVertex
100
AcDb2dVertex
 10
10.58803438802556
 20
179.168137822931
 30
0.0
 70
     8
  0
VERTEX
  5
EF7C89B62
330
EF7C89B5C
100
AcDbEntity
  8
JISSEN
 62
     0
100
AcDbVertex
100
AcDb2dVertex
 10
10.59150150038794
 20
179.0327036663759
 30
0.0
 70
     8
  0
VERTEX
  5
EF7C89B63
330
EF7C89B5C
100
AcDbEntity
  8
JISSEN
 62
     0
100
AcDbVertex
100
AcDb2dVertex
 10
10.65746451895552
 20
178.9146363547403
 30
0.0
 70
     8
  0
VERTEX
  5
EF7C89B64
330
EF7C89B5C
100
AcDbEntity
  8
JISSEN
 62
     0
100
AcDbVertex
100
AcDb2dVertex
 10
10.74743939363725
 20
178.811440975696
 30
0.0
 70
     8
  0
VERTEX
  5
EF7C89B65
330
EF7C89B5C
100
AcDbEntity
  8
JISSEN
 62
     0
100
AcDbVertex
100
AcDb2dVertex
 10
10.82294207434119
 20
178.7206226169152
 30
0.0
 70
     8
  0
VERTEX
  5
EF7C89B66
330
EF7C89B5C
100
AcDbEntity
  8
JISSEN
 62
     0
100
AcDbVertex
100
AcDb2dVertex
 10
10.84548851097565
 20
178.63968636607
 30
0.0
 70
     8
  0
VERTEX
  5
EF7C89B67
330
EF7C89B5C
100
AcDbEntity
  8
JISSEN
 62
     0
100
AcDbVertex
100
AcDb2dVertex
 10
10.78737836393452
 20
178.5662248093365
 30
0.0
 70
     8
  0
VERTEX
  5
EF7C89B68
330
EF7C89B5C
100
AcDbEntity
  8
JISSEN
 62
     0
100
AcDbVertex
100
AcDb2dVertex
 10
10.66404613555187
 20
178.4981805269076
 30
0.0
 70
     8
  0
VERTEX
  5
EF7C89B69
330
EF7C89B5C
100
AcDbEntity
  8
JISSEN
 62
     0
100
AcDbVertex
100
AcDb2dVertex
 10
10.50171003864738
 20
178.4335835974798
 30
0.0
 70
     8
  0
VERTEX
  5
EF7C89B6A
330
EF7C89B5C
100
AcDbEntity
  8
JISSEN
 62
     0
100
AcDbVertex
100
AcDb2dVertex
 10
10.32658828604007
 20
178.3704640997496
 30
0.0
 70
     8
  0
VERTEX
  5
EF7C89B6B
330
EF7C89B5C
100
AcDbEntity
  8
JISSEN
 62
     0
100
AcDbVertex
100
AcDb2dVertex
 10
10.16489909054985
 20
178.3068521124141
 30
0.0
 70
     8
  0
VERTEX
  5
EF7C89B6C
330
EF7C89B5C
100
AcDbEntity
  8
JISSEN
 62
     0
100
AcDbVertex
100
AcDb2dVertex
 10
10.04286066499594
 20
178.2407777141698
 30
0.0
 70
     8
  0
VERTEX
  5
EF7C89B6D
330
EF7C89B5C
100
AcDbEntity
  8
JISSEN
 62
     0
100
AcDbVertex
100
AcDb2dVertex
 10
9.986691222197805
 20
178.1702709837133
 30
0.0
 70
     8
  0
VERTEX
  5
EF7C89B6E
330
EF7C89B5C
100
AcDbEntity
  8
JISSEN
 62
     0
100
AcDbVertex
100
AcDb2dVertex
 10
10.02260897497512
 20
178.0933619997415
 30
0.0
 70
     8
  0
VERTEX
  5
EF7C89B6F
330
EF7C89B5C
100
AcDbEntity
  8
JISSEN
 62
     0
100
AcDbVertex
100
AcDb2dVertex
 10
10.16764600736337
 20
178.008634881859
 30
0.0
 70
     8
  0
VERTEX
  5
EF7C89B70
330
EF7C89B5C
100
AcDbEntity
  8
JISSEN
 62
     0
100
AcDbVertex
100
AcDb2dVertex
 10
10.40208988826475
 20
177.9168899133017
 30
0.0
 70
     8
  0
VERTEX
  5
EF7C89B71
330
EF7C89B5C
100
AcDbEntity
  8
JISSEN
 62
     0
100
AcDbVertex
100
AcDb2dVertex
 10
10.69704205779703
 20
177.8194814182136
 30
0.0
 70
     8
  0
VERTEX
  5
EF7C89B72
330
EF7C89B5C
100
AcDbEntity
  8
JISSEN
 62
     0
100
AcDbVertex
100
AcDb2dVertex
 10
11.02360395607843
 20
177.7177637207385
 30
0.0
 70
     8
  0
VERTEX
  5
EF7C89B73
330
EF7C89B5C
100
AcDbEntity
  8
JISSEN
 62
     0
100
AcDbVertex
100
AcDb2dVertex
 10
11.35287702322693
 20
177.6130911450202
 30
0.0
 70
     8
  0
VERTEX
  5
EF7C89B74
330
EF7C89B5C
100
AcDbEntity
  8
JISSEN
 62
     0
100
AcDbVertex
100
AcDb2dVertex
 10
11.65596269936122
 20
177.5068180152029
 30
0.0
 70
     8
  0
VERTEX
  5
EF7C89B75
330
EF7C89B5C
100
AcDbEntity
  8
JISSEN
 62
     0
100
AcDbVertex
100
AcDb2dVertex
 10
11.9039624245986
 20
177.4002986554302
 30
0.0
 70
     8
  0
VERTEX
  5
EF7C89B76
330
EF7C89B5C
100
AcDbEntity
  8
JISSEN
 62
     0
100
AcDbVertex
100
AcDb2dVertex
 10
12.06797763905797
 20
177.294887389846
 30
0.0
 70
     8
  0
VERTEX
  5
EF7C89B77
330
EF7C89B5C
100
AcDbEntity
  8
JISSEN
 62
     0
100
AcDbVertex
100
AcDb2dVertex
 10
12.12771567964046
 20
177.1915999610635
 30
0.0
 70
     8
  0
VERTEX
  5
EF7C89B78
330
EF7C89B5C
100
AcDbEntity
  8
JISSEN
 62
     0
100
AcDbVertex
100
AcDb2dVertex
 10
12.09730747038247
 20
177.0900977855722
 30
0.0
 70
     8
  0
VERTEX
  5
EF7C89B79
330
EF7C89B5C
100
AcDbEntity
  8
JISSEN
 62
     0
100
AcDbVertex
100
AcDb2dVertex
 10
11.99948983210356
 20
176.9897036983303
 30
0.0
 70
     8
  0
VERTEX
  5
EF7C89B7A
330
EF7C89B5C
100
AcDbEntity
  8
JISSEN
 62
     0
100
AcDbVertex
100
AcDb2dVertex
 10
11.85699958562327
 20
176.8897405342968
 30
0.0
 70
     8
  0
VERTEX
  5
EF7C89B7B
330
EF7C89B5C
100
AcDbEntity
  8
JISSEN
 62
     0
100
AcDbVertex
100
AcDb2dVertex
 10
11.69257355176114
 20
176.7895311284298
 30
0.0
 70
     8
  0
VERTEX
  5
EF7C89B7C
330
EF7C89B5C
100
AcDbEntity
  8
JISSEN
 62
     0
100
AcDbVertex
100
AcDb2dVertex
 10
11.52894855133672
 20
176.6883983156883
 30
0.0
 70
     8
  0
VERTEX
  5
EF7C89B7D
330
EF7C89B5C
100
AcDbEntity
  8
JISSEN
 62
     0
100
AcDbVertex
100
AcDb2dVertex
 10
11.38886140516979
 20
176.5856649310306
 30
0.0
 70
     8
  0
VERTEX
  5
EF7C89B7E
330
EF7C89B5C
100
AcDbEntity
  8
JISSEN
 62
     0
100
AcDbVertex
100
AcDb2dVertex
 10
11.29504893408011
 20
176.4806538094155
 30
0.0
 70
     8
  0
VERTEX
  5
EF7C89B7F
330
EF7C89B5C
100
AcDbEntity
  8
JISSEN
 62
     0
100
AcDbVertex
100
AcDb2dVertex
 10
11.2633570790158
 20
176.3729699374071
 30
0.0
 70
     8
  0
VERTEX
  5
EF7C89B80
330
EF7C89B5C
100
AcDbEntity
  8
JISSEN
 62
     0
100
AcDbVertex
100
AcDb2dVertex
 10
11.28206826144037
 20
176.2633469079922
 30
0.0
 70
     8
  0
VERTEX
  5
EF7C89B81
330
EF7C89B5C
100
AcDbEntity
  8
JISSEN
 62
     0
100
AcDbVertex
100
AcDb2dVertex
 10
11.33257402294589
 20
176.1528004657637
 30
0.0
 70
     8
  0
VERTEX
  5
EF7C89B82
330
EF7C89B5C
100
AcDbEntity
  8
JISSEN
 62
     0
100
AcDbVertex
100
AcDb2dVertex
 10
11.39626590512466
 20
176.0423463553143
 30
0.0
 70
     8
  0
VERTEX
  5
EF7C89B83
330
EF7C89B5C
100
AcDbEntity
  8
JISSEN
 62
     0
100
AcDbVertex
100
AcDb2dVertex
 10
11.45453544956899
 20
175.9330003212365
 30
0.0
 70
     8
  0
VERTEX
  5
EF7C89B84
330
EF7C89B5C
100
AcDbEntity
  8
JISSEN
 62
     0
100
AcDbVertex
100
AcDb2dVertex
 10
11.48877419787095
 20
175.825778108123
 30
0.0
 70
     8
  0
VERTEX
  5
EF7C89B85
330
EF7C89B5C
100
AcDbEntity
  8
JISSEN
 62
     0
100
AcDbVertex
100
AcDb2dVertex
 10
11.48037369162284
 20
175.7216954605666
 30
0.0
 70
     8
  0
VERTEX
  5
EF7C89B86
330
EF7C89B5C
100
AcDbEntity
  8
JISSEN
 62
     0
100
AcDbVertex
100
AcDb2dVertex
 10
11.41072547241697
 20
175.6217681231596
 30
0.0
 70
     8
  0
VERTEX
  5
EF7C89B87
330
EF7C89B5C
100
AcDbEntity
  8
JISSEN
 62
     0
100
AcDbVertex
100
AcDb2dVertex
 10
11.27083405439543
 20
175.5262496540595
 30
0.0
 70
     8
  0
VERTEX
  5
EF7C89B88
330
EF7C89B5C
100
AcDbEntity
  8
JISSEN
 62
     0
100
AcDbVertex
100
AcDb2dVertex
 10
11.09015584190206
 20
175.4323448656808
 30
0.0
 70
     8
  0
VERTEX
  5
EF7C89B89
330
EF7C89B5C
100
AcDbEntity
  8
JISSEN
 62
     0
100
AcDbVertex
100
AcDb2dVertex
 10
10.90776021183046
 20
175.3364963840027
 30
0.0
 70
     8
  0
VERTEX
  5
EF7C89B8A
330
EF7C89B5C
100
AcDbEntity
  8
JISSEN
 62
     0
100
AcDbVertex
100
AcDb2dVertex
 10
10.76271654107495
 20
175.2351468350044
 30
0.0
 70
     8
  0
VERTEX
  5
EF7C89B8B
330
EF7C89B5C
100
AcDbEntity
  8
JISSEN
 62
     0
100
AcDbVertex
100
AcDb2dVertex
 10
10.69409420652914
 20
175.1247388446647
 30
0.0
 70
     8
  0
VERTEX
  5
EF7C89B8C
330
EF7C89B5C
100
AcDbEntity
  8
JISSEN
 62
     0
100
AcDbVertex
100
AcDb2dVertex
 10
10.74096258508666
 20
175.0017150389632
 30
0.0
 70
     8
  0
VERTEX
  5
EF7C89B8D
330
EF7C89B5C
100
AcDbEntity
  8
JISSEN
 62
     0
100
AcDbVertex
100
AcDb2dVertex
 10
10.94239105364181
 20
174.8625180438787
 30
0.0
 70
     8
  0
VERTEX
  5
EF7C89B8E
330
EF7C89B5C
100
AcDbEntity
  8
JISSEN
 62
     0
100
AcDbVertex
100
AcDb2dVertex
 10
11.33744898908821
 20
174.7035904853903
 30
0.0
 70
     8
  0
VERTEX
  5
EF7C89B8F
330
EF7C89B5C
100
AcDbEntity
  8
JISSEN
 62
     0
100
AcDbVertex
100
AcDb2dVertex
 10
9.9595104511111
 20
179.1282262355927
 30
0.0
 70
    16
  0
VERTEX
  5
EF7C89B90
330
EF7C89B5C
100
AcDbEntity
  8
JISSEN
 62
     0
100
AcDbVertex
100
AcDb2dVertex
 10
11.82085164869226
 20
178.5608896129212
 30
0.0
 70
    16
  0
VERTEX
  5
EF7C89B91
330
EF7C89B5C
100
AcDbEntity
  8
JISSEN
 62
     0
100
AcDbVertex
100
AcDb2dVertex
 10
8.760684618764344
 20
178.1826651978073
 30
0.0
 70
    16
  0
VERTEX
  5
EF7C89B92
330
EF7C89B5C
100
AcDbEntity
  8
JISSEN
 62
     0
100
AcDbVertex
100
AcDb2dVertex
 10
13.27206372610021
 20
177.2686215942996
 30
0.0
 70
    16
  0
VERTEX
  5
EF7C89B93
330
EF7C89B5C
100
AcDbEntity
  8
JISSEN
 62
     0
100
AcDbVertex
100
AcDb2dVertex
 10
10.55892631118217
 20
176.5121727640713
 30
0.0
 70
    16
  0
VERTEX
  5
EF7C89B94
330
EF7C89B5C
100
AcDbEntity
  8
JISSEN
 62
     0
100
AcDbVertex
100
AcDb2dVertex
 10
12.26252463365131
 20
175.5666102059082
 30
0.0
 70
    16
  0
VERTEX
  5
EF7C89B95
330
EF7C89B5C
100
AcDbEntity
  8
JISSEN
 62
     0
100
AcDbVertex
100
AcDb2dVertex
 10
9.991060203692768
 20
175.1568668361384
 30
0.0
 70
    16
  0
VERTEX
  5
EF7C89B96
330
EF7C89B5C
100
AcDbEntity
  8
JISSEN
 62
     0
100
AcDbVertex
100
AcDb2dVertex
 10
11.33744898908821
 20
174.7035904853902
 30
0.0
 70
    16
  0
SEQEND
  5
EF7C89B97
330
EF7C89B5C
100
AcDbEntity
  8
JISSEN
 62
     0
  0
LINE
  5
EF7C89B98
330
EF7C85532
100
AcDbEntity
  8
JISSEN
100
AcDbLine
 10
28.83744898908821
 20
179.7035904853902
 30
0.0
 11
28.83744898908821
 21
174.7035904853903
 31
0.0
  0
POLYLINE
  5
EF7C89BA3
330
EF7C85532
100
AcDbEntity
  8
JISSEN
 62
     0
100
AcDb2dPolyline
 66
     1
 10
0.0
 20
0.0
 30
0.0
 70
     4
 75
     6
  0
VERTEX
  5
EF7C89BA4
330
EF7C89BA3
100
AcDbEntity
  8
JISSEN
 62
     0
100
AcDbVertex
100
AcDb2dVertex
 10
86.33744898908821
 20
179.7035904853902
 30
0.0
 70
    16
  0
VERTEX
  5
EF7C89BA5
330
EF7C89BA3
100
AcDbEntity
  8
JISSEN
 62
     0
100
AcDbVertex
100
AcDb2dVertex
 10
86.33744898908821
 20
179.7035904853902
 30
0.0
 70
     8
  0
VERTEX
  5
EF7C89BA6
330
EF7C89BA3
100
AcDbEntity
  8
JISSEN
 62
     0
100
AcDbVertex
100
AcDb2dVertex
 10
86.75237389589211
 20
179.5010863201102
 30
0.0
 70
     8
  0
VERTEX
  5
EF7C89BA7
330
EF7C89BA3
100
AcDbEntity
  8
JISSEN
 62
     0
100
AcDbVertex
100
AcDb2dVertex
 10
86.98935074621591
 20
179.3234337367331
 30
0.0
 70
     8
  0
VERTEX
  5
EF7C89BA8
330
EF7C89BA3
100
AcDbEntity
  8
JISSEN
 62
     0
100
AcDbVertex
100
AcDb2dVertex
 10
87.08686359015064
 20
179.168137822931
 30
0.0
 70
     8
  0
VERTEX
  5
EF7C89BA9
330
EF7C89BA3
100
AcDbEntity
  8
JISSEN
 62
     0
100
AcDbVertex
100
AcDb2dVertex
 10
87.08339647778847
 20
179.0327036663759
 30
0.0
 70
     8
  0
VERTEX
  5
EF7C89BAA
330
EF7C89BA3
100
AcDbEntity
  8
JISSEN
 62
     0
100
AcDbVertex
100
AcDb2dVertex
 10
87.01743345922068
 20
178.9146363547403
 30
0.0
 70
     8
  0
VERTEX
  5
EF7C89BAB
330
EF7C89BA3
100
AcDbEntity
  8
JISSEN
 62
     0
100
AcDbVertex
100
AcDb2dVertex
 10
86.92745858453918
 20
178.811440975696
 30
0.0
 70
     8
  0
VERTEX
  5
EF7C89BAC
330
EF7C89BA3
100
AcDbEntity
  8
JISSEN
 62
     0
100
AcDbVertex
100
AcDb2dVertex
 10
86.85195590383523
 20
178.7206226169152
 30
0.0
 70
     8
  0
VERTEX
  5
EF7C89BAD
330
EF7C89BA3
100
AcDbEntity
  8
JISSEN
 62
     0
100
AcDbVertex
100
AcDb2dVertex
 10
86.82940946720055
 20
178.63968636607
 30
0.0
 70
     8
  0
VERTEX
  5
EF7C89BAE
330
EF7C89BA3
100
AcDbEntity
  8
JISSEN
 62
     0
100
AcDbVertex
100
AcDb2dVertex
 10
86.88751961424168
 20
178.5662248093365
 30
0.0
 70
     8
  0
VERTEX
  5
EF7C89BAF
330
EF7C89BA3
100
AcDbEntity
  8
JISSEN
 62
     0
100
AcDbVertex
100
AcDb2dVertex
 10
87.01085184262433
 20
178.4981805269076
 30
0.0
 70
     8
  0
VERTEX
  5
EF7C89BB0
330
EF7C89BA3
100
AcDbEntity
  8
JISSEN
 62
     0
100
AcDbVertex
100
AcDb2dVertex
 10
87.17318793952903
 20
178.4335835974798
 30
0.0
 70
     8
  0
VERTEX
  5
EF7C89BB1
330
EF7C89BA3
100
AcDbEntity
  8
JISSEN
 62
     0
100
AcDbVertex
100
AcDb2dVertex
 10
87.34830969213613
 20
178.3704640997496
 30
0.0
 70
     8
  0
VERTEX
  5
EF7C89BB2
330
EF7C89BA3
100
AcDbEntity
  8
JISSEN
 62
     0
100
AcDbVertex
100
AcDb2dVertex
 10
87.50999888762658
 20
178.3068521124141
 30
0.0
 70
     8
  0
VERTEX
  5
EF7C89BB3
330
EF7C89BA3
100
AcDbEntity
  8
JISSEN
 62
     0
100
AcDbVertex
100
AcDb2dVertex
 10
87.63203731318048
 20
178.2407777141698
 30
0.0
 70
     8
  0
VERTEX
  5
EF7C89BB4
330
EF7C89BA3
100
AcDbEntity
  8
JISSEN
 62
     0
100
AcDbVertex
100
AcDb2dVertex
 10
87.6882067559784
 20
178.1702709837133
 30
0.0
 70
     8
  0
VERTEX
  5
EF7C89BB5
330
EF7C89BA3
100
AcDbEntity
  8
JISSEN
 62
     0
100
AcDbVertex
100
AcDb2dVertex
 10
87.6522890032013
 20
178.0933619997415
 30
0.0
 70
     8
  0
VERTEX
  5
EF7C89BB6
330
EF7C89BA3
100
AcDbEntity
  8
JISSEN
 62
     0
100
AcDbVertex
100
AcDb2dVertex
 10
87.50725197081283
 20
178.008634881859
 30
0.0
 70
     8
  0
VERTEX
  5
EF7C89BB7
330
EF7C89BA3
100
AcDbEntity
  8
JISSEN
 62
     0
100
AcDbVertex
100
AcDb2dVertex
 10
87.27280808991167
 20
177.9168899133017
 30
0.0
 70
     8
  0
VERTEX
  5
EF7C89BB8
330
EF7C89BA3
100
AcDbEntity
  8
JISSEN
 62
     0
100
AcDbVertex
100
AcDb2dVertex
 10
86.9778559203794
 20
177.8194814182136
 30
0.0
 70
     8
  0
VERTEX
  5
EF7C89BB9
330
EF7C89BA3
100
AcDbEntity
  8
JISSEN
 62
     0
100
AcDbVertex
100
AcDb2dVertex
 10
86.65129402209799
 20
177.7177637207385
 30
0.0
 70
     8
  0
VERTEX
  5
EF7C89BBA
330
EF7C89BA3
100
AcDbEntity
  8
JISSEN
 62
     0
100
AcDbVertex
100
AcDb2dVertex
 10
86.32202095494927
 20
177.6130911450202
 30
0.0
 70
     8
  0
VERTEX
  5
EF7C89BBB
330
EF7C89BA3
100
AcDbEntity
  8
JISSEN
 62
     0
100
AcDbVertex
100
AcDb2dVertex
 10
86.0189352788152
 20
177.5068180152029
 30
0.0
 70
     8
  0
VERTEX
  5
EF7C89BBC
330
EF7C89BA3
100
AcDbEntity
  8
JISSEN
 62
     0
100
AcDbVertex
100
AcDb2dVertex
 10
85.77093555357761
 20
177.4002986554302
 30
0.0
 70
     8
  0
VERTEX
  5
EF7C89BBD
330
EF7C89BA3
100
AcDbEntity
  8
JISSEN
 62
     0
100
AcDbVertex
100
AcDb2dVertex
 10
85.60692033911847
 20
177.294887389846
 30
0.0
 70
     8
  0
VERTEX
  5
EF7C89BBE
330
EF7C89BA3
100
AcDbEntity
  8
JISSEN
 62
     0
100
AcDbVertex
100
AcDb2dVertex
 10
85.54718229853575
 20
177.1915999610635
 30
0.0
 70
     8
  0
VERTEX
  5
EF7C89BBF
330
EF7C89BA3
100
AcDbEntity
  8
JISSEN
 62
     0
100
AcDbVertex
100
AcDb2dVertex
 10
85.57759050779372
 20
177.0900977855722
 30
0.0
 70
     8
  0
VERTEX
  5
EF7C89BC0
330
EF7C89BA3
100
AcDbEntity
  8
JISSEN
 62
     0
100
AcDbVertex
100
AcDb2dVertex
 10
85.67540814607264
 20
176.9897036983303
 30
0.0
 70
     8
  0
VERTEX
  5
EF7C89BC1
330
EF7C89BA3
100
AcDbEntity
  8
JISSEN
 62
     0
100
AcDbVertex
100
AcDb2dVertex
 10
85.81789839255316
 20
176.8897405342968
 30
0.0
 70
     8
  0
VERTEX
  5
EF7C89BC2
330
EF7C89BA3
100
AcDbEntity
  8
JISSEN
 62
     0
100
AcDbVertex
100
AcDb2dVertex
 10
85.98232442641529
 20
176.7895311284298
 30
0.0
 70
     8
  0
VERTEX
  5
EF7C89BC3
330
EF7C89BA3
100
AcDbEntity
  8
JISSEN
 62
     0
100
AcDbVertex
100
AcDb2dVertex
 10
86.14594942683948
 20
176.6883983156883
 30
0.0
 70
     8
  0
VERTEX
  5
EF7C89BC4
330
EF7C89BA3
100
AcDbEntity
  8
JISSEN
 62
     0
100
AcDbVertex
100
AcDb2dVertex
 10
86.28603657300642
 20
176.5856649310306
 30
0.0
 70
     8
  0
VERTEX
  5
EF7C89BC5
330
EF7C89BA3
100
AcDbEntity
  8
JISSEN
 62
     0
100
AcDbVertex
100
AcDb2dVertex
 10
86.37984904409632
 20
176.4806538094155
 30
0.0
 70
     8
  0
VERTEX
  5
EF7C89BC6
330
EF7C89BA3
100
AcDbEntity
  8
JISSEN
 62
     0
100
AcDbVertex
100
AcDb2dVertex
 10
86.41154089916062
 20
176.3729699374071
 30
0.0
 70
     8
  0
VERTEX
  5
EF7C89BC7
330
EF7C89BA3
100
AcDbEntity
  8
JISSEN
 62
     0
100
AcDbVertex
100
AcDb2dVertex
 10
86.39282971673607
 20
176.2633469079922
 30
0.0
 70
     8
  0
VERTEX
  5
EF7C89BC8
330
EF7C89BA3
100
AcDbEntity
  8
JISSEN
 62
     0
100
AcDbVertex
100
AcDb2dVertex
 10
86.34232395523055
 20
176.1528004657637
 30
0.0
 70
     8
  0
VERTEX
  5
EF7C89BC9
330
EF7C89BA3
100
AcDbEntity
  8
JISSEN
 62
     0
100
AcDbVertex
100
AcDb2dVertex
 10
86.27863207305153
 20
176.0423463553143
 30
0.0
 70
     8
  0
VERTEX
  5
EF7C89BCA
330
EF7C89BA3
100
AcDbEntity
  8
JISSEN
 62
     0
100
AcDbVertex
100
AcDb2dVertex
 10
86.22036252860722
 20
175.9330003212365
 30
0.0
 70
     8
  0
VERTEX
  5
EF7C89BCB
330
EF7C89BA3
100
AcDbEntity
  8
JISSEN
 62
     0
100
AcDbVertex
100
AcDb2dVertex
 10
86.18612378030524
 20
175.825778108123
 30
0.0
 70
     8
  0
VERTEX
  5
EF7C89BCC
330
EF7C89BA3
100
AcDbEntity
  8
JISSEN
 62
     0
100
AcDbVertex
100
AcDb2dVertex
 10
86.19452428655336
 20
175.7216954605666
 30
0.0
 70
     8
  0
VERTEX
  5
EF7C89BCD
330
EF7C89BA3
100
AcDbEntity
  8
JISSEN
 62
     0
100
AcDbVertex
100
AcDb2dVertex
 10
86.26417250575945
 20
175.6217681231596
 30
0.0
 70
     8
  0
VERTEX
  5
EF7C89BCE
330
EF7C89BA3
100
AcDbEntity
  8
JISSEN
 62
     0
100
AcDbVertex
100
AcDb2dVertex
 10
86.404063923781
 20
175.5262496540595
 30
0.0
 70
     8
  0
VERTEX
  5
EF7C89BCF
330
EF7C89BA3
100
AcDbEntity
  8
JISSEN
 62
     0
100
AcDbVertex
100
AcDb2dVertex
 10
86.58474213627437
 20
175.4323448656808
 30
0.0
 70
     8
  0
VERTEX
  5
EF7C89BD0
330
EF7C89BA3
100
AcDbEntity
  8
JISSEN
 62
     0
100
AcDbVertex
100
AcDb2dVertex
 10
86.76713776634574
 20
175.3364963840027
 30
0.0
 70
     8
  0
VERTEX
  5
EF7C89BD1
330
EF7C89BA3
100
AcDbEntity
  8
JISSEN
 62
     0
100
AcDbVertex
100
AcDb2dVertex
 10
86.91218143710125
 20
175.2351468350044
 30
0.0
 70
     8
  0
VERTEX
  5
EF7C89BD2
330
EF7C89BA3
100
AcDbEntity
  8
JISSEN
 62
     0
100
AcDbVertex
100
AcDb2dVertex
 10
86.98080377164728
 20
175.1247388446647
 30
0.0
 70
     8
  0
VERTEX
  5
EF7C89BD3
330
EF7C89BA3
100
AcDbEntity
  8
JISSEN
 62
     0
100
AcDbVertex
100
AcDb2dVertex
 10
86.93393539308955
 20
175.0017150389632
 30
0.0
 70
     8
  0
VERTEX
  5
EF7C89BD4
330
EF7C89BA3
100
AcDbEntity
  8
JISSEN
 62
     0
100
AcDbVertex
100
AcDb2dVertex
 10
86.73250692453439
 20
174.8625180438787
 30
0.0
 70
     8
  0
VERTEX
  5
EF7C89BD5
330
EF7C89BA3
100
AcDbEntity
  8
JISSEN
 62
     0
100
AcDbVertex
100
AcDb2dVertex
 10
86.33744898908821
 20
174.7035904853903
 30
0.0
 70
     8
  0
VERTEX
  5
EF7C89BD6
330
EF7C89BA3
100
AcDbEntity
  8
JISSEN
 62
     0
100
AcDbVertex
100
AcDb2dVertex
 10
87.7153875270651
 20
179.1282262355927
 30
0.0
 70
    16
  0
VERTEX
  5
EF7C89BD7
330
EF7C89BA3
100
AcDbEntity
  8
JISSEN
 62
     0
100
AcDbVertex
100
AcDb2dVertex
 10
85.85404632948394
 20
178.5608896129212
 30
0.0
 70
    16
  0
VERTEX
  5
EF7C89BD8
330
EF7C89BA3
100
AcDbEntity
  8
JISSEN
 62
     0
100
AcDbVertex
100
AcDb2dVertex
 10
88.91421335941187
 20
178.1826651978073
 30
0.0
 70
    16
  0
VERTEX
  5
EF7C89BD9
330
EF7C89BA3
100
AcDbEntity
  8
JISSEN
 62
     0
100
AcDbVertex
100
AcDb2dVertex
 10
84.40283425207599
 20
177.2686215942996
 30
0.0
 70
    16
  0
VERTEX
  5
EF7C89BDA
330
EF7C89BA3
100
AcDbEntity
  8
JISSEN
 62
     0
100
AcDbVertex
100
AcDb2dVertex
 10
87.11597166699403
 20
176.5121727640713
 30
0.0
 70
    16
  0
VERTEX
  5
EF7C89BDB
330
EF7C89BA3
100
AcDbEntity
  8
JISSEN
 62
     0
100
AcDbVertex
100
AcDb2dVertex
 10
85.41237334452489
 20
175.5666102059082
 30
0.0
 70
    16
  0
VERTEX
  5
EF7C89BDC
330
EF7C89BA3
100
AcDbEntity
  8
JISSEN
 62
     0
100
AcDbVertex
100
AcDb2dVertex
 10
87.68383777448343
 20
175.1568668361384
 30
0.0
 70
    16
  0
VERTEX
  5
EF7C89BDD
330
EF7C89BA3
100
AcDbEntity
  8
JISSEN
 62
     0
100
AcDbVertex
100
AcDb2dVertex
 10
86.33744898908821
 20
174.7035904853902
 30
0.0
 70
    16
  0
SEQEND
  5
EF7C89BDE
330
EF7C89BA3
100
AcDbEntity
  8
JISSEN
 62
     0
  0
LINE
  5
EF7C89BDF
330
EF7C85532
100
AcDbEntity
  8
JISSEN
100
AcDbLine
 10
59.2986222217296
 20
179.7035904853904
 30
0.0
 11
86.33744898908799
 21
179.7035904853902
 31
0.0
  0
LINE
  5
EF7C89BE0
330
EF7C85532
100
AcDbEntity
  8
JISSEN
100
AcDbLine
 10
86.33744898908776
 20
174.7035904853902
 30
0.0
 11
59.45488003025025
 21
174.7035904853902
 31
0.0
  0
LINE
  5
EF7C89BEB
330
EF7C85532
100
AcDbEntity
  8
JISSEN
100
AcDbLine
 10
68.83744898908822
 20
174.7035904853902
 30
0.0
 11
68.83744898908822
 21
179.7035904853902
 31
0.0
  0
ENDSEC
  0
SECTION
  2
OBJECTS
  0
DICTIONARY
  5
EF7C85527
330
0
100
AcDbDictionary
  3
ACAD_GROUP
350
EF7C85528
  3
ACAD_LAYOUT
350
EF7C85BB7
  3
ACAD_MLINESTYLE
350
EF7C85535
  3
ACAD_PLOTSETTINGS
350
EF7C85BB8
  3
ACAD_PLOTSTYLENAME
350
EF7C85BB5
  3
ACDBHEADERROUNDTRIPXREC
350
EF7C89C6D
  3
ACDBVARIABLEDICTIONARY
350
EF7C85DB7
  0
DICTIONARY
  5
EF7C85D9A
330
EF7C85532
100
AcDbDictionary
280
     1
  3
ACAD_LAYOUTSELFREF
360
EF7C89C8F
  0
DICTIONARY
  5
EF7C85D98
330
EF7C8552F
100
AcDbDictionary
280
     1
  3
ACAD_LAYOUTSELFREF
360
EF7C89C8E
  0
DICTIONARY
  5
EF7C85528
102
{ACAD_REACTORS
330
EF7C85527
102
}
330
EF7C85527
100
AcDbDictionary
  0
DICTIONARY
  5
EF7C85BB7
102
{ACAD_REACTORS
330
EF7C85527
102
}
330
EF7C85527
100
AcDbDictionary
  0
DICTIONARY
  5
EF7C85535
102
{ACAD_REACTORS
330
EF7C85527
102
}
330
EF7C85527
100
AcDbDictionary
  3
STANDARD
350
EF7C85536
  0
DICTIONARY
  5
EF7C85BB8
102
{ACAD_REACTORS
330
EF7C85527
102
}
330
EF7C85527
100
AcDbDictionary
  0
ACDBDICTIONARYWDFLT
  5
EF7C85BB5
102
{ACAD_REACTORS
330
EF7C85527
102
}
330
EF7C85527
100
AcDbDictionary
281
     1
  3
Normal
350
EF7C85BB6
100
AcDbDictionaryWithDefault
340
EF7C85BB6
  0
DICTIONARY
  5
EF7C89C6D
102
{ACAD_REACTORS
330
EF7C85527
102
}
330
EF7C85527
100
AcDbDictionary
  3
CEPSNTYPE
350
EF7C89C77
  3
DIMSTYLEDATA
350
EF7C89C7B
  3
FINGERPRINTGUID
350
EF7C89C78
  3
HYPERLINKBASE
350
EF7C89C70
  3
INSUNITS
350
EF7C89C76
  3
LAYOUTDICT
350
EF7C89C72
  3
LWETCUNION
350
EF7C89C75
  3
PLOTSETDICT
350
EF7C89C73
  3
PLOTSTYLNAMDICT
350
EF7C89C74
  3
PSVPSCALE
350
EF7C89C7A
  3
PUCSBASE
350
EF7C89C7E
  3
PUCSORGBACK
350
EF7C89C84
  3
PUCSORGBOTTOM
350
EF7C89C80
  3
PUCSORGFRONT
350
EF7C89C83
  3
PUCSORGLEFT
350
EF7C89C81
  3
PUCSORGRIGHT
350
EF7C89C82
  3
PUCSORGTOP
350
EF7C89C7F
  3
PUCSORTHOREF
350
EF7C89C7C
  3
PUCSORTHOVIEW
350
EF7C89C7D
  3
STYLESHEET
350
EF7C89C71
  3
TSTACKALIGN
350
EF7C89C6E
  3
TSTACKSIZE
350
EF7C89C6F
  3
UCSBASE
350
EF7C89C87
  3
UCSORGBACK
350
EF7C89C8D
  3
UCSORGBOTTOM
350
EF7C89C89
  3
UCSORGFRONT
350
EF7C89C8C
  3
UCSORGLEFT
350
EF7C89C8A
  3
UCSORGRIGHT
350
EF7C89C8B
  3
UCSORGTOP
350
EF7C89C88
  3
UCSORTHOREF
350
EF7C89C85
  3
UCSORTHOVIEW
350
EF7C89C86
  3
VERSIONGUID
350
EF7C89C79
  0
DICTIONARY
  5
EF7C85DB7
102
{ACAD_REACTORS
330
EF7C85527
102
}
330
EF7C85527
100
AcDbDictionary
  3
DIMASSOC
350
EF7C89C6B
  3
SORTENTS
350
EF7C85DB8
  0
XRECORD
  5
EF7C89C8F
102
{ACAD_REACTORS
330
EF7C85D9A
102
}
330
EF7C85D9A
100
AcDbXrecord
340
EF7C85532
  0
XRECORD
  5
EF7C89C8E
102
{ACAD_REACTORS
330
EF7C85D98
102
}
330
EF7C85D98
100
AcDbXrecord
340
EF7C8552F
  0
MLINESTYLE
  5
EF7C85536
102
{ACAD_REACTORS
330
EF7C85535
102
}
330
EF7C85535
100
AcDbMlineStyle
  2
STANDARD
 70
     0
  3

 62
   256
 51
90.0
 52
90.0
 71
     2
 49
0.5
 62
   256
  6
BYLAYER
 49
-0.5
 62
   256
  6
BYLAYER
  0
ACDBPLACEHOLDER
  5
EF7C85BB6
102
{ACAD_REACTORS
330
EF7C85BB5
102
}
330
EF7C85BB5
100
AcDbPlaceHolder
280
     0
  0
XRECORD
  5
EF7C89C77
102
{ACAD_REACTORS
330
EF7C89C6D
102
}
330
EF7C89C6D
100
AcDbXrecord
 90
        0
  0
XRECORD
  5
EF7C89C7B
102
{ACAD_REACTORS
330
EF7C89C6D
102
}
330
EF7C89C6D
100
AcDbXrecord
1000
DSTYLE
1002
{
1070
   279
 70
     2
1070
   341
340
EF7C85537
1070
   342
340
EF7C85537
1070
   343
340
EF7C85543
1070
   344
340
EF7C85543
1002
}
  0
XRECORD
  5
EF7C89C78
102
{ACAD_REACTORS
330
EF7C89C6D
102
}
330
EF7C89C6D
100
AcDbXrecord
  1
{09AA4C7A-3D6F-4857-A850-771461888CEC}
  0
XRECORD
  5
EF7C89C70
102
{ACAD_REACTORS
330
EF7C89C6D
102
}
330
EF7C89C6D
100
AcDbXrecord
  1

  0
XRECORD
  5
EF7C89C76
102
{ACAD_REACTORS
330
EF7C89C6D
102
}
330
EF7C89C6D
100
AcDbXrecord
 90
        0
  0
XRECORD
  5
EF7C89C72
102
{ACAD_REACTORS
330
EF7C89C6D
102
}
330
EF7C89C6D
100
AcDbXrecord
340
EF7C85BB7
  0
XRECORD
  5
EF7C89C75
102
{ACAD_REACTORS
330
EF7C89C6D
102
}
330
EF7C89C6D
100
AcDbXrecord
 90
    14877
  0
XRECORD
  5
EF7C89C73
102
{ACAD_REACTORS
330
EF7C89C6D
102
}
330
EF7C89C6D
100
AcDbXrecord
340
EF7C85BB8
  0
XRECORD
  5
EF7C89C74
102
{ACAD_REACTORS
330
EF7C89C6D
102
}
330
EF7C89C6D
100
AcDbXrecord
340
EF7C85BB5
  0
XRECORD
  5
EF7C89C7A
102
{ACAD_REACTORS
330
EF7C89C6D
102
}
330
EF7C89C6D
100
AcDbXrecord
 40
0.0
  0
XRECORD
  5
EF7C89C7E
102
{ACAD_REACTORS
330
EF7C89C6D
102
}
330
EF7C89C6D
100
AcDbXrecord
340
0
  0
XRECORD
  5
EF7C89C84
102
{ACAD_REACTORS
330
EF7C89C6D
102
}
330
EF7C89C6D
100
AcDbXrecord
 10
0.0
 20
0.0
 30
0.0
  0
XRECORD
  5
EF7C89C80
102
{ACAD_REACTORS
330
EF7C89C6D
102
}
330
EF7C89C6D
100
AcDbXrecord
 10
0.0
 20
0.0
 30
0.0
  0
XRECORD
  5
EF7C89C83
102
{ACAD_REACTORS
330
EF7C89C6D
102
}
330
EF7C89C6D
100
AcDbXrecord
 10
0.0
 20
0.0
 30
0.0
  0
XRECORD
  5
EF7C89C81
102
{ACAD_REACTORS
330
EF7C89C6D
102
}
330
EF7C89C6D
100
AcDbXrecord
 10
0.0
 20
0.0
 30
0.0
  0
XRECORD
  5
EF7C89C82
102
{ACAD_REACTORS
330
EF7C89C6D
102
}
330
EF7C89C6D
100
AcDbXrecord
 10
0.0
 20
0.0
 30
0.0
  0
XRECORD
  5
EF7C89C7F
102
{ACAD_REACTORS
330
EF7C89C6D
102
}
330
EF7C89C6D
100
AcDbXrecord
 10
0.0
 20
0.0
 30
0.0
  0
XRECORD
  5
EF7C89C7C
102
{ACAD_REACTORS
330
EF7C89C6D
102
}
330
EF7C89C6D
100
AcDbXrecord
340
0
  0
XRECORD
  5
EF7C89C7D
102
{ACAD_REACTORS
330
EF7C89C6D
102
}
330
EF7C89C6D
100
AcDbXrecord
 70
     0
  0
XRECORD
  5
EF7C89C71
102
{ACAD_REACTORS
330
EF7C89C6D
102
}
330
EF7C89C6D
100
AcDbXrecord
  1

  0
XRECORD
  5
EF7C89C6E
102
{ACAD_REACTORS
330
EF7C89C6D
102
}
330
EF7C89C6D
100
AcDbXrecord
 90
        1
  0
XRECORD
  5
EF7C89C6F
102
{ACAD_REACTORS
330
EF7C89C6D
102
}
330
EF7C89C6D
100
AcDbXrecord
 90
       70
  0
XRECORD
  5
EF7C89C87
102
{ACAD_REACTORS
330
EF7C89C6D
102
}
330
EF7C89C6D
100
AcDbXrecord
340
0
  0
XRECORD
  5
EF7C89C8D
102
{ACAD_REACTORS
330
EF7C89C6D
102
}
330
EF7C89C6D
100
AcDbXrecord
 10
0.0
 20
0.0
 30
0.0
  0
XRECORD
  5
EF7C89C89
102
{ACAD_REACTORS
330
EF7C89C6D
102
}
330
EF7C89C6D
100
AcDbXrecord
 10
0.0
 20
0.0
 30
0.0
  0
XRECORD
  5
EF7C89C8C
102
{ACAD_REACTORS
330
EF7C89C6D
102
}
330
EF7C89C6D
100
AcDbXrecord
 10
0.0
 20
0.0
 30
0.0
  0
XRECORD
  5
EF7C89C8A
102
{ACAD_REACTORS
330
EF7C89C6D
102
}
330
EF7C89C6D
100
AcDbXrecord
 10
0.0
 20
0.0
 30
0.0
  0
XRECORD
  5
EF7C89C8B
102
{ACAD_REACTORS
330
EF7C89C6D
102
}
330
EF7C89C6D
100
AcDbXrecord
 10
0.0
 20
0.0
 30
0.0
  0
XRECORD
  5
EF7C89C88
102
{ACAD_REACTORS
330
EF7C89C6D
102
}
330
EF7C89C6D
100
AcDbXrecord
 10
0.0
 20
0.0
 30
0.0
  0
XRECORD
  5
EF7C89C85
102
{ACAD_REACTORS
330
EF7C89C6D
102
}
330
EF7C89C6D
100
AcDbXrecord
340
0
  0
XRECORD
  5
EF7C89C86
102
{ACAD_REACTORS
330
EF7C89C6D
102
}
330
EF7C89C6D
100
AcDbXrecord
 70
     0
  0
XRECORD
  5
EF7C89C79
102
{ACAD_REACTORS
330
EF7C89C6D
102
}
330
EF7C89C6D
100
AcDbXrecord
  1
{CDF4223C-1E6A-4FB8-A9A1-3AEA77216805}
  0
DICTIONARYVAR
  5
EF7C89C6B
102
{ACAD_REACTORS
330
EF7C85DB7
102
}
330
EF7C85DB7
100
DictionaryVariables
280
     0
  1
0
  0
DICTIONARYVAR
  5
EF7C85DB8
102
{ACAD_REACTORS
330
EF7C85DB7
102
}
330
EF7C85DB7
100
DictionaryVariables
280
     0
  1
96
  0
ENDSEC
  0
EOF
