  0
SECTION
  2
HEADER
  9
$ACADVER
  1
AC1014
  9
$ACADMAINTVER
 70
     9
  9
$DWGCODEPAGE
  3
ANSI_932
  9
$INSBASE
 10
0.0
 20
0.0
 30
0.0
  9
$EXTMIN
 10
0.0
 20
0.0
 30
0.0
  9
$EXTMAX
 10
180.999999276
 20
282.9999999999999
 30
0.0
  9
$LIMMIN
 10
0.0
 20
0.0
  9
$LIMMAX
 10
181.0
 20
283.0
  9
$ORTHOMODE
 70
     1
  9
$REGENMODE
 70
     1
  9
$FILLMODE
 70
     1
  9
$QTEXTMODE
 70
     0
  9
$MIRRTEXT
 70
     0
  9
$DRAGMODE
 70
     2
  9
$LTSCALE
 40
5.0
  9
$OSMODE
 70
   167
  9
$ATTMODE
 70
     1
  9
$TEXTSIZE
 40
3.0
  9
$TRACEWID
 40
0.05
  9
$TEXTSTYLE
  7
BIGFONT
  9
$CLAYER
  8
JISSEN
  9
$CELTYPE
  6
BYLAYER
  9
$CECOLOR
 62
   256
  9
$CELTSCALE
 40
1.0
  9
$DELOBJ
 70
     1
  9
$DISPSILH
 70
     0
  9
$DIMSCALE
 40
1.0
  9
$DIMASZ
 40
1.5
  9
$DIMEXO
 40
1.0
  9
$DIMDLI
 40
6.0
  9
$DIMRND
 40
0.0
  9
$DIMDLE
 40
0.0
  9
$DIMEXE
 40
1.0
  9
$DIMTP
 40
0.0
  9
$DIMTM
 40
0.0
  9
$DIMTXT
 40
3.0
  9
$DIMCEN
 40
1.0
  9
$DIMTSZ
 40
0.0
  9
$DIMTOL
 70
     0
  9
$DIMLIM
 70
     0
  9
$DIMTIH
 70
     0
  9
$DIMTOH
 70
     0
  9
$DIMSE1
 70
     0
  9
$DIMSE2
 70
     0
  9
$DIMTAD
 70
     0
  9
$DIMZIN
 70
     8
  9
$DIMBLK
  1
ARROW
  9
$DIMASO
 70
     0
  9
$DIMSHO
 70
     0
  9
$DIMPOST
  1

  9
$DIMAPOST
  1

  9
$DIMALT
 70
     0
  9
$DIMALTD
 70
     2
  9
$DIMALTF
 40
25.4
  9
$DIMLFAC
 40
1.0
  9
$DIMTOFL
 70
     1
  9
$DIMTVP
 40
0.0
  9
$DIMTIX
 70
     0
  9
$DIMSOXD
 70
     0
  9
$DIMSAH
 70
     0
  9
$DIMBLK1
  1
ARROWANG
  9
$DIMBLK2
  1
ARROWANG
  9
$DIMSTYLE
  2
IMAO
  9
$DIMCLRD
 70
     0
  9
$DIMCLRE
 70
     0
  9
$DIMCLRT
 70
     0
  9
$DIMTFAC
 40
1.0
  9
$DIMGAP
 40
0.09
  9
$DIMJUST
 70
     0
  9
$DIMSD1
 70
     0
  9
$DIMSD2
 70
     0
  9
$DIMTOLJ
 70
     1
  9
$DIMTZIN
 70
     8
  9
$DIMALTZ
 70
     8
  9
$DIMALTTZ
 70
     8
  9
$DIMFIT
 70
     5
  9
$DIMUPT
 70
     0
  9
$DIMUNIT
 70
     2
  9
$DIMDEC
 70
     2
  9
$DIMTDEC
 70
     2
  9
$DIMALTU
 70
     2
  9
$DIMALTTD
 70
     2
  9
$DIMTXSTY
  7
BIGFONT
  9
$DIMAUNIT
 70
     0
  9
$LUNITS
 70
     2
  9
$LUPREC
 70
     2
  9
$SKETCHINC
 40
0.1
  9
$FILLETRAD
 40
0.2
  9
$AUNITS
 70
     0
  9
$AUPREC
 70
     2
  9
$MENU
  1
stdr12j
  9
$ELEVATION
 40
0.0
  9
$PELEVATION
 40
0.0
  9
$THICKNESS
 40
0.0
  9
$LIMCHECK
 70
     0
  9
$BLIPMODE
 70
     0
  9
$CHAMFERA
 40
0.0
  9
$CHAMFERB
 40
0.0
  9
$CHAMFERC
 40
0.0
  9
$CHAMFERD
 40
0.0
  9
$SKPOLY
 70
     0
  9
$TDCREATE
 40
2450617.453041203
  9
$TDUPDATE
 40
2453334.734469745
  9
$TDINDWG
 40
0.1709913657
  9
$TDUSRTIMER
 40
0.1709913657
  9
$USRTIMER
 70
     1
  9
$ANGBASE
 50
0.0
  9
$ANGDIR
 70
     0
  9
$PDMODE
 70
     0
  9
$PDSIZE
 40
0.0
  9
$PLINEWID
 40
0.0
  9
$COORDS
 70
     2
  9
$SPLFRAME
 70
     0
  9
$SPLINETYPE
 70
     6
  9
$SPLINESEGS
 70
     8
  9
$ATTDIA
 70
     0
  9
$ATTREQ
 70
     1
  9
$HANDLING
 70
 22529
  9
$HANDSEED
  5
EF7C8979A
  9
$SURFTAB1
 70
     6
  9
$SURFTAB2
 70
     6
  9
$SURFTYPE
 70
     6
  9
$SURFU
 70
     6
  9
$SURFV
 70
     6
  9
$UCSNAME
  2

  9
$UCSORG
 10
0.0
 20
0.0
 30
0.0
  9
$UCSXDIR
 10
1.0
 20
0.0
 30
0.0
  9
$UCSYDIR
 10
0.0
 20
1.0
 30
0.0
  9
$PUCSNAME
  2

  9
$PUCSORG
 10
0.0
 20
0.0
 30
0.0
  9
$PUCSXDIR
 10
1.0
 20
0.0
 30
0.0
  9
$PUCSYDIR
 10
0.0
 20
1.0
 30
0.0
  9
$USERI1
 70
     0
  9
$USERI2
 70
     1
  9
$USERI3
 70
     1
  9
$USERI4
 70
     3
  9
$USERI5
 70
     0
  9
$USERR1
 40
1.0
  9
$USERR2
 40
3.0
  9
$USERR3
 40
3.0
  9
$USERR4
 40
1.5
  9
$USERR5
 40
8.0
  9
$WORLDVIEW
 70
     1
  9
$SHADEDGE
 70
     3
  9
$SHADEDIF
 70
    70
  9
$TILEMODE
 70
     1
  9
$MAXACTVP
 70
    16
  9
$PINSBASE
 10
0.0
 20
0.0
 30
0.0
  9
$PLIMCHECK
 70
     0
  9
$PEXTMIN
 10
1.000000000000000E+20
 20
1.000000000000000E+20
 30
1.000000000000000E+20
  9
$PEXTMAX
 10
-1.000000000000000E+20
 20
-1.000000000000000E+20
 30
-1.000000000000000E+20
  9
$PLIMMIN
 10
0.0
 20
0.0
  9
$PLIMMAX
 10
12.0
 20
9.0
  9
$UNITMODE
 70
     0
  9
$VISRETAIN
 70
     0
  9
$PLINEGEN
 70
     0
  9
$PSLTSCALE
 70
     0
  9
$TREEDEPTH
 70
  3020
  9
$PICKSTYLE
 70
     1
  9
$CMLSTYLE
  2
STANDARD
  9
$CMLJUST
 70
     0
  9
$CMLSCALE
 40
1.0
  9
$PROXYGRAPHICS
 70
     1
  9
$MEASUREMENT
 70
     0
  0
ENDSEC
  0
SECTION
  2
CLASSES
  0
CLASS
  1
LWPOLYLINE
  2
AcDbPolyline
  3
AutoCAD 2000
 90
        0
280
     0
281
     1
  0
CLASS
  1
HATCH
  2
AcDbHatch
  3
AutoCAD 2000
 90
        0
280
     0
281
     1
  0
CLASS
  1
ACDBDICTIONARYWDFLT
  2
AcDbDictionaryWithDefault
  3
AutoCAD 2000
 90
        0
280
     0
281
     0
  0
CLASS
  1
ACDBPLACEHOLDER
  2
AcDbPlaceHolder
  3
AutoCAD 2000
 90
        0
280
     0
281
     0
  0
CLASS
  1
LAYOUT
  2
AcDbLayout
  3
AutoCAD 2000
 90
        0
280
     0
281
     0
  0
CLASS
  1
LONG_TRANSACTION
  2
AcDbLongTransaction
  3
AutoCAD 2000
 90
        0
280
     0
281
     0
  0
CLASS
  1
LWPOLYLINE
  2
AcDbPolyline
  3
AutoCAD 2000
 90
        0
280
     0
281
     1
  0
CLASS
  1
HATCH
  2
AcDbHatch
  3
AutoCAD 2000
 90
        0
280
     0
281
     1
  0
CLASS
  1
XRECORD
  2
AcDbXrecord
  3
AutoCAD 2000
 90
        0
280
     0
281
     0
  0
CLASS
  1
DICTIONARYVAR
  2
AcDbDictionaryVar
  3
AutoCAD 2000
 90
        0
280
     0
281
     0
  0
CLASS
  1
LONG_TRANSACTION
  2
AcDbLongTransaction
  3
AutoCAD 2000
 90
        0
280
     0
281
     0
  0
CLASS
  1
LWPOLYLINE
  2
AcDbPolyline
  3
AutoCAD 2000
 90
        0
280
     0
281
     1
  0
CLASS
  1
HATCH
  2
AcDbHatch
  3
AutoCAD 2000
 90
        0
280
     0
281
     1
  0
CLASS
  1
XRECORD
  2
AcDbXrecord
  3
AutoCAD 2000
 90
        0
280
     0
281
     0
  0
CLASS
  1
LONG_TRANSACTION
  2
AcDbLongTransaction
  3
AutoCAD 2000
 90
        0
280
     0
281
     0
  0
CLASS
  1
LWPOLYLINE
  2
AcDbPolyline
  3
AutoCAD 2000
 90
        0
280
     0
281
     1
  0
CLASS
  1
HATCH
  2
AcDbHatch
  3
AutoCAD 2000
 90
        0
280
     0
281
     1
  0
CLASS
  1
XRECORD
  2
AcDbXrecord
  3
AutoCAD 2000
 90
        0
280
     0
281
     0
  0
CLASS
  1
LONG_TRANSACTION
  2
AcDbLongTransaction
  3
AutoCAD 2000
 90
        0
280
     0
281
     0
  0
CLASS
  1
LWPOLYLINE
  2
AcDbPolyline
  3
AutoCAD 2000
 90
        0
280
     0
281
     1
  0
CLASS
  1
HATCH
  2
AcDbHatch
  3
AutoCAD 2000
 90
        0
280
     0
281
     1
  0
CLASS
  1
XRECORD
  2
AcDbXrecord
  3
AutoCAD 2000
 90
        0
280
     0
281
     0
  0
CLASS
  1
LONG_TRANSACTION
  2
AcDbLongTransaction
  3
AutoCAD 2000
 90
        0
280
     0
281
     0
  0
CLASS
  1
LWPOLYLINE
  2
AcDbPolyline
  3
AutoCAD 2000
 90
        0
280
     0
281
     1
  0
CLASS
  1
HATCH
  2
AcDbHatch
  3
AutoCAD 2000
 90
        0
280
     0
281
     1
  0
CLASS
  1
XRECORD
  2
AcDbXrecord
  3
AutoCAD 2000
 90
        0
280
     0
281
     0
  0
CLASS
  1
LONG_TRANSACTION
  2
AcDbLongTransaction
  3
AutoCAD 2000
 90
        0
280
     0
281
     0
  0
CLASS
  1
LWPOLYLINE
  2
AcDbPolyline
  3
AutoCAD 2000
 90
        0
280
     0
281
     1
  0
CLASS
  1
HATCH
  2
AcDbHatch
  3
AutoCAD 2000
 90
        0
280
     0
281
     1
  0
CLASS
  1
XRECORD
  2
AcDbXrecord
  3
AutoCAD 2000
 90
        0
280
     0
281
     0
  0
CLASS
  1
LONG_TRANSACTION
  2
AcDbLongTransaction
  3
AutoCAD 2000
 90
        0
280
     0
281
     0
  0
CLASS
  1
LWPOLYLINE
  2
AcDbPolyline
  3
AutoCAD 2000
 90
        0
280
     0
281
     1
  0
CLASS
  1
HATCH
  2
AcDbHatch
  3
AutoCAD 2000
 90
        0
280
     0
281
     1
  0
CLASS
  1
XRECORD
  2
AcDbXrecord
  3
AutoCAD 2000
 90
        0
280
     0
281
     0
  0
CLASS
  1
LONG_TRANSACTION
  2
AcDbLongTransaction
  3
AutoCAD 2000
 90
        0
280
     0
281
     0
  0
CLASS
  1
LWPOLYLINE
  2
AcDbPolyline
  3
AutoCAD 2000
 90
        0
280
     0
281
     1
  0
CLASS
  1
HATCH
  2
AcDbHatch
  3
AutoCAD 2000
 90
        0
280
     0
281
     1
  0
CLASS
  1
XRECORD
  2
AcDbXrecord
  3
AutoCAD 2000
 90
        0
280
     0
281
     0
  0
CLASS
  1
LONG_TRANSACTION
  2
AcDbLongTransaction
  3
AutoCAD 2000
 90
        0
280
     0
281
     0
  0
CLASS
  1
LWPOLYLINE
  2
AcDbPolyline
  3
AutoCAD 2000
 90
        0
280
     0
281
     1
  0
CLASS
  1
HATCH
  2
AcDbHatch
  3
AutoCAD 2000
 90
        0
280
     0
281
     1
  0
CLASS
  1
XRECORD
  2
AcDbXrecord
  3
AutoCAD 2000
 90
        0
280
     0
281
     0
  0
CLASS
  1
LONG_TRANSACTION
  2
AcDbLongTransaction
  3
AutoCAD 2000
 90
        0
280
     0
281
     0
  0
CLASS
  1
LWPOLYLINE
  2
AcDbPolyline
  3
AutoCAD 2000
 90
        0
280
     0
281
     1
  0
CLASS
  1
HATCH
  2
AcDbHatch
  3
AutoCAD 2000
 90
        0
280
     0
281
     1
  0
CLASS
  1
XRECORD
  2
AcDbXrecord
  3
AutoCAD 2000
 90
        0
280
     0
281
     0
  0
CLASS
  1
LONG_TRANSACTION
  2
AcDbLongTransaction
  3
AutoCAD 2000
 90
        0
280
     0
281
     0
  0
CLASS
  1
LWPOLYLINE
  2
AcDbPolyline
  3
AutoCAD 2000
 90
        0
280
     0
281
     1
  0
CLASS
  1
HATCH
  2
AcDbHatch
  3
AutoCAD 2000
 90
        0
280
     0
281
     1
  0
CLASS
  1
XRECORD
  2
AcDbXrecord
  3
AutoCAD 2000
 90
        0
280
     0
281
     0
  0
CLASS
  1
LONG_TRANSACTION
  2
AcDbLongTransaction
  3
AutoCAD 2000
 90
        0
280
     0
281
     0
  0
CLASS
  1
LWPOLYLINE
  2
AcDbPolyline
  3
AutoCAD 2000
 90
        0
280
     0
281
     1
  0
CLASS
  1
HATCH
  2
AcDbHatch
  3
AutoCAD 2000
 90
        0
280
     0
281
     1
  0
CLASS
  1
XRECORD
  2
AcDbXrecord
  3
AutoCAD 2000
 90
        0
280
     0
281
     0
  0
CLASS
  1
LONG_TRANSACTION
  2
AcDbLongTransaction
  3
AutoCAD 2000
 90
        0
280
     0
281
     0
  0
CLASS
  1
LWPOLYLINE
  2
AcDbPolyline
  3
AutoCAD 2000
 90
        0
280
     0
281
     1
  0
CLASS
  1
HATCH
  2
AcDbHatch
  3
AutoCAD 2000
 90
        0
280
     0
281
     1
  0
CLASS
  1
XRECORD
  2
AcDbXrecord
  3
AutoCAD 2000
 90
        0
280
     0
281
     0
  0
CLASS
  1
LONG_TRANSACTION
  2
AcDbLongTransaction
  3
AutoCAD 2000
 90
        0
280
     0
281
     0
  0
CLASS
  1
LWPOLYLINE
  2
AcDbPolyline
  3
AutoCAD 2000
 90
        0
280
     0
281
     1
  0
CLASS
  1
HATCH
  2
AcDbHatch
  3
AutoCAD 2000
 90
        0
280
     0
281
     1
  0
CLASS
  1
XRECORD
  2
AcDbXrecord
  3
AutoCAD 2000
 90
        0
280
     0
281
     0
  0
CLASS
  1
LONG_TRANSACTION
  2
AcDbLongTransaction
  3
AutoCAD 2000
 90
        0
280
     0
281
     0
  0
CLASS
  1
LWPOLYLINE
  2
AcDbPolyline
  3
AutoCAD 2000
 90
        0
280
     0
281
     1
  0
CLASS
  1
HATCH
  2
AcDbHatch
  3
AutoCAD 2000
 90
        0
280
     0
281
     1
  0
CLASS
  1
XRECORD
  2
AcDbXrecord
  3
AutoCAD 2000
 90
        0
280
     0
281
     0
  0
CLASS
  1
LONG_TRANSACTION
  2
AcDbLongTransaction
  3
AutoCAD 2000
 90
        0
280
     0
281
     0
  0
CLASS
  1
LWPOLYLINE
  2
AcDbPolyline
  3
AutoCAD 2000
 90
        0
280
     0
281
     1
  0
CLASS
  1
HATCH
  2
AcDbHatch
  3
AutoCAD 2000
 90
        0
280
     0
281
     1
  0
CLASS
  1
XRECORD
  2
AcDbXrecord
  3
AutoCAD 2000
 90
        0
280
     0
281
     0
  0
CLASS
  1
LONG_TRANSACTION
  2
AcDbLongTransaction
  3
AutoCAD 2000
 90
        0
280
     0
281
     0
  0
CLASS
  1
LWPOLYLINE
  2
AcDbPolyline
  3
AutoCAD 2000
 90
        0
280
     0
281
     1
  0
CLASS
  1
HATCH
  2
AcDbHatch
  3
AutoCAD 2000
 90
        0
280
     0
281
     1
  0
CLASS
  1
XRECORD
  2
AcDbXrecord
  3
AutoCAD 2000
 90
        0
280
     0
281
     0
  0
CLASS
  1
LONG_TRANSACTION
  2
AcDbLongTransaction
  3
AutoCAD 2000
 90
        0
280
     0
281
     0
  0
CLASS
  1
LWPOLYLINE
  2
AcDbPolyline
  3
AutoCAD 2000
 90
        0
280
     0
281
     1
  0
CLASS
  1
HATCH
  2
AcDbHatch
  3
AutoCAD 2000
 90
        0
280
     0
281
     1
  0
CLASS
  1
XRECORD
  2
AcDbXrecord
  3
AutoCAD 2000
 90
        0
280
     0
281
     0
  0
ENDSEC
  0
SECTION
  2
TABLES
  0
TABLE
  2
VPORT
  5
EF7C85523
330
0
100
AcDbSymbolTable
 70
    10
  0
VPORT
  5
EF7C85567
330
EF7C85523
100
AcDbSymbolTableRecord
100
AcDbViewportTableRecord
  2
2
 70
     0
 10
0.5
 20
0.0
 11
1.0
 21
1.0
 12
0.9240312421264802
 22
1.052650975462766
 13
0.0
 23
0.0
 14
1.0
 24
1.0
 15
10.0
 25
10.0
 16
0.0
 26
0.0
 36
1.0
 17
0.0
 27
0.0
 37
0.0
 40
2.105301950925533
 41
0.8778135048231511
 42
50.0
 43
0.0
 44
0.0
 50
0.0
 51
0.0
 71
     0
 72
   500
 73
     1
 74
     1
 75
     0
 76
     0
 77
     0
 78
     0
  0
VPORT
  5
EF7C85568
330
EF7C85523
100
AcDbSymbolTableRecord
100
AcDbViewportTableRecord
  2
2
 70
     0
 10
0.0
 20
0.0
 11
0.5
 21
1.0
 12
0.9240312421264802
 22
1.052650975462766
 13
0.0
 23
0.0
 14
1.0
 24
1.0
 15
10.0
 25
10.0
 16
0.0
 26
0.0
 36
1.0
 17
0.0
 27
0.0
 37
0.0
 40
2.105301950925533
 41
0.8778135048231511
 42
50.0
 43
0.0
 44
0.0
 50
0.0
 51
0.0
 71
     0
 72
   500
 73
     1
 74
     1
 75
     0
 76
     0
 77
     0
 78
     0
  0
VPORT
  5
EF7C85569
330
EF7C85523
100
AcDbSymbolTableRecord
100
AcDbViewportTableRecord
  2
3
 70
     0
 10
0.0
 20
0.5
 11
1.0
 21
1.0
 12
2.832169994473273
 22
1.052650975462766
 13
0.0
 23
0.0
 14
1.0
 24
1.0
 15
10.0
 25
10.0
 16
0.0
 26
0.0
 36
1.0
 17
0.0
 27
0.0
 37
0.0
 40
2.105301950925533
 41
3.571428571428571
 42
50.0
 43
0.0
 44
0.0
 50
0.0
 51
0.0
 71
     0
 72
   500
 73
     1
 74
     1
 75
     0
 76
     0
 77
     0
 78
     0
  0
VPORT
  5
EF7C8556A
330
EF7C85523
100
AcDbSymbolTableRecord
100
AcDbViewportTableRecord
  2
3
 70
     0
 10
0.0
 20
0.0
 11
1.0
 21
0.5
 12
2.856741679241311
 22
1.052650975462766
 13
0.0
 23
0.0
 14
1.0
 24
1.0
 15
10.0
 25
10.0
 16
0.0
 26
0.0
 36
1.0
 17
0.0
 27
0.0
 37
0.0
 40
2.105301950925533
 41
3.594771241830065
 42
50.0
 43
0.0
 44
0.0
 50
0.0
 51
0.0
 71
     0
 72
   500
 73
     1
 74
     1
 75
     0
 76
     0
 77
     0
 78
     0
  0
VPORT
  5
EF7C8556B
330
EF7C85523
100
AcDbSymbolTableRecord
100
AcDbViewportTableRecord
  2
4
 70
     0
 10
0.5
 20
0.0
 11
1.0
 21
0.5
 12
2.886857516709719
 22
1.052650975462766
 13
0.0
 23
0.0
 14
1.0
 24
1.0
 15
10.0
 25
10.0
 16
0.0
 26
0.0
 36
1.0
 17
0.0
 27
0.0
 37
0.0
 40
4.27520703030907
 41
1.784313725490195
 42
50.0
 43
0.0
 44
0.0
 50
0.0
 51
0.0
 71
     0
 72
   500
 73
     1
 74
     1
 75
     0
 76
     0
 77
     0
 78
     0
  0
VPORT
  5
EF7C8556C
330
EF7C85523
100
AcDbSymbolTableRecord
100
AcDbViewportTableRecord
  2
4
 70
     0
 10
0.5
 20
0.5
 11
1.0
 21
1.0
 12
2.862090274555523
 22
1.052650975462766
 13
0.0
 23
0.0
 14
1.0
 24
1.0
 15
10.0
 25
10.0
 16
0.0
 26
0.0
 36
1.0
 17
0.0
 27
0.0
 37
0.0
 40
4.27520703030907
 41
1.772727272727272
 42
50.0
 43
0.0
 44
0.0
 50
0.0
 51
0.0
 71
     0
 72
   500
 73
     1
 74
     1
 75
     0
 76
     0
 77
     0
 78
     0
  0
VPORT
  5
EF7C8556D
330
EF7C85523
100
AcDbSymbolTableRecord
100
AcDbViewportTableRecord
  2
4
 70
     0
 10
0.0
 20
0.5
 11
0.5
 21
1.0
 12
2.862090274555523
 22
1.052650975462766
 13
0.0
 23
0.0
 14
1.0
 24
1.0
 15
10.0
 25
10.0
 16
0.0
 26
0.0
 36
1.0
 17
0.0
 27
0.0
 37
0.0
 40
4.27520703030907
 41
1.772727272727272
 42
50.0
 43
0.0
 44
0.0
 50
0.0
 51
0.0
 71
     0
 72
   500
 73
     1
 74
     1
 75
     0
 76
     0
 77
     0
 78
     0
  0
VPORT
  5
EF7C8556E
330
EF7C85523
100
AcDbSymbolTableRecord
100
AcDbViewportTableRecord
  2
4
 70
     0
 10
0.0
 20
0.0
 11
0.5
 21
0.5
 12
2.886857516709719
 22
1.052650975462766
 13
0.0
 23
0.0
 14
1.0
 24
1.0
 15
10.0
 25
10.0
 16
0.0
 26
0.0
 36
1.0
 17
0.0
 27
0.0
 37
0.0
 40
4.27520703030907
 41
1.784313725490195
 42
50.0
 43
0.0
 44
0.0
 50
0.0
 51
0.0
 71
     0
 72
   500
 73
     1
 74
     1
 75
     0
 76
     0
 77
     0
 78
     0
  0
VPORT
  5
EF7C89776
330
EF7C85523
100
AcDbSymbolTableRecord
100
AcDbViewportTableRecord
  2
*ACTIVE
 70
     0
 10
0.0
 20
0.0
 11
1.0
 21
1.0
 12
172.3450366521156
 22
141.4920257662103
 13
0.0
 23
0.0
 14
1.0
 24
1.0
 15
10.0
 25
10.0
 16
0.0
 26
0.0
 36
1.0
 17
0.0
 27
0.0
 37
0.0
 40
286.259624285027
 41
1.771962616822429
 42
50.0
 43
0.0
 44
0.0
 50
0.0
 51
0.0
 71
     0
 72
   500
 73
     1
 74
     0
 75
     0
 76
     0
 77
     0
 78
     0
  0
ENDTAB
  0
TABLE
  2
LTYPE
  5
EF7C85520
330
0
100
AcDbSymbolTable
 70
     4
  0
LTYPE
  5
EF7C8552C
330
EF7C85520
100
AcDbSymbolTableRecord
100
AcDbLinetypeTableRecord
  2
BYBLOCK
 70
     0
  3

 72
    65
 73
     0
 40
0.0
  0
LTYPE
  5
EF7C8552D
330
EF7C85520
100
AcDbSymbolTableRecord
100
AcDbLinetypeTableRecord
  2
BYLAYER
 70
     0
  3

 72
    65
 73
     0
 40
0.0
  0
LTYPE
  5
EF7C8552E
330
EF7C85520
100
AcDbSymbolTableRecord
100
AcDbLinetypeTableRecord
  2
CONTINUOUS
 70
     0
  3
実線
 72
    65
 73
     0
 40
0.0
  0
LTYPE
  5
EF7C85565
330
EF7C85520
100
AcDbSymbolTableRecord
100
AcDbLinetypeTableRecord
  2
PHANTOM
 70
     0
  3
_____ _ _ _____ _ _ _____ _ _ _____ _ _ ____
 72
    65
 73
     6
 40
2.5
 49
1.25
 74
     0
 49
-0.25
 74
     0
 49
0.25
 74
     0
 49
-0.25
 74
     0
 49
0.25
 74
     0
 49
-0.25
 74
     0
  0
LTYPE
  5
EF7C8711F
330
EF7C85520
100
AcDbSymbolTableRecord
100
AcDbLinetypeTableRecord
  2
CENTER
 70
     0
  3
____ _ ____ _ ____ _ ____ _ ____ _ ____ _ ____
 72
    65
 73
     4
 40
2.0
 49
1.25
 74
     0
 49
-0.25
 74
     0
 49
0.25
 74
     0
 49
-0.25
 74
     0
  0
LTYPE
  5
EF7C87AC6
330
EF7C85520
100
AcDbSymbolTableRecord
100
AcDbLinetypeTableRecord
  2
HIDDEN
 70
     0
  3
_ _ _ _ _ _ _ _ _ _ _ _ _ _ _ _ _ _ _ _ _ _ _
 72
    65
 73
     2
 40
0.375
 49
0.25
 74
     0
 49
-0.125
 74
     0
  0
ENDTAB
  0
TABLE
  2
LAYER
  5
EF7C8551D
330
0
100
AcDbSymbolTable
 70
    10
  0
LAYER
  5
EF7C85529
330
EF7C8551D
100
AcDbSymbolTableRecord
100
AcDbLayerTableRecord
  2
0
 70
     0
 62
     6
  6
CONTINUOUS
  0
LAYER
  5
EF7C85574
330
EF7C8551D
100
AcDbSymbolTableRecord
100
AcDbLayerTableRecord
  2
NITEN
 70
     0
 62
     2
  6
PHANTOM
  0
LAYER
  5
EF7C85575
330
EF7C8551D
100
AcDbSymbolTableRecord
100
AcDbLayerTableRecord
  2
HATCH
 70
     0
 62
     4
  6
CONTINUOUS
  0
LAYER
  5
EF7C85576
330
EF7C8551D
100
AcDbSymbolTableRecord
100
AcDbLayerTableRecord
  2
SUNPOU
 70
     0
 62
     3
  6
CONTINUOUS
  0
LAYER
  5
EF7C85577
330
EF7C8551D
100
AcDbSymbolTableRecord
100
AcDbLayerTableRecord
  2
TEXT
 70
     0
 62
     3
  6
CONTINUOUS
  0
LAYER
  5
EF7C85578
330
EF7C8551D
100
AcDbSymbolTableRecord
100
AcDbLayerTableRecord
  2
SAISEN
 70
     0
 62
     4
  6
CONTINUOUS
  0
LAYER
  5
EF7C85579
330
EF7C8551D
100
AcDbSymbolTableRecord
100
AcDbLayerTableRecord
  2
JISSEN
 70
     0
 62
     7
  6
CONTINUOUS
  0
LAYER
  5
EF7C8557D
330
EF7C8551D
100
AcDbSymbolTableRecord
100
AcDbLayerTableRecord
  2
WAKU
 70
     0
 62
     5
  6
CONTINUOUS
  0
LAYER
  5
EF7C87120
330
EF7C8551D
100
AcDbSymbolTableRecord
100
AcDbLayerTableRecord
  2
ITTEN
 70
     0
 62
     1
  6
CENTER
  0
LAYER
  5
EF7C87AC7
330
EF7C8551D
100
AcDbSymbolTableRecord
100
AcDbLayerTableRecord
  2
TENSEN
 70
     0
 62
     2
  6
HIDDEN
  0
ENDTAB
  0
TABLE
  2
STYLE
  5
EF7C8551E
330
0
100
AcDbSymbolTable
 70
     3
  0
STYLE
  5
EF7C8552A
330
EF7C8551E
100
AcDbSymbolTableRecord
100
AcDbTextStyleTableRecord
  2
STANDARD
 70
     0
 40
0.0
 41
1.0
 50
0.0
 71
     0
 42
1.5
  3
SIMPLEX
  4

  0
STYLE
  5
EF7C85558
330
EF7C8551E
100
AcDbSymbolTableRecord
100
AcDbTextStyleTableRecord
  2
K
 70
     0
 40
0.0
 41
1.0
 50
0.0
 71
     0
 42
3.0
  3
ROMANS
  4
BIGFONT
  0
STYLE
  5
EF7C8555B
330
EF7C8551E
100
AcDbSymbolTableRecord
100
AcDbTextStyleTableRecord
  2
BIGFONT
 70
     0
 40
0.0
 41
1.0
 50
0.0
 71
     0
 42
3.0
  3
txt.shx
  4
bigfont
  0
ENDTAB
  0
TABLE
  2
VIEW
  5
EF7C85521
330
0
100
AcDbSymbolTable
 70
     0
  0
ENDTAB
  0
TABLE
  2
UCS
  5
EF7C85522
330
0
100
AcDbSymbolTable
 70
     0
  0
ENDTAB
  0
TABLE
  2
APPID
  5
EF7C85524
330
0
100
AcDbSymbolTable
 70
     1
  0
APPID
  5
EF7C8552B
330
EF7C85524
100
AcDbSymbolTableRecord
100
AcDbRegAppTableRecord
  2
ACAD
 70
     0
  0
ENDTAB
  0
TABLE
  2
DIMSTYLE
  5
EF7C85525
330
0
100
AcDbSymbolTable
 70
     1
  0
DIMSTYLE
105
EF7C85571
330
EF7C85525
100
AcDbSymbolTableRecord
100
AcDbDimStyleTableRecord
  2
IMAO
 70
     0
  3

  4

  5
ARROWANG
  6
ARROWANG
  7
ARROWANG
 40
1.0
 41
1.5
 42
1.0
 43
6.0
 44
1.0
 45
0.0
 46
0.0
 47
495.0
 48
0.0
140
3.0
141
0.0
142
0.0
143
25.4
144
1.0
145
0.0
146
1.0
147
0.09
 71
     0
 72
     0
 73
     0
 74
     0
 75
     0
 76
     0
 77
     1
 78
     8
170
     0
171
     2
172
     1
173
     0
174
     1
175
     0
176
     0
177
     0
178
     0
270
     2
271
     2
272
     2
273
     2
274
     2
340
EF7C8555B
275
     0
280
     0
281
     0
282
     0
283
     1
284
     8
285
     8
286
     8
287
     5
288
     0
  0
ENDTAB
  0
TABLE
  2
BLOCK_RECORD
  5
EF7C8551C
330
0
100
AcDbSymbolTable
 70
    10
  0
BLOCK_RECORD
  5
EF7C85532
102
{ACAD_XDICTIONARY
360
EF7C85D9A
102
}
330
EF7C8551C
100
AcDbSymbolTableRecord
100
AcDbBlockTableRecord
  2
*MODEL_SPACE
  0
BLOCK_RECORD
  5
EF7C8552F
102
{ACAD_XDICTIONARY
360
EF7C85D98
102
}
330
EF7C8551C
100
AcDbSymbolTableRecord
100
AcDbBlockTableRecord
  2
*PAPER_SPACE
  0
BLOCK_RECORD
  5
EF7C85537
330
EF7C8551C
100
AcDbSymbolTableRecord
100
AcDbBlockTableRecord
  2
ARROW
  0
BLOCK_RECORD
  5
EF7C8553B
330
EF7C8551C
100
AcDbSymbolTableRecord
100
AcDbBlockTableRecord
  2
WAKU
  0
BLOCK_RECORD
  5
EF7C8553D
330
EF7C8551C
100
AcDbSymbolTableRecord
100
AcDbBlockTableRecord
  2
*X2
  0
BLOCK_RECORD
  5
EF7C8553E
330
EF7C8551C
100
AcDbSymbolTableRecord
100
AcDbBlockTableRecord
  2
STDGX5
  0
BLOCK_RECORD
  5
EF7C8553F
330
EF7C8551C
100
AcDbSymbolTableRecord
100
AcDbBlockTableRecord
  2
*X4
  0
BLOCK_RECORD
  5
EF7C85540
330
EF7C8551C
100
AcDbSymbolTableRecord
100
AcDbBlockTableRecord
  2
*X5
  0
BLOCK_RECORD
  5
EF7C85541
330
EF7C8551C
100
AcDbSymbolTableRecord
100
AcDbBlockTableRecord
  2
*X6
  0
BLOCK_RECORD
  5
EF7C85542
330
EF7C8551C
100
AcDbSymbolTableRecord
100
AcDbBlockTableRecord
  2
*X7
  0
BLOCK_RECORD
  5
EF7C85543
330
EF7C8551C
100
AcDbSymbolTableRecord
100
AcDbBlockTableRecord
  2
ARROWANG
  0
BLOCK_RECORD
  5
EF7C85544
330
EF7C8551C
100
AcDbSymbolTableRecord
100
AcDbBlockTableRecord
  2
STDR12J
  0
ENDTAB
  0
ENDSEC
  0
SECTION
  2
BLOCKS
  0
BLOCK
  5
EF7C85580
330
EF7C85532
100
AcDbEntity
  8
0
100
AcDbBlockBegin
  2
*MODEL_SPACE
 70
     0
 10
0.0
 20
0.0
 30
0.0
  3
*MODEL_SPACE
  1

  0
ENDBLK
  5
EF7C85581
330
EF7C85532
100
AcDbEntity
  8
0
100
AcDbBlockEnd
  0
BLOCK
  5
EF7C8557E
330
EF7C8552F
100
AcDbEntity
 67
     1
  8
0
100
AcDbBlockBegin
  2
*PAPER_SPACE
 70
     0
 10
0.0
 20
0.0
 30
0.0
  3
*PAPER_SPACE
  1

  0
ENDBLK
  5
EF7C8557F
330
EF7C8552F
100
AcDbEntity
 67
     1
  8
0
100
AcDbBlockEnd
  0
BLOCK
  5
499
330
EF7C85537
100
AcDbEntity
  8
0
100
AcDbBlockBegin
  2
ARROW
 70
     0
 10
1.0
 20
0.5
 30
0.0
  3
ARROW
  1

  0
LINE
  5
49A
330
EF7C85537
100
AcDbEntity
  8
0
100
AcDbLine
 10
1.0
 20
0.5
 30
0.0
 11
-0.5000000000000214
 21
0.0980762113533018
 31
0.0
  0
LINE
  5
49B
330
EF7C85537
100
AcDbEntity
  8
0
100
AcDbLine
 10
0.0
 20
0.5
 30
0.0
 11
1.0
 21
0.5
 31
0.0
  0
LINE
  5
49C
330
EF7C85537
100
AcDbEntity
  8
0
100
AcDbLine
 10
1.0
 20
0.5
 30
0.0
 11
-0.4999999999999574
 21
0.9019237886467408
 31
0.0
  0
ENDBLK
  5
49D
330
EF7C85537
100
AcDbEntity
  8
0
100
AcDbBlockEnd
  0
BLOCK
  5
4A7
330
EF7C8553B
100
AcDbEntity
  8
0
100
AcDbBlockBegin
  2
WAKU
 70
     0
 10
0.0
 20
0.0
 30
0.0
  3
WAKU
  1

  0
LINE
  5
4A8
330
EF7C8553B
100
AcDbEntity
  8
WAKU
100
AcDbLine
 10
0.999999996
 20
0.0
 30
0.0
 11
0.999999996
 21
0.9999999999999998
 31
0.0
  0
LINE
  5
4A9
330
EF7C8553B
100
AcDbEntity
  8
WAKU
100
AcDbLine
 10
0.0
 20
0.9999999999999998
 30
0.0
 11
0.999999996
 21
0.9999999999999998
 31
0.0
  0
LINE
  5
4AA
330
EF7C8553B
100
AcDbEntity
  8
WAKU
100
AcDbLine
 10
0.999999996
 20
0.0
 30
0.0
 11
0.0
 21
0.0
 31
0.0
  0
LINE
  5
4AB
330
EF7C8553B
100
AcDbEntity
  8
WAKU
100
AcDbLine
 10
0.0
 20
0.0
 30
0.0
 11
0.0
 21
0.9999999999999998
 31
0.0
  0
ENDBLK
  5
4AC
330
EF7C8553B
100
AcDbEntity
  8
0
100
AcDbBlockEnd
  0
BLOCK
  5
2764
330
EF7C8553D
100
AcDbEntity
  8
0
100
AcDbBlockBegin
  2
*X2
 70
     1
 10
0.0
 20
0.0
 30
0.0
  3
*X2
  1

  0
ENDBLK
  5
2765
330
EF7C8553D
100
AcDbEntity
  8
0
100
AcDbBlockEnd
  0
BLOCK
  5
2766
330
EF7C8553E
100
AcDbEntity
  8
0
100
AcDbBlockBegin
  2
STDGX5
 70
     0
 10
0.0
 20
0.0
 30
0.0
  3
STDGX5
  1

  0
ENDBLK
  5
2767
330
EF7C8553E
100
AcDbEntity
  8
0
100
AcDbBlockEnd
  0
BLOCK
  5
2F5A
330
EF7C8553F
100
AcDbEntity
  8
0
100
AcDbBlockBegin
  2
*X4
 70
     1
 10
0.0
 20
0.0
 30
0.0
  3
*X4
  1

  0
ENDBLK
  5
2F5B
330
EF7C8553F
100
AcDbEntity
  8
0
100
AcDbBlockEnd
  0
BLOCK
  5
32BB
330
EF7C85540
100
AcDbEntity
  8
0
100
AcDbBlockBegin
  2
*X5
 70
     1
 10
0.0
 20
0.0
 30
0.0
  3
*X5
  1

  0
ENDBLK
  5
32BC
330
EF7C85540
100
AcDbEntity
  8
0
100
AcDbBlockEnd
  0
BLOCK
  5
372F
330
EF7C85541
100
AcDbEntity
  8
0
100
AcDbBlockBegin
  2
*X6
 70
     1
 10
0.0
 20
0.0
 30
0.0
  3
*X6
  1

  0
ENDBLK
  5
3730
330
EF7C85541
100
AcDbEntity
  8
0
100
AcDbBlockEnd
  0
BLOCK
  5
3A6D
330
EF7C85542
100
AcDbEntity
  8
0
100
AcDbBlockBegin
  2
*X7
 70
     1
 10
0.0
 20
0.0
 30
0.0
  3
*X7
  1

  0
ENDBLK
  5
3A6E
330
EF7C85542
100
AcDbEntity
  8
0
100
AcDbBlockEnd
  0
BLOCK
  5
4CC9
330
EF7C85543
100
AcDbEntity
  8
0
100
AcDbBlockBegin
  2
ARROWANG
 70
     0
 10
0.0
 20
0.0
 30
0.0
  3
ARROWANG
  1

  0
LINE
  5
4CCA
330
EF7C85543
100
AcDbEntity
  8
SUNPOU
100
AcDbLine
 10
0.0
 20
0.0
 30
0.0
 11
-1.499999999999957
 21
0.4019237886467409
 31
0.0
  0
LINE
  5
4CCB
330
EF7C85543
100
AcDbEntity
  8
SUNPOU
100
AcDbLine
 10
0.0
 20
0.0
 30
0.0
 11
-1.500000000000028
 21
-0.4019237886467124
 31
0.0
  0
ENDBLK
  5
4CCC
330
EF7C85543
100
AcDbEntity
  8
0
100
AcDbBlockEnd
  0
BLOCK
  5
4CCD
330
EF7C85544
100
AcDbEntity
  8
0
100
AcDbBlockBegin
  2
STDR12J
 70
     0
 10
0.0
 20
0.0
 30
0.0
  3
STDR12J
  1

  0
ENDBLK
  5
4CF2
330
EF7C85544
100
AcDbEntity
  8
0
100
AcDbBlockEnd
  0
ENDSEC
  0
SECTION
  2
ENTITIES
  0
TEXT
  5
1
330
EF7C85532
100
AcDbEntity
  8
SUNPOU
100
AcDbText
 10
95.05869565217389
 20
43.7966872748706
 30
0.0
 40
1.5
  1
                          
100
AcDbText
  0
TEXT
  5
2
330
EF7C85532
100
AcDbEntity
  8
SUNPOU
100
AcDbText
 10
332.2793466870868
 20
21.8983436374353
 30
0.0
 40
0.75
  1
                          
100
AcDbText
  0
TEXT
  5
1A
330
EF7C85532
100
AcDbEntity
  8
SUNPOU
100
AcDbText
 10
289.9834441000535
 20
43.7966872748706
 30
0.0
 40
1.5
  1
                          
100
AcDbText
  0
TEXT
  5
1B
330
EF7C85532
100
AcDbEntity
  8
SUNPOU
100
AcDbText
 10
527.2040951349665
 20
21.8983436374353
 30
0.0
 40
0.75
  1
                          
100
AcDbText
  0
TEXT
  5
1C
330
EF7C85532
100
AcDbEntity
  8
SUNPOU
100
AcDbText
 10
490.6272568090836
 20
43.79668727487057
 30
0.0
 40
1.5
  1
                          
100
AcDbText
  0
TEXT
  5
1D
330
EF7C85532
100
AcDbEntity
  8
SUNPOU
100
AcDbText
 10
727.8479078439966
 20
21.89834363743527
 30
0.0
 40
0.75
  1
                          
100
AcDbText
  0
INSERT
  5
1E
330
EF7C85532
100
AcDbEntity
  8
HATCH
100
AcDbBlockReference
  2
*X2
 10
194.9247484478796
 20
0.0
 30
0.0
  0
TEXT
  5
1F
330
EF7C85532
100
AcDbEntity
  8
SUNPOU
100
AcDbText
 10
493.0101992368964
 20
43.7966872748706
 30
0.0
 40
1.5
  1
                          
100
AcDbText
  0
TEXT
  5
20
330
EF7C85532
100
AcDbEntity
  8
SUNPOU
100
AcDbText
 10
730.2308502718094
 20
21.8983436374353
 30
0.0
 40
0.75
  1
                          
100
AcDbText
  0
TEXT
  5
21
330
EF7C85532
100
AcDbEntity
  8
SUNPOU
100
AcDbText
 10
482.0486607753579
 20
43.7966872748706
 30
0.0
 40
1.5
  1
                          
100
AcDbText
  0
TEXT
  5
22
330
EF7C85532
100
AcDbEntity
  8
SUNPOU
100
AcDbText
 10
719.269311810271
 20
21.8983436374353
 30
0.0
 40
0.75
  1
                          
100
AcDbText
  0
INSERT
  5
25
330
EF7C85532
100
AcDbEntity
  8
JISSEN
100
AcDbBlockReference
  2
STDGX5
 10
0.0
 20
0.0
 30
0.0
  0
TEXT
  5
60
330
EF7C85532
100
AcDbEntity
  8
SUNPOU
100
AcDbText
 10
274.0586949361738
 20
43.7966872748706
 30
0.0
 40
1.5
  1
                          
100
AcDbText
  0
TEXT
  5
61
330
EF7C85532
100
AcDbEntity
  8
SUNPOU
100
AcDbText
 10
511.2793459710869
 20
21.8983436374353
 30
0.0
 40
0.75
  1
                          
100
AcDbText
  0
TEXT
  5
62
330
EF7C85532
100
AcDbEntity
  8
SUNPOU
100
AcDbText
 10
474.702507645204
 20
43.79668727487057
 30
0.0
 40
1.5
  1
                          
100
AcDbText
  0
TEXT
  5
63
330
EF7C85532
100
AcDbEntity
  8
SUNPOU
100
AcDbText
 10
711.923158680117
 20
21.89834363743527
 30
0.0
 40
0.75
  1
                          
100
AcDbText
  0
INSERT
  5
64
330
EF7C85532
100
AcDbEntity
  8
HATCH
100
AcDbBlockReference
  2
*X4
 10
178.999999284
 20
0.0
 30
0.0
  0
TEXT
  5
65
330
EF7C85532
100
AcDbEntity
  8
SUNPOU
100
AcDbText
 10
477.0854500730167
 20
43.7966872748706
 30
0.0
 40
1.5
  1
                          
100
AcDbText
  0
TEXT
  5
66
330
EF7C85532
100
AcDbEntity
  8
SUNPOU
100
AcDbText
 10
714.3061011079298
 20
21.8983436374353
 30
0.0
 40
0.75
  1
                          
100
AcDbText
  0
TEXT
  5
67
330
EF7C85532
100
AcDbEntity
  8
SUNPOU
100
AcDbText
 10
466.1239116114783
 20
43.7966872748706
 30
0.0
 40
1.5
  1
                          
100
AcDbText
  0
TEXT
  5
68
330
EF7C85532
100
AcDbEntity
  8
SUNPOU
100
AcDbText
 10
703.3445626463913
 20
21.8983436374353
 30
0.0
 40
0.75
  1
                          
100
AcDbText
  0
INSERT
  5
69
330
EF7C85532
100
AcDbEntity
  8
TEXT
100
AcDbBlockReference
  2
STDGX5
 10
178.999999284
 20
0.0
 30
0.0
  0
TEXT
  5
6A
330
EF7C85532
100
AcDbEntity
  8
SUNPOU
100
AcDbText
 10
453.0586949361739
 20
43.7966872748706
 30
0.0
 40
1.5
  1
                          
100
AcDbText
  0
TEXT
  5
6B
330
EF7C85532
100
AcDbEntity
  8
SUNPOU
100
AcDbText
 10
690.279345971087
 20
21.8983436374353
 30
0.0
 40
0.75
  1
                          
100
AcDbText
  0
TEXT
  5
6C
330
EF7C85532
100
AcDbEntity
  8
SUNPOU
100
AcDbText
 10
647.9834433840535
 20
43.7966872748706
 30
0.0
 40
1.5
  1
                          
100
AcDbText
  0
TEXT
  5
6D
330
EF7C85532
100
AcDbEntity
  8
SUNPOU
100
AcDbText
 10
885.2040944189665
 20
21.8983436374353
 30
0.0
 40
0.75
  1
                          
100
AcDbText
  0
TEXT
  5
6E
330
EF7C85532
100
AcDbEntity
  8
SUNPOU
100
AcDbText
 10
848.6272560930835
 20
43.79668727487057
 30
0.0
 40
1.5
  1
                          
100
AcDbText
  0
TEXT
  5
6F
330
EF7C85532
100
AcDbEntity
  8
SUNPOU
100
AcDbText
 10
1085.847907127996
 20
21.89834363743527
 30
0.0
 40
0.75
  1
                          
100
AcDbText
  0
INSERT
  5
70
330
EF7C85532
100
AcDbEntity
  8
HATCH
100
AcDbBlockReference
  2
*X5
 10
552.9247477318797
 20
0.0
 30
0.0
  0
TEXT
  5
71
330
EF7C85532
100
AcDbEntity
  8
SUNPOU
100
AcDbText
 10
851.0101985208963
 20
43.7966872748706
 30
0.0
 40
1.5
  1
                          
100
AcDbText
  0
TEXT
  5
72
330
EF7C85532
100
AcDbEntity
  8
SUNPOU
100
AcDbText
 10
1088.230849555809
 20
21.8983436374353
 30
0.0
 40
0.75
  1
                          
100
AcDbText
  0
TEXT
  5
73
330
EF7C85532
100
AcDbEntity
  8
SUNPOU
100
AcDbText
 10
840.048660059358
 20
43.7966872748706
 30
0.0
 40
1.5
  1
                          
100
AcDbText
  0
TEXT
  5
74
330
EF7C85532
100
AcDbEntity
  8
SUNPOU
100
AcDbText
 10
1077.269311094271
 20
21.8983436374353
 30
0.0
 40
0.75
  1
                          
100
AcDbText
  0
INSERT
  5
75
330
EF7C85532
100
AcDbEntity
  8
JISSEN
100
AcDbBlockReference
  2
STDGX5
 10
357.999999284
 20
0.0
 30
0.0
  0
TEXT
  5
76
330
EF7C85532
100
AcDbEntity
  8
SUNPOU
100
AcDbText
 10
453.0586949361739
 20
43.7966872748706
 30
0.0
 40
1.5
  1
                          
100
AcDbText
  0
TEXT
  5
77
330
EF7C85532
100
AcDbEntity
  8
SUNPOU
100
AcDbText
 10
690.279345971087
 20
21.8983436374353
 30
0.0
 40
0.75
  1
                          
100
AcDbText
  0
TEXT
  5
78
330
EF7C85532
100
AcDbEntity
  8
SUNPOU
100
AcDbText
 10
647.9834433840535
 20
43.7966872748706
 30
0.0
 40
1.5
  1
                          
100
AcDbText
  0
TEXT
  5
79
330
EF7C85532
100
AcDbEntity
  8
SUNPOU
100
AcDbText
 10
885.2040944189665
 20
21.8983436374353
 30
0.0
 40
0.75
  1
                          
100
AcDbText
  0
TEXT
  5
7A
330
EF7C85532
100
AcDbEntity
  8
SUNPOU
100
AcDbText
 10
848.6272560930835
 20
43.79668727487057
 30
0.0
 40
1.5
  1
                          
100
AcDbText
  0
TEXT
  5
7B
330
EF7C85532
100
AcDbEntity
  8
SUNPOU
100
AcDbText
 10
1085.847907127996
 20
21.89834363743527
 30
0.0
 40
0.75
  1
                          
100
AcDbText
  0
INSERT
  5
7C
330
EF7C85532
100
AcDbEntity
  8
HATCH
100
AcDbBlockReference
  2
*X6
 10
552.9247477318797
 20
0.0
 30
0.0
  0
TEXT
  5
7D
330
EF7C85532
100
AcDbEntity
  8
SUNPOU
100
AcDbText
 10
851.0101985208963
 20
43.7966872748706
 30
0.0
 40
1.5
  1
                          
100
AcDbText
  0
TEXT
  5
7E
330
EF7C85532
100
AcDbEntity
  8
SUNPOU
100
AcDbText
 10
1088.230849555809
 20
21.8983436374353
 30
0.0
 40
0.75
  1
                          
100
AcDbText
  0
TEXT
  5
7F
330
EF7C85532
100
AcDbEntity
  8
SUNPOU
100
AcDbText
 10
840.048660059358
 20
43.7966872748706
 30
0.0
 40
1.5
  1
                          
100
AcDbText
  0
TEXT
  5
80
330
EF7C85532
100
AcDbEntity
  8
SUNPOU
100
AcDbText
 10
1077.269311094271
 20
21.8983436374353
 30
0.0
 40
0.75
  1
                          
100
AcDbText
  0
INSERT
  5
81
330
EF7C85532
100
AcDbEntity
  8
JISSEN
100
AcDbBlockReference
  2
STDGX5
 10
357.999999284
 20
0.0
 30
0.0
  0
TEXT
  5
82
330
EF7C85532
100
AcDbEntity
  8
SUNPOU
100
AcDbText
 10
632.0586942201739
 20
43.7966872748706
 30
0.0
 40
1.5
  1
                          
100
AcDbText
  0
TEXT
  5
83
330
EF7C85532
100
AcDbEntity
  8
SUNPOU
100
AcDbText
 10
869.2793452550871
 20
21.8983436374353
 30
0.0
 40
0.75
  1
                          
100
AcDbText
  0
TEXT
  5
84
330
EF7C85532
100
AcDbEntity
  8
SUNPOU
100
AcDbText
 10
826.9834426680535
 20
43.7966872748706
 30
0.0
 40
1.5
  1
                          
100
AcDbText
  0
TEXT
  5
85
330
EF7C85532
100
AcDbEntity
  8
SUNPOU
100
AcDbText
 10
1064.204093702966
 20
21.8983436374353
 30
0.0
 40
0.75
  1
                          
100
AcDbText
  0
TEXT
  5
86
330
EF7C85532
100
AcDbEntity
  8
SUNPOU
100
AcDbText
 10
1027.627255377083
 20
43.79668727487057
 30
0.0
 40
1.5
  1
                          
100
AcDbText
  0
TEXT
  5
87
330
EF7C85532
100
AcDbEntity
  8
SUNPOU
100
AcDbText
 10
1264.847906411996
 20
21.89834363743527
 30
0.0
 40
0.75
  1
                          
100
AcDbText
  0
INSERT
  5
88
330
EF7C85532
100
AcDbEntity
  8
HATCH
100
AcDbBlockReference
  2
*X7
 10
731.9247470158797
 20
0.0
 30
0.0
  0
TEXT
  5
89
330
EF7C85532
100
AcDbEntity
  8
SUNPOU
100
AcDbText
 10
1030.010197804896
 20
43.7966872748706
 30
0.0
 40
1.5
  1
                          
100
AcDbText
  0
TEXT
  5
8A
330
EF7C85532
100
AcDbEntity
  8
SUNPOU
100
AcDbText
 10
1267.230848839809
 20
21.8983436374353
 30
0.0
 40
0.75
  1
                          
100
AcDbText
  0
TEXT
  5
8B
330
EF7C85532
100
AcDbEntity
  8
SUNPOU
100
AcDbText
 10
1019.048659343358
 20
43.7966872748706
 30
0.0
 40
1.5
  1
                          
100
AcDbText
  0
TEXT
  5
8C
330
EF7C85532
100
AcDbEntity
  8
SUNPOU
100
AcDbText
 10
1256.269310378271
 20
21.8983436374353
 30
0.0
 40
0.75
  1
                          
100
AcDbText
  0
INSERT
  5
8D
330
EF7C85532
100
AcDbEntity
  8
JISSEN
100
AcDbBlockReference
  2
STDGX5
 10
536.999998568
 20
0.0
 30
0.0
  0
INSERT
  5
8E
330
EF7C85532
100
AcDbEntity
  8
SUNPOU
100
AcDbBlockReference
  2
STDGX5
 10
739.0804232644236
 20
50.83533235670902
 30
0.0
 41
0.5
 42
0.5
 43
0.5
  0
INSERT
  5
8F
330
EF7C85532
100
AcDbEntity
  8
SUNPOU
100
AcDbBlockReference
  2
STDGX5
 10
726.2208210623692
 20
105.0763138619288
 30
0.0
 41
0.5
 42
0.5
 43
0.5
  0
INSERT
  5
90
330
EF7C85532
100
AcDbEntity
  8
HATCH
100
AcDbBlockReference
  2
STDGX5
 10
852.3985550581901
 20
151.7065097967401
 30
0.0
 41
0.5
 42
0.5
 43
0.5
  0
INSERT
  5
91
330
EF7C85532
100
AcDbEntity
  8
HATCH
100
AcDbBlockReference
  2
STDGX5
 10
866.6806796277285
 20
102.7017487639613
 30
0.0
 41
0.5
 42
0.5
 43
0.5
  0
INSERT
  5
92
330
EF7C85532
100
AcDbEntity
  8
TEXT
100
AcDbBlockReference
  2
STDGX5
 10
970.3434408521969
 20
102.8213468229236
 30
0.0
 41
0.5
 42
0.5
 43
0.5
  0
INSERT
  5
93
330
EF7C85532
100
AcDbEntity
  8
SUNPOU
100
AcDbBlockReference
  2
STDGX5
 10
996.1728907397869
 20
174.5475645486174
 30
0.0
 41
0.5
 42
0.5
 43
0.5
  0
INSERT
  5
94
330
EF7C85532
100
AcDbEntity
  8
TEXT
100
AcDbBlockReference
  2
STDGX5
 10
725.7513886810995
 20
124.5860190441302
 30
0.0
 41
0.5
 42
0.5
 43
0.5
  0
INSERT
  5
95
330
EF7C85532
100
AcDbEntity
  8
HATCH
100
AcDbBlockReference
  2
STDGX5
 10
777.1755722656421
 20
145.5222028932424
 30
0.0
 41
0.5
 42
0.5
 43
0.5
  0
INSERT
  5
96
330
EF7C85532
100
AcDbEntity
  8
SUNPOU
100
AcDbBlockReference
  2
STDGX5
 10
846.1963575359604
 20
112.6957974729892
 30
0.0
 41
0.5
 42
0.5
 43
0.5
  0
INSERT
  5
97
330
EF7C85532
100
AcDbEntity
  8
SUNPOU
100
AcDbBlockReference
  2
STDGX5
 10
916.6681156211122
 20
121.7330617103085
 30
0.0
 41
0.5
 42
0.5
 43
0.5
  0
INSERT
  5
98
330
EF7C85532
100
AcDbEntity
  8
TEXT
100
AcDbBlockReference
  2
STDGX5
 10
983.7969461426769
 20
84.61852224867081
 30
0.0
 41
0.5
 42
0.5
 43
0.5
  0
INSERT
  5
99
330
EF7C85532
100
AcDbEntity
  8
HATCH
100
AcDbBlockReference
  2
STDGX5
 10
974.2802715042099
 20
136.4849386559231
 30
0.0
 41
0.5
 42
0.5
 43
0.5
  0
INSERT
  5
9A
330
EF7C85532
100
AcDbEntity
  8
SUNPOU
100
AcDbBlockReference
  2
STDGX5
 10
749.7834008663489
 20
95.14721172234004
 30
0.0
 41
0.5
 42
0.5
 43
0.5
  0
INSERT
  5
9B
330
EF7C85532
100
AcDbEntity
  8
SUNPOU
100
AcDbBlockReference
  2
STDGX5
 10
736.9237986642947
 20
149.3881932275598
 30
0.0
 41
0.5
 42
0.5
 43
0.5
  0
INSERT
  5
9C
330
EF7C85532
100
AcDbEntity
  8
HATCH
100
AcDbBlockReference
  2
STDGX5
 10
863.1015326601156
 20
196.0183891623711
 30
0.0
 41
0.5
 42
0.5
 43
0.5
  0
INSERT
  5
9D
330
EF7C85532
100
AcDbEntity
  8
HATCH
100
AcDbBlockReference
  2
STDGX5
 10
877.3836572296538
 20
147.0136281295923
 30
0.0
 41
0.5
 42
0.5
 43
0.5
  0
INSERT
  5
9E
330
EF7C85532
100
AcDbEntity
  8
TEXT
100
AcDbBlockReference
  2
STDGX5
 10
981.0464184541224
 20
147.1332261885546
 30
0.0
 41
0.5
 42
0.5
 43
0.5
  0
INSERT
  5
9F
330
EF7C85532
100
AcDbEntity
  8
SUNPOU
100
AcDbBlockReference
  2
STDGX5
 10
1006.875868341712
 20
218.8594439142484
 30
0.0
 41
0.5
 42
0.5
 43
0.5
  0
INSERT
  5
A0
330
EF7C85532
100
AcDbEntity
  8
TEXT
100
AcDbBlockReference
  2
STDGX5
 10
736.4543662830251
 20
168.8978984097612
 30
0.0
 41
0.5
 42
0.5
 43
0.5
  0
INSERT
  5
A1
330
EF7C85532
100
AcDbEntity
  8
HATCH
100
AcDbBlockReference
  2
STDGX5
 10
787.8785498675677
 20
189.8340822588735
 30
0.0
 41
0.5
 42
0.5
 43
0.5
  0
INSERT
  5
A2
330
EF7C85532
100
AcDbEntity
  8
SUNPOU
100
AcDbBlockReference
  2
STDGX5
 10
856.899335137886
 20
157.0076768386202
 30
0.0
 41
0.5
 42
0.5
 43
0.5
  0
INSERT
  5
A3
330
EF7C85532
100
AcDbEntity
  8
SUNPOU
100
AcDbBlockReference
  2
STDGX5
 10
927.3710932230379
 20
166.0449410759395
 30
0.0
 41
0.5
 42
0.5
 43
0.5
  0
INSERT
  5
A4
330
EF7C85532
100
AcDbEntity
  8
TEXT
100
AcDbBlockReference
  2
STDGX5
 10
994.4999237446024
 20
128.9304016143018
 30
0.0
 41
0.5
 42
0.5
 43
0.5
  0
INSERT
  5
A5
330
EF7C85532
100
AcDbEntity
  8
HATCH
100
AcDbBlockReference
  2
STDGX5
 10
984.9832491061354
 20
180.7968180215541
 30
0.0
 41
0.5
 42
0.5
 43
0.5
  0
TEXT
  5
DE
330
EF7C85532
100
AcDbEntity
  8
SUNPOU
100
AcDbText
 10
274.0586949361738
 20
43.7966872748706
 30
0.0
 40
1.5
  1
                          
100
AcDbText
  0
TEXT
  5
145
330
EF7C85532
100
AcDbEntity
  8
SUNPOU
100
AcDbText
 10
511.2793459710869
 20
21.8983436374353
 30
0.0
 40
0.75
  1
                          
100
AcDbText
  0
TEXT
  5
265
330
EF7C85532
100
AcDbEntity
  8
SUNPOU
100
AcDbText
 10
474.702507645204
 20
43.79668727487057
 30
0.0
 40
1.5
  1
                          
100
AcDbText
  0
TEXT
  5
266
330
EF7C85532
100
AcDbEntity
  8
SUNPOU
100
AcDbText
 10
711.923158680117
 20
21.89834363743527
 30
0.0
 40
0.75
  1
                          
100
AcDbText
  0
INSERT
  5
2F7
330
EF7C85532
100
AcDbEntity
  8
HATCH
100
AcDbBlockReference
  2
*X4
 10
178.999999284
 20
0.0
 30
0.0
  0
TEXT
  5
31A
330
EF7C85532
100
AcDbEntity
  8
SUNPOU
100
AcDbText
 10
477.0854500730167
 20
43.7966872748706
 30
0.0
 40
1.5
  1
                          
100
AcDbText
  0
TEXT
  5
31C
330
EF7C85532
100
AcDbEntity
  8
SUNPOU
100
AcDbText
 10
714.3061011079298
 20
21.8983436374353
 30
0.0
 40
0.75
  1
                          
100
AcDbText
  0
TEXT
  5
3A6
330
EF7C85532
100
AcDbEntity
  8
TEXT
100
AcDbText
 10
100.9999992839998
 20
244.9999999999999
 30
0.0
 40
3.0
  1
 
  7
K
100
AcDbText
  0
TEXT
  5
3AB
330
EF7C85532
100
AcDbEntity
  8
SUNPOU
100
AcDbText
 10
466.1239116114783
 20
43.7966872748706
 30
0.0
 40
1.5
  1
                          
100
AcDbText
  0
TEXT
  5
3AC
330
EF7C85532
100
AcDbEntity
  8
SUNPOU
100
AcDbText
 10
703.3445626463913
 20
21.8983436374353
 30
0.0
 40
0.75
  1
                          
100
AcDbText
  0
INSERT
  5
3F6
330
EF7C85532
100
AcDbEntity
  8
TEXT
100
AcDbBlockReference
  2
STDGX5
 10
178.999999284
 20
0.0
 30
0.0
  0
TEXT
  5
3F7
330
EF7C85532
100
AcDbEntity
  8
SUNPOU
100
AcDbText
 10
453.0586949361739
 20
43.7966872748706
 30
0.0
 40
1.5
  1
                          
100
AcDbText
  0
TEXT
  5
3F8
330
EF7C85532
100
AcDbEntity
  8
SUNPOU
100
AcDbText
 10
690.279345971087
 20
21.8983436374353
 30
0.0
 40
0.75
  1
                          
100
AcDbText
  0
TEXT
  5
3F9
330
EF7C85532
100
AcDbEntity
  8
SUNPOU
100
AcDbText
 10
647.9834433840535
 20
43.7966872748706
 30
0.0
 40
1.5
  1
                          
100
AcDbText
  0
TEXT
  5
3FA
330
EF7C85532
100
AcDbEntity
  8
SUNPOU
100
AcDbText
 10
885.2040944189665
 20
21.8983436374353
 30
0.0
 40
0.75
  1
                          
100
AcDbText
  0
TEXT
  5
3FB
330
EF7C85532
100
AcDbEntity
  8
SUNPOU
100
AcDbText
 10
848.6272560930835
 20
43.79668727487057
 30
0.0
 40
1.5
  1
                          
100
AcDbText
  0
TEXT
  5
3FC
330
EF7C85532
100
AcDbEntity
  8
SUNPOU
100
AcDbText
 10
1085.847907127996
 20
21.89834363743527
 30
0.0
 40
0.75
  1
                          
100
AcDbText
  0
INSERT
  5
3FD
330
EF7C85532
100
AcDbEntity
  8
HATCH
100
AcDbBlockReference
  2
*X5
 10
552.9247477318797
 20
0.0
 30
0.0
  0
TEXT
  5
3FE
330
EF7C85532
100
AcDbEntity
  8
SUNPOU
100
AcDbText
 10
851.0101985208963
 20
43.7966872748706
 30
0.0
 40
1.5
  1
                          
100
AcDbText
  0
TEXT
  5
3FF
330
EF7C85532
100
AcDbEntity
  8
SUNPOU
100
AcDbText
 10
1088.230849555809
 20
21.8983436374353
 30
0.0
 40
0.75
  1
                          
100
AcDbText
  0
TEXT
  5
400
330
EF7C85532
100
AcDbEntity
  8
SUNPOU
100
AcDbText
 10
840.048660059358
 20
43.7966872748706
 30
0.0
 40
1.5
  1
                          
100
AcDbText
  0
TEXT
  5
401
330
EF7C85532
100
AcDbEntity
  8
SUNPOU
100
AcDbText
 10
1077.269311094271
 20
21.8983436374353
 30
0.0
 40
0.75
  1
                          
100
AcDbText
  0
INSERT
  5
402
330
EF7C85532
100
AcDbEntity
  8
JISSEN
100
AcDbBlockReference
  2
STDGX5
 10
357.999999284
 20
0.0
 30
0.0
  0
TEXT
  5
409
330
EF7C85532
100
AcDbEntity
  8
SUNPOU
100
AcDbText
 10
453.0586949361739
 20
43.7966872748706
 30
0.0
 40
1.5
  1
                          
100
AcDbText
  0
TEXT
  5
40A
330
EF7C85532
100
AcDbEntity
  8
SUNPOU
100
AcDbText
 10
690.279345971087
 20
21.8983436374353
 30
0.0
 40
0.75
  1
                          
100
AcDbText
  0
TEXT
  5
41B
330
EF7C85532
100
AcDbEntity
  8
SUNPOU
100
AcDbText
 10
647.9834433840535
 20
43.7966872748706
 30
0.0
 40
1.5
  1
                          
100
AcDbText
  0
TEXT
  5
41C
330
EF7C85532
100
AcDbEntity
  8
SUNPOU
100
AcDbText
 10
885.2040944189665
 20
21.8983436374353
 30
0.0
 40
0.75
  1
                          
100
AcDbText
  0
TEXT
  5
41D
330
EF7C85532
100
AcDbEntity
  8
SUNPOU
100
AcDbText
 10
848.6272560930835
 20
43.79668727487057
 30
0.0
 40
1.5
  1
                          
100
AcDbText
  0
TEXT
  5
41E
330
EF7C85532
100
AcDbEntity
  8
SUNPOU
100
AcDbText
 10
1085.847907127996
 20
21.89834363743527
 30
0.0
 40
0.75
  1
                          
100
AcDbText
  0
INSERT
  5
41F
330
EF7C85532
100
AcDbEntity
  8
HATCH
100
AcDbBlockReference
  2
*X6
 10
552.9247477318797
 20
0.0
 30
0.0
  0
TEXT
  5
420
330
EF7C85532
100
AcDbEntity
  8
SUNPOU
100
AcDbText
 10
851.0101985208963
 20
43.7966872748706
 30
0.0
 40
1.5
  1
                          
100
AcDbText
  0
TEXT
  5
421
330
EF7C85532
100
AcDbEntity
  8
SUNPOU
100
AcDbText
 10
1088.230849555809
 20
21.8983436374353
 30
0.0
 40
0.75
  1
                          
100
AcDbText
  0
TEXT
  5
422
330
EF7C85532
100
AcDbEntity
  8
SUNPOU
100
AcDbText
 10
840.048660059358
 20
43.7966872748706
 30
0.0
 40
1.5
  1
                          
100
AcDbText
  0
TEXT
  5
423
330
EF7C85532
100
AcDbEntity
  8
SUNPOU
100
AcDbText
 10
1077.269311094271
 20
21.8983436374353
 30
0.0
 40
0.75
  1
                          
100
AcDbText
  0
INSERT
  5
424
330
EF7C85532
100
AcDbEntity
  8
JISSEN
100
AcDbBlockReference
  2
STDGX5
 10
357.999999284
 20
0.0
 30
0.0
  0
TEXT
  5
425
330
EF7C85532
100
AcDbEntity
  8
SUNPOU
100
AcDbText
 10
632.0586942201739
 20
43.7966872748706
 30
0.0
 40
1.5
  1
                          
100
AcDbText
  0
TEXT
  5
426
330
EF7C85532
100
AcDbEntity
  8
SUNPOU
100
AcDbText
 10
869.2793452550871
 20
21.8983436374353
 30
0.0
 40
0.75
  1
                          
100
AcDbText
  0
TEXT
  5
427
330
EF7C85532
100
AcDbEntity
  8
SUNPOU
100
AcDbText
 10
826.9834426680535
 20
43.7966872748706
 30
0.0
 40
1.5
  1
                          
100
AcDbText
  0
TEXT
  5
428
330
EF7C85532
100
AcDbEntity
  8
SUNPOU
100
AcDbText
 10
1064.204093702966
 20
21.8983436374353
 30
0.0
 40
0.75
  1
                          
100
AcDbText
  0
TEXT
  5
429
330
EF7C85532
100
AcDbEntity
  8
SUNPOU
100
AcDbText
 10
1027.627255377083
 20
43.79668727487057
 30
0.0
 40
1.5
  1
                          
100
AcDbText
  0
TEXT
  5
42A
330
EF7C85532
100
AcDbEntity
  8
SUNPOU
100
AcDbText
 10
1264.847906411996
 20
21.89834363743527
 30
0.0
 40
0.75
  1
                          
100
AcDbText
  0
INSERT
  5
42B
330
EF7C85532
100
AcDbEntity
  8
HATCH
100
AcDbBlockReference
  2
*X7
 10
731.9247470158797
 20
0.0
 30
0.0
  0
TEXT
  5
42C
330
EF7C85532
100
AcDbEntity
  8
SUNPOU
100
AcDbText
 10
1030.010197804896
 20
43.7966872748706
 30
0.0
 40
1.5
  1
                          
100
AcDbText
  0
TEXT
  5
42D
330
EF7C85532
100
AcDbEntity
  8
SUNPOU
100
AcDbText
 10
1267.230848839809
 20
21.8983436374353
 30
0.0
 40
0.75
  1
                          
100
AcDbText
  0
TEXT
  5
42E
330
EF7C85532
100
AcDbEntity
  8
SUNPOU
100
AcDbText
 10
1019.048659343358
 20
43.7966872748706
 30
0.0
 40
1.5
  1
                          
100
AcDbText
  0
TEXT
  5
42F
330
EF7C85532
100
AcDbEntity
  8
SUNPOU
100
AcDbText
 10
1256.269310378271
 20
21.8983436374353
 30
0.0
 40
0.75
  1
                          
100
AcDbText
  0
INSERT
  5
430
330
EF7C85532
100
AcDbEntity
  8
JISSEN
100
AcDbBlockReference
  2
STDGX5
 10
536.999998568
 20
0.0
 30
0.0
  0
INSERT
  5
43B
330
EF7C85532
100
AcDbEntity
  8
SUNPOU
100
AcDbBlockReference
  2
STDGX5
 10
739.0804232644236
 20
50.83533235670902
 30
0.0
 41
0.5
 42
0.5
 43
0.5
  0
INSERT
  5
43C
330
EF7C85532
100
AcDbEntity
  8
SUNPOU
100
AcDbBlockReference
  2
STDGX5
 10
726.2208210623692
 20
105.0763138619288
 30
0.0
 41
0.5
 42
0.5
 43
0.5
  0
INSERT
  5
43D
330
EF7C85532
100
AcDbEntity
  8
HATCH
100
AcDbBlockReference
  2
STDGX5
 10
852.3985550581901
 20
151.7065097967401
 30
0.0
 41
0.5
 42
0.5
 43
0.5
  0
INSERT
  5
43E
330
EF7C85532
100
AcDbEntity
  8
HATCH
100
AcDbBlockReference
  2
STDGX5
 10
866.6806796277285
 20
102.7017487639613
 30
0.0
 41
0.5
 42
0.5
 43
0.5
  0
INSERT
  5
43F
330
EF7C85532
100
AcDbEntity
  8
TEXT
100
AcDbBlockReference
  2
STDGX5
 10
970.3434408521969
 20
102.8213468229236
 30
0.0
 41
0.5
 42
0.5
 43
0.5
  0
INSERT
  5
440
330
EF7C85532
100
AcDbEntity
  8
SUNPOU
100
AcDbBlockReference
  2
STDGX5
 10
996.1728907397869
 20
174.5475645486174
 30
0.0
 41
0.5
 42
0.5
 43
0.5
  0
INSERT
  5
441
330
EF7C85532
100
AcDbEntity
  8
TEXT
100
AcDbBlockReference
  2
STDGX5
 10
725.7513886810995
 20
124.5860190441302
 30
0.0
 41
0.5
 42
0.5
 43
0.5
  0
INSERT
  5
442
330
EF7C85532
100
AcDbEntity
  8
HATCH
100
AcDbBlockReference
  2
STDGX5
 10
777.1755722656421
 20
145.5222028932424
 30
0.0
 41
0.5
 42
0.5
 43
0.5
  0
INSERT
  5
443
330
EF7C85532
100
AcDbEntity
  8
SUNPOU
100
AcDbBlockReference
  2
STDGX5
 10
846.1963575359604
 20
112.6957974729892
 30
0.0
 41
0.5
 42
0.5
 43
0.5
  0
INSERT
  5
444
330
EF7C85532
100
AcDbEntity
  8
SUNPOU
100
AcDbBlockReference
  2
STDGX5
 10
916.6681156211122
 20
121.7330617103085
 30
0.0
 41
0.5
 42
0.5
 43
0.5
  0
INSERT
  5
445
330
EF7C85532
100
AcDbEntity
  8
TEXT
100
AcDbBlockReference
  2
STDGX5
 10
983.7969461426769
 20
84.61852224867081
 30
0.0
 41
0.5
 42
0.5
 43
0.5
  0
INSERT
  5
446
330
EF7C85532
100
AcDbEntity
  8
HATCH
100
AcDbBlockReference
  2
STDGX5
 10
974.2802715042099
 20
136.4849386559231
 30
0.0
 41
0.5
 42
0.5
 43
0.5
  0
INSERT
  5
447
330
EF7C85532
100
AcDbEntity
  8
SUNPOU
100
AcDbBlockReference
  2
STDGX5
 10
749.7834008663489
 20
95.14721172234004
 30
0.0
 41
0.5
 42
0.5
 43
0.5
  0
INSERT
  5
448
330
EF7C85532
100
AcDbEntity
  8
SUNPOU
100
AcDbBlockReference
  2
STDGX5
 10
736.9237986642947
 20
149.3881932275598
 30
0.0
 41
0.5
 42
0.5
 43
0.5
  0
INSERT
  5
449
330
EF7C85532
100
AcDbEntity
  8
HATCH
100
AcDbBlockReference
  2
STDGX5
 10
863.1015326601156
 20
196.0183891623711
 30
0.0
 41
0.5
 42
0.5
 43
0.5
  0
INSERT
  5
44A
330
EF7C85532
100
AcDbEntity
  8
HATCH
100
AcDbBlockReference
  2
STDGX5
 10
877.3836572296538
 20
147.0136281295923
 30
0.0
 41
0.5
 42
0.5
 43
0.5
  0
INSERT
  5
44B
330
EF7C85532
100
AcDbEntity
  8
TEXT
100
AcDbBlockReference
  2
STDGX5
 10
981.0464184541224
 20
147.1332261885546
 30
0.0
 41
0.5
 42
0.5
 43
0.5
  0
INSERT
  5
44C
330
EF7C85532
100
AcDbEntity
  8
SUNPOU
100
AcDbBlockReference
  2
STDGX5
 10
1006.875868341712
 20
218.8594439142484
 30
0.0
 41
0.5
 42
0.5
 43
0.5
  0
INSERT
  5
44D
330
EF7C85532
100
AcDbEntity
  8
TEXT
100
AcDbBlockReference
  2
STDGX5
 10
736.4543662830251
 20
168.8978984097612
 30
0.0
 41
0.5
 42
0.5
 43
0.5
  0
INSERT
  5
44E
330
EF7C85532
100
AcDbEntity
  8
HATCH
100
AcDbBlockReference
  2
STDGX5
 10
787.8785498675677
 20
189.8340822588735
 30
0.0
 41
0.5
 42
0.5
 43
0.5
  0
INSERT
  5
44F
330
EF7C85532
100
AcDbEntity
  8
SUNPOU
100
AcDbBlockReference
  2
STDGX5
 10
856.899335137886
 20
157.0076768386202
 30
0.0
 41
0.5
 42
0.5
 43
0.5
  0
INSERT
  5
450
330
EF7C85532
100
AcDbEntity
  8
SUNPOU
100
AcDbBlockReference
  2
STDGX5
 10
927.3710932230379
 20
166.0449410759395
 30
0.0
 41
0.5
 42
0.5
 43
0.5
  0
INSERT
  5
451
330
EF7C85532
100
AcDbEntity
  8
TEXT
100
AcDbBlockReference
  2
STDGX5
 10
994.4999237446024
 20
128.9304016143018
 30
0.0
 41
0.5
 42
0.5
 43
0.5
  0
INSERT
  5
452
330
EF7C85532
100
AcDbEntity
  8
HATCH
100
AcDbBlockReference
  2
STDGX5
 10
984.9832491061354
 20
180.7968180215541
 30
0.0
 41
0.5
 42
0.5
 43
0.5
  0
INSERT
  5
4CF3
330
EF7C85532
100
AcDbEntity
  8
JISSEN
100
AcDbBlockReference
  2
STDR12J
 10
0.0
 20
0.0
 30
0.0
  0
LINE
  5
EAFFB3C99
330
EF7C85532
100
AcDbEntity
  8
JISSEN
100
AcDbLine
 10
91.49999927599997
 20
276.9999999999999
 30
0.0
 11
180.999999276
 21
276.9999999999999
 31
0.0
  0
LINE
  5
EAFFB3C9A
330
EF7C85532
100
AcDbEntity
  8
JISSEN
100
AcDbLine
 10
91.49999927599997
 20
270.9999999999999
 30
0.0
 11
180.999999276
 21
270.9999999999999
 31
0.0
  0
TEXT
  5
EAFFB3C9B
330
EF7C85532
100
AcDbEntity
  8
TEXT
100
AcDbText
 10
107.8999992759999
 20
278.4999999999999
 30
0.0
 40
3.0
  1
名      称
  7
K
 72
     4
 11
116.4999992759999
 21
279.9999999999999
 31
0.0
100
AcDbText
  0
TEXT
  5
EAFFB3C9C
330
EF7C85532
100
AcDbEntity
  8
TEXT
100
AcDbText
 10
93.29999927599997
 20
278.4999999999999
 30
0.0
 40
3.0
  1
番号
  7
K
 72
     4
 11
96.49999927599999
 21
279.9999999999999
 31
0.0
100
AcDbText
  0
LINE
  5
EAFFB3C9D
330
EF7C85532
100
AcDbEntity
  8
JISSEN
100
AcDbLine
 10
91.49999927599997
 20
270.9999999999999
 30
0.0
 11
91.49999927599997
 21
282.9999999999999
 31
0.0
  0
LINE
  5
EAFFB3C9E
330
EF7C85532
100
AcDbEntity
  8
JISSEN
100
AcDbLine
 10
101.4999992759999
 20
282.9999999999999
 30
0.0
 11
101.4999992759999
 21
270.9999999999999
 31
0.0
  0
TEXT
  5
EAFFB3C9F
330
EF7C85532
100
AcDbEntity
  8
TEXT
100
AcDbText
 10
135.1999992759999
 20
278.4999999999999
 30
0.0
 40
3.0
  1
材    質
  7
K
 72
     4
 11
141.9999992759999
 21
279.9999999999999
 31
0.0
100
AcDbText
  0
LINE
  5
EAFFB3CA0
330
EF7C85532
100
AcDbEntity
  8
JISSEN
100
AcDbLine
 10
131.4999992759999
 20
282.9999999999999
 30
0.0
 11
131.4999992759999
 21
270.9999999999999
 31
0.0
  0
LINE
  5
EAFFB3CA1
330
EF7C85532
100
AcDbEntity
  8
JISSEN
100
AcDbLine
 10
152.4999992759999
 20
270.9999999999999
 30
0.0
 11
152.4999992759999
 21
282.9999999999999
 31
0.0
  0
TEXT
  5
EAFFB3CA2
330
EF7C85532
100
AcDbEntity
  8
TEXT
100
AcDbText
 10
165.6999992759999
 20
278.4999999999999
 30
0.0
 40
3.0
  1
備    考
  7
K
 72
     4
 11
172.4999992759999
 21
279.9999999999999
 31
0.0
100
AcDbText
  0
TEXT
  5
EAFFB3CA3
330
EF7C85532
100
AcDbEntity
  8
TEXT
100
AcDbText
 10
154.7999992759999
 20
278.4999999999999
 30
0.0
 40
3.0
  1
個数
  7
K
 72
     4
 11
157.9999992759999
 21
279.9999999999999
 31
0.0
100
AcDbText
  0
LINE
  5
EAFFB3CA4
330
EF7C85532
100
AcDbEntity
  8
JISSEN
100
AcDbLine
 10
163.4999992759999
 20
282.9999999999999
 30
0.0
 11
163.4999992759999
 21
270.9999999999999
 31
0.0
  0
TEXT
  5
EAFFB3CAC
330
EF7C85532
100
AcDbEntity
  8
TEXT
100
AcDbText
 10
95.28571356171427
 20
272.4999999999999
 30
0.0
 40
3.0
  1
1
  7
K
 72
     4
 11
96.49999927599999
 21
273.9999999999999
 31
0.0
100
AcDbText
  0
TEXT
  5
EAFFB3CC2
330
EF7C85532
100
AcDbEntity
  8
TEXT
100
AcDbText
 10
136.8249992759999
 20
274.2999999999999
 30
0.0
 40
3.0
  1
%%u      
  7
K
 72
     4
 11
141.9999992759999
 21
273.9999999999999
 31
0.0
100
AcDbText
  0
INSERT
  5
EAFFB3CF7
330
EF7C85532
100
AcDbEntity
  8
WAKU
100
AcDbBlockReference
  2
WAKU
 10
0.0
 20
0.0
 30
0.0
 41
181.0
 42
283.0
 43
181.0
  0
TEXT
  5
EF7C85BB1
330
EF7C85532
100
AcDbEntity
  8
TEXT
100
AcDbText
 10
156.6795477624092
 20
272.4999999999999
 30
0.0
 40
3.0
  1
1
  7
K
 72
     4
 11
157.8938334766949
 21
273.9999999999999
 31
0.0
100
AcDbText
  0
TEXT
  5
EF7C85D65
330
EF7C85532
100
AcDbEntity
  8
SUNPOU
100
AcDbText
 10
156.0117688648488
 20
7.849423898685245
 30
0.0
 40
3.0
  1
DH 取付状態
  7
K
100
AcDbText
  0
TEXT
  5
EF7C85D66
330
EF7C85532
100
AcDbEntity
  8
SUNPOU
100
AcDbText
 10
156.0117688648488
 20
2.849423898685245
 30
0.0
 40
3.0
  1
尺度　1/1
  7
K
100
AcDbText
  0
TEXT
  5
EF7C85DB5
330
EF7C85532
100
AcDbEntity
  8
TEXT
100
AcDbText
 10
106.7285707045714
 20
272.4999999999999
 30
0.0
 40
3.0
  1
DH 型ヘッド
 41
0.9
  7
K
 72
     4
 11
116.4999992759999
 21
273.9999999999999
 31
0.0
100
AcDbText
  0
LWPOLYLINE
  5
EF7C873F5
330
EF7C85532
100
AcDbEntity
  8
NITEN
100
AcDbPolyline
 90
        5
 70
     0
 43
0.0
 10
61.90603226701961
 20
192.6113029094276
 10
61.90603226701961
 20
213.4490205605735
 42
-0.5882352941176475
 10
44.90603226701961
 20
213.4490205605735
 42
0.5882352941176476
 10
27.90603226701961
 20
213.4490205605732
 10
27.90603226701961
 20
192.6113029094276
  0
LWPOLYLINE
  5
EF7C873F6
330
EF7C85532
100
AcDbEntity
  8
NITEN
100
AcDbPolyline
 90
        2
 70
     0
 43
0.0
 10
61.9060322670197
 20
213.4490205605735
 42
0.5882352941176294
 10
44.90603226701958
 20
213.4490205605737
 42
0.5882352941176294
  0
LWPOLYLINE
  5
EF7C873FD
330
EF7C85532
100
AcDbEntity
  8
NITEN
100
AcDbPolyline
 90
       15
 70
     1
 43
0.0
 10
30.90603226701961
 20
152.1113029094276
 42
0.4142135623730927
 10
32.40603226701955
 20
150.6113029094276
 10
55.50008343801613
 20
150.6113029094276
 10
57.40603226701961
 20
150.6113029094276
 42
0.4142135623730925
 10
58.90603226701961
 20
152.1113029094276
 10
58.90603226701961
 20
163.1573189356456
 42
-0.4142135623730943
 10
63.90603226701961
 20
168.1573189356456
 42
0.4142135623730951
 10
65.90603226701961
 20
170.1573189356456
 10
65.90603226701955
 20
190.6113029094276
 42
0.4142135623730948
 10
63.90603226701961
 20
192.6113029094276
 10
25.90603226701961
 20
192.6113029094276
 42
0.4142135623730951
 10
23.90603226701961
 20
190.6113029094276
 10
23.90603226701961
 20
170.1573189356456
 42
0.4142135623730951
 10
25.90603226701961
 20
168.1573189356456
 42
-0.4142135623730961
 10
30.90603226701961
 20
163.1573189356456
  0
CIRCLE
  5
EF7C87CDD
330
EF7C85532
100
AcDbEntity
  8
SUNPOU
100
AcDbCircle
 10
57.18935404966041
 20
102.2357535931061
 30
0.0
 40
6.0
  0
LINE
  5
EF7C87CDE
330
EF7C85532
100
AcDbEntity
  8
SUNPOU
100
AcDbLine
 10
44.90603226701975
 20
127.5007540037035
 30
0.0
 11
54.56589991927248
 21
107.6318159005438
 31
0.0
  0
INSERT
  5
EF7C87CDF
330
EF7C85532
100
AcDbEntity
  8
SUNPOU
100
AcDbBlockReference
  2
ARROW
 10
44.90603226701963
 20
127.5007540037035
 30
0.0
 41
-1.500000000000002
 42
1.5
 43
1.5
 50
295.9280644736465
  0
TEXT
  5
EF7C87CE0
330
EF7C85532
100
AcDbEntity
  8
SUNPOU
100
AcDbText
 10
55.36792547823184
 20
99.9857535931061
 30
0.0
 40
4.5
  1
1
  7
K
 72
     4
 11
57.18935404966041
 21
102.2357535931061
 31
0.0
100
AcDbText
  0
POLYLINE
  5
EF7C89068
330
EF7C85532
100
AcDbEntity
  8
JISSEN
 62
     0
100
AcDb2dPolyline
 66
     1
 10
0.0
 20
0.0
 30
0.0
 70
     4
 75
     6
  0
VERTEX
  5
EF7C89069
330
EF7C89068
100
AcDbEntity
  8
JISSEN
 62
     0
100
AcDbVertex
100
AcDb2dVertex
 10
82.47461554495092
 20
157.0577396729264
 30
0.0
 70
    16
  0
VERTEX
  5
EF7C8906A
330
EF7C89068
100
AcDbEntity
  8
JISSEN
 62
     0
100
AcDbVertex
100
AcDb2dVertex
 10
82.47461554495092
 20
157.0577396729264
 30
0.0
 70
     8
  0
VERTEX
  5
EF7C8906B
330
EF7C89068
100
AcDbEntity
  8
JISSEN
 62
     0
100
AcDbVertex
100
AcDb2dVertex
 10
82.88954045175504
 20
156.8552355076463
 30
0.0
 70
     8
  0
VERTEX
  5
EF7C8906C
330
EF7C89068
100
AcDbEntity
  8
JISSEN
 62
     0
100
AcDbVertex
100
AcDb2dVertex
 10
83.12651730207861
 20
156.6775829242693
 30
0.0
 70
     8
  0
VERTEX
  5
EF7C8906D
330
EF7C89068
100
AcDbEntity
  8
JISSEN
 62
     0
100
AcDbVertex
100
AcDb2dVertex
 10
83.22403014601357
 20
156.5222870104672
 30
0.0
 70
     8
  0
VERTEX
  5
EF7C8906E
330
EF7C89068
100
AcDbEntity
  8
JISSEN
 62
     0
100
AcDbVertex
100
AcDb2dVertex
 10
83.22056303365119
 20
156.3868528539121
 30
0.0
 70
     8
  0
VERTEX
  5
EF7C8906F
330
EF7C89068
100
AcDbEntity
  8
JISSEN
 62
     0
100
AcDbVertex
100
AcDb2dVertex
 10
83.15460001508361
 20
156.2687855422765
 30
0.0
 70
     8
  0
VERTEX
  5
EF7C89070
330
EF7C89068
100
AcDbEntity
  8
JISSEN
 62
     0
100
AcDbVertex
100
AcDb2dVertex
 10
83.06462514040189
 20
156.1655901632321
 30
0.0
 70
     8
  0
VERTEX
  5
EF7C89071
330
EF7C89068
100
AcDbEntity
  8
JISSEN
 62
     0
100
AcDbVertex
100
AcDb2dVertex
 10
82.98912245969793
 20
156.0747718044514
 30
0.0
 70
     8
  0
VERTEX
  5
EF7C89072
330
EF7C89068
100
AcDbEntity
  8
JISSEN
 62
     0
100
AcDbVertex
100
AcDb2dVertex
 10
82.96657602306348
 20
155.9938355536062
 30
0.0
 70
     8
  0
VERTEX
  5
EF7C89073
330
EF7C89068
100
AcDbEntity
  8
JISSEN
 62
     0
100
AcDbVertex
100
AcDb2dVertex
 10
83.02468617010461
 20
155.9203739968727
 30
0.0
 70
     8
  0
VERTEX
  5
EF7C89074
330
EF7C89068
100
AcDbEntity
  8
JISSEN
 62
     0
100
AcDbVertex
100
AcDb2dVertex
 10
83.14801839848726
 20
155.8523297144438
 30
0.0
 70
     8
  0
VERTEX
  5
EF7C89075
330
EF7C89068
100
AcDbEntity
  8
JISSEN
 62
     0
100
AcDbVertex
100
AcDb2dVertex
 10
83.31035449539175
 20
155.787732785016
 30
0.0
 70
     8
  0
VERTEX
  5
EF7C89076
330
EF7C89068
100
AcDbEntity
  8
JISSEN
 62
     0
100
AcDbVertex
100
AcDb2dVertex
 10
83.48547624799905
 20
155.7246132872858
 30
0.0
 70
     8
  0
VERTEX
  5
EF7C89077
330
EF7C89068
100
AcDbEntity
  8
JISSEN
 62
     0
100
AcDbVertex
100
AcDb2dVertex
 10
83.64716544348928
 20
155.6610012999503
 30
0.0
 70
     8
  0
VERTEX
  5
EF7C89078
330
EF7C89068
100
AcDbEntity
  8
JISSEN
 62
     0
100
AcDbVertex
100
AcDb2dVertex
 10
83.7692038690432
 20
155.594926901706
 30
0.0
 70
     8
  0
VERTEX
  5
EF7C89079
330
EF7C89068
100
AcDbEntity
  8
JISSEN
 62
     0
100
AcDbVertex
100
AcDb2dVertex
 10
83.82537331184133
 20
155.5244201712495
 30
0.0
 70
     8
  0
VERTEX
  5
EF7C8907A
330
EF7C89068
100
AcDbEntity
  8
JISSEN
 62
     0
100
AcDbVertex
100
AcDb2dVertex
 10
83.78945555906401
 20
155.4475111872777
 30
0.0
 70
     8
  0
VERTEX
  5
EF7C8907B
330
EF7C89068
100
AcDbEntity
  8
JISSEN
 62
     0
100
AcDbVertex
100
AcDb2dVertex
 10
83.64441852667576
 20
155.3627840693952
 30
0.0
 70
     8
  0
VERTEX
  5
EF7C8907C
330
EF7C89068
100
AcDbEntity
  8
JISSEN
 62
     0
100
AcDbVertex
100
AcDb2dVertex
 10
83.40997464577439
 20
155.2710391008379
 30
0.0
 70
     8
  0
VERTEX
  5
EF7C8907D
330
EF7C89068
100
AcDbEntity
  8
JISSEN
 62
     0
100
AcDbVertex
100
AcDb2dVertex
 10
83.11502247624209
 20
155.1736306057498
 30
0.0
 70
     8
  0
VERTEX
  5
EF7C8907E
330
EF7C89068
100
AcDbEntity
  8
JISSEN
 62
     0
100
AcDbVertex
100
AcDb2dVertex
 10
82.78846057796071
 20
155.0719129082747
 30
0.0
 70
     8
  0
VERTEX
  5
EF7C8907F
330
EF7C89068
100
AcDbEntity
  8
JISSEN
 62
     0
100
AcDbVertex
100
AcDb2dVertex
 10
82.45918751081219
 20
154.9672403325564
 30
0.0
 70
     8
  0
VERTEX
  5
EF7C89080
330
EF7C89068
100
AcDbEntity
  8
JISSEN
 62
     0
100
AcDbVertex
100
AcDb2dVertex
 10
82.15610183467791
 20
154.8609672027391
 30
0.0
 70
     8
  0
VERTEX
  5
EF7C89081
330
EF7C89068
100
AcDbEntity
  8
JISSEN
 62
     0
100
AcDbVertex
100
AcDb2dVertex
 10
81.90810210944054
 20
154.7544478429664
 30
0.0
 70
     8
  0
VERTEX
  5
EF7C89082
330
EF7C89068
100
AcDbEntity
  8
JISSEN
 62
     0
100
AcDbVertex
100
AcDb2dVertex
 10
81.74408689498116
 20
154.6490365773822
 30
0.0
 70
     8
  0
VERTEX
  5
EF7C89083
330
EF7C89068
100
AcDbEntity
  8
JISSEN
 62
     0
100
AcDbVertex
100
AcDb2dVertex
 10
81.68434885439868
 20
154.5457491485997
 30
0.0
 70
     8
  0
VERTEX
  5
EF7C89084
330
EF7C89068
100
AcDbEntity
  8
JISSEN
 62
     0
100
AcDbVertex
100
AcDb2dVertex
 10
81.71475706365667
 20
154.4442469731084
 30
0.0
 70
     8
  0
VERTEX
  5
EF7C89085
330
EF7C89068
100
AcDbEntity
  8
JISSEN
 62
     0
100
AcDbVertex
100
AcDb2dVertex
 10
81.81257470193557
 20
154.3438528858665
 30
0.0
 70
     8
  0
VERTEX
  5
EF7C89086
330
EF7C89068
100
AcDbEntity
  8
JISSEN
 62
     0
100
AcDbVertex
100
AcDb2dVertex
 10
81.95506494841586
 20
154.243889721833
 30
0.0
 70
     8
  0
VERTEX
  5
EF7C89087
330
EF7C89068
100
AcDbEntity
  8
JISSEN
 62
     0
100
AcDbVertex
100
AcDb2dVertex
 10
82.11949098227799
 20
154.1436803159661
 30
0.0
 70
     8
  0
VERTEX
  5
EF7C89088
330
EF7C89068
100
AcDbEntity
  8
JISSEN
 62
     0
100
AcDbVertex
100
AcDb2dVertex
 10
82.28311598270241
 20
154.0425475032245
 30
0.0
 70
     8
  0
VERTEX
  5
EF7C89089
330
EF7C89068
100
AcDbEntity
  8
JISSEN
 62
     0
100
AcDbVertex
100
AcDb2dVertex
 10
82.42320312886935
 20
153.9398141185668
 30
0.0
 70
     8
  0
VERTEX
  5
EF7C8908A
330
EF7C89068
100
AcDbEntity
  8
JISSEN
 62
     0
100
AcDbVertex
100
AcDb2dVertex
 10
82.51701559995902
 20
153.8348029969518
 30
0.0
 70
     8
  0
VERTEX
  5
EF7C8908B
330
EF7C89068
100
AcDbEntity
  8
JISSEN
 62
     0
100
AcDbVertex
100
AcDb2dVertex
 10
82.54870745502334
 20
153.7271191249433
 30
0.0
 70
     8
  0
VERTEX
  5
EF7C8908C
330
EF7C89068
100
AcDbEntity
  8
JISSEN
 62
     0
100
AcDbVertex
100
AcDb2dVertex
 10
82.52999627259876
 20
153.6174960955283
 30
0.0
 70
     8
  0
VERTEX
  5
EF7C8908D
330
EF7C89068
100
AcDbEntity
  8
JISSEN
 62
     0
100
AcDbVertex
100
AcDb2dVertex
 10
82.47949051109324
 20
153.5069496532998
 30
0.0
 70
     8
  0
VERTEX
  5
EF7C8908E
330
EF7C89068
100
AcDbEntity
  8
JISSEN
 62
     0
100
AcDbVertex
100
AcDb2dVertex
 10
82.41579862891446
 20
153.3964955428505
 30
0.0
 70
     8
  0
VERTEX
  5
EF7C8908F
330
EF7C89068
100
AcDbEntity
  8
JISSEN
 62
     0
100
AcDbVertex
100
AcDb2dVertex
 10
82.35752908447015
 20
153.2871495087727
 30
0.0
 70
     8
  0
VERTEX
  5
EF7C89090
330
EF7C89068
100
AcDbEntity
  8
JISSEN
 62
     0
100
AcDbVertex
100
AcDb2dVertex
 10
82.32329033616819
 20
153.1799272956592
 30
0.0
 70
     8
  0
VERTEX
  5
EF7C89091
330
EF7C89068
100
AcDbEntity
  8
JISSEN
 62
     0
100
AcDbVertex
100
AcDb2dVertex
 10
82.33169084241628
 20
153.0758446481028
 30
0.0
 70
     8
  0
VERTEX
  5
EF7C89092
330
EF7C89068
100
AcDbEntity
  8
JISSEN
 62
     0
100
AcDbVertex
100
AcDb2dVertex
 10
82.40133906162217
 20
152.9759173106958
 30
0.0
 70
     8
  0
VERTEX
  5
EF7C89093
330
EF7C89068
100
AcDbEntity
  8
JISSEN
 62
     0
100
AcDbVertex
100
AcDb2dVertex
 10
82.5412304796437
 20
152.8803988415956
 30
0.0
 70
     8
  0
VERTEX
  5
EF7C89094
330
EF7C89068
100
AcDbEntity
  8
JISSEN
 62
     0
100
AcDbVertex
100
AcDb2dVertex
 10
82.72190869213707
 20
152.7864940532169
 30
0.0
 70
     8
  0
VERTEX
  5
EF7C89095
330
EF7C89068
100
AcDbEntity
  8
JISSEN
 62
     0
100
AcDbVertex
100
AcDb2dVertex
 10
82.90430432220867
 20
152.690645571539
 30
0.0
 70
     8
  0
VERTEX
  5
EF7C89096
330
EF7C89068
100
AcDbEntity
  8
JISSEN
 62
     0
100
AcDbVertex
100
AcDb2dVertex
 10
83.04934799296418
 20
152.5892960225406
 30
0.0
 70
     8
  0
VERTEX
  5
EF7C89097
330
EF7C89068
100
AcDbEntity
  8
JISSEN
 62
     0
100
AcDbVertex
100
AcDb2dVertex
 10
83.11797032751
 20
152.4788880322009
 30
0.0
 70
     8
  0
VERTEX
  5
EF7C89098
330
EF7C89068
100
AcDbEntity
  8
JISSEN
 62
     0
100
AcDbVertex
100
AcDb2dVertex
 10
83.07110194895248
 20
152.3558642264994
 30
0.0
 70
     8
  0
VERTEX
  5
EF7C89099
330
EF7C89068
100
AcDbEntity
  8
JISSEN
 62
     0
100
AcDbVertex
100
AcDb2dVertex
 10
82.86967348039732
 20
152.2166672314149
 30
0.0
 70
     8
  0
VERTEX
  5
EF7C8909A
330
EF7C89068
100
AcDbEntity
  8
JISSEN
 62
     0
100
AcDbVertex
100
AcDb2dVertex
 10
82.47461554495092
 20
152.0577396729265
 30
0.0
 70
     8
  0
VERTEX
  5
EF7C8909B
330
EF7C89068
100
AcDbEntity
  8
JISSEN
 62
     0
100
AcDbVertex
100
AcDb2dVertex
 10
83.85255408292804
 20
156.4823754231289
 30
0.0
 70
    16
  0
VERTEX
  5
EF7C8909C
330
EF7C89068
100
AcDbEntity
  8
JISSEN
 62
     0
100
AcDbVertex
100
AcDb2dVertex
 10
81.99121288534687
 20
155.9150388004574
 30
0.0
 70
    16
  0
VERTEX
  5
EF7C8909D
330
EF7C89068
100
AcDbEntity
  8
JISSEN
 62
     0
100
AcDbVertex
100
AcDb2dVertex
 10
85.0513799152748
 20
155.5368143853435
 30
0.0
 70
    16
  0
VERTEX
  5
EF7C8909E
330
EF7C89068
100
AcDbEntity
  8
JISSEN
 62
     0
100
AcDbVertex
100
AcDb2dVertex
 10
80.54000080793892
 20
154.6227707818358
 30
0.0
 70
    16
  0
VERTEX
  5
EF7C8909F
330
EF7C89068
100
AcDbEntity
  8
JISSEN
 62
     0
100
AcDbVertex
100
AcDb2dVertex
 10
83.25313822285696
 20
153.8663219516075
 30
0.0
 70
    16
  0
VERTEX
  5
EF7C890A0
330
EF7C89068
100
AcDbEntity
  8
JISSEN
 62
     0
100
AcDbVertex
100
AcDb2dVertex
 10
81.54953990038782
 20
152.9207593934444
 30
0.0
 70
    16
  0
VERTEX
  5
EF7C890A1
330
EF7C89068
100
AcDbEntity
  8
JISSEN
 62
     0
100
AcDbVertex
100
AcDb2dVertex
 10
83.82100433034636
 20
152.5110160236746
 30
0.0
 70
    16
  0
VERTEX
  5
EF7C890A2
330
EF7C89068
100
AcDbEntity
  8
JISSEN
 62
     0
100
AcDbVertex
100
AcDb2dVertex
 10
82.47461554495092
 20
152.0577396729264
 30
0.0
 70
    16
  0
SEQEND
  5
EF7C890A3
330
EF7C89068
100
AcDbEntity
  8
JISSEN
 62
     0
  0
HATCH
  5
EF7C890A4
330
EF7C85532
100
AcDbEntity
  8
JISSEN
 62
     0
100
AcDbHatch
 10
0.0
 20
0.0
 30
0.0
210
0.0
220
0.0
230
1.0
  2
ANSI31
 70
     0
 71
     0
 91
        2
 92
        7
 72
     0
 73
     1
 93
       50
 10
83.7692038690433
 20
155.594926901706
 10
83.64716544348951
 20
155.6610012999502
 10
83.48547624799815
 20
155.7246132872863
 10
83.31035449539106
 20
155.7877327850159
 10
83.14801839848692
 20
155.8523297144437
 10
83.02468617010461
 20
155.9203739968726
 10
82.96657602306348
 20
155.9938355536062
 10
82.98912245969793
 20
156.0747718044514
 10
83.0646251404037
 20
156.1655901632341
 10
83.15460001508339
 20
156.2687855422764
 10
83.22056303365119
 20
156.3868528539121
 10
83.22403014601347
 20
156.5222870104673
 10
83.12651730207861
 20
156.6775829242694
 10
82.88954045175504
 20
156.8552355076464
 10
82.47461554495137
 20
157.0577396729262
 10
64.97461554495092
 20
157.0577396729263
 10
64.97461554495092
 20
152.0577396729262
 10
82.47461554495069
 20
152.0577396729264
 10
82.86967348039732
 20
152.2166672314149
 10
83.07110194895248
 20
152.3558642264994
 10
83.11797032751
 20
152.4788880322009
 10
83.04934799296418
 20
152.5892960225406
 10
82.90430432220867
 20
152.6906455715388
 10
82.72190869213947
 20
152.786494053222
 10
82.5412304796437
 20
152.8803988415956
 10
82.40133906162217
 20
152.9759173106958
 10
82.30313635847611
 20
153.1168130114535
 10
82.35752908447015
 20
153.2871495087726
 10
82.41579862891402
 20
153.3964955428489
 10
82.47949051109348
 20
153.5069496533
 10
82.52999627259887
 20
153.6174960955287
 10
82.54870745502334
 20
153.7271191249433
 10
82.51701559995902
 20
153.8348029969518
 10
82.42320312886935
 20
153.9398141185668
 10
82.28311598270241
 20
154.0425475032245
 10
82.11949098227686
 20
154.1436803159649
 10
81.95506494841609
 20
154.2438897218331
 10
81.81257470193557
 20
154.3438528858664
 10
81.71475706365667
 20
154.4442469731083
 10
81.68434885439868
 20
154.5457491485997
 10
81.74408689498116
 20
154.6490365773822
 10
81.90810210944054
 20
154.7544478429665
 10
82.15610183467836
 20
154.8609672027393
 10
82.45918751081186
 20
154.9672403325563
 10
82.78846057796366
 20
155.0719129082759
 10
83.11502247624119
 20
155.1736306057495
 10
83.4099746457746
 20
155.2710391008379
 10
83.64441852667553
 20
155.3627840693952
 10
83.78945555906401
 20
155.4475111872777
 10
83.82537331184133
 20
155.5244201712494
 97
        0
 92
        7
 72
     0
 73
     1
 93
       50
 10
24.97461554495089
 20
157.0577396729265
 10
7.474615544951006
 20
157.0577396729264
 10
7.059690638146889
 20
156.8552355076463
 10
6.822713787823204
 20
156.6775829242694
 10
6.725200943888353
 20
156.5222870104672
 10
6.728668056250739
 20
156.3868528539122
 10
6.794631074818425
 20
156.2687855422764
 10
6.884605949500837
 20
156.165590163231
 10
6.960108630203876
 20
156.0747718044514
 10
6.982655066838447
 20
155.9938355536062
 10
6.924544919797426
 20
155.9203739968728
 10
6.801212691414775
 20
155.8523297144438
 10
6.638876594510065
 20
155.787732785016
 10
6.463754841902755
 20
155.7246132872858
 10
6.302065646412643
 20
155.6610012999503
 10
6.180027220858619
 20
155.594926901706
 10
6.12385777806071
 20
155.5244201712495
 10
6.159775530837919
 20
155.4475111872777
 10
6.304812563226391
 20
155.3627840693953
 10
6.539256444128341
 20
155.2710391008377
 10
6.834208613657438
 20
155.1736306057502
 10
7.160770511941109
 20
155.0719129082759
 10
7.490043579089615
 20
154.9672403325564
 10
7.793129255223675
 20
154.8609672027391
 10
8.041128980461735
 20
154.7544478429665
 10
8.205144194920649
 20
154.6490365773823
 10
8.264882235503364
 20
154.5457491485996
 10
8.234474026245266
 20
154.4442469731083
 10
8.136656387966581
 20
154.3438528858667
 10
7.994166141486289
 20
154.2438897218332
 10
7.829740107620409
 20
154.143680315964
 10
7.666115107199402
 20
154.0425475032245
 10
7.526027961032696
 20
153.9398141185668
 10
7.432215489942791
 20
153.8348029969518
 10
7.400523634878595
 20
153.7271191249432
 10
7.419234817303049
 20
153.6174960955285
 10
7.469740578808568
 20
153.5069496532996
 10
7.533432460987228
 20
153.3964955428503
 10
7.591702005431898
 20
153.2871495087725
 10
7.646094731425819
 20
153.1168130114535
 10
7.547892028279648
 20
152.9759173106958
 10
7.408000610258113
 20
152.8803988415956
 10
7.227322397766783
 20
152.786494053218
 10
7.044926767693254
 20
152.6906455715389
 10
6.899883096937855
 20
152.5892960225407
 10
6.831260762391934
 20
152.478888032201
 10
6.878129140949567
 20
152.3558642264994
 10
7.079557609504718
 20
152.2166672314149
 10
7.474615544951234
 20
152.0577396729264
 10
24.97461554495089
 20
152.0577396729263
 97
        0
 75
     0
 76
     1
 52
0.0
 41
20.0
 77
     0
 78
     1
 53
45.0
 43
-13.38488921849398
 44
-554.296717527619
 45
-1.767766952966368
 46
1.767766952966368
 79
     0
 47
0.1350417537953048
 98
        2
 10
151.5383570654296
 20
154.2419035301762
 10
95.44376542531271
 20
155.7273629303139
  0
LINE
  5
EF7C890A5
330
EF7C85532
100
AcDbEntity
  8
JISSEN
100
AcDbLine
 10
64.97461554495092
 20
157.0577396729264
 30
0.0
 11
64.97461554495092
 21
152.0577396729265
 31
0.0
  0
LINE
  5
EF7C890A6
330
EF7C85532
100
AcDbEntity
  8
JISSEN
100
AcDbLine
 10
55.45488003025027
 20
152.057739672926
 30
0.0
 11
82.47461554495069
 21
152.0577396729264
 31
0.0
  0
LINE
  5
EF7C890A7
330
EF7C85532
100
AcDbEntity
  8
JISSEN
100
AcDbLine
 10
55.29862222172963
 20
157.0577396729263
 30
0.0
 11
82.47461554495137
 21
157.0577396729262
 31
0.0
  0
LINE
  5
EF7C890A8
330
EF7C85532
100
AcDbEntity
  8
JISSEN
100
AcDbLine
 10
7.474615544951348
 20
152.0577396729264
 30
0.0
 11
34.35718450378888
 21
152.0577396729263
 31
0.0
  0
LINE
  5
EF7C890A9
330
EF7C85532
100
AcDbEntity
  8
JISSEN
100
AcDbLine
 10
34.51344231230953
 20
157.0577396729266
 30
0.0
 11
7.47461554495112
 21
157.0577396729264
 31
0.0
  0
POLYLINE
  5
EF7C890AA
330
EF7C85532
100
AcDbEntity
  8
JISSEN
 62
     0
100
AcDb2dPolyline
 66
     1
 10
0.0
 20
0.0
 30
0.0
 70
     4
 75
     6
  0
VERTEX
  5
EF7C890AB
330
EF7C890AA
100
AcDbEntity
  8
JISSEN
 62
     0
100
AcDbVertex
100
AcDb2dVertex
 10
7.474615544950893
 20
157.0577396729264
 30
0.0
 70
    16
  0
VERTEX
  5
EF7C890AC
330
EF7C890AA
100
AcDbEntity
  8
JISSEN
 62
     0
100
AcDbVertex
100
AcDb2dVertex
 10
7.474615544950893
 20
157.0577396729264
 30
0.0
 70
     8
  0
VERTEX
  5
EF7C890AD
330
EF7C890AA
100
AcDbEntity
  8
JISSEN
 62
     0
100
AcDbVertex
100
AcDb2dVertex
 10
7.059690638147003
 20
156.8552355076463
 30
0.0
 70
     8
  0
VERTEX
  5
EF7C890AE
330
EF7C890AA
100
AcDbEntity
  8
JISSEN
 62
     0
100
AcDbVertex
100
AcDb2dVertex
 10
6.822713787823204
 20
156.6775829242693
 30
0.0
 70
     8
  0
VERTEX
  5
EF7C890AF
330
EF7C890AA
100
AcDbEntity
  8
JISSEN
 62
     0
100
AcDbVertex
100
AcDb2dVertex
 10
6.725200943888467
 20
156.5222870104672
 30
0.0
 70
     8
  0
VERTEX
  5
EF7C890B0
330
EF7C890AA
100
AcDbEntity
  8
JISSEN
 62
     0
100
AcDbVertex
100
AcDb2dVertex
 10
6.728668056250626
 20
156.3868528539121
 30
0.0
 70
     8
  0
VERTEX
  5
EF7C890B1
330
EF7C890AA
100
AcDbEntity
  8
JISSEN
 62
     0
100
AcDbVertex
100
AcDb2dVertex
 10
6.794631074818425
 20
156.2687855422765
 30
0.0
 70
     8
  0
VERTEX
  5
EF7C890B2
330
EF7C890AA
100
AcDbEntity
  8
JISSEN
 62
     0
100
AcDbVertex
100
AcDb2dVertex
 10
6.884605949499928
 20
156.1655901632321
 30
0.0
 70
     8
  0
VERTEX
  5
EF7C890B3
330
EF7C890AA
100
AcDbEntity
  8
JISSEN
 62
     0
100
AcDbVertex
100
AcDb2dVertex
 10
6.960108630203876
 20
156.0747718044514
 30
0.0
 70
     8
  0
VERTEX
  5
EF7C890B4
330
EF7C890AA
100
AcDbEntity
  8
JISSEN
 62
     0
100
AcDbVertex
100
AcDb2dVertex
 10
6.98265506683856
 20
155.9938355536062
 30
0.0
 70
     8
  0
VERTEX
  5
EF7C890B5
330
EF7C890AA
100
AcDbEntity
  8
JISSEN
 62
     0
100
AcDbVertex
100
AcDb2dVertex
 10
6.924544919797426
 20
155.9203739968727
 30
0.0
 70
     8
  0
VERTEX
  5
EF7C890B6
330
EF7C890AA
100
AcDbEntity
  8
JISSEN
 62
     0
100
AcDbVertex
100
AcDb2dVertex
 10
6.801212691414775
 20
155.8523297144438
 30
0.0
 70
     8
  0
VERTEX
  5
EF7C890B7
330
EF7C890AA
100
AcDbEntity
  8
JISSEN
 62
     0
100
AcDbVertex
100
AcDb2dVertex
 10
6.638876594510065
 20
155.787732785016
 30
0.0
 70
     8
  0
VERTEX
  5
EF7C890B8
330
EF7C890AA
100
AcDbEntity
  8
JISSEN
 62
     0
100
AcDbVertex
100
AcDb2dVertex
 10
6.463754841902982
 20
155.7246132872858
 30
0.0
 70
     8
  0
VERTEX
  5
EF7C890B9
330
EF7C890AA
100
AcDbEntity
  8
JISSEN
 62
     0
100
AcDbVertex
100
AcDb2dVertex
 10
6.302065646412529
 20
155.6610012999503
 30
0.0
 70
     8
  0
VERTEX
  5
EF7C890BA
330
EF7C890AA
100
AcDbEntity
  8
JISSEN
 62
     0
100
AcDbVertex
100
AcDb2dVertex
 10
6.180027220858619
 20
155.594926901706
 30
0.0
 70
     8
  0
VERTEX
  5
EF7C890BB
330
EF7C890AA
100
AcDbEntity
  8
JISSEN
 62
     0
100
AcDbVertex
100
AcDb2dVertex
 10
6.12385777806071
 20
155.5244201712495
 30
0.0
 70
     8
  0
VERTEX
  5
EF7C890BC
330
EF7C890AA
100
AcDbEntity
  8
JISSEN
 62
     0
100
AcDbVertex
100
AcDb2dVertex
 10
6.159775530837805
 20
155.4475111872777
 30
0.0
 70
     8
  0
VERTEX
  5
EF7C890BD
330
EF7C890AA
100
AcDbEntity
  8
JISSEN
 62
     0
100
AcDbVertex
100
AcDb2dVertex
 10
6.304812563226278
 20
155.3627840693952
 30
0.0
 70
     8
  0
VERTEX
  5
EF7C890BE
330
EF7C890AA
100
AcDbEntity
  8
JISSEN
 62
     0
100
AcDbVertex
100
AcDb2dVertex
 10
6.539256444127431
 20
155.2710391008379
 30
0.0
 70
     8
  0
VERTEX
  5
EF7C890BF
330
EF7C890AA
100
AcDbEntity
  8
JISSEN
 62
     0
100
AcDbVertex
100
AcDb2dVertex
 10
6.834208613659711
 20
155.1736306057498
 30
0.0
 70
     8
  0
VERTEX
  5
EF7C890C0
330
EF7C890AA
100
AcDbEntity
  8
JISSEN
 62
     0
100
AcDbVertex
100
AcDb2dVertex
 10
7.160770511941109
 20
155.0719129082747
 30
0.0
 70
     8
  0
VERTEX
  5
EF7C890C1
330
EF7C890AA
100
AcDbEntity
  8
JISSEN
 62
     0
100
AcDbVertex
100
AcDb2dVertex
 10
7.490043579089842
 20
154.9672403325564
 30
0.0
 70
     8
  0
VERTEX
  5
EF7C890C2
330
EF7C890AA
100
AcDbEntity
  8
JISSEN
 62
     0
100
AcDbVertex
100
AcDb2dVertex
 10
7.793129255223902
 20
154.8609672027391
 30
0.0
 70
     8
  0
VERTEX
  5
EF7C890C3
330
EF7C890AA
100
AcDbEntity
  8
JISSEN
 62
     0
100
AcDbVertex
100
AcDb2dVertex
 10
8.041128980461508
 20
154.7544478429664
 30
0.0
 70
     8
  0
VERTEX
  5
EF7C890C4
330
EF7C890AA
100
AcDbEntity
  8
JISSEN
 62
     0
100
AcDbVertex
100
AcDb2dVertex
 10
8.205144194920649
 20
154.6490365773822
 30
0.0
 70
     8
  0
VERTEX
  5
EF7C890C5
330
EF7C890AA
100
AcDbEntity
  8
JISSEN
 62
     0
100
AcDbVertex
100
AcDb2dVertex
 10
8.264882235503364
 20
154.5457491485997
 30
0.0
 70
     8
  0
VERTEX
  5
EF7C890C6
330
EF7C890AA
100
AcDbEntity
  8
JISSEN
 62
     0
100
AcDbVertex
100
AcDb2dVertex
 10
8.234474026245379
 20
154.4442469731084
 30
0.0
 70
     8
  0
VERTEX
  5
EF7C890C7
330
EF7C890AA
100
AcDbEntity
  8
JISSEN
 62
     0
100
AcDbVertex
100
AcDb2dVertex
 10
8.136656387966468
 20
154.3438528858665
 30
0.0
 70
     8
  0
VERTEX
  5
EF7C890C8
330
EF7C890AA
100
AcDbEntity
  8
JISSEN
 62
     0
100
AcDbVertex
100
AcDb2dVertex
 10
7.994166141485948
 20
154.243889721833
 30
0.0
 70
     8
  0
VERTEX
  5
EF7C890C9
330
EF7C890AA
100
AcDbEntity
  8
JISSEN
 62
     0
100
AcDbVertex
100
AcDb2dVertex
 10
7.82974010762382
 20
154.1436803159661
 30
0.0
 70
     8
  0
VERTEX
  5
EF7C890CA
330
EF7C890AA
100
AcDbEntity
  8
JISSEN
 62
     0
100
AcDbVertex
100
AcDb2dVertex
 10
7.66611510719963
 20
154.0425475032245
 30
0.0
 70
     8
  0
VERTEX
  5
EF7C890CB
330
EF7C890AA
100
AcDbEntity
  8
JISSEN
 62
     0
100
AcDbVertex
100
AcDb2dVertex
 10
7.526027961032696
 20
153.9398141185668
 30
0.0
 70
     8
  0
VERTEX
  5
EF7C890CC
330
EF7C890AA
100
AcDbEntity
  8
JISSEN
 62
     0
100
AcDbVertex
100
AcDb2dVertex
 10
7.432215489942791
 20
153.8348029969518
 30
0.0
 70
     8
  0
VERTEX
  5
EF7C890CD
330
EF7C890AA
100
AcDbEntity
  8
JISSEN
 62
     0
100
AcDbVertex
100
AcDb2dVertex
 10
7.400523634878481
 20
153.7271191249433
 30
0.0
 70
     8
  0
VERTEX
  5
EF7C890CE
330
EF7C890AA
100
AcDbEntity
  8
JISSEN
 62
     0
100
AcDbVertex
100
AcDb2dVertex
 10
7.419234817303049
 20
153.6174960955283
 30
0.0
 70
     8
  0
VERTEX
  5
EF7C890CF
330
EF7C890AA
100
AcDbEntity
  8
JISSEN
 62
     0
100
AcDbVertex
100
AcDb2dVertex
 10
7.469740578808568
 20
153.5069496532998
 30
0.0
 70
     8
  0
VERTEX
  5
EF7C890D0
330
EF7C890AA
100
AcDbEntity
  8
JISSEN
 62
     0
100
AcDbVertex
100
AcDb2dVertex
 10
7.533432460987569
 20
153.3964955428505
 30
0.0
 70
     8
  0
VERTEX
  5
EF7C890D1
330
EF7C890AA
100
AcDbEntity
  8
JISSEN
 62
     0
100
AcDbVertex
100
AcDb2dVertex
 10
7.591702005431898
 20
153.2871495087727
 30
0.0
 70
     8
  0
VERTEX
  5
EF7C890D2
330
EF7C890AA
100
AcDbEntity
  8
JISSEN
 62
     0
100
AcDbVertex
100
AcDb2dVertex
 10
7.625940753733857
 20
153.1799272956592
 30
0.0
 70
     8
  0
VERTEX
  5
EF7C890D3
330
EF7C890AA
100
AcDbEntity
  8
JISSEN
 62
     0
100
AcDbVertex
100
AcDb2dVertex
 10
7.617540247485749
 20
153.0758446481028
 30
0.0
 70
     8
  0
VERTEX
  5
EF7C890D4
330
EF7C890AA
100
AcDbEntity
  8
JISSEN
 62
     0
100
AcDbVertex
100
AcDb2dVertex
 10
7.547892028279648
 20
152.9759173106958
 30
0.0
 70
     8
  0
VERTEX
  5
EF7C890D5
330
EF7C890AA
100
AcDbEntity
  8
JISSEN
 62
     0
100
AcDbVertex
100
AcDb2dVertex
 10
7.408000610258113
 20
152.8803988415956
 30
0.0
 70
     8
  0
VERTEX
  5
EF7C890D6
330
EF7C890AA
100
AcDbEntity
  8
JISSEN
 62
     0
100
AcDbVertex
100
AcDb2dVertex
 10
7.227322397764737
 20
152.7864940532169
 30
0.0
 70
     8
  0
VERTEX
  5
EF7C890D7
330
EF7C890AA
100
AcDbEntity
  8
JISSEN
 62
     0
100
AcDbVertex
100
AcDb2dVertex
 10
7.044926767693368
 20
152.690645571539
 30
0.0
 70
     8
  0
VERTEX
  5
EF7C890D8
330
EF7C890AA
100
AcDbEntity
  8
JISSEN
 62
     0
100
AcDbVertex
100
AcDb2dVertex
 10
6.899883096937855
 20
152.5892960225406
 30
0.0
 70
     8
  0
VERTEX
  5
EF7C890D9
330
EF7C890AA
100
AcDbEntity
  8
JISSEN
 62
     0
100
AcDbVertex
100
AcDb2dVertex
 10
6.831260762391821
 20
152.4788880322009
 30
0.0
 70
     8
  0
VERTEX
  5
EF7C890DA
330
EF7C890AA
100
AcDbEntity
  8
JISSEN
 62
     0
100
AcDbVertex
100
AcDb2dVertex
 10
6.878129140949567
 20
152.3558642264994
 30
0.0
 70
     8
  0
VERTEX
  5
EF7C890DB
330
EF7C890AA
100
AcDbEntity
  8
JISSEN
 62
     0
100
AcDbVertex
100
AcDb2dVertex
 10
7.079557609504718
 20
152.2166672314149
 30
0.0
 70
     8
  0
VERTEX
  5
EF7C890DC
330
EF7C890AA
100
AcDbEntity
  8
JISSEN
 62
     0
100
AcDbVertex
100
AcDb2dVertex
 10
7.474615544950893
 20
152.0577396729265
 30
0.0
 70
     8
  0
VERTEX
  5
EF7C890DD
330
EF7C890AA
100
AcDbEntity
  8
JISSEN
 62
     0
100
AcDbVertex
100
AcDb2dVertex
 10
6.096677006974005
 20
156.4823754231289
 30
0.0
 70
    16
  0
VERTEX
  5
EF7C890DE
330
EF7C890AA
100
AcDbEntity
  8
JISSEN
 62
     0
100
AcDbVertex
100
AcDb2dVertex
 10
7.958018204555173
 20
155.9150388004574
 30
0.0
 70
    16
  0
VERTEX
  5
EF7C890DF
330
EF7C890AA
100
AcDbEntity
  8
JISSEN
 62
     0
100
AcDbVertex
100
AcDb2dVertex
 10
4.897851174627248
 20
155.5368143853435
 30
0.0
 70
    16
  0
VERTEX
  5
EF7C890E0
330
EF7C890AA
100
AcDbEntity
  8
JISSEN
 62
     0
100
AcDbVertex
100
AcDb2dVertex
 10
9.409230281963118
 20
154.6227707818358
 30
0.0
 70
    16
  0
VERTEX
  5
EF7C890E1
330
EF7C890AA
100
AcDbEntity
  8
JISSEN
 62
     0
100
AcDbVertex
100
AcDb2dVertex
 10
6.696092867045081
 20
153.8663219516075
 30
0.0
 70
    16
  0
VERTEX
  5
EF7C890E2
330
EF7C890AA
100
AcDbEntity
  8
JISSEN
 62
     0
100
AcDbVertex
100
AcDb2dVertex
 10
8.399691189514214
 20
152.9207593934444
 30
0.0
 70
    16
  0
VERTEX
  5
EF7C890E3
330
EF7C890AA
100
AcDbEntity
  8
JISSEN
 62
     0
100
AcDbVertex
100
AcDb2dVertex
 10
6.128226759555673
 20
152.5110160236746
 30
0.0
 70
    16
  0
VERTEX
  5
EF7C890E4
330
EF7C890AA
100
AcDbEntity
  8
JISSEN
 62
     0
100
AcDbVertex
100
AcDb2dVertex
 10
7.474615544950893
 20
152.0577396729264
 30
0.0
 70
    16
  0
SEQEND
  5
EF7C890E5
330
EF7C890AA
100
AcDbEntity
  8
JISSEN
 62
     0
  0
LINE
  5
EF7C890E6
330
EF7C85532
100
AcDbEntity
  8
JISSEN
100
AcDbLine
 10
24.97461554495089
 20
152.0577396729264
 30
0.0
 11
24.97461554495089
 21
157.0577396729264
 31
0.0
  0
ARC
  5
EF7C8956E
330
EF7C85532
100
AcDbEntity
  8
JISSEN
100
AcDbCircle
 10
44.90603226701955
 20
156.7820040037038
 30
0.0
 40
14.28125
100
AcDbArc
 50
248.4314042648747
 51
291.5685957351252
  0
ARC
  5
EF7C8956F
330
EF7C85532
100
AcDbEntity
  8
JISSEN
100
AcDbCircle
 10
44.90603226701955
 20
133.2195040037038
 30
0.0
 40
14.28125000000001
100
AcDbArc
 50
68.43140426487474
 51
111.5685957351252
  0
LINE
  5
EF7C89570
330
EF7C85532
100
AcDbEntity
  8
JISSEN
100
AcDbLine
 10
34.57790726701955
 20
149.2507540037038
 30
0.0
 11
55.23415726701955
 21
149.2507540037038
 31
0.0
  0
LINE
  5
EF7C89571
330
EF7C85532
100
AcDbEntity
  8
JISSEN
100
AcDbLine
 10
33.65603226701955
 20
128.5007540037038
 30
0.0
 11
56.15603226701955
 21
128.5007540037038
 31
0.0
  0
LWPOLYLINE
  5
EF7C89572
330
EF7C85532
100
AcDbEntity
  8
JISSEN
100
AcDbPolyline
 90
        4
 70
     1
 43
0.0
 10
33.40603226701955
 20
147.5007540037038
 10
56.40603226701955
 20
147.5007540037038
 10
56.40603226701955
 20
142.5007540037038
 10
33.40603226701955
 20
142.5007540037038
  0
LINE
  5
EF7C89573
330
EF7C85532
100
AcDbEntity
  8
JISSEN
100
AcDbLine
 10
34.65603226701955
 20
127.5007540037038
 30
0.0
 11
55.15603226701955
 21
127.5007540037038
 31
0.0
  0
LINE
  5
EF7C89574
330
EF7C85532
100
AcDbEntity
  8
JISSEN
100
AcDbLine
 10
35.90603226701955
 20
162.5007540037038
 30
0.0
 11
53.90603226701955
 21
162.5007540037038
 31
0.0
  0
LINE
  5
EF7C89575
330
EF7C85532
100
AcDbEntity
  8
JISSEN
100
AcDbLine
 10
34.90603226701955
 20
161.5007540037038
 30
0.0
 11
54.90603226701955
 21
161.5007540037038
 31
0.0
  0
LINE
  5
EF7C89576
330
EF7C85532
100
AcDbEntity
  8
JISSEN
100
AcDbLine
 10
39.65603226701955
 20
146.5007540037038
 30
0.0
 11
39.65603226701955
 21
143.5007540037038
 31
0.0
  0
LINE
  5
EF7C89577
330
EF7C85532
100
AcDbEntity
  8
JISSEN
100
AcDbLine
 10
33.65603226701955
 20
142.5007540037038
 30
0.0
 11
33.65603226701955
 21
128.5007540037038
 31
0.0
  0
LINE
  5
EF7C89578
330
EF7C85532
100
AcDbEntity
  8
JISSEN
100
AcDbLine
 10
33.65603226701955
 20
128.5007540037038
 30
0.0
 11
34.65603226701955
 21
127.5007540037038
 31
0.0
  0
LINE
  5
EF7C89579
330
EF7C85532
100
AcDbEntity
  8
JISSEN
100
AcDbLine
 10
39.1560322670196
 20
143.5007540037038
 30
0.0
 11
39.65603226701957
 21
143.5007540037038
 31
0.0
  0
LINE
  5
EF7C8957A
330
EF7C85532
100
AcDbEntity
  8
SAISEN
100
AcDbLine
 10
35.55112155273383
 20
149.2507540037038
 30
0.0
 11
35.90603226701955
 21
162.5007540037038
 31
0.0
  0
LINE
  5
EF7C8957B
330
EF7C85532
100
AcDbEntity
  8
JISSEN
100
AcDbLine
 10
34.53103226701955
 20
147.5007540037038
 30
0.0
 11
34.90603226701955
 21
161.5007540037038
 31
0.0
  0
LINE
  5
EF7C8957C
330
EF7C85532
100
AcDbEntity
  8
JISSEN
100
AcDbLine
 10
39.15603226701958
 20
146.5007540037038
 30
0.0
 11
39.65603226701955
 21
146.5007540037038
 31
0.0
  0
LINE
  5
EF7C8957D
330
EF7C85532
100
AcDbEntity
  8
SAISEN
100
AcDbLine
 10
34.53103226701955
 20
147.5007540037038
 30
0.0
 11
35.55112155273383
 21
149.2507540037038
 31
0.0
  0
LINE
  5
EF7C8957E
330
EF7C85532
100
AcDbEntity
  8
JISSEN
100
AcDbLine
 10
34.90603226701955
 20
161.5007540037038
 30
0.0
 11
35.90603226701955
 21
162.5007540037038
 31
0.0
  0
LINE
  5
EF7C89585
330
EF7C85532
100
AcDbEntity
  8
JISSEN
100
AcDbLine
 10
56.15603226701955
 20
142.5007540037038
 30
0.0
 11
56.15603226701955
 21
128.5007540037038
 31
0.0
  0
LINE
  5
EF7C89586
330
EF7C85532
100
AcDbEntity
  8
JISSEN
100
AcDbLine
 10
55.15603226701955
 20
127.5007540037038
 30
0.0
 11
56.15603226701955
 21
128.5007540037038
 31
0.0
  0
LINE
  5
EF7C8958A
330
EF7C85532
100
AcDbEntity
  8
SAISEN
100
AcDbLine
 10
53.90603226701955
 20
162.5007540037038
 30
0.0
 11
54.26094298130528
 21
149.2507540037038
 31
0.0
  0
LINE
  5
EF7C8958B
330
EF7C85532
100
AcDbEntity
  8
JISSEN
100
AcDbLine
 10
54.90603226701955
 20
161.5007540037038
 30
0.0
 11
55.28103226701955
 21
147.5007540037038
 31
0.0
  0
LINE
  5
EF7C8958C
330
EF7C85532
100
AcDbEntity
  8
SAISEN
100
AcDbLine
 10
54.26094298130528
 20
149.2507540037038
 30
0.0
 11
55.28103226701955
 21
147.5007540037038
 31
0.0
  0
LINE
  5
EF7C8958E
330
EF7C85532
100
AcDbEntity
  8
JISSEN
100
AcDbLine
 10
53.90603226701955
 20
162.5007540037038
 30
0.0
 11
54.90603226701955
 21
161.5007540037038
 31
0.0
  0
ELLIPSE
  5
EF7C89593
330
EF7C85532
100
AcDbEntity
  8
JISSEN
100
AcDbEllipse
 10
44.90603226701955
 20
141.2973918618347
 30
0.0
 11
-11.25
 21
0.0
 31
0.0
210
0.0
220
0.0
230
1.0
 40
0.2666666666666665
 41
0.0
 42
3.141592653589793
  0
ELLIPSE
  5
EF7C89594
330
EF7C85532
100
AcDbEntity
  8
JISSEN
100
AcDbEllipse
 10
44.90603226701955
 20
133.5699852515221
 30
0.0
 11
-11.25
 21
0.0
 31
0.0
210
0.0
220
0.0
230
1.0
 40
0.2666666666666665
 41
0.0
 42
3.141592653589793
  0
LINE
  5
EF7C89595
330
EF7C85532
100
AcDbEntity
  8
JISSEN
100
AcDbLine
 10
56.15603226701955
 20
133.5699852515221
 30
0.0
 11
33.65603226701955
 21
133.5699852515221
 31
0.0
  0
LINE
  5
EF7C89596
330
EF7C85532
100
AcDbEntity
  8
JISSEN
100
AcDbLine
 10
47.90603226721742
 20
134.5699852515221
 30
0.0
 11
41.90603226721743
 21
134.5699852515221
 31
0.0
  0
LINE
  5
EF7C89598
330
EF7C85532
100
AcDbEntity
  8
JISSEN
100
AcDbLine
 10
48.24395710111239
 20
138.4324837773435
 30
0.0
 11
47.90603226721742
 21
134.5699852515221
 31
0.0
  0
LINE
  5
EF7C89599
330
EF7C85532
100
AcDbEntity
  8
JISSEN
100
AcDbLine
 10
41.56810743332534
 20
138.4324837773105
 30
0.0
 11
41.90603226721743
 21
134.5699852515221
 31
0.0
  0
LINE
  5
EF7C89642
330
EF7C85532
100
AcDbEntity
  8
JISSEN
100
AcDbLine
 10
123.6560322670195
 20
142.5007540037038
 30
0.0
 11
123.6560322670195
 21
138.2829634469845
 31
0.0
  0
LINE
  5
EF7C89643
330
EF7C85532
100
AcDbEntity
  8
JISSEN
100
AcDbLine
 10
146.1560322670195
 20
142.5007540037038
 30
0.0
 11
146.1560322670195
 21
128.5007540037038
 31
0.0
  0
LINE
  5
EF7C89644
330
EF7C85532
100
AcDbEntity
  8
JISSEN
100
AcDbLine
 10
145.1560322670195
 20
127.5007540037038
 30
0.0
 11
124.6560322670195
 21
127.5007540037038
 31
0.0
  0
LINE
  5
EF7C89645
330
EF7C85532
100
AcDbEntity
  8
JISSEN
100
AcDbLine
 10
146.1560322670195
 20
128.5007540037038
 30
0.0
 11
123.6560322670195
 21
128.5007540037038
 31
0.0
  0
LINE
  5
EF7C89646
330
EF7C85532
100
AcDbEntity
  8
JISSEN
100
AcDbLine
 10
146.1560322670195
 20
128.5007540037038
 30
0.0
 11
145.1560322670195
 21
127.5007540037038
 31
0.0
  0
LINE
  5
EF7C89647
330
EF7C85532
100
AcDbEntity
  8
JISSEN
100
AcDbLine
 10
134.9060322670195
 20
141.2973918618347
 30
0.0
 11
123.6560322670195
 21
138.2829634469845
 31
0.0
  0
LINE
  5
EF7C89648
330
EF7C85532
100
AcDbEntity
  8
JISSEN
100
AcDbLine
 10
136.9765846278397
 20
133.5699852515221
 30
0.0
 11
123.6560322670195
 21
130.0007540037038
 31
0.0
  0
LINE
  5
EF7C89649
330
EF7C85532
100
AcDbEntity
  8
JISSEN
100
AcDbLine
 10
134.9060322670195
 20
141.2973918618347
 30
0.0
 11
136.9765846278397
 21
133.5699852515221
 31
0.0
  0
LINE
  5
EF7C8964A
330
EF7C85532
100
AcDbEntity
  8
JISSEN
100
AcDbLine
 10
124.6560322670195
 20
127.5007540037038
 30
0.0
 11
123.6560322670195
 21
128.5007540037038
 31
0.0
  0
LINE
  5
EF7C8964B
330
EF7C85532
100
AcDbEntity
  8
JISSEN
100
AcDbLine
 10
123.6560322670195
 20
130.0007540037038
 30
0.0
 11
123.6560322670195
 21
128.5007540037038
 31
0.0
  0
HATCH
  5
EF7C8964C
330
EF7C85532
100
AcDbEntity
  8
JISSEN
 62
     0
100
AcDbHatch
 10
0.0
 20
0.0
 30
0.0
210
0.0
220
0.0
230
1.0
  2
ANSI31
 70
     0
 71
     0
 91
        2
 92
        7
 72
     0
 73
     1
 93
       50
 10
96.04286066499581
 20
155.594926901706
 10
96.1648990905496
 20
155.6610012999502
 10
96.32658828604096
 20
155.7246132872863
 10
96.50171003864805
 20
155.7877327850159
 10
96.66404613555219
 20
155.8523297144437
 10
96.7873783639345
 20
155.9203739968726
 10
96.84548851097563
 20
155.9938355536062
 10
96.82294207434118
 20
156.0747718044514
 10
96.74743939363541
 20
156.1655901632341
 10
96.65746451895572
 20
156.2687855422764
 10
96.59150150038792
 20
156.3868528539121
 10
96.58803438802564
 20
156.5222870104673
 10
96.6855472319605
 20
156.6775829242694
 10
96.92252408228407
 20
156.8552355076464
 10
97.33744898908774
 20
157.0577396729262
 10
114.8374489890881
 20
157.0577396729263
 10
114.8374489890881
 20
152.0577396729262
 10
97.33744898908842
 20
152.0577396729264
 10
96.94239105364179
 20
152.2166672314149
 10
96.74096258508663
 20
152.3558642264994
 10
96.69409420652911
 20
152.4788880322009
 10
96.76271654107493
 20
152.5892960225406
 10
96.90776021183044
 20
152.6906455715388
 10
97.09015584189964
 20
152.786494053222
 10
97.27083405439541
 20
152.8803988415956
 10
97.41072547241694
 20
152.9759173106958
 10
97.508928175563
 20
153.1168130114535
 10
97.45453544956896
 20
153.2871495087726
 10
97.39626590512509
 20
153.3964955428489
 10
97.33257402294563
 20
153.5069496533
 10
97.28206826144024
 20
153.6174960955287
 10
97.26335707901577
 20
153.7271191249433
 10
97.29504893408009
 20
153.8348029969518
 10
97.38886140516976
 20
153.9398141185668
 10
97.5289485513367
 20
154.0425475032245
 10
97.69257355176225
 20
154.1436803159649
 10
97.85699958562302
 20
154.2438897218331
 10
97.99948983210354
 20
154.3438528858664
 10
98.09730747038244
 20
154.4442469731083
 10
98.12771567964043
 20
154.5457491485997
 10
98.06797763905795
 20
154.6490365773822
 10
97.90396242459857
 20
154.7544478429665
 10
97.65596269936075
 20
154.8609672027393
 10
97.35287702322725
 20
154.9672403325563
 10
97.02360395607545
 20
155.0719129082759
 10
96.69704205779792
 20
155.1736306057495
 10
96.40208988826451
 20
155.2710391008379
 10
96.16764600736358
 20
155.3627840693952
 10
96.0226089749751
 20
155.4475111872777
 10
95.98669122219778
 20
155.5244201712494
 97
        0
 92
        7
 72
     0
 73
     1
 93
       50
 10
154.8374489890882
 20
157.0577396729265
 10
172.3374489890881
 20
157.0577396729264
 10
172.7523738958922
 20
156.8552355076463
 10
172.9893507462159
 20
156.6775829242694
 10
173.0868635901507
 20
156.5222870104672
 10
173.0833964777883
 20
156.3868528539122
 10
173.0174334592206
 20
156.2687855422764
 10
172.9274585845382
 20
156.165590163231
 10
172.8519559038352
 20
156.0747718044514
 10
172.8294094672006
 20
155.9938355536062
 10
172.8875196142416
 20
155.9203739968728
 10
173.0108518426243
 20
155.8523297144438
 10
173.173187939529
 20
155.787732785016
 10
173.3483096921363
 20
155.7246132872858
 10
173.5099988876264
 20
155.6610012999503
 10
173.6320373131804
 20
155.594926901706
 10
173.6882067559784
 20
155.5244201712495
 10
173.6522890032011
 20
155.4475111872777
 10
173.5072519708127
 20
155.3627840693953
 10
173.2728080899107
 20
155.2710391008377
 10
172.9778559203816
 20
155.1736306057502
 10
172.6512940220979
 20
155.0719129082759
 10
172.3220209549495
 20
154.9672403325564
 10
172.0189352788154
 20
154.8609672027391
 10
171.7709355535773
 20
154.7544478429665
 10
171.6069203391184
 20
154.6490365773823
 10
171.5471822985357
 20
154.5457491485996
 10
171.5775905077938
 20
154.4442469731083
 10
171.6754081460725
 20
154.3438528858667
 10
171.8178983925528
 20
154.2438897218332
 10
171.9823244264186
 20
154.143680315964
 10
172.1459494268397
 20
154.0425475032245
 10
172.2860365730064
 20
153.9398141185668
 10
172.3798490440963
 20
153.8348029969518
 10
172.4115408991605
 20
153.7271191249432
 10
172.392829716736
 20
153.6174960955285
 10
172.3423239552305
 20
153.5069496532996
 10
172.2786320730518
 20
153.3964955428503
 10
172.2203625286072
 20
153.2871495087725
 10
172.1659698026132
 20
153.1168130114535
 10
172.2641725057594
 20
152.9759173106958
 10
172.4040639237809
 20
152.8803988415956
 10
172.5847421362723
 20
152.786494053218
 10
172.7671377663458
 20
152.6906455715389
 10
172.9121814371012
 20
152.5892960225407
 10
172.9808037716471
 20
152.478888032201
 10
172.9339353930895
 20
152.3558642264994
 10
172.7325069245343
 20
152.2166672314149
 10
172.3374489890878
 20
152.0577396729264
 10
154.8374489890882
 20
152.0577396729263
 97
        0
 75
     0
 76
     1
 52
0.0
 41
20.0
 77
     0
 78
     1
 53
135.0
 43
193.1969537525331
 44
-554.296717527619
 45
1.767766952966368
 46
1.767766952966368
 79
     0
 47
0.1350417537953048
 98
        2
 10
28.27370746860944
 20
154.2419035301762
 10
84.3682991087264
 20
155.7273629303139
  0
LINE
  5
EF7C8964D
330
EF7C85532
100
AcDbEntity
  8
JISSEN
100
AcDbLine
 10
124.3571845037888
 20
152.057739672926
 30
0.0
 11
97.33744898908842
 21
152.0577396729264
 31
0.0
  0
LINE
  5
EF7C8964E
330
EF7C85532
100
AcDbEntity
  8
JISSEN
100
AcDbLine
 10
124.5134423123095
 20
157.0577396729263
 30
0.0
 11
97.33744898908774
 21
157.0577396729262
 31
0.0
  0
LINE
  5
EF7C8964F
330
EF7C85532
100
AcDbEntity
  8
JISSEN
100
AcDbLine
 10
172.3374489890877
 20
152.0577396729264
 30
0.0
 11
145.4548800302502
 21
152.0577396729263
 31
0.0
  0
LINE
  5
EF7C89650
330
EF7C85532
100
AcDbEntity
  8
JISSEN
100
AcDbLine
 10
145.2986222217296
 20
157.0577396729266
 30
0.0
 11
172.3374489890879
 21
157.0577396729264
 31
0.0
  0
POLYLINE
  5
EF7C89651
330
EF7C85532
100
AcDbEntity
  8
JISSEN
 62
     0
100
AcDb2dPolyline
 66
     1
 10
0.0
 20
0.0
 30
0.0
 70
     4
 75
     6
  0
VERTEX
  5
EF7C89652
330
EF7C89651
100
AcDbEntity
  8
JISSEN
 62
     0
100
AcDbVertex
100
AcDb2dVertex
 10
172.3374489890882
 20
157.0577396729264
 30
0.0
 70
    16
  0
VERTEX
  5
EF7C89653
330
EF7C89651
100
AcDbEntity
  8
JISSEN
 62
     0
100
AcDbVertex
100
AcDb2dVertex
 10
172.3374489890882
 20
157.0577396729264
 30
0.0
 70
     8
  0
VERTEX
  5
EF7C89654
330
EF7C89651
100
AcDbEntity
  8
JISSEN
 62
     0
100
AcDbVertex
100
AcDb2dVertex
 10
172.7523738958921
 20
156.8552355076463
 30
0.0
 70
     8
  0
VERTEX
  5
EF7C89655
330
EF7C89651
100
AcDbEntity
  8
JISSEN
 62
     0
100
AcDbVertex
100
AcDb2dVertex
 10
172.9893507462159
 20
156.6775829242693
 30
0.0
 70
     8
  0
VERTEX
  5
EF7C89656
330
EF7C89651
100
AcDbEntity
  8
JISSEN
 62
     0
100
AcDbVertex
100
AcDb2dVertex
 10
173.0868635901506
 20
156.5222870104672
 30
0.0
 70
     8
  0
VERTEX
  5
EF7C89657
330
EF7C89651
100
AcDbEntity
  8
JISSEN
 62
     0
100
AcDbVertex
100
AcDb2dVertex
 10
173.0833964777884
 20
156.3868528539121
 30
0.0
 70
     8
  0
VERTEX
  5
EF7C89658
330
EF7C89651
100
AcDbEntity
  8
JISSEN
 62
     0
100
AcDbVertex
100
AcDb2dVertex
 10
173.0174334592206
 20
156.2687855422765
 30
0.0
 70
     8
  0
VERTEX
  5
EF7C89659
330
EF7C89651
100
AcDbEntity
  8
JISSEN
 62
     0
100
AcDbVertex
100
AcDb2dVertex
 10
172.9274585845391
 20
156.1655901632321
 30
0.0
 70
     8
  0
VERTEX
  5
EF7C8965A
330
EF7C89651
100
AcDbEntity
  8
JISSEN
 62
     0
100
AcDbVertex
100
AcDb2dVertex
 10
172.8519559038352
 20
156.0747718044514
 30
0.0
 70
     8
  0
VERTEX
  5
EF7C8965B
330
EF7C89651
100
AcDbEntity
  8
JISSEN
 62
     0
100
AcDbVertex
100
AcDb2dVertex
 10
172.8294094672005
 20
155.9938355536062
 30
0.0
 70
     8
  0
VERTEX
  5
EF7C8965C
330
EF7C89651
100
AcDbEntity
  8
JISSEN
 62
     0
100
AcDbVertex
100
AcDb2dVertex
 10
172.8875196142416
 20
155.9203739968727
 30
0.0
 70
     8
  0
VERTEX
  5
EF7C8965D
330
EF7C89651
100
AcDbEntity
  8
JISSEN
 62
     0
100
AcDbVertex
100
AcDb2dVertex
 10
173.0108518426243
 20
155.8523297144438
 30
0.0
 70
     8
  0
VERTEX
  5
EF7C8965E
330
EF7C89651
100
AcDbEntity
  8
JISSEN
 62
     0
100
AcDbVertex
100
AcDb2dVertex
 10
173.173187939529
 20
155.787732785016
 30
0.0
 70
     8
  0
VERTEX
  5
EF7C8965F
330
EF7C89651
100
AcDbEntity
  8
JISSEN
 62
     0
100
AcDbVertex
100
AcDb2dVertex
 10
173.3483096921361
 20
155.7246132872858
 30
0.0
 70
     8
  0
VERTEX
  5
EF7C89660
330
EF7C89651
100
AcDbEntity
  8
JISSEN
 62
     0
100
AcDbVertex
100
AcDb2dVertex
 10
173.5099988876265
 20
155.6610012999503
 30
0.0
 70
     8
  0
VERTEX
  5
EF7C89661
330
EF7C89651
100
AcDbEntity
  8
JISSEN
 62
     0
100
AcDbVertex
100
AcDb2dVertex
 10
173.6320373131804
 20
155.594926901706
 30
0.0
 70
     8
  0
VERTEX
  5
EF7C89662
330
EF7C89651
100
AcDbEntity
  8
JISSEN
 62
     0
100
AcDbVertex
100
AcDb2dVertex
 10
173.6882067559784
 20
155.5244201712495
 30
0.0
 70
     8
  0
VERTEX
  5
EF7C89663
330
EF7C89651
100
AcDbEntity
  8
JISSEN
 62
     0
100
AcDbVertex
100
AcDb2dVertex
 10
173.6522890032013
 20
155.4475111872777
 30
0.0
 70
     8
  0
VERTEX
  5
EF7C89664
330
EF7C89651
100
AcDbEntity
  8
JISSEN
 62
     0
100
AcDbVertex
100
AcDb2dVertex
 10
173.5072519708128
 20
155.3627840693952
 30
0.0
 70
     8
  0
VERTEX
  5
EF7C89665
330
EF7C89651
100
AcDbEntity
  8
JISSEN
 62
     0
100
AcDbVertex
100
AcDb2dVertex
 10
173.2728080899116
 20
155.2710391008379
 30
0.0
 70
     8
  0
VERTEX
  5
EF7C89666
330
EF7C89651
100
AcDbEntity
  8
JISSEN
 62
     0
100
AcDbVertex
100
AcDb2dVertex
 10
172.9778559203793
 20
155.1736306057498
 30
0.0
 70
     8
  0
VERTEX
  5
EF7C89667
330
EF7C89651
100
AcDbEntity
  8
JISSEN
 62
     0
100
AcDbVertex
100
AcDb2dVertex
 10
172.6512940220979
 20
155.0719129082747
 30
0.0
 70
     8
  0
VERTEX
  5
EF7C89668
330
EF7C89651
100
AcDbEntity
  8
JISSEN
 62
     0
100
AcDbVertex
100
AcDb2dVertex
 10
172.3220209549492
 20
154.9672403325564
 30
0.0
 70
     8
  0
VERTEX
  5
EF7C89669
330
EF7C89651
100
AcDbEntity
  8
JISSEN
 62
     0
100
AcDbVertex
100
AcDb2dVertex
 10
172.0189352788151
 20
154.8609672027391
 30
0.0
 70
     8
  0
VERTEX
  5
EF7C8966A
330
EF7C89651
100
AcDbEntity
  8
JISSEN
 62
     0
100
AcDbVertex
100
AcDb2dVertex
 10
171.7709355535776
 20
154.7544478429664
 30
0.0
 70
     8
  0
VERTEX
  5
EF7C8966B
330
EF7C89651
100
AcDbEntity
  8
JISSEN
 62
     0
100
AcDbVertex
100
AcDb2dVertex
 10
171.6069203391184
 20
154.6490365773822
 30
0.0
 70
     8
  0
VERTEX
  5
EF7C8966C
330
EF7C89651
100
AcDbEntity
  8
JISSEN
 62
     0
100
AcDbVertex
100
AcDb2dVertex
 10
171.5471822985357
 20
154.5457491485997
 30
0.0
 70
     8
  0
VERTEX
  5
EF7C8966D
330
EF7C89651
100
AcDbEntity
  8
JISSEN
 62
     0
100
AcDbVertex
100
AcDb2dVertex
 10
171.5775905077937
 20
154.4442469731084
 30
0.0
 70
     8
  0
VERTEX
  5
EF7C8966E
330
EF7C89651
100
AcDbEntity
  8
JISSEN
 62
     0
100
AcDbVertex
100
AcDb2dVertex
 10
171.6754081460726
 20
154.3438528858665
 30
0.0
 70
     8
  0
VERTEX
  5
EF7C8966F
330
EF7C89651
100
AcDbEntity
  8
JISSEN
 62
     0
100
AcDbVertex
100
AcDb2dVertex
 10
171.8178983925531
 20
154.243889721833
 30
0.0
 70
     8
  0
VERTEX
  5
EF7C89670
330
EF7C89651
100
AcDbEntity
  8
JISSEN
 62
     0
100
AcDbVertex
100
AcDb2dVertex
 10
171.9823244264152
 20
154.1436803159661
 30
0.0
 70
     8
  0
VERTEX
  5
EF7C89671
330
EF7C89651
100
AcDbEntity
  8
JISSEN
 62
     0
100
AcDbVertex
100
AcDb2dVertex
 10
172.1459494268394
 20
154.0425475032245
 30
0.0
 70
     8
  0
VERTEX
  5
EF7C89672
330
EF7C89651
100
AcDbEntity
  8
JISSEN
 62
     0
100
AcDbVertex
100
AcDb2dVertex
 10
172.2860365730064
 20
153.9398141185668
 30
0.0
 70
     8
  0
VERTEX
  5
EF7C89673
330
EF7C89651
100
AcDbEntity
  8
JISSEN
 62
     0
100
AcDbVertex
100
AcDb2dVertex
 10
172.3798490440963
 20
153.8348029969518
 30
0.0
 70
     8
  0
VERTEX
  5
EF7C89674
330
EF7C89651
100
AcDbEntity
  8
JISSEN
 62
     0
100
AcDbVertex
100
AcDb2dVertex
 10
172.4115408991606
 20
153.7271191249433
 30
0.0
 70
     8
  0
VERTEX
  5
EF7C89675
330
EF7C89651
100
AcDbEntity
  8
JISSEN
 62
     0
100
AcDbVertex
100
AcDb2dVertex
 10
172.392829716736
 20
153.6174960955283
 30
0.0
 70
     8
  0
VERTEX
  5
EF7C89676
330
EF7C89651
100
AcDbEntity
  8
JISSEN
 62
     0
100
AcDbVertex
100
AcDb2dVertex
 10
172.3423239552305
 20
153.5069496532998
 30
0.0
 70
     8
  0
VERTEX
  5
EF7C89677
330
EF7C89651
100
AcDbEntity
  8
JISSEN
 62
     0
100
AcDbVertex
100
AcDb2dVertex
 10
172.2786320730515
 20
153.3964955428505
 30
0.0
 70
     8
  0
VERTEX
  5
EF7C89678
330
EF7C89651
100
AcDbEntity
  8
JISSEN
 62
     0
100
AcDbVertex
100
AcDb2dVertex
 10
172.2203625286072
 20
153.2871495087727
 30
0.0
 70
     8
  0
VERTEX
  5
EF7C89679
330
EF7C89651
100
AcDbEntity
  8
JISSEN
 62
     0
100
AcDbVertex
100
AcDb2dVertex
 10
172.1861237803052
 20
153.1799272956592
 30
0.0
 70
     8
  0
VERTEX
  5
EF7C8967A
330
EF7C89651
100
AcDbEntity
  8
JISSEN
 62
     0
100
AcDbVertex
100
AcDb2dVertex
 10
172.1945242865533
 20
153.0758446481028
 30
0.0
 70
     8
  0
VERTEX
  5
EF7C8967B
330
EF7C89651
100
AcDbEntity
  8
JISSEN
 62
     0
100
AcDbVertex
100
AcDb2dVertex
 10
172.2641725057594
 20
152.9759173106958
 30
0.0
 70
     8
  0
VERTEX
  5
EF7C8967C
330
EF7C89651
100
AcDbEntity
  8
JISSEN
 62
     0
100
AcDbVertex
100
AcDb2dVertex
 10
172.4040639237809
 20
152.8803988415956
 30
0.0
 70
     8
  0
VERTEX
  5
EF7C8967D
330
EF7C89651
100
AcDbEntity
  8
JISSEN
 62
     0
100
AcDbVertex
100
AcDb2dVertex
 10
172.5847421362743
 20
152.7864940532169
 30
0.0
 70
     8
  0
VERTEX
  5
EF7C8967E
330
EF7C89651
100
AcDbEntity
  8
JISSEN
 62
     0
100
AcDbVertex
100
AcDb2dVertex
 10
172.7671377663457
 20
152.690645571539
 30
0.0
 70
     8
  0
VERTEX
  5
EF7C8967F
330
EF7C89651
100
AcDbEntity
  8
JISSEN
 62
     0
100
AcDbVertex
100
AcDb2dVertex
 10
172.9121814371012
 20
152.5892960225406
 30
0.0
 70
     8
  0
VERTEX
  5
EF7C89680
330
EF7C89651
100
AcDbEntity
  8
JISSEN
 62
     0
100
AcDbVertex
100
AcDb2dVertex
 10
172.9808037716472
 20
152.4788880322009
 30
0.0
 70
     8
  0
VERTEX
  5
EF7C89681
330
EF7C89651
100
AcDbEntity
  8
JISSEN
 62
     0
100
AcDbVertex
100
AcDb2dVertex
 10
172.9339353930895
 20
152.3558642264994
 30
0.0
 70
     8
  0
VERTEX
  5
EF7C89682
330
EF7C89651
100
AcDbEntity
  8
JISSEN
 62
     0
100
AcDbVertex
100
AcDb2dVertex
 10
172.7325069245343
 20
152.2166672314149
 30
0.0
 70
     8
  0
VERTEX
  5
EF7C89683
330
EF7C89651
100
AcDbEntity
  8
JISSEN
 62
     0
100
AcDbVertex
100
AcDb2dVertex
 10
172.3374489890882
 20
152.0577396729265
 30
0.0
 70
     8
  0
VERTEX
  5
EF7C89684
330
EF7C89651
100
AcDbEntity
  8
JISSEN
 62
     0
100
AcDbVertex
100
AcDb2dVertex
 10
173.715387527065
 20
156.4823754231289
 30
0.0
 70
    16
  0
VERTEX
  5
EF7C89685
330
EF7C89651
100
AcDbEntity
  8
JISSEN
 62
     0
100
AcDbVertex
100
AcDb2dVertex
 10
171.8540463294839
 20
155.9150388004574
 30
0.0
 70
    16
  0
VERTEX
  5
EF7C89686
330
EF7C89651
100
AcDbEntity
  8
JISSEN
 62
     0
100
AcDbVertex
100
AcDb2dVertex
 10
174.9142133594118
 20
155.5368143853435
 30
0.0
 70
    16
  0
VERTEX
  5
EF7C89687
330
EF7C89651
100
AcDbEntity
  8
JISSEN
 62
     0
100
AcDbVertex
100
AcDb2dVertex
 10
170.4028342520759
 20
154.6227707818358
 30
0.0
 70
    16
  0
VERTEX
  5
EF7C89688
330
EF7C89651
100
AcDbEntity
  8
JISSEN
 62
     0
100
AcDbVertex
100
AcDb2dVertex
 10
173.115971666994
 20
153.8663219516075
 30
0.0
 70
    16
  0
VERTEX
  5
EF7C89689
330
EF7C89651
100
AcDbEntity
  8
JISSEN
 62
     0
100
AcDbVertex
100
AcDb2dVertex
 10
171.4123733445249
 20
152.9207593934444
 30
0.0
 70
    16
  0
VERTEX
  5
EF7C8968A
330
EF7C89651
100
AcDbEntity
  8
JISSEN
 62
     0
100
AcDbVertex
100
AcDb2dVertex
 10
173.6838377744834
 20
152.5110160236746
 30
0.0
 70
    16
  0
VERTEX
  5
EF7C8968B
330
EF7C89651
100
AcDbEntity
  8
JISSEN
 62
     0
100
AcDbVertex
100
AcDb2dVertex
 10
172.3374489890882
 20
152.0577396729264
 30
0.0
 70
    16
  0
SEQEND
  5
EF7C8968C
330
EF7C89651
100
AcDbEntity
  8
JISSEN
 62
     0
  0
LWPOLYLINE
  5
EF7C8968D
330
EF7C85532
100
AcDbEntity
  8
NITEN
100
AcDbPolyline
 90
       15
 70
     1
 43
0.0
 10
148.9060322670195
 20
152.1113029094276
 42
-0.4142135623730927
 10
147.4060322670195
 20
150.6113029094276
 10
124.3119810960229
 20
150.6113029094276
 10
122.4060322670194
 20
150.6113029094276
 42
-0.4142135623730925
 10
120.9060322670195
 20
152.1113029094276
 10
120.9060322670195
 20
163.1573189356456
 42
0.4142135623730943
 10
115.9060322670194
 20
168.1573189356456
 42
-0.4142135623730951
 10
113.9060322670194
 20
170.1573189356456
 10
113.9060322670195
 20
190.6113029094276
 42
-0.4142135623730948
 10
115.9060322670194
 20
192.6113029094276
 10
153.9060322670195
 20
192.6113029094276
 42
-0.4142135623730951
 10
155.9060322670195
 20
190.6113029094276
 10
155.9060322670195
 20
170.1573189356456
 42
-0.4142135623730951
 10
153.9060322670195
 20
168.1573189356456
 42
0.4142135623730961
 10
148.9060322670195
 20
163.1573189356456
  0
LINE
  5
EF7C8968E
330
EF7C85532
100
AcDbEntity
  8
JISSEN
100
AcDbLine
 10
144.9060322670195
 20
161.5007540037038
 30
0.0
 11
124.9060322670195
 21
161.5007540037038
 31
0.0
  0
LINE
  5
EF7C8968F
330
EF7C85532
100
AcDbEntity
  8
JISSEN
100
AcDbLine
 10
143.9060322670195
 20
162.5007540037038
 30
0.0
 11
125.9060322670195
 21
162.5007540037038
 31
0.0
  0
LWPOLYLINE
  5
EF7C89690
330
EF7C85532
100
AcDbEntity
  8
JISSEN
100
AcDbPolyline
 90
        4
 70
     1
 43
0.0
 10
146.4060322670195
 20
147.5007540037038
 10
123.4060322670195
 20
147.5007540037038
 10
123.4060322670195
 20
142.5007540037038
 10
146.4060322670195
 20
142.5007540037038
  0
LINE
  5
EF7C89691
330
EF7C85532
100
AcDbEntity
  8
JISSEN
100
AcDbLine
 10
145.2341572670195
 20
149.2507540037038
 30
0.0
 11
124.5779072670195
 21
149.2507540037038
 31
0.0
  0
ARC
  5
EF7C89692
330
EF7C85532
100
AcDbEntity
  8
JISSEN
100
AcDbCircle
 10
140.6560322670195
 20
133.2195040037038
 30
0.0
 40
14.28125000000001
100
AcDbArc
 50
68.43140426487472
 51
111.5685957351252
  0
ARC
  5
EF7C89693
330
EF7C85532
100
AcDbEntity
  8
JISSEN
100
AcDbCircle
 10
140.6560322670195
 20
156.7820040037038
 30
0.0
 40
14.28125
100
AcDbArc
 50
248.4314042648747
 51
291.5685957351252
  0
LINE
  5
EF7C89694
330
EF7C85532
100
AcDbEntity
  8
JISSEN
100
AcDbLine
 10
154.8374489890882
 20
152.0577396729264
 30
0.0
 11
154.8374489890882
 21
157.0577396729264
 31
0.0
  0
LINE
  5
EF7C89695
330
EF7C85532
100
AcDbEntity
  8
JISSEN
100
AcDbLine
 10
145.2810322670195
 20
147.5007540037038
 30
0.0
 11
144.9060322670195
 21
161.5007540037038
 31
0.0
  0
LINE
  5
EF7C89696
330
EF7C85532
100
AcDbEntity
  8
SAISEN
100
AcDbLine
 10
144.2609429813052
 20
149.2507540037038
 30
0.0
 11
143.9060322670195
 21
162.5007540037038
 31
0.0
  0
LINE
  5
EF7C89697
330
EF7C85532
100
AcDbEntity
  8
JISSEN
100
AcDbLine
 10
146.4060322670195
 20
146.5007540037038
 30
0.0
 11
145.9060322670195
 21
146.5007540037038
 31
0.0
  0
LINE
  5
EF7C89698
330
EF7C85532
100
AcDbEntity
  8
JISSEN
100
AcDbLine
 10
146.4060322670195
 20
143.5007540037038
 30
0.0
 11
145.9060322670195
 21
143.5007540037038
 31
0.0
  0
LINE
  5
EF7C89699
330
EF7C85532
100
AcDbEntity
  8
JISSEN
100
AcDbLine
 10
145.9060322670195
 20
146.5007540037038
 30
0.0
 11
145.9060322670195
 21
143.5007540037038
 31
0.0
  0
LINE
  5
EF7C8969A
330
EF7C85532
100
AcDbEntity
  8
SAISEN
100
AcDbLine
 10
145.2810322670195
 20
147.5007540037038
 30
0.0
 11
144.2609429813052
 21
149.2507540037038
 31
0.0
  0
LINE
  5
EF7C8969B
330
EF7C85532
100
AcDbEntity
  8
JISSEN
100
AcDbLine
 10
144.9060322670195
 20
161.5007540037038
 30
0.0
 11
143.9060322670195
 21
162.5007540037038
 31
0.0
  0
ARC
  5
EF7C8969C
330
EF7C85532
100
AcDbEntity
  8
JISSEN
100
AcDbCircle
 10
129.1560322670195
 20
133.219504003704
 30
0.0
 40
14.28124999999985
100
AcDbArc
 50
68.43140426487472
 51
111.5685957351252
  0
ARC
  5
EF7C8969D
330
EF7C85532
100
AcDbEntity
  8
JISSEN
100
AcDbCircle
 10
129.1560322670195
 20
156.7820040037039
 30
0.0
 40
14.28125000000001
100
AcDbArc
 50
248.4314042648747
 51
291.5685957351252
  0
LWPOLYLINE
  5
EF7C8969E
330
EF7C85532
100
AcDbEntity
  8
JISSEN
100
AcDbPolyline
 90
        4
 70
     1
 43
0.0
 10
135.4060322670195
 20
146.5007540037038
 10
134.4060322670195
 20
146.5007540037038
 10
134.4060322670195
 20
143.5007540037038
 10
135.4060322670195
 20
143.5007540037038
  0
LINE
  5
EF7C8969F
330
EF7C85532
100
AcDbEntity
  8
JISSEN
100
AcDbLine
 10
114.8374489890881
 20
157.0577396729264
 30
0.0
 11
114.8374489890881
 21
152.0577396729265
 31
0.0
  0
LINE
  5
EF7C896A0
330
EF7C85532
100
AcDbEntity
  8
JISSEN
100
AcDbLine
 10
124.9060322670195
 20
161.5007540037038
 30
0.0
 11
124.5310322670195
 21
147.5007540037038
 31
0.0
  0
LINE
  5
EF7C896A1
330
EF7C85532
100
AcDbEntity
  8
SAISEN
100
AcDbLine
 10
125.9060322670195
 20
162.5007540037038
 30
0.0
 11
125.5511215527338
 21
149.2507540037038
 31
0.0
  0
LINE
  5
EF7C896A2
330
EF7C85532
100
AcDbEntity
  8
JISSEN
100
AcDbLine
 10
123.9060322670195
 20
146.5007540037038
 30
0.0
 11
123.4060322670195
 21
146.5007540037038
 31
0.0
  0
LINE
  5
EF7C896A3
330
EF7C85532
100
AcDbEntity
  8
JISSEN
100
AcDbLine
 10
123.9060322670195
 20
143.5007540037038
 30
0.0
 11
123.4060322670195
 21
143.5007540037038
 31
0.0
  0
LINE
  5
EF7C896A4
330
EF7C85532
100
AcDbEntity
  8
JISSEN
100
AcDbLine
 10
123.9060322670195
 20
146.5007540037038
 30
0.0
 11
123.9060322670195
 21
143.5007540037038
 31
0.0
  0
LINE
  5
EF7C896A5
330
EF7C85532
100
AcDbEntity
  8
SAISEN
100
AcDbLine
 10
125.5511215527338
 20
149.2507540037038
 30
0.0
 11
124.5310322670195
 21
147.5007540037038
 31
0.0
  0
LINE
  5
EF7C896A6
330
EF7C85532
100
AcDbEntity
  8
JISSEN
100
AcDbLine
 10
125.9060322670195
 20
162.5007540037038
 30
0.0
 11
124.9060322670195
 21
161.5007540037038
 31
0.0
  0
LWPOLYLINE
  5
EF7C896A7
330
EF7C85532
100
AcDbEntity
  8
NITEN
100
AcDbPolyline
 90
        5
 70
     0
 43
0.0
 10
117.9060322670195
 20
192.6113029094276
 10
117.9060322670195
 20
213.4490205605735
 42
0.5882352941176475
 10
134.9060322670194
 20
213.4490205605735
 42
-0.5882352941176476
 10
151.9060322670195
 20
213.4490205605732
 10
151.9060322670195
 20
192.6113029094276
  0
LWPOLYLINE
  5
EF7C896A8
330
EF7C85532
100
AcDbEntity
  8
NITEN
100
AcDbPolyline
 90
        2
 70
     0
 43
0.0
 10
117.9060322670194
 20
213.4490205605735
 42
-0.5882352941176294
 10
134.9060322670195
 20
213.4490205605737
 42
-0.5882352941176294
  0
POLYLINE
  5
EF7C896A9
330
EF7C85532
100
AcDbEntity
  8
JISSEN
 62
     0
100
AcDb2dPolyline
 66
     1
 10
0.0
 20
0.0
 30
0.0
 70
     4
 75
     6
  0
VERTEX
  5
EF7C896AA
330
EF7C896A9
100
AcDbEntity
  8
JISSEN
 62
     0
100
AcDbVertex
100
AcDb2dVertex
 10
97.33744898908819
 20
157.0577396729264
 30
0.0
 70
    16
  0
VERTEX
  5
EF7C896AB
330
EF7C896A9
100
AcDbEntity
  8
JISSEN
 62
     0
100
AcDbVertex
100
AcDb2dVertex
 10
97.33744898908819
 20
157.0577396729264
 30
0.0
 70
     8
  0
VERTEX
  5
EF7C896AC
330
EF7C896A9
100
AcDbEntity
  8
JISSEN
 62
     0
100
AcDbVertex
100
AcDb2dVertex
 10
96.92252408228407
 20
156.8552355076463
 30
0.0
 70
     8
  0
VERTEX
  5
EF7C896AD
330
EF7C896A9
100
AcDbEntity
  8
JISSEN
 62
     0
100
AcDbVertex
100
AcDb2dVertex
 10
96.6855472319605
 20
156.6775829242693
 30
0.0
 70
     8
  0
VERTEX
  5
EF7C896AE
330
EF7C896A9
100
AcDbEntity
  8
JISSEN
 62
     0
100
AcDbVertex
100
AcDb2dVertex
 10
96.58803438802554
 20
156.5222870104672
 30
0.0
 70
     8
  0
VERTEX
  5
EF7C896AF
330
EF7C896A9
100
AcDbEntity
  8
JISSEN
 62
     0
100
AcDbVertex
100
AcDb2dVertex
 10
96.59150150038792
 20
156.3868528539121
 30
0.0
 70
     8
  0
VERTEX
  5
EF7C896B0
330
EF7C896A9
100
AcDbEntity
  8
JISSEN
 62
     0
100
AcDbVertex
100
AcDb2dVertex
 10
96.6574645189555
 20
156.2687855422765
 30
0.0
 70
     8
  0
VERTEX
  5
EF7C896B1
330
EF7C896A9
100
AcDbEntity
  8
JISSEN
 62
     0
100
AcDbVertex
100
AcDb2dVertex
 10
96.74743939363722
 20
156.1655901632321
 30
0.0
 70
     8
  0
VERTEX
  5
EF7C896B2
330
EF7C896A9
100
AcDbEntity
  8
JISSEN
 62
     0
100
AcDbVertex
100
AcDb2dVertex
 10
96.82294207434118
 20
156.0747718044514
 30
0.0
 70
     8
  0
VERTEX
  5
EF7C896B3
330
EF7C896A9
100
AcDbEntity
  8
JISSEN
 62
     0
100
AcDbVertex
100
AcDb2dVertex
 10
96.84548851097563
 20
155.9938355536062
 30
0.0
 70
     8
  0
VERTEX
  5
EF7C896B4
330
EF7C896A9
100
AcDbEntity
  8
JISSEN
 62
     0
100
AcDbVertex
100
AcDb2dVertex
 10
96.7873783639345
 20
155.9203739968727
 30
0.0
 70
     8
  0
VERTEX
  5
EF7C896B5
330
EF7C896A9
100
AcDbEntity
  8
JISSEN
 62
     0
100
AcDbVertex
100
AcDb2dVertex
 10
96.66404613555185
 20
155.8523297144438
 30
0.0
 70
     8
  0
VERTEX
  5
EF7C896B6
330
EF7C896A9
100
AcDbEntity
  8
JISSEN
 62
     0
100
AcDbVertex
100
AcDb2dVertex
 10
96.50171003864736
 20
155.787732785016
 30
0.0
 70
     8
  0
VERTEX
  5
EF7C896B7
330
EF7C896A9
100
AcDbEntity
  8
JISSEN
 62
     0
100
AcDbVertex
100
AcDb2dVertex
 10
96.32658828604006
 20
155.7246132872858
 30
0.0
 70
     8
  0
VERTEX
  5
EF7C896B8
330
EF7C896A9
100
AcDbEntity
  8
JISSEN
 62
     0
100
AcDbVertex
100
AcDb2dVertex
 10
96.16489909054983
 20
155.6610012999503
 30
0.0
 70
     8
  0
VERTEX
  5
EF7C896B9
330
EF7C896A9
100
AcDbEntity
  8
JISSEN
 62
     0
100
AcDbVertex
100
AcDb2dVertex
 10
96.04286066499591
 20
155.594926901706
 30
0.0
 70
     8
  0
VERTEX
  5
EF7C896BA
330
EF7C896A9
100
AcDbEntity
  8
JISSEN
 62
     0
100
AcDbVertex
100
AcDb2dVertex
 10
95.98669122219778
 20
155.5244201712495
 30
0.0
 70
     8
  0
VERTEX
  5
EF7C896BB
330
EF7C896A9
100
AcDbEntity
  8
JISSEN
 62
     0
100
AcDbVertex
100
AcDb2dVertex
 10
96.0226089749751
 20
155.4475111872777
 30
0.0
 70
     8
  0
VERTEX
  5
EF7C896BC
330
EF7C896A9
100
AcDbEntity
  8
JISSEN
 62
     0
100
AcDbVertex
100
AcDb2dVertex
 10
96.16764600736335
 20
155.3627840693952
 30
0.0
 70
     8
  0
VERTEX
  5
EF7C896BD
330
EF7C896A9
100
AcDbEntity
  8
JISSEN
 62
     0
100
AcDbVertex
100
AcDb2dVertex
 10
96.40208988826472
 20
155.2710391008379
 30
0.0
 70
     8
  0
VERTEX
  5
EF7C896BE
330
EF7C896A9
100
AcDbEntity
  8
JISSEN
 62
     0
100
AcDbVertex
100
AcDb2dVertex
 10
96.69704205779702
 20
155.1736306057498
 30
0.0
 70
     8
  0
VERTEX
  5
EF7C896BF
330
EF7C896A9
100
AcDbEntity
  8
JISSEN
 62
     0
100
AcDbVertex
100
AcDb2dVertex
 10
97.0236039560784
 20
155.0719129082747
 30
0.0
 70
     8
  0
VERTEX
  5
EF7C896C0
330
EF7C896A9
100
AcDbEntity
  8
JISSEN
 62
     0
100
AcDbVertex
100
AcDb2dVertex
 10
97.35287702322692
 20
154.9672403325564
 30
0.0
 70
     8
  0
VERTEX
  5
EF7C896C1
330
EF7C896A9
100
AcDbEntity
  8
JISSEN
 62
     0
100
AcDbVertex
100
AcDb2dVertex
 10
97.6559626993612
 20
154.8609672027391
 30
0.0
 70
     8
  0
VERTEX
  5
EF7C896C2
330
EF7C896A9
100
AcDbEntity
  8
JISSEN
 62
     0
100
AcDbVertex
100
AcDb2dVertex
 10
97.90396242459857
 20
154.7544478429664
 30
0.0
 70
     8
  0
VERTEX
  5
EF7C896C3
330
EF7C896A9
100
AcDbEntity
  8
JISSEN
 62
     0
100
AcDbVertex
100
AcDb2dVertex
 10
98.06797763905795
 20
154.6490365773822
 30
0.0
 70
     8
  0
VERTEX
  5
EF7C896C4
330
EF7C896A9
100
AcDbEntity
  8
JISSEN
 62
     0
100
AcDbVertex
100
AcDb2dVertex
 10
98.12771567964043
 20
154.5457491485997
 30
0.0
 70
     8
  0
VERTEX
  5
EF7C896C5
330
EF7C896A9
100
AcDbEntity
  8
JISSEN
 62
     0
100
AcDbVertex
100
AcDb2dVertex
 10
98.09730747038244
 20
154.4442469731084
 30
0.0
 70
     8
  0
VERTEX
  5
EF7C896C6
330
EF7C896A9
100
AcDbEntity
  8
JISSEN
 62
     0
100
AcDbVertex
100
AcDb2dVertex
 10
97.99948983210354
 20
154.3438528858665
 30
0.0
 70
     8
  0
VERTEX
  5
EF7C896C7
330
EF7C896A9
100
AcDbEntity
  8
JISSEN
 62
     0
100
AcDbVertex
100
AcDb2dVertex
 10
97.85699958562325
 20
154.243889721833
 30
0.0
 70
     8
  0
VERTEX
  5
EF7C896C8
330
EF7C896A9
100
AcDbEntity
  8
JISSEN
 62
     0
100
AcDbVertex
100
AcDb2dVertex
 10
97.69257355176112
 20
154.1436803159661
 30
0.0
 70
     8
  0
VERTEX
  5
EF7C896C9
330
EF7C896A9
100
AcDbEntity
  8
JISSEN
 62
     0
100
AcDbVertex
100
AcDb2dVertex
 10
97.5289485513367
 20
154.0425475032245
 30
0.0
 70
     8
  0
VERTEX
  5
EF7C896CA
330
EF7C896A9
100
AcDbEntity
  8
JISSEN
 62
     0
100
AcDbVertex
100
AcDb2dVertex
 10
97.38886140516976
 20
153.9398141185668
 30
0.0
 70
     8
  0
VERTEX
  5
EF7C896CB
330
EF7C896A9
100
AcDbEntity
  8
JISSEN
 62
     0
100
AcDbVertex
100
AcDb2dVertex
 10
97.29504893408009
 20
153.8348029969518
 30
0.0
 70
     8
  0
VERTEX
  5
EF7C896CC
330
EF7C896A9
100
AcDbEntity
  8
JISSEN
 62
     0
100
AcDbVertex
100
AcDb2dVertex
 10
97.26335707901577
 20
153.7271191249433
 30
0.0
 70
     8
  0
VERTEX
  5
EF7C896CD
330
EF7C896A9
100
AcDbEntity
  8
JISSEN
 62
     0
100
AcDbVertex
100
AcDb2dVertex
 10
97.28206826144035
 20
153.6174960955283
 30
0.0
 70
     8
  0
VERTEX
  5
EF7C896CE
330
EF7C896A9
100
AcDbEntity
  8
JISSEN
 62
     0
100
AcDbVertex
100
AcDb2dVertex
 10
97.33257402294587
 20
153.5069496532998
 30
0.0
 70
     8
  0
VERTEX
  5
EF7C896CF
330
EF7C896A9
100
AcDbEntity
  8
JISSEN
 62
     0
100
AcDbVertex
100
AcDb2dVertex
 10
97.39626590512465
 20
153.3964955428505
 30
0.0
 70
     8
  0
VERTEX
  5
EF7C896D0
330
EF7C896A9
100
AcDbEntity
  8
JISSEN
 62
     0
100
AcDbVertex
100
AcDb2dVertex
 10
97.45453544956896
 20
153.2871495087727
 30
0.0
 70
     8
  0
VERTEX
  5
EF7C896D1
330
EF7C896A9
100
AcDbEntity
  8
JISSEN
 62
     0
100
AcDbVertex
100
AcDb2dVertex
 10
97.48877419787092
 20
153.1799272956592
 30
0.0
 70
     8
  0
VERTEX
  5
EF7C896D2
330
EF7C896A9
100
AcDbEntity
  8
JISSEN
 62
     0
100
AcDbVertex
100
AcDb2dVertex
 10
97.48037369162283
 20
153.0758446481028
 30
0.0
 70
     8
  0
VERTEX
  5
EF7C896D3
330
EF7C896A9
100
AcDbEntity
  8
JISSEN
 62
     0
100
AcDbVertex
100
AcDb2dVertex
 10
97.41072547241694
 20
152.9759173106958
 30
0.0
 70
     8
  0
VERTEX
  5
EF7C896D4
330
EF7C896A9
100
AcDbEntity
  8
JISSEN
 62
     0
100
AcDbVertex
100
AcDb2dVertex
 10
97.27083405439541
 20
152.8803988415956
 30
0.0
 70
     8
  0
VERTEX
  5
EF7C896D5
330
EF7C896A9
100
AcDbEntity
  8
JISSEN
 62
     0
100
AcDbVertex
100
AcDb2dVertex
 10
97.09015584190204
 20
152.7864940532169
 30
0.0
 70
     8
  0
VERTEX
  5
EF7C896D6
330
EF7C896A9
100
AcDbEntity
  8
JISSEN
 62
     0
100
AcDbVertex
100
AcDb2dVertex
 10
96.90776021183044
 20
152.690645571539
 30
0.0
 70
     8
  0
VERTEX
  5
EF7C896D7
330
EF7C896A9
100
AcDbEntity
  8
JISSEN
 62
     0
100
AcDbVertex
100
AcDb2dVertex
 10
96.76271654107493
 20
152.5892960225406
 30
0.0
 70
     8
  0
VERTEX
  5
EF7C896D8
330
EF7C896A9
100
AcDbEntity
  8
JISSEN
 62
     0
100
AcDbVertex
100
AcDb2dVertex
 10
96.69409420652911
 20
152.4788880322009
 30
0.0
 70
     8
  0
VERTEX
  5
EF7C896D9
330
EF7C896A9
100
AcDbEntity
  8
JISSEN
 62
     0
100
AcDbVertex
100
AcDb2dVertex
 10
96.74096258508663
 20
152.3558642264994
 30
0.0
 70
     8
  0
VERTEX
  5
EF7C896DA
330
EF7C896A9
100
AcDbEntity
  8
JISSEN
 62
     0
100
AcDbVertex
100
AcDb2dVertex
 10
96.94239105364179
 20
152.2166672314149
 30
0.0
 70
     8
  0
VERTEX
  5
EF7C896DB
330
EF7C896A9
100
AcDbEntity
  8
JISSEN
 62
     0
100
AcDbVertex
100
AcDb2dVertex
 10
97.33744898908819
 20
152.0577396729265
 30
0.0
 70
     8
  0
VERTEX
  5
EF7C896DC
330
EF7C896A9
100
AcDbEntity
  8
JISSEN
 62
     0
100
AcDbVertex
100
AcDb2dVertex
 10
95.95951045111107
 20
156.4823754231289
 30
0.0
 70
    16
  0
VERTEX
  5
EF7C896DD
330
EF7C896A9
100
AcDbEntity
  8
JISSEN
 62
     0
100
AcDbVertex
100
AcDb2dVertex
 10
97.82085164869224
 20
155.9150388004574
 30
0.0
 70
    16
  0
VERTEX
  5
EF7C896DE
330
EF7C896A9
100
AcDbEntity
  8
JISSEN
 62
     0
100
AcDbVertex
100
AcDb2dVertex
 10
94.76068461876431
 20
155.5368143853435
 30
0.0
 70
    16
  0
VERTEX
  5
EF7C896DF
330
EF7C896A9
100
AcDbEntity
  8
JISSEN
 62
     0
100
AcDbVertex
100
AcDb2dVertex
 10
99.27206372610019
 20
154.6227707818358
 30
0.0
 70
    16
  0
VERTEX
  5
EF7C896E0
330
EF7C896A9
100
AcDbEntity
  8
JISSEN
 62
     0
100
AcDbVertex
100
AcDb2dVertex
 10
96.55892631118215
 20
153.8663219516075
 30
0.0
 70
    16
  0
VERTEX
  5
EF7C896E1
330
EF7C896A9
100
AcDbEntity
  8
JISSEN
 62
     0
100
AcDbVertex
100
AcDb2dVertex
 10
98.26252463365129
 20
152.9207593934444
 30
0.0
 70
    16
  0
VERTEX
  5
EF7C896E2
330
EF7C896A9
100
AcDbEntity
  8
JISSEN
 62
     0
100
AcDbVertex
100
AcDb2dVertex
 10
95.99106020369275
 20
152.5110160236746
 30
0.0
 70
    16
  0
VERTEX
  5
EF7C896E3
330
EF7C896A9
100
AcDbEntity
  8
JISSEN
 62
     0
100
AcDbVertex
100
AcDb2dVertex
 10
97.33744898908819
 20
152.0577396729264
 30
0.0
 70
    16
  0
SEQEND
  5
EF7C896E4
330
EF7C896A9
100
AcDbEntity
  8
JISSEN
 62
     0
  0
LINE
  5
EF7C89726
330
EF7C85532
100
AcDbEntity
  8
JISSEN
100
AcDbLine
 10
50.65603226701955
 20
146.5007540037038
 30
0.0
 11
50.15603226701958
 21
146.5007540037038
 31
0.0
  0
LINE
  5
EF7C89727
330
EF7C85532
100
AcDbEntity
  8
JISSEN
100
AcDbLine
 10
50.65603226701952
 20
143.5007540037038
 30
0.0
 11
50.15603226701955
 21
143.5007540037038
 31
0.0
  0
LINE
  5
EF7C89728
330
EF7C85532
100
AcDbEntity
  8
JISSEN
100
AcDbLine
 10
50.15603226701955
 20
146.5007540037038
 30
0.0
 11
50.15603226701955
 21
143.5007540037038
 31
0.0
  0
LINE
  5
EF7C89729
330
EF7C85532
100
AcDbEntity
  8
JISSEN
100
AcDbLine
 10
56.40603226701955
 20
146.5007540037038
 30
0.0
 11
56.40603226701955
 21
143.5007540037038
 31
0.0
  0
ARC
  5
EF7C8972C
330
EF7C85532
100
AcDbEntity
  8
JISSEN
100
AcDbCircle
 10
53.53103226701955
 20
142.8679415037039
 30
0.0
 40
4.632812500000004
100
AcDbArc
 50
51.64198394837856
 51
128.3580160516214
  0
ARC
  5
EF7C8972E
330
EF7C85532
100
AcDbEntity
  8
JISSEN
100
AcDbCircle
 10
53.53103226701955
 20
147.1335665037038
 30
0.0
 40
4.632812500000004
100
AcDbArc
 50
231.6419839483785
 51
308.3580160516214
  0
LINE
  5
EF7C8972F
330
EF7C85532
100
AcDbEntity
  8
JISSEN
100
AcDbLine
 10
50.65603226701956
 20
146.5007540037038
 30
0.0
 11
50.65603226701952
 21
143.5007540037038
 31
0.0
  0
ARC
  5
EF7C89730
330
EF7C85532
100
AcDbEntity
  8
JISSEN
100
AcDbCircle
 10
36.28103226701955
 20
142.8679415037039
 30
0.0
 40
4.632812500000004
100
AcDbArc
 50
51.64198394837857
 51
128.3580160516214
  0
ARC
  5
EF7C89731
330
EF7C85532
100
AcDbEntity
  8
JISSEN
100
AcDbCircle
 10
36.28103226701955
 20
147.1335665037038
 30
0.0
 40
4.632812500000004
100
AcDbArc
 50
231.6419839483785
 51
308.3580160516214
  0
LINE
  5
EF7C89732
330
EF7C85532
100
AcDbEntity
  8
JISSEN
100
AcDbLine
 10
39.15603226701955
 20
146.5007540037038
 30
0.0
 11
39.15603226701958
 21
143.5007540037038
 31
0.0
  0
ENDSEC
  0
SECTION
  2
OBJECTS
  0
DICTIONARY
  5
EF7C85527
330
0
100
AcDbDictionary
  3
ACAD_GROUP
350
EF7C85528
  3
ACAD_LAYOUT
350
EF7C85BB7
  3
ACAD_MLINESTYLE
350
EF7C85535
  3
ACAD_PLOTSETTINGS
350
EF7C85BB8
  3
ACAD_PLOTSTYLENAME
350
EF7C85BB5
  3
ACDBHEADERROUNDTRIPXREC
350
EF7C89777
  3
ACDBVARIABLEDICTIONARY
350
EF7C85DB7
  0
DICTIONARY
  5
EF7C85D9A
330
EF7C85532
100
AcDbDictionary
280
     1
  3
ACAD_LAYOUTSELFREF
360
EF7C89799
  0
DICTIONARY
  5
EF7C85D98
330
EF7C8552F
100
AcDbDictionary
280
     1
  3
ACAD_LAYOUTSELFREF
360
EF7C89798
  0
DICTIONARY
  5
EF7C85528
102
{ACAD_REACTORS
330
EF7C85527
102
}
330
EF7C85527
100
AcDbDictionary
  0
DICTIONARY
  5
EF7C85BB7
102
{ACAD_REACTORS
330
EF7C85527
102
}
330
EF7C85527
100
AcDbDictionary
  0
DICTIONARY
  5
EF7C85535
102
{ACAD_REACTORS
330
EF7C85527
102
}
330
EF7C85527
100
AcDbDictionary
  3
STANDARD
350
EF7C85536
  0
DICTIONARY
  5
EF7C85BB8
102
{ACAD_REACTORS
330
EF7C85527
102
}
330
EF7C85527
100
AcDbDictionary
  0
ACDBDICTIONARYWDFLT
  5
EF7C85BB5
102
{ACAD_REACTORS
330
EF7C85527
102
}
330
EF7C85527
100
AcDbDictionary
281
     1
  3
Normal
350
EF7C85BB6
100
AcDbDictionaryWithDefault
340
EF7C85BB6
  0
DICTIONARY
  5
EF7C89777
102
{ACAD_REACTORS
330
EF7C85527
102
}
330
EF7C85527
100
AcDbDictionary
  3
CEPSNTYPE
350
EF7C89781
  3
DIMSTYLEDATA
350
EF7C89785
  3
FINGERPRINTGUID
350
EF7C89782
  3
HYPERLINKBASE
350
EF7C8977A
  3
INSUNITS
350
EF7C89780
  3
LAYOUTDICT
350
EF7C8977C
  3
LWETCUNION
350
EF7C8977F
  3
PLOTSETDICT
350
EF7C8977D
  3
PLOTSTYLNAMDICT
350
EF7C8977E
  3
PSVPSCALE
350
EF7C89784
  3
PUCSBASE
350
EF7C89788
  3
PUCSORGBACK
350
EF7C8978E
  3
PUCSORGBOTTOM
350
EF7C8978A
  3
PUCSORGFRONT
350
EF7C8978D
  3
PUCSORGLEFT
350
EF7C8978B
  3
PUCSORGRIGHT
350
EF7C8978C
  3
PUCSORGTOP
350
EF7C89789
  3
PUCSORTHOREF
350
EF7C89786
  3
PUCSORTHOVIEW
350
EF7C89787
  3
STYLESHEET
350
EF7C8977B
  3
TSTACKALIGN
350
EF7C89778
  3
TSTACKSIZE
350
EF7C89779
  3
UCSBASE
350
EF7C89791
  3
UCSORGBACK
350
EF7C89797
  3
UCSORGBOTTOM
350
EF7C89793
  3
UCSORGFRONT
350
EF7C89796
  3
UCSORGLEFT
350
EF7C89794
  3
UCSORGRIGHT
350
EF7C89795
  3
UCSORGTOP
350
EF7C89792
  3
UCSORTHOREF
350
EF7C8978F
  3
UCSORTHOVIEW
350
EF7C89790
  3
VERSIONGUID
350
EF7C89783
  0
DICTIONARY
  5
EF7C85DB7
102
{ACAD_REACTORS
330
EF7C85527
102
}
330
EF7C85527
100
AcDbDictionary
  3
DIMASSOC
350
EF7C89775
  3
SORTENTS
350
EF7C85DB8
  0
XRECORD
  5
EF7C89799
102
{ACAD_REACTORS
330
EF7C85D9A
102
}
330
EF7C85D9A
100
AcDbXrecord
340
EF7C85532
  0
XRECORD
  5
EF7C89798
102
{ACAD_REACTORS
330
EF7C85D98
102
}
330
EF7C85D98
100
AcDbXrecord
340
EF7C8552F
  0
MLINESTYLE
  5
EF7C85536
102
{ACAD_REACTORS
330
EF7C85535
102
}
330
EF7C85535
100
AcDbMlineStyle
  2
STANDARD
 70
     0
  3

 62
   256
 51
90.0
 52
90.0
 71
     2
 49
0.5
 62
   256
  6
BYLAYER
 49
-0.5
 62
   256
  6
BYLAYER
  0
ACDBPLACEHOLDER
  5
EF7C85BB6
102
{ACAD_REACTORS
330
EF7C85BB5
102
}
330
EF7C85BB5
100
AcDbPlaceHolder
280
     0
  0
XRECORD
  5
EF7C89781
102
{ACAD_REACTORS
330
EF7C89777
102
}
330
EF7C89777
100
AcDbXrecord
 90
        0
  0
XRECORD
  5
EF7C89785
102
{ACAD_REACTORS
330
EF7C89777
102
}
330
EF7C89777
100
AcDbXrecord
1000
DSTYLE
1002
{
1070
   279
 70
     2
1070
   341
340
EF7C85537
1070
   342
340
EF7C85537
1070
   343
340
EF7C85543
1070
   344
340
EF7C85543
1002
}
  0
XRECORD
  5
EF7C89782
102
{ACAD_REACTORS
330
EF7C89777
102
}
330
EF7C89777
100
AcDbXrecord
  1
{09AA4C7A-3D6F-4857-A850-771461888CEC}
  0
XRECORD
  5
EF7C8977A
102
{ACAD_REACTORS
330
EF7C89777
102
}
330
EF7C89777
100
AcDbXrecord
  1

  0
XRECORD
  5
EF7C89780
102
{ACAD_REACTORS
330
EF7C89777
102
}
330
EF7C89777
100
AcDbXrecord
 90
        0
  0
XRECORD
  5
EF7C8977C
102
{ACAD_REACTORS
330
EF7C89777
102
}
330
EF7C89777
100
AcDbXrecord
340
EF7C85BB7
  0
XRECORD
  5
EF7C8977F
102
{ACAD_REACTORS
330
EF7C89777
102
}
330
EF7C89777
100
AcDbXrecord
 90
    14877
  0
XRECORD
  5
EF7C8977D
102
{ACAD_REACTORS
330
EF7C89777
102
}
330
EF7C89777
100
AcDbXrecord
340
EF7C85BB8
  0
XRECORD
  5
EF7C8977E
102
{ACAD_REACTORS
330
EF7C89777
102
}
330
EF7C89777
100
AcDbXrecord
340
EF7C85BB5
  0
XRECORD
  5
EF7C89784
102
{ACAD_REACTORS
330
EF7C89777
102
}
330
EF7C89777
100
AcDbXrecord
 40
0.0
  0
XRECORD
  5
EF7C89788
102
{ACAD_REACTORS
330
EF7C89777
102
}
330
EF7C89777
100
AcDbXrecord
340
0
  0
XRECORD
  5
EF7C8978E
102
{ACAD_REACTORS
330
EF7C89777
102
}
330
EF7C89777
100
AcDbXrecord
 10
0.0
 20
0.0
 30
0.0
  0
XRECORD
  5
EF7C8978A
102
{ACAD_REACTORS
330
EF7C89777
102
}
330
EF7C89777
100
AcDbXrecord
 10
0.0
 20
0.0
 30
0.0
  0
XRECORD
  5
EF7C8978D
102
{ACAD_REACTORS
330
EF7C89777
102
}
330
EF7C89777
100
AcDbXrecord
 10
0.0
 20
0.0
 30
0.0
  0
XRECORD
  5
EF7C8978B
102
{ACAD_REACTORS
330
EF7C89777
102
}
330
EF7C89777
100
AcDbXrecord
 10
0.0
 20
0.0
 30
0.0
  0
XRECORD
  5
EF7C8978C
102
{ACAD_REACTORS
330
EF7C89777
102
}
330
EF7C89777
100
AcDbXrecord
 10
0.0
 20
0.0
 30
0.0
  0
XRECORD
  5
EF7C89789
102
{ACAD_REACTORS
330
EF7C89777
102
}
330
EF7C89777
100
AcDbXrecord
 10
0.0
 20
0.0
 30
0.0
  0
XRECORD
  5
EF7C89786
102
{ACAD_REACTORS
330
EF7C89777
102
}
330
EF7C89777
100
AcDbXrecord
340
0
  0
XRECORD
  5
EF7C89787
102
{ACAD_REACTORS
330
EF7C89777
102
}
330
EF7C89777
100
AcDbXrecord
 70
     0
  0
XRECORD
  5
EF7C8977B
102
{ACAD_REACTORS
330
EF7C89777
102
}
330
EF7C89777
100
AcDbXrecord
  1

  0
XRECORD
  5
EF7C89778
102
{ACAD_REACTORS
330
EF7C89777
102
}
330
EF7C89777
100
AcDbXrecord
 90
        1
  0
XRECORD
  5
EF7C89779
102
{ACAD_REACTORS
330
EF7C89777
102
}
330
EF7C89777
100
AcDbXrecord
 90
       70
  0
XRECORD
  5
EF7C89791
102
{ACAD_REACTORS
330
EF7C89777
102
}
330
EF7C89777
100
AcDbXrecord
340
0
  0
XRECORD
  5
EF7C89797
102
{ACAD_REACTORS
330
EF7C89777
102
}
330
EF7C89777
100
AcDbXrecord
 10
0.0
 20
0.0
 30
0.0
  0
XRECORD
  5
EF7C89793
102
{ACAD_REACTORS
330
EF7C89777
102
}
330
EF7C89777
100
AcDbXrecord
 10
0.0
 20
0.0
 30
0.0
  0
XRECORD
  5
EF7C89796
102
{ACAD_REACTORS
330
EF7C89777
102
}
330
EF7C89777
100
AcDbXrecord
 10
0.0
 20
0.0
 30
0.0
  0
XRECORD
  5
EF7C89794
102
{ACAD_REACTORS
330
EF7C89777
102
}
330
EF7C89777
100
AcDbXrecord
 10
0.0
 20
0.0
 30
0.0
  0
XRECORD
  5
EF7C89795
102
{ACAD_REACTORS
330
EF7C89777
102
}
330
EF7C89777
100
AcDbXrecord
 10
0.0
 20
0.0
 30
0.0
  0
XRECORD
  5
EF7C89792
102
{ACAD_REACTORS
330
EF7C89777
102
}
330
EF7C89777
100
AcDbXrecord
 10
0.0
 20
0.0
 30
0.0
  0
XRECORD
  5
EF7C8978F
102
{ACAD_REACTORS
330
EF7C89777
102
}
330
EF7C89777
100
AcDbXrecord
340
0
  0
XRECORD
  5
EF7C89790
102
{ACAD_REACTORS
330
EF7C89777
102
}
330
EF7C89777
100
AcDbXrecord
 70
     0
  0
XRECORD
  5
EF7C89783
102
{ACAD_REACTORS
330
EF7C89777
102
}
330
EF7C89777
100
AcDbXrecord
  1
{2C81A433-750A-4517-859A-594A3792E6FE}
  0
DICTIONARYVAR
  5
EF7C89775
102
{ACAD_REACTORS
330
EF7C85DB7
102
}
330
EF7C85DB7
100
DictionaryVariables
280
     0
  1
0
  0
DICTIONARYVAR
  5
EF7C85DB8
102
{ACAD_REACTORS
330
EF7C85DB7
102
}
330
EF7C85DB7
100
DictionaryVariables
280
     0
  1
96
  0
ENDSEC
  0
EOF
