  0
SECTION
  2
HEADER
  9
$ACADVER
  1
AC1014
  9
$ACADMAINTVER
 70
     9
  9
$DWGCODEPAGE
  3
ANSI_932
  9
$INSBASE
 10
0.0
 20
0.0
 30
0.0
  9
$EXTMIN
 10
-0.0055227032842708
 20
-0.0083291295059098
 30
-0.0000000000000058
  9
$EXTMAX
 10
120.6721909430088
 20
182.0083324853624
 30
0.0000000000000104
  9
$LIMMIN
 10
0.0
 20
0.0
  9
$LIMMAX
 10
120.666666184
 20
181.9999999999999
  9
$ORTHOMODE
 70
     1
  9
$REGENMODE
 70
     1
  9
$FILLMODE
 70
     1
  9
$QTEXTMODE
 70
     0
  9
$MIRRTEXT
 70
     0
  9
$DRAGMODE
 70
     2
  9
$LTSCALE
 40
5.0
  9
$OSMODE
 70
   167
  9
$ATTMODE
 70
     1
  9
$TEXTSIZE
 40
3.0
  9
$TRACEWID
 40
0.05
  9
$TEXTSTYLE
  7
K
  9
$CLAYER
  8
JISSEN
  9
$CELTYPE
  6
BYLAYER
  9
$CECOLOR
 62
   256
  9
$CELTSCALE
 40
1.0
  9
$DELOBJ
 70
     1
  9
$DISPSILH
 70
     0
  9
$DIMSCALE
 40
1.0
  9
$DIMASZ
 40
1.5
  9
$DIMEXO
 40
1.0
  9
$DIMDLI
 40
6.0
  9
$DIMRND
 40
0.0
  9
$DIMDLE
 40
0.0
  9
$DIMEXE
 40
1.0
  9
$DIMTP
 40
495.0
  9
$DIMTM
 40
0.0
  9
$DIMTXT
 40
3.0
  9
$DIMCEN
 40
0.0
  9
$DIMTSZ
 40
0.0
  9
$DIMTOL
 70
     0
  9
$DIMLIM
 70
     0
  9
$DIMTIH
 70
     0
  9
$DIMTOH
 70
     0
  9
$DIMSE1
 70
     0
  9
$DIMSE2
 70
     0
  9
$DIMTAD
 70
     1
  9
$DIMZIN
 70
     8
  9
$DIMBLK
  1
ARROWANG
  9
$DIMASO
 70
     0
  9
$DIMSHO
 70
     0
  9
$DIMPOST
  1

  9
$DIMAPOST
  1

  9
$DIMALT
 70
     0
  9
$DIMALTD
 70
     2
  9
$DIMALTF
 40
25.4
  9
$DIMLFAC
 40
1.0
  9
$DIMTOFL
 70
     1
  9
$DIMTVP
 40
0.0
  9
$DIMTIX
 70
     1
  9
$DIMSOXD
 70
     0
  9
$DIMSAH
 70
     0
  9
$DIMBLK1
  1
ARROWANG
  9
$DIMBLK2
  1
ARROWANG
  9
$DIMSTYLE
  2
IMAO
  9
$DIMCLRD
 70
     0
  9
$DIMCLRE
 70
     0
  9
$DIMCLRT
 70
     0
  9
$DIMTFAC
 40
1.0
  9
$DIMGAP
 40
0.09
  9
$DIMJUST
 70
     0
  9
$DIMSD1
 70
     0
  9
$DIMSD2
 70
     0
  9
$DIMTOLJ
 70
     1
  9
$DIMTZIN
 70
     0
  9
$DIMALTZ
 70
     0
  9
$DIMALTTZ
 70
     0
  9
$DIMFIT
 70
     3
  9
$DIMUPT
 70
     0
  9
$DIMUNIT
 70
     2
  9
$DIMDEC
 70
     4
  9
$DIMTDEC
 70
     4
  9
$DIMALTU
 70
     2
  9
$DIMALTTD
 70
     2
  9
$DIMTXSTY
  7
STANDARD
  9
$DIMAUNIT
 70
     0
  9
$LUNITS
 70
     2
  9
$LUPREC
 70
     2
  9
$SKETCHINC
 40
0.1
  9
$FILLETRAD
 40
0.5
  9
$AUNITS
 70
     0
  9
$AUPREC
 70
     2
  9
$MENU
  1
STDR12J
  9
$ELEVATION
 40
0.0
  9
$PELEVATION
 40
0.0
  9
$THICKNESS
 40
0.0
  9
$LIMCHECK
 70
     0
  9
$BLIPMODE
 70
     0
  9
$CHAMFERA
 40
0.0
  9
$CHAMFERB
 40
0.0
  9
$CHAMFERC
 40
0.0
  9
$CHAMFERD
 40
0.0
  9
$SKPOLY
 70
     0
  9
$TDCREATE
 40
2449968.571422801
  9
$TDUPDATE
 40
2453980.707543761
  9
$TDINDWG
 40
0.9949653009
  9
$TDUSRTIMER
 40
0.9949653009
  9
$USRTIMER
 70
     1
  9
$ANGBASE
 50
0.0
  9
$ANGDIR
 70
     0
  9
$PDMODE
 70
     0
  9
$PDSIZE
 40
0.0
  9
$PLINEWID
 40
0.0
  9
$COORDS
 70
     2
  9
$SPLFRAME
 70
     0
  9
$SPLINETYPE
 70
     6
  9
$SPLINESEGS
 70
     8
  9
$ATTDIA
 70
     0
  9
$ATTREQ
 70
     1
  9
$HANDLING
 70
 22529
  9
$HANDSEED
  5
1C55B67E
  9
$SURFTAB1
 70
     6
  9
$SURFTAB2
 70
     6
  9
$SURFTYPE
 70
     6
  9
$SURFU
 70
     6
  9
$SURFV
 70
     6
  9
$UCSNAME
  2

  9
$UCSORG
 10
0.0
 20
0.0
 30
0.0
  9
$UCSXDIR
 10
1.0
 20
0.0
 30
0.0
  9
$UCSYDIR
 10
0.0
 20
1.0
 30
0.0
  9
$PUCSNAME
  2

  9
$PUCSORG
 10
0.0
 20
0.0
 30
0.0
  9
$PUCSXDIR
 10
1.0
 20
0.0
 30
0.0
  9
$PUCSYDIR
 10
0.0
 20
1.0
 30
0.0
  9
$USERI1
 70
     4
  9
$USERI2
 70
     1
  9
$USERI3
 70
     1
  9
$USERI4
 70
     7
  9
$USERI5
 70
     1
  9
$USERR1
 40
1.0
  9
$USERR2
 40
3.0
  9
$USERR3
 40
3.0
  9
$USERR4
 40
1.5
  9
$USERR5
 40
8.0
  9
$WORLDVIEW
 70
     1
  9
$SHADEDGE
 70
     3
  9
$SHADEDIF
 70
    70
  9
$TILEMODE
 70
     1
  9
$MAXACTVP
 70
    16
  9
$PINSBASE
 10
0.0
 20
0.0
 30
0.0
  9
$PLIMCHECK
 70
     0
  9
$PEXTMIN
 10
1.000000000000000E+20
 20
1.000000000000000E+20
 30
1.000000000000000E+20
  9
$PEXTMAX
 10
-1.000000000000000E+20
 20
-1.000000000000000E+20
 30
-1.000000000000000E+20
  9
$PLIMMIN
 10
0.0
 20
0.0
  9
$PLIMMAX
 10
12.0
 20
9.0
  9
$UNITMODE
 70
     0
  9
$VISRETAIN
 70
     0
  9
$PLINEGEN
 70
     0
  9
$PSLTSCALE
 70
     0
  9
$TREEDEPTH
 70
     0
  9
$PICKSTYLE
 70
     1
  9
$CMLSTYLE
  2
STANDARD
  9
$CMLJUST
 70
     0
  9
$CMLSCALE
 40
1.0
  9
$PROXYGRAPHICS
 70
     1
  9
$MEASUREMENT
 70
     0
  0
ENDSEC
  0
SECTION
  2
CLASSES
  0
CLASS
  1
LWPOLYLINE
  2
AcDbPolyline
  3
AutoCAD 2000
 90
        0
280
     0
281
     1
  0
CLASS
  1
HATCH
  2
AcDbHatch
  3
AutoCAD 2000
 90
        0
280
     0
281
     1
  0
CLASS
  1
ACDBDICTIONARYWDFLT
  2
AcDbDictionaryWithDefault
  3
AutoCAD 2000
 90
        0
280
     0
281
     0
  0
CLASS
  1
ACDBPLACEHOLDER
  2
AcDbPlaceHolder
  3
AutoCAD 2000
 90
        0
280
     0
281
     0
  0
CLASS
  1
LAYOUT
  2
AcDbLayout
  3
AutoCAD 2000
 90
        0
280
     0
281
     0
  0
CLASS
  1
DICTIONARYVAR
  2
AcDbDictionaryVar
  3
AutoCAD 2000
 90
        0
280
     0
281
     0
  0
CLASS
  1
LONG_TRANSACTION
  2
AcDbLongTransaction
  3
AutoCAD 2000
 90
        0
280
     0
281
     0
  0
CLASS
  1
LWPOLYLINE
  2
AcDbPolyline
  3
AutoCAD 2000
 90
        0
280
     0
281
     1
  0
CLASS
  1
HATCH
  2
AcDbHatch
  3
AutoCAD 2000
 90
        0
280
     0
281
     1
  0
CLASS
  1
XRECORD
  2
AcDbXrecord
  3
AutoCAD 2000
 90
        0
280
     0
281
     0
  0
ENDSEC
  0
SECTION
  2
TABLES
  0
TABLE
  2
VPORT
  5
1C558BED
330
0
100
AcDbSymbolTable
 70
    12
  0
VPORT
  5
1C558C21
330
1C558BED
100
AcDbSymbolTableRecord
100
AcDbViewportTableRecord
  2
2
 70
     0
 10
0.5
 20
0.0
 11
1.0
 21
1.0
 12
0.9240312421264802
 22
1.052650975462766
 13
0.0
 23
0.0
 14
1.0
 24
1.0
 15
10.0
 25
10.0
 16
0.0
 26
0.0
 36
1.0
 17
0.0
 27
0.0
 37
0.0
 40
2.105301950925533
 41
0.8778135048231511
 42
50.0
 43
0.0
 44
0.0
 50
0.0
 51
0.0
 71
     0
 72
   500
 73
     1
 74
     1
 75
     0
 76
     0
 77
     0
 78
     0
  0
VPORT
  5
1C558C22
330
1C558BED
100
AcDbSymbolTableRecord
100
AcDbViewportTableRecord
  2
2
 70
     0
 10
0.0
 20
0.0
 11
0.5
 21
1.0
 12
0.9240312421264802
 22
1.052650975462766
 13
0.0
 23
0.0
 14
1.0
 24
1.0
 15
10.0
 25
10.0
 16
0.0
 26
0.0
 36
1.0
 17
0.0
 27
0.0
 37
0.0
 40
2.105301950925533
 41
0.8778135048231511
 42
50.0
 43
0.0
 44
0.0
 50
0.0
 51
0.0
 71
     0
 72
   500
 73
     1
 74
     1
 75
     0
 76
     0
 77
     0
 78
     0
  0
VPORT
  5
1C558C23
330
1C558BED
100
AcDbSymbolTableRecord
100
AcDbViewportTableRecord
  2
3
 70
     0
 10
0.0
 20
0.5
 11
1.0
 21
1.0
 12
2.832169994473273
 22
1.052650975462766
 13
0.0
 23
0.0
 14
1.0
 24
1.0
 15
10.0
 25
10.0
 16
0.0
 26
0.0
 36
1.0
 17
0.0
 27
0.0
 37
0.0
 40
2.105301950925533
 41
3.571428571428571
 42
50.0
 43
0.0
 44
0.0
 50
0.0
 51
0.0
 71
     0
 72
   500
 73
     1
 74
     1
 75
     0
 76
     0
 77
     0
 78
     0
  0
VPORT
  5
1C558C24
330
1C558BED
100
AcDbSymbolTableRecord
100
AcDbViewportTableRecord
  2
3
 70
     0
 10
0.0
 20
0.0
 11
1.0
 21
0.5
 12
2.856741679241311
 22
1.052650975462766
 13
0.0
 23
0.0
 14
1.0
 24
1.0
 15
10.0
 25
10.0
 16
0.0
 26
0.0
 36
1.0
 17
0.0
 27
0.0
 37
0.0
 40
2.105301950925533
 41
3.594771241830065
 42
50.0
 43
0.0
 44
0.0
 50
0.0
 51
0.0
 71
     0
 72
   500
 73
     1
 74
     1
 75
     0
 76
     0
 77
     0
 78
     0
  0
VPORT
  5
1C558C25
330
1C558BED
100
AcDbSymbolTableRecord
100
AcDbViewportTableRecord
  2
4
 70
     0
 10
0.5
 20
0.0
 11
1.0
 21
0.5
 12
2.886857516709719
 22
1.052650975462766
 13
0.0
 23
0.0
 14
1.0
 24
1.0
 15
10.0
 25
10.0
 16
0.0
 26
0.0
 36
1.0
 17
0.0
 27
0.0
 37
0.0
 40
4.27520703030907
 41
1.784313725490195
 42
50.0
 43
0.0
 44
0.0
 50
0.0
 51
0.0
 71
     0
 72
   500
 73
     1
 74
     1
 75
     0
 76
     0
 77
     0
 78
     0
  0
VPORT
  5
1C558C26
330
1C558BED
100
AcDbSymbolTableRecord
100
AcDbViewportTableRecord
  2
4
 70
     0
 10
0.5
 20
0.5
 11
1.0
 21
1.0
 12
2.862090274555523
 22
1.052650975462766
 13
0.0
 23
0.0
 14
1.0
 24
1.0
 15
10.0
 25
10.0
 16
0.0
 26
0.0
 36
1.0
 17
0.0
 27
0.0
 37
0.0
 40
4.27520703030907
 41
1.772727272727272
 42
50.0
 43
0.0
 44
0.0
 50
0.0
 51
0.0
 71
     0
 72
   500
 73
     1
 74
     1
 75
     0
 76
     0
 77
     0
 78
     0
  0
VPORT
  5
1C558C27
330
1C558BED
100
AcDbSymbolTableRecord
100
AcDbViewportTableRecord
  2
4
 70
     0
 10
0.0
 20
0.5
 11
0.5
 21
1.0
 12
2.862090274555523
 22
1.052650975462766
 13
0.0
 23
0.0
 14
1.0
 24
1.0
 15
10.0
 25
10.0
 16
0.0
 26
0.0
 36
1.0
 17
0.0
 27
0.0
 37
0.0
 40
4.27520703030907
 41
1.772727272727272
 42
50.0
 43
0.0
 44
0.0
 50
0.0
 51
0.0
 71
     0
 72
   500
 73
     1
 74
     1
 75
     0
 76
     0
 77
     0
 78
     0
  0
VPORT
  5
1C558C28
330
1C558BED
100
AcDbSymbolTableRecord
100
AcDbViewportTableRecord
  2
4
 70
     0
 10
0.0
 20
0.0
 11
0.5
 21
0.5
 12
2.886857516709719
 22
1.052650975462766
 13
0.0
 23
0.0
 14
1.0
 24
1.0
 15
10.0
 25
10.0
 16
0.0
 26
0.0
 36
1.0
 17
0.0
 27
0.0
 37
0.0
 40
4.27520703030907
 41
1.784313725490195
 42
50.0
 43
0.0
 44
0.0
 50
0.0
 51
0.0
 71
     0
 72
   500
 73
     1
 74
     1
 75
     0
 76
     0
 77
     0
 78
     0
  0
VPORT
  5
1C55B658
330
1C558BED
100
AcDbSymbolTableRecord
100
AcDbViewportTableRecord
  2
*ACTIVE
 70
     0
 10
0.0
 20
0.0
 11
1.0
 21
1.0
 12
60.33333411986227
 22
91.00000167792826
 13
0.0
 23
0.0
 14
1.0
 24
1.0
 15
10.0
 25
10.0
 16
0.0
 26
0.0
 36
1.0
 17
0.0
 27
0.0
 37
0.0
 40
183.2287592504834
 41
1.764444444444444
 42
50.0
 43
0.0
 44
0.0
 50
0.0
 51
0.0
 71
     0
 72
   500
 73
     1
 74
     0
 75
     0
 76
     0
 77
     0
 78
     1
  0
ENDTAB
  0
TABLE
  2
LTYPE
  5
1C558BEA
330
0
100
AcDbSymbolTable
 70
     2
  0
LTYPE
  5
1C558BF7
330
1C558BEA
100
AcDbSymbolTableRecord
100
AcDbLinetypeTableRecord
  2
BYBLOCK
 70
     0
  3

 72
    65
 73
     0
 40
0.0
  0
LTYPE
  5
1C558BF8
330
1C558BEA
100
AcDbSymbolTableRecord
100
AcDbLinetypeTableRecord
  2
BYLAYER
 70
     0
  3

 72
    65
 73
     0
 40
0.0
  0
LTYPE
  5
1C558BF9
330
1C558BEA
100
AcDbSymbolTableRecord
100
AcDbLinetypeTableRecord
  2
CONTINUOUS
 70
     0
  3
実線
 72
    65
 73
     0
 40
0.0
  0
LTYPE
  5
1C558C1E
330
1C558BEA
100
AcDbSymbolTableRecord
100
AcDbLinetypeTableRecord
  2
CENTER
 70
     0
  3
____ _ ____ _ ____ _ ____ _ ____ _ ____ _ ____
 72
    65
 73
     4
 40
2.0
 49
1.25
 74
     0
 49
-0.25
 74
     0
 49
0.25
 74
     0
 49
-0.25
 74
     0
  0
ENDTAB
  0
TABLE
  2
LAYER
  5
1C558BE7
102
{ACAD_XDICTIONARY
360
1C55AFCD
102
}
330
0
100
AcDbSymbolTable
 70
    12
  0
LAYER
  5
1C558BF4
330
1C558BE7
100
AcDbSymbolTableRecord
100
AcDbLayerTableRecord
  2
0
 70
     0
 62
     6
  6
CONTINUOUS
  0
LAYER
  5
1C558C2C
330
1C558BE7
100
AcDbSymbolTableRecord
100
AcDbLayerTableRecord
  2
ITTEN
 70
     0
 62
     1
  6
CENTER
  0
LAYER
  5
1C558C2E
330
1C558BE7
100
AcDbSymbolTableRecord
100
AcDbLayerTableRecord
  2
HATCH
 70
     0
 62
     4
  6
CONTINUOUS
  0
LAYER
  5
1C558C2F
330
1C558BE7
100
AcDbSymbolTableRecord
100
AcDbLayerTableRecord
  2
SUNPOU
 70
     0
 62
     3
  6
CONTINUOUS
  0
LAYER
  5
1C558C30
330
1C558BE7
100
AcDbSymbolTableRecord
100
AcDbLayerTableRecord
  2
TEXT
 70
     0
 62
     3
  6
CONTINUOUS
  0
LAYER
  5
1C558C31
330
1C558BE7
100
AcDbSymbolTableRecord
100
AcDbLayerTableRecord
  2
SAISEN
 70
     0
 62
     4
  6
CONTINUOUS
  0
LAYER
  5
1C558C32
330
1C558BE7
100
AcDbSymbolTableRecord
100
AcDbLayerTableRecord
  2
JISSEN
 70
     0
 62
     7
  6
CONTINUOUS
  0
LAYER
  5
1C558C35
330
1C558BE7
100
AcDbSymbolTableRecord
100
AcDbLayerTableRecord
  2
WAKU
 70
     0
 62
     5
  6
CONTINUOUS
  0
LAYER
  5
1C55AFCA
330
1C558BE7
100
AcDbSymbolTableRecord
100
AcDbLayerTableRecord
  2
SCALE
 70
     0
 62
     7
  6
CONTINUOUS
  0
LAYER
  5
1C55AFCB
330
1C558BE7
100
AcDbSymbolTableRecord
100
AcDbLayerTableRecord
  2
1
 70
     0
 62
     7
  6
CONTINUOUS
  0
LAYER
  5
1C55AFCC
330
1C558BE7
100
AcDbSymbolTableRecord
100
AcDbLayerTableRecord
  2
DEFPOINTS
 70
     0
 62
     7
  6
CONTINUOUS
  0
ENDTAB
  0
TABLE
  2
STYLE
  5
1C558BE8
330
0
100
AcDbSymbolTable
 70
     3
  0
STYLE
  5
1C558BF5
330
1C558BE8
100
AcDbSymbolTableRecord
100
AcDbTextStyleTableRecord
  2
STANDARD
 70
     0
 40
0.0
 41
1.0
 50
0.0
 71
     0
 42
0.2
  3
ROMANS
  4
EXTFONT
  0
STYLE
  5
1C558C1C
330
1C558BE8
100
AcDbSymbolTableRecord
100
AcDbTextStyleTableRecord
  2
K
 70
     0
 40
0.0
 41
1.0
 50
0.0
 71
     0
 42
3.0
  3
ROMANS
  4
bigfont.shx
  0
ENDTAB
  0
TABLE
  2
VIEW
  5
1C558BEB
330
0
100
AcDbSymbolTable
 70
     0
  0
ENDTAB
  0
TABLE
  2
UCS
  5
1C558BEC
330
0
100
AcDbSymbolTable
 70
     0
  0
ENDTAB
  0
TABLE
  2
APPID
  5
1C558BEE
330
0
100
AcDbSymbolTable
 70
     1
  0
APPID
  5
1C558BF6
330
1C558BEE
100
AcDbSymbolTableRecord
100
AcDbRegAppTableRecord
  2
ACAD
 70
     0
  0
ENDTAB
  0
TABLE
  2
DIMSTYLE
  5
1C558BEF
330
0
100
AcDbSymbolTable
 70
     1
  0
DIMSTYLE
105
1C558C2B
330
1C558BEF
100
AcDbSymbolTableRecord
100
AcDbDimStyleTableRecord
  2
IMAO
 70
     0
  3

  4

  5
ARROWANG
  6
ARROWANG
  7
ARROWANG
 40
1.0
 41
1.5
 42
1.0
 43
6.0
 44
1.0
 45
0.0
 46
0.0
 47
495.0
 48
0.0
140
3.0
141
0.0
142
0.0
143
25.4
144
1.0
145
0.0
146
1.0
147
0.09
 71
     0
 72
     0
 73
     0
 74
     0
 75
     0
 76
     0
 77
     1
 78
     8
170
     0
171
     2
172
     1
173
     0
174
     1
175
     0
176
     0
177
     0
178
     0
270
     2
271
     2
272
     2
273
     2
274
     2
340
1C558C1C
275
     0
280
     0
281
     0
282
     0
283
     1
284
     8
285
     8
286
     8
287
     5
288
     0
  0
ENDTAB
  0
TABLE
  2
BLOCK_RECORD
  5
1C558BE6
330
0
100
AcDbSymbolTable
 70
    17
  0
BLOCK_RECORD
  5
1C558BFD
102
{ACAD_XDICTIONARY
360
1C55B67C
102
}
330
1C558BE6
100
AcDbSymbolTableRecord
100
AcDbBlockTableRecord
  2
*MODEL_SPACE
  0
BLOCK_RECORD
  5
1C558BFA
102
{ACAD_XDICTIONARY
360
1C55B67A
102
}
330
1C558BE6
100
AcDbSymbolTableRecord
100
AcDbBlockTableRecord
  2
*PAPER_SPACE
  0
BLOCK_RECORD
  5
1C558C07
330
1C558BE6
100
AcDbSymbolTableRecord
100
AcDbBlockTableRecord
  2
ARROWANG
  0
BLOCK_RECORD
  5
1C558C08
330
1C558BE6
100
AcDbSymbolTableRecord
100
AcDbBlockTableRecord
  2
STDR12J
  0
ENDTAB
  0
ENDSEC
  0
SECTION
  2
BLOCKS
  0
BLOCK
  5
1C558C39
330
1C558BFD
100
AcDbEntity
  8
0
100
AcDbBlockBegin
  2
*MODEL_SPACE
 70
     0
 10
0.0
 20
0.0
 30
0.0
  3
*MODEL_SPACE
  1

  0
ENDBLK
  5
1C558C3A
330
1C558BFD
100
AcDbEntity
  8
0
100
AcDbBlockEnd
  0
BLOCK
  5
1C558C37
330
1C558BFA
100
AcDbEntity
 67
     1
  8
0
100
AcDbBlockBegin
  2
*PAPER_SPACE
 70
     0
 10
0.0
 20
0.0
 30
0.0
  3
*PAPER_SPACE
  1

  0
ENDBLK
  5
1C558C38
330
1C558BFA
100
AcDbEntity
 67
     1
  8
0
100
AcDbBlockEnd
  0
BLOCK
  5
1D
330
1C558C07
100
AcDbEntity
  8
0
100
AcDbBlockBegin
  2
ARROWANG
 70
     0
 10
0.0
 20
0.0
 30
0.0
  3
ARROWANG
  1

  0
LINE
  5
1E
330
1C558C07
100
AcDbEntity
  8
SUNPOU
100
AcDbLine
 10
0.0
 20
0.0
 30
0.0
 11
-1.499999999999957
 21
0.4019237886467409
 31
0.0
  0
LINE
  5
1F
330
1C558C07
100
AcDbEntity
  8
SUNPOU
100
AcDbLine
 10
0.0
 20
0.0
 30
0.0
 11
-1.500000000000028
 21
-0.4019237886467124
 31
0.0
  0
ENDBLK
  5
20
330
1C558C07
100
AcDbEntity
  8
0
100
AcDbBlockEnd
  0
BLOCK
  5
1FD59A4
330
1C558C08
100
AcDbEntity
  8
0
100
AcDbBlockBegin
  2
STDR12J
 70
     0
 10
0.0
 20
0.0
 30
0.0
  3
STDR12J
  1

  0
ENDBLK
  5
1FD59C9
330
1C558C08
100
AcDbEntity
  8
0
100
AcDbBlockEnd
  0
ENDSEC
  0
SECTION
  2
ENTITIES
  0
TEXT
  5
479E6FC
330
1C558BFD
100
AcDbEntity
  8
TEXT
100
AcDbText
 10
156.6703011800951
 20
7.95463300206407
 30
0.0
 40
1.5
  1

  7
K
 72
     1
 11
156.6703011800951
 21
7.95463300206407
 31
0.0
100
AcDbText
  0
INSERT
  5
479E6FD
330
1C558BFD
100
AcDbEntity
  8
TEXT
100
AcDbBlockReference
  2
STDR12J
 10
101.0381875147347
 20
-1.805619668993763
 30
0.0
  0
TEXT
  5
479E772
330
1C558BFD
100
AcDbEntity
  8
SUNPOU
100
AcDbText
 10
161.4501179627893
 20
119.9838173668533
 30
0.0
 40
1.5
  1

  7
K
100
AcDbText
  0
TEXT
  5
6F67768
330
1C558BFD
100
AcDbEntity
  8
TEXT
100
AcDbText
 10
283.0919670644243
 20
28.31048931364985
 30
0.0
 40
1.5
  1

  7
K
 72
     1
 11
283.0919670644243
 21
28.31048931364985
 31
0.0
100
AcDbText
  0
INSERT
  5
6F67769
330
1C558BFD
100
AcDbEntity
  8
TEXT
100
AcDbBlockReference
  2
STDR12J
 10
227.459853399064
 20
18.55023664259201
 30
0.0
  0
TEXT
  5
9730244
330
1C558BFD
100
AcDbEntity
  8
TEXT
100
AcDbText
 10
381.7813769017239
 20
25.77200807274374
 30
0.0
 40
1.5
  1

  7
K
 72
     1
 11
381.7813769017239
 21
25.77200807274374
 31
0.0
100
AcDbText
  0
INSERT
  5
9730245
330
1C558BFD
100
AcDbEntity
  8
TEXT
100
AcDbBlockReference
  2
STDR12J
 10
326.1492632363636
 20
16.01175540168591
 30
0.0
  0
TEXT
  5
9730293
330
1C558BFD
100
AcDbEntity
  8
SUNPOU
100
AcDbText
 10
364.1686474908519
 20
101.7194821590364
 30
0.0
 40
1.5
  1

 50
90.0
  7
K
 72
     1
 11
364.1686474908519
 21
101.7194821590364
 31
0.0
100
AcDbText
  0
LWPOLYLINE
  5
1C559DC1
330
1C558BFD
100
AcDbEntity
  8
WAKU
100
AcDbPolyline
 90
        4
 70
     1
 43
0.0
 10
120.666666184
 20
0.0
 10
0.0
 20
0.0
 10
0.0
 20
181.9999999999999
 10
120.666666184
 20
181.9999999999999
  0
HATCH
  5
1C55B268
330
1C558BFD
100
AcDbEntity
  8
SAISEN
 48
2.0
100
AcDbHatch
 10
0.0
 20
0.0
 30
0.0
210
0.0
220
0.0
230
1.0
  2
ANSI31
 70
     0
 71
     0
 91
       12
 92
        7
 72
     1
 73
     1
 93
       20
 10
84.8155043497096
 20
75.67516580164454
 42
0.0
 10
83.65439118250799
 20
77.68627280057472
 42
0.0
 10
61.9766175169112
 20
77.68627280057469
 42
0.0
 10
60.81550434971049
 20
75.67516580164426
 42
0.0
 10
60.81550434971049
 20
73.42516580164539
 42
0.0
 10
61.09679467229179
 20
73.14387547906446
 42
0.0
 10
73.51550434971031
 20
72.75579080164511
 42
0.0
 10
75.38720175363926
 20
71.67516580164503
 42
0.0
 10
80.81550434971006
 20
71.67516580164502
 42
0.0
 10
80.81550434971006
 20
64.17516580164427
 42
0.0
 10
86.92875300376147
 20
64.17516580164427
 42
0.0
 10
89.81550434971007
 20
69.17516580164392
 42
0.0
 10
101.31550434971
 20
69.17516580164438
 42
0.0
 10
101.81550434971
 20
69.67516580164417
 42
0.0
 10
101.8155043497096
 20
71.42516580164451
 42
0.0
 10
101.4949882206771
 20
71.74568193067656
 42
0.0
 10
88.65550434970975
 20
72.14691580164421
 42
0.0
 10
86.26830532417773
 20
73.52516580164428
 42
0.0
 10
85.01550434970988
 20
73.52516580164429
 42
-0.4142135623736283
 10
84.8155043497096
 20
73.72516580164421
 42
0.0
 97
        0
 92
        7
 72
     1
 73
     1
 93
       21
 10
84.81550434971007
 20
51.62516580164441
 42
-0.4142135623728375
 10
85.01550434970988
 20
51.82516580164424
 42
0.0
 10
86.26830532417818
 20
51.82516580164436
 42
0.0
 10
86.55790421173572
 20
51.99236579733254
 42
0.0
 10
88.65550434971021
 20
53.20341580164434
 42
0.0
 10
101.494988220678
 20
53.604649672612
 42
0.0
 10
101.81550434971
 20
53.92516580164453
 42
0.0
 10
101.81550434971
 20
55.67516580164427
 42
0.0
 10
101.3155043497105
 20
56.17516580164405
 42
0.0
 10
89.81550434971053
 20
56.17516580164461
 42
0.0
 10
86.92875300376238
 20
61.17516580164428
 42
0.0
 10
80.81550434971052
 20
61.17516580164431
 42
0.0
 10
80.81550434971052
 20
53.67516580164508
 42
0.0
 10
75.38720175363971
 20
53.67516580164508
 42
0.0
 10
73.51550434971077
 20
52.59454080164501
 42
0.0
 10
61.09679467229179
 20
52.20645612422567
 42
0.0
 10
60.81550434971095
 20
51.92516580164493
 42
0.0
 10
60.8155043497114
 20
49.67516580164378
 42
0.0
 10
61.97661751691211
 20
47.66405880271425
 42
0.0
 10
83.65439118250936
 20
47.66405880271425
 42
0.0
 10
84.8155043497096
 20
49.67516580164354
 42
0.0
 97
        0
 92
       22
 72
     0
 73
     1
 93
        4
 10
100.3125366077744
 20
53.56769805970876
 10
88.65550434970975
 20
53.20341580164432
 10
88.65550434970931
 20
52.05791580164427
 10
100.3125366077744
 20
52.42219805970885
 97
        0
 92
       22
 72
     0
 73
     1
 93
        3
 10
88.65550434970975
 20
53.20341580164424
 10
86.55790421173572
 20
51.99236579733256
 10
88.65550434971021
 20
52.05791580164426
 97
        0
 92
       22
 72
     0
 73
     1
 93
        3
 10
101.494988220678
 20
53.60464967261198
 10
100.3125366077744
 20
53.56769805970879
 10
100.3125366077739
 20
52.42219805970861
 97
        0
 92
       23
 72
     0
 73
     1
 93
        3
 10
100.3125366077744
 20
72.92813354357985
 10
100.3125366077744
 20
71.78263354357977
 10
101.4949882206775
 20
71.74568193067654
 97
        0
 92
       23
 72
     0
 73
     1
 93
        4
 10
100.3125366077744
 20
72.92813354357972
 10
88.65550434971021
 20
73.29241580164429
 10
88.65550434970975
 20
72.14691580164418
 10
100.3125366077744
 20
71.78263354357977
 97
        0
 92
       23
 72
     0
 73
     1
 93
        3
 10
88.65550434970975
 20
73.29241580164431
 10
86.55790421173525
 20
73.35796580595602
 10
88.65550434971021
 20
72.14691580164402
 97
        0
 92
       22
 72
     0
 73
     1
 93
        5
 10
73.51550434971031
 20
72.75579080164513
 10
61.09679467229179
 20
73.14387547906445
 10
62.29627854326108
 20
71.94439160809668
 10
70.91150434971414
 20
71.67516580164505
 10
73.51550434971031
 20
71.67516580164505
 97
        0
 92
       22
 72
     0
 73
     1
 93
        3
 10
73.51550434971031
 20
72.75579080164537
 10
73.51550434971031
 20
71.67516580164505
 10
75.38720175363971
 20
71.67516580164505
 97
        0
 92
       22
 72
     0
 73
     1
 93
        5
 10
73.51550434970985
 20
53.67516580164509
 10
70.9115043497155
 20
53.67516580164511
 10
62.29627854326153
 20
53.40593999519339
 10
61.09679467229179
 20
52.20645612422565
 10
73.51550434971031
 20
52.59454080164498
 97
        0
 92
       22
 72
     0
 73
     1
 93
        3
 10
75.38720175363971
 20
53.67516580164509
 10
73.51550434970985
 20
53.67516580164509
 10
73.5155043497094
 20
52.59454080164477
 97
        0
 75
     0
 76
     1
 52
0.0
 41
10.0
 77
     0
 78
     1
 53
45.0
 43
-2289.338982965344
 44
133.408368020792
 45
-0.8838834764831842
 46
0.8838834764831844
 79
     0
 47
0.0670124328494828
 98
       13
 10
100.582508112464
 20
72.40716185059199
 10
73.4218726053501
 20
74.205470252
 10
74.97503408080191
 20
50.91061845864039
 10
96.56944285839257
 20
52.74252207931858
 10
88.20933190332482
 20
52.71864747881449
 10
100.3699763929899
 20
53.23387264850333
 10
100.8019103993993
 20
72.1658609118926
 10
98.9293421618678
 20
72.24075527130088
 10
87.9935441014137
 20
73.21438396705133
 10
67.62129525658119
 20
72.49816753531724
 10
74.01484004206494
 20
72.07197789163746
 10
67.59526081135263
 20
53.01279669414469
 10
74.5653190042486
 20
53.41487162211905
  0
LINE
  5
1C55B283
330
1C558BFD
100
AcDbEntity
  8
1
 62
     7
100
AcDbLine
 10
80.81550434971052
 20
53.67516580164508
 30
0.0
 11
80.81550434971052
 21
71.67516580164502
 31
0.0
  0
LINE
  5
1C55B284
330
1C558BFD
100
AcDbEntity
  8
SAISEN
 62
     4
100
AcDbLine
 10
73.51550434971031
 20
52.59454080164499
 30
0.0
 11
73.51550434971031
 21
72.75579080164519
 31
0.0
  0
ARC
  5
1C55B294
330
1C558BFD
100
AcDbEntity
  8
JISSEN
 48
2.0
100
AcDbCircle
 10
79.07607315469579
 20
113.4150244833088
 30
0.0
 40
5.739431195014276
100
AcDbArc
 50
319.1668364703196
 51
39.6573415233256
  0
ARC
  5
1C55B295
330
1C558BFD
100
AcDbEntity
  8
JISSEN
 48
2.0
100
AcDbCircle
 10
62.31550434971004
 20
124.6733547325068
 30
0.0
 40
22.5
100
AcDbArc
 50
340.2707536949876
 51
19.7292463050124
  0
ARC
  5
1C55B296
330
1C558BFD
100
AcDbEntity
  8
JISSEN
 48
2.0
100
AcDbCircle
 10
79.07607315469579
 20
135.9316849817048
 30
0.0
 40
5.739431195014276
100
AcDbArc
 50
320.3426584766558
 51
40.83316352968036
  0
ARC
  5
1C55B297
330
1C558BFD
100
AcDbEntity
  8
JISSEN
 48
2.0
100
AcDbCircle
 10
83.31550434971052
 20
124.6733547325076
 30
0.0
 40
22.5
100
AcDbArc
 50
160.2707536949875
 51
199.7292463050124
  0
ARC
  5
1C55B298
330
1C558BFD
100
AcDbEntity
  8
JISSEN
 48
2.0
100
AcDbCircle
 10
66.55493554472477
 20
113.4150244833096
 30
0.0
 40
5.739431195014276
100
AcDbArc
 50
140.3426584766744
 51
220.8331635296803
  0
ARC
  5
1C55B299
330
1C558BFD
100
AcDbEntity
  8
JISSEN
 48
2.0
100
AcDbCircle
 10
66.55493554472477
 20
135.9316849817055
 30
0.0
 40
5.739431195014276
100
AcDbArc
 50
139.1668364703196
 51
219.6573415233442
  0
CIRCLE
  5
1C55B2B0
330
1C558BFD
100
AcDbEntity
  8
JISSEN
 48
2.0
100
AcDbCircle
 10
28.8908904745418
 20
124.6733547325068
 30
0.0
 40
1.5
  0
TEXT
  5
1C55B2F0
330
1C558BFD
100
AcDbEntity
  8
SUNPOU
100
AcDbText
 10
52.32186413342796
 20
84.15658362642693
 30
0.0
 40
2.66
  1
%%uA-A断面
  7
K
100
AcDbText
  0
LINE
  5
1C55B2F4
330
1C558BFD
100
AcDbEntity
  8
WAKU
 62
     0
 48
2.0
100
AcDbLine
 10
28.8908904745418
 20
144.1728874284579
 30
0.0
 11
28.8908904745418
 21
141.9938628081957
 31
0.0
  0
TEXT
  5
1C55B2F6
330
1C558BFD
100
AcDbEntity
  8
SUNPOU
100
AcDbText
 10
32.15076608827811
 20
143.8278149946082
 30
0.0
 40
2.0
  1
A
  7
K
100
AcDbText
  0
LINE
  5
1C55B2F7
330
1C558BFD
100
AcDbEntity
  8
JISSEN
 48
2.0
100
AcDbLine
 10
62.13629138900623
 20
117.0778996200617
 30
0.0
 11
83.49471731041342
 21
117.0778996200617
 31
0.0
  0
LINE
  5
1C55B2F8
330
1C558BFD
100
AcDbEntity
  8
JISSEN
 48
2.0
100
AcDbLine
 10
62.1362913890076
 20
132.2688098449517
 30
0.0
 11
83.49471731041388
 21
132.2688098449517
 31
0.0
  0
LINE
  5
1C55B2F9
330
1C558BFD
100
AcDbEntity
  8
SAISEN
 48
2.0
100
AcDbLine
 10
100.3125366077748
 20
133.7808224744422
 30
0.0
 11
100.3125366077748
 21
115.5658869905713
 31
0.0
  0
LINE
  5
1C55B2FA
330
1C558BFD
100
AcDbEntity
  8
SAISEN
100
AcDbLine
 10
100.3125366077748
 20
115.5658869905713
 30
0.0
 11
100.3125366077748
 21
114.4203869905713
 31
0.0
  0
LINE
  5
1C55B2FB
330
1C558BFD
100
AcDbEntity
  8
SAISEN
100
AcDbLine
 10
100.3125366077748
 20
134.9263224744422
 30
0.0
 11
100.3125366077748
 21
133.7808224744422
 31
0.0
  0
LINE
  5
1C55B2FC
330
1C558BFD
100
AcDbEntity
  8
1
 62
     7
100
AcDbLine
 10
101.81550434971
 20
115.9233547325067
 30
0.0
 11
100.3125366077748
 21
114.4203869905713
 31
0.0
  0
LINE
  5
1C55B2FD
330
1C558BFD
100
AcDbEntity
  8
JISSEN
100
AcDbLine
 10
86.26830532417818
 20
113.8233547325068
 30
0.0
 11
85.01550434970988
 21
113.8233547325067
 31
0.0
  0
ARC
  5
1C55B2FE
330
1C558BFD
100
AcDbEntity
  8
JISSEN
100
AcDbCircle
 10
85.01550434970988
 20
113.6233547325068
 30
0.0
 40
0.2
100
AcDbArc
 50
90.0
 51
180.0000000000032
  0
LINE
  5
1C55B2FF
330
1C558BFD
100
AcDbEntity
  8
JISSEN
100
AcDbLine
 10
86.26830532417818
 20
113.8233547325068
 30
0.0
 11
86.55790421173618
 21
113.990554728195
 31
0.0
  0
LINE
  5
1C55B300
330
1C558BFD
100
AcDbEntity
  8
JISSEN
100
AcDbLine
 10
86.26830532417818
 20
135.5233547325068
 30
0.0
 11
86.55790421173618
 21
135.3561547368185
 31
0.0
  0
ARC
  5
1C55B301
330
1C558BFD
100
AcDbEntity
  8
JISSEN
100
AcDbCircle
 10
85.01550434970988
 20
135.7233547325067
 30
0.0
 40
0.2
100
AcDbArc
 50
179.9999999999967
 51
270.0
  0
LINE
  5
1C55B302
330
1C558BFD
100
AcDbEntity
  8
JISSEN
100
AcDbLine
 10
86.26830532417818
 20
135.5233547325068
 30
0.0
 11
85.01550434970988
 21
135.5233547325068
 31
0.0
  0
LINE
  5
1C55B305
330
1C558BFD
100
AcDbEntity
  8
SCALE
100
AcDbLine
 10
61.9766175169112
 20
139.684461731438
 30
0.0
 11
60.81550434971049
 21
137.6733547325082
 31
0.0
  0
LINE
  5
1C55B308
330
1C558BFD
100
AcDbEntity
  8
1
 62
     7
100
AcDbLine
 10
101.81550434971
 20
133.4233547325067
 30
0.0
 11
100.3125366077748
 21
134.9263224744422
 31
0.0
  0
LINE
  5
1C55B309
330
1C558BFD
100
AcDbEntity
  8
SAISEN
 62
     4
100
AcDbLine
 10
88.65550434971021
 20
124.6733547325068
 30
0.0
 11
88.65550434971021
 21
135.2906047325068
 31
0.0
  0
LINE
  5
1C55B30A
330
1C558BFD
100
AcDbEntity
  8
SAISEN
100
AcDbLine
 10
86.26830532417818
 20
135.5233547325068
 30
0.0
 11
88.65550434971021
 21
134.1451047325067
 31
0.0
  0
LINE
  5
1C55B30B
330
1C558BFD
100
AcDbEntity
  8
1
 62
     7
100
AcDbLine
 10
100.3125366077748
 20
134.9263224744422
 30
0.0
 11
86.55790421173618
 21
135.3561547368185
 31
0.0
  0
LINE
  5
1C55B30C
330
1C558BFD
100
AcDbEntity
  8
SAISEN
100
AcDbLine
 10
88.65550434971021
 20
134.1451047325067
 30
0.0
 11
101.4949882206775
 21
133.743870861539
 31
0.0
  0
LINE
  5
1C55B30D
330
1C558BFD
100
AcDbEntity
  8
SAISEN
 62
     4
100
AcDbLine
 10
88.65550434971021
 20
114.0561047325067
 30
0.0
 11
88.65550434971021
 21
124.6733547325068
 31
0.0
  0
LINE
  5
1C55B30E
330
1C558BFD
100
AcDbEntity
  8
SAISEN
100
AcDbLine
 10
88.65550434971021
 20
115.2016047325068
 30
0.0
 11
86.55790421173572
 21
113.990554728195
 31
0.0
  0
LINE
  5
1C55B30F
330
1C558BFD
100
AcDbEntity
  8
1
 62
     7
100
AcDbLine
 10
86.55790421173572
 20
113.990554728195
 30
0.0
 11
100.3125366077748
 21
114.4203869905713
 31
0.0
  0
LINE
  5
1C55B310
330
1C558BFD
100
AcDbEntity
  8
SAISEN
100
AcDbLine
 10
101.4949882206775
 20
115.6028386034745
 30
0.0
 11
88.65550434971021
 21
115.2016047325068
 31
0.0
  0
LINE
  5
1C55B312
330
1C558BFD
100
AcDbEntity
  8
SCALE
100
AcDbLine
 10
61.97661751691166
 20
109.6622477335775
 30
0.0
 11
60.81550434971049
 21
111.6733547325075
 31
0.0
  0
LINE
  5
1C55B313
330
1C558BFD
100
AcDbEntity
  8
SCALE
100
AcDbLine
 10
83.65439118250799
 20
139.6844617314372
 30
0.0
 11
84.8155043497096
 21
137.6733547325071
 31
0.0
  0
LINE
  5
1C55B314
330
1C558BFD
100
AcDbEntity
  8
1
 62
     7
100
AcDbLine
 10
84.81550434971007
 20
124.6733547325068
 30
0.0
 11
84.81550434971007
 21
137.6733547325059
 31
0.0
  0
LINE
  5
1C55B315
330
1C558BFD
100
AcDbEntity
  8
1
 62
     7
100
AcDbLine
 10
84.81550434971007
 20
124.6733547325068
 30
0.0
 11
84.81550434971007
 21
111.6733547325067
 31
0.0
  0
LINE
  5
1C55B316
330
1C558BFD
100
AcDbEntity
  8
SCALE
100
AcDbLine
 10
83.65439118250936
 20
109.6622477335767
 30
0.0
 11
84.81550434971007
 21
111.6733547325065
 31
0.0
  0
LINE
  5
1C55B317
330
1C558BFD
100
AcDbEntity
  8
JISSEN
 48
2.0
100
AcDbLine
 10
61.97661751691075
 20
139.6844617314372
 30
0.0
 11
83.65439118250845
 21
139.6844617314372
 31
0.0
  0
LINE
  5
1C55B318
330
1C558BFD
100
AcDbEntity
  8
JISSEN
 48
2.0
100
AcDbLine
 10
61.97661751691166
 20
109.6622477335767
 30
0.0
 11
83.65439118250936
 21
109.6622477335767
 31
0.0
  0
LINE
  5
1C55B319
330
1C558BFD
100
AcDbEntity
  8
JISSEN
 48
2.0
100
AcDbLine
 10
101.81550434971
 20
69.67516580164427
 30
0.0
 11
101.31550434971
 21
69.17516580164427
 31
0.0
  0
LINE
  5
1C55B31A
330
1C558BFD
100
AcDbEntity
  8
JISSEN
 48
2.0
100
AcDbLine
 10
101.31550434971
 20
56.17516580164426
 30
0.0
 11
101.81550434971
 21
55.67516580164427
 31
0.0
  0
LINE
  5
1C55B31B
330
1C558BFD
100
AcDbEntity
  8
1
 62
     7
100
AcDbLine
 10
101.31550434971
 20
69.17516580164427
 30
0.0
 11
101.31550434971
 21
56.17516580164404
 31
0.0
  0
LINE
  5
1C55B31C
330
1C558BFD
100
AcDbEntity
  8
ITTEN
100
AcDbLine
 10
28.8908904745418
 20
141.9938628081957
 30
0.0
 11
28.8908904745418
 21
107.3528466568182
 31
0.0
  0
CIRCLE
  5
1C55B31D
330
1C558BFD
100
AcDbEntity
  8
JISSEN
100
AcDbCircle
 10
28.8908904745418
 20
124.6733547325068
 30
0.0
 40
9.279205217737057
  0
CIRCLE
  5
1C55B31E
330
1C558BFD
100
AcDbEntity
  8
HATCH
100
AcDbCircle
 10
28.8908904745418
 20
124.6733547325068
 30
0.0
 40
10.47749999999999
  0
LINE
  5
1C55B31F
330
1C558BFD
100
AcDbEntity
  8
ITTEN
100
AcDbLine
 10
43.8908904745418
 20
124.6733547325068
 30
0.0
 11
13.8908904745418
 21
124.6733547325068
 31
0.0
  0
LINE
  5
1C55B320
330
1C558BFD
100
AcDbEntity
  8
JISSEN
100
AcDbLine
 10
60.81550434971095
 20
73.42516580164505
 30
0.0
 11
62.29627854326153
 21
71.94439160809628
 31
0.0
  0
LINE
  5
1C55B321
330
1C558BFD
100
AcDbEntity
  8
SAISEN
 62
     4
100
AcDbLine
 10
62.29627854325926
 20
71.9443916080965
 30
0.0
 11
62.29627854325926
 21
62.67516580164505
 31
0.0
  0
LINE
  5
1C55B322
330
1C558BFD
100
AcDbEntity
  8
1
 62
     4
100
AcDbLine
 10
61.09679467229179
 20
73.14387547906446
 30
0.0
 11
73.51550434971031
 21
72.75579080164513
 31
0.0
  0
LINE
  5
1C55B323
330
1C558BFD
100
AcDbEntity
  8
1
 62
     7
100
AcDbLine
 10
62.29627854325926
 20
71.94439160809676
 30
0.0
 11
70.91150434971322
 21
71.67516580164508
 31
0.0
  0
LINE
  5
1C55B324
330
1C558BFD
100
AcDbEntity
  8
JISSEN
 48
2.0
100
AcDbLine
 10
89.81550434971007
 20
69.17516580164427
 30
0.0
 11
89.81550434971007
 21
56.17516580164426
 31
0.0
  0
LINE
  5
1C55B325
330
1C558BFD
100
AcDbEntity
  8
1
 62
     7
100
AcDbLine
 10
89.81550434971007
 20
56.17516580164426
 30
0.0
 11
86.92875300376192
 21
61.17516580164426
 31
0.0
  0
LINE
  5
1C55B326
330
1C558BFD
100
AcDbEntity
  8
1
 62
     7
100
AcDbLine
 10
89.81550434971007
 20
69.17516580164427
 30
0.0
 11
86.92875300376192
 21
64.1751658016443
 31
0.0
  0
LINE
  5
1C55B327
330
1C558BFD
100
AcDbEntity
  8
1
 62
     7
100
AcDbLine
 10
89.81550434970916
 20
56.17516580164461
 30
0.0
 11
101.31550434971
 21
56.17516580164404
 31
0.0
  0
LINE
  5
1C55B328
330
1C558BFD
100
AcDbEntity
  8
1
 62
     7
100
AcDbLine
 10
89.8155043497096
 20
69.17516580164392
 30
0.0
 11
101.31550434971
 21
69.17516580164438
 31
0.0
  0
LINE
  5
1C55B329
330
1C558BFD
100
AcDbEntity
  8
1
 62
     7
100
AcDbLine
 10
84.81550434971007
 20
51.62516580164432
 30
0.0
 11
84.81550434971007
 21
49.67516580164342
 31
0.0
  0
LINE
  5
1C55B32A
330
1C558BFD
100
AcDbEntity
  8
1
 62
     7
100
AcDbLine
 10
84.8155043497096
 20
73.72516580164422
 30
0.0
 11
84.8155043497096
 21
75.67516580164424
 31
0.0
  0
LINE
  5
1C55B32C
330
1C558BFD
100
AcDbEntity
  8
SAISEN
100
AcDbLine
 10
101.4949882206775
 20
53.60464967261198
 30
0.0
 11
88.65550434970975
 21
53.20341580164434
 31
0.0
  0
LINE
  5
1C55B32D
330
1C558BFD
100
AcDbEntity
  8
1
 62
     7
100
AcDbLine
 10
86.55790421173525
 20
51.99236579733254
 30
0.0
 11
100.3125366077744
 21
52.42219805970883
 31
0.0
  0
LINE
  5
1C55B32E
330
1C558BFD
100
AcDbEntity
  8
SAISEN
100
AcDbLine
 10
88.65550434970975
 20
53.20341580164434
 30
0.0
 11
86.55790421173525
 21
51.99236579733254
 31
0.0
  0
LINE
  5
1C55B32F
330
1C558BFD
100
AcDbEntity
  8
SAISEN
 62
     4
100
AcDbLine
 10
88.65550434970975
 20
52.05791580164426
 30
0.0
 11
88.65550434970975
 21
53.20341580164434
 31
0.0
  0
LINE
  5
1C55B330
330
1C558BFD
100
AcDbEntity
  8
SAISEN
100
AcDbLine
 10
88.65550434970975
 20
72.14691580164419
 30
0.0
 11
101.4949882206775
 21
71.74568193067655
 31
0.0
  0
LINE
  5
1C55B331
330
1C558BFD
100
AcDbEntity
  8
1
 62
     7
100
AcDbLine
 10
100.3125366077744
 20
72.92813354357971
 30
0.0
 11
86.55790421173572
 21
73.357965805956
 31
0.0
  0
LINE
  5
1C55B332
330
1C558BFD
100
AcDbEntity
  8
SAISEN
100
AcDbLine
 10
86.26830532417818
 20
73.52516580164429
 30
0.0
 11
88.65550434970975
 21
72.14691580164419
 31
0.0
  0
LINE
  5
1C55B333
330
1C558BFD
100
AcDbEntity
  8
SAISEN
 62
     4
100
AcDbLine
 10
88.65550434970975
 20
72.14691580164419
 30
0.0
 11
88.65550434970975
 21
73.29241580164428
 31
0.0
  0
LINE
  5
1C55B334
330
1C558BFD
100
AcDbEntity
  8
1
 62
     7
100
AcDbLine
 10
101.81550434971
 20
71.42516580164427
 30
0.0
 11
100.3125366077744
 21
72.92813354357971
 31
0.0
  0
LINE
  5
1C55B335
330
1C558BFD
100
AcDbEntity
  8
ITTEN
100
AcDbLine
 10
103.81550434971
 20
62.67516580164429
 30
0.0
 11
58.81550434971049
 21
62.67516580164429
 31
0.0
  0
LINE
  5
1C55B336
330
1C558BFD
100
AcDbEntity
  8
JISSEN
100
AcDbLine
 10
86.26830532417818
 20
73.52516580164429
 30
0.0
 11
85.01550434970988
 21
73.52516580164429
 31
0.0
  0
ARC
  5
1C55B337
330
1C558BFD
100
AcDbEntity
  8
JISSEN
100
AcDbCircle
 10
85.01550434970988
 20
73.72516580164422
 30
0.0
 40
0.2
100
AcDbArc
 50
179.9999999999967
 51
270.0
  0
LINE
  5
1C55B338
330
1C558BFD
100
AcDbEntity
  8
JISSEN
100
AcDbLine
 10
86.26830532417818
 20
73.52516580164429
 30
0.0
 11
86.55790421173572
 21
73.357965805956
 31
0.0
  0
LINE
  5
1C55B339
330
1C558BFD
100
AcDbEntity
  8
JISSEN
100
AcDbLine
 10
86.26830532417818
 20
51.82516580164436
 30
0.0
 11
86.55790421173572
 21
51.99236579733254
 31
0.0
  0
ARC
  5
1C55B33A
330
1C558BFD
100
AcDbEntity
  8
JISSEN
100
AcDbCircle
 10
85.01550434970988
 20
51.62516580164432
 30
0.0
 40
0.2
100
AcDbArc
 50
90.0
 51
180.0000000000032
  0
LINE
  5
1C55B33B
330
1C558BFD
100
AcDbEntity
  8
JISSEN
100
AcDbLine
 10
86.26830532417818
 20
51.82516580164436
 30
0.0
 11
85.01550434970988
 21
51.82516580164424
 31
0.0
  0
LINE
  5
1C55B33C
330
1C558BFD
100
AcDbEntity
  8
1
 62
     7
100
AcDbLine
 10
101.81550434971
 20
53.92516580164427
 30
0.0
 11
100.3125366077744
 21
52.42219805970883
 31
0.0
  0
LINE
  5
1C55B33D
330
1C558BFD
100
AcDbEntity
  8
SAISEN
100
AcDbLine
 10
100.3125366077744
 20
72.92813354357971
 30
0.0
 11
100.3125366077744
 21
71.78263354357973
 31
0.0
  0
LINE
  5
1C55B33E
330
1C558BFD
100
AcDbEntity
  8
SAISEN
100
AcDbLine
 10
100.3125366077744
 20
53.56769805970881
 30
0.0
 11
100.3125366077744
 21
52.42219805970883
 31
0.0
  0
LINE
  5
1C55B33F
330
1C558BFD
100
AcDbEntity
  8
JISSEN
100
AcDbLine
 10
80.81550434971052
 20
71.67516580164502
 30
0.0
 11
70.91150434971368
 21
71.67516580164508
 31
0.0
  0
LINE
  5
1C55B340
330
1C558BFD
100
AcDbEntity
  8
SAISEN
 48
2.0
100
AcDbLine
 10
73.51550434970985
 20
72.75579080164539
 30
0.0
 11
75.38720175363971
 21
71.67516580164502
 31
0.0
  0
LINE
  5
1C55B341
330
1C558BFD
100
AcDbEntity
  8
SAISEN
 48
2.0
100
AcDbLine
 10
73.51550434971031
 20
52.59454080164499
 30
0.0
 11
75.38720175363971
 21
53.67516580164508
 31
0.0
  0
LINE
  5
1C55B342
330
1C558BFD
100
AcDbEntity
  8
JISSEN
100
AcDbLine
 10
80.81550434971097
 20
53.67516580164508
 30
0.0
 11
70.91150434971595
 21
53.67516580164509
 31
0.0
  0
LINE
  5
1C55B343
330
1C558BFD
100
AcDbEntity
  8
1
 62
     7
100
AcDbLine
 10
62.29627854325926
 20
53.40593999519336
 30
0.0
 11
70.91150434971322
 21
53.67516580164502
 31
0.0
  0
LINE
  5
1C55B344
330
1C558BFD
100
AcDbEntity
  8
1
 62
     4
100
AcDbLine
 10
61.09679467229224
 20
52.20645612422567
 30
0.0
 11
73.51550434971031
 21
52.59454080164499
 31
0.0
  0
LINE
  5
1C55B345
330
1C558BFD
100
AcDbEntity
  8
SAISEN
 62
     4
100
AcDbLine
 10
62.29627854325926
 20
53.40593999519359
 30
0.0
 11
62.29627854325926
 21
62.67516580164505
 31
0.0
  0
LINE
  5
1C55B346
330
1C558BFD
100
AcDbEntity
  8
JISSEN
100
AcDbLine
 10
60.81550434971095
 20
51.92516580164505
 30
0.0
 11
62.29627854326153
 21
53.40593999519382
 31
0.0
  0
LINE
  5
1C55B347
330
1C558BFD
100
AcDbEntity
  8
JISSEN
100
AcDbLine
 10
86.92875300376192
 20
64.17516580164427
 30
0.0
 11
80.81550434971189
 21
64.17516580164427
 31
0.0
  0
LINE
  5
1C55B348
330
1C558BFD
100
AcDbEntity
  8
JISSEN
100
AcDbLine
 10
86.92875300376192
 20
61.1751658016443
 30
0.0
 11
80.81550434971052
 21
61.17516580164431
 31
0.0
  0
LINE
  5
1C55B349
330
1C558BFD
100
AcDbEntity
  8
JISSEN
 48
2.0
100
AcDbLine
 10
86.92875300376192
 20
64.1751658016443
 30
0.0
 11
86.92875300376192
 21
61.17516580164426
 31
0.0
  0
LWPOLYLINE
  5
1C55B4E4
330
1C558BFD
100
AcDbEntity
  8
JISSEN
 48
2.0
100
AcDbPolyline
 90
        6
 70
     1
 43
0.0
 10
15.8908904745418
 20
117.1678012330416
 10
28.8908904745418
 20
109.6622477335767
 10
41.89089047454181
 20
117.1678012330416
 10
41.89089047454181
 20
132.1789082319723
 10
28.8908904745418
 20
139.6844617314372
 10
15.8908904745418
 20
132.1789082319723
  0
CIRCLE
  5
1C55B4E5
330
1C558BFD
100
AcDbEntity
  8
JISSEN
 48
2.0
100
AcDbCircle
 10
28.8908904745418
 20
124.6733547325068
 30
0.0
 40
13.0
  0
LINE
  5
1C55B4F3
330
1C558BFD
100
AcDbEntity
  8
JISSEN
 48
2.0
100
AcDbLine
 10
61.97661751691075
 20
77.6862728005747
 30
0.0
 11
83.65439118250799
 21
77.68627280057471
 31
0.0
  0
LINE
  5
1C55B4F4
330
1C558BFD
100
AcDbEntity
  8
SCALE
100
AcDbLine
 10
61.97661751691166
 20
77.68627280057549
 30
0.0
 11
60.81550434971049
 21
75.67516580164505
 31
0.0
  0
LINE
  5
1C55B4F5
330
1C558BFD
100
AcDbEntity
  8
SCALE
100
AcDbLine
 10
83.65439118250799
 20
77.68627280057471
 30
0.0
 11
84.8155043497096
 21
75.67516580164461
 31
0.0
  0
LINE
  5
1C55B4F6
330
1C558BFD
100
AcDbEntity
  8
JISSEN
 48
2.0
100
AcDbLine
 10
61.97661751691166
 20
47.66405880271425
 30
0.0
 11
83.65439118250936
 21
47.66405880271425
 31
0.0
  0
LINE
  5
1C55B4F7
330
1C558BFD
100
AcDbEntity
  8
SCALE
100
AcDbLine
 10
83.65439118250936
 20
47.66405880271422
 30
0.0
 11
84.81550434971007
 21
49.67516580164404
 31
0.0
  0
LINE
  5
1C55B4F8
330
1C558BFD
100
AcDbEntity
  8
SCALE
100
AcDbLine
 10
61.97661751691166
 20
47.664058802715
 30
0.0
 11
60.81550434971049
 21
49.67516580164505
 31
0.0
  0
LWPOLYLINE
  5
1C55B554
330
1C558BFD
100
AcDbEntity
  8
SUNPOU
 48
2.0
100
AcDbPolyline
 90
        2
 70
     0
 43
0.0
 10
28.8908904745418
 20
143.0833751183268
 10
35.17254873278043
 20
143.0833751183268
1001
ACAD
1000
DSTYLE
1002
{
1070
   147
1040
1.0
1070
    77
1070
     0
1002
}
  0
LWPOLYLINE
  5
1C55B5A5
330
1C558BFD
100
AcDbEntity
  8
SUNPOU
 48
2.0
100
AcDbPolyline
 90
        2
 70
     0
 43
0.0
 10
28.8908904745418
 20
106.2633343466871
 10
35.17254873278043
 20
106.2633343466871
1001
ACAD
1000
DSTYLE
1002
{
1070
   147
1040
1.0
1070
    77
1070
     0
1002
}
  0
TEXT
  5
1C55B5A7
330
1C558BFD
100
AcDbEntity
  8
SUNPOU
100
AcDbText
 10
32.15076608827811
 20
106.8667100839387
 30
0.0
 40
2.0
  1
A
  7
K
100
AcDbText
  0
LINE
  5
1C55B5A8
330
1C558BFD
100
AcDbEntity
  8
WAKU
 62
     0
 48
2.0
100
AcDbLine
 10
28.8908904745418
 20
105.173822036556
 30
0.0
 11
28.8908904745418
 21
107.3528466568182
 31
0.0
  0
INSERT
  5
1C55B5B1
330
1C558BFD
100
AcDbEntity
  8
SUNPOU
 48
2.0
100
AcDbBlockReference
  2
ARROWANG
 10
28.8908904745418
 20
106.2633343466871
 30
0.0
 41
0.9899999999997817
 42
0.990000000000009
 43
0.99
 50
180.0
  0
INSERT
  5
1C55B5B2
330
1C558BFD
100
AcDbEntity
  8
SUNPOU
 48
2.0
100
AcDbBlockReference
  2
ARROWANG
 10
28.8908904745418
 20
143.0833751183268
 30
0.0
 41
0.9899999999997817
 42
0.990000000000009
 43
0.99
 50
180.0
  0
TEXT
  5
1C55B5BB
330
1C558BFD
100
AcDbEntity
  8
TEXT
100
AcDbText
 10
2.557367141716582
 20
24.61716741282828
 30
0.0
 40
2.0
  1
%%U※一斉開放弁（減圧型・空気制御方式）UDV型の附属品
  7
K
 72
     4
 11
32.76212904647849
 21
25.41716741282828
 31
0.0
100
AcDbText
  0
LINE
  5
1C55B5BD
330
1C558BFD
100
AcDbEntity
  8
SAISEN
100
AcDbLine
 10
75.38720175363971
 20
71.67516580164502
 30
0.0
 11
75.38720175363973
 21
53.67516580164508
 31
0.0
  0
LINE
  5
1C55B5BE
330
1C558BFD
100
AcDbEntity
  8
SAISEN
100
AcDbLine
 10
86.55790421173557
 20
135.3561547368185
 30
0.0
 11
86.5579042117362
 21
113.990554728195
 31
0.0
  0
LINE
  5
1C55B5D1
330
1C558BFD
100
AcDbEntity
  8
JISSEN
100
AcDbLine
 10
60.81550434971049
 20
75.67516580164505
 30
0.0
 11
60.81550434971094
 21
49.67516580164424
 31
0.0
  0
LINE
  5
1C55B5D2
330
1C558BFD
100
AcDbEntity
  8
JISSEN
100
AcDbLine
 10
60.81550434971049
 20
137.6733547325082
 30
0.0
 11
60.81550434971049
 21
111.6733547325075
 31
0.0
  0
LINE
  5
1C55B5D3
330
1C558BFD
100
AcDbEntity
  8
JISSEN
100
AcDbLine
 10
101.81550434971
 20
133.4233547325067
 30
0.0
 11
101.81550434971
 21
115.9233547325067
 31
0.0
  0
LINE
  5
1C55B5D4
330
1C558BFD
100
AcDbEntity
  8
JISSEN
100
AcDbLine
 10
101.81550434971
 20
71.42516580164427
 30
0.0
 11
101.81550434971
 21
53.92516580164425
 31
0.0
  0
LINE
  5
1C55B5D5
330
1C558BFD
100
AcDbEntity
  8
ITTEN
100
AcDbLine
 10
103.81550434971
 20
124.6733547325068
 30
0.0
 11
58.81550434971049
 21
124.6733547325068
 31
0.0
  0
LINE
  5
1C55B5D7
330
1C558BFD
100
AcDbEntity
  8
JISSEN
100
AcDbLine
 10
67.81550434971049
 20
125.6733547325068
 30
0.0
 11
67.81550434971049
 21
123.6733547325068
 31
0.0
  0
LINE
  5
1C55B5D8
330
1C558BFD
100
AcDbEntity
  8
JISSEN
100
AcDbLine
 10
67.81550434971049
 20
123.6733547325068
 30
0.0
 11
73.8155043497105
 21
123.6733547325068
 31
0.0
  0
LINE
  5
1C55B5D9
330
1C558BFD
100
AcDbEntity
  8
JISSEN
100
AcDbLine
 10
67.81550434971049
 20
125.6733547325068
 30
0.0
 11
73.8155043497105
 21
125.6733547325068
 31
0.0
  0
LINE
  5
1C55B5DC
330
1C558BFD
100
AcDbEntity
  8
JISSEN
100
AcDbLine
 10
73.8155043497105
 20
125.6733547325068
 30
0.0
 11
73.8155043497105
 21
126.6733547325068
 31
0.0
  0
LINE
  5
1C55B5DD
330
1C558BFD
100
AcDbEntity
  8
JISSEN
100
AcDbLine
 10
73.8155043497105
 20
126.6733547325068
 30
0.0
 11
76.81550434971049
 21
124.6733547325068
 31
0.0
  0
LINE
  5
1C55B5DE
330
1C558BFD
100
AcDbEntity
  8
JISSEN
100
AcDbLine
 10
73.8155043497105
 20
122.6733547325068
 30
0.0
 11
76.81550434971049
 21
124.6733547325068
 31
0.0
  0
LINE
  5
1C55B5DF
330
1C558BFD
100
AcDbEntity
  8
JISSEN
100
AcDbLine
 10
73.8155043497105
 20
123.6733547325068
 30
0.0
 11
73.8155043497105
 21
122.6733547325068
 31
0.0
  0
ENDSEC
  0
SECTION
  2
OBJECTS
  0
DICTIONARY
  5
1C558BF1
330
0
100
AcDbDictionary
  3
ACAD_GROUP
350
1C558BF2
  3
ACAD_LAYOUT
350
1C559DDC
  3
ACAD_MLINESTYLE
350
1C558BF3
  3
ACAD_PLOTSETTINGS
350
1C559DDD
  3
ACAD_PLOTSTYLENAME
350
1C559DDA
  3
ACDBHEADERROUNDTRIPXREC
350
1C55B659
  3
ACDBVARIABLEDICTIONARY
350
1C55B5EA
  0
DICTIONARY
  5
1C55AFCD
330
1C558BE7
100
AcDbDictionary
280
     1
  3
ACAD_LAYERSTATES
360
1C55AFCE
  0
DICTIONARY
  5
1C55B67C
330
1C558BFD
100
AcDbDictionary
280
     1
  3
ACAD_LAYOUTSELFREF
360
1C55B67D
  0
DICTIONARY
  5
1C55B67A
330
1C558BFA
100
AcDbDictionary
280
     1
  3
ACAD_LAYOUTSELFREF
360
1C55B67B
  0
DICTIONARY
  5
1C558BF2
102
{ACAD_REACTORS
330
1C558BF1
102
}
330
1C558BF1
100
AcDbDictionary
  0
DICTIONARY
  5
1C559DDC
102
{ACAD_REACTORS
330
1C558BF1
102
}
330
1C558BF1
100
AcDbDictionary
  0
DICTIONARY
  5
1C558BF3
102
{ACAD_REACTORS
330
1C558BF1
102
}
330
1C558BF1
100
AcDbDictionary
  3
STANDARD
350
1C558C00
  0
DICTIONARY
  5
1C559DDD
102
{ACAD_REACTORS
330
1C558BF1
102
}
330
1C558BF1
100
AcDbDictionary
  0
ACDBDICTIONARYWDFLT
  5
1C559DDA
102
{ACAD_REACTORS
330
1C558BF1
102
}
330
1C558BF1
100
AcDbDictionary
281
     1
  3
Normal
350
1C559DDB
100
AcDbDictionaryWithDefault
340
1C559DDB
  0
DICTIONARY
  5
1C55B659
102
{ACAD_REACTORS
330
1C558BF1
102
}
330
1C558BF1
100
AcDbDictionary
  3
CEPSNTYPE
350
1C55B663
  3
DIMSTYLEDATA
350
1C55B667
  3
FINGERPRINTGUID
350
1C55B664
  3
HYPERLINKBASE
350
1C55B65C
  3
INSUNITS
350
1C55B662
  3
LAYOUTDICT
350
1C55B65E
  3
LWETCUNION
350
1C55B661
  3
PLOTSETDICT
350
1C55B65F
  3
PLOTSTYLNAMDICT
350
1C55B660
  3
PSVPSCALE
350
1C55B666
  3
PUCSBASE
350
1C55B66A
  3
PUCSORGBACK
350
1C55B670
  3
PUCSORGBOTTOM
350
1C55B66C
  3
PUCSORGFRONT
350
1C55B66F
  3
PUCSORGLEFT
350
1C55B66D
  3
PUCSORGRIGHT
350
1C55B66E
  3
PUCSORGTOP
350
1C55B66B
  3
PUCSORTHOREF
350
1C55B668
  3
PUCSORTHOVIEW
350
1C55B669
  3
STYLESHEET
350
1C55B65D
  3
TSTACKALIGN
350
1C55B65A
  3
TSTACKSIZE
350
1C55B65B
  3
UCSBASE
350
1C55B673
  3
UCSORGBACK
350
1C55B679
  3
UCSORGBOTTOM
350
1C55B675
  3
UCSORGFRONT
350
1C55B678
  3
UCSORGLEFT
350
1C55B676
  3
UCSORGRIGHT
350
1C55B677
  3
UCSORGTOP
350
1C55B674
  3
UCSORTHOREF
350
1C55B671
  3
UCSORTHOVIEW
350
1C55B672
  3
VERSIONGUID
350
1C55B665
  0
DICTIONARY
  5
1C55B5EA
102
{ACAD_REACTORS
330
1C558BF1
102
}
330
1C558BF1
100
AcDbDictionary
  3
DIMASSOC
350
1C55B5EB
  0
DICTIONARY
  5
1C55AFCE
102
{ACAD_REACTORS
330
1C55AFCD
102
}
330
1C55AFCD
100
AcDbDictionary
  0
XRECORD
  5
1C55B67D
102
{ACAD_REACTORS
330
1C55B67C
102
}
330
1C55B67C
100
AcDbXrecord
340
1C558BFD
  0
XRECORD
  5
1C55B67B
102
{ACAD_REACTORS
330
1C55B67A
102
}
330
1C55B67A
100
AcDbXrecord
340
1C558BFA
  0
MLINESTYLE
  5
1C558C00
102
{ACAD_REACTORS
330
1C558BF3
102
}
330
1C558BF3
100
AcDbMlineStyle
  2
STANDARD
 70
     0
  3

 62
     0
 51
90.0
 52
90.0
 71
     2
 49
0.5
 62
   256
  6
BYLAYER
 49
-0.5
 62
   256
  6
BYLAYER
  0
ACDBPLACEHOLDER
  5
1C559DDB
102
{ACAD_REACTORS
330
1C559DDA
102
}
330
1C559DDA
100
AcDbPlaceHolder
280
     0
  0
XRECORD
  5
1C55B663
102
{ACAD_REACTORS
330
1C55B659
102
}
330
1C55B659
100
AcDbXrecord
 90
        0
  0
XRECORD
  5
1C55B667
102
{ACAD_REACTORS
330
1C55B659
102
}
330
1C55B659
100
AcDbXrecord
1000
DSTYLE
1002
{
1070
   341
340
1C558C07
1070
   342
340
1C558C07
1070
   343
340
1C558C07
1070
   344
340
1C558C07
1002
}
  0
XRECORD
  5
1C55B664
102
{ACAD_REACTORS
330
1C55B659
102
}
330
1C55B659
100
AcDbXrecord
  1
{D101E45C-4808-4D00-AA56-FD23D610C538}
  0
XRECORD
  5
1C55B65C
102
{ACAD_REACTORS
330
1C55B659
102
}
330
1C55B659
100
AcDbXrecord
  1

  0
XRECORD
  5
1C55B662
102
{ACAD_REACTORS
330
1C55B659
102
}
330
1C55B659
100
AcDbXrecord
 90
        0
  0
XRECORD
  5
1C55B65E
102
{ACAD_REACTORS
330
1C55B659
102
}
330
1C55B659
100
AcDbXrecord
340
1C559DDC
  0
XRECORD
  5
1C55B661
102
{ACAD_REACTORS
330
1C55B659
102
}
330
1C55B659
100
AcDbXrecord
 90
    10781
  0
XRECORD
  5
1C55B65F
102
{ACAD_REACTORS
330
1C55B659
102
}
330
1C55B659
100
AcDbXrecord
340
1C559DDD
  0
XRECORD
  5
1C55B660
102
{ACAD_REACTORS
330
1C55B659
102
}
330
1C55B659
100
AcDbXrecord
340
1C559DDA
  0
XRECORD
  5
1C55B666
102
{ACAD_REACTORS
330
1C55B659
102
}
330
1C55B659
100
AcDbXrecord
 40
0.0
  0
XRECORD
  5
1C55B66A
102
{ACAD_REACTORS
330
1C55B659
102
}
330
1C55B659
100
AcDbXrecord
340
0
  0
XRECORD
  5
1C55B670
102
{ACAD_REACTORS
330
1C55B659
102
}
330
1C55B659
100
AcDbXrecord
 10
0.0
 20
0.0
 30
0.0
  0
XRECORD
  5
1C55B66C
102
{ACAD_REACTORS
330
1C55B659
102
}
330
1C55B659
100
AcDbXrecord
 10
0.0
 20
0.0
 30
0.0
  0
XRECORD
  5
1C55B66F
102
{ACAD_REACTORS
330
1C55B659
102
}
330
1C55B659
100
AcDbXrecord
 10
0.0
 20
0.0
 30
0.0
  0
XRECORD
  5
1C55B66D
102
{ACAD_REACTORS
330
1C55B659
102
}
330
1C55B659
100
AcDbXrecord
 10
0.0
 20
0.0
 30
0.0
  0
XRECORD
  5
1C55B66E
102
{ACAD_REACTORS
330
1C55B659
102
}
330
1C55B659
100
AcDbXrecord
 10
0.0
 20
0.0
 30
0.0
  0
XRECORD
  5
1C55B66B
102
{ACAD_REACTORS
330
1C55B659
102
}
330
1C55B659
100
AcDbXrecord
 10
0.0
 20
0.0
 30
0.0
  0
XRECORD
  5
1C55B668
102
{ACAD_REACTORS
330
1C55B659
102
}
330
1C55B659
100
AcDbXrecord
340
0
  0
XRECORD
  5
1C55B669
102
{ACAD_REACTORS
330
1C55B659
102
}
330
1C55B659
100
AcDbXrecord
 70
     0
  0
XRECORD
  5
1C55B65D
102
{ACAD_REACTORS
330
1C55B659
102
}
330
1C55B659
100
AcDbXrecord
  1
aclt.ctb
  0
XRECORD
  5
1C55B65A
102
{ACAD_REACTORS
330
1C55B659
102
}
330
1C55B659
100
AcDbXrecord
 90
        1
  0
XRECORD
  5
1C55B65B
102
{ACAD_REACTORS
330
1C55B659
102
}
330
1C55B659
100
AcDbXrecord
 90
       70
  0
XRECORD
  5
1C55B673
102
{ACAD_REACTORS
330
1C55B659
102
}
330
1C55B659
100
AcDbXrecord
340
0
  0
XRECORD
  5
1C55B679
102
{ACAD_REACTORS
330
1C55B659
102
}
330
1C55B659
100
AcDbXrecord
 10
0.0
 20
0.0
 30
0.0
  0
XRECORD
  5
1C55B675
102
{ACAD_REACTORS
330
1C55B659
102
}
330
1C55B659
100
AcDbXrecord
 10
0.0
 20
0.0
 30
0.0
  0
XRECORD
  5
1C55B678
102
{ACAD_REACTORS
330
1C55B659
102
}
330
1C55B659
100
AcDbXrecord
 10
0.0
 20
0.0
 30
0.0
  0
XRECORD
  5
1C55B676
102
{ACAD_REACTORS
330
1C55B659
102
}
330
1C55B659
100
AcDbXrecord
 10
0.0
 20
0.0
 30
0.0
  0
XRECORD
  5
1C55B677
102
{ACAD_REACTORS
330
1C55B659
102
}
330
1C55B659
100
AcDbXrecord
 10
0.0
 20
0.0
 30
0.0
  0
XRECORD
  5
1C55B674
102
{ACAD_REACTORS
330
1C55B659
102
}
330
1C55B659
100
AcDbXrecord
 10
0.0
 20
0.0
 30
0.0
  0
XRECORD
  5
1C55B671
102
{ACAD_REACTORS
330
1C55B659
102
}
330
1C55B659
100
AcDbXrecord
340
0
  0
XRECORD
  5
1C55B672
102
{ACAD_REACTORS
330
1C55B659
102
}
330
1C55B659
100
AcDbXrecord
 70
     0
  0
XRECORD
  5
1C55B665
102
{ACAD_REACTORS
330
1C55B659
102
}
330
1C55B659
100
AcDbXrecord
  1
{68D0E53B-AEF8-4F3D-B7C6-2FB466BBBCAC}
  0
DICTIONARYVAR
  5
1C55B5EB
102
{ACAD_REACTORS
330
1C55B5EA
102
}
330
1C55B5EA
100
DictionaryVariables
280
     0
  1
0
  0
ENDSEC
  0
EOF
