  0
SECTION
  2
HEADER
  9
$ACADVER
  1
AC1014
  9
$ACADMAINTVER
 70
     9
  9
$DWGCODEPAGE
  3
ANSI_932
  9
$INSBASE
 10
0.0
 20
0.0
 30
0.0
  9
$EXTMIN
 10
0.0
 20
-0.0000002575875442
 30
0.0
  9
$EXTMAX
 10
180.999999276
 20
272.9999999999999
 30
1.0
  9
$LIMMIN
 10
0.0
 20
0.0
  9
$LIMMAX
 10
180.999999276
 20
272.9999999999999
  9
$ORTHOMODE
 70
     1
  9
$REGENMODE
 70
     1
  9
$FILLMODE
 70
     1
  9
$QTEXTMODE
 70
     0
  9
$MIRRTEXT
 70
     0
  9
$DRAGMODE
 70
     2
  9
$LTSCALE
 40
5.0
  9
$OSMODE
 70
   167
  9
$ATTMODE
 70
     1
  9
$TEXTSIZE
 40
3.0
  9
$TRACEWID
 40
0.05
  9
$TEXTSTYLE
  7
BIGFONT
  9
$CLAYER
  8
JISSEN
  9
$CELTYPE
  6
BYLAYER
  9
$CECOLOR
 62
   256
  9
$CELTSCALE
 40
1.0
  9
$DELOBJ
 70
     1
  9
$DISPSILH
 70
     0
  9
$DIMSCALE
 40
1.0
  9
$DIMASZ
 40
1.5
  9
$DIMEXO
 40
1.0
  9
$DIMDLI
 40
6.0
  9
$DIMRND
 40
0.0
  9
$DIMDLE
 40
0.0
  9
$DIMEXE
 40
1.0
  9
$DIMTP
 40
0.0
  9
$DIMTM
 40
0.0
  9
$DIMTXT
 40
3.0
  9
$DIMCEN
 40
1.0
  9
$DIMTSZ
 40
0.0
  9
$DIMTOL
 70
     0
  9
$DIMLIM
 70
     0
  9
$DIMTIH
 70
     0
  9
$DIMTOH
 70
     0
  9
$DIMSE1
 70
     0
  9
$DIMSE2
 70
     0
  9
$DIMTAD
 70
     0
  9
$DIMZIN
 70
     8
  9
$DIMBLK
  1
ARROW
  9
$DIMASO
 70
     0
  9
$DIMSHO
 70
     0
  9
$DIMPOST
  1

  9
$DIMAPOST
  1

  9
$DIMALT
 70
     0
  9
$DIMALTD
 70
     2
  9
$DIMALTF
 40
25.4
  9
$DIMLFAC
 40
1.0
  9
$DIMTOFL
 70
     1
  9
$DIMTVP
 40
0.0
  9
$DIMTIX
 70
     0
  9
$DIMSOXD
 70
     0
  9
$DIMSAH
 70
     0
  9
$DIMBLK1
  1
ARROWANG
  9
$DIMBLK2
  1
ARROWANG
  9
$DIMSTYLE
  2
IMAO
  9
$DIMCLRD
 70
     0
  9
$DIMCLRE
 70
     0
  9
$DIMCLRT
 70
     0
  9
$DIMTFAC
 40
1.0
  9
$DIMGAP
 40
0.09
  9
$DIMJUST
 70
     0
  9
$DIMSD1
 70
     0
  9
$DIMSD2
 70
     0
  9
$DIMTOLJ
 70
     1
  9
$DIMTZIN
 70
     8
  9
$DIMALTZ
 70
     8
  9
$DIMALTTZ
 70
     8
  9
$DIMFIT
 70
     5
  9
$DIMUPT
 70
     0
  9
$DIMUNIT
 70
     2
  9
$DIMDEC
 70
     2
  9
$DIMTDEC
 70
     2
  9
$DIMALTU
 70
     2
  9
$DIMALTTD
 70
     2
  9
$DIMTXSTY
  7
BIGFONT
  9
$DIMAUNIT
 70
     0
  9
$LUNITS
 70
     2
  9
$LUPREC
 70
     2
  9
$SKETCHINC
 40
0.1
  9
$FILLETRAD
 40
0.2
  9
$AUNITS
 70
     0
  9
$AUPREC
 70
     2
  9
$MENU
  1
stdr12j
  9
$ELEVATION
 40
0.0
  9
$PELEVATION
 40
0.0
  9
$THICKNESS
 40
0.0
  9
$LIMCHECK
 70
     0
  9
$BLIPMODE
 70
     0
  9
$CHAMFERA
 40
0.0
  9
$CHAMFERB
 40
0.0
  9
$CHAMFERC
 40
0.0
  9
$CHAMFERD
 40
0.0
  9
$SKPOLY
 70
     0
  9
$TDCREATE
 40
2450617.453041203
  9
$TDUPDATE
 40
2453334.752094328
  9
$TDINDWG
 40
0.1272772569
  9
$TDUSRTIMER
 40
0.1272772569
  9
$USRTIMER
 70
     1
  9
$ANGBASE
 50
0.0
  9
$ANGDIR
 70
     0
  9
$PDMODE
 70
     0
  9
$PDSIZE
 40
0.0
  9
$PLINEWID
 40
0.0
  9
$COORDS
 70
     2
  9
$SPLFRAME
 70
     0
  9
$SPLINETYPE
 70
     6
  9
$SPLINESEGS
 70
     8
  9
$ATTDIA
 70
     0
  9
$ATTREQ
 70
     1
  9
$HANDLING
 70
 22529
  9
$HANDSEED
  5
EF7C87F3C
  9
$SURFTAB1
 70
     6
  9
$SURFTAB2
 70
     6
  9
$SURFTYPE
 70
     6
  9
$SURFU
 70
     6
  9
$SURFV
 70
     6
  9
$UCSNAME
  2

  9
$UCSORG
 10
0.0
 20
0.0
 30
0.0
  9
$UCSXDIR
 10
1.0
 20
0.0
 30
0.0
  9
$UCSYDIR
 10
0.0
 20
1.0
 30
0.0
  9
$PUCSNAME
  2

  9
$PUCSORG
 10
0.0
 20
0.0
 30
0.0
  9
$PUCSXDIR
 10
1.0
 20
0.0
 30
0.0
  9
$PUCSYDIR
 10
0.0
 20
1.0
 30
0.0
  9
$USERI1
 70
     0
  9
$USERI2
 70
     1
  9
$USERI3
 70
     1
  9
$USERI4
 70
     3
  9
$USERI5
 70
     0
  9
$USERR1
 40
1.0
  9
$USERR2
 40
3.0
  9
$USERR3
 40
3.0
  9
$USERR4
 40
1.5
  9
$USERR5
 40
8.0
  9
$WORLDVIEW
 70
     1
  9
$SHADEDGE
 70
     3
  9
$SHADEDIF
 70
    70
  9
$TILEMODE
 70
     1
  9
$MAXACTVP
 70
    16
  9
$PINSBASE
 10
0.0
 20
0.0
 30
0.0
  9
$PLIMCHECK
 70
     0
  9
$PEXTMIN
 10
1.000000000000000E+20
 20
1.000000000000000E+20
 30
1.000000000000000E+20
  9
$PEXTMAX
 10
-1.000000000000000E+20
 20
-1.000000000000000E+20
 30
-1.000000000000000E+20
  9
$PLIMMIN
 10
0.0
 20
0.0
  9
$PLIMMAX
 10
12.0
 20
9.0
  9
$UNITMODE
 70
     0
  9
$VISRETAIN
 70
     0
  9
$PLINEGEN
 70
     0
  9
$PSLTSCALE
 70
     0
  9
$TREEDEPTH
 70
  3020
  9
$PICKSTYLE
 70
     1
  9
$CMLSTYLE
  2
STANDARD
  9
$CMLJUST
 70
     0
  9
$CMLSCALE
 40
1.0
  9
$PROXYGRAPHICS
 70
     1
  9
$MEASUREMENT
 70
     0
  0
ENDSEC
  0
SECTION
  2
CLASSES
  0
CLASS
  1
LWPOLYLINE
  2
AcDbPolyline
  3
AutoCAD 2000
 90
        0
280
     0
281
     1
  0
CLASS
  1
HATCH
  2
AcDbHatch
  3
AutoCAD 2000
 90
        0
280
     0
281
     1
  0
CLASS
  1
ACDBDICTIONARYWDFLT
  2
AcDbDictionaryWithDefault
  3
AutoCAD 2000
 90
        0
280
     0
281
     0
  0
CLASS
  1
ACDBPLACEHOLDER
  2
AcDbPlaceHolder
  3
AutoCAD 2000
 90
        0
280
     0
281
     0
  0
CLASS
  1
LAYOUT
  2
AcDbLayout
  3
AutoCAD 2000
 90
        0
280
     0
281
     0
  0
CLASS
  1
LONG_TRANSACTION
  2
AcDbLongTransaction
  3
AutoCAD 2000
 90
        0
280
     0
281
     0
  0
CLASS
  1
LWPOLYLINE
  2
AcDbPolyline
  3
AutoCAD 2000
 90
        0
280
     0
281
     1
  0
CLASS
  1
HATCH
  2
AcDbHatch
  3
AutoCAD 2000
 90
        0
280
     0
281
     1
  0
CLASS
  1
XRECORD
  2
AcDbXrecord
  3
AutoCAD 2000
 90
        0
280
     0
281
     0
  0
CLASS
  1
DICTIONARYVAR
  2
AcDbDictionaryVar
  3
AutoCAD 2000
 90
        0
280
     0
281
     0
  0
CLASS
  1
LONG_TRANSACTION
  2
AcDbLongTransaction
  3
AutoCAD 2000
 90
        0
280
     0
281
     0
  0
CLASS
  1
LWPOLYLINE
  2
AcDbPolyline
  3
AutoCAD 2000
 90
        0
280
     0
281
     1
  0
CLASS
  1
HATCH
  2
AcDbHatch
  3
AutoCAD 2000
 90
        0
280
     0
281
     1
  0
CLASS
  1
XRECORD
  2
AcDbXrecord
  3
AutoCAD 2000
 90
        0
280
     0
281
     0
  0
CLASS
  1
LONG_TRANSACTION
  2
AcDbLongTransaction
  3
AutoCAD 2000
 90
        0
280
     0
281
     0
  0
CLASS
  1
LWPOLYLINE
  2
AcDbPolyline
  3
AutoCAD 2000
 90
        0
280
     0
281
     1
  0
CLASS
  1
HATCH
  2
AcDbHatch
  3
AutoCAD 2000
 90
        0
280
     0
281
     1
  0
CLASS
  1
XRECORD
  2
AcDbXrecord
  3
AutoCAD 2000
 90
        0
280
     0
281
     0
  0
CLASS
  1
LONG_TRANSACTION
  2
AcDbLongTransaction
  3
AutoCAD 2000
 90
        0
280
     0
281
     0
  0
CLASS
  1
LWPOLYLINE
  2
AcDbPolyline
  3
AutoCAD 2000
 90
        0
280
     0
281
     1
  0
CLASS
  1
HATCH
  2
AcDbHatch
  3
AutoCAD 2000
 90
        0
280
     0
281
     1
  0
CLASS
  1
XRECORD
  2
AcDbXrecord
  3
AutoCAD 2000
 90
        0
280
     0
281
     0
  0
CLASS
  1
LONG_TRANSACTION
  2
AcDbLongTransaction
  3
AutoCAD 2000
 90
        0
280
     0
281
     0
  0
CLASS
  1
LWPOLYLINE
  2
AcDbPolyline
  3
AutoCAD 2000
 90
        0
280
     0
281
     1
  0
CLASS
  1
HATCH
  2
AcDbHatch
  3
AutoCAD 2000
 90
        0
280
     0
281
     1
  0
CLASS
  1
XRECORD
  2
AcDbXrecord
  3
AutoCAD 2000
 90
        0
280
     0
281
     0
  0
CLASS
  1
LONG_TRANSACTION
  2
AcDbLongTransaction
  3
AutoCAD 2000
 90
        0
280
     0
281
     0
  0
CLASS
  1
LWPOLYLINE
  2
AcDbPolyline
  3
AutoCAD 2000
 90
        0
280
     0
281
     1
  0
CLASS
  1
HATCH
  2
AcDbHatch
  3
AutoCAD 2000
 90
        0
280
     0
281
     1
  0
CLASS
  1
XRECORD
  2
AcDbXrecord
  3
AutoCAD 2000
 90
        0
280
     0
281
     0
  0
CLASS
  1
LONG_TRANSACTION
  2
AcDbLongTransaction
  3
AutoCAD 2000
 90
        0
280
     0
281
     0
  0
CLASS
  1
LWPOLYLINE
  2
AcDbPolyline
  3
AutoCAD 2000
 90
        0
280
     0
281
     1
  0
CLASS
  1
HATCH
  2
AcDbHatch
  3
AutoCAD 2000
 90
        0
280
     0
281
     1
  0
CLASS
  1
XRECORD
  2
AcDbXrecord
  3
AutoCAD 2000
 90
        0
280
     0
281
     0
  0
CLASS
  1
LONG_TRANSACTION
  2
AcDbLongTransaction
  3
AutoCAD 2000
 90
        0
280
     0
281
     0
  0
CLASS
  1
LWPOLYLINE
  2
AcDbPolyline
  3
AutoCAD 2000
 90
        0
280
     0
281
     1
  0
CLASS
  1
HATCH
  2
AcDbHatch
  3
AutoCAD 2000
 90
        0
280
     0
281
     1
  0
CLASS
  1
XRECORD
  2
AcDbXrecord
  3
AutoCAD 2000
 90
        0
280
     0
281
     0
  0
CLASS
  1
LONG_TRANSACTION
  2
AcDbLongTransaction
  3
AutoCAD 2000
 90
        0
280
     0
281
     0
  0
CLASS
  1
LWPOLYLINE
  2
AcDbPolyline
  3
AutoCAD 2000
 90
        0
280
     0
281
     1
  0
CLASS
  1
HATCH
  2
AcDbHatch
  3
AutoCAD 2000
 90
        0
280
     0
281
     1
  0
CLASS
  1
XRECORD
  2
AcDbXrecord
  3
AutoCAD 2000
 90
        0
280
     0
281
     0
  0
CLASS
  1
LONG_TRANSACTION
  2
AcDbLongTransaction
  3
AutoCAD 2000
 90
        0
280
     0
281
     0
  0
CLASS
  1
LWPOLYLINE
  2
AcDbPolyline
  3
AutoCAD 2000
 90
        0
280
     0
281
     1
  0
CLASS
  1
HATCH
  2
AcDbHatch
  3
AutoCAD 2000
 90
        0
280
     0
281
     1
  0
CLASS
  1
XRECORD
  2
AcDbXrecord
  3
AutoCAD 2000
 90
        0
280
     0
281
     0
  0
CLASS
  1
LONG_TRANSACTION
  2
AcDbLongTransaction
  3
AutoCAD 2000
 90
        0
280
     0
281
     0
  0
CLASS
  1
LWPOLYLINE
  2
AcDbPolyline
  3
AutoCAD 2000
 90
        0
280
     0
281
     1
  0
CLASS
  1
HATCH
  2
AcDbHatch
  3
AutoCAD 2000
 90
        0
280
     0
281
     1
  0
CLASS
  1
XRECORD
  2
AcDbXrecord
  3
AutoCAD 2000
 90
        0
280
     0
281
     0
  0
CLASS
  1
LONG_TRANSACTION
  2
AcDbLongTransaction
  3
AutoCAD 2000
 90
        0
280
     0
281
     0
  0
CLASS
  1
LWPOLYLINE
  2
AcDbPolyline
  3
AutoCAD 2000
 90
        0
280
     0
281
     1
  0
CLASS
  1
HATCH
  2
AcDbHatch
  3
AutoCAD 2000
 90
        0
280
     0
281
     1
  0
CLASS
  1
XRECORD
  2
AcDbXrecord
  3
AutoCAD 2000
 90
        0
280
     0
281
     0
  0
CLASS
  1
LONG_TRANSACTION
  2
AcDbLongTransaction
  3
AutoCAD 2000
 90
        0
280
     0
281
     0
  0
CLASS
  1
LWPOLYLINE
  2
AcDbPolyline
  3
AutoCAD 2000
 90
        0
280
     0
281
     1
  0
CLASS
  1
HATCH
  2
AcDbHatch
  3
AutoCAD 2000
 90
        0
280
     0
281
     1
  0
CLASS
  1
XRECORD
  2
AcDbXrecord
  3
AutoCAD 2000
 90
        0
280
     0
281
     0
  0
CLASS
  1
LONG_TRANSACTION
  2
AcDbLongTransaction
  3
AutoCAD 2000
 90
        0
280
     0
281
     0
  0
CLASS
  1
LWPOLYLINE
  2
AcDbPolyline
  3
AutoCAD 2000
 90
        0
280
     0
281
     1
  0
CLASS
  1
HATCH
  2
AcDbHatch
  3
AutoCAD 2000
 90
        0
280
     0
281
     1
  0
CLASS
  1
XRECORD
  2
AcDbXrecord
  3
AutoCAD 2000
 90
        0
280
     0
281
     0
  0
CLASS
  1
LONG_TRANSACTION
  2
AcDbLongTransaction
  3
AutoCAD 2000
 90
        0
280
     0
281
     0
  0
CLASS
  1
LWPOLYLINE
  2
AcDbPolyline
  3
AutoCAD 2000
 90
        0
280
     0
281
     1
  0
CLASS
  1
HATCH
  2
AcDbHatch
  3
AutoCAD 2000
 90
        0
280
     0
281
     1
  0
CLASS
  1
XRECORD
  2
AcDbXrecord
  3
AutoCAD 2000
 90
        0
280
     0
281
     0
  0
CLASS
  1
LONG_TRANSACTION
  2
AcDbLongTransaction
  3
AutoCAD 2000
 90
        0
280
     0
281
     0
  0
CLASS
  1
LWPOLYLINE
  2
AcDbPolyline
  3
AutoCAD 2000
 90
        0
280
     0
281
     1
  0
CLASS
  1
HATCH
  2
AcDbHatch
  3
AutoCAD 2000
 90
        0
280
     0
281
     1
  0
CLASS
  1
XRECORD
  2
AcDbXrecord
  3
AutoCAD 2000
 90
        0
280
     0
281
     0
  0
CLASS
  1
LONG_TRANSACTION
  2
AcDbLongTransaction
  3
AutoCAD 2000
 90
        0
280
     0
281
     0
  0
CLASS
  1
LWPOLYLINE
  2
AcDbPolyline
  3
AutoCAD 2000
 90
        0
280
     0
281
     1
  0
CLASS
  1
HATCH
  2
AcDbHatch
  3
AutoCAD 2000
 90
        0
280
     0
281
     1
  0
CLASS
  1
XRECORD
  2
AcDbXrecord
  3
AutoCAD 2000
 90
        0
280
     0
281
     0
  0
ENDSEC
  0
SECTION
  2
TABLES
  0
TABLE
  2
VPORT
  5
EF7C85523
330
0
100
AcDbSymbolTable
 70
    10
  0
VPORT
  5
EF7C85567
330
EF7C85523
100
AcDbSymbolTableRecord
100
AcDbViewportTableRecord
  2
2
 70
     0
 10
0.5
 20
0.0
 11
1.0
 21
1.0
 12
0.9240312421264802
 22
1.052650975462766
 13
0.0
 23
0.0
 14
1.0
 24
1.0
 15
10.0
 25
10.0
 16
0.0
 26
0.0
 36
1.0
 17
0.0
 27
0.0
 37
0.0
 40
2.105301950925533
 41
0.8778135048231511
 42
50.0
 43
0.0
 44
0.0
 50
0.0
 51
0.0
 71
     0
 72
   500
 73
     1
 74
     1
 75
     0
 76
     0
 77
     0
 78
     0
  0
VPORT
  5
EF7C85568
330
EF7C85523
100
AcDbSymbolTableRecord
100
AcDbViewportTableRecord
  2
2
 70
     0
 10
0.0
 20
0.0
 11
0.5
 21
1.0
 12
0.9240312421264802
 22
1.052650975462766
 13
0.0
 23
0.0
 14
1.0
 24
1.0
 15
10.0
 25
10.0
 16
0.0
 26
0.0
 36
1.0
 17
0.0
 27
0.0
 37
0.0
 40
2.105301950925533
 41
0.8778135048231511
 42
50.0
 43
0.0
 44
0.0
 50
0.0
 51
0.0
 71
     0
 72
   500
 73
     1
 74
     1
 75
     0
 76
     0
 77
     0
 78
     0
  0
VPORT
  5
EF7C85569
330
EF7C85523
100
AcDbSymbolTableRecord
100
AcDbViewportTableRecord
  2
3
 70
     0
 10
0.0
 20
0.5
 11
1.0
 21
1.0
 12
2.832169994473273
 22
1.052650975462766
 13
0.0
 23
0.0
 14
1.0
 24
1.0
 15
10.0
 25
10.0
 16
0.0
 26
0.0
 36
1.0
 17
0.0
 27
0.0
 37
0.0
 40
2.105301950925533
 41
3.571428571428571
 42
50.0
 43
0.0
 44
0.0
 50
0.0
 51
0.0
 71
     0
 72
   500
 73
     1
 74
     1
 75
     0
 76
     0
 77
     0
 78
     0
  0
VPORT
  5
EF7C8556A
330
EF7C85523
100
AcDbSymbolTableRecord
100
AcDbViewportTableRecord
  2
3
 70
     0
 10
0.0
 20
0.0
 11
1.0
 21
0.5
 12
2.856741679241311
 22
1.052650975462766
 13
0.0
 23
0.0
 14
1.0
 24
1.0
 15
10.0
 25
10.0
 16
0.0
 26
0.0
 36
1.0
 17
0.0
 27
0.0
 37
0.0
 40
2.105301950925533
 41
3.594771241830065
 42
50.0
 43
0.0
 44
0.0
 50
0.0
 51
0.0
 71
     0
 72
   500
 73
     1
 74
     1
 75
     0
 76
     0
 77
     0
 78
     0
  0
VPORT
  5
EF7C8556B
330
EF7C85523
100
AcDbSymbolTableRecord
100
AcDbViewportTableRecord
  2
4
 70
     0
 10
0.5
 20
0.0
 11
1.0
 21
0.5
 12
2.886857516709719
 22
1.052650975462766
 13
0.0
 23
0.0
 14
1.0
 24
1.0
 15
10.0
 25
10.0
 16
0.0
 26
0.0
 36
1.0
 17
0.0
 27
0.0
 37
0.0
 40
4.27520703030907
 41
1.784313725490195
 42
50.0
 43
0.0
 44
0.0
 50
0.0
 51
0.0
 71
     0
 72
   500
 73
     1
 74
     1
 75
     0
 76
     0
 77
     0
 78
     0
  0
VPORT
  5
EF7C8556C
330
EF7C85523
100
AcDbSymbolTableRecord
100
AcDbViewportTableRecord
  2
4
 70
     0
 10
0.5
 20
0.5
 11
1.0
 21
1.0
 12
2.862090274555523
 22
1.052650975462766
 13
0.0
 23
0.0
 14
1.0
 24
1.0
 15
10.0
 25
10.0
 16
0.0
 26
0.0
 36
1.0
 17
0.0
 27
0.0
 37
0.0
 40
4.27520703030907
 41
1.772727272727272
 42
50.0
 43
0.0
 44
0.0
 50
0.0
 51
0.0
 71
     0
 72
   500
 73
     1
 74
     1
 75
     0
 76
     0
 77
     0
 78
     0
  0
VPORT
  5
EF7C8556D
330
EF7C85523
100
AcDbSymbolTableRecord
100
AcDbViewportTableRecord
  2
4
 70
     0
 10
0.0
 20
0.5
 11
0.5
 21
1.0
 12
2.862090274555523
 22
1.052650975462766
 13
0.0
 23
0.0
 14
1.0
 24
1.0
 15
10.0
 25
10.0
 16
0.0
 26
0.0
 36
1.0
 17
0.0
 27
0.0
 37
0.0
 40
4.27520703030907
 41
1.772727272727272
 42
50.0
 43
0.0
 44
0.0
 50
0.0
 51
0.0
 71
     0
 72
   500
 73
     1
 74
     1
 75
     0
 76
     0
 77
     0
 78
     0
  0
VPORT
  5
EF7C8556E
330
EF7C85523
100
AcDbSymbolTableRecord
100
AcDbViewportTableRecord
  2
4
 70
     0
 10
0.0
 20
0.0
 11
0.5
 21
0.5
 12
2.886857516709719
 22
1.052650975462766
 13
0.0
 23
0.0
 14
1.0
 24
1.0
 15
10.0
 25
10.0
 16
0.0
 26
0.0
 36
1.0
 17
0.0
 27
0.0
 37
0.0
 40
4.27520703030907
 41
1.784313725490195
 42
50.0
 43
0.0
 44
0.0
 50
0.0
 51
0.0
 71
     0
 72
   500
 73
     1
 74
     1
 75
     0
 76
     0
 77
     0
 78
     0
  0
VPORT
  5
EF7C87F18
330
EF7C85523
100
AcDbSymbolTableRecord
100
AcDbViewportTableRecord
  2
*ACTIVE
 70
     0
 10
0.0
 20
0.0
 11
1.0
 21
1.0
 12
169.4472681362128
 22
136.5016408395727
 13
0.0
 23
0.0
 14
1.0
 24
1.0
 15
10.0
 25
10.0
 16
0.0
 26
0.0
 36
1.0
 17
0.0
 27
0.0
 37
0.0
 40
276.1477607345394
 41
1.771962616822429
 42
50.0
 43
0.0
 44
0.0
 50
0.0
 51
0.0
 71
     0
 72
   500
 73
     1
 74
     0
 75
     0
 76
     0
 77
     0
 78
     0
  0
ENDTAB
  0
TABLE
  2
LTYPE
  5
EF7C85520
330
0
100
AcDbSymbolTable
 70
     2
  0
LTYPE
  5
EF7C8552C
330
EF7C85520
100
AcDbSymbolTableRecord
100
AcDbLinetypeTableRecord
  2
BYBLOCK
 70
     0
  3

 72
    65
 73
     0
 40
0.0
  0
LTYPE
  5
EF7C8552D
330
EF7C85520
100
AcDbSymbolTableRecord
100
AcDbLinetypeTableRecord
  2
BYLAYER
 70
     0
  3

 72
    65
 73
     0
 40
0.0
  0
LTYPE
  5
EF7C8552E
330
EF7C85520
100
AcDbSymbolTableRecord
100
AcDbLinetypeTableRecord
  2
CONTINUOUS
 70
     0
  3
実線
 72
    65
 73
     0
 40
0.0
  0
LTYPE
  5
EF7C87D48
330
EF7C85520
100
AcDbSymbolTableRecord
100
AcDbLinetypeTableRecord
  2
PHANTOM
 70
     0
  3
_____ _ _ _____ _ _ _____ _ _ _____ _ _ ____
 72
    65
 73
     6
 40
2.5
 49
1.25
 74
     0
 49
-0.25
 74
     0
 49
0.25
 74
     0
 49
-0.25
 74
     0
 49
0.25
 74
     0
 49
-0.25
 74
     0
  0
ENDTAB
  0
TABLE
  2
LAYER
  5
EF7C8551D
330
0
100
AcDbSymbolTable
 70
     9
  0
LAYER
  5
EF7C85529
330
EF7C8551D
100
AcDbSymbolTableRecord
100
AcDbLayerTableRecord
  2
0
 70
     0
 62
     6
  6
CONTINUOUS
  0
LAYER
  5
EF7C85575
330
EF7C8551D
100
AcDbSymbolTableRecord
100
AcDbLayerTableRecord
  2
HATCH
 70
     0
 62
     4
  6
CONTINUOUS
  0
LAYER
  5
EF7C85576
330
EF7C8551D
100
AcDbSymbolTableRecord
100
AcDbLayerTableRecord
  2
SUNPOU
 70
     0
 62
     3
  6
CONTINUOUS
  0
LAYER
  5
EF7C85577
330
EF7C8551D
100
AcDbSymbolTableRecord
100
AcDbLayerTableRecord
  2
TEXT
 70
     0
 62
     3
  6
CONTINUOUS
  0
LAYER
  5
EF7C85579
330
EF7C8551D
100
AcDbSymbolTableRecord
100
AcDbLayerTableRecord
  2
JISSEN
 70
     0
 62
     7
  6
CONTINUOUS
  0
LAYER
  5
EF7C8557D
330
EF7C8551D
100
AcDbSymbolTableRecord
100
AcDbLayerTableRecord
  2
WAKU
 70
     0
 62
     5
  6
CONTINUOUS
  0
LAYER
  5
EF7C8790F
330
EF7C8551D
100
AcDbSymbolTableRecord
100
AcDbLayerTableRecord
  2
DEFPOINTS
 70
     0
 62
     7
  6
CONTINUOUS
  0
LAYER
  5
EF7C87D4A
330
EF7C8551D
100
AcDbSymbolTableRecord
100
AcDbLayerTableRecord
  2
HOJYO
 70
     0
 62
     7
  6
CONTINUOUS
  0
LAYER
  5
EF7C87D4B
330
EF7C8551D
100
AcDbSymbolTableRecord
100
AcDbLayerTableRecord
  2
NITEN
 70
     0
 62
     2
  6
PHANTOM
  0
ENDTAB
  0
TABLE
  2
STYLE
  5
EF7C8551E
330
0
100
AcDbSymbolTable
 70
     3
  0
STYLE
  5
EF7C8552A
330
EF7C8551E
100
AcDbSymbolTableRecord
100
AcDbTextStyleTableRecord
  2
STANDARD
 70
     0
 40
0.0
 41
1.0
 50
0.0
 71
     0
 42
1.5
  3
SIMPLEX
  4

  0
STYLE
  5
EF7C85558
330
EF7C8551E
100
AcDbSymbolTableRecord
100
AcDbTextStyleTableRecord
  2
K
 70
     0
 40
0.0
 41
1.0
 50
0.0
 71
     0
 42
3.0
  3
ROMANS
  4
BIGFONT
  0
STYLE
  5
EF7C8555B
330
EF7C8551E
100
AcDbSymbolTableRecord
100
AcDbTextStyleTableRecord
  2
BIGFONT
 70
     0
 40
0.0
 41
1.0
 50
0.0
 71
     0
 42
3.0
  3
txt.shx
  4
bigfont
  0
ENDTAB
  0
TABLE
  2
VIEW
  5
EF7C85521
330
0
100
AcDbSymbolTable
 70
     0
  0
ENDTAB
  0
TABLE
  2
UCS
  5
EF7C85522
330
0
100
AcDbSymbolTable
 70
     0
  0
ENDTAB
  0
TABLE
  2
APPID
  5
EF7C85524
330
0
100
AcDbSymbolTable
 70
     1
  0
APPID
  5
EF7C8552B
330
EF7C85524
100
AcDbSymbolTableRecord
100
AcDbRegAppTableRecord
  2
ACAD
 70
     0
  0
ENDTAB
  0
TABLE
  2
DIMSTYLE
  5
EF7C85525
330
0
100
AcDbSymbolTable
 70
     1
  0
DIMSTYLE
105
EF7C85571
330
EF7C85525
100
AcDbSymbolTableRecord
100
AcDbDimStyleTableRecord
  2
IMAO
 70
     0
  3

  4

  5
ARROWANG
  6
ARROWANG
  7
ARROWANG
 40
1.0
 41
1.5
 42
1.0
 43
6.0
 44
1.0
 45
0.0
 46
0.0
 47
495.0
 48
0.0
140
3.0
141
0.0
142
0.0
143
25.4
144
1.0
145
0.0
146
1.0
147
0.09
 71
     0
 72
     0
 73
     0
 74
     0
 75
     0
 76
     0
 77
     1
 78
     8
170
     0
171
     2
172
     1
173
     0
174
     1
175
     0
176
     0
177
     0
178
     0
270
     2
271
     2
272
     2
273
     2
274
     2
340
EF7C8555B
275
     0
280
     0
281
     0
282
     0
283
     1
284
     8
285
     8
286
     8
287
     5
288
     0
  0
ENDTAB
  0
TABLE
  2
BLOCK_RECORD
  5
EF7C8551C
330
0
100
AcDbSymbolTable
 70
     9
  0
BLOCK_RECORD
  5
EF7C85532
102
{ACAD_XDICTIONARY
360
EF7C85D9A
102
}
330
EF7C8551C
100
AcDbSymbolTableRecord
100
AcDbBlockTableRecord
  2
*MODEL_SPACE
  0
BLOCK_RECORD
  5
EF7C8552F
102
{ACAD_XDICTIONARY
360
EF7C85D98
102
}
330
EF7C8551C
100
AcDbSymbolTableRecord
100
AcDbBlockTableRecord
  2
*PAPER_SPACE
  0
BLOCK_RECORD
  5
EF7C85537
330
EF7C8551C
100
AcDbSymbolTableRecord
100
AcDbBlockTableRecord
  2
ARROW
  0
BLOCK_RECORD
  5
EF7C8553D
330
EF7C8551C
100
AcDbSymbolTableRecord
100
AcDbBlockTableRecord
  2
*X1
  0
BLOCK_RECORD
  5
EF7C8553E
330
EF7C8551C
100
AcDbSymbolTableRecord
100
AcDbBlockTableRecord
  2
STDGX5
  0
BLOCK_RECORD
  5
EF7C8553F
330
EF7C8551C
100
AcDbSymbolTableRecord
100
AcDbBlockTableRecord
  2
*X3
  0
BLOCK_RECORD
  5
EF7C85540
330
EF7C8551C
100
AcDbSymbolTableRecord
100
AcDbBlockTableRecord
  2
*X4
  0
BLOCK_RECORD
  5
EF7C85541
330
EF7C8551C
100
AcDbSymbolTableRecord
100
AcDbBlockTableRecord
  2
*X5
  0
BLOCK_RECORD
  5
EF7C85542
330
EF7C8551C
100
AcDbSymbolTableRecord
100
AcDbBlockTableRecord
  2
*X6
  0
BLOCK_RECORD
  5
EF7C85543
330
EF7C8551C
100
AcDbSymbolTableRecord
100
AcDbBlockTableRecord
  2
ARROWANG
  0
BLOCK_RECORD
  5
EF7C85544
330
EF7C8551C
100
AcDbSymbolTableRecord
100
AcDbBlockTableRecord
  2
STDR12J
  0
ENDTAB
  0
ENDSEC
  0
SECTION
  2
BLOCKS
  0
BLOCK
  5
EF7C85580
330
EF7C85532
100
AcDbEntity
  8
0
100
AcDbBlockBegin
  2
*MODEL_SPACE
 70
     0
 10
0.0
 20
0.0
 30
0.0
  3
*MODEL_SPACE
  1

  0
ENDBLK
  5
EF7C85581
330
EF7C85532
100
AcDbEntity
  8
0
100
AcDbBlockEnd
  0
BLOCK
  5
EF7C8557E
330
EF7C8552F
100
AcDbEntity
 67
     1
  8
0
100
AcDbBlockBegin
  2
*PAPER_SPACE
 70
     0
 10
0.0
 20
0.0
 30
0.0
  3
*PAPER_SPACE
  1

  0
ENDBLK
  5
EF7C8557F
330
EF7C8552F
100
AcDbEntity
 67
     1
  8
0
100
AcDbBlockEnd
  0
BLOCK
  5
499
330
EF7C85537
100
AcDbEntity
  8
0
100
AcDbBlockBegin
  2
ARROW
 70
     0
 10
1.0
 20
0.5
 30
0.0
  3
ARROW
  1

  0
LINE
  5
49A
330
EF7C85537
100
AcDbEntity
  8
0
100
AcDbLine
 10
1.0
 20
0.5
 30
0.0
 11
-0.5000000000000214
 21
0.0980762113533018
 31
0.0
  0
LINE
  5
49B
330
EF7C85537
100
AcDbEntity
  8
0
100
AcDbLine
 10
0.0
 20
0.5
 30
0.0
 11
1.0
 21
0.5
 31
0.0
  0
LINE
  5
49C
330
EF7C85537
100
AcDbEntity
  8
0
100
AcDbLine
 10
1.0
 20
0.5
 30
0.0
 11
-0.4999999999999574
 21
0.9019237886467408
 31
0.0
  0
ENDBLK
  5
49D
330
EF7C85537
100
AcDbEntity
  8
0
100
AcDbBlockEnd
  0
BLOCK
  5
2764
330
EF7C8553D
100
AcDbEntity
  8
0
100
AcDbBlockBegin
  2
*X1
 70
     1
 10
0.0
 20
0.0
 30
0.0
  3
*X1
  1

  0
ENDBLK
  5
2765
330
EF7C8553D
100
AcDbEntity
  8
0
100
AcDbBlockEnd
  0
BLOCK
  5
2766
330
EF7C8553E
100
AcDbEntity
  8
0
100
AcDbBlockBegin
  2
STDGX5
 70
     0
 10
0.0
 20
0.0
 30
0.0
  3
STDGX5
  1

  0
ENDBLK
  5
2767
330
EF7C8553E
100
AcDbEntity
  8
0
100
AcDbBlockEnd
  0
BLOCK
  5
2F5A
330
EF7C8553F
100
AcDbEntity
  8
0
100
AcDbBlockBegin
  2
*X3
 70
     1
 10
0.0
 20
0.0
 30
0.0
  3
*X3
  1

  0
ENDBLK
  5
2F5B
330
EF7C8553F
100
AcDbEntity
  8
0
100
AcDbBlockEnd
  0
BLOCK
  5
32BB
330
EF7C85540
100
AcDbEntity
  8
0
100
AcDbBlockBegin
  2
*X4
 70
     1
 10
0.0
 20
0.0
 30
0.0
  3
*X4
  1

  0
ENDBLK
  5
32BC
330
EF7C85540
100
AcDbEntity
  8
0
100
AcDbBlockEnd
  0
BLOCK
  5
372F
330
EF7C85541
100
AcDbEntity
  8
0
100
AcDbBlockBegin
  2
*X5
 70
     1
 10
0.0
 20
0.0
 30
0.0
  3
*X5
  1

  0
ENDBLK
  5
3730
330
EF7C85541
100
AcDbEntity
  8
0
100
AcDbBlockEnd
  0
BLOCK
  5
3A6D
330
EF7C85542
100
AcDbEntity
  8
0
100
AcDbBlockBegin
  2
*X6
 70
     1
 10
0.0
 20
0.0
 30
0.0
  3
*X6
  1

  0
ENDBLK
  5
3A6E
330
EF7C85542
100
AcDbEntity
  8
0
100
AcDbBlockEnd
  0
BLOCK
  5
4CC9
330
EF7C85543
100
AcDbEntity
  8
0
100
AcDbBlockBegin
  2
ARROWANG
 70
     0
 10
0.0
 20
0.0
 30
0.0
  3
ARROWANG
  1

  0
LINE
  5
4CCA
330
EF7C85543
100
AcDbEntity
  8
SUNPOU
100
AcDbLine
 10
0.0
 20
0.0
 30
0.0
 11
-1.499999999999957
 21
0.4019237886467409
 31
0.0
  0
LINE
  5
4CCB
330
EF7C85543
100
AcDbEntity
  8
SUNPOU
100
AcDbLine
 10
0.0
 20
0.0
 30
0.0
 11
-1.500000000000028
 21
-0.4019237886467124
 31
0.0
  0
ENDBLK
  5
4CCC
330
EF7C85543
100
AcDbEntity
  8
0
100
AcDbBlockEnd
  0
BLOCK
  5
4CCD
330
EF7C85544
100
AcDbEntity
  8
0
100
AcDbBlockBegin
  2
STDR12J
 70
     0
 10
0.0
 20
0.0
 30
0.0
  3
STDR12J
  1

  0
ENDBLK
  5
4CF2
330
EF7C85544
100
AcDbEntity
  8
0
100
AcDbBlockEnd
  0
ENDSEC
  0
SECTION
  2
ENTITIES
  0
TEXT
  5
1
330
EF7C85532
100
AcDbEntity
  8
SUNPOU
100
AcDbText
 10
95.05869565217389
 20
43.7966872748706
 30
0.0
 40
1.5
  1
                          
100
AcDbText
  0
TEXT
  5
2
330
EF7C85532
100
AcDbEntity
  8
SUNPOU
100
AcDbText
 10
332.2793466870868
 20
21.8983436374353
 30
0.0
 40
0.75
  1
                          
100
AcDbText
  0
TEXT
  5
1A
330
EF7C85532
100
AcDbEntity
  8
SUNPOU
100
AcDbText
 10
289.9834441000535
 20
43.7966872748706
 30
0.0
 40
1.5
  1
                          
100
AcDbText
  0
TEXT
  5
1B
330
EF7C85532
100
AcDbEntity
  8
SUNPOU
100
AcDbText
 10
527.2040951349665
 20
21.8983436374353
 30
0.0
 40
0.75
  1
                          
100
AcDbText
  0
TEXT
  5
1C
330
EF7C85532
100
AcDbEntity
  8
SUNPOU
100
AcDbText
 10
490.6272568090836
 20
43.79668727487057
 30
0.0
 40
1.5
  1
                          
100
AcDbText
  0
TEXT
  5
1D
330
EF7C85532
100
AcDbEntity
  8
SUNPOU
100
AcDbText
 10
727.8479078439966
 20
21.89834363743527
 30
0.0
 40
0.75
  1
                          
100
AcDbText
  0
INSERT
  5
1E
330
EF7C85532
100
AcDbEntity
  8
HATCH
100
AcDbBlockReference
  2
*X1
 10
194.9247484478796
 20
0.0
 30
0.0
  0
TEXT
  5
1F
330
EF7C85532
100
AcDbEntity
  8
SUNPOU
100
AcDbText
 10
493.0101992368964
 20
43.7966872748706
 30
0.0
 40
1.5
  1
                          
100
AcDbText
  0
TEXT
  5
20
330
EF7C85532
100
AcDbEntity
  8
SUNPOU
100
AcDbText
 10
730.2308502718094
 20
21.8983436374353
 30
0.0
 40
0.75
  1
                          
100
AcDbText
  0
TEXT
  5
21
330
EF7C85532
100
AcDbEntity
  8
SUNPOU
100
AcDbText
 10
482.0486607753579
 20
43.7966872748706
 30
0.0
 40
1.5
  1
                          
100
AcDbText
  0
TEXT
  5
22
330
EF7C85532
100
AcDbEntity
  8
SUNPOU
100
AcDbText
 10
719.269311810271
 20
21.8983436374353
 30
0.0
 40
0.75
  1
                          
100
AcDbText
  0
INSERT
  5
25
330
EF7C85532
100
AcDbEntity
  8
JISSEN
100
AcDbBlockReference
  2
STDGX5
 10
0.0
 20
0.0
 30
0.0
  0
TEXT
  5
60
330
EF7C85532
100
AcDbEntity
  8
SUNPOU
100
AcDbText
 10
274.0586949361738
 20
43.7966872748706
 30
0.0
 40
1.5
  1
                          
100
AcDbText
  0
TEXT
  5
61
330
EF7C85532
100
AcDbEntity
  8
SUNPOU
100
AcDbText
 10
511.2793459710869
 20
21.8983436374353
 30
0.0
 40
0.75
  1
                          
100
AcDbText
  0
TEXT
  5
62
330
EF7C85532
100
AcDbEntity
  8
SUNPOU
100
AcDbText
 10
474.702507645204
 20
43.79668727487057
 30
0.0
 40
1.5
  1
                          
100
AcDbText
  0
TEXT
  5
63
330
EF7C85532
100
AcDbEntity
  8
SUNPOU
100
AcDbText
 10
711.923158680117
 20
21.89834363743527
 30
0.0
 40
0.75
  1
                          
100
AcDbText
  0
INSERT
  5
64
330
EF7C85532
100
AcDbEntity
  8
HATCH
100
AcDbBlockReference
  2
*X3
 10
178.999999284
 20
0.0
 30
0.0
  0
TEXT
  5
65
330
EF7C85532
100
AcDbEntity
  8
SUNPOU
100
AcDbText
 10
477.0854500730167
 20
43.7966872748706
 30
0.0
 40
1.5
  1
                          
100
AcDbText
  0
TEXT
  5
66
330
EF7C85532
100
AcDbEntity
  8
SUNPOU
100
AcDbText
 10
714.3061011079298
 20
21.8983436374353
 30
0.0
 40
0.75
  1
                          
100
AcDbText
  0
TEXT
  5
67
330
EF7C85532
100
AcDbEntity
  8
SUNPOU
100
AcDbText
 10
466.1239116114783
 20
43.7966872748706
 30
0.0
 40
1.5
  1
                          
100
AcDbText
  0
TEXT
  5
68
330
EF7C85532
100
AcDbEntity
  8
SUNPOU
100
AcDbText
 10
703.3445626463913
 20
21.8983436374353
 30
0.0
 40
0.75
  1
                          
100
AcDbText
  0
INSERT
  5
69
330
EF7C85532
100
AcDbEntity
  8
TEXT
100
AcDbBlockReference
  2
STDGX5
 10
178.999999284
 20
0.0
 30
0.0
  0
TEXT
  5
6A
330
EF7C85532
100
AcDbEntity
  8
SUNPOU
100
AcDbText
 10
453.0586949361739
 20
43.7966872748706
 30
0.0
 40
1.5
  1
                          
100
AcDbText
  0
TEXT
  5
6B
330
EF7C85532
100
AcDbEntity
  8
SUNPOU
100
AcDbText
 10
690.279345971087
 20
21.8983436374353
 30
0.0
 40
0.75
  1
                          
100
AcDbText
  0
TEXT
  5
6C
330
EF7C85532
100
AcDbEntity
  8
SUNPOU
100
AcDbText
 10
647.9834433840535
 20
43.7966872748706
 30
0.0
 40
1.5
  1
                          
100
AcDbText
  0
TEXT
  5
6D
330
EF7C85532
100
AcDbEntity
  8
SUNPOU
100
AcDbText
 10
885.2040944189665
 20
21.8983436374353
 30
0.0
 40
0.75
  1
                          
100
AcDbText
  0
TEXT
  5
6E
330
EF7C85532
100
AcDbEntity
  8
SUNPOU
100
AcDbText
 10
848.6272560930835
 20
43.79668727487057
 30
0.0
 40
1.5
  1
                          
100
AcDbText
  0
TEXT
  5
6F
330
EF7C85532
100
AcDbEntity
  8
SUNPOU
100
AcDbText
 10
1085.847907127996
 20
21.89834363743527
 30
0.0
 40
0.75
  1
                          
100
AcDbText
  0
INSERT
  5
70
330
EF7C85532
100
AcDbEntity
  8
HATCH
100
AcDbBlockReference
  2
*X4
 10
552.9247477318797
 20
0.0
 30
0.0
  0
TEXT
  5
71
330
EF7C85532
100
AcDbEntity
  8
SUNPOU
100
AcDbText
 10
851.0101985208963
 20
43.7966872748706
 30
0.0
 40
1.5
  1
                          
100
AcDbText
  0
TEXT
  5
72
330
EF7C85532
100
AcDbEntity
  8
SUNPOU
100
AcDbText
 10
1088.230849555809
 20
21.8983436374353
 30
0.0
 40
0.75
  1
                          
100
AcDbText
  0
TEXT
  5
73
330
EF7C85532
100
AcDbEntity
  8
SUNPOU
100
AcDbText
 10
840.048660059358
 20
43.7966872748706
 30
0.0
 40
1.5
  1
                          
100
AcDbText
  0
TEXT
  5
74
330
EF7C85532
100
AcDbEntity
  8
SUNPOU
100
AcDbText
 10
1077.269311094271
 20
21.8983436374353
 30
0.0
 40
0.75
  1
                          
100
AcDbText
  0
INSERT
  5
75
330
EF7C85532
100
AcDbEntity
  8
JISSEN
100
AcDbBlockReference
  2
STDGX5
 10
357.999999284
 20
0.0
 30
0.0
  0
TEXT
  5
76
330
EF7C85532
100
AcDbEntity
  8
SUNPOU
100
AcDbText
 10
453.0586949361739
 20
43.7966872748706
 30
0.0
 40
1.5
  1
                          
100
AcDbText
  0
TEXT
  5
77
330
EF7C85532
100
AcDbEntity
  8
SUNPOU
100
AcDbText
 10
690.279345971087
 20
21.8983436374353
 30
0.0
 40
0.75
  1
                          
100
AcDbText
  0
TEXT
  5
78
330
EF7C85532
100
AcDbEntity
  8
SUNPOU
100
AcDbText
 10
647.9834433840535
 20
43.7966872748706
 30
0.0
 40
1.5
  1
                          
100
AcDbText
  0
TEXT
  5
79
330
EF7C85532
100
AcDbEntity
  8
SUNPOU
100
AcDbText
 10
885.2040944189665
 20
21.8983436374353
 30
0.0
 40
0.75
  1
                          
100
AcDbText
  0
TEXT
  5
7A
330
EF7C85532
100
AcDbEntity
  8
SUNPOU
100
AcDbText
 10
848.6272560930835
 20
43.79668727487057
 30
0.0
 40
1.5
  1
                          
100
AcDbText
  0
TEXT
  5
7B
330
EF7C85532
100
AcDbEntity
  8
SUNPOU
100
AcDbText
 10
1085.847907127996
 20
21.89834363743527
 30
0.0
 40
0.75
  1
                          
100
AcDbText
  0
INSERT
  5
7C
330
EF7C85532
100
AcDbEntity
  8
HATCH
100
AcDbBlockReference
  2
*X5
 10
552.9247477318797
 20
0.0
 30
0.0
  0
TEXT
  5
7D
330
EF7C85532
100
AcDbEntity
  8
SUNPOU
100
AcDbText
 10
851.0101985208963
 20
43.7966872748706
 30
0.0
 40
1.5
  1
                          
100
AcDbText
  0
TEXT
  5
7E
330
EF7C85532
100
AcDbEntity
  8
SUNPOU
100
AcDbText
 10
1088.230849555809
 20
21.8983436374353
 30
0.0
 40
0.75
  1
                          
100
AcDbText
  0
TEXT
  5
7F
330
EF7C85532
100
AcDbEntity
  8
SUNPOU
100
AcDbText
 10
840.048660059358
 20
43.7966872748706
 30
0.0
 40
1.5
  1
                          
100
AcDbText
  0
TEXT
  5
80
330
EF7C85532
100
AcDbEntity
  8
SUNPOU
100
AcDbText
 10
1077.269311094271
 20
21.8983436374353
 30
0.0
 40
0.75
  1
                          
100
AcDbText
  0
INSERT
  5
81
330
EF7C85532
100
AcDbEntity
  8
JISSEN
100
AcDbBlockReference
  2
STDGX5
 10
357.999999284
 20
0.0
 30
0.0
  0
TEXT
  5
82
330
EF7C85532
100
AcDbEntity
  8
SUNPOU
100
AcDbText
 10
632.0586942201739
 20
43.7966872748706
 30
0.0
 40
1.5
  1
                          
100
AcDbText
  0
TEXT
  5
83
330
EF7C85532
100
AcDbEntity
  8
SUNPOU
100
AcDbText
 10
869.2793452550871
 20
21.8983436374353
 30
0.0
 40
0.75
  1
                          
100
AcDbText
  0
TEXT
  5
84
330
EF7C85532
100
AcDbEntity
  8
SUNPOU
100
AcDbText
 10
826.9834426680535
 20
43.7966872748706
 30
0.0
 40
1.5
  1
                          
100
AcDbText
  0
TEXT
  5
85
330
EF7C85532
100
AcDbEntity
  8
SUNPOU
100
AcDbText
 10
1064.204093702966
 20
21.8983436374353
 30
0.0
 40
0.75
  1
                          
100
AcDbText
  0
TEXT
  5
86
330
EF7C85532
100
AcDbEntity
  8
SUNPOU
100
AcDbText
 10
1027.627255377083
 20
43.79668727487057
 30
0.0
 40
1.5
  1
                          
100
AcDbText
  0
TEXT
  5
87
330
EF7C85532
100
AcDbEntity
  8
SUNPOU
100
AcDbText
 10
1264.847906411996
 20
21.89834363743527
 30
0.0
 40
0.75
  1
                          
100
AcDbText
  0
INSERT
  5
88
330
EF7C85532
100
AcDbEntity
  8
HATCH
100
AcDbBlockReference
  2
*X6
 10
731.9247470158797
 20
0.0
 30
0.0
  0
TEXT
  5
89
330
EF7C85532
100
AcDbEntity
  8
SUNPOU
100
AcDbText
 10
1030.010197804896
 20
43.7966872748706
 30
0.0
 40
1.5
  1
                          
100
AcDbText
  0
TEXT
  5
8A
330
EF7C85532
100
AcDbEntity
  8
SUNPOU
100
AcDbText
 10
1267.230848839809
 20
21.8983436374353
 30
0.0
 40
0.75
  1
                          
100
AcDbText
  0
TEXT
  5
8B
330
EF7C85532
100
AcDbEntity
  8
SUNPOU
100
AcDbText
 10
1019.048659343358
 20
43.7966872748706
 30
0.0
 40
1.5
  1
                          
100
AcDbText
  0
TEXT
  5
8C
330
EF7C85532
100
AcDbEntity
  8
SUNPOU
100
AcDbText
 10
1256.269310378271
 20
21.8983436374353
 30
0.0
 40
0.75
  1
                          
100
AcDbText
  0
INSERT
  5
8D
330
EF7C85532
100
AcDbEntity
  8
JISSEN
100
AcDbBlockReference
  2
STDGX5
 10
536.999998568
 20
0.0
 30
0.0
  0
INSERT
  5
8E
330
EF7C85532
100
AcDbEntity
  8
SUNPOU
100
AcDbBlockReference
  2
STDGX5
 10
739.0804232644236
 20
50.83533235670902
 30
0.0
 41
0.5
 42
0.5
 43
0.5
  0
INSERT
  5
8F
330
EF7C85532
100
AcDbEntity
  8
SUNPOU
100
AcDbBlockReference
  2
STDGX5
 10
726.2208210623692
 20
105.0763138619288
 30
0.0
 41
0.5
 42
0.5
 43
0.5
  0
INSERT
  5
90
330
EF7C85532
100
AcDbEntity
  8
HATCH
100
AcDbBlockReference
  2
STDGX5
 10
852.3985550581901
 20
151.7065097967401
 30
0.0
 41
0.5
 42
0.5
 43
0.5
  0
INSERT
  5
91
330
EF7C85532
100
AcDbEntity
  8
HATCH
100
AcDbBlockReference
  2
STDGX5
 10
866.6806796277285
 20
102.7017487639613
 30
0.0
 41
0.5
 42
0.5
 43
0.5
  0
INSERT
  5
92
330
EF7C85532
100
AcDbEntity
  8
TEXT
100
AcDbBlockReference
  2
STDGX5
 10
970.3434408521969
 20
102.8213468229236
 30
0.0
 41
0.5
 42
0.5
 43
0.5
  0
INSERT
  5
93
330
EF7C85532
100
AcDbEntity
  8
SUNPOU
100
AcDbBlockReference
  2
STDGX5
 10
996.1728907397869
 20
174.5475645486174
 30
0.0
 41
0.5
 42
0.5
 43
0.5
  0
INSERT
  5
94
330
EF7C85532
100
AcDbEntity
  8
TEXT
100
AcDbBlockReference
  2
STDGX5
 10
725.7513886810995
 20
124.5860190441302
 30
0.0
 41
0.5
 42
0.5
 43
0.5
  0
INSERT
  5
95
330
EF7C85532
100
AcDbEntity
  8
HATCH
100
AcDbBlockReference
  2
STDGX5
 10
777.1755722656421
 20
145.5222028932424
 30
0.0
 41
0.5
 42
0.5
 43
0.5
  0
INSERT
  5
96
330
EF7C85532
100
AcDbEntity
  8
SUNPOU
100
AcDbBlockReference
  2
STDGX5
 10
846.1963575359604
 20
112.6957974729892
 30
0.0
 41
0.5
 42
0.5
 43
0.5
  0
INSERT
  5
97
330
EF7C85532
100
AcDbEntity
  8
SUNPOU
100
AcDbBlockReference
  2
STDGX5
 10
916.6681156211122
 20
121.7330617103085
 30
0.0
 41
0.5
 42
0.5
 43
0.5
  0
INSERT
  5
98
330
EF7C85532
100
AcDbEntity
  8
TEXT
100
AcDbBlockReference
  2
STDGX5
 10
983.7969461426769
 20
84.61852224867081
 30
0.0
 41
0.5
 42
0.5
 43
0.5
  0
INSERT
  5
99
330
EF7C85532
100
AcDbEntity
  8
HATCH
100
AcDbBlockReference
  2
STDGX5
 10
974.2802715042099
 20
136.4849386559231
 30
0.0
 41
0.5
 42
0.5
 43
0.5
  0
INSERT
  5
9A
330
EF7C85532
100
AcDbEntity
  8
SUNPOU
100
AcDbBlockReference
  2
STDGX5
 10
749.7834008663489
 20
95.14721172234004
 30
0.0
 41
0.5
 42
0.5
 43
0.5
  0
INSERT
  5
9B
330
EF7C85532
100
AcDbEntity
  8
SUNPOU
100
AcDbBlockReference
  2
STDGX5
 10
736.9237986642947
 20
149.3881932275598
 30
0.0
 41
0.5
 42
0.5
 43
0.5
  0
INSERT
  5
9C
330
EF7C85532
100
AcDbEntity
  8
HATCH
100
AcDbBlockReference
  2
STDGX5
 10
863.1015326601156
 20
196.0183891623711
 30
0.0
 41
0.5
 42
0.5
 43
0.5
  0
INSERT
  5
9D
330
EF7C85532
100
AcDbEntity
  8
HATCH
100
AcDbBlockReference
  2
STDGX5
 10
877.3836572296538
 20
147.0136281295923
 30
0.0
 41
0.5
 42
0.5
 43
0.5
  0
INSERT
  5
9E
330
EF7C85532
100
AcDbEntity
  8
TEXT
100
AcDbBlockReference
  2
STDGX5
 10
981.0464184541224
 20
147.1332261885546
 30
0.0
 41
0.5
 42
0.5
 43
0.5
  0
INSERT
  5
9F
330
EF7C85532
100
AcDbEntity
  8
SUNPOU
100
AcDbBlockReference
  2
STDGX5
 10
1006.875868341712
 20
218.8594439142484
 30
0.0
 41
0.5
 42
0.5
 43
0.5
  0
INSERT
  5
A0
330
EF7C85532
100
AcDbEntity
  8
TEXT
100
AcDbBlockReference
  2
STDGX5
 10
736.4543662830251
 20
168.8978984097612
 30
0.0
 41
0.5
 42
0.5
 43
0.5
  0
INSERT
  5
A1
330
EF7C85532
100
AcDbEntity
  8
HATCH
100
AcDbBlockReference
  2
STDGX5
 10
787.8785498675677
 20
189.8340822588735
 30
0.0
 41
0.5
 42
0.5
 43
0.5
  0
INSERT
  5
A2
330
EF7C85532
100
AcDbEntity
  8
SUNPOU
100
AcDbBlockReference
  2
STDGX5
 10
856.899335137886
 20
157.0076768386202
 30
0.0
 41
0.5
 42
0.5
 43
0.5
  0
INSERT
  5
A3
330
EF7C85532
100
AcDbEntity
  8
SUNPOU
100
AcDbBlockReference
  2
STDGX5
 10
927.3710932230379
 20
166.0449410759395
 30
0.0
 41
0.5
 42
0.5
 43
0.5
  0
INSERT
  5
A4
330
EF7C85532
100
AcDbEntity
  8
TEXT
100
AcDbBlockReference
  2
STDGX5
 10
994.4999237446024
 20
128.9304016143018
 30
0.0
 41
0.5
 42
0.5
 43
0.5
  0
INSERT
  5
A5
330
EF7C85532
100
AcDbEntity
  8
HATCH
100
AcDbBlockReference
  2
STDGX5
 10
984.9832491061354
 20
180.7968180215541
 30
0.0
 41
0.5
 42
0.5
 43
0.5
  0
TEXT
  5
DE
330
EF7C85532
100
AcDbEntity
  8
SUNPOU
100
AcDbText
 10
274.0586949361738
 20
43.7966872748706
 30
0.0
 40
1.5
  1
                          
100
AcDbText
  0
TEXT
  5
145
330
EF7C85532
100
AcDbEntity
  8
SUNPOU
100
AcDbText
 10
511.2793459710869
 20
21.8983436374353
 30
0.0
 40
0.75
  1
                          
100
AcDbText
  0
TEXT
  5
265
330
EF7C85532
100
AcDbEntity
  8
SUNPOU
100
AcDbText
 10
474.702507645204
 20
43.79668727487057
 30
0.0
 40
1.5
  1
                          
100
AcDbText
  0
TEXT
  5
266
330
EF7C85532
100
AcDbEntity
  8
SUNPOU
100
AcDbText
 10
711.923158680117
 20
21.89834363743527
 30
0.0
 40
0.75
  1
                          
100
AcDbText
  0
INSERT
  5
2F7
330
EF7C85532
100
AcDbEntity
  8
HATCH
100
AcDbBlockReference
  2
*X3
 10
178.999999284
 20
0.0
 30
0.0
  0
TEXT
  5
31A
330
EF7C85532
100
AcDbEntity
  8
SUNPOU
100
AcDbText
 10
477.0854500730167
 20
43.7966872748706
 30
0.0
 40
1.5
  1
                          
100
AcDbText
  0
TEXT
  5
31C
330
EF7C85532
100
AcDbEntity
  8
SUNPOU
100
AcDbText
 10
714.3061011079298
 20
21.8983436374353
 30
0.0
 40
0.75
  1
                          
100
AcDbText
  0
TEXT
  5
3A6
330
EF7C85532
100
AcDbEntity
  8
TEXT
100
AcDbText
 10
100.9999992839998
 20
244.9999999999999
 30
0.0
 40
3.0
  1
 
  7
K
100
AcDbText
  0
TEXT
  5
3AB
330
EF7C85532
100
AcDbEntity
  8
SUNPOU
100
AcDbText
 10
466.1239116114783
 20
43.7966872748706
 30
0.0
 40
1.5
  1
                          
100
AcDbText
  0
TEXT
  5
3AC
330
EF7C85532
100
AcDbEntity
  8
SUNPOU
100
AcDbText
 10
703.3445626463913
 20
21.8983436374353
 30
0.0
 40
0.75
  1
                          
100
AcDbText
  0
INSERT
  5
3F6
330
EF7C85532
100
AcDbEntity
  8
TEXT
100
AcDbBlockReference
  2
STDGX5
 10
178.999999284
 20
0.0
 30
0.0
  0
TEXT
  5
3F7
330
EF7C85532
100
AcDbEntity
  8
SUNPOU
100
AcDbText
 10
453.0586949361739
 20
43.7966872748706
 30
0.0
 40
1.5
  1
                          
100
AcDbText
  0
TEXT
  5
3F8
330
EF7C85532
100
AcDbEntity
  8
SUNPOU
100
AcDbText
 10
690.279345971087
 20
21.8983436374353
 30
0.0
 40
0.75
  1
                          
100
AcDbText
  0
TEXT
  5
3F9
330
EF7C85532
100
AcDbEntity
  8
SUNPOU
100
AcDbText
 10
647.9834433840535
 20
43.7966872748706
 30
0.0
 40
1.5
  1
                          
100
AcDbText
  0
TEXT
  5
3FA
330
EF7C85532
100
AcDbEntity
  8
SUNPOU
100
AcDbText
 10
885.2040944189665
 20
21.8983436374353
 30
0.0
 40
0.75
  1
                          
100
AcDbText
  0
TEXT
  5
3FB
330
EF7C85532
100
AcDbEntity
  8
SUNPOU
100
AcDbText
 10
848.6272560930835
 20
43.79668727487057
 30
0.0
 40
1.5
  1
                          
100
AcDbText
  0
TEXT
  5
3FC
330
EF7C85532
100
AcDbEntity
  8
SUNPOU
100
AcDbText
 10
1085.847907127996
 20
21.89834363743527
 30
0.0
 40
0.75
  1
                          
100
AcDbText
  0
INSERT
  5
3FD
330
EF7C85532
100
AcDbEntity
  8
HATCH
100
AcDbBlockReference
  2
*X4
 10
552.9247477318797
 20
0.0
 30
0.0
  0
TEXT
  5
3FE
330
EF7C85532
100
AcDbEntity
  8
SUNPOU
100
AcDbText
 10
851.0101985208963
 20
43.7966872748706
 30
0.0
 40
1.5
  1
                          
100
AcDbText
  0
TEXT
  5
3FF
330
EF7C85532
100
AcDbEntity
  8
SUNPOU
100
AcDbText
 10
1088.230849555809
 20
21.8983436374353
 30
0.0
 40
0.75
  1
                          
100
AcDbText
  0
TEXT
  5
400
330
EF7C85532
100
AcDbEntity
  8
SUNPOU
100
AcDbText
 10
840.048660059358
 20
43.7966872748706
 30
0.0
 40
1.5
  1
                          
100
AcDbText
  0
TEXT
  5
401
330
EF7C85532
100
AcDbEntity
  8
SUNPOU
100
AcDbText
 10
1077.269311094271
 20
21.8983436374353
 30
0.0
 40
0.75
  1
                          
100
AcDbText
  0
INSERT
  5
402
330
EF7C85532
100
AcDbEntity
  8
JISSEN
100
AcDbBlockReference
  2
STDGX5
 10
357.999999284
 20
0.0
 30
0.0
  0
TEXT
  5
409
330
EF7C85532
100
AcDbEntity
  8
SUNPOU
100
AcDbText
 10
453.0586949361739
 20
43.7966872748706
 30
0.0
 40
1.5
  1
                          
100
AcDbText
  0
TEXT
  5
40A
330
EF7C85532
100
AcDbEntity
  8
SUNPOU
100
AcDbText
 10
690.279345971087
 20
21.8983436374353
 30
0.0
 40
0.75
  1
                          
100
AcDbText
  0
TEXT
  5
41B
330
EF7C85532
100
AcDbEntity
  8
SUNPOU
100
AcDbText
 10
647.9834433840535
 20
43.7966872748706
 30
0.0
 40
1.5
  1
                          
100
AcDbText
  0
TEXT
  5
41C
330
EF7C85532
100
AcDbEntity
  8
SUNPOU
100
AcDbText
 10
885.2040944189665
 20
21.8983436374353
 30
0.0
 40
0.75
  1
                          
100
AcDbText
  0
TEXT
  5
41D
330
EF7C85532
100
AcDbEntity
  8
SUNPOU
100
AcDbText
 10
848.6272560930835
 20
43.79668727487057
 30
0.0
 40
1.5
  1
                          
100
AcDbText
  0
TEXT
  5
41E
330
EF7C85532
100
AcDbEntity
  8
SUNPOU
100
AcDbText
 10
1085.847907127996
 20
21.89834363743527
 30
0.0
 40
0.75
  1
                          
100
AcDbText
  0
INSERT
  5
41F
330
EF7C85532
100
AcDbEntity
  8
HATCH
100
AcDbBlockReference
  2
*X5
 10
552.9247477318797
 20
0.0
 30
0.0
  0
TEXT
  5
420
330
EF7C85532
100
AcDbEntity
  8
SUNPOU
100
AcDbText
 10
851.0101985208963
 20
43.7966872748706
 30
0.0
 40
1.5
  1
                          
100
AcDbText
  0
TEXT
  5
421
330
EF7C85532
100
AcDbEntity
  8
SUNPOU
100
AcDbText
 10
1088.230849555809
 20
21.8983436374353
 30
0.0
 40
0.75
  1
                          
100
AcDbText
  0
TEXT
  5
422
330
EF7C85532
100
AcDbEntity
  8
SUNPOU
100
AcDbText
 10
840.048660059358
 20
43.7966872748706
 30
0.0
 40
1.5
  1
                          
100
AcDbText
  0
TEXT
  5
423
330
EF7C85532
100
AcDbEntity
  8
SUNPOU
100
AcDbText
 10
1077.269311094271
 20
21.8983436374353
 30
0.0
 40
0.75
  1
                          
100
AcDbText
  0
INSERT
  5
424
330
EF7C85532
100
AcDbEntity
  8
JISSEN
100
AcDbBlockReference
  2
STDGX5
 10
357.999999284
 20
0.0
 30
0.0
  0
TEXT
  5
425
330
EF7C85532
100
AcDbEntity
  8
SUNPOU
100
AcDbText
 10
632.0586942201739
 20
43.7966872748706
 30
0.0
 40
1.5
  1
                          
100
AcDbText
  0
TEXT
  5
426
330
EF7C85532
100
AcDbEntity
  8
SUNPOU
100
AcDbText
 10
869.2793452550871
 20
21.8983436374353
 30
0.0
 40
0.75
  1
                          
100
AcDbText
  0
TEXT
  5
427
330
EF7C85532
100
AcDbEntity
  8
SUNPOU
100
AcDbText
 10
826.9834426680535
 20
43.7966872748706
 30
0.0
 40
1.5
  1
                          
100
AcDbText
  0
TEXT
  5
428
330
EF7C85532
100
AcDbEntity
  8
SUNPOU
100
AcDbText
 10
1064.204093702966
 20
21.8983436374353
 30
0.0
 40
0.75
  1
                          
100
AcDbText
  0
TEXT
  5
429
330
EF7C85532
100
AcDbEntity
  8
SUNPOU
100
AcDbText
 10
1027.627255377083
 20
43.79668727487057
 30
0.0
 40
1.5
  1
                          
100
AcDbText
  0
TEXT
  5
42A
330
EF7C85532
100
AcDbEntity
  8
SUNPOU
100
AcDbText
 10
1264.847906411996
 20
21.89834363743527
 30
0.0
 40
0.75
  1
                          
100
AcDbText
  0
INSERT
  5
42B
330
EF7C85532
100
AcDbEntity
  8
HATCH
100
AcDbBlockReference
  2
*X6
 10
731.9247470158797
 20
0.0
 30
0.0
  0
TEXT
  5
42C
330
EF7C85532
100
AcDbEntity
  8
SUNPOU
100
AcDbText
 10
1030.010197804896
 20
43.7966872748706
 30
0.0
 40
1.5
  1
                          
100
AcDbText
  0
TEXT
  5
42D
330
EF7C85532
100
AcDbEntity
  8
SUNPOU
100
AcDbText
 10
1267.230848839809
 20
21.8983436374353
 30
0.0
 40
0.75
  1
                          
100
AcDbText
  0
TEXT
  5
42E
330
EF7C85532
100
AcDbEntity
  8
SUNPOU
100
AcDbText
 10
1019.048659343358
 20
43.7966872748706
 30
0.0
 40
1.5
  1
                          
100
AcDbText
  0
TEXT
  5
42F
330
EF7C85532
100
AcDbEntity
  8
SUNPOU
100
AcDbText
 10
1256.269310378271
 20
21.8983436374353
 30
0.0
 40
0.75
  1
                          
100
AcDbText
  0
INSERT
  5
430
330
EF7C85532
100
AcDbEntity
  8
JISSEN
100
AcDbBlockReference
  2
STDGX5
 10
536.999998568
 20
0.0
 30
0.0
  0
INSERT
  5
43B
330
EF7C85532
100
AcDbEntity
  8
SUNPOU
100
AcDbBlockReference
  2
STDGX5
 10
739.0804232644236
 20
50.83533235670902
 30
0.0
 41
0.5
 42
0.5
 43
0.5
  0
INSERT
  5
43C
330
EF7C85532
100
AcDbEntity
  8
SUNPOU
100
AcDbBlockReference
  2
STDGX5
 10
726.2208210623692
 20
105.0763138619288
 30
0.0
 41
0.5
 42
0.5
 43
0.5
  0
INSERT
  5
43D
330
EF7C85532
100
AcDbEntity
  8
HATCH
100
AcDbBlockReference
  2
STDGX5
 10
852.3985550581901
 20
151.7065097967401
 30
0.0
 41
0.5
 42
0.5
 43
0.5
  0
INSERT
  5
43E
330
EF7C85532
100
AcDbEntity
  8
HATCH
100
AcDbBlockReference
  2
STDGX5
 10
866.6806796277285
 20
102.7017487639613
 30
0.0
 41
0.5
 42
0.5
 43
0.5
  0
INSERT
  5
43F
330
EF7C85532
100
AcDbEntity
  8
TEXT
100
AcDbBlockReference
  2
STDGX5
 10
970.3434408521969
 20
102.8213468229236
 30
0.0
 41
0.5
 42
0.5
 43
0.5
  0
INSERT
  5
440
330
EF7C85532
100
AcDbEntity
  8
SUNPOU
100
AcDbBlockReference
  2
STDGX5
 10
996.1728907397869
 20
174.5475645486174
 30
0.0
 41
0.5
 42
0.5
 43
0.5
  0
INSERT
  5
441
330
EF7C85532
100
AcDbEntity
  8
TEXT
100
AcDbBlockReference
  2
STDGX5
 10
725.7513886810995
 20
124.5860190441302
 30
0.0
 41
0.5
 42
0.5
 43
0.5
  0
INSERT
  5
442
330
EF7C85532
100
AcDbEntity
  8
HATCH
100
AcDbBlockReference
  2
STDGX5
 10
777.1755722656421
 20
145.5222028932424
 30
0.0
 41
0.5
 42
0.5
 43
0.5
  0
INSERT
  5
443
330
EF7C85532
100
AcDbEntity
  8
SUNPOU
100
AcDbBlockReference
  2
STDGX5
 10
846.1963575359604
 20
112.6957974729892
 30
0.0
 41
0.5
 42
0.5
 43
0.5
  0
INSERT
  5
444
330
EF7C85532
100
AcDbEntity
  8
SUNPOU
100
AcDbBlockReference
  2
STDGX5
 10
916.6681156211122
 20
121.7330617103085
 30
0.0
 41
0.5
 42
0.5
 43
0.5
  0
INSERT
  5
445
330
EF7C85532
100
AcDbEntity
  8
TEXT
100
AcDbBlockReference
  2
STDGX5
 10
983.7969461426769
 20
84.61852224867081
 30
0.0
 41
0.5
 42
0.5
 43
0.5
  0
INSERT
  5
446
330
EF7C85532
100
AcDbEntity
  8
HATCH
100
AcDbBlockReference
  2
STDGX5
 10
974.2802715042099
 20
136.4849386559231
 30
0.0
 41
0.5
 42
0.5
 43
0.5
  0
INSERT
  5
447
330
EF7C85532
100
AcDbEntity
  8
SUNPOU
100
AcDbBlockReference
  2
STDGX5
 10
749.7834008663489
 20
95.14721172234004
 30
0.0
 41
0.5
 42
0.5
 43
0.5
  0
INSERT
  5
448
330
EF7C85532
100
AcDbEntity
  8
SUNPOU
100
AcDbBlockReference
  2
STDGX5
 10
736.9237986642947
 20
149.3881932275598
 30
0.0
 41
0.5
 42
0.5
 43
0.5
  0
INSERT
  5
449
330
EF7C85532
100
AcDbEntity
  8
HATCH
100
AcDbBlockReference
  2
STDGX5
 10
863.1015326601156
 20
196.0183891623711
 30
0.0
 41
0.5
 42
0.5
 43
0.5
  0
INSERT
  5
44A
330
EF7C85532
100
AcDbEntity
  8
HATCH
100
AcDbBlockReference
  2
STDGX5
 10
877.3836572296538
 20
147.0136281295923
 30
0.0
 41
0.5
 42
0.5
 43
0.5
  0
INSERT
  5
44B
330
EF7C85532
100
AcDbEntity
  8
TEXT
100
AcDbBlockReference
  2
STDGX5
 10
981.0464184541224
 20
147.1332261885546
 30
0.0
 41
0.5
 42
0.5
 43
0.5
  0
INSERT
  5
44C
330
EF7C85532
100
AcDbEntity
  8
SUNPOU
100
AcDbBlockReference
  2
STDGX5
 10
1006.875868341712
 20
218.8594439142484
 30
0.0
 41
0.5
 42
0.5
 43
0.5
  0
INSERT
  5
44D
330
EF7C85532
100
AcDbEntity
  8
TEXT
100
AcDbBlockReference
  2
STDGX5
 10
736.4543662830251
 20
168.8978984097612
 30
0.0
 41
0.5
 42
0.5
 43
0.5
  0
INSERT
  5
44E
330
EF7C85532
100
AcDbEntity
  8
HATCH
100
AcDbBlockReference
  2
STDGX5
 10
787.8785498675677
 20
189.8340822588735
 30
0.0
 41
0.5
 42
0.5
 43
0.5
  0
INSERT
  5
44F
330
EF7C85532
100
AcDbEntity
  8
SUNPOU
100
AcDbBlockReference
  2
STDGX5
 10
856.899335137886
 20
157.0076768386202
 30
0.0
 41
0.5
 42
0.5
 43
0.5
  0
INSERT
  5
450
330
EF7C85532
100
AcDbEntity
  8
SUNPOU
100
AcDbBlockReference
  2
STDGX5
 10
927.3710932230379
 20
166.0449410759395
 30
0.0
 41
0.5
 42
0.5
 43
0.5
  0
INSERT
  5
451
330
EF7C85532
100
AcDbEntity
  8
TEXT
100
AcDbBlockReference
  2
STDGX5
 10
994.4999237446024
 20
128.9304016143018
 30
0.0
 41
0.5
 42
0.5
 43
0.5
  0
INSERT
  5
452
330
EF7C85532
100
AcDbEntity
  8
HATCH
100
AcDbBlockReference
  2
STDGX5
 10
984.9832491061354
 20
180.7968180215541
 30
0.0
 41
0.5
 42
0.5
 43
0.5
  0
INSERT
  5
4CF3
330
EF7C85532
100
AcDbEntity
  8
JISSEN
100
AcDbBlockReference
  2
STDR12J
 10
0.0
 20
0.0
 30
0.0
  0
LINE
  5
EAFFB3C99
330
EF7C85532
100
AcDbEntity
  8
JISSEN
100
AcDbLine
 10
91.49999927599996
 20
266.9999997424123
 30
0.0
 11
180.999999276
 21
266.9999997424123
 31
0.0
  0
LINE
  5
EAFFB3C9A
330
EF7C85532
100
AcDbEntity
  8
JISSEN
100
AcDbLine
 10
91.49999927599996
 20
260.9999997424123
 30
0.0
 11
180.999999276
 21
260.9999997424123
 31
0.0
  0
TEXT
  5
EAFFB3C9B
330
EF7C85532
100
AcDbEntity
  8
TEXT
100
AcDbText
 10
107.8999992759999
 20
268.4999997424124
 30
0.0
 40
3.0
  1
名      称
  7
K
 72
     4
 11
116.4999992759999
 21
269.9999997424124
 31
0.0
100
AcDbText
  0
TEXT
  5
EAFFB3C9C
330
EF7C85532
100
AcDbEntity
  8
TEXT
100
AcDbText
 10
93.29999927599995
 20
268.4999997424124
 30
0.0
 40
3.0
  1
番号
  7
K
 72
     4
 11
96.49999927599996
 21
269.9999997424124
 31
0.0
100
AcDbText
  0
LINE
  5
EAFFB3C9D
330
EF7C85532
100
AcDbEntity
  8
JISSEN
100
AcDbLine
 10
91.49999927599996
 20
260.9999997424123
 30
0.0
 11
91.49999927599996
 21
272.9999997424124
 31
0.0
  0
LINE
  5
EAFFB3C9E
330
EF7C85532
100
AcDbEntity
  8
JISSEN
100
AcDbLine
 10
101.4999992759999
 20
272.9999997424124
 30
0.0
 11
101.4999992759999
 21
260.9999997424123
 31
0.0
  0
TEXT
  5
EAFFB3C9F
330
EF7C85532
100
AcDbEntity
  8
TEXT
100
AcDbText
 10
135.1999992759999
 20
268.4999997424124
 30
0.0
 40
3.0
  1
材    質
  7
K
 72
     4
 11
141.9999992759999
 21
269.9999997424124
 31
0.0
100
AcDbText
  0
LINE
  5
EAFFB3CA0
330
EF7C85532
100
AcDbEntity
  8
JISSEN
100
AcDbLine
 10
131.4999992759999
 20
272.9999997424124
 30
0.0
 11
131.4999992759999
 21
260.9999997424123
 31
0.0
  0
LINE
  5
EAFFB3CA1
330
EF7C85532
100
AcDbEntity
  8
JISSEN
100
AcDbLine
 10
152.4999992759999
 20
260.9999997424123
 30
0.0
 11
152.4999992759999
 21
272.9999997424124
 31
0.0
  0
TEXT
  5
EAFFB3CA2
330
EF7C85532
100
AcDbEntity
  8
TEXT
100
AcDbText
 10
165.6999992759999
 20
268.4999997424124
 30
0.0
 40
3.0
  1
備    考
  7
K
 72
     4
 11
172.4999992759999
 21
269.9999997424124
 31
0.0
100
AcDbText
  0
TEXT
  5
EAFFB3CA3
330
EF7C85532
100
AcDbEntity
  8
TEXT
100
AcDbText
 10
154.7999992759999
 20
268.4999997424124
 30
0.0
 40
3.0
  1
個数
  7
K
 72
     4
 11
157.9999992759999
 21
269.9999997424124
 31
0.0
100
AcDbText
  0
LINE
  5
EAFFB3CA4
330
EF7C85532
100
AcDbEntity
  8
JISSEN
100
AcDbLine
 10
163.4999992759999
 20
272.9999997424124
 30
0.0
 11
163.4999992759999
 21
260.9999997424123
 31
0.0
  0
TEXT
  5
EAFFB3CC3
330
EF7C85532
100
AcDbEntity
  8
TEXT
100
AcDbText
 10
136.2142849902856
 20
262.4999997424124
 30
0.0
 40
3.0
  1
SECC
  7
K
 72
     4
 11
141.9999992759999
 21
263.9999997424124
 31
0.0
100
AcDbText
  0
TEXT
  5
EF7C85BB1
330
EF7C85532
100
AcDbEntity
  8
TEXT
100
AcDbText
 10
156.6795477624092
 20
262.4999997424124
 30
0.0
 40
3.0
  1
1
  7
K
 72
     4
 11
157.8938334766949
 21
263.9999997424124
 31
0.0
100
AcDbText
  0
TEXT
  5
EF7C85D65
330
EF7C85532
100
AcDbEntity
  8
SUNPOU
100
AcDbText
 10
150.1254796246174
 20
7.8494236410977
 30
0.0
 40
3.0
  1
泡プレート%%c100
  7
K
100
AcDbText
  0
TEXT
  5
EF7C85D66
330
EF7C85532
100
AcDbEntity
  8
SUNPOU
100
AcDbText
 10
150.1254796246174
 20
2.8494236410977
 30
0.0
 40
3.0
  1
尺度　1/1
  7
K
100
AcDbText
  0
TEXT
  5
EF7C85DB6
330
EF7C85532
100
AcDbEntity
  8
TEXT
100
AcDbText
 10
103.5142849902856
 20
262.4999997424124
 30
0.0
 40
3.0
  1
泡プレート%%c100
 41
0.9
  7
K
 72
     4
 11
116.4999992759999
 21
263.9999997424124
 31
0.0
100
AcDbText
  0
TEXT
  5
EF7C87CEE
330
EF7C85532
100
AcDbEntity
  8
TEXT
100
AcDbText
 10
167.4999992759999
 20
262.4999997424124
 30
0.0
 40
3.0
  1
塗装有
  7
K
 72
     4
 11
172.4999992759999
 21
263.9999997424124
 31
0.0
100
AcDbText
  0
MTEXT
  5
EF7C87DF5
330
EF7C85532
100
AcDbEntity
  8
SUNPOU
100
AcDbMText
 10
32.88302980690309
 20
7.557491305388822
 30
0.0
 40
3.0
 41
0.0
 71
     5
 72
     1
  1
2.5P5/5
  7
K
1001
ACAD
1000
MTEXTBEGIN
1070
    73
1070
     1
1070
    44
1040
1.0
1070
    74
1070
     0
1000
MTEXTEND
  0
MTEXT
  5
EF7C87DF6
330
EF7C85532
100
AcDbEntity
  8
SUNPOU
100
AcDbMText
 10
32.88302980690309
 20
2.55749130538885
 30
0.0
 40
3.0
 41
0.0
 71
     5
 72
     1
  1
7.5YR5/6
  7
K
1001
ACAD
1000
MTEXTBEGIN
1070
    73
1070
     1
1070
    44
1040
1.0
1070
    74
1070
     0
1000
MTEXTEND
  0
MTEXT
  5
EF7C87DF7
330
EF7C85532
100
AcDbEntity
  8
SUNPOU
100
AcDbMText
 10
8.127694815665563
 20
2.55749130538885
 30
0.0
 40
3.0
 41
0.0
 71
     5
 72
     1
  1
茶
  7
K
1001
ACAD
1000
MTEXTBEGIN
1070
    73
1070
     1
1070
    44
1040
1.0
1070
    74
1070
     0
1000
MTEXTEND
  0
MTEXT
  5
EF7C87DF8
330
EF7C85532
100
AcDbEntity
  8
SUNPOU
100
AcDbMText
 10
32.88302980690309
 20
12.55749130538882
 30
0.0
 40
3.0
 41
0.0
 71
     5
 72
     1
  1
2.5RP4/12
  7
K
1001
ACAD
1000
MTEXTBEGIN
1070
    73
1070
     1
1070
    44
1040
1.0
1070
    74
1070
     0
1000
MTEXTEND
  0
MTEXT
  5
EF7C87DF9
330
EF7C85532
100
AcDbEntity
  8
SUNPOU
100
AcDbMText
 10
8.127694815665563
 20
17.5574913053889
 30
0.0
 40
3.0
 41
0.0
 71
     5
 72
     1
  1
白
  7
K
1001
ACAD
1000
MTEXTBEGIN
1070
    73
1070
     1
1070
    44
1040
1.0
1070
    74
1070
     0
1000
MTEXTEND
  0
MTEXT
  5
EF7C87DFA
330
EF7C85532
100
AcDbEntity
  8
SUNPOU
100
AcDbMText
 10
32.88302980690309
 20
17.55749130538882
 30
0.0
 40
3.0
 41
0.0
 71
     5
 72
     1
  1
N9.5
  7
K
1001
ACAD
1000
MTEXTBEGIN
1070
    73
1070
     1
1070
    44
1040
1.0
1070
    74
1070
     0
1000
MTEXTEND
  0
MTEXT
  5
EF7C87DFB
330
EF7C85532
100
AcDbEntity
  8
SUNPOU
100
AcDbMText
 10
32.88302980690309
 20
22.55749130538882
 30
0.0
 40
3.0
 41
0.0
 71
     5
 72
     1
  1
2.5G6/10
  7
K
1001
ACAD
1000
MTEXTBEGIN
1070
    73
1070
     1
1070
    44
1040
1.0
1070
    74
1070
     0
1000
MTEXTEND
  0
MTEXT
  5
EF7C87DFC
330
EF7C85532
100
AcDbEntity
  8
SUNPOU
100
AcDbMText
 10
8.127694815665563
 20
22.55749130538882
 30
0.0
 40
3.0
 41
0.0
 71
     5
 72
     1
  1
緑
  7
K
1001
ACAD
1000
MTEXTBEGIN
1070
    73
1070
     1
1070
    44
1040
1.0
1070
    74
1070
     0
1000
MTEXTEND
  0
MTEXT
  5
EF7C87DFD
330
EF7C85532
100
AcDbEntity
  8
SUNPOU
100
AcDbMText
 10
32.88302980690309
 20
27.55749130538882
 30
0.0
 40
3.0
 41
0.0
 71
     5
 72
     1
  1
2.5PB5/8
  7
K
1001
ACAD
1000
MTEXTBEGIN
1070
    73
1070
     1
1070
    44
1040
1.0
1070
    74
1070
     0
1000
MTEXTEND
  0
MTEXT
  5
EF7C87DFE
330
EF7C85532
100
AcDbEntity
  8
SUNPOU
100
AcDbMText
 10
8.127694815665563
 20
27.55749130538882
 30
0.0
 40
3.0
 41
0.0
 71
     5
 72
     1
  1
青
  7
K
1001
ACAD
1000
MTEXTBEGIN
1070
    73
1070
     1
1070
    44
1040
1.0
1070
    74
1070
     0
1000
MTEXTEND
  0
MTEXT
  5
EF7C87DFF
330
EF7C85532
100
AcDbEntity
  8
SUNPOU
100
AcDbMText
 10
32.88302980690309
 20
32.55749130538882
 30
0.0
 40
3.0
 41
0.0
 71
     5
 72
     1
  1
2.5YR6/14
  7
K
1001
ACAD
1000
MTEXTBEGIN
1070
    73
1070
     1
1070
    44
1040
1.0
1070
    74
1070
     0
1000
MTEXTEND
  0
MTEXT
  5
EF7C87E00
330
EF7C85532
100
AcDbEntity
  8
SUNPOU
100
AcDbMText
 10
8.127694815665563
 20
32.55749130538882
 30
0.0
 40
3.0
 41
0.0
 71
     5
 72
     1
  1
黄赤
  7
K
1001
ACAD
1000
MTEXTBEGIN
1070
    73
1070
     1
1070
    44
1040
1.0
1070
    74
1070
     0
1000
MTEXTEND
  0
MTEXT
  5
EF7C87E01
330
EF7C85532
100
AcDbEntity
  8
SUNPOU
100
AcDbMText
 10
32.88302980690309
 20
37.55749130538882
 30
0.0
 40
3.0
 41
0.0
 71
     5
 72
     1
  1
7.5R4/15
  7
K
1001
ACAD
1000
MTEXTBEGIN
1070
    73
1070
     1
1070
    44
1040
1.0
1070
    74
1070
     0
1000
MTEXTEND
  0
MTEXT
  5
EF7C87E02
330
EF7C85532
100
AcDbEntity
  8
SUNPOU
100
AcDbMText
 10
32.88302980690309
 20
42.44504392441294
 30
0.0
 40
3.0
 41
0.0
 71
     5
 72
     1
  1
マンセル値（近似）
  7
K
1001
ACAD
1000
MTEXTBEGIN
1070
    73
1070
     1
1070
    44
1040
1.0
1070
    74
1070
     0
1000
MTEXTEND
  0
MTEXT
  5
EF7C87E03
330
EF7C85532
100
AcDbEntity
  8
SUNPOU
100
AcDbMText
 10
8.152178671918932
 20
37.55749130538882
 30
0.0
 40
3.0
 41
0.0
 71
     5
 72
     1
  1
赤
  7
K
1001
ACAD
1000
MTEXTBEGIN
1070
    73
1070
     1
1070
    44
1040
1.0
1070
    74
1070
     0
1000
MTEXTEND
  0
MTEXT
  5
EF7C87E04
330
EF7C85532
100
AcDbEntity
  8
SUNPOU
100
AcDbMText
 10
8.152178671918932
 20
42.44504392441299
 30
0.0
 40
3.0
 41
0.0
 71
     5
 72
     1
  1
塗装色
  7
K
1001
ACAD
1000
MTEXTBEGIN
1070
    73
1070
     1
1070
    44
1040
1.0
1070
    74
1070
     0
1000
MTEXTEND
  0
MTEXT
  5
EF7C87E05
330
EF7C85532
100
AcDbEntity
  8
SUNPOU
100
AcDbMText
 10
30.00564527760616
 20
76.76859998172301
 30
0.0
 40
3.0
 41
0.0
 71
     5
 72
     1
  1
塗装面
  7
K
1001
ACAD
1000
MTEXTBEGIN
1070
    73
1070
     1
1070
    44
1040
1.0
1070
    74
1070
     0
1000
MTEXTEND
  0
MTEXT
  5
EF7C87E0A
330
EF7C85532
100
AcDbEntity
  8
SUNPOU
100
AcDbMText
 10
8.127694815665563
 20
12.55749130538893
 30
0.0
 40
3.0
 41
0.0
 71
     5
 72
     1
  1
赤紫
  7
K
1001
ACAD
1000
MTEXTBEGIN
1070
    73
1070
     1
1070
    44
1040
1.0
1070
    74
1070
     0
1000
MTEXTEND
  0
MTEXT
  5
EF7C87E0B
330
EF7C85532
100
AcDbEntity
  8
SUNPOU
100
AcDbMText
 10
8.127694815665563
 20
7.557491305389021
 30
0.0
 40
3.0
 41
0.0
 71
     5
 72
     1
  1
紫
  7
K
1001
ACAD
1000
MTEXTBEGIN
1070
    73
1070
     1
1070
    44
1040
1.0
1070
    74
1070
     0
1000
MTEXTEND
  0
LINE
  5
EF7C87E0D
330
EF7C85532
100
AcDbEntity
  8
NITEN
100
AcDbLine
 10
102.0000000209625
 20
91.30618848132932
 30
0.0
 11
79.00000002096252
 21
91.30618848132932
 31
0.0
  0
LINE
  5
EF7C87E0E
330
EF7C85532
100
AcDbEntity
  8
JISSEN
100
AcDbLine
 10
140.5000000209625
 20
91.30618848132934
 30
0.0
 11
40.50000002096254
 21
91.30618848132938
 31
0.0
  0
CIRCLE
  5
EF7C87E0F
330
EF7C85532
100
AcDbEntity
  8
JISSEN
100
AcDbCircle
 10
90.50000002096252
 20
191.5355845371153
 30
0.0
 40
10.89999999999999
  0
CIRCLE
  5
EF7C87E10
330
EF7C85532
100
AcDbEntity
  8
JISSEN
100
AcDbCircle
 10
90.50000002096252
 20
191.5355845371153
 30
0.0
 40
11.39999999999999
  0
CIRCLE
  5
EF7C87E11
330
EF7C85532
100
AcDbEntity
  8
JISSEN
100
AcDbCircle
 10
90.50000002096252
 20
191.5355845371153
 30
0.0
 40
50.0
  0
LWPOLYLINE
  5
EF7C87E12
330
EF7C85532
100
AcDbEntity
  8
WAKU
100
AcDbPolyline
 90
        4
 70
     1
 43
0.0
 10
180.999999276
 20
0.0
 10
0.0
 20
0.0
 10
0.0
 20
272.9999999999999
 10
180.999999276
 20
272.9999999999999
  0
LINE
  5
EF7C87E16
330
EF7C85532
100
AcDbEntity
  8
NITEN
100
AcDbLine
 10
81.40805069332547
 20
105.5998099969438
 30
0.0
 11
99.59027898507034
 21
105.6532616298793
 31
0.0
  0
LINE
  5
EF7C87E17
330
EF7C85532
100
AcDbEntity
  8
NITEN
100
AcDbLine
 10
99.56051294867828
 20
106.605774794424
 30
0.0
 11
81.27727249370687
 21
106.5992656538802
 31
0.0
  0
LINE
  5
EF7C87E18
330
EF7C85532
100
AcDbEntity
  8
NITEN
100
AcDbLine
 10
79.00000002096252
 20
90.78890963711454
 30
0.0
 11
102.0000000209625
 21
90.78890963711454
 31
0.0
  0
LINE
  5
EF7C87E19
330
EF7C85532
100
AcDbEntity
  8
NITEN
100
AcDbLine
 10
79.88062502096252
 20
93.90618848132929
 30
0.0
 11
101.1193750209625
 21
93.90618848132952
 31
0.0
  0
LINE
  5
EF7C87E1A
330
EF7C85532
100
AcDbEntity
  8
NITEN
100
AcDbLine
 10
112.4888608372939
 20
85.0961884813293
 30
0.0
 11
68.51113920463092
 21
85.09618848132928
 31
0.0
  0
LINE
  5
EF7C87E1B
330
EF7C85532
100
AcDbEntity
  8
NITEN
100
AcDbLine
 10
101.7366854753124
 20
70.10618848132932
 30
0.0
 11
79.26331456661253
 21
70.10618848132932
 31
0.0
  0
LINE
  5
EF7C87E1C
330
EF7C85532
100
AcDbEntity
  8
NITEN
100
AcDbLine
 10
65.60141005897219
 20
85.59618848132929
 30
0.0
 11
115.3985899829528
 21
85.59618848132929
 31
0.0
  0
ARC
  5
EF7C87E1D
330
EF7C85532
100
AcDbEntity
  8
NITEN
100
AcDbCircle
 10
90.50000002096252
 20
191.5355845371153
 30
0.0
 40
26.5
100
AcDbArc
 50
227.1622331922178
 51
312.8377668077821
  0
ARC
  5
EF7C87E1E
330
EF7C85532
100
AcDbEntity
  8
NITEN
100
AcDbCircle
 10
90.50000002096252
 20
191.5355845371153
 30
0.0
 40
26.5
100
AcDbArc
 50
47.16223319221791
 51
132.837766807782
  0
ARC
  5
EF7C87E1F
330
EF7C85532
100
AcDbEntity
  8
NITEN
100
AcDbCircle
 10
90.50000002096252
 20
191.5355845371153
 30
0.0
 40
26.5
100
AcDbArc
 50
47.1622331922179
 51
132.837766807782
  0
LINE
  5
EF7C87E21
330
EF7C85532
100
AcDbEntity
  8
SUNPOU
100
AcDbLine
 10
23.90564527760616
 20
74.66434640079573
 30
0.0
 11
37.68157729123606
 21
74.66434640079572
 31
0.0
  0
LINE
  5
EF7C87E22
330
EF7C85532
100
AcDbEntity
  8
JISSEN
100
AcDbLine
 10
79.10000002096253
 20
91.80618848132937
 30
0.0
 11
40.50000002096254
 21
91.80618848132937
 31
0.0
  0
INSERT
  5
EF7C87E24
330
EF7C85532
100
AcDbEntity
  8
SUNPOU
100
AcDbBlockReference
  2
ARROW
 10
49.30651136272991
 20
91.30618848132936
 30
0.0
 41
1.500000000000001
 42
1.5
 43
1.5
 50
55.06429537701529
  0
LINE
  5
EF7C87E25
330
EF7C85532
100
AcDbEntity
  8
SUNPOU
100
AcDbLine
 10
48.44752608651117
 20
90.0764957167579
 30
0.0
 11
37.68157729123606
 21
74.66434640079572
 31
0.0
  0
LINE
  5
EF7C87E26
330
EF7C85532
100
AcDbEntity
  8
JISSEN
100
AcDbLine
 10
40.50000002096254
 20
91.30618848132938
 30
0.0
 11
40.50000002096254
 21
91.80618848132937
 31
0.0
  0
LINE
  5
EF7C87E28
330
EF7C85532
100
AcDbEntity
  8
NITEN
100
AcDbLine
 10
79.79937502096245
 20
91.30618848132932
 30
0.0
 11
80.24603780470309
 21
105.5993975610274
 31
0.0
  0
LINE
  5
EF7C87E29
330
EF7C85532
100
AcDbEntity
  8
NITEN
100
AcDbLine
 10
81.43950002096246
 20
106.6061884813293
 30
0.0
 11
81.04262502096245
 21
93.90618848132929
 31
0.0
  0
ARC
  5
EF7C87E2A
330
EF7C85532
100
AcDbEntity
  8
NITEN
 48
0.5
100
AcDbCircle
 39
1.0
 10
79.26331456661253
 20
78.94618848132933
 30
0.0
 40
8.839999999999999
100
AcDbArc
 50
211.3669182582102
 51
270.0
  0
LINE
  5
EF7C87E2B
330
EF7C85532
100
AcDbEntity
  8
NITEN
100
AcDbLine
 10
79.00000002096252
 20
90.78890963711454
 30
0.0
 11
65.94932414147155
 21
89.64712344630781
 31
0.0
  0
ARC
  5
EF7C87E2C
330
EF7C85532
100
AcDbEntity
  8
NITEN
 48
0.5
100
AcDbCircle
 39
1.0
 10
90.50000002096252
 20
85.79618848132934
 30
0.0
 40
22.0
100
AcDbArc
 50
181.8233552780679
 51
211.3669182582103
  0
ARC
  5
EF7C87E2D
330
EF7C85532
100
AcDbEntity
  8
NITEN
100
AcDbCircle
 10
66.00000002096249
 20
87.64391733619079
 30
0.0
 40
2.0
100
AcDbArc
 50
94.99999999999976
 51
180.0
  0
ARC
  5
EF7C87E2E
330
EF7C85532
100
AcDbEntity
  8
NITEN
100
AcDbCircle
 10
66.10141005897219
 20
85.59618848132929
 30
0.0
 40
0.5
100
AcDbArc
 50
180.0
 51
270.0
  0
ARC
  5
EF7C87E2F
330
EF7C85532
100
AcDbEntity
  8
NITEN
100
AcDbCircle
 10
64.8000000209625
 20
86.63914659814826
 30
0.0
 40
0.8
100
AcDbArc
 50
180.0
 51
255.0000000000004
  0
ARC
  5
EF7C87E30
330
EF7C85532
100
AcDbEntity
  8
NITEN
100
AcDbCircle
 10
64.8000000209625
 20
86.63914659814826
 30
0.0
 40
0.8
100
AcDbArc
 50
180.0
 51
255.0000000000004
  0
LINE
  5
EF7C87E31
330
EF7C85532
100
AcDbEntity
  8
NITEN
100
AcDbLine
 10
64.00000002096248
 20
87.64391733619079
 30
0.0
 11
64.00000002096248
 21
86.63914659814826
 31
0.0
  0
LINE
  5
EF7C87E32
330
EF7C85532
100
AcDbEntity
  8
NITEN
100
AcDbLine
 10
64.00000002096248
 20
87.79751315758385
 30
0.0
 11
64.00000002096248
 21
86.63914659814826
 31
0.0
  0
LINE
  5
EF7C87E33
330
EF7C85532
100
AcDbEntity
  8
NITEN
100
AcDbLine
 10
64.5929447848805
 20
85.86640593711699
 30
0.0
 11
65.60141005897219
 21
85.59618848132929
 31
0.0
  0
LINE
  5
EF7C87E34
330
EF7C85532
100
AcDbEntity
  8
NITEN
100
AcDbLine
 10
68.51113920463092
 20
85.09618848132928
 30
0.0
 11
66.10141005897219
 21
85.09618848132928
 31
0.0
  0
ARC
  5
EF7C87E35
330
EF7C85532
100
AcDbEntity
  8
NITEN
100
AcDbCircle
 10
67.52174943481037
 20
84.79618848132934
 30
0.0
 40
1.0
100
AcDbArc
 50
2.491906368979701
 51
17.45760312372037
  0
LINE
  5
EF7C87E36
330
EF7C85532
100
AcDbEntity
  8
NITEN
100
AcDbLine
 10
81.04262502096245
 20
93.90618848132929
 30
0.0
 11
79.80875002096254
 21
91.60618848132932
 31
0.0
  0
LINE
  5
EF7C87E37
330
EF7C85532
100
AcDbEntity
  8
JISSEN
100
AcDbLine
 10
79.87750002096245
 20
93.80618848132938
 30
0.0
 11
79.60000002096254
 21
93.80618848132938
 31
0.0
  0
LINE
  5
EF7C87E38
330
EF7C85532
100
AcDbEntity
  8
JISSEN
100
AcDbLine
 10
79.60000002096254
 20
91.80618848132937
 30
0.0
 11
79.60000002096254
 21
93.80618848132938
 31
0.0
  0
LINE
  5
EF7C87E39
330
EF7C85532
100
AcDbEntity
  8
JISSEN
100
AcDbLine
 10
79.10000002096253
 20
91.80618848132937
 30
0.0
 11
79.10000002096253
 21
93.80618848132938
 31
0.0
  0
LINE
  5
EF7C87E3A
330
EF7C85532
100
AcDbEntity
  8
JISSEN
100
AcDbLine
 10
79.60000002096254
 20
93.80618848132938
 30
0.0
 11
79.10000002096253
 21
93.80618848132938
 31
0.0
  0
ARC
  5
EF7C87E3B
330
EF7C85532
100
AcDbEntity
  8
JISSEN
100
AcDbCircle
 10
79.10000002096253
 20
91.80618848132937
 30
0.0
 40
0.5
100
AcDbArc
 50
270.0
 51
0.0
  0
LINE
  5
EF7C87E3C
330
EF7C85532
100
AcDbEntity
  8
NITEN
100
AcDbLine
 10
79.00000002096252
 20
91.30618848132932
 30
0.0
 11
79.00000002096252
 21
90.78890963711454
 31
0.0
  0
LINE
  5
EF7C87E3D
330
EF7C85532
100
AcDbEntity
  8
NITEN
100
AcDbLine
 10
80.24603780470309
 20
105.5993975610274
 30
0.0
 11
81.40805069332547
 21
105.5998099969438
 31
0.0
  0
LINE
  5
EF7C87E3E
330
EF7C85532
100
AcDbEntity
  8
NITEN
100
AcDbLine
 10
81.27727249370687
 20
106.5992656538802
 30
0.0
 11
80.24603780470309
 21
105.5993975610274
 31
0.0
  0
ARC
  5
EF7C87E43
330
EF7C85532
100
AcDbEntity
  8
NITEN
100
AcDbCircle
 10
90.50000002096252
 20
191.5355845371153
 30
0.0
 40
26.5
100
AcDbArc
 50
137.1622331922179
 51
222.837766807782
  0
ARC
  5
EF7C87E44
330
EF7C85532
100
AcDbEntity
  8
NITEN
100
AcDbCircle
 10
71.76167031951905
 20
172.7972548356718
 30
0.0
 40
1.0
100
AcDbArc
 50
316.0811165961095
 51
133.9188834038898
  0
ARC
  5
EF7C87E45
330
EF7C85532
100
AcDbEntity
  8
NITEN
100
AcDbCircle
 10
71.76167031951905
 20
172.7972548356718
 30
0.0
 40
1.0
100
AcDbArc
 50
316.0811165961095
 51
133.9188834038898
  0
ARC
  5
EF7C87E46
330
EF7C85532
100
AcDbEntity
  8
NITEN
100
AcDbCircle
 10
71.76167031951905
 20
210.2739142385588
 30
0.0
 40
1.0
100
AcDbArc
 50
226.0811165961101
 51
43.91888340389041
  0
ARC
  5
EF7C87E47
330
EF7C85532
100
AcDbEntity
  8
NITEN
100
AcDbCircle
 10
71.76167031951905
 20
210.2739142385588
 30
0.0
 40
1.0
100
AcDbArc
 50
226.0811165961101
 51
43.91888340389041
  0
ARC
  5
EF7C87E48
330
EF7C85532
100
AcDbEntity
  8
NITEN
100
AcDbCircle
 10
71.76167031951905
 20
210.2739142385588
 30
0.0
 40
1.0
100
AcDbArc
 50
226.0811165961101
 51
43.91888340389045
  0
LINE
  5
EF7C87E4F
330
EF7C85532
100
AcDbEntity
  8
SUNPOU
100
AcDbLine
 10
121.5087725228893
 20
62.06283554250851
 30
0.0
 11
154.4678757020748
 21
62.06283554250851
 31
0.0
1001
ACAD
1000
DSTYLE
1002
{
1070
     7
1000

1070
     6
1000

1070
     5
1000
ARROW
1002
}
  0
TEXT
  5
EF7C87E50
330
EF7C85532
100
AcDbEntity
  8
TEXT
100
AcDbText
 10
127.0179613924265
 20
62.59501892665392
 30
0.0
 40
3.0
  1
フォームヘッド
  7
K
 72
     4
 11
139.1179613924265
 21
64.09501892665392
 31
0.0
100
AcDbText
  0
LINE
  5
EF7C87E52
330
EF7C85532
100
AcDbEntity
  8
SUNPOU
100
AcDbLine
 10
111.1307279767833
 20
74.80666540796303
 30
0.0
 11
121.5087725228893
 21
62.06283554250848
 31
0.0
1001
ACAD
1000
DSTYLE
1002
{
1070
     7
1000

1070
     6
1000

1070
     5
1000
ARROW
1002
}
  0
LINE
  5
EF7C87E55
330
EF7C85532
100
AcDbEntity
  8
JISSEN
100
AcDbLine
 10
140.5000000209625
 20
91.80618848132937
 30
0.0
 11
101.9000000209624
 21
91.80618848132937
 31
0.0
  0
LINE
  5
EF7C87E57
330
EF7C85532
100
AcDbEntity
  8
NITEN
100
AcDbLine
 10
101.2006250209624
 20
91.30618848132932
 30
0.0
 11
100.7539622372219
 21
105.5993975610274
 31
0.0
  0
LINE
  5
EF7C87E58
330
EF7C85532
100
AcDbEntity
  8
NITEN
100
AcDbLine
 10
99.56050002096246
 20
106.6061884813293
 30
0.0
 11
99.95737502096247
 21
93.90618848132929
 31
0.0
  0
ARC
  5
EF7C87E5A
330
EF7C85532
100
AcDbEntity
  8
NITEN
 48
0.5
100
AcDbCircle
 39
1.0
 10
101.7366854753124
 20
78.94618848132933
 30
0.0
 40
8.839999999999999
100
AcDbArc
 50
270.0
 51
328.6330817417897
  0
LINE
  5
EF7C87E5B
330
EF7C85532
100
AcDbEntity
  8
NITEN
100
AcDbLine
 10
102.0000000209625
 20
90.78890963711454
 30
0.0
 11
115.0506759004533
 21
89.64712344630781
 31
0.0
  0
LINE
  5
EF7C87E5C
330
EF7C85532
100
AcDbEntity
  8
NITEN
100
AcDbLine
 10
99.95737502096247
 20
93.90618848132929
 30
0.0
 11
101.1912500209624
 21
91.60618848132932
 31
0.0
  0
LINE
  5
EF7C87E5D
330
EF7C85532
100
AcDbEntity
  8
JISSEN
100
AcDbLine
 10
101.4000000209624
 20
91.80618848132935
 30
0.0
 11
101.4000000209623
 21
93.80618848132938
 31
0.0
  0
LINE
  5
EF7C87E5E
330
EF7C85532
100
AcDbEntity
  8
JISSEN
100
AcDbLine
 10
101.9000000209624
 20
93.80618848132938
 30
0.0
 11
101.4000000209624
 21
93.80618848132938
 31
0.0
  0
LINE
  5
EF7C87E5F
330
EF7C85532
100
AcDbEntity
  8
JISSEN
100
AcDbLine
 10
101.9000000209624
 20
91.80618848132937
 30
0.0
 11
101.9000000209623
 21
93.80618848132938
 31
0.0
  0
LINE
  5
EF7C87E60
330
EF7C85532
100
AcDbEntity
  8
JISSEN
100
AcDbLine
 10
101.4000000209624
 20
93.80618848132938
 30
0.0
 11
101.1225000209624
 21
93.80618848132936
 31
0.0
  0
ARC
  5
EF7C87E61
330
EF7C85532
100
AcDbEntity
  8
JISSEN
100
AcDbCircle
 10
101.9000000209624
 20
91.80618848132935
 30
0.0
 40
0.5
100
AcDbArc
 50
180.0000000000016
 51
270.0
  0
LINE
  5
EF7C87E62
330
EF7C85532
100
AcDbEntity
  8
NITEN
100
AcDbLine
 10
102.0000000209625
 20
91.30618848132932
 30
0.0
 11
102.0000000209625
 21
90.78890963711454
 31
0.0
  0
ARC
  5
EF7C87E63
330
EF7C85532
100
AcDbEntity
  8
NITEN
 48
0.5
100
AcDbCircle
 39
1.0
 10
90.50000002096252
 20
85.79618848132934
 30
0.0
 40
22.0
100
AcDbArc
 50
328.6330817417896
 51
358.176644721932
  0
INSERT
  5
EF7C87E64
330
EF7C85532
100
AcDbEntity
  8
SUNPOU
100
AcDbBlockReference
  2
ARROW
 10
110.1835376472819
 20
75.96977781856622
 30
0.0
 41
1.5
 42
1.5
 43
1.5
 50
129.1579372472336
1001
ACAD
1000
DSTYLE
1002
{
1070
     7
1000

1070
     6
1000

1070
     5
1000
ARROW
1002
}
  0
LINE
  5
EF7C87E65
330
EF7C85532
100
AcDbEntity
  8
JISSEN
100
AcDbLine
 10
105.909739821898
 20
91.80618848132937
 30
0.0
 11
110.0229927056878
 21
91.80618848132937
 31
0.0
  0
ARC
  5
EF7C87E66
330
EF7C85532
100
AcDbEntity
  8
NITEN
100
AcDbCircle
 10
114.8985899829528
 20
85.59618848132929
 30
0.0
 40
0.5
100
AcDbArc
 50
270.0
 51
0.0
  0
ARC
  5
EF7C87E67
330
EF7C85532
100
AcDbEntity
  8
NITEN
100
AcDbCircle
 10
115.0000000209625
 20
87.64391733619079
 30
0.0
 40
2.0
100
AcDbArc
 50
0.0
 51
85.00000000000021
  0
LINE
  5
EF7C87E68
330
EF7C85532
100
AcDbEntity
  8
NITEN
100
AcDbLine
 10
112.488860837294
 20
85.09618848132928
 30
0.0
 11
114.8985899829528
 21
85.09618848132928
 31
0.0
  0
ARC
  5
EF7C87E69
330
EF7C85532
100
AcDbEntity
  8
NITEN
100
AcDbCircle
 10
113.4782506071145
 20
84.79618848132934
 30
0.0
 40
1.0
100
AcDbArc
 50
162.5423968762796
 51
177.5080936310202
  0
ARC
  5
EF7C87E6A
330
EF7C85532
100
AcDbEntity
  8
NITEN
100
AcDbCircle
 10
116.2000000209624
 20
86.63914659814826
 30
0.0
 40
0.8
100
AcDbArc
 50
284.9999999999996
 51
0.0
  0
ARC
  5
EF7C87E6B
330
EF7C85532
100
AcDbEntity
  8
NITEN
100
AcDbCircle
 10
116.2000000209624
 20
86.63914659814826
 30
0.0
 40
0.8
100
AcDbArc
 50
284.9999999999996
 51
0.0
  0
LINE
  5
EF7C87E6C
330
EF7C85532
100
AcDbEntity
  8
NITEN
100
AcDbLine
 10
117.0000000209625
 20
87.79751315758385
 30
0.0
 11
117.0000000209625
 21
86.63914659814826
 31
0.0
  0
LINE
  5
EF7C87E6D
330
EF7C85532
100
AcDbEntity
  8
NITEN
100
AcDbLine
 10
117.0000000209625
 20
87.64391733619079
 30
0.0
 11
117.0000000209625
 21
86.63914659814826
 31
0.0
  0
LINE
  5
EF7C87E6E
330
EF7C85532
100
AcDbEntity
  8
NITEN
100
AcDbLine
 10
116.4070552570445
 20
85.86640593711699
 30
0.0
 11
115.3985899829528
 21
85.59618848132929
 31
0.0
  0
LINE
  5
EF7C87E6F
330
EF7C85532
100
AcDbEntity
  8
NITEN
100
AcDbLine
 10
99.72272754821815
 20
106.5992656538802
 30
0.0
 11
100.7539622372219
 21
105.5993975610274
 31
0.0
  0
LINE
  5
EF7C87E70
330
EF7C85532
100
AcDbEntity
  8
NITEN
100
AcDbLine
 10
100.7539622372219
 20
105.5993975610274
 30
0.0
 11
99.59194934859958
 21
105.5998099969438
 31
0.0
  0
LINE
  5
EF7C87E77
330
EF7C85532
100
AcDbEntity
  8
JISSEN
100
AcDbLine
 10
140.5000000209625
 20
91.30618848132938
 30
0.0
 11
140.5000000209625
 21
91.80618848132937
 31
0.0
  0
LINE
  5
EF7C87E79
330
EF7C85532
100
AcDbEntity
  8
HOJYO
100
AcDbLine
 10
16.30435734383786
 20
39.99999974241248
 30
0.0
 11
0.0
 21
39.99999974241248
 31
0.0
  0
LINE
  5
EF7C87E7A
330
EF7C85532
100
AcDbEntity
  8
HOJYO
100
AcDbLine
 10
16.30435734383786
 20
34.99999974241248
 30
0.0
 11
0.0
 21
34.99999974241248
 31
0.0
  0
LINE
  5
EF7C87E7B
330
EF7C85532
100
AcDbEntity
  8
HOJYO
100
AcDbLine
 10
16.30435734383786
 20
29.99999974241248
 30
0.0
 11
0.0
 21
29.99999974241248
 31
0.0
  0
LINE
  5
EF7C87E7C
330
EF7C85532
100
AcDbEntity
  8
HOJYO
100
AcDbLine
 10
16.30435734383786
 20
24.99999974241248
 30
0.0
 11
0.0
 21
24.99999974241248
 31
0.0
  0
LINE
  5
EF7C87E7D
330
EF7C85532
100
AcDbEntity
  8
HOJYO
100
AcDbLine
 10
16.30435734383786
 20
19.99999974241248
 30
0.0
 11
0.0
 21
19.99999974241248
 31
0.0
  0
LINE
  5
EF7C87E7E
330
EF7C85532
100
AcDbEntity
  8
HOJYO
100
AcDbLine
 10
16.30435734383786
 20
14.99999974241254
 30
0.0
 11
0.0
 21
14.99999974241254
 31
0.0
  0
LINE
  5
EF7C87E7F
330
EF7C85532
100
AcDbEntity
  8
HOJYO
100
AcDbLine
 10
16.30435734383786
 20
9.999999742412455
 30
0.0
 11
0.0
 21
9.999999742412455
 31
0.0
  0
LINE
  5
EF7C87E80
330
EF7C85532
100
AcDbEntity
  8
HOJYO
100
AcDbLine
 10
16.30435734383786
 20
4.999999742412541
 30
0.0
 11
0.0
 21
4.999999742412512
 31
0.0
  0
LINE
  5
EF7C87E81
330
EF7C85532
100
AcDbEntity
  8
HOJYO
100
AcDbLine
 10
16.30435734383786
 20
44.99999974241254
 30
0.0
 11
0.0
 21
44.99999974241254
 31
0.0
  0
ARC
  5
EF7C87E83
330
EF7C85532
100
AcDbEntity
  8
NITEN
100
AcDbCircle
 10
90.50000002096252
 20
191.5355845371153
 30
0.0
 40
26.5
100
AcDbArc
 50
317.1622331922179
 51
42.83776680778205
  0
ARC
  5
EF7C87E85
330
EF7C85532
100
AcDbEntity
  8
NITEN
100
AcDbCircle
 10
109.238329722406
 20
172.7972548356718
 30
0.0
 40
1.0
100
AcDbArc
 50
46.08111659611015
 51
223.9188834038904
  0
ARC
  5
EF7C87E86
330
EF7C85532
100
AcDbEntity
  8
NITEN
100
AcDbCircle
 10
109.238329722406
 20
172.7972548356718
 30
0.0
 40
1.0
100
AcDbArc
 50
46.08111659610897
 51
223.9188834038904
  0
ARC
  5
EF7C87E87
330
EF7C85532
100
AcDbEntity
  8
NITEN
100
AcDbCircle
 10
109.2383297224061
 20
210.2739142385588
 30
0.0
 40
1.0
100
AcDbArc
 50
136.0811165961095
 51
313.9188834038898
  0
ARC
  5
EF7C87E88
330
EF7C85532
100
AcDbEntity
  8
NITEN
100
AcDbCircle
 10
109.2383297224061
 20
210.2739142385588
 30
0.0
 40
1.0
100
AcDbArc
 50
136.0811165961095
 51
313.9188834038898
  0
LINE
  5
EF7C87E8A
330
EF7C85532
100
AcDbEntity
  8
HOJYO
100
AcDbLine
 10
49.46170226996838
 20
-0.0000002575875158
 30
0.0
 11
49.46170226996838
 21
44.99999974241251
 31
0.0
  0
LINE
  5
EF7C87E8B
330
EF7C85532
100
AcDbEntity
  8
HOJYO
100
AcDbLine
 10
49.46170226996838
 20
39.99999974241243
 30
0.0
 11
16.30435734383786
 21
39.99999974241243
 31
0.0
  0
LINE
  5
EF7C87E8C
330
EF7C85532
100
AcDbEntity
  8
HOJYO
100
AcDbLine
 10
49.46170226996838
 20
34.99999974241243
 30
0.0
 11
16.30435734383786
 21
34.99999974241243
 31
0.0
  0
LINE
  5
EF7C87E8D
330
EF7C85532
100
AcDbEntity
  8
HOJYO
100
AcDbLine
 10
49.46170226996838
 20
29.99999974241248
 30
0.0
 11
16.30435734383786
 21
29.99999974241243
 31
0.0
  0
LINE
  5
EF7C87E8E
330
EF7C85532
100
AcDbEntity
  8
HOJYO
100
AcDbLine
 10
49.46170226996838
 20
24.99999974241243
 30
0.0
 11
16.30435734383786
 21
24.99999974241243
 31
0.0
  0
LINE
  5
EF7C87E8F
330
EF7C85532
100
AcDbEntity
  8
HOJYO
100
AcDbLine
 10
49.46170226996838
 20
19.99999974241248
 30
0.0
 11
16.30435734383786
 21
19.99999974241242
 31
0.0
  0
LINE
  5
EF7C87E90
330
EF7C85532
100
AcDbEntity
  8
HOJYO
100
AcDbLine
 10
49.46170226996838
 20
14.99999974241251
 30
0.0
 11
16.30435734383786
 21
14.99999974241251
 31
0.0
  0
LINE
  5
EF7C87E91
330
EF7C85532
100
AcDbEntity
  8
HOJYO
100
AcDbLine
 10
49.46170226996838
 20
9.999999742412484
 30
0.0
 11
16.30435734383786
 21
9.999999742412427
 31
0.0
  0
LINE
  5
EF7C87E92
330
EF7C85532
100
AcDbEntity
  8
HOJYO
100
AcDbLine
 10
49.46170226996838
 20
44.99999974241254
 30
0.0
 11
16.30435734383786
 21
44.99999974241254
 31
0.0
  0
LINE
  5
EF7C87E93
330
EF7C85532
100
AcDbEntity
  8
HOJYO
100
AcDbLine
 10
49.46170226996838
 20
4.999999742412484
 30
0.0
 11
16.30435734383786
 21
4.999999742412512
 31
0.0
  0
LINE
  5
EF7C87E94
330
EF7C85532
100
AcDbEntity
  8
HOJYO
100
AcDbLine
 10
16.30435734383786
 20
-0.0000002575875158
 30
0.0
 11
16.30435734383786
 21
44.99999974241248
 31
0.0
  0
LINE
  5
EF7C87E95
330
EF7C85532
100
AcDbEntity
  8
HOJYO
100
AcDbLine
 10
16.30435734383786
 20
-0.0000002575875442
 30
0.0
 11
16.30435734383786
 21
44.99999974241243
 31
0.0
  0
ENDSEC
  0
SECTION
  2
OBJECTS
  0
DICTIONARY
  5
EF7C85527
330
0
100
AcDbDictionary
  3
ACAD_GROUP
350
EF7C85528
  3
ACAD_LAYOUT
350
EF7C85BB7
  3
ACAD_MLINESTYLE
350
EF7C85535
  3
ACAD_PLOTSETTINGS
350
EF7C85BB8
  3
ACAD_PLOTSTYLENAME
350
EF7C85BB5
  3
ACDBHEADERROUNDTRIPXREC
350
EF7C87F19
  3
ACDBVARIABLEDICTIONARY
350
EF7C85DB7
  0
DICTIONARY
  5
EF7C85D9A
330
EF7C85532
100
AcDbDictionary
280
     1
  3
ACAD_LAYOUTSELFREF
360
EF7C87F3B
  0
DICTIONARY
  5
EF7C85D98
330
EF7C8552F
100
AcDbDictionary
280
     1
  3
ACAD_LAYOUTSELFREF
360
EF7C87F3A
  0
DICTIONARY
  5
EF7C85528
102
{ACAD_REACTORS
330
EF7C85527
102
}
330
EF7C85527
100
AcDbDictionary
  0
DICTIONARY
  5
EF7C85BB7
102
{ACAD_REACTORS
330
EF7C85527
102
}
330
EF7C85527
100
AcDbDictionary
  0
DICTIONARY
  5
EF7C85535
102
{ACAD_REACTORS
330
EF7C85527
102
}
330
EF7C85527
100
AcDbDictionary
  3
STANDARD
350
EF7C85536
  0
DICTIONARY
  5
EF7C85BB8
102
{ACAD_REACTORS
330
EF7C85527
102
}
330
EF7C85527
100
AcDbDictionary
  0
ACDBDICTIONARYWDFLT
  5
EF7C85BB5
102
{ACAD_REACTORS
330
EF7C85527
102
}
330
EF7C85527
100
AcDbDictionary
281
     1
  3
Normal
350
EF7C85BB6
100
AcDbDictionaryWithDefault
340
EF7C85BB6
  0
DICTIONARY
  5
EF7C87F19
102
{ACAD_REACTORS
330
EF7C85527
102
}
330
EF7C85527
100
AcDbDictionary
  3
CEPSNTYPE
350
EF7C87F23
  3
DIMSTYLEDATA
350
EF7C87F27
  3
FINGERPRINTGUID
350
EF7C87F24
  3
HYPERLINKBASE
350
EF7C87F1C
  3
INSUNITS
350
EF7C87F22
  3
LAYOUTDICT
350
EF7C87F1E
  3
LWETCUNION
350
EF7C87F21
  3
PLOTSETDICT
350
EF7C87F1F
  3
PLOTSTYLNAMDICT
350
EF7C87F20
  3
PSVPSCALE
350
EF7C87F26
  3
PUCSBASE
350
EF7C87F2A
  3
PUCSORGBACK
350
EF7C87F30
  3
PUCSORGBOTTOM
350
EF7C87F2C
  3
PUCSORGFRONT
350
EF7C87F2F
  3
PUCSORGLEFT
350
EF7C87F2D
  3
PUCSORGRIGHT
350
EF7C87F2E
  3
PUCSORGTOP
350
EF7C87F2B
  3
PUCSORTHOREF
350
EF7C87F28
  3
PUCSORTHOVIEW
350
EF7C87F29
  3
STYLESHEET
350
EF7C87F1D
  3
TSTACKALIGN
350
EF7C87F1A
  3
TSTACKSIZE
350
EF7C87F1B
  3
UCSBASE
350
EF7C87F33
  3
UCSORGBACK
350
EF7C87F39
  3
UCSORGBOTTOM
350
EF7C87F35
  3
UCSORGFRONT
350
EF7C87F38
  3
UCSORGLEFT
350
EF7C87F36
  3
UCSORGRIGHT
350
EF7C87F37
  3
UCSORGTOP
350
EF7C87F34
  3
UCSORTHOREF
350
EF7C87F31
  3
UCSORTHOVIEW
350
EF7C87F32
  3
VERSIONGUID
350
EF7C87F25
  0
DICTIONARY
  5
EF7C85DB7
102
{ACAD_REACTORS
330
EF7C85527
102
}
330
EF7C85527
100
AcDbDictionary
  3
DIMASSOC
350
EF7C87F17
  3
SORTENTS
350
EF7C85DB8
  0
XRECORD
  5
EF7C87F3B
102
{ACAD_REACTORS
330
EF7C85D9A
102
}
330
EF7C85D9A
100
AcDbXrecord
340
EF7C85532
  0
XRECORD
  5
EF7C87F3A
102
{ACAD_REACTORS
330
EF7C85D98
102
}
330
EF7C85D98
100
AcDbXrecord
340
EF7C8552F
  0
MLINESTYLE
  5
EF7C85536
102
{ACAD_REACTORS
330
EF7C85535
102
}
330
EF7C85535
100
AcDbMlineStyle
  2
STANDARD
 70
     0
  3

 62
   256
 51
90.0
 52
90.0
 71
     2
 49
0.5
 62
   256
  6
BYLAYER
 49
-0.5
 62
   256
  6
BYLAYER
  0
ACDBPLACEHOLDER
  5
EF7C85BB6
102
{ACAD_REACTORS
330
EF7C85BB5
102
}
330
EF7C85BB5
100
AcDbPlaceHolder
280
     0
  0
XRECORD
  5
EF7C87F23
102
{ACAD_REACTORS
330
EF7C87F19
102
}
330
EF7C87F19
100
AcDbXrecord
 90
        0
  0
XRECORD
  5
EF7C87F27
102
{ACAD_REACTORS
330
EF7C87F19
102
}
330
EF7C87F19
100
AcDbXrecord
1000
DSTYLE
1002
{
1070
   279
 70
     2
1070
   341
340
EF7C85537
1070
   342
340
EF7C85537
1070
   343
340
EF7C85543
1070
   344
340
EF7C85543
1002
}
  0
XRECORD
  5
EF7C87F24
102
{ACAD_REACTORS
330
EF7C87F19
102
}
330
EF7C87F19
100
AcDbXrecord
  1
{09AA4C7A-3D6F-4857-A850-771461888CEC}
  0
XRECORD
  5
EF7C87F1C
102
{ACAD_REACTORS
330
EF7C87F19
102
}
330
EF7C87F19
100
AcDbXrecord
  1

  0
XRECORD
  5
EF7C87F22
102
{ACAD_REACTORS
330
EF7C87F19
102
}
330
EF7C87F19
100
AcDbXrecord
 90
        0
  0
XRECORD
  5
EF7C87F1E
102
{ACAD_REACTORS
330
EF7C87F19
102
}
330
EF7C87F19
100
AcDbXrecord
340
EF7C85BB7
  0
XRECORD
  5
EF7C87F21
102
{ACAD_REACTORS
330
EF7C87F19
102
}
330
EF7C87F19
100
AcDbXrecord
 90
    14877
  0
XRECORD
  5
EF7C87F1F
102
{ACAD_REACTORS
330
EF7C87F19
102
}
330
EF7C87F19
100
AcDbXrecord
340
EF7C85BB8
  0
XRECORD
  5
EF7C87F20
102
{ACAD_REACTORS
330
EF7C87F19
102
}
330
EF7C87F19
100
AcDbXrecord
340
EF7C85BB5
  0
XRECORD
  5
EF7C87F26
102
{ACAD_REACTORS
330
EF7C87F19
102
}
330
EF7C87F19
100
AcDbXrecord
 40
0.0
  0
XRECORD
  5
EF7C87F2A
102
{ACAD_REACTORS
330
EF7C87F19
102
}
330
EF7C87F19
100
AcDbXrecord
340
0
  0
XRECORD
  5
EF7C87F30
102
{ACAD_REACTORS
330
EF7C87F19
102
}
330
EF7C87F19
100
AcDbXrecord
 10
0.0
 20
0.0
 30
0.0
  0
XRECORD
  5
EF7C87F2C
102
{ACAD_REACTORS
330
EF7C87F19
102
}
330
EF7C87F19
100
AcDbXrecord
 10
0.0
 20
0.0
 30
0.0
  0
XRECORD
  5
EF7C87F2F
102
{ACAD_REACTORS
330
EF7C87F19
102
}
330
EF7C87F19
100
AcDbXrecord
 10
0.0
 20
0.0
 30
0.0
  0
XRECORD
  5
EF7C87F2D
102
{ACAD_REACTORS
330
EF7C87F19
102
}
330
EF7C87F19
100
AcDbXrecord
 10
0.0
 20
0.0
 30
0.0
  0
XRECORD
  5
EF7C87F2E
102
{ACAD_REACTORS
330
EF7C87F19
102
}
330
EF7C87F19
100
AcDbXrecord
 10
0.0
 20
0.0
 30
0.0
  0
XRECORD
  5
EF7C87F2B
102
{ACAD_REACTORS
330
EF7C87F19
102
}
330
EF7C87F19
100
AcDbXrecord
 10
0.0
 20
0.0
 30
0.0
  0
XRECORD
  5
EF7C87F28
102
{ACAD_REACTORS
330
EF7C87F19
102
}
330
EF7C87F19
100
AcDbXrecord
340
0
  0
XRECORD
  5
EF7C87F29
102
{ACAD_REACTORS
330
EF7C87F19
102
}
330
EF7C87F19
100
AcDbXrecord
 70
     0
  0
XRECORD
  5
EF7C87F1D
102
{ACAD_REACTORS
330
EF7C87F19
102
}
330
EF7C87F19
100
AcDbXrecord
  1

  0
XRECORD
  5
EF7C87F1A
102
{ACAD_REACTORS
330
EF7C87F19
102
}
330
EF7C87F19
100
AcDbXrecord
 90
        1
  0
XRECORD
  5
EF7C87F1B
102
{ACAD_REACTORS
330
EF7C87F19
102
}
330
EF7C87F19
100
AcDbXrecord
 90
       70
  0
XRECORD
  5
EF7C87F33
102
{ACAD_REACTORS
330
EF7C87F19
102
}
330
EF7C87F19
100
AcDbXrecord
340
0
  0
XRECORD
  5
EF7C87F39
102
{ACAD_REACTORS
330
EF7C87F19
102
}
330
EF7C87F19
100
AcDbXrecord
 10
0.0
 20
0.0
 30
0.0
  0
XRECORD
  5
EF7C87F35
102
{ACAD_REACTORS
330
EF7C87F19
102
}
330
EF7C87F19
100
AcDbXrecord
 10
0.0
 20
0.0
 30
0.0
  0
XRECORD
  5
EF7C87F38
102
{ACAD_REACTORS
330
EF7C87F19
102
}
330
EF7C87F19
100
AcDbXrecord
 10
0.0
 20
0.0
 30
0.0
  0
XRECORD
  5
EF7C87F36
102
{ACAD_REACTORS
330
EF7C87F19
102
}
330
EF7C87F19
100
AcDbXrecord
 10
0.0
 20
0.0
 30
0.0
  0
XRECORD
  5
EF7C87F37
102
{ACAD_REACTORS
330
EF7C87F19
102
}
330
EF7C87F19
100
AcDbXrecord
 10
0.0
 20
0.0
 30
0.0
  0
XRECORD
  5
EF7C87F34
102
{ACAD_REACTORS
330
EF7C87F19
102
}
330
EF7C87F19
100
AcDbXrecord
 10
0.0
 20
0.0
 30
0.0
  0
XRECORD
  5
EF7C87F31
102
{ACAD_REACTORS
330
EF7C87F19
102
}
330
EF7C87F19
100
AcDbXrecord
340
0
  0
XRECORD
  5
EF7C87F32
102
{ACAD_REACTORS
330
EF7C87F19
102
}
330
EF7C87F19
100
AcDbXrecord
 70
     0
  0
XRECORD
  5
EF7C87F25
102
{ACAD_REACTORS
330
EF7C87F19
102
}
330
EF7C87F19
100
AcDbXrecord
  1
{4AA14306-7E4D-4553-95D7-BE4ECB2FE889}
  0
DICTIONARYVAR
  5
EF7C87F17
102
{ACAD_REACTORS
330
EF7C85DB7
102
}
330
EF7C85DB7
100
DictionaryVariables
280
     0
  1
0
  0
DICTIONARYVAR
  5
EF7C85DB8
102
{ACAD_REACTORS
330
EF7C85DB7
102
}
330
EF7C85DB7
100
DictionaryVariables
280
     0
  1
96
  0
ENDSEC
  0
EOF
