  0
SECTION
  2
HEADER
  9
$ACADVER
  1
AC1014
  9
$ACADMAINTVER
 70
     9
  9
$DWGCODEPAGE
  3
ANSI_932
  9
$INSBASE
 10
0.0
 20
0.0
 30
0.0
  9
$EXTMIN
 10
0.0
 20
0.0
 30
0.0
  9
$EXTMAX
 10
542.9999979999999
 20
409.4999999999999
 30
0.0
  9
$LIMMIN
 10
0.0
 20
0.0
  9
$LIMMAX
 10
271.4999989999999
 20
409.4999999999999
  9
$ORTHOMODE
 70
     1
  9
$REGENMODE
 70
     1
  9
$FILLMODE
 70
     1
  9
$QTEXTMODE
 70
     0
  9
$MIRRTEXT
 70
     0
  9
$DRAGMODE
 70
     2
  9
$LTSCALE
 40
5.0
  9
$OSMODE
 70
   167
  9
$ATTMODE
 70
     1
  9
$TEXTSIZE
 40
0.2
  9
$TRACEWID
 40
0.05
  9
$TEXTSTYLE
  7
STANDARD
  9
$CLAYER
  8
JISSEN
  9
$CELTYPE
  6
BYLAYER
  9
$CECOLOR
 62
   256
  9
$CELTSCALE
 40
1.0
  9
$DELOBJ
 70
     1
  9
$DISPSILH
 70
     0
  9
$DIMSCALE
 40
1.5
  9
$DIMASZ
 40
2.0
  9
$DIMEXO
 40
0.75
  9
$DIMDLI
 40
6.0
  9
$DIMRND
 40
0.0
  9
$DIMDLE
 40
0.0
  9
$DIMEXE
 40
1.0
  9
$DIMTP
 40
495.0
  9
$DIMTM
 40
0.0
  9
$DIMTXT
 40
3.0
  9
$DIMCEN
 40
0.0
  9
$DIMTSZ
 40
0.0
  9
$DIMTOL
 70
     0
  9
$DIMLIM
 70
     0
  9
$DIMTIH
 70
     0
  9
$DIMTOH
 70
     0
  9
$DIMSE1
 70
     0
  9
$DIMSE2
 70
     0
  9
$DIMTAD
 70
     3
  9
$DIMZIN
 70
     8
  9
$DIMBLK
  1
ARROWANG
  9
$DIMASO
 70
     0
  9
$DIMSHO
 70
     0
  9
$DIMPOST
  1

  9
$DIMAPOST
  1

  9
$DIMALT
 70
     0
  9
$DIMALTD
 70
     2
  9
$DIMALTF
 40
25.4
  9
$DIMLFAC
 40
1.0
  9
$DIMTOFL
 70
     1
  9
$DIMTVP
 40
0.0
  9
$DIMTIX
 70
     1
  9
$DIMSOXD
 70
     0
  9
$DIMSAH
 70
     1
  9
$DIMBLK1
  1
ARROWANG
  9
$DIMBLK2
  1
ARROWANG
  9
$DIMSTYLE
  2
IMAO
  9
$DIMCLRD
 70
   256
  9
$DIMCLRE
 70
   256
  9
$DIMCLRT
 70
   256
  9
$DIMTFAC
 40
1.0
  9
$DIMGAP
 40
1.0
  9
$DIMJUST
 70
     0
  9
$DIMSD1
 70
     0
  9
$DIMSD2
 70
     0
  9
$DIMTOLJ
 70
     1
  9
$DIMTZIN
 70
     0
  9
$DIMALTZ
 70
     0
  9
$DIMALTTZ
 70
     0
  9
$DIMFIT
 70
     3
  9
$DIMUPT
 70
     0
  9
$DIMUNIT
 70
     2
  9
$DIMDEC
 70
     2
  9
$DIMTDEC
 70
     2
  9
$DIMALTU
 70
     2
  9
$DIMALTTD
 70
     2
  9
$DIMTXSTY
  7
K
  9
$DIMAUNIT
 70
     0
  9
$LUNITS
 70
     2
  9
$LUPREC
 70
     2
  9
$SKETCHINC
 40
0.1
  9
$FILLETRAD
 40
2.0
  9
$AUNITS
 70
     0
  9
$AUPREC
 70
     2
  9
$MENU
  1
STDR12J
  9
$ELEVATION
 40
0.0
  9
$PELEVATION
 40
0.0
  9
$THICKNESS
 40
0.0
  9
$LIMCHECK
 70
     0
  9
$BLIPMODE
 70
     0
  9
$CHAMFERA
 40
0.0
  9
$CHAMFERB
 40
0.0
  9
$CHAMFERC
 40
0.0
  9
$CHAMFERD
 40
0.0
  9
$SKPOLY
 70
     0
  9
$TDCREATE
 40
2450694.750535185
  9
$TDUPDATE
 40
2453833.465661481
  9
$TDINDWG
 40
0.2921383449
  9
$TDUSRTIMER
 40
0.2921383449
  9
$USRTIMER
 70
     1
  9
$ANGBASE
 50
0.0
  9
$ANGDIR
 70
     0
  9
$PDMODE
 70
     0
  9
$PDSIZE
 40
0.0
  9
$PLINEWID
 40
0.0
  9
$COORDS
 70
     2
  9
$SPLFRAME
 70
     0
  9
$SPLINETYPE
 70
     6
  9
$SPLINESEGS
 70
     8
  9
$ATTDIA
 70
     0
  9
$ATTREQ
 70
     1
  9
$HANDLING
 70
 22529
  9
$HANDSEED
  5
318356C9
  9
$SURFTAB1
 70
     6
  9
$SURFTAB2
 70
     6
  9
$SURFTYPE
 70
     6
  9
$SURFU
 70
     6
  9
$SURFV
 70
     6
  9
$UCSNAME
  2

  9
$UCSORG
 10
0.0
 20
0.0
 30
0.0
  9
$UCSXDIR
 10
1.0
 20
0.0
 30
0.0
  9
$UCSYDIR
 10
0.0
 20
1.0
 30
0.0
  9
$PUCSNAME
  2

  9
$PUCSORG
 10
0.0
 20
0.0
 30
0.0
  9
$PUCSXDIR
 10
1.0
 20
0.0
 30
0.0
  9
$PUCSYDIR
 10
0.0
 20
1.0
 30
0.0
  9
$USERI1
 70
     4
  9
$USERI2
 70
     1
  9
$USERI3
 70
     1
  9
$USERI4
 70
     1
  9
$USERI5
 70
     1
  9
$USERR1
 40
1.0
  9
$USERR2
 40
3.0
  9
$USERR3
 40
3.0
  9
$USERR4
 40
1.5
  9
$USERR5
 40
10.0
  9
$WORLDVIEW
 70
     1
  9
$SHADEDGE
 70
     3
  9
$SHADEDIF
 70
    70
  9
$TILEMODE
 70
     1
  9
$MAXACTVP
 70
    16
  9
$PINSBASE
 10
0.0
 20
0.0
 30
0.0
  9
$PLIMCHECK
 70
     0
  9
$PEXTMIN
 10
1.000000000000000E+20
 20
1.000000000000000E+20
 30
1.000000000000000E+20
  9
$PEXTMAX
 10
-1.000000000000000E+20
 20
-1.000000000000000E+20
 30
-1.000000000000000E+20
  9
$PLIMMIN
 10
0.0
 20
0.0
  9
$PLIMMAX
 10
12.0
 20
9.0
  9
$UNITMODE
 70
     0
  9
$VISRETAIN
 70
     0
  9
$PLINEGEN
 70
     0
  9
$PSLTSCALE
 70
     0
  9
$TREEDEPTH
 70
     0
  9
$PICKSTYLE
 70
     1
  9
$CMLSTYLE
  2
STANDARD
  9
$CMLJUST
 70
     0
  9
$CMLSCALE
 40
1.0
  9
$PROXYGRAPHICS
 70
     1
  9
$MEASUREMENT
 70
     0
  0
ENDSEC
  0
SECTION
  2
CLASSES
  0
CLASS
  1
LWPOLYLINE
  2
AcDbPolyline
  3
AutoCAD 2000
 90
        0
280
     0
281
     1
  0
CLASS
  1
XRECORD
  2
AcDbXrecord
  3
AutoCAD 2000
 90
        0
280
     0
281
     0
  0
CLASS
  1
HATCH
  2
AcDbHatch
  3
AutoCAD 2000
 90
        0
280
     0
281
     1
  0
CLASS
  1
ACDBDICTIONARYWDFLT
  2
AcDbDictionaryWithDefault
  3
AutoCAD 2000
 90
        0
280
     0
281
     0
  0
CLASS
  1
ACDBPLACEHOLDER
  2
AcDbPlaceHolder
  3
AutoCAD 2000
 90
        0
280
     0
281
     0
  0
CLASS
  1
LAYOUT
  2
AcDbLayout
  3
AutoCAD 2000
 90
        0
280
     0
281
     0
  0
CLASS
  1
LONG_TRANSACTION
  2
AcDbLongTransaction
  3
AutoCAD 2000
 90
        0
280
     0
281
     0
  0
CLASS
  1
LWPOLYLINE
  2
AcDbPolyline
  3
AutoCAD 2000
 90
        0
280
     0
281
     1
  0
CLASS
  1
HATCH
  2
AcDbHatch
  3
AutoCAD 2000
 90
        0
280
     0
281
     1
  0
CLASS
  1
XRECORD
  2
AcDbXrecord
  3
AutoCAD 2000
 90
        0
280
     0
281
     0
  0
CLASS
  1
DICTIONARYVAR
  2
AcDbDictionaryVar
  3
AutoCAD 2000
 90
        0
280
     0
281
     0
  0
CLASS
  1
LONG_TRANSACTION
  2
AcDbLongTransaction
  3
AutoCAD 2000
 90
        0
280
     0
281
     0
  0
CLASS
  1
LWPOLYLINE
  2
AcDbPolyline
  3
AutoCAD 2000
 90
        0
280
     0
281
     1
  0
CLASS
  1
HATCH
  2
AcDbHatch
  3
AutoCAD 2000
 90
        0
280
     0
281
     1
  0
CLASS
  1
XRECORD
  2
AcDbXrecord
  3
AutoCAD 2000
 90
        0
280
     0
281
     0
  0
CLASS
  1
LONG_TRANSACTION
  2
AcDbLongTransaction
  3
AutoCAD 2000
 90
        0
280
     0
281
     0
  0
CLASS
  1
LWPOLYLINE
  2
AcDbPolyline
  3
AutoCAD 2000
 90
        0
280
     0
281
     1
  0
CLASS
  1
HATCH
  2
AcDbHatch
  3
AutoCAD 2000
 90
        0
280
     0
281
     1
  0
CLASS
  1
XRECORD
  2
AcDbXrecord
  3
AutoCAD 2000
 90
        0
280
     0
281
     0
  0
CLASS
  1
LONG_TRANSACTION
  2
AcDbLongTransaction
  3
AutoCAD 2000
 90
        0
280
     0
281
     0
  0
CLASS
  1
LWPOLYLINE
  2
AcDbPolyline
  3
AutoCAD 2000
 90
        0
280
     0
281
     1
  0
CLASS
  1
HATCH
  2
AcDbHatch
  3
AutoCAD 2000
 90
        0
280
     0
281
     1
  0
CLASS
  1
XRECORD
  2
AcDbXrecord
  3
AutoCAD 2000
 90
        0
280
     0
281
     0
  0
CLASS
  1
LONG_TRANSACTION
  2
AcDbLongTransaction
  3
AutoCAD 2000
 90
        0
280
     0
281
     0
  0
CLASS
  1
LWPOLYLINE
  2
AcDbPolyline
  3
AutoCAD 2000
 90
        0
280
     0
281
     1
  0
CLASS
  1
HATCH
  2
AcDbHatch
  3
AutoCAD 2000
 90
        0
280
     0
281
     1
  0
CLASS
  1
XRECORD
  2
AcDbXrecord
  3
AutoCAD 2000
 90
        0
280
     0
281
     0
  0
ENDSEC
  0
SECTION
  2
TABLES
  0
TABLE
  2
VPORT
  5
3183249F
330
0
100
AcDbSymbolTable
 70
    10
  0
VPORT
  5
318324C3
330
3183249F
100
AcDbSymbolTableRecord
100
AcDbViewportTableRecord
  2
2
 70
     0
 10
0.5
 20
0.0
 11
1.0
 21
1.0
 12
0.9240309999999999
 22
1.052651
 13
0.0
 23
0.0
 14
1.0
 24
1.0
 15
10.0
 25
10.0
 16
0.0
 26
0.0
 36
1.0
 17
0.0
 27
0.0
 37
0.0
 40
2.105302
 41
0.877814
 42
50.0
 43
0.0
 44
0.0
 50
0.0
 51
0.0
 71
     0
 72
   500
 73
     1
 74
     1
 75
     0
 76
     0
 77
     0
 78
     0
  0
VPORT
  5
318324C4
330
3183249F
100
AcDbSymbolTableRecord
100
AcDbViewportTableRecord
  2
2
 70
     0
 10
0.0
 20
0.0
 11
0.5
 21
1.0
 12
0.9240309999999999
 22
1.052651
 13
0.0
 23
0.0
 14
1.0
 24
1.0
 15
10.0
 25
10.0
 16
0.0
 26
0.0
 36
1.0
 17
0.0
 27
0.0
 37
0.0
 40
2.105302
 41
0.877814
 42
50.0
 43
0.0
 44
0.0
 50
0.0
 51
0.0
 71
     0
 72
   500
 73
     1
 74
     1
 75
     0
 76
     0
 77
     0
 78
     0
  0
VPORT
  5
318324C5
330
3183249F
100
AcDbSymbolTableRecord
100
AcDbViewportTableRecord
  2
3
 70
     0
 10
0.0
 20
0.5
 11
1.0
 21
1.0
 12
2.832169999999999
 22
1.052651
 13
0.0
 23
0.0
 14
1.0
 24
1.0
 15
10.0
 25
10.0
 16
0.0
 26
0.0
 36
1.0
 17
0.0
 27
0.0
 37
0.0
 40
2.105302
 41
3.571429
 42
50.0
 43
0.0
 44
0.0
 50
0.0
 51
0.0
 71
     0
 72
   500
 73
     1
 74
     1
 75
     0
 76
     0
 77
     0
 78
     0
  0
VPORT
  5
318324C6
330
3183249F
100
AcDbSymbolTableRecord
100
AcDbViewportTableRecord
  2
3
 70
     0
 10
0.0
 20
0.0
 11
1.0
 21
0.5
 12
2.856741999999999
 22
1.052651
 13
0.0
 23
0.0
 14
1.0
 24
1.0
 15
10.0
 25
10.0
 16
0.0
 26
0.0
 36
1.0
 17
0.0
 27
0.0
 37
0.0
 40
2.105302
 41
3.594770999999999
 42
50.0
 43
0.0
 44
0.0
 50
0.0
 51
0.0
 71
     0
 72
   500
 73
     1
 74
     1
 75
     0
 76
     0
 77
     0
 78
     0
  0
VPORT
  5
318324C7
330
3183249F
100
AcDbSymbolTableRecord
100
AcDbViewportTableRecord
  2
4
 70
     0
 10
0.5
 20
0.0
 11
1.0
 21
0.5
 12
2.886858
 22
1.052651
 13
0.0
 23
0.0
 14
1.0
 24
1.0
 15
10.0
 25
10.0
 16
0.0
 26
0.0
 36
1.0
 17
0.0
 27
0.0
 37
0.0
 40
4.275206999999999
 41
1.784314
 42
50.0
 43
0.0
 44
0.0
 50
0.0
 51
0.0
 71
     0
 72
   500
 73
     1
 74
     1
 75
     0
 76
     0
 77
     0
 78
     0
  0
VPORT
  5
318324C8
330
3183249F
100
AcDbSymbolTableRecord
100
AcDbViewportTableRecord
  2
4
 70
     0
 10
0.5
 20
0.5
 11
1.0
 21
1.0
 12
2.86209
 22
1.052651
 13
0.0
 23
0.0
 14
1.0
 24
1.0
 15
10.0
 25
10.0
 16
0.0
 26
0.0
 36
1.0
 17
0.0
 27
0.0
 37
0.0
 40
4.275206999999999
 41
1.772726999999999
 42
50.0
 43
0.0
 44
0.0
 50
0.0
 51
0.0
 71
     0
 72
   500
 73
     1
 74
     1
 75
     0
 76
     0
 77
     0
 78
     0
  0
VPORT
  5
318324C9
330
3183249F
100
AcDbSymbolTableRecord
100
AcDbViewportTableRecord
  2
4
 70
     0
 10
0.0
 20
0.5
 11
0.5
 21
1.0
 12
2.86209
 22
1.052651
 13
0.0
 23
0.0
 14
1.0
 24
1.0
 15
10.0
 25
10.0
 16
0.0
 26
0.0
 36
1.0
 17
0.0
 27
0.0
 37
0.0
 40
4.275206999999999
 41
1.772726999999999
 42
50.0
 43
0.0
 44
0.0
 50
0.0
 51
0.0
 71
     0
 72
   500
 73
     1
 74
     1
 75
     0
 76
     0
 77
     0
 78
     0
  0
VPORT
  5
318324CA
330
3183249F
100
AcDbSymbolTableRecord
100
AcDbViewportTableRecord
  2
4
 70
     0
 10
0.0
 20
0.0
 11
0.5
 21
0.5
 12
2.886858
 22
1.052651
 13
0.0
 23
0.0
 14
1.0
 24
1.0
 15
10.0
 25
10.0
 16
0.0
 26
0.0
 36
1.0
 17
0.0
 27
0.0
 37
0.0
 40
4.275206999999999
 41
1.784314
 42
50.0
 43
0.0
 44
0.0
 50
0.0
 51
0.0
 71
     0
 72
   500
 73
     1
 74
     1
 75
     0
 76
     0
 77
     0
 78
     0
  0
VPORT
  5
318356A5
330
3183249F
100
AcDbSymbolTableRecord
100
AcDbViewportTableRecord
  2
*ACTIVE
 70
     0
 10
0.0
 20
0.0
 11
1.0
 21
1.0
 12
341.5828624273153
 22
204.7500009534415
 13
0.0
 23
0.0
 14
1.0
 24
1.0
 15
10.0
 25
10.0
 16
0.0
 26
0.0
 36
1.0
 17
0.0
 27
0.0
 37
0.0
 40
412.2940506940855
 41
1.764444444444444
 42
50.0
 43
0.0
 44
0.0
 50
0.0
 51
0.0
 71
     0
 72
   500
 73
     1
 74
     0
 75
     0
 76
     0
 77
     0
 78
     0
  0
ENDTAB
  0
TABLE
  2
LTYPE
  5
3183249C
330
0
100
AcDbSymbolTable
 70
     3
  0
LTYPE
  5
318324A9
330
3183249C
100
AcDbSymbolTableRecord
100
AcDbLinetypeTableRecord
  2
BYBLOCK
 70
     0
  3

 72
    65
 73
     0
 40
0.0
  0
LTYPE
  5
318324AA
330
3183249C
100
AcDbSymbolTableRecord
100
AcDbLinetypeTableRecord
  2
BYLAYER
 70
     0
  3

 72
    65
 73
     0
 40
0.0
  0
LTYPE
  5
318324AB
330
3183249C
100
AcDbSymbolTableRecord
100
AcDbLinetypeTableRecord
  2
CONTINUOUS
 70
     0
  3
実線
 72
    65
 73
     0
 40
0.0
  0
LTYPE
  5
318324C1
330
3183249C
100
AcDbSymbolTableRecord
100
AcDbLinetypeTableRecord
  2
PHANTOM
 70
     0
  3
_____ _ _ _____ _ _ _____ _ _ _____ _ _ ____
 72
    65
 73
     6
 40
2.5
 49
1.25
 74
     0
 49
-0.25
 74
     0
 49
0.25
 74
     0
 49
-0.25
 74
     0
 49
0.25
 74
     0
 49
-0.25
 74
     0
  0
LTYPE
  5
318324C2
330
3183249C
100
AcDbSymbolTableRecord
100
AcDbLinetypeTableRecord
  2
HIDDEN
 70
     0
  3
_ _ _ _ _ _ _ _ _ _ _ _ _ _ _ _ _ _ _ _ _ _ _
 72
    65
 73
     2
 40
0.375
 49
0.25
 74
     0
 49
-0.125
 74
     0
  0
ENDTAB
  0
TABLE
  2
LAYER
  5
31832499
102
{ACAD_XDICTIONARY
360
31834B04
102
}
330
0
100
AcDbSymbolTable
 70
    11
  0
LAYER
  5
318324A6
330
31832499
100
AcDbSymbolTableRecord
100
AcDbLayerTableRecord
  2
0
 70
     0
 62
     7
  6
CONTINUOUS
  0
LAYER
  5
318324D0
330
31832499
100
AcDbSymbolTableRecord
100
AcDbLayerTableRecord
  2
NITEN
 70
     0
 62
     2
  6
PHANTOM
  0
LAYER
  5
318324D1
330
31832499
100
AcDbSymbolTableRecord
100
AcDbLayerTableRecord
  2
HATCH
 70
     0
 62
     4
  6
CONTINUOUS
  0
LAYER
  5
318324D2
330
31832499
100
AcDbSymbolTableRecord
100
AcDbLayerTableRecord
  2
SUNPOU
 70
     0
 62
     3
  6
CONTINUOUS
  0
LAYER
  5
318324D5
330
31832499
100
AcDbSymbolTableRecord
100
AcDbLayerTableRecord
  2
JISSEN
 70
     0
 62
     7
  6
CONTINUOUS
  0
LAYER
  5
318324D7
330
31832499
100
AcDbSymbolTableRecord
100
AcDbLayerTableRecord
  2
TENSEN
 70
     0
 62
     2
  6
HIDDEN
  0
LAYER
  5
318324D9
330
31832499
100
AcDbSymbolTableRecord
100
AcDbLayerTableRecord
  2
WAKU
 70
     0
 62
     5
  6
CONTINUOUS
  0
LAYER
  5
31832940
330
31832499
100
AcDbSymbolTableRecord
100
AcDbLayerTableRecord
  2
1
 70
     0
 62
     6
  6
CONTINUOUS
  0
LAYER
  5
31832D8A
330
31832499
100
AcDbSymbolTableRecord
100
AcDbLayerTableRecord
  2
DEFPOINTS
 70
     0
 62
     7
  6
CONTINUOUS
  0
LAYER
  5
31833E6E
330
31832499
100
AcDbSymbolTableRecord
100
AcDbLayerTableRecord
  2
CORE
 70
     0
 62
     7
  6
CONTINUOUS
  0
LAYER
  5
318353D8
330
31832499
100
AcDbSymbolTableRecord
100
AcDbLayerTableRecord
  2
SAISEN
 70
     0
 62
     4
  6
CONTINUOUS
  0
ENDTAB
  0
TABLE
  2
STYLE
  5
3183249A
330
0
100
AcDbSymbolTable
 70
     5
  0
STYLE
  5
318324A7
330
3183249A
100
AcDbSymbolTableRecord
100
AcDbTextStyleTableRecord
  2
STANDARD
 70
     0
 40
0.0
 41
1.0
 50
0.0
 71
     0
 42
0.2
  3
ROMANS.shx
  4
bigfont.shx
  0
STYLE
  5
318324BE
330
3183249A
100
AcDbSymbolTableRecord
100
AcDbTextStyleTableRecord
  2
K
 70
     0
 40
0.0
 41
1.0
 50
0.0
 71
     0
 42
3.0
  3
ROMANS
  4
EXTFONT
  0
STYLE
  5
31832694
330
3183249A
100
AcDbSymbolTableRecord
100
AcDbTextStyleTableRecord
  2
ROMANS
 70
     0
 40
0.0
 41
0.8
 50
0.0
 71
     0
 42
55.0
  3
romans
  4

  0
STYLE
  5
31832D8D
330
3183249A
100
AcDbSymbolTableRecord
100
AcDbTextStyleTableRecord
  2
ｺ_ｼｯｸ
 70
     0
 40
0.0
 41
1.0
 50
0.0
 71
     0
 42
4.5
  3
HGRSMP.TTF
  4

1001
ACAD
1000
HGMaruGothicMPRO
1071
    32817
  0
STYLE
  5
31833E6F
330
3183249A
100
AcDbSymbolTableRecord
100
AcDbTextStyleTableRecord
  2
35FONT
 70
     0
 40
3.5
 41
0.75
 50
15.0
 71
     0
 42
3.5
  3
SIMPLEX.shx
  4
BIGFONT.shx
  0
ENDTAB
  0
TABLE
  2
VIEW
  5
3183249D
330
0
100
AcDbSymbolTable
 70
     0
  0
ENDTAB
  0
TABLE
  2
UCS
  5
3183249E
330
0
100
AcDbSymbolTable
 70
     0
  0
ENDTAB
  0
TABLE
  2
APPID
  5
318324A0
330
0
100
AcDbSymbolTable
 70
     2
  0
APPID
  5
318324A8
330
318324A0
100
AcDbSymbolTableRecord
100
AcDbRegAppTableRecord
  2
ACAD
 70
     0
  0
APPID
  5
31832D8F
330
318324A0
100
AcDbSymbolTableRecord
100
AcDbRegAppTableRecord
  2
CONTENTBLOCKICON
 70
     0
  0
ENDTAB
  0
TABLE
  2
DIMSTYLE
  5
318324A1
330
0
100
AcDbSymbolTable
 70
     1
  0
DIMSTYLE
105
318324CD
330
318324A1
100
AcDbSymbolTableRecord
100
AcDbDimStyleTableRecord
  2
IMAO
 70
     0
  3

  4

  5
ARROWANG
  6
ARROWANG
  7
ARROWANG
 40
1.0
 41
1.5
 42
0.75
 43
6.0
 44
1.0
 45
0.0
 46
0.0
 47
495.0
 48
0.0
140
3.0
141
0.0
142
0.0
143
25.4
144
1.0
145
0.0
146
1.0
147
1.0
 71
     0
 72
     0
 73
     0
 74
     0
 75
     0
 76
     0
 77
     3
 78
     8
170
     0
171
     2
172
     1
173
     1
174
     1
175
     0
176
   256
177
   256
178
   256
270
     2
271
     2
272
     2
273
     2
274
     2
340
318324BE
275
     0
280
     0
281
     0
282
     0
283
     1
284
     0
285
     0
286
     0
287
     3
288
     0
  0
ENDTAB
  0
TABLE
  2
BLOCK_RECORD
  5
31832498
330
0
100
AcDbSymbolTable
 70
     1
  0
BLOCK_RECORD
  5
318324AF
102
{ACAD_XDICTIONARY
360
31834A86
102
}
330
31832498
100
AcDbSymbolTableRecord
100
AcDbBlockTableRecord
  2
*MODEL_SPACE
  0
BLOCK_RECORD
  5
318324AC
102
{ACAD_XDICTIONARY
360
31834A84
102
}
330
31832498
100
AcDbSymbolTableRecord
100
AcDbBlockTableRecord
  2
*PAPER_SPACE
  0
BLOCK_RECORD
  5
318324B9
330
31832498
100
AcDbSymbolTableRecord
100
AcDbBlockTableRecord
  2
ARROWANG
  0
ENDTAB
  0
ENDSEC
  0
SECTION
  2
BLOCKS
  0
BLOCK
  5
318324DE
330
318324AF
100
AcDbEntity
  8
0
100
AcDbBlockBegin
  2
*MODEL_SPACE
 70
     0
 10
0.0
 20
0.0
 30
0.0
  3
*MODEL_SPACE
  1

  0
ENDBLK
  5
318324DF
330
318324AF
100
AcDbEntity
  8
0
100
AcDbBlockEnd
  0
BLOCK
  5
318324DC
330
318324AC
100
AcDbEntity
 67
     1
  8
0
100
AcDbBlockBegin
  2
*PAPER_SPACE
 70
     0
 10
0.0
 20
0.0
 30
0.0
  3
*PAPER_SPACE
  1

  0
ENDBLK
  5
318324DD
330
318324AC
100
AcDbEntity
 67
     1
  8
0
100
AcDbBlockEnd
  0
BLOCK
  5
1D
330
318324B9
100
AcDbEntity
  8
0
100
AcDbBlockBegin
  2
ARROWANG
 70
     0
 10
0.0
 20
0.0
 30
0.0
  3
ARROWANG
  1

  0
LINE
  5
1E
330
318324B9
100
AcDbEntity
  8
SUNPOU
100
AcDbLine
 10
0.0
 20
0.0
 30
0.0
 11
-1.5
 21
0.401924
 31
0.0
  0
LINE
  5
1F
330
318324B9
100
AcDbEntity
  8
SUNPOU
100
AcDbLine
 10
0.0
 20
0.0
 30
0.0
 11
-1.5
 21
-0.401924
 31
0.0
  0
ENDBLK
  5
20
330
318324B9
100
AcDbEntity
  8
0
100
AcDbBlockEnd
  0
ENDSEC
  0
SECTION
  2
ENTITIES
  0
LWPOLYLINE
  5
31832938
330
318324AF
100
AcDbEntity
  8
WAKU
100
AcDbPolyline
 90
        4
 70
     1
 43
0.0
 10
0.0
 20
0.0
 10
271.4999989999999
 20
0.0
 10
271.4999989999999
 20
409.4999999999999
 10
0.0
 20
409.4999999999999
  0
TEXT
  5
3183293F
330
318324AF
100
AcDbEntity
  8
1
100
AcDbText
 10
261.05801
 20
8.204419999999998
 30
0.0
 40
7.5
  1

 41
0.8
  7
ROMANS
 72
     4
 11
261.05801
 21
8.204419999999998
 31
0.0
100
AcDbText
  0
LINE
  5
3183315A
330
318324AF
100
AcDbEntity
  8
JISSEN
100
AcDbLine
 10
135.5776209999999
 20
310.110974
 30
0.0
 11
68.59140699999999
 21
310.110974
 31
0.0
  0
LINE
  5
3183315C
330
318324AF
100
AcDbEntity
  8
JISSEN
100
AcDbLine
 10
68.59140699999999
 20
307.110974
 30
0.0
 11
135.2280839999999
 21
307.110974
 31
0.0
  0
LINE
  5
3183315E
330
318324AF
100
AcDbEntity
  8
JISSEN
100
AcDbLine
 10
141.9097449999999
 20
352.1109739999999
 30
0.0
 11
100.2488489999999
 21
352.1109739999999
 31
0.0
  0
LINE
  5
3183325D
330
318324AF
100
AcDbEntity
  8
JISSEN
100
AcDbLine
 10
73.570642
 20
352.1109739999999
 30
0.0
 11
61.90974499999999
 21
352.1109739999999
 31
0.0
  0
LINE
  5
318332C8
330
318324AF
100
AcDbEntity
  8
JISSEN
100
AcDbLine
 10
96.942959
 20
338.1211149999999
 30
0.0
 11
99.264041
 21
351.284623
 31
0.0
  0
LINE
  5
318332C9
330
318324AF
100
AcDbEntity
  8
JISSEN
100
AcDbLine
 10
102.4560289999999
 20
352.1109739999999
 30
0.0
 11
100.175959
 21
339.180056
 31
0.0
  0
ARC
  5
318332CA
330
318324AF
100
AcDbEntity
  8
JISSEN
100
AcDbCircle
 10
106.084806
 20
338.138167
 30
0.0
 40
6.0
100
AcDbArc
 50
170.0
 51
197.4492139999999
  0
ARC
  5
318332CB
330
318324AF
100
AcDbEntity
  8
JISSEN
100
AcDbCircle
 10
99.89738299999999
 20
337.6001699999999
 30
0.0
 40
3.0
100
AcDbArc
 50
170.0
 51
202.911241
  0
ARC
  5
318332CD
330
318324AF
100
AcDbEntity
  8
JISSEN
100
AcDbCircle
 10
86.90974500000001
 20
332.110974
 30
0.0
 40
14.1
100
AcDbArc
 50
162.550786
 51
17.449214
  0
ARC
  5
318332CE
330
318324AF
100
AcDbEntity
  8
JISSEN
100
AcDbCircle
 10
86.90974500000001
 20
332.110974
 30
0.0
 40
11.1
100
AcDbArc
 50
157.088759
 51
22.911241
  0
ARC
  5
318332CF
330
318324AF
100
AcDbEntity
  8
JISSEN
100
AcDbCircle
 10
67.73468499999999
 20
338.138167
 30
0.0
 40
6.0
100
AcDbArc
 50
342.5507859999999
 51
10.0
  0
ARC
  5
318332D0
330
318324AF
100
AcDbEntity
  8
JISSEN
100
AcDbCircle
 10
73.92210799999999
 20
337.6001699999999
 30
0.0
 40
3.0
100
AcDbArc
 50
337.0887589999999
 51
10.0
  0
LINE
  5
318332D1
330
318324AF
100
AcDbEntity
  8
JISSEN
100
AcDbLine
 10
76.876531
 20
338.1211149999999
 30
0.0
 11
74.55544899999999
 21
351.284623
 31
0.0
  0
LINE
  5
318332D2
330
318324AF
100
AcDbEntity
  8
JISSEN
100
AcDbLine
 10
71.363461
 20
352.1109739999999
 30
0.0
 11
73.64353100000001
 21
339.180056
 31
0.0
  0
ARC
  5
318332DA
330
318324AF
100
AcDbEntity
  8
JISSEN
100
AcDbCircle
 10
100.2488489999999
 20
351.110974
 30
0.0
 40
1.0
100
AcDbArc
 50
90.0
 51
170.0
  0
ARC
  5
318332DB
330
318324AF
100
AcDbEntity
  8
JISSEN
100
AcDbCircle
 10
73.570642
 20
351.110974
 30
0.0
 40
1.0
100
AcDbArc
 50
10.0
 51
90.0
  0
CIRCLE
  5
31833CEA
330
318324AF
100
AcDbEntity
  8
TENSEN
100
AcDbCircle
 10
86.90974500000001
 20
332.110974
 30
0.0
 40
10.84999999999999
  0
LINE
  5
31834144
330
318324AF
100
AcDbEntity
  8
JISSEN
100
AcDbLine
 10
141.9097449999999
 20
352.1109739999999
 30
0.0
 11
141.2271699999999
 21
313.00626
 31
0.0
  0
ARC
  5
31834145
330
318324AF
100
AcDbEntity
  8
JISSEN
100
AcDbCircle
 10
135.2280839999999
 20
313.1109739999999
 30
0.0
 40
6.0
100
AcDbArc
 50
270.0
 51
359.0
  0
ARC
  5
31834149
330
318324AF
100
AcDbEntity
  8
JISSEN
100
AcDbCircle
 10
135.2280839999999
 20
313.1109739999999
 30
0.0
 40
3.0
100
AcDbArc
 50
270.0
 51
359.0
  0
LINE
  5
3183414A
330
318324AF
100
AcDbEntity
  8
JISSEN
100
AcDbLine
 10
138.9102019999999
 20
352.1633319999999
 30
0.0
 11
138.9092879999999
 21
352.1109739999999
 31
0.0
  0
LINE
  5
3183414B
330
318324AF
100
AcDbEntity
  8
JISSEN
100
AcDbLine
 10
138.560187
 20
332.110974
 30
0.0
 11
138.227627
 21
313.0586169999999
 31
0.0
  0
LINE
  5
31834155
330
318324AF
100
AcDbEntity
  8
JISSEN
100
AcDbLine
 10
65.259303
 20
332.110974
 30
0.0
 11
65.591864
 21
313.0586169999999
 31
0.0
  0
LINE
  5
31834156
330
318324AF
100
AcDbEntity
  8
JISSEN
100
AcDbLine
 10
64.909288
 20
352.1633319999999
 30
0.0
 11
64.910202
 21
352.1109739999999
 31
0.0
  0
ARC
  5
31834157
330
318324AF
100
AcDbEntity
  8
JISSEN
100
AcDbCircle
 10
68.59140699999999
 20
313.1109739999999
 30
0.0
 40
3.0
100
AcDbArc
 50
181.0
 51
270.0
  0
ARC
  5
31834158
330
318324AF
100
AcDbEntity
  8
JISSEN
100
AcDbCircle
 10
68.59140699999999
 20
313.1109739999999
 30
0.0
 40
6.0
100
AcDbArc
 50
181.0
 51
270.0
  0
LINE
  5
31834159
330
318324AF
100
AcDbEntity
  8
JISSEN
100
AcDbLine
 10
61.90974499999999
 20
352.1109739999999
 30
0.0
 11
62.59231999999999
 21
313.00626
 31
0.0
  0
ELLIPSE
  5
3183479D
330
318324AF
100
AcDbEntity
  8
TENSEN
 48
3.0
100
AcDbEllipse
 10
81.48474499999998
 20
262.110974
 30
0.0
 11
5.424999999999998
 21
-0.0000000000000007
 31
0.0
210
0.0
220
0.0
230
1.0
 40
0.3686639999999999
 41
0.0
 42
3.141592653589792
  0
ELLIPSE
  5
3183479E
330
318324AF
100
AcDbEntity
  8
TENSEN
 48
3.0
100
AcDbEllipse
 10
92.33474499999999
 20
262.110974
 30
0.0
 11
5.424999999999998
 21
-0.0000000000000007
 31
0.0
210
0.0
220
0.0
230
1.0
 40
0.3686639999999999
 41
0.0
 42
6.283185307179585
  0
LINE
  5
3183479F
330
318324AF
100
AcDbEntity
  8
TENSEN
 48
3.0
100
AcDbLine
 10
97.759745
 20
247.610974
 30
0.0
 11
97.759745
 21
262.110974
 31
0.0
  0
LINE
  5
318347A0
330
318324AF
100
AcDbEntity
  8
TENSEN
 48
3.0
100
AcDbLine
 10
76.05974499999999
 20
247.610974
 30
0.0
 11
76.05974499999999
 21
262.110974
 31
0.0
  0
ELLIPSE
  5
318347A2
330
318324AF
100
AcDbEntity
  8
TENSEN
 48
3.0
100
AcDbEllipse
 10
92.33474499999999
 20
90.110974
 30
0.0
 11
-5.424999999999998
 21
0.0
 31
0.0
210
0.0
220
0.0
230
1.0
 40
0.3686639999999999
 41
0.0
 42
3.141592653589792
  0
ELLIPSE
  5
318347A3
330
318324AF
100
AcDbEntity
  8
TENSEN
 48
3.0
100
AcDbEllipse
 10
81.48474499999998
 20
90.110974
 30
0.0
 11
-5.424999999999998
 21
0.0
 31
0.0
210
0.0
220
0.0
230
1.0
 40
0.3686639999999999
 41
0.0
 42
6.283185307179585
  0
LINE
  5
318347A4
330
318324AF
100
AcDbEntity
  8
TENSEN
 48
3.0
100
AcDbLine
 10
76.05974499999999
 20
105.6109739999999
 30
0.0
 11
76.05974499999999
 21
90.110974
 31
0.0
  0
LINE
  5
318347A5
330
318324AF
100
AcDbEntity
  8
TENSEN
 48
3.0
100
AcDbLine
 10
97.759745
 20
105.6109739999999
 30
0.0
 11
97.759745
 21
90.110974
 31
0.0
  0
ELLIPSE
  5
318347C0
330
318324AF
100
AcDbEntity
  8
TENSEN
 48
3.0
100
AcDbEllipse
 10
211.1161309999999
 20
262.110974
 30
0.0
 11
5.424999999999998
 21
-0.0000000000000007
 31
0.0
210
0.0
220
0.0
230
1.0
 40
0.3686639999999999
 41
0.0
 42
3.141592653589792
  0
ELLIPSE
  5
318347C2
330
318324AF
100
AcDbEntity
  8
TENSEN
 48
3.0
100
AcDbEllipse
 10
221.966131
 20
262.110974
 30
0.0
 11
5.424999999999998
 21
-0.0000000000000007
 31
0.0
210
0.0
220
0.0
230
1.0
 40
0.3686639999999999
 41
0.0
 42
6.283185307179585
  0
LINE
  5
318347C3
330
318324AF
100
AcDbEntity
  8
TENSEN
 48
3.0
100
AcDbLine
 10
205.691131
 20
262.110974
 30
0.0
 11
205.691131
 21
243.4609739999999
 31
0.0
  0
ELLIPSE
  5
318347C4
330
318324AF
100
AcDbEntity
  8
TENSEN
 48
3.0
100
AcDbEllipse
 10
211.1161309999999
 20
90.110974
 30
0.0
 11
-5.424999999999998
 21
0.0
 31
0.0
210
0.0
220
0.0
230
1.0
 40
0.3686639999999999
 41
0.0
 42
6.283185307179585
  0
LINE
  5
318347C5
330
318324AF
100
AcDbEntity
  8
TENSEN
 48
3.0
100
AcDbLine
 10
227.3911309999999
 20
262.110974
 30
0.0
 11
227.391131
 21
241.610974
 31
0.0
  0
ELLIPSE
  5
318347C6
330
318324AF
100
AcDbEntity
  8
TENSEN
 48
3.0
100
AcDbEllipse
 10
221.966131
 20
90.110974
 30
0.0
 11
-5.424999999999998
 21
0.0
 31
0.0
210
0.0
220
0.0
230
1.0
 40
0.3686639999999999
 41
0.0
 42
3.141592653589792
  0
LINE
  5
318347D6
330
318324AF
100
AcDbEntity
  8
JISSEN
100
AcDbLine
 10
133.4097449999999
 20
128.610974
 30
0.0
 11
69.409745
 21
128.610974
 31
0.0
  0
LINE
  5
318347D7
330
318324AF
100
AcDbEntity
  8
JISSEN
100
AcDbLine
 10
135.4097449999999
 20
115.6109739999999
 30
0.0
 11
135.4097449999999
 21
126.610974
 31
0.0
  0
LINE
  5
318347D8
330
318324AF
100
AcDbEntity
  8
JISSEN
100
AcDbLine
 10
69.409745
 20
113.6109739999999
 30
0.0
 11
133.4097449999999
 21
113.6109739999999
 31
0.0
  0
ARC
  5
318347D9
330
318324AF
100
AcDbEntity
  8
JISSEN
100
AcDbCircle
 10
133.4097449999999
 20
115.6109739999999
 30
0.0
 40
2.0
100
AcDbArc
 50
270.0
 51
0.0
  0
ARC
  5
318347DA
330
318324AF
100
AcDbEntity
  8
JISSEN
100
AcDbCircle
 10
133.4097449999999
 20
126.610974
 30
0.0
 40
2.0
100
AcDbArc
 50
0.0
 51
90.0
  0
ARC
  5
318347DB
330
318324AF
100
AcDbEntity
  8
JISSEN
100
AcDbCircle
 10
69.409745
 20
126.610974
 30
0.0
 40
2.0
100
AcDbArc
 50
90.0
 51
180.0
  0
LINE
  5
318347DC
330
318324AF
100
AcDbEntity
  8
JISSEN
100
AcDbLine
 10
67.409745
 20
115.6109739999999
 30
0.0
 11
67.409745
 21
126.610974
 31
0.0
  0
ARC
  5
318347DD
330
318324AF
100
AcDbEntity
  8
JISSEN
100
AcDbCircle
 10
69.409745
 20
115.6109739999999
 30
0.0
 40
2.0
100
AcDbArc
 50
180.0
 51
270.0
  0
LINE
  5
318347DE
330
318324AF
100
AcDbEntity
  8
JISSEN
100
AcDbLine
 10
123.789064
 20
123.002932
 30
0.0
 11
123.820126
 21
122.587912
 31
0.0
  0
ARC
  5
318347DF
330
318324AF
100
AcDbEntity
  8
JISSEN
100
AcDbCircle
 10
127.7260459999999
 20
121.87776
 30
0.0
 40
4.140128999999999
100
AcDbArc
 50
194.6170769999999
 51
213.63797
  0
CIRCLE
  5
318347E0
102
{ACAD_REACTORS
330
31834936
102
}
330
318324AF
100
AcDbEntity
  8
JISSEN
100
AcDbCircle
 10
72.182924
 20
121.1094399999999
 30
0.0
 40
3.273179
  0
ARC
  5
318347E1
102
{ACAD_REACTORS
330
3183492A
102
}
330
318324AF
100
AcDbEntity
  8
JISSEN
100
AcDbCircle
 10
70.93681700000001
 20
122.920573
 30
0.0
 40
0.176929
100
AcDbArc
 50
354.193392
 51
166.0687379999999
  0
ARC
  5
318347E2
102
{ACAD_REACTORS
330
3183492A
102
}
330
318324AF
100
AcDbEntity
  8
JISSEN
100
AcDbCircle
 10
70.68907199999999
 20
119.4697129999999
 30
0.0
 40
0.176929
100
AcDbArc
 50
180.0
 51
0.0
  0
LINE
  5
318347E3
102
{ACAD_REACTORS
330
3183492A
102
}
330
318324AF
100
AcDbEntity
  8
JISSEN
100
AcDbLine
 10
70.51214300000001
 20
121.370643
 30
0.0
 11
70.51214300000001
 21
119.4502909999999
 31
0.0
  0
LINE
  5
318347E4
102
{ACAD_REACTORS
330
3183492A
102
}
330
318324AF
100
AcDbEntity
  8
JISSEN
100
AcDbLine
 10
70.866001
 20
122.036592
 30
0.0
 11
70.866001
 21
119.4502909999999
 31
0.0
  0
ARC
  5
318347E5
102
{ACAD_REACTORS
330
3183492A
102
}
330
318324AF
100
AcDbEntity
  8
JISSEN
100
AcDbCircle
 10
66.96823399999999
 20
123.615688
 30
0.0
 40
4.205487999999999
100
AcDbArc
 50
337.945739
 51
350.2387069999999
  0
ARC
  5
318347E6
102
{ACAD_REACTORS
330
3183492A
102
}
330
318324AF
100
AcDbEntity
  8
JISSEN
100
AcDbCircle
 10
70.216553
 20
121.2543429999999
 30
0.0
 40
0.176929
100
AcDbArc
 50
137.162316
 51
319.8382959999999
  0
ARC
  5
318347E7
102
{ACAD_REACTORS
330
3183492A
102
}
330
318324AF
100
AcDbEntity
  8
JISSEN
100
AcDbCircle
 10
67.15114399999999
 20
123.5672
 30
0.0
 40
3.664079
100
AcDbArc
 50
323.2451109999999
 51
350.511381
  0
ARC
  5
318347E8
102
{ACAD_REACTORS
330
3183492A
102
}
330
318324AF
100
AcDbEntity
  8
JISSEN
100
AcDbCircle
 10
67.705815
 20
123.1529749999999
 30
0.0
 40
3.324483
100
AcDbArc
 50
322.7402119999999
 51
327.5798809999999
  0
ARC
  5
318347E9
102
{ACAD_REACTORS
330
3183492A
102
}
330
318324AF
100
AcDbEntity
  8
JISSEN
100
AcDbCircle
 10
72.70480500000001
 20
122.929983
 30
0.0
 40
0.176929
100
AcDbArc
 50
0.0
 51
180.0
  0
LINE
  5
318347EA
102
{ACAD_REACTORS
330
3183492A
102
}
330
318324AF
100
AcDbEntity
  8
JISSEN
100
AcDbLine
 10
73.961974
 20
119.4502909999999
 30
0.0
 11
71.44187200000001
 21
119.4502909999999
 31
0.0
  0
LINE
  5
318347EB
102
{ACAD_REACTORS
330
3183492A
102
}
330
318324AF
100
AcDbEntity
  8
JISSEN
100
AcDbLine
 10
72.52787600000001
 20
122.110399
 30
0.0
 11
72.52787600000001
 21
121.221706
 31
0.0
  0
LINE
  5
318347EC
102
{ACAD_REACTORS
330
3183492A
102
}
330
318324AF
100
AcDbEntity
  8
JISSEN
100
AcDbLine
 10
72.52787600000001
 20
120.867849
 30
0.0
 11
72.52787600000001
 21
119.804148
 31
0.0
  0
LINE
  5
318347ED
102
{ACAD_REACTORS
330
3183492A
102
}
330
318324AF
100
AcDbEntity
  8
JISSEN
100
AcDbLine
 10
72.52787600000001
 20
122.929983
 30
0.0
 11
72.52787600000001
 21
122.464256
 31
0.0
  0
ARC
  5
318347EE
102
{ACAD_REACTORS
330
3183492A
102
}
330
318324AF
100
AcDbEntity
  8
JISSEN
100
AcDbCircle
 10
71.52062499999999
 20
122.287327
 30
0.0
 40
0.176929
100
AcDbArc
 50
90.0
 51
270.0
  0
ARC
  5
318347EF
102
{ACAD_REACTORS
330
3183492A
102
}
330
318324AF
100
AcDbEntity
  8
JISSEN
100
AcDbCircle
 10
71.56437700000001
 20
121.044777
 30
0.0
 40
0.176929
100
AcDbArc
 50
90.0
 51
270.0
  0
ARC
  5
318347F0
102
{ACAD_REACTORS
330
3183492A
102
}
330
318324AF
100
AcDbEntity
  8
JISSEN
100
AcDbCircle
 10
71.44187200000001
 20
119.6272199999999
 30
0.0
 40
0.176929
100
AcDbArc
 50
90.0
 51
270.0
  0
LINE
  5
318347F1
102
{ACAD_REACTORS
330
3183492A
102
}
330
318324AF
100
AcDbEntity
  8
JISSEN
100
AcDbLine
 10
72.52787600000001
 20
122.110399
 30
0.0
 11
71.52062499999999
 21
122.110399
 31
0.0
  0
LINE
  5
318347F2
102
{ACAD_REACTORS
330
3183492A
102
}
330
318324AF
100
AcDbEntity
  8
JISSEN
100
AcDbLine
 10
72.52787600000001
 20
120.867849
 30
0.0
 11
71.56437700000001
 21
120.867849
 31
0.0
  0
LINE
  5
318347F3
102
{ACAD_REACTORS
330
3183492A
102
}
330
318324AF
100
AcDbEntity
  8
JISSEN
100
AcDbLine
 10
71.44187200000001
 20
119.804148
 30
0.0
 11
72.52787600000001
 21
119.804148
 31
0.0
  0
LINE
  5
318347F4
102
{ACAD_REACTORS
330
3183492A
102
}
330
318324AF
100
AcDbEntity
  8
JISSEN
100
AcDbLine
 10
71.56437700000001
 20
121.221706
 30
0.0
 11
72.52787600000001
 21
121.221706
 31
0.0
  0
LINE
  5
318347F5
102
{ACAD_REACTORS
330
3183492A
102
}
330
318324AF
100
AcDbEntity
  8
JISSEN
100
AcDbLine
 10
71.52062499999999
 20
122.464256
 30
0.0
 11
72.52787600000001
 21
122.464256
 31
0.0
  0
LINE
  5
318347F6
102
{ACAD_REACTORS
330
3183492A
102
}
330
318324AF
100
AcDbEntity
  8
JISSEN
100
AcDbLine
 10
72.88173399999999
 20
122.110399
 30
0.0
 11
72.88173399999999
 21
121.221706
 31
0.0
  0
ARC
  5
318347F7
102
{ACAD_REACTORS
330
3183492A
102
}
330
318324AF
100
AcDbEntity
  8
JISSEN
100
AcDbCircle
 10
73.88321999999999
 20
122.287327
 30
0.0
 40
0.176929
100
AcDbArc
 50
270.0
 51
90.0
  0
ARC
  5
318347F8
102
{ACAD_REACTORS
330
3183492A
102
}
330
318324AF
100
AcDbEntity
  8
JISSEN
100
AcDbCircle
 10
73.961974
 20
119.6272199999999
 30
0.0
 40
0.176929
100
AcDbArc
 50
270.0
 51
90.0
  0
ARC
  5
318347F9
102
{ACAD_REACTORS
330
3183492A
102
}
330
318324AF
100
AcDbEntity
  8
JISSEN
100
AcDbCircle
 10
73.83946899999999
 20
121.044777
 30
0.0
 40
0.176929
100
AcDbArc
 50
270.0
 51
90.0
  0
LINE
  5
318347FA
102
{ACAD_REACTORS
330
3183492A
102
}
330
318324AF
100
AcDbEntity
  8
JISSEN
100
AcDbLine
 10
72.88173399999999
 20
120.867849
 30
0.0
 11
72.88173399999999
 21
119.804148
 31
0.0
  0
LINE
  5
318347FB
102
{ACAD_REACTORS
330
3183492A
102
}
330
318324AF
100
AcDbEntity
  8
JISSEN
100
AcDbLine
 10
72.88173399999999
 20
122.929983
 30
0.0
 11
72.88173399999999
 21
122.464256
 31
0.0
  0
LINE
  5
318347FC
102
{ACAD_REACTORS
330
3183492A
102
}
330
318324AF
100
AcDbEntity
  8
JISSEN
100
AcDbLine
 10
72.88173399999999
 20
122.464256
 30
0.0
 11
73.88321999999999
 21
122.464256
 31
0.0
  0
LINE
  5
318347FD
102
{ACAD_REACTORS
330
3183492A
102
}
330
318324AF
100
AcDbEntity
  8
JISSEN
100
AcDbLine
 10
72.88173399999999
 20
121.221706
 30
0.0
 11
73.83946899999999
 21
121.221706
 31
0.0
  0
LINE
  5
318347FE
102
{ACAD_REACTORS
330
3183492A
102
}
330
318324AF
100
AcDbEntity
  8
JISSEN
100
AcDbLine
 10
72.88173399999999
 20
119.804148
 30
0.0
 11
73.961974
 21
119.804148
 31
0.0
  0
LINE
  5
318347FF
102
{ACAD_REACTORS
330
3183492A
102
}
330
318324AF
100
AcDbEntity
  8
JISSEN
100
AcDbLine
 10
73.83946899999999
 20
120.867849
 30
0.0
 11
72.88173399999999
 21
120.867849
 31
0.0
  0
LINE
  5
31834800
102
{ACAD_REACTORS
330
3183492A
102
}
330
318324AF
100
AcDbEntity
  8
JISSEN
100
AcDbLine
 10
73.88321999999999
 20
122.110399
 30
0.0
 11
72.88173399999999
 21
122.110399
 31
0.0
  0
ARC
  5
31834801
330
318324AF
100
AcDbEntity
  8
JISSEN
100
AcDbCircle
 10
99.192751
 20
119.675244
 30
0.0
 40
0.176929
100
AcDbArc
 50
94.31654499999998
 51
274.316545
  0
LINE
  5
31834802
330
318324AF
100
AcDbEntity
  8
JISSEN
100
AcDbLine
 10
86.603013
 20
122.550287
 30
0.0
 11
88.663962
 21
122.550287
 31
0.0
  0
LINE
  5
31834803
330
318324AF
100
AcDbEntity
  8
JISSEN
100
AcDbLine
 10
86.603013
 20
122.9041449999999
 30
0.0
 11
88.867419
 21
122.905105
 31
0.0
  0
ARC
  5
31834804
330
318324AF
100
AcDbEntity
  8
JISSEN
100
AcDbCircle
 10
84.55451
 20
123.948556
 30
0.0
 40
4.526804
100
AcDbArc
 50
291.1520279999999
 51
325.510336
  0
ARC
  5
31834805
330
318324AF
100
AcDbEntity
  8
JISSEN
100
AcDbCircle
 10
84.49505999999999
 20
124.109208
 30
0.0
 40
5.051826
100
AcDbArc
 50
291.064231
 51
316.850299
  0
ARC
  5
31834806
330
318324AF
100
AcDbEntity
  8
JISSEN
100
AcDbCircle
 10
80.371222
 20
121.327159
 30
0.0
 40
0.176929
100
AcDbArc
 50
270.0
 51
90.0
  0
LINE
  5
31834807
330
318324AF
100
AcDbEntity
  8
JISSEN
100
AcDbLine
 10
78.425229
 20
121.5040879999999
 30
0.0
 11
76.82732800000001
 21
121.5040879999999
 31
0.0
  0
LINE
  5
31834808
330
318324AF
100
AcDbEntity
  8
JISSEN
100
AcDbLine
 10
76.82732800000001
 20
121.1502309999999
 30
0.0
 11
78.425229
 21
121.1502309999999
 31
0.0
  0
ARC
  5
31834809
330
318324AF
100
AcDbEntity
  8
JISSEN
100
AcDbCircle
 10
76.70717900000001
 20
140.958329
 30
0.0
 40
18.561478
100
AcDbArc
 50
271.2488259999999
 51
275.3108979999999
  0
ARC
  5
3183480A
330
318324AF
100
AcDbEntity
  8
JISSEN
100
AcDbCircle
 10
76.183796
 20
148.0783669999999
 30
0.0
 40
25.340245
100
AcDbArc
 50
272.0985479999999
 51
278.860272
  0
ARC
  5
3183480B
330
318324AF
100
AcDbEntity
  8
JISSEN
100
AcDbCircle
 10
77.111715
 20
122.5781889999999
 30
0.0
 40
0.176929
100
AcDbArc
 50
90.0
 51
270.0
  0
ARC
  5
3183480C
330
318324AF
100
AcDbEntity
  8
JISSEN
100
AcDbCircle
 10
76.82732800000001
 20
121.327159
 30
0.0
 40
0.176929
100
AcDbArc
 50
90.0
 51
270.0
  0
LINE
  5
3183480D
330
318324AF
100
AcDbEntity
  8
JISSEN
100
AcDbLine
 10
78.777788
 20
121.1502309999999
 30
0.0
 11
80.371222
 21
121.1502309999999
 31
0.0
  0
LINE
  5
3183480E
330
318324AF
100
AcDbEntity
  8
JISSEN
100
AcDbLine
 10
80.371222
 20
121.5040879999999
 30
0.0
 11
78.778126
 21
121.5040879999999
 31
0.0
  0
ARC
  5
3183480F
330
318324AF
100
AcDbEntity
  8
JISSEN
100
AcDbCircle
 10
77.214825
 20
139.0295449999999
 30
0.0
 40
16.59332999999999
100
AcDbArc
 50
275.4093319999999
 51
279.967074
  0
LINE
  5
31834810
330
318324AF
100
AcDbEntity
  8
JISSEN
100
AcDbLine
 10
78.778126
 20
121.5040879999999
 30
0.0
 11
78.77908599999999
 21
122.510112
 31
0.0
  0
LINE
  5
31834811
330
318324AF
100
AcDbEntity
  8
JISSEN
100
AcDbLine
 10
78.425229
 20
121.1502309999999
 30
0.0
 11
78.42234599999999
 21
119.4895849999999
 31
0.0
  0
LINE
  5
31834812
330
318324AF
100
AcDbEntity
  8
JISSEN
100
AcDbLine
 10
78.77620400000001
 20
119.4895849999999
 30
0.0
 11
78.777788
 21
121.1502309999999
 31
0.0
  0
LINE
  5
31834813
330
318324AF
100
AcDbEntity
  8
JISSEN
100
AcDbLine
 10
78.425229
 20
122.476533
 30
0.0
 11
78.425229
 21
121.5040879999999
 31
0.0
  0
ARC
  5
31834814
330
318324AF
100
AcDbEntity
  8
JISSEN
100
AcDbCircle
 10
78.59927500000001
 20
119.4895849999999
 30
0.0
 40
0.176929
100
AcDbArc
 50
180.0
 51
0.0
  0
ARC
  5
31834815
330
318324AF
100
AcDbEntity
  8
JISSEN
100
AcDbCircle
 10
80.086835
 20
122.863581
 30
0.0
 40
0.176929
100
AcDbArc
 50
270.0
 51
90.0
  0
LINE
  5
31834816
330
318324AF
100
AcDbEntity
  8
JISSEN
100
AcDbLine
 10
83.72010799999999
 20
122.11277
 30
0.0
 11
82.712856
 21
122.11277
 31
0.0
  0
LINE
  5
31834817
330
318324AF
100
AcDbEntity
  8
JISSEN
100
AcDbLine
 10
83.72010799999999
 20
120.8702199999999
 30
0.0
 11
82.756608
 21
120.8702199999999
 31
0.0
  0
LINE
  5
31834818
330
318324AF
100
AcDbEntity
  8
JISSEN
100
AcDbLine
 10
83.48081699999999
 20
122.879679
 30
0.0
 11
83.73175299999999
 21
122.563775
 31
0.0
  0
LINE
  5
31834819
330
318324AF
100
AcDbEntity
  8
JISSEN
100
AcDbLine
 10
85.15420500000001
 20
119.452662
 30
0.0
 11
82.634103
 21
119.452662
 31
0.0
  0
LINE
  5
3183481A
330
318324AF
100
AcDbEntity
  8
JISSEN
100
AcDbLine
 10
82.634103
 20
119.80652
 30
0.0
 11
83.72010799999999
 21
119.80652
 31
0.0
  0
LINE
  5
3183481B
330
318324AF
100
AcDbEntity
  8
JISSEN
100
AcDbLine
 10
82.756608
 20
121.224077
 30
0.0
 11
83.72010799999999
 21
121.224077
 31
0.0
  0
LINE
  5
3183481C
330
318324AF
100
AcDbEntity
  8
JISSEN
100
AcDbLine
 10
82.712856
 20
122.4666269999999
 30
0.0
 11
83.68473399999999
 21
122.4666269999999
 31
0.0
  0
ARC
  5
3183481D
330
318324AF
100
AcDbEntity
  8
JISSEN
100
AcDbCircle
 10
83.619357
 20
122.989727
 30
0.0
 40
0.176929
100
AcDbArc
 50
38.46150399999999
 51
218.461504
  0
ARC
  5
3183481E
330
318324AF
100
AcDbEntity
  8
JISSEN
100
AcDbCircle
 10
78.13323699999999
 20
123.6274689999999
 30
0.0
 40
4.234257
100
AcDbArc
 50
337.96606
 51
350.0892309999999
  0
ARC
  5
3183481F
330
318324AF
100
AcDbEntity
  8
JISSEN
100
AcDbCircle
 10
81.881303
 20
119.472085
 30
0.0
 40
0.176929
100
AcDbArc
 50
180.0
 51
0.0
  0
ARC
  5
31834820
330
318324AF
100
AcDbEntity
  8
JISSEN
100
AcDbCircle
 10
82.129048
 20
122.922945
 30
0.0
 40
0.176929
100
AcDbArc
 50
352.121743
 51
166.551622
  0
LINE
  5
31834821
330
318324AF
100
AcDbEntity
  8
JISSEN
100
AcDbLine
 10
81.704374
 20
121.3730139999999
 30
0.0
 11
81.704374
 21
119.472085
 31
0.0
  0
ARC
  5
31834822
330
318324AF
100
AcDbEntity
  8
JISSEN
100
AcDbCircle
 10
78.89804699999999
 20
123.1553459999999
 30
0.0
 40
3.324483
100
AcDbArc
 50
322.7402119999999
 51
327.5798809999999
  0
ARC
  5
31834823
330
318324AF
100
AcDbEntity
  8
JISSEN
100
AcDbCircle
 10
78.345128
 20
123.568571
 30
0.0
 40
3.662076
100
AcDbArc
 50
323.24124
 51
350.4990259999999
  0
ARC
  5
31834824
330
318324AF
100
AcDbEntity
  8
JISSEN
100
AcDbCircle
 10
81.408784
 20
121.2567139999999
 30
0.0
 40
0.176929
100
AcDbArc
 50
137.162316
 51
319.8382959999999
  0
LINE
  5
31834825
330
318324AF
100
AcDbEntity
  8
JISSEN
100
AcDbLine
 10
82.05823199999999
 20
122.0389629999999
 30
0.0
 11
82.05823199999999
 21
119.472085
 31
0.0
  0
ARC
  5
31834826
330
318324AF
100
AcDbEntity
  8
JISSEN
100
AcDbCircle
 10
82.712856
 20
122.289698
 30
0.0
 40
0.176929
100
AcDbArc
 50
90.0
 51
270.0
  0
ARC
  5
31834827
330
318324AF
100
AcDbEntity
  8
JISSEN
100
AcDbCircle
 10
82.756608
 20
121.047148
 30
0.0
 40
0.176929
100
AcDbArc
 50
90.0
 51
270.0
  0
ARC
  5
31834828
330
318324AF
100
AcDbEntity
  8
JISSEN
100
AcDbCircle
 10
82.634103
 20
119.6295909999999
 30
0.0
 40
0.176929
100
AcDbArc
 50
90.0
 51
270.0
  0
LINE
  5
31834829
330
318324AF
100
AcDbEntity
  8
JISSEN
100
AcDbLine
 10
84.073965
 20
119.80652
 30
0.0
 11
85.15420500000001
 21
119.80652
 31
0.0
  0
ARC
  5
3183482A
330
318324AF
100
AcDbEntity
  8
JISSEN
100
AcDbCircle
 10
85.075452
 20
122.289698
 30
0.0
 40
0.176929
100
AcDbArc
 50
270.0
 51
90.0
  0
ARC
  5
3183482B
330
318324AF
100
AcDbEntity
  8
JISSEN
100
AcDbCircle
 10
85.0317
 20
121.047148
 30
0.0
 40
0.176929
100
AcDbArc
 50
270.0
 51
90.0
  0
LINE
  5
3183482C
330
318324AF
100
AcDbEntity
  8
JISSEN
100
AcDbLine
 10
84.109224
 20
122.4666269999999
 30
0.0
 11
85.075452
 21
122.4666269999999
 31
0.0
  0
LINE
  5
3183482D
330
318324AF
100
AcDbEntity
  8
JISSEN
100
AcDbLine
 10
84.073965
 20
121.224077
 30
0.0
 11
85.0317
 21
121.224077
 31
0.0
  0
LINE
  5
3183482E
330
318324AF
100
AcDbEntity
  8
JISSEN
100
AcDbLine
 10
83.72010799999999
 20
120.8702199999999
 30
0.0
 11
83.72010799999999
 21
119.80652
 31
0.0
  0
LINE
  5
3183482F
330
318324AF
100
AcDbEntity
  8
JISSEN
100
AcDbLine
 10
84.073965
 20
120.8702199999999
 30
0.0
 11
84.073965
 21
119.80652
 31
0.0
  0
ARC
  5
31834830
330
318324AF
100
AcDbEntity
  8
JISSEN
100
AcDbCircle
 10
83.682159
 20
122.527825
 30
0.0
 40
0.061252
100
AcDbArc
 50
270.0
 51
38.46150399999999
  0
LINE
  5
31834831
330
318324AF
100
AcDbEntity
  8
JISSEN
100
AcDbLine
 10
84.06197699999999
 20
122.7169659999999
 30
0.0
 11
83.757897
 21
123.099774
 31
0.0
  0
ARC
  5
31834832
330
318324AF
100
AcDbEntity
  8
JISSEN
100
AcDbCircle
 10
83.834353
 20
122.5862009999999
 30
0.0
 40
0.262511
100
AcDbArc
 50
343.195602
 51
29.87657199999999
  0
ARC
  5
31834833
330
318324AF
100
AcDbEntity
  8
JISSEN
100
AcDbCircle
 10
84.119161
 20
122.5001879999999
 30
0.0
 40
0.035001
100
AcDbArc
 50
163.195602
 51
270.0
  0
LINE
  5
31834834
330
318324AF
100
AcDbEntity
  8
JISSEN
100
AcDbLine
 10
84.073965
 20
122.11277
 30
0.0
 11
84.073965
 21
121.224077
 31
0.0
  0
LINE
  5
31834835
330
318324AF
100
AcDbEntity
  8
JISSEN
100
AcDbLine
 10
83.72010799999999
 20
122.11277
 30
0.0
 11
83.72010799999999
 21
121.224077
 31
0.0
  0
LINE
  5
31834836
330
318324AF
100
AcDbEntity
  8
JISSEN
100
AcDbLine
 10
85.0317
 20
120.8702199999999
 30
0.0
 11
84.073965
 21
120.8702199999999
 31
0.0
  0
LINE
  5
31834837
330
318324AF
100
AcDbEntity
  8
JISSEN
100
AcDbLine
 10
85.075452
 20
122.11277
 30
0.0
 11
84.073965
 21
122.11277
 31
0.0
  0
ARC
  5
31834838
330
318324AF
100
AcDbEntity
  8
JISSEN
100
AcDbCircle
 10
86.25299899999999
 20
119.5621899999999
 30
0.0
 40
0.176929
100
AcDbArc
 50
111.5606969999999
 51
289.0538599999999
  0
ARC
  5
31834839
330
318324AF
100
AcDbEntity
  8
JISSEN
100
AcDbCircle
 10
86.603013
 20
122.727216
 30
0.0
 40
0.176929
100
AcDbArc
 50
90.0
 51
270.0
  0
ARC
  5
3183483A
330
318324AF
100
AcDbEntity
  8
JISSEN
100
AcDbCircle
 10
85.15420500000001
 20
119.6295909999999
 30
0.0
 40
0.176929
100
AcDbArc
 50
270.0
 51
90.0
  0
ARC
  5
3183483B
330
318324AF
100
AcDbEntity
  8
JISSEN
100
AcDbCircle
 10
93.720142
 20
123.1025409999999
 30
0.0
 40
0.353857
100
AcDbArc
 50
261.720445
 51
214.645568
  0
LINE
  5
3183483C
330
318324AF
100
AcDbEntity
  8
JISSEN
100
AcDbLine
 10
93.207704
 20
122.545418
 30
0.0
 11
90.29000699999999
 21
122.5177629999999
 31
0.0
  0
ARC
  5
3183483D
330
318324AF
100
AcDbEntity
  8
JISSEN
100
AcDbCircle
 10
90.83934599999999
 20
122.275128
 30
0.0
 40
2.833515999999999
100
AcDbArc
 50
313.069138
 51
334.226226
  0
ARC
  5
3183483E
330
318324AF
100
AcDbEntity
  8
JISSEN
100
AcDbCircle
 10
90.83934599999999
 20
122.275128
 30
0.0
 40
2.472497999999999
100
AcDbArc
 50
313.2315649999999
 51
334.226226
  0
LINE
  5
3183483F
330
318324AF
100
AcDbEntity
  8
JISSEN
100
AcDbLine
 10
90.29000699999999
 20
122.87162
 30
0.0
 11
93.429029
 21
122.9013729999999
 31
0.0
  0
ARC
  5
31834840
330
318324AF
100
AcDbEntity
  8
JISSEN
100
AcDbCircle
 10
89.59410099999999
 20
119.5770889999999
 30
0.0
 40
0.176929
100
AcDbArc
 50
226.974934
 51
46.974934
  0
LINE
  5
31834841
330
318324AF
100
AcDbEntity
  8
JISSEN
100
AcDbLine
 10
89.47338
 20
119.447744
 30
0.0
 11
88.180717
 21
120.6542299999999
 31
0.0
  0
ARC
  5
31834842
330
318324AF
100
AcDbEntity
  8
JISSEN
100
AcDbCircle
 10
84.49505999999999
 20
124.109208
 30
0.0
 40
5.051826
100
AcDbArc
 50
320.866597
 51
323.596311
  0
LINE
  5
31834843
330
318324AF
100
AcDbEntity
  8
JISSEN
100
AcDbLine
 10
89.71482299999999
 20
119.706433
 30
0.0
 11
88.41365299999999
 21
120.920859
 31
0.0
  0
ARC
  5
31834844
330
318324AF
100
AcDbEntity
  8
JISSEN
100
AcDbCircle
 10
88.867419
 20
122.6397129999999
 30
0.0
 40
0.265393
100
AcDbArc
 50
348.839037
 51
90.0
  0
ARC
  5
31834845
330
318324AF
100
AcDbEntity
  8
JISSEN
100
AcDbCircle
 10
85.698749
 20
123.1221449999999
 30
0.0
 40
3.115906
100
AcDbArc
 50
325.7052339999999
 51
347.5787439999999
  0
ARC
  5
31834846
330
318324AF
100
AcDbEntity
  8
JISSEN
100
AcDbCircle
 10
88.65486700000001
 20
122.463258
 30
0.0
 40
0.087504
100
AcDbArc
 50
345.748798
 51
90.0
  0
ARC
  5
31834847
330
318324AF
100
AcDbEntity
  8
JISSEN
100
AcDbCircle
 10
85.52629300000001
 20
123.1227149999999
 30
0.0
 40
3.640926999999999
100
AcDbArc
 50
326.4612169999999
 51
351.5603
  0
ARC
  5
31834848
330
318324AF
100
AcDbEntity
  8
JISSEN
100
AcDbCircle
 10
90.38252299999999
 20
122.9582999999999
 30
0.0
 40
3.646966999999999
100
AcDbArc
 50
277.183487
 51
310.982293
  0
ARC
  5
31834849
330
318324AF
100
AcDbEntity
  8
JISSEN
100
AcDbCircle
 10
90.37989000000001
 20
122.933939
 30
0.0
 40
3.269282
100
AcDbArc
 50
277.232693
 51
311.189496
  0
ARC
  5
3183484A
330
318324AF
100
AcDbEntity
  8
JISSEN
100
AcDbCircle
 10
90.815028
 20
119.5153139999999
 30
0.0
 40
0.176929
100
AcDbArc
 50
97.64521799999998
 51
277.645218
  0
ARC
  5
3183484B
330
318324AF
100
AcDbEntity
  8
JISSEN
100
AcDbCircle
 10
90.29000699999999
 20
122.6946909999999
 30
0.0
 40
0.176929
100
AcDbArc
 50
90.0
 51
271.086143
  0
ARC
  5
3183484C
102
{ACAD_REACTORS
330
3183492E
102
}
330
318324AF
100
AcDbEntity
  8
JISSEN
100
AcDbCircle
 10
95.66208399999998
 20
122.482783
 30
0.0
 40
3.170726999999999
100
AcDbArc
 50
273.830155
 51
302.907174
  0
ARC
  5
3183484D
102
{ACAD_REACTORS
330
3183492E
102
}
330
318324AF
100
AcDbEntity
  8
JISSEN
100
AcDbCircle
 10
95.66208399999998
 20
122.482783
 30
0.0
 40
2.81687
100
AcDbArc
 50
273.830155
 51
303.140345
  0
CIRCLE
  5
3183484E
330
318324AF
100
AcDbEntity
  8
JISSEN
100
AcDbCircle
 10
93.720142
 20
123.1025409999999
 30
0.0
 40
0.265393
  0
ARC
  5
3183484F
330
318324AF
100
AcDbEntity
  8
JISSEN
100
AcDbCircle
 10
93.21609699999999
 20
122.457353
 30
0.0
 40
0.088464
100
AcDbArc
 50
4.461445999999999
 51
95.44393300000001
  0
LINE
  5
31834850
330
318324AF
100
AcDbEntity
  8
JISSEN
100
AcDbLine
 10
93.669185
 20
122.4504239999999
 30
0.0
 11
93.669185
 21
122.7523719999999
 31
0.0
  0
ARC
  5
31834851
330
318324AF
100
AcDbEntity
  8
JISSEN
100
AcDbCircle
 10
92.98998
 20
121.236686
 30
0.0
 40
0.445297
100
AcDbArc
 50
334.226226
 51
341.8674279999999
  0
ARC
  5
31834852
330
318324AF
100
AcDbEntity
  8
JISSEN
100
AcDbCircle
 10
88.623498
 20
122.7052809999999
 30
0.0
 40
5.052119
100
AcDbArc
 50
341.450747
 51
357.1084629999999
  0
ARC
  5
31834853
330
318324AF
100
AcDbEntity
  8
JISSEN
100
AcDbCircle
 10
88.437736
 20
122.727453
 30
0.0
 40
4.873669999999999
100
AcDbArc
 50
341.735682
 51
356.9040479999999
  0
LINE
  5
31834854
330
318324AF
100
AcDbEntity
  8
JISSEN
100
AcDbLine
 10
95.33896700000001
 20
121.064649
 30
0.0
 11
95.33896700000001
 21
122.989727
 31
0.0
  0
LINE
  5
31834855
330
318324AF
100
AcDbEntity
  8
JISSEN
100
AcDbLine
 10
94.98510999999998
 20
122.989727
 30
0.0
 11
94.98510999999998
 21
121.064649
 31
0.0
  0
ARC
  5
31834856
102
{ACAD_REACTORS
330
3183492E
102
}
330
318324AF
100
AcDbEntity
  8
JISSEN
100
AcDbCircle
 10
95.862066
 20
119.4956719999999
 30
0.0
 40
0.176929
100
AcDbArc
 50
93.830155
 51
273.830155
  0
ARC
  5
31834857
330
318324AF
100
AcDbEntity
  8
JISSEN
100
AcDbCircle
 10
95.16203799999999
 20
121.064649
 30
0.0
 40
0.176929
100
AcDbArc
 50
180.0
 51
0.0
  0
ARC
  5
31834858
330
318324AF
100
AcDbEntity
  8
JISSEN
100
AcDbCircle
 10
95.16203799999999
 20
122.989727
 30
0.0
 40
0.176929
100
AcDbArc
 50
0.0
 51
180.0
  0
ARC
  5
31834859
102
{ACAD_REACTORS
330
3183492E
102
}
330
318324AF
100
AcDbEntity
  8
JISSEN
100
AcDbCircle
 10
96.53810700000001
 20
121.328958
 30
0.0
 40
1.72952
100
AcDbArc
 50
299.306512
 51
355.2156679999999
  0
ARC
  5
3183485A
102
{ACAD_REACTORS
330
3183492E
102
}
330
318324AF
100
AcDbEntity
  8
JISSEN
100
AcDbCircle
 10
96.53810700000001
 20
121.328958
 30
0.0
 40
1.37566
100
AcDbArc
 50
298.8573779999999
 51
354.637561
  0
LINE
  5
3183485B
102
{ACAD_REACTORS
330
3183492E
102
}
330
318324AF
100
AcDbEntity
  8
JISSEN
100
AcDbLine
 10
98.261585
 20
122.989728
 30
0.0
 11
98.26160000000001
 21
121.184707
 31
0.0
  0
LINE
  5
3183485C
102
{ACAD_REACTORS
330
3183492E
102
}
330
318324AF
100
AcDbEntity
  8
JISSEN
100
AcDbLine
 10
97.907746
 20
121.2003949999999
 30
0.0
 11
97.907728
 21
122.989725
 31
0.0
  0
ARC
  5
3183485D
102
{ACAD_REACTORS
330
3183492E
102
}
330
318324AF
100
AcDbEntity
  8
JISSEN
100
AcDbCircle
 10
98.08465600000001
 20
122.989727
 30
0.0
 40
0.176929
100
AcDbArc
 50
0.000492
 51
180.000595
  0
ARC
  5
3183485E
330
318324AF
100
AcDbEntity
  8
JISSEN
100
AcDbCircle
 10
109.119052
 20
121.6641169999999
 30
0.0
 40
2.124102
100
AcDbArc
 50
284.678793
 51
357.127029
  0
ARC
  5
3183485F
330
318324AF
100
AcDbEntity
  8
JISSEN
100
AcDbCircle
 10
103.388784
 20
122.8042019999999
 30
0.0
 40
3.547679
100
AcDbArc
 50
280.879266
 51
315.602863
  0
ARC
  5
31834860
330
318324AF
100
AcDbEntity
  8
JISSEN
100
AcDbCircle
 10
103.388784
 20
122.8042019999999
 30
0.0
 40
3.193821999999999
100
AcDbArc
 50
280.879266
 51
315.57296
  0
LINE
  5
31834861
330
318324AF
100
AcDbEntity
  8
JISSEN
100
AcDbLine
 10
104.811917
 20
122.5550909999999
 30
0.0
 11
106.261478
 21
122.5550909999999
 31
0.0
  0
LINE
  5
31834862
330
318324AF
100
AcDbEntity
  8
JISSEN
100
AcDbLine
 10
106.5584429999999
 20
122.906066
 30
0.0
 11
104.6088069999999
 21
122.905105
 31
0.0
  0
ARC
  5
31834863
330
318324AF
100
AcDbEntity
  8
JISSEN
100
AcDbCircle
 10
98.92039799999999
 20
123.283486
 30
0.0
 40
3.795434999999999
100
AcDbArc
 50
274.316545
 51
345.476834
  0
ARC
  5
31834864
330
318324AF
100
AcDbEntity
  8
JISSEN
100
AcDbCircle
 10
98.92039799999999
 20
123.283486
 30
0.0
 40
3.441577999999999
100
AcDbArc
 50
274.316545
 51
345.476834
  0
ARC
  5
31834865
330
318324AF
100
AcDbEntity
  8
JISSEN
100
AcDbCircle
 10
100.385173
 20
122.290356
 30
0.0
 40
0.176929
100
AcDbArc
 50
245.552791
 51
65.55279099999999
  0
ARC
  5
31834866
330
318324AF
100
AcDbEntity
  8
JISSEN
100
AcDbCircle
 10
94.865332
 20
111.7769919999999
 30
0.0
 40
11.69725399999999
100
AcDbArc
 50
62.32241000000001
 51
67.72062199999999
  0
ARC
  5
31834867
330
318324AF
100
AcDbEntity
  8
JISSEN
100
AcDbCircle
 10
94.78120200000001
 20
111.6276759999999
 30
0.0
 40
12.222275
100
AcDbArc
 50
62.32241000000001
 51
67.53048900000002
  0
ARC
  5
31834868
330
318324AF
100
AcDbEntity
  8
JISSEN
100
AcDbCircle
 10
99.36413700000001
 20
122.766006
 30
0.0
 40
0.176929
100
AcDbArc
 50
65.55279099999999
 51
245.552791
  0
ARC
  5
31834869
330
318324AF
100
AcDbEntity
  8
JISSEN
100
AcDbCircle
 10
102.6157189999999
 20
123.6379649999999
 30
0.0
 40
2.313358
100
AcDbArc
 50
297.0671279999999
 51
329.160983
  0
ARC
  5
3183486A
330
318324AF
100
AcDbEntity
  8
JISSEN
100
AcDbCircle
 10
102.580497
 20
123.6876789999999
 30
0.0
 40
2.019813999999999
100
AcDbArc
 50
297.289316
 51
331.6705049999999
  0
ARC
  5
3183486B
330
318324AF
100
AcDbEntity
  8
JISSEN
100
AcDbCircle
 10
103.5874619999999
 20
121.7353219999999
 30
0.0
 40
0.176929
100
AcDbArc
 50
117.214419
 51
297.214419
  0
ARC
  5
3183486C
330
318324AF
100
AcDbEntity
  8
JISSEN
100
AcDbCircle
 10
102.4232809999999
 20
122.3760679999999
 30
0.0
 40
0.176929
100
AcDbArc
 50
345.476834
 51
165.476834
  0
ARC
  5
3183486D
330
318324AF
100
AcDbEntity
  8
JISSEN
100
AcDbCircle
 10
104.811917
 20
122.289698
 30
0.0
 40
0.265393
100
AcDbArc
 50
90.0
 51
142.278155
  0
ARC
  5
3183486E
330
318324AF
100
AcDbEntity
  8
JISSEN
100
AcDbCircle
 10
104.608257
 20
122.6397129999999
 30
0.0
 40
0.265393
100
AcDbArc
 50
89.88121300000001
 51
160.295714
  0
ARC
  5
3183486F
330
318324AF
100
AcDbEntity
  8
JISSEN
100
AcDbCircle
 10
104.02498
 20
119.494034
 30
0.0
 40
0.176929
100
AcDbArc
 50
100.879266
 51
280.879266
  0
LINE
  5
31834870
330
318324AF
100
AcDbEntity
  8
JISSEN
100
AcDbLine
 10
110.6571879999999
 20
121.5740469999999
 30
0.0
 11
107.7376899999999
 21
121.570248
 31
0.0
  0
LINE
  5
31834871
330
318324AF
100
AcDbEntity
  8
JISSEN
100
AcDbLine
 10
107.737408
 20
121.924105
 30
0.0
 11
110.974933
 21
121.9250659999999
 31
0.0
  0
LINE
  5
31834872
330
318324AF
100
AcDbEntity
  8
JISSEN
100
AcDbLine
 10
110.71258
 20
122.5852889999999
 30
0.0
 11
108.087474
 21
122.5852889999999
 31
0.0
  0
LINE
  5
31834873
330
318324AF
100
AcDbEntity
  8
JISSEN
100
AcDbLine
 10
108.087474
 20
122.9391459999999
 30
0.0
 11
110.71258
 21
122.9391459999999
 31
0.0
  0
ARC
  5
31834874
330
318324AF
100
AcDbEntity
  8
JISSEN
100
AcDbCircle
 10
108.349985
 20
119.5783139999999
 30
0.0
 40
0.176929
100
AcDbArc
 50
90.0
 51
272.661796
  0
ARC
  5
31834875
330
318324AF
100
AcDbEntity
  8
JISSEN
100
AcDbCircle
 10
103.3362959999999
 20
122.804745
 30
0.0
 40
3.585745999999999
100
AcDbArc
 50
316.1834629999999
 51
355.3517749999999
  0
ARC
  5
31834876
330
318324AF
100
AcDbEntity
  8
JISSEN
100
AcDbCircle
 10
106.5584429999999
 20
122.552209
 30
0.0
 40
0.353857
100
AcDbArc
 50
353.827807
 51
90.0
  0
ARC
  5
31834877
330
318324AF
100
AcDbEntity
  8
JISSEN
100
AcDbCircle
 10
103.348829
 20
122.796236
 30
0.0
 40
3.216955
100
AcDbArc
 50
316.1724379999999
 51
351.068299
  0
ARC
  5
31834878
330
318324AF
100
AcDbEntity
  8
JISSEN
100
AcDbCircle
 10
106.261478
 20
122.289698
 30
0.0
 40
0.265393
100
AcDbArc
 50
1.529212999999999
 51
90.0
  0
ARC
  5
31834879
330
318324AF
100
AcDbEntity
  8
JISSEN
100
AcDbCircle
 10
108.087474
 20
122.7622169999999
 30
0.0
 40
0.176929
100
AcDbArc
 50
90.0
 51
270.0
  0
ARC
  5
3183487A
330
318324AF
100
AcDbEntity
  8
JISSEN
100
AcDbCircle
 10
109.1180519999999
 20
121.664929
 30
0.0
 40
1.766636999999999
100
AcDbArc
 50
286.6305729999999
 51
349.2996319999999
  0
ARC
  5
3183487B
330
318324AF
100
AcDbEntity
  8
JISSEN
100
AcDbCircle
 10
108.4447549999999
 20
123.025695
 30
0.0
 40
3.625151999999999
100
AcDbArc
 50
268.6318839999999
 51
289.5409669999999
  0
LINE
  5
3183487C
330
318324AF
100
AcDbEntity
  8
JISSEN
100
AcDbLine
 10
111.240484
 20
121.659673
 30
0.0
 11
111.240484
 21
121.557653
 31
0.0
  0
ARC
  5
3183487D
330
318324AF
100
AcDbEntity
  8
JISSEN
100
AcDbCircle
 10
110.95455
 20
121.6391199999999
 30
0.0
 40
0.286671
100
AcDbArc
 50
4.111367999999999
 51
85.922639
  0
ARC
  5
3183487E
330
318324AF
100
AcDbEntity
  8
JISSEN
100
AcDbCircle
 10
110.71258
 20
122.7622169999999
 30
0.0
 40
0.176929
100
AcDbArc
 50
270.0
 51
90.0
  0
ARC
  5
3183487F
330
318324AF
100
AcDbEntity
  8
JISSEN
100
AcDbCircle
 10
117.563253
 20
119.472085
 30
0.0
 40
0.176929
100
AcDbArc
 50
180.0
 51
0.0
  0
ARC
  5
31834880
330
318324AF
100
AcDbEntity
  8
JISSEN
100
AcDbCircle
 10
117.563253
 20
123.0072269999999
 30
0.0
 40
0.176929
100
AcDbArc
 50
0.0
 51
180.0
  0
LINE
  5
31834881
330
318324AF
100
AcDbEntity
  8
JISSEN
100
AcDbLine
 10
115.8908659999999
 20
121.062727
 30
0.0
 11
112.390725
 21
121.062727
 31
0.0
  0
LINE
  5
31834882
330
318324AF
100
AcDbEntity
  8
JISSEN
100
AcDbLine
 10
112.390725
 20
121.416585
 30
0.0
 11
115.8908659999999
 21
121.416585
 31
0.0
  0
ARC
  5
31834883
330
318324AF
100
AcDbEntity
  8
JISSEN
100
AcDbCircle
 10
112.390725
 20
121.239656
 30
0.0
 40
0.176929
100
AcDbArc
 50
90.0
 51
270.0
  0
ARC
  5
31834884
330
318324AF
100
AcDbEntity
  8
JISSEN
100
AcDbCircle
 10
115.8908659999999
 20
121.239656
 30
0.0
 40
0.176929
100
AcDbArc
 50
270.0
 51
90.0
  0
LINE
  5
31834885
330
318324AF
100
AcDbEntity
  8
JISSEN
100
AcDbLine
 10
117.3863239999999
 20
122.0952689999999
 30
0.0
 11
117.00323
 21
122.0952689999999
 31
0.0
  0
LINE
  5
31834886
330
318324AF
100
AcDbEntity
  8
JISSEN
100
AcDbLine
 10
117.3863239999999
 20
122.0952689999999
 30
0.0
 11
117.3863239999999
 21
122.019597
 31
0.0
  0
LINE
  5
31834887
330
318324AF
100
AcDbEntity
  8
JISSEN
100
AcDbLine
 10
117.3863239999999
 20
123.0072269999999
 30
0.0
 11
117.3863239999999
 21
122.449126
 31
0.0
  0
ARC
  5
31834888
330
318324AF
100
AcDbEntity
  8
JISSEN
100
AcDbCircle
 10
112.8343789999999
 20
123.031686
 30
0.0
 40
5.016230999999999
100
AcDbArc
 50
328.313956
 51
333.889699
  0
ARC
  5
31834889
330
318324AF
100
AcDbEntity
  8
JISSEN
100
AcDbCircle
 10
112.8343789999999
 20
123.031686
 30
0.0
 40
4.663102999999999
100
AcDbArc
 50
328.467177
 51
347.464646
  0
LINE
  5
3183488A
330
318324AF
100
AcDbEntity
  8
JISSEN
100
AcDbLine
 10
117.3863239999999
 20
120.8108379999999
 30
0.0
 11
117.3863239999999
 21
119.472085
 31
0.0
  0
LINE
  5
3183488B
330
318324AF
100
AcDbEntity
  8
JISSEN
100
AcDbLine
 10
117.00323
 20
122.449126
 30
0.0
 11
117.3863239999999
 21
122.449126
 31
0.0
  0
ARC
  5
3183488C
330
318324AF
100
AcDbEntity
  8
JISSEN
100
AcDbCircle
 10
117.3601449999999
 20
120.808905
 30
0.0
 40
0.026251
100
AcDbArc
 50
0.0
 51
156.291091
  0
ARC
  5
3183488D
330
318324AF
100
AcDbEntity
  8
JISSEN
100
AcDbCircle
 10
116.9507279999999
 20
120.4871259999999
 30
0.0
 40
0.176929
100
AcDbArc
 50
143.267256
 51
329.3159129999999
  0
ARC
  5
3183488E
330
318324AF
100
AcDbEntity
  8
JISSEN
100
AcDbCircle
 10
117.00323
 20
122.2721979999999
 30
0.0
 40
0.176929
100
AcDbArc
 50
90.0
 51
270.0
  0
ARC
  5
3183488F
330
318324AF
100
AcDbEntity
  8
JISSEN
100
AcDbCircle
 10
125.196294
 20
124.276936
 30
0.0
 40
6.31566
100
AcDbArc
 50
208.1995629999999
 51
225.364348
  0
ARC
  5
31834890
330
318324AF
100
AcDbEntity
  8
JISSEN
100
AcDbCircle
 10
120.634627
 20
119.656882
 30
0.0
 40
0.176929
100
AcDbArc
 50
225.364348
 51
45.364348
  0
ARC
  5
31834891
330
318324AF
100
AcDbEntity
  8
JISSEN
100
AcDbCircle
 10
113.710365
 20
124.276936
 30
0.0
 40
6.669516999999999
100
AcDbArc
 50
314.5125499999999
 51
326.568856
  0
ARC
  5
31834892
330
318324AF
100
AcDbEntity
  8
JISSEN
100
AcDbCircle
 10
113.710365
 20
124.276936
 30
0.0
 40
6.31566
100
AcDbArc
 50
314.5125499999999
 51
331.800437
  0
LINE
  5
31834893
330
318324AF
100
AcDbEntity
  8
JISSEN
100
AcDbLine
 10
119.276401
 20
122.606633
 30
0.0
 11
118.7685679999999
 21
122.606633
 31
0.0
  0
LINE
  5
31834894
330
318324AF
100
AcDbEntity
  8
JISSEN
100
AcDbLine
 10
119.276401
 20
122.252775
 30
0.0
 11
118.639178
 21
122.252775
 31
0.0
  0
LINE
  5
31834895
330
318324AF
100
AcDbEntity
  8
JISSEN
100
AcDbLine
 10
119.276401
 20
121.3777399999999
 30
0.0
 11
118.5170419999999
 21
121.3777399999999
 31
0.0
  0
LINE
  5
31834896
330
318324AF
100
AcDbEntity
  8
JISSEN
100
AcDbLine
 10
118.5170419999999
 20
121.731597
 30
0.0
 11
119.276401
 21
121.731597
 31
0.0
  0
ARC
  5
31834897
330
318324AF
100
AcDbEntity
  8
JISSEN
100
AcDbCircle
 10
115.895436
 20
123.456621
 30
0.0
 40
2.996224999999999
100
AcDbArc
 50
343.5196649999999
 51
349.021747
  0
ARC
  5
31834898
330
318324AF
100
AcDbEntity
  8
JISSEN
100
AcDbCircle
 10
115.895436
 20
123.456621
 30
0.0
 40
2.996224999999999
100
AcDbArc
 50
331.9804589999999
 51
336.310045
  0
ARC
  5
31834899
330
318324AF
100
AcDbEntity
  8
JISSEN
100
AcDbCircle
 10
115.895436
 20
123.456621
 30
0.0
 40
2.642367999999999
100
AcDbArc
 50
331.9804589999999
 51
349.021747
  0
LINE
  5
3183489A
330
318324AF
100
AcDbEntity
  8
JISSEN
100
AcDbLine
 10
117.740182
 20
122.449126
 30
0.0
 11
118.0007709999999
 21
122.449126
 31
0.0
  0
LINE
  5
3183489B
330
318324AF
100
AcDbEntity
  8
JISSEN
100
AcDbLine
 10
117.740182
 20
122.449126
 30
0.0
 11
117.740182
 21
123.0072269999999
 31
0.0
  0
LINE
  5
3183489C
330
318324AF
100
AcDbEntity
  8
JISSEN
100
AcDbLine
 10
117.740182
 20
122.012826
 30
0.0
 11
117.740182
 21
122.0952689999999
 31
0.0
  0
ARC
  5
3183489D
330
318324AF
100
AcDbEntity
  8
JISSEN
100
AcDbCircle
 10
123.746913
 20
124.6571389999999
 30
0.0
 40
6.916875999999999
100
AcDbArc
 50
209.724812
 51
213.9853
  0
ARC
  5
3183489E
330
318324AF
100
AcDbEntity
  8
JISSEN
100
AcDbCircle
 10
123.746913
 20
124.6571389999999
 30
0.0
 40
6.563017999999999
100
AcDbArc
 50
203.760285
 51
213.9853
  0
LINE
  5
3183489F
330
318324AF
100
AcDbEntity
  8
JISSEN
100
AcDbLine
 10
117.740182
 20
119.472085
 30
0.0
 11
117.740182
 21
121.2275109999999
 31
0.0
  0
LINE
  5
318348A0
330
318324AF
100
AcDbEntity
  8
JISSEN
100
AcDbLine
 10
118.0007709999999
 20
122.0952689999999
 30
0.0
 11
117.740182
 21
122.0952689999999
 31
0.0
  0
ARC
  5
318348A1
330
318324AF
100
AcDbEntity
  8
JISSEN
100
AcDbCircle
 10
118.158277
 20
120.889642
 30
0.0
 40
0.176929
100
AcDbArc
 50
213.9853
 51
33.9853
  0
ARC
  5
318348A2
330
318324AF
100
AcDbEntity
  8
JISSEN
100
AcDbCircle
 10
118.262095
 20
119.6470919999999
 30
0.0
 40
0.176929
100
AcDbArc
 50
134.5125499999999
 51
314.5125499999999
  0
ARC
  5
318348A3
330
318324AF
100
AcDbEntity
  8
JISSEN
100
AcDbCircle
 10
118.5170419999999
 20
121.5546689999999
 30
0.0
 40
0.176929
100
AcDbArc
 50
90.0
 51
270.0
  0
ARC
  5
318348A4
330
318324AF
100
AcDbEntity
  8
JISSEN
100
AcDbCircle
 10
118.6631379999999
 20
122.9197239999999
 30
0.0
 40
0.176929
100
AcDbArc
 50
349.021747
 51
169.021747
  0
ARC
  5
318348A5
330
318324AF
100
AcDbEntity
  8
JISSEN
100
AcDbCircle
 10
118.3842749999999
 20
122.1321919999999
 30
0.0
 40
0.176929
100
AcDbArc
 50
151.9804589999999
 51
331.9804589999999
  0
ARC
  5
318348A6
330
318324AF
100
AcDbEntity
  8
JISSEN
100
AcDbCircle
 10
118.0007709999999
 20
122.2721979999999
 30
0.0
 40
0.176929
100
AcDbArc
 50
270.0
 51
90.0
  0
LINE
  5
318348A7
330
318324AF
100
AcDbEntity
  8
JISSEN
100
AcDbLine
 10
119.630258
 20
121.292509
 30
0.0
 11
119.630258
 21
121.3777399999999
 31
0.0
  0
LINE
  5
318348A8
330
318324AF
100
AcDbEntity
  8
JISSEN
100
AcDbLine
 10
119.276401
 20
120.6024699999999
 30
0.0
 11
119.276401
 21
119.472085
 31
0.0
  0
ARC
  5
318348A9
330
318324AF
100
AcDbEntity
  8
JISSEN
100
AcDbCircle
 10
125.196294
 20
124.276936
 30
0.0
 40
6.669516999999999
100
AcDbArc
 50
213.4311439999999
 51
225.364348
  0
LINE
  5
318348AA
330
318324AF
100
AcDbEntity
  8
JISSEN
100
AcDbLine
 10
119.630258
 20
121.731597
 30
0.0
 11
120.5121219999999
 21
121.731597
 31
0.0
  0
LINE
  5
318348AB
330
318324AF
100
AcDbEntity
  8
JISSEN
100
AcDbLine
 10
119.630258
 20
122.606633
 30
0.0
 11
119.630258
 21
123.0072269999999
 31
0.0
  0
LINE
  5
318348AC
330
318324AF
100
AcDbEntity
  8
JISSEN
100
AcDbLine
 10
119.276401
 20
122.252775
 30
0.0
 11
119.276401
 21
121.731597
 31
0.0
  0
LINE
  5
318348AD
330
318324AF
100
AcDbEntity
  8
JISSEN
100
AcDbLine
 10
119.630258
 20
121.731597
 30
0.0
 11
119.630258
 21
122.252775
 31
0.0
  0
LINE
  5
318348AE
330
318324AF
100
AcDbEntity
  8
JISSEN
100
AcDbLine
 10
119.276401
 20
121.3777399999999
 30
0.0
 11
119.276401
 21
121.292509
 31
0.0
  0
LINE
  5
318348AF
330
318324AF
100
AcDbEntity
  8
JISSEN
100
AcDbLine
 10
120.45962
 20
122.252775
 30
0.0
 11
119.630258
 21
122.252775
 31
0.0
  0
LINE
  5
318348B0
330
318324AF
100
AcDbEntity
  8
JISSEN
100
AcDbLine
 10
120.45962
 20
122.606633
 30
0.0
 11
119.630258
 21
122.606633
 31
0.0
  0
LINE
  5
318348B1
330
318324AF
100
AcDbEntity
  8
JISSEN
100
AcDbLine
 10
120.5121219999999
 20
121.3777399999999
 30
0.0
 11
119.630258
 21
121.3777399999999
 31
0.0
  0
LINE
  5
318348B2
330
318324AF
100
AcDbEntity
  8
JISSEN
100
AcDbLine
 10
119.630258
 20
119.472085
 30
0.0
 11
119.630258
 21
120.6024699999999
 31
0.0
  0
LINE
  5
318348B3
330
318324AF
100
AcDbEntity
  8
JISSEN
100
AcDbLine
 10
119.276401
 20
123.0072269999999
 30
0.0
 11
119.276401
 21
122.606633
 31
0.0
  0
ARC
  5
318348B4
330
318324AF
100
AcDbEntity
  8
JISSEN
100
AcDbCircle
 10
119.453329
 20
119.472085
 30
0.0
 40
0.176929
100
AcDbArc
 50
180.0
 51
0.0
  0
ARC
  5
318348B5
330
318324AF
100
AcDbEntity
  8
JISSEN
100
AcDbCircle
 10
120.5121219999999
 20
121.5546689999999
 30
0.0
 40
0.176929
100
AcDbArc
 50
270.0
 51
90.0
  0
ARC
  5
318348B6
330
318324AF
100
AcDbEntity
  8
JISSEN
100
AcDbCircle
 10
120.45962
 20
122.4297039999999
 30
0.0
 40
0.176929
100
AcDbArc
 50
270.0
 51
90.0
  0
ARC
  5
318348B7
330
318324AF
100
AcDbEntity
  8
JISSEN
100
AcDbCircle
 10
119.453329
 20
123.0072269999999
 30
0.0
 40
0.176929
100
AcDbArc
 50
0.0
 51
180.0
  0
LINE
  5
318348B8
330
318324AF
100
AcDbEntity
  8
JISSEN
100
AcDbLine
 10
121.480959
 20
121.649283
 30
0.0
 11
123.038898
 21
121.6761669999999
 31
0.0
  0
LINE
  5
318348B9
330
318324AF
100
AcDbEntity
  8
JISSEN
100
AcDbLine
 10
123.495171
 20
122.229786
 30
0.0
 11
121.494469
 21
122.2036899999999
 31
0.0
  0
LINE
  5
318348BA
330
318324AF
100
AcDbEntity
  8
JISSEN
100
AcDbLine
 10
121.489854
 20
122.5575169999999
 30
0.0
 11
123.465625
 21
122.5832879999999
 31
0.0
  0
LINE
  5
318348BB
330
318324AF
100
AcDbEntity
  8
JISSEN
100
AcDbLine
 10
123.180094
 20
119.848008
 30
0.0
 11
121.52831
 21
119.5149419999999
 31
0.0
  0
LINE
  5
318348BC
330
318324AF
100
AcDbEntity
  8
JISSEN
100
AcDbLine
 10
121.4851129999999
 20
121.3308379999999
 30
0.0
 11
122.193172
 21
121.343057
 31
0.0
  0
ARC
  5
318348BD
330
318324AF
100
AcDbEntity
  8
JISSEN
100
AcDbCircle
 10
121.492162
 20
122.380604
 30
0.0
 40
0.176929
100
AcDbArc
 50
90.747294
 51
270.747294
  0
ARC
  5
318348BE
330
318324AF
100
AcDbEntity
  8
JISSEN
100
AcDbCircle
 10
121.483036
 20
121.49006
 30
0.0
 40
0.159236
100
AcDbArc
 50
90.747294
 51
271.229937
  0
LINE
  5
318348BF
330
318324AF
100
AcDbEntity
  8
JISSEN
100
AcDbLine
 10
121.4669479999999
 20
119.8633169999999
 30
0.0
 11
122.193172
 21
120.007436
 31
0.0
  0
ARC
  5
318348C0
330
318324AF
100
AcDbEntity
  8
JISSEN
100
AcDbCircle
 10
121.493099
 20
119.6883319999999
 30
0.0
 40
0.176929
100
AcDbArc
 50
98.49991000000001
 51
281.479149
  0
LINE
  5
318348C1
330
318324AF
100
AcDbEntity
  8
JISSEN
100
AcDbLine
 10
122.193172
 20
121.343057
 30
0.0
 11
122.193172
 21
120.007436
 31
0.0
  0
ARC
  5
318348C2
330
318324AF
100
AcDbEntity
  8
JISSEN
100
AcDbCircle
 10
123.040974
 20
121.5169449999999
 30
0.0
 40
0.159236
100
AcDbArc
 50
270.747294
 51
90.747294
  0
ARC
  5
318348C3
330
318324AF
100
AcDbEntity
  8
JISSEN
100
AcDbCircle
 10
123.612629
 20
122.989727
 30
0.0
 40
0.176929
100
AcDbArc
 50
4.280345999999999
 51
184.2803459999999
  0
LINE
  5
318348C4
330
318324AF
100
AcDbEntity
  8
JISSEN
100
AcDbLine
 10
122.5412639999999
 20
121.3490629999999
 30
0.0
 11
123.043051
 21
121.3577219999999
 31
0.0
  0
ARC
  5
318348C5
330
318324AF
100
AcDbEntity
  8
JISSEN
100
AcDbCircle
 10
135.4653659999999
 20
123.4392729999999
 30
0.0
 40
12.031145
100
AcDbArc
 50
185.7696699999999
 51
192.5111729999999
  0
LINE
  5
318348C6
330
318324AF
100
AcDbEntity
  8
JISSEN
100
AcDbLine
 10
123.465625
 20
122.5832879999999
 30
0.0
 11
123.436194
 21
122.9765209999999
 31
0.0
  0
ARC
  5
318348C7
330
318324AF
100
AcDbEntity
  8
JISSEN
100
AcDbCircle
 10
123.1055389999999
 20
120.008461
 30
0.0
 40
0.176929
100
AcDbArc
 50
294.9220049999999
 51
104.763763
  0
LINE
  5
318348C8
330
318324AF
100
AcDbEntity
  8
JISSEN
100
AcDbLine
 10
122.5412639999999
 20
120.0765149999999
 30
0.0
 11
123.0604519999999
 21
120.1795479999999
 31
0.0
  0
LINE
  5
318348C9
330
318324AF
100
AcDbEntity
  8
JISSEN
100
AcDbLine
 10
122.5412639999999
 20
120.0765149999999
 30
0.0
 11
122.5412639999999
 21
121.3490629999999
 31
0.0
  0
ARC
  5
318348CA
330
318324AF
100
AcDbEntity
  8
JISSEN
100
AcDbCircle
 10
122.885252
 20
128.882412
 30
0.0
 40
7.380656
100
AcDbArc
 50
293.249566
 51
308.7741999999999
  0
ARC
  5
318348CB
330
318324AF
100
AcDbEntity
  8
JISSEN
100
AcDbCircle
 10
122.495561
 20
129.2580489999999
 30
0.0
 40
8.236148
100
AcDbArc
 50
294.7497809999999
 51
308.453137
  0
LINE
  5
318348CC
330
318324AF
100
AcDbEntity
  8
JISSEN
100
AcDbLine
 10
126.666816
 20
122.085696
 30
0.0
 11
128.568002
 21
122.085696
 31
0.0
  0
LINE
  5
318348CD
330
318324AF
100
AcDbEntity
  8
JISSEN
100
AcDbLine
 10
126.9622679999999
 20
120.894687
 30
0.0
 11
125.954842
 21
120.894687
 31
0.0
  0
LINE
  5
318348CE
330
318324AF
100
AcDbEntity
  8
JISSEN
100
AcDbLine
 10
126.9622679999999
 20
120.894687
 30
0.0
 11
126.542159
 21
119.8918469999999
 31
0.0
  0
LINE
  5
318348CF
330
318324AF
100
AcDbEntity
  8
JISSEN
100
AcDbLine
 10
125.954842
 20
121.248544
 30
0.0
 11
129.279976
 21
121.248544
 31
0.0
  0
LINE
  5
318348D0
330
318324AF
100
AcDbEntity
  8
JISSEN
100
AcDbLine
 10
128.920484
 20
119.6906939999999
 30
0.0
 11
126.1412399999999
 21
119.5113879999999
 31
0.0
  0
LINE
  5
318348D1
330
318324AF
100
AcDbEntity
  8
JISSEN
100
AcDbLine
 10
128.5361959999999
 20
121.734721
 30
0.0
 11
126.6986219999999
 21
121.734721
 31
0.0
  0
ARC
  5
318348D2
330
318324AF
100
AcDbEntity
  8
JISSEN
100
AcDbCircle
 10
124.9398009999999
 20
122.425573
 30
0.0
 40
0.176929
100
AcDbArc
 50
270.747294
 51
90.747294
  0
ARC
  5
318348D3
330
318324AF
100
AcDbEntity
  8
JISSEN
100
AcDbCircle
 10
124.992303
 20
120.539628
 30
0.0
 40
0.176929
100
AcDbArc
 50
0.0
 51
165.703814
  0
ARC
  5
318348D4
330
318324AF
100
AcDbEntity
  8
JISSEN
100
AcDbCircle
 10
124.268062
 20
123.0334779999999
 30
0.0
 40
0.12385
100
AcDbArc
 50
55.255209
 51
235.2552089999999
  0
ARC
  5
318348D5
330
318324AF
100
AcDbEntity
  8
JISSEN
100
AcDbCircle
 10
125.059025
 20
124.173868
 30
0.0
 40
1.511694
100
AcDbArc
 50
235.2552089999999
 51
254.4100629999999
  0
ARC
  5
318348D6
330
318324AF
100
AcDbEntity
  8
JISSEN
100
AcDbCircle
 10
135.4653659999999
 20
123.4392729999999
 30
0.0
 40
11.677287
100
AcDbArc
 50
185.9222729999999
 51
193.2451309999999
  0
ARC
  5
318348D7
330
318324AF
100
AcDbEntity
  8
JISSEN
100
AcDbCircle
 10
125.059025
 20
124.173868
 30
0.0
 40
1.263994
100
AcDbArc
 50
235.2552089999999
 51
254.4100629999999
  0
ARC
  5
318348D8
330
318324AF
100
AcDbEntity
  8
JISSEN
100
AcDbCircle
 10
124.6860409999999
 20
122.837083
 30
0.0
 40
0.12385
100
AcDbArc
 50
254.4100629999999
 51
74.41006299999999
  0
LINE
  5
318348D9
330
318324AF
100
AcDbEntity
  8
JISSEN
100
AcDbLine
 10
124.942109
 20
122.248659
 30
0.0
 11
123.850403
 21
122.2344199999999
 31
0.0
  0
LINE
  5
318348DA
330
318324AF
100
AcDbEntity
  8
JISSEN
100
AcDbLine
 10
123.820126
 20
122.587912
 30
0.0
 11
124.937494
 21
122.602486
 31
0.0
  0
ARC
  5
318348DB
330
318324AF
100
AcDbEntity
  8
JISSEN
100
AcDbCircle
 10
122.1201459999999
 20
120.6447519999999
 30
0.0
 40
3.060865
100
AcDbArc
 50
341.0698759999999
 51
354.971857
  0
ARC
  5
318348DC
330
318324AF
100
AcDbEntity
  8
JISSEN
100
AcDbCircle
 10
124.397625
 20
119.940767
 30
0.0
 40
0.682091
100
AcDbArc
 50
312.5373009999999
 51
334.931325
  0
ARC
  5
318348DD
330
318324AF
100
AcDbEntity
  8
JISSEN
100
AcDbCircle
 10
124.891929
 20
120.4002449999999
 30
0.0
 40
1.0296
100
AcDbArc
 50
239.0593979999999
 51
258.4394209999999
  0
ARC
  5
318348DE
330
318324AF
100
AcDbEntity
  8
JISSEN
100
AcDbCircle
 10
124.600715
 20
120.0680769999999
 30
0.0
 40
0.141543
100
AcDbArc
 50
228.670014
 51
336.598901
  0
ARC
  5
318348DF
330
318324AF
100
AcDbEntity
  8
JISSEN
100
AcDbCircle
 10
124.7272549999999
 20
119.581643
 30
0.0
 40
0.194621
100
AcDbArc
 50
257.639181
 51
312.510758
  0
LINE
  5
318348E0
330
318324AF
100
AcDbEntity
  8
JISSEN
100
AcDbLine
 10
125.169232
 20
120.539628
 30
0.0
 11
125.169232
 21
120.376483
 31
0.0
  0
ARC
  5
318348E1
330
318324AF
100
AcDbEntity
  8
JISSEN
100
AcDbCircle
 10
120.73131
 20
120.9362389999999
 30
0.0
 40
4.104743
100
AcDbArc
 50
346.985512
 51
355.067682
  0
ARC
  5
318348E2
330
318324AF
100
AcDbEntity
  8
JISSEN
100
AcDbCircle
 10
127.39865
 20
121.939684
 30
0.0
 40
3.503185999999999
100
AcDbArc
 50
199.612761
 51
214.374427
  0
ARC
  5
318348E3
330
318324AF
100
AcDbEntity
  8
JISSEN
100
AcDbCircle
 10
126.6986219999999
 20
121.9116499999999
 30
0.0
 40
0.176929
100
AcDbArc
 50
100.3561619999999
 51
270.0
  0
LINE
  5
318348E4
330
318324AF
100
AcDbEntity
  8
JISSEN
100
AcDbLine
 10
126.118458
 20
119.864511
 30
0.0
 11
126.542159
 21
119.8918469999999
 31
0.0
  0
ARC
  5
318348E5
330
318324AF
100
AcDbEntity
  8
JISSEN
100
AcDbCircle
 10
126.1298489999999
 20
119.68795
 30
0.0
 40
0.176929
100
AcDbArc
 50
93.69138600000001
 51
273.6913859999999
  0
ARC
  5
318348E6
330
318324AF
100
AcDbEntity
  8
JISSEN
100
AcDbCircle
 10
125.954842
 20
121.071616
 30
0.0
 40
0.176929
100
AcDbArc
 50
90.0
 51
270.0
  0
ARC
  5
318348E7
330
318324AF
100
AcDbEntity
  8
JISSEN
100
AcDbCircle
 10
125.867339
 20
121.9380479999999
 30
0.0
 40
0.176929
100
AcDbArc
 50
112.8374199999999
 51
295.559963
  0
ARC
  5
318348E8
330
318324AF
100
AcDbEntity
  8
JISSEN
100
AcDbCircle
 10
132.087513
 20
128.4464419999999
 30
0.0
 40
6.876991
100
AcDbArc
 50
230.6947529999999
 51
247.322649
  0
ARC
  5
318348E9
330
318324AF
100
AcDbEntity
  8
JISSEN
100
AcDbCircle
 10
131.7734689999999
 20
127.688276
 30
0.0
 40
6.410003999999999
100
AcDbArc
 50
229.581114
 51
247.2158919999999
  0
LINE
  5
318348EA
330
318324AF
100
AcDbEntity
  8
JISSEN
100
AcDbLine
 10
126.954725
 20
119.9184639999999
 30
0.0
 11
128.588818
 21
120.0238889999999
 31
0.0
  0
LINE
  5
318348EB
330
318324AF
100
AcDbEntity
  8
JISSEN
100
AcDbLine
 10
128.392099
 20
120.221515
 30
0.0
 11
128.588818
 21
120.0238889999999
 31
0.0
  0
LINE
  5
318348EC
330
318324AF
100
AcDbEntity
  8
JISSEN
100
AcDbLine
 10
129.279976
 20
120.894687
 30
0.0
 11
127.329475
 21
120.894687
 31
0.0
  0
ARC
  5
318348ED
330
318324AF
100
AcDbEntity
  8
JISSEN
100
AcDbCircle
 10
128.49614
 20
120.364621
 30
0.0
 40
0.176929
100
AcDbArc
 50
53.98205299999999
 51
233.982053
  0
LINE
  5
318348EE
330
318324AF
100
AcDbEntity
  8
JISSEN
100
AcDbLine
 10
126.954725
 20
119.9184639999999
 30
0.0
 11
127.329475
 21
120.894687
 31
0.0
  0
ARC
  5
318348EF
330
318324AF
100
AcDbEntity
  8
JISSEN
100
AcDbCircle
 10
127.617409
 20
122.989727
 30
0.0
 40
0.176929
100
AcDbArc
 50
49.943061
 51
128.44199
  0
LINE
  5
318348F0
330
318324AF
100
AcDbEntity
  8
JISSEN
100
AcDbLine
 10
128.920484
 20
119.6906939999999
 30
0.0
 11
129.2631189999999
 21
119.34648
 31
0.0
  0
LINE
  5
318348F1
330
318324AF
100
AcDbEntity
  8
JISSEN
100
AcDbLine
 10
128.6001809999999
 20
120.507726
 30
0.0
 11
129.5107429999999
 21
119.5929669999999
 31
0.0
  0
ARC
  5
318348F2
330
318324AF
100
AcDbEntity
  8
JISSEN
100
AcDbCircle
 10
128.5361959999999
 20
121.9116499999999
 30
0.0
 40
0.176929
100
AcDbArc
 50
270.0
 51
79.643838
  0
ARC
  5
318348F3
330
318324AF
100
AcDbEntity
  8
JISSEN
100
AcDbCircle
 10
129.36716
 20
119.4895849999999
 30
0.0
 40
0.176929
100
AcDbArc
 50
215.7544009999999
 51
35.754401
  0
ARC
  5
318348F4
330
318324AF
100
AcDbEntity
  8
JISSEN
100
AcDbCircle
 10
129.279976
 20
121.071616
 30
0.0
 40
0.176929
100
AcDbArc
 50
270.0
 51
90.0
  0
ARC
  5
318348F5
330
318324AF
100
AcDbEntity
  8
JISSEN
100
AcDbCircle
 10
129.36748
 20
121.9380479999999
 30
0.0
 40
0.176929
100
AcDbArc
 50
244.4359879999999
 51
67.16258
  0
LINE
  5
318348F6
330
318324AF
100
AcDbEntity
  8
JISSEN
100
AcDbLine
 10
133.0357999999999
 20
122.3566319999999
 30
0.0
 11
133.6989049999999
 21
122.3566319999999
 31
0.0
  0
LINE
  5
318348F7
330
318324AF
100
AcDbEntity
  8
JISSEN
100
AcDbLine
 10
133.0357999999999
 20
119.80652
 30
0.0
 11
133.786409
 21
119.80652
 31
0.0
  0
LINE
  5
318348F8
330
318324AF
100
AcDbEntity
  8
JISSEN
100
AcDbLine
 10
131.808829
 20
119.452662
 30
0.0
 11
133.786409
 21
119.452662
 31
0.0
  0
LINE
  5
318348F9
330
318324AF
100
AcDbEntity
  8
JISSEN
100
AcDbLine
 10
133.6989049999999
 20
122.002775
 30
0.0
 11
133.0357999999999
 21
122.002775
 31
0.0
  0
LINE
  5
318348FA
330
318324AF
100
AcDbEntity
  8
JISSEN
100
AcDbLine
 10
131.2069759999999
 20
122.439807
 30
0.0
 11
131.810373
 21
122.4394149999999
 31
0.0
  0
ARC
  5
318348FB
330
318324AF
100
AcDbEntity
  8
JISSEN
100
AcDbCircle
 10
128.111243
 20
124.0041759999999
 30
0.0
 40
4.140217999999999
100
AcDbArc
 50
322.4364879999999
 51
335.9242709999999
  0
LINE
  5
318348FC
330
318324AF
100
AcDbEntity
  8
JISSEN
100
AcDbLine
 10
131.975136
 20
120.611721
 30
0.0
 11
131.2069759999999
 21
121.177734
 31
0.0
  0
LINE
  5
318348FD
330
318324AF
100
AcDbEntity
  8
JISSEN
100
AcDbLine
 10
131.3931029999999
 20
121.480131
 30
0.0
 11
132.185043
 21
120.896596
 31
0.0
  0
LINE
  5
318348FE
330
318324AF
100
AcDbEntity
  8
JISSEN
100
AcDbLine
 10
130.8531189999999
 20
120.8992459999999
 30
0.0
 11
130.8531189999999
 21
119.4895849999999
 31
0.0
  0
LINE
  5
318348FF
330
318324AF
100
AcDbEntity
  8
JISSEN
100
AcDbLine
 10
131.2069759999999
 20
122.439807
 30
0.0
 11
131.2069759999999
 21
122.989727
 31
0.0
  0
ARC
  5
31834900
330
318324AF
100
AcDbEntity
  8
JISSEN
100
AcDbCircle
 10
128.052558
 20
124.0440419999999
 30
0.0
 40
4.211041999999999
100
AcDbArc
 50
302.878514
 51
311.686283
  0
LINE
  5
31834901
330
318324AF
100
AcDbEntity
  8
JISSEN
100
AcDbLine
 10
130.3300189999999
 20
122.086519
 30
0.0
 11
131.376107
 21
122.086519
 31
0.0
  0
ARC
  5
31834902
330
318324AF
100
AcDbEntity
  8
JISSEN
100
AcDbCircle
 10
128.052558
 20
124.0440419999999
 30
0.0
 40
3.857184999999999
100
AcDbArc
 50
302.878514
 51
329.502519
  0
LINE
  5
31834903
330
318324AF
100
AcDbEntity
  8
JISSEN
100
AcDbLine
 10
130.330249
 20
122.4403759999999
 30
0.0
 11
130.8531189999999
 21
122.440036
 31
0.0
  0
LINE
  5
31834904
330
318324AF
100
AcDbEntity
  8
JISSEN
100
AcDbLine
 10
130.8531189999999
 20
122.989727
 30
0.0
 11
130.8531189999999
 21
122.440036
 31
0.0
  0
LINE
  5
31834905
330
318324AF
100
AcDbEntity
  8
JISSEN
100
AcDbLine
 10
131.2069759999999
 20
119.4895849999999
 30
0.0
 11
131.2069759999999
 21
121.177734
 31
0.0
  0
ARC
  5
31834906
330
318324AF
100
AcDbEntity
  8
JISSEN
100
AcDbCircle
 10
131.030047
 20
119.4895849999999
 30
0.0
 40
0.176929
100
AcDbArc
 50
180.0
 51
0.0
  0
ARC
  5
31834907
330
318324AF
100
AcDbEntity
  8
JISSEN
100
AcDbCircle
 10
130.2425149999999
 20
120.656099
 30
0.0
 40
0.176929
100
AcDbArc
 50
122.878514
 51
302.878514
  0
ARC
  5
31834908
330
318324AF
100
AcDbEntity
  8
JISSEN
100
AcDbCircle
 10
130.3300189999999
 20
122.263447
 30
0.0
 40
0.176929
100
AcDbArc
 50
89.925625
 51
270.0
  0
ARC
  5
31834909
330
318324AF
100
AcDbEntity
  8
JISSEN
100
AcDbCircle
 10
131.030047
 20
122.989727
 30
0.0
 40
0.176929
100
AcDbArc
 50
0.0
 51
180.0
  0
ARC
  5
3183490A
330
318324AF
100
AcDbEntity
  8
JISSEN
100
AcDbCircle
 10
131.810373
 20
122.3509509999999
 30
0.0
 40
0.088464
100
AcDbArc
 50
336.163326
 51
90.00001500000001
  0
LINE
  5
3183490B
330
318324AF
100
AcDbEntity
  8
JISSEN
100
AcDbLine
 10
132.6819419999999
 20
122.002775
 30
0.0
 11
132.6819419999999
 21
119.80652
 31
0.0
  0
LINE
  5
3183490C
330
318324AF
100
AcDbEntity
  8
JISSEN
100
AcDbLine
 10
133.0357999999999
 20
122.002775
 30
0.0
 11
133.0357999999999
 21
119.80652
 31
0.0
  0
LINE
  5
3183490D
330
318324AF
100
AcDbEntity
  8
JISSEN
100
AcDbLine
 10
132.6819419999999
 20
122.002775
 30
0.0
 11
132.183335
 21
122.002775
 31
0.0
  0
LINE
  5
3183490E
330
318324AF
100
AcDbEntity
  8
JISSEN
100
AcDbLine
 10
133.0357999999999
 20
122.989727
 30
0.0
 11
133.0357999999999
 21
122.3566319999999
 31
0.0
  0
LINE
  5
3183490F
330
318324AF
100
AcDbEntity
  8
JISSEN
100
AcDbLine
 10
132.6819419999999
 20
122.989727
 30
0.0
 11
132.6819419999999
 21
122.3566319999999
 31
0.0
  0
LINE
  5
31834910
330
318324AF
100
AcDbEntity
  8
JISSEN
100
AcDbLine
 10
131.808829
 20
119.80652
 30
0.0
 11
132.6819419999999
 21
119.80652
 31
0.0
  0
LINE
  5
31834911
330
318324AF
100
AcDbEntity
  8
JISSEN
100
AcDbLine
 10
132.183335
 20
122.3566319999999
 30
0.0
 11
132.6819419999999
 21
122.3566319999999
 31
0.0
  0
ARC
  5
31834912
330
318324AF
100
AcDbEntity
  8
JISSEN
100
AcDbCircle
 10
131.808829
 20
119.6295909999999
 30
0.0
 40
0.176929
100
AcDbArc
 50
90.0
 51
270.0
  0
ARC
  5
31834913
330
318324AF
100
AcDbEntity
  8
JISSEN
100
AcDbCircle
 10
132.858871
 20
122.989727
 30
0.0
 40
0.176929
100
AcDbArc
 50
0.0
 51
180.0
  0
ARC
  5
31834914
330
318324AF
100
AcDbEntity
  8
JISSEN
100
AcDbCircle
 10
132.183335
 20
122.179703
 30
0.0
 40
0.176929
100
AcDbArc
 50
90.0
 51
270.0
  0
ARC
  5
31834915
330
318324AF
100
AcDbEntity
  8
JISSEN
100
AcDbCircle
 10
132.0800899999999
 20
120.7541589999999
 30
0.0
 40
0.176929
100
AcDbArc
 50
233.615648
 51
53.615648
  0
ARC
  5
31834916
330
318324AF
100
AcDbEntity
  8
JISSEN
100
AcDbCircle
 10
133.786409
 20
119.6295909999999
 30
0.0
 40
0.176929
100
AcDbArc
 50
270.0
 51
90.0
  0
ARC
  5
31834917
330
318324AF
100
AcDbEntity
  8
JISSEN
100
AcDbCircle
 10
133.6989049999999
 20
122.179703
 30
0.0
 40
0.176929
100
AcDbArc
 50
270.0
 51
90.0
  0
ARC
  5
31834918
330
318324AF
100
AcDbEntity
  8
JISSEN
100
AcDbCircle
 10
108.250051
 20
124.189236
 30
0.0
 40
4.435119999999999
100
AcDbArc
 50
271.2911169999999
 51
288.041905
  0
CIRCLE
  5
31834919
102
{ACAD_REACTORS
330
31834936
102
}
330
318324AF
100
AcDbEntity
  8
JISSEN
100
AcDbCircle
 10
72.182924
 20
121.1094399999999
 30
0.0
 40
2.998365
  0
HATCH
  5
3183491A
330
318324AF
100
AcDbEntity
  8
JISSEN
100
AcDbHatch
 10
0.0
 20
0.0
 30
0.0
210
0.0
220
0.0
230
1.0
  2
SOLID
 70
     1
 71
     0
 91
        1
 92
        7
 72
     1
 73
     1
 93
       16
 10
133.0357996265973
 20
122.0027747966594
 42
0.0
 10
133.6989049673352
 20
122.0027747966594
 42
1.0
 10
133.6989049673352
 20
122.3566319914207
 42
0.0
 10
133.0357996265972
 20
122.3566319914207
 42
0.0
 10
133.0357996265972
 20
122.9897266586739
 42
1.0
 10
132.681942431836
 20
122.9897266586739
 42
0.0
 10
132.681942431836
 20
122.3566319914207
 42
0.0
 10
132.1833350055807
 20
122.3566319914207
 42
1.0
 10
132.1833350055807
 20
122.0027747966594
 42
0.0
 10
132.6819424318361
 20
122.0027747966594
 42
0.0
 10
132.681942431836
 20
119.8065195035804
 42
0.0
 10
131.8088286065685
 20
119.8065195035804
 42
1.0
 10
131.8088286065685
 20
119.4526623088193
 42
0.0
 10
133.7864085025559
 20
119.4526623088193
 42
1.0
 10
133.7864085025559
 20
119.8065195035804
 42
0.0
 10
133.0357996265973
 20
119.8065195035804
 42
0.0
 97
        0
 75
     0
 76
     1
 47
0.007087
 98
        1
 10
132.874005
 20
121.7821449999999
  0
HATCH
  5
3183491B
330
318324AF
100
AcDbEntity
  8
JISSEN
100
AcDbHatch
 10
0.0
 20
0.0
 30
0.0
210
0.0
220
0.0
230
1.0
  2
SOLID
 70
     1
 71
     0
 91
        1
 92
        7
 72
     1
 73
     1
 93
        4
 10
128.5680022315545
 20
122.0856959400512
 42
0.0
 10
126.666816307441
 20
122.0856959400512
 42
0.9134763103298622
 10
126.6986221496809
 20
121.7347210356988
 42
0.0
 10
128.536196389315
 20
121.7347210356988
 42
0.9134763103290952
 97
        0
 75
     0
 76
     1
 47
0.006616
 98
        2
 10
11.920498
 20
-25.737553
 10
127.629049
 20
121.9078689999999
  0
HATCH
  5
3183491C
330
318324AF
100
AcDbEntity
  8
JISSEN
100
AcDbHatch
 10
0.0
 20
0.0
 30
0.0
210
0.0
220
0.0
230
1.0
  2
SOLID
 70
     1
 71
     0
 91
        1
 92
        7
 72
     1
 73
     1
 93
       16
 10
129.279976438691
 20
121.2485442923414
 42
0.0
 10
125.9548421003052
 20
121.2485442923414
 42
1.0
 10
125.9548421003052
 20
120.8946870975803
 42
0.0
 10
126.9622675038531
 20
120.8946870975803
 42
0.0
 10
126.5421586393997
 20
119.8918465824335
 42
0.0
 10
126.1184581046042
 20
119.8645110640595
 42
1.0
 10
126.1412402368889
 20
119.5113880136468
 42
0.0
 10
128.9204841931622
 20
119.6906940753418
 42
0.0
 10
129.2631190154327
 20
119.3464795891
 42
0.8523642406427363
 10
129.5107425704131
 20
119.5929667537665
 42
0.0
 10
128.6001810620345
 20
120.5077262628002
 42
1.0
 10
128.3920993623751
 20
120.2215149413067
 42
0.0
 10
128.5888182258932
 20
120.0238891364008
 42
0.0
 10
126.954724935519
 20
119.9184637628283
 42
0.0
 10
127.3294746718625
 20
120.8946870975803
 42
0.0
 10
129.279976438691
 20
120.8946870975803
 42
1.0
 97
        0
 75
     0
 76
     1
 47
0.006616
 98
        1
 10
127.1586939999999
 20
120.952279
  0
HATCH
  5
3183491D
330
318324AF
100
AcDbEntity
  8
JISSEN
100
AcDbHatch
 10
0.0
 20
0.0
 30
0.0
210
0.0
220
0.0
230
1.0
  2
SOLID
 70
     1
 71
     0
 91
        2
 92
        7
 72
     1
 73
     1
 93
        4
 10
124.719325612253
 20
122.9563766929343
 42
-0.0837739739835586
 10
124.3386466495636
 20
123.1352458324423
 42
1.0
 10
124.1974769354789
 20
122.9317110201262
 42
0.0837739739835629
 10
124.6527560669574
 20
122.7177895942922
 42
1.0
 97
        0
 92
        7
 72
     1
 73
     1
 93
       12
 10
123.038897566233
 20
121.6761668478262
 42
0.0
 10
121.4796181634139
 20
121.6492594474072
 42
0.9957969915224039
 10
121.4851129374154
 20
121.3308382031319
 42
0.0
 10
122.1931716886783
 20
121.3430566806581
 42
0.0
 10
122.1931716886783
 20
120.0074364574259
 42
0.0
 10
121.4669475948081
 20
119.8633171832576
 42
1.024929633468729
 10
121.5278320760782
 20
119.5148460909593
 42
0.0
 10
123.1800938812582
 20
119.848007601678
 42
0.9150617575182902
 10
123.0604515127415
 20
120.1795482612063
 42
0.0
 10
122.5412643026219
 20
120.076515485908
 42
0.0
 10
122.5412643026217
 20
121.3490634728528
 42
0.0
 10
123.0443923402311
 20
121.3577456035507
 42
0.9957969915586694
 97
        0
 75
     0
 76
     1
 47
0.016307
 98
        2
 10
124.5709659999999
 20
122.910909
 10
122.400157
 20
121.443265
  0
HATCH
  5
3183491E
330
318324AF
100
AcDbEntity
  8
JISSEN
100
AcDbHatch
 10
0.0
 20
0.0
 30
0.0
210
0.0
220
0.0
230
1.0
  2
SOLID
 70
     1
 71
     0
 91
        2
 92
        7
 72
     1
 73
     1
 93
       32
 10
119.6302580307893
 20
123.0072273657182
 42
1.0
 10
119.2764008360279
 20
123.0072273657182
 42
0.0
 10
119.2764008360279
 20
122.6066326306422
 42
0.0
 10
118.7685675156964
 20
122.6066326306422
 42
0.0240119762518538
 10
118.8368286546179
 20
122.8860301865223
 42
1.0
 10
118.489447210515
 20
122.9534174744725
 42
-0.0744939865443749
 10
118.2280850151033
 20
122.215308231885
 42
1.0
 10
118.5404656983365
 20
122.0490757951375
 42
0.018893628001337
 10
118.6391781910097
 20
122.252775435881
 42
0.0
 10
119.2764008360279
 20
122.252775435881
 42
0.0
 10
119.2764008360279
 20
121.7315972784354
 42
0.0
 10
118.5170416065474
 20
121.7315972784354
 42
1.0
 10
118.5170416065474
 20
121.3777400836743
 42
0.0
 10
119.2764008360279
 20
121.3777400836743
 42
0.0
 10
119.2764008360279
 20
121.2925089421833
 42
-0.0755760372102188
 10
118.1380562921626
 20
119.7732588494023
 42
1.0
 10
118.3861333535068
 20
119.5209243770858
 42
0.0526541417582757
 10
119.2764008360279
 20
120.6024697002596
 42
0.0
 10
119.2764008360279
 20
119.4720845428026
 42
1.0
 10
119.6302580307893
 20
119.4720845428026
 42
0.0
 10
119.6302580307893
 20
120.6024697002595
 42
0.0521155331981437
 10
120.510317839588
 20
119.5309814134511
 42
1.0
 10
120.7589364781876
 20
119.7827823007117
 42
-0.0750358565569809
 10
119.6302580307893
 20
121.2925089421833
 42
0.0
 10
119.6302580307893
 20
121.3777400836743
 42
0.0
 10
120.5121222095789
 20
121.3777400836743
 42
1.0
 10
120.5121222095789
 20
121.7315972784354
 42
0.0
 10
119.6302580307893
 20
121.7315972784354
 42
0.0
 10
119.6302580307893
 20
122.252775435881
 42
0.0
 10
120.4596200884465
 20
122.252775435881
 42
1.0
 10
120.4596200884465
 20
122.6066326306422
 42
0.0
 10
119.6302580307893
 20
122.6066326306422
 42
0.0
 97
        0
 92
        7
 72
     1
 73
     1
 93
       21
 10
117.7401816700226
 20
122.0128264339972
 42
0.0
 10
117.7401816700226
 20
122.0952690724837
 42
0.0
 10
118.0007707487454
 20
122.0952690724839
 42
1.0
 10
118.0007707487454
 20
122.4491262672451
 42
0.0
 10
117.7401816700226
 20
122.4491262672451
 42
0.0
 10
117.7401816700226
 20
123.0072273657182
 42
1.0
 10
117.3863244752614
 20
123.0072273657182
 42
0.0
 10
117.3863244752614
 20
122.4491262672451
 42
0.0
 10
117.0032304472296
 20
122.449126267245
 42
1.0
 10
117.0032304472296
 20
122.0952690724837
 42
0.0
 10
117.3863244752614
 20
122.0952690724837
 42
0.0
 10
117.3863244752614
 20
122.0195971204389
 42
-0.0830824722139891
 10
116.8089317375345
 20
120.5929443050319
 42
1.035272490065942
 10
117.0995133636999
 20
120.3913831725525
 42
0.0242415737383114
 10
117.3350550267758
 20
120.8166271354563
 42
-0.8934343943462184
 10
117.3863244752614
 20
120.8069725656253
 42
0.0
 10
117.3863244752614
 20
119.4720845428026
 42
1.0
 10
117.7401816700226
 20
119.4720845428026
 42
0.0
 10
117.7401816700226
 20
121.2275111832309
 42
0.0185920304201666
 10
118.0115712776856
 20
120.7907422328178
 42
1.0
 10
118.3049829443667
 20
120.9885413939374
 42
-0.0446446713564778
 97
        0
 75
     0
 76
     1
 47
0.013201
 98
        2
 10
119.382421
 20
122.6020569999999
 10
117.6514669999999
 20
121.664752
  0
HATCH
  5
3183491F
330
318324AF
100
AcDbEntity
  8
JISSEN
100
AcDbHatch
 10
0.0
 20
0.0
 30
0.0
210
0.0
220
0.0
230
1.0
  2
SOLID
 70
     1
 71
     0
 91
        1
 92
        7
 72
     1
 73
     1
 93
       27
 10
85.07545157352524
 20
122.4666269742892
 42
0.0
 10
84.10922446025853
 20
122.4666269742892
 42
-0.4158095586498478
 10
84.08565416744199
 20
122.5103074387408
 42
0.2065484599052972
 10
84.06197655106399
 20
122.7169658936939
 42
0.0
 10
83.75789674947554
 20
123.0997742437766
 42
1.0
 10
83.48081728373228
 20
122.8796790735714
 42
0.0
 10
83.7283972290472
 20
122.5679988176501
 42
-0.6580911897476735
 10
83.67958479696723
 20
122.4666269742892
 42
0.0
 10
82.7128561225669
 20
122.4666269742892
 42
1.0
 10
82.7128561225669
 20
122.1127697795279
 42
0.0
 10
83.7201075410743
 20
122.1127697795279
 42
0.0
 10
83.7201075410743
 20
121.2240767741555
 42
0.0
 10
82.75660789017724
 20
121.2240767741555
 42
1.0
 10
82.75660789017724
 20
120.8702195793943
 42
0.0
 10
83.72010754107433
 20
120.8702195793943
 42
0.0
 10
83.7201075410743
 20
119.8065195035804
 42
0.0
 10
82.63410294086829
 20
119.8065195035804
 42
1.0
 10
82.63410294086829
 20
119.4526623088193
 42
0.0
 10
85.15420475522388
 20
119.4526623088193
 42
1.0
 10
85.15420475522388
 20
119.8065195035804
 42
0.0
 10
84.07396473583558
 20
119.8065195035804
 42
0.0
 10
84.07396473583558
 20
120.8702195793943
 42
0.0
 10
85.03169980591485
 20
120.8702195793943
 42
1.0
 10
85.03169980591485
 20
121.2240767741555
 42
0.0
 10
84.07396473583558
 20
121.2240767741555
 42
0.0
 10
84.07396473583558
 20
122.1127697795279
 42
0.0
 10
85.07545157352524
 20
122.1127697795279
 42
1.0
 97
        0
 75
     0
 76
     1
 47
0.015465
 98
        1
 10
83.87583199999999
 20
122.246606
  0
HATCH
  5
31834920
330
318324AF
100
AcDbEntity
  8
JISSEN
100
AcDbHatch
 10
0.0
 20
0.0
 30
0.0
210
0.0
220
0.0
230
1.0
  2
SOLID
 70
     1
 71
     0
 91
        1
 92
        7
 72
     1
 73
     1
 93
       14
 10
89.12779234763597
 20
122.5883414855736
 42
0.4724894633950112
 10
88.86741875766018
 20
122.9051054138622
 42
0.0
 10
86.6028626063454
 20
122.9041445866907
 42
0.9995758004204972
 10
86.60301274417554
 20
122.5502874556314
 42
0.0
 10
88.64577305655343
 20
122.5502874556314
 42
-0.5371458864296002
 10
88.73854571354108
 20
122.4376689273647
 42
-0.0927192584784831
 10
88.28563072008533
 20
121.3852183831777
 42
-0.1510497082821364
 10
86.18797970328916
 20
119.7267389886967
 42
0.9783595634148667
 10
86.31075815126553
 20
119.3949552454961
 42
0.1129901366452132
 10
88.18071660559263
 20
120.6542298599764
 42
0.0
 10
89.4733798107287
 20
119.4477442018495
 42
1.0
 10
89.71482303273546
 20
119.7064333682854
 42
0.0
 10
88.41365274061272
 20
120.9208589742665
 42
0.0119111895992058
 10
88.56104984185572
 20
121.1110977284304
 42
0.1099553502579601
 97
        0
 75
     0
 76
     1
 47
0.021845
 98
        1
 10
88.91459000000001
 20
122.406984
  0
HATCH
  5
31834921
330
318324AF
100
AcDbEntity
  8
JISSEN
100
AcDbHatch
 10
0.0
 20
0.0
 30
0.0
210
0.0
220
0.0
230
1.0
  2
SOLID
 70
     1
 71
     0
 91
        1
 92
        7
 72
     1
 73
     1
 93
        4
 10
95.3389667211622
 20
122.9897266586739
 42
1.0
 10
94.98510952640094
 20
122.9897266586739
 42
0.0
 10
94.98510952640094
 20
121.0646488838191
 42
1.0
 10
95.3389667211622
 20
121.0646488838191
 42
0.0
 97
        0
 75
     0
 76
     1
 47
0.011264
 98
        1
 10
95.15315499999999
 20
121.972696
  0
LINE
  5
31834922
330
318324AF
100
AcDbEntity
  8
JISSEN
100
AcDbLine
 10
99.290915
 20
122.6049409999999
 30
0.0
 11
99.30003200000001
 21
122.601002
 31
0.0
  0
LINE
  5
31834923
330
318324AF
100
AcDbEntity
  8
JISSEN
100
AcDbLine
 10
100.311951
 20
122.1292899999999
 30
0.0
 11
100.298657
 21
122.1357919999999
 31
0.0
  0
LINE
  5
31834924
330
318324AF
100
AcDbEntity
  8
JISSEN
100
AcDbLine
 10
99.43736000000001
 20
122.9270719999999
 30
0.0
 11
99.45245400000001
 21
122.9220729999999
 31
0.0
  0
HATCH
  5
31834925
330
318324AF
100
AcDbEntity
  8
JISSEN
100
AcDbHatch
 10
0.0
 20
0.0
 30
0.0
210
0.0
220
0.0
230
1.0
  2
SOLID
 70
     1
 71
     0
 91
        2
 92
        7
 72
     1
 73
     1
 93
        7
 10
99.45245429439131
 20
122.9220732053165
 42
0.0
 10
99.4373599852118
 20
122.9270720232922
 42
1.0
 10
99.29091453777108
 20
122.6049406134481
 42
0.0
 10
99.30003193150035
 20
122.6010020977805
 42
-0.0235585019510474
 10
100.2986567123548
 20
122.1357921841989
 42
0.0
 10
100.3119505268929
 20
122.1292904259404
 42
1.0
 10
100.4583959743337
 20
122.4514218357845
 42
0.0227284456324398
 97
        0
 92
        7
 72
     1
 73
     1
 93
        4
 10
102.5945557086095
 20
122.3316994706518
 42
1.0
 10
102.2520055503937
 20
122.4204367423628
 42
-0.3208737530023442
 10
99.1794346139634
 20
119.8516702691367
 42
1.0
 10
99.20606827087887
 20
119.4988168114469
 42
0.3208737530023464
 97
        0
 75
     0
 76
     1
 47
0.015284
 98
        2
 10
99.88230000000001
 20
122.589282
 10
100.509497
 20
120.036903
  0
LINE
  5
31834926
330
318324AF
100
AcDbEntity
  8
JISSEN
100
AcDbLine
 10
124.2791629999999
 20
119.5843629999999
 30
0.0
 11
124.362561
 21
119.517157
 31
0.0
  0
HATCH
  5
31834927
330
318324AF
100
AcDbEntity
  8
JISSEN
100
AcDbHatch
 10
0.0
 20
0.0
 30
0.0
210
0.0
220
0.0
230
1.0
  2
SOLID
 70
     1
 71
     0
 91
        1
 92
        7
 72
     1
 73
     1
 93
       22
 10
124.9374935237191
 20
122.6024863904516
 42
0.0
 10
123.8201260677046
 20
122.5879120323297
 42
0.0
 10
123.7890637191495
 20
123.0029320197634
 42
1.0
 10
123.4361935049939
 20
122.9765212975844
 42
0.0
 10
123.4656252113323
 20
122.5832881081162
 42
0.0
 10
121.4898542360244
 20
122.5575171823513
 42
1.0
 10
121.4944693720765
 20
122.2036900850232
 42
0.0
 10
123.4951707172605
 20
122.2297861895256
 42
0.029423839587238
 10
123.7199158734346
 20
120.8329661440564
 42
0.0831853873256743
 10
124.2791631867818
 20
119.5843626343273
 42
0.0
 10
124.3625610887764
 20
119.5171568574187
 42
0.0847634343963806
 10
124.6855931513177
 20
119.3915327267301
 42
0.2441046205140722
 10
124.8587665487395
 20
119.4381773446844
 42
0.0980245297763083
 10
125.0154636234894
 20
119.6517625334154
 42
0.060733343109207
 10
125.1692318102582
 20
120.3764826800544
 42
0.0
 10
125.1692318102582
 20
120.5396276724949
 42
0.8824239649969175
 10
124.8208537097875
 20
120.5833174477429
 42
-0.0352797419779719
 10
124.7306158337811
 20
120.0118611704471
 42
-0.5091346668189037
 10
124.5072411069803
 20
119.9617899346554
 42
-0.0644991403095275
 10
124.0987095423399
 20
120.7637999400994
 42
-0.031962874958966
 10
123.8504031138919
 20
122.2344196555686
 42
0.0
 10
124.9421086597712
 20
122.2486592931237
 42
1.0
 97
        0
 75
     0
 76
     1
 47
0.012658
 98
        1
 10
123.633312
 20
122.4785189999999
  0
HATCH
  5
31834928
330
318324AF
100
AcDbEntity
  8
JISSEN
100
AcDbHatch
 10
0.0
 20
0.0
 30
0.0
210
0.0
220
0.0
230
1.0
  2
SOLID
 70
     1
 71
     0
 91
        1
 92
        7
 72
     1
 73
     1
 93
        4
 10
115.8908664278162
 20
121.416584551641
 42
0.0
 10
112.390725018989
 20
121.416584551641
 42
1.0
 10
112.390725018989
 20
121.0627273568797
 42
0.0
 10
115.8908664278162
 20
121.0627273568797
 42
1.0
 97
        0
 75
     0
 76
     1
 47
0.008296
 98
        1
 10
114.531028
 20
121.280936
  0
HATCH
  5
31834929
330
318324AF
100
AcDbEntity
  8
JISSEN
100
AcDbHatch
 10
0.0
 20
0.0
 30
0.0
210
0.0
220
0.0
230
1.0
  2
SOLID
 70
     1
 71
     0
 91
        1
 92
        7
 72
     1
 73
     1
 93
        4
 10
110.7125803853102
 20
122.9391460644807
 42
0.0
 10
108.0874743286899
 20
122.9391460644807
 42
1.0
 10
108.0874743286899
 20
122.5852888697195
 42
0.0
 10
110.7125803853102
 20
122.5852888697195
 42
1.0
 97
        0
 75
     0
 76
     1
 47
0.022725
 98
        1
 10
109.8588659999999
 20
122.6924419999999
  0
HATCH
  5
3183492A
330
318324AF
100
AcDbEntity
  8
JISSEN
100
AcDbHatch
 10
0.0
 20
0.0
 30
0.0
210
0.0
220
0.0
230
1.0
  2
SOLID
 70
     1
 71
     1
 91
        5
 92
        0
 93
       24
 72
     1
 10
73.88321999999999
 20
122.110399
 11
72.88173399999999
 21
122.110399
 72
     1
 10
72.88173399999999
 20
122.110399
 11
72.88173399999999
 21
121.221706
 72
     1
 10
72.88173399999999
 20
121.221706
 11
73.83946899999999
 21
121.221706
 72
     2
 10
73.83946899999999
 20
121.044777
 40
0.176929
 50
270.0
 51
450.0
 73
     0
 72
     1
 10
73.83946899999999
 20
120.867849
 11
72.88173399999999
 21
120.867849
 72
     1
 10
72.88173399999999
 20
120.867849
 11
72.88173399999999
 21
119.804148
 72
     1
 10
72.88173399999999
 20
119.804148
 11
73.961974
 21
119.804148
 72
     2
 10
73.961974
 20
119.6272199999999
 40
0.176929
 50
270.0
 51
450.0
 73
     0
 72
     1
 10
73.961974
 20
119.4502909999999
 11
71.44187200000001
 21
119.4502909999999
 72
     2
 10
71.44187200000001
 20
119.6272199999999
 40
0.176929
 50
90.0
 51
270.0
 73
     0
 72
     1
 10
71.44187200000001
 20
119.804148
 11
72.52787600000001
 21
119.804148
 72
     1
 10
72.52787600000001
 20
119.804148
 11
72.52787600000001
 21
120.867849
 72
     1
 10
72.52787600000001
 20
120.867849
 11
71.56437700000001
 21
120.867849
 72
     2
 10
71.56437700000001
 20
121.044777
 40
0.176929
 50
90.0
 51
270.0
 73
     0
 72
     1
 10
71.56437700000001
 20
121.221706
 11
72.52787600000001
 21
121.221706
 72
     1
 10
72.52787600000001
 20
121.221706
 11
72.52787600000001
 21
122.110399
 72
     1
 10
72.52787600000001
 20
122.110399
 11
71.52062499999999
 21
122.110399
 72
     2
 10
71.52062499999999
 20
122.287327
 40
0.176929
 50
90.0
 51
270.0
 73
     0
 72
     1
 10
71.52062499999999
 20
122.464256
 11
72.52787600000001
 21
122.464256
 72
     1
 10
72.52787600000001
 20
122.464256
 11
72.52787600000001
 21
122.929983
 72
     2
 10
72.70480500000001
 20
122.929983
 40
0.176929
 50
180.0
 51
360.0
 73
     0
 72
     1
 10
72.88173399999999
 20
122.929983
 11
72.88173399999999
 21
122.464256
 72
     1
 10
72.88173399999999
 20
122.464256
 11
73.88321999999999
 21
122.464256
 72
     2
 10
73.88321999999999
 20
122.287327
 40
0.176929
 50
270.0
 51
450.0
 73
     0
 97
       24
330
31834800
330
318347F6
330
318347FD
330
318347F9
330
318347FF
330
318347FA
330
318347FE
330
318347F8
330
318347EA
330
318347F0
330
318347F3
330
318347EC
330
318347F2
330
318347EF
330
318347F4
330
318347EB
330
318347F1
330
318347EE
330
318347F5
330
318347ED
330
318347E9
330
318347FB
330
318347FC
330
318347F7
 92
        1
 93
       24
 72
     1
 10
73.88321999999999
 20
122.110399
 11
72.88173399999999
 21
122.110399
 72
     1
 10
72.88173399999999
 20
122.110399
 11
72.88173399999999
 21
121.221706
 72
     1
 10
72.88173399999999
 20
121.221706
 11
73.83946899999999
 21
121.221706
 72
     2
 10
73.83946899999999
 20
121.044777
 40
0.176929
 50
270.0
 51
450.0
 73
     0
 72
     1
 10
73.83946899999999
 20
120.867849
 11
72.88173399999999
 21
120.867849
 72
     1
 10
72.88173399999999
 20
120.867849
 11
72.88173399999999
 21
119.804148
 72
     1
 10
72.88173399999999
 20
119.804148
 11
73.961974
 21
119.804148
 72
     2
 10
73.961974
 20
119.6272199999999
 40
0.176929
 50
270.0
 51
450.0
 73
     0
 72
     1
 10
73.961974
 20
119.4502909999999
 11
71.44187200000001
 21
119.4502909999999
 72
     2
 10
71.44187200000001
 20
119.6272199999999
 40
0.176929
 50
90.0
 51
270.0
 73
     0
 72
     1
 10
71.44187200000001
 20
119.804148
 11
72.52787600000001
 21
119.804148
 72
     1
 10
72.52787600000001
 20
119.804148
 11
72.52787600000001
 21
120.867849
 72
     1
 10
72.52787600000001
 20
120.867849
 11
71.56437700000001
 21
120.867849
 72
     2
 10
71.56437700000001
 20
121.044777
 40
0.176929
 50
90.0
 51
270.0
 73
     0
 72
     1
 10
71.56437700000001
 20
121.221706
 11
72.52787600000001
 21
121.221706
 72
     1
 10
72.52787600000001
 20
121.221706
 11
72.52787600000001
 21
122.110399
 72
     1
 10
72.52787600000001
 20
122.110399
 11
71.52062499999999
 21
122.110399
 72
     2
 10
71.52062499999999
 20
122.287327
 40
0.176929
 50
90.0
 51
270.0
 73
     0
 72
     1
 10
71.52062499999999
 20
122.464256
 11
72.52787600000001
 21
122.464256
 72
     1
 10
72.52787600000001
 20
122.464256
 11
72.52787600000001
 21
122.929983
 72
     2
 10
72.70480500000001
 20
122.929983
 40
0.176929
 50
180.0
 51
360.0
 73
     0
 72
     1
 10
72.88173399999999
 20
122.929983
 11
72.88173399999999
 21
122.464256
 72
     1
 10
72.88173399999999
 20
122.464256
 11
73.88321999999999
 21
122.464256
 72
     2
 10
73.88321999999999
 20
122.287327
 40
0.176929
 50
270.0
 51
450.0
 73
     0
 97
       24
330
31834800
330
318347F6
330
318347FD
330
318347F9
330
318347FF
330
318347FA
330
318347FE
330
318347F8
330
318347EA
330
318347F0
330
318347F3
330
318347EC
330
318347F2
330
318347EF
330
318347F4
330
318347EB
330
318347F1
330
318347EE
330
318347F5
330
318347ED
330
318347E9
330
318347FB
330
318347FC
330
318347F7
 92
       16
 93
       24
 72
     1
 10
73.88321999999999
 20
122.110399
 11
72.88173399999999
 21
122.110399
 72
     1
 10
72.88173399999999
 20
122.110399
 11
72.88173399999999
 21
121.221706
 72
     1
 10
72.88173399999999
 20
121.221706
 11
73.83946899999999
 21
121.221706
 72
     2
 10
73.83946899999999
 20
121.044777
 40
0.176929
 50
270.0
 51
450.0
 73
     0
 72
     1
 10
73.83946899999999
 20
120.867849
 11
72.88173399999999
 21
120.867849
 72
     1
 10
72.88173399999999
 20
120.867849
 11
72.88173399999999
 21
119.804148
 72
     1
 10
72.88173399999999
 20
119.804148
 11
73.961974
 21
119.804148
 72
     2
 10
73.961974
 20
119.6272199999999
 40
0.176929
 50
270.0
 51
450.0
 73
     0
 72
     1
 10
73.961974
 20
119.4502909999999
 11
71.44187200000001
 21
119.4502909999999
 72
     2
 10
71.44187200000001
 20
119.6272199999999
 40
0.176929
 50
90.0
 51
270.0
 73
     0
 72
     1
 10
71.44187200000001
 20
119.804148
 11
72.52787600000001
 21
119.804148
 72
     1
 10
72.52787600000001
 20
119.804148
 11
72.52787600000001
 21
120.867849
 72
     1
 10
72.52787600000001
 20
120.867849
 11
71.56437700000001
 21
120.867849
 72
     2
 10
71.56437700000001
 20
121.044777
 40
0.176929
 50
90.0
 51
270.0
 73
     0
 72
     1
 10
71.56437700000001
 20
121.221706
 11
72.52787600000001
 21
121.221706
 72
     1
 10
72.52787600000001
 20
121.221706
 11
72.52787600000001
 21
122.110399
 72
     1
 10
72.52787600000001
 20
122.110399
 11
71.52062499999999
 21
122.110399
 72
     2
 10
71.52062499999999
 20
122.287327
 40
0.176929
 50
90.0
 51
270.0
 73
     0
 72
     1
 10
71.52062499999999
 20
122.464256
 11
72.52787600000001
 21
122.464256
 72
     1
 10
72.52787600000001
 20
122.464256
 11
72.52787600000001
 21
122.929983
 72
     2
 10
72.70480500000001
 20
122.929983
 40
0.176929
 50
180.0
 51
360.0
 73
     0
 72
     1
 10
72.88173399999999
 20
122.929983
 11
72.88173399999999
 21
122.464256
 72
     1
 10
72.88173399999999
 20
122.464256
 11
73.88321999999999
 21
122.464256
 72
     2
 10
73.88321999999999
 20
122.287327
 40
0.176929
 50
270.0
 51
450.0
 73
     0
 97
       24
330
31834800
330
318347F6
330
318347FD
330
318347F9
330
318347FF
330
318347FA
330
318347FE
330
318347F8
330
318347EA
330
318347F0
330
318347F3
330
318347EC
330
318347F2
330
318347EF
330
318347F4
330
318347EB
330
318347F1
330
318347EE
330
318347F5
330
318347ED
330
318347E9
330
318347FB
330
318347FC
330
318347F7
 92
        0
 93
       24
 72
     1
 10
73.88321999999999
 20
122.110399
 11
72.88173399999999
 21
122.110399
 72
     1
 10
72.88173399999999
 20
122.110399
 11
72.88173399999999
 21
121.221706
 72
     1
 10
72.88173399999999
 20
121.221706
 11
73.83946899999999
 21
121.221706
 72
     2
 10
73.83946899999999
 20
121.044777
 40
0.176929
 50
270.0
 51
450.0
 73
     0
 72
     1
 10
73.83946899999999
 20
120.867849
 11
72.88173399999999
 21
120.867849
 72
     1
 10
72.88173399999999
 20
120.867849
 11
72.88173399999999
 21
119.804148
 72
     1
 10
72.88173399999999
 20
119.804148
 11
73.961974
 21
119.804148
 72
     2
 10
73.961974
 20
119.6272199999999
 40
0.176929
 50
270.0
 51
450.0
 73
     0
 72
     1
 10
73.961974
 20
119.4502909999999
 11
71.44187200000001
 21
119.4502909999999
 72
     2
 10
71.44187200000001
 20
119.6272199999999
 40
0.176929
 50
90.0
 51
270.0
 73
     0
 72
     1
 10
71.44187200000001
 20
119.804148
 11
72.52787600000001
 21
119.804148
 72
     1
 10
72.52787600000001
 20
119.804148
 11
72.52787600000001
 21
120.867849
 72
     1
 10
72.52787600000001
 20
120.867849
 11
71.56437700000001
 21
120.867849
 72
     2
 10
71.56437700000001
 20
121.044777
 40
0.176929
 50
90.0
 51
270.0
 73
     0
 72
     1
 10
71.56437700000001
 20
121.221706
 11
72.52787600000001
 21
121.221706
 72
     1
 10
72.52787600000001
 20
121.221706
 11
72.52787600000001
 21
122.110399
 72
     1
 10
72.52787600000001
 20
122.110399
 11
71.52062499999999
 21
122.110399
 72
     2
 10
71.52062499999999
 20
122.287327
 40
0.176929
 50
90.0
 51
270.0
 73
     0
 72
     1
 10
71.52062499999999
 20
122.464256
 11
72.52787600000001
 21
122.464256
 72
     1
 10
72.52787600000001
 20
122.464256
 11
72.52787600000001
 21
122.929983
 72
     2
 10
72.70480500000001
 20
122.929983
 40
0.176929
 50
180.0
 51
360.0
 73
     0
 72
     1
 10
72.88173399999999
 20
122.929983
 11
72.88173399999999
 21
122.464256
 72
     1
 10
72.88173399999999
 20
122.464256
 11
73.88321999999999
 21
122.464256
 72
     2
 10
73.88321999999999
 20
122.287327
 40
0.176929
 50
270.0
 51
450.0
 73
     0
 97
       24
330
31834800
330
318347F6
330
318347FD
330
318347F9
330
318347FF
330
318347FA
330
318347FE
330
318347F8
330
318347EA
330
318347F0
330
318347F3
330
318347EC
330
318347F2
330
318347EF
330
318347F4
330
318347EB
330
318347F1
330
318347EE
330
318347F5
330
318347ED
330
318347E9
330
318347FB
330
318347FC
330
318347F7
 92
       33
 93
        8
 72
     2
 10
67.705815
 20
123.1529749999999
 40
3.324483
 50
322.7402119999999
 51
327.5798809999999
 73
     1
 72
     2
 10
67.15114399999999
 20
123.5672
 40
3.664079
 50
323.2451109999999
 51
350.511381
 73
     1
 72
     2
 10
70.216553
 20
121.2543429999999
 40
0.176929
 50
137.162316
 51
319.8382959999999
 73
     1
 72
     2
 10
66.96823399999999
 20
123.615688
 40
4.205487999999999
 50
337.945739
 51
350.2387069999999
 73
     1
 72
     1
 10
70.866001
 20
122.036592
 11
70.866001
 21
119.4502909999999
 72
     1
 10
70.51214300000001
 20
121.370643
 11
70.51214300000001
 21
119.4502909999999
 72
     2
 10
70.68907199999999
 20
119.4697129999999
 40
0.176929
 50
180.0
 51
360.0
 73
     1
 72
     2
 10
70.93681700000001
 20
122.920573
 40
0.176929
 50
354.193392
 51
526.0687379999999
 73
     1
 97
       32
330
31834800
330
318347F6
330
318347FD
330
318347F9
330
318347FF
330
318347FA
330
318347FE
330
318347F8
330
318347EA
330
318347F0
330
318347F3
330
318347EC
330
318347F2
330
318347EF
330
318347F4
330
318347EB
330
318347F1
330
318347EE
330
318347F5
330
318347ED
330
318347E9
330
318347FB
330
318347FC
330
318347F7
330
318347E8
330
318347E7
330
318347E6
330
318347E5
330
318347E4
330
318347E3
330
318347E2
330
318347E1
 75
     0
 76
     1
 98
        1
 10
72.68868799999999
 20
122.3089939999999
  0
HATCH
  5
3183492B
330
318324AF
100
AcDbEntity
  8
JISSEN
100
AcDbHatch
 10
0.0
 20
0.0
 30
0.0
210
0.0
220
0.0
230
1.0
  2
SOLID
 70
     1
 71
     0
 91
        1
 92
        7
 72
     1
 73
     1
 93
       16
 10
80.37122160135465
 20
121.5040880868617
 42
0.0
 10
78.77812591838209
 20
121.5040880868617
 42
0.0
 10
78.77908590092539
 20
122.5101119354347
 42
0.0198895212671925
 10
80.08683511188733
 20
122.6866523950925
 42
1.0
 10
80.08683511188747
 20
123.0405095898537
 42
-0.0295121492025629
 10
77.11171491438431
 20
122.7551171251334
 42
1.0
 10
77.11171491438403
 20
122.4012599303722
 42
0.0177259901679202
 10
78.42522870616416
 20
122.476533475057
 42
0.0
 10
78.42522870616416
 20
121.5040880868617
 42
0.0
 10
76.82732842491714
 20
121.5040880868617
 42
1.0
 10
76.82732842491714
 20
121.1502308921005
 42
0.0
 10
78.42522870616416
 20
121.1502308921005
 42
0.0
 10
78.42234641575526
 20
119.4895852498468
 42
0.9990462209535047
 10
78.7762032883075
 20
119.4892475874683
 42
0.0
 10
78.77778825568125
 20
121.1502308921005
 42
0.0
 10
80.37122160135465
 20
121.1502308921005
 42
1.0
 97
        0
 75
     0
 76
     1
 47
0.021498
 98
        1
 10
78.54038
 20
121.22353
  0
HATCH
  5
3183492C
330
318324AF
100
AcDbEntity
  8
JISSEN
100
AcDbHatch
 10
0.0
 20
0.0
 30
0.0
210
0.0
220
0.0
230
1.0
  2
SOLID
 70
     1
 71
     0
 91
        1
 92
        7
 72
     1
 73
     1
 93
        8
 10
71.11283735207165
 20
122.9026734267702
 42
0.9314987305486923
 10
70.76509227769611
 20
122.963170390963
 42
-0.1195360599826714
 10
70.08681411827649
 20
121.3746410644886
 42
1.023629302570857
 10
70.35176648105926
 20
121.1402335378543
 42
0.0211201812388153
 10
70.51214331399484
 20
121.3706425532299
 42
0.0
 10
70.51214331399484
 20
119.4697134961679
 42
1.0
 10
70.86600050875609
 20
119.4697134961679
 42
0.0
 10
70.86600050875609
 20
122.0365921596126
 42
0.0536896914460022
 97
        0
 75
     0
 76
     1
 47
0.008176
 98
        2
 10
11.920498
 20
-25.737553
 10
70.79314100000001
 20
122.224763
  0
HATCH
  5
3183492D
330
318324AF
100
AcDbEntity
  8
JISSEN
100
AcDbHatch
 10
0.0
 20
0.0
 30
0.0
210
0.0
220
0.0
230
1.0
  2
SOLID
 70
     1
 71
     0
 91
        1
 92
        7
 72
     1
 73
     1
 93
        8
 10
82.05823164041047
 20
122.0389632062472
 42
0.0529467078803983
 10
82.3043063644082
 20
122.8986931599398
 42
0.9525357636804685
 10
81.95697050923994
 20
122.9640926644964
 42
-0.1194985108337134
 10
81.27904524993097
 20
121.3770121111233
 42
1.023629302569903
 10
81.54399761271344
 20
121.1426045844886
 42
0.0211201812387854
 10
81.70437444564925
 20
121.3730135998645
 42
0.0
 10
81.70437444564925
 20
119.4720845428026
 42
1.0
 10
82.05823164041047
 20
119.4720845428026
 42
0.0
 97
        0
 75
     0
 76
     1
 47
0.014819
 98
        1
 10
81.83122799999999
 20
121.7014269999999
  0
HATCH
  5
3183492E
330
318324AF
100
AcDbEntity
  8
JISSEN
100
AcDbHatch
 10
0.0
 20
0.0
 30
0.0
210
0.0
220
0.0
230
1.0
  2
SOLID
 70
     1
 71
     1
 91
        1
 92
        1
 93
        8
 72
     2
 10
98.08465600000001
 20
122.989727
 40
0.176929
 50
0.000492
 51
180.000595
 73
     1
 72
     1
 10
97.907728
 20
122.989725
 11
97.907746
 21
121.2003949999999
 72
     2
 10
96.53810700000001
 20
121.328958
 40
1.37566
 50
5.362439
 51
61.142622
 73
     0
 72
     2
 10
95.66208399999998
 20
122.482783
 40
2.81687
 50
56.859655
 51
86.16984499999999
 73
     0
 72
     2
 10
95.862066
 20
119.4956719999999
 40
0.176929
 50
93.830155
 51
273.830155
 73
     1
 72
     2
 10
95.66208399999998
 20
122.482783
 40
3.170726999999999
 50
273.830155
 51
302.907174
 73
     1
 72
     2
 10
96.53810700000001
 20
121.328958
 40
1.72952
 50
299.306512
 51
355.2156679999999
 73
     1
 72
     1
 10
98.26160000000001
 20
121.184707
 11
98.261585
 21
122.989728
 97
        8
330
3183485D
330
3183485C
330
3183485A
330
3183484D
330
31834856
330
3183484C
330
31834859
330
3183485B
 75
     0
 76
     1
 98
        1
 10
11.920498
 20
-25.737553
  0
HATCH
  5
3183492F
330
318324AF
100
AcDbEntity
  8
JISSEN
100
AcDbHatch
 10
0.0
 20
0.0
 30
0.0
210
0.0
220
0.0
230
1.0
  2
SOLID
 70
     1
 71
     0
 91
        1
 92
        7
 72
     1
 73
     1
 93
       14
 10
106.5584425848137
 20
122.9060661773317
 42
0.0
 10
104.6074452467224
 20
122.9051041718453
 42
0.3158765709123148
 10
104.3584042831203
 20
122.7291938948124
 42
-0.1512056708569394
 10
103.5061711704695
 20
121.8924701521316
 42
0.9960223851290903
 10
103.667498539788
 20
121.5775314196333
 42
0.1410670343465896
 10
104.60199370586
 20
122.4520733590857
 42
-0.2321469178326443
 10
104.8119169166963
 20
122.5550912729795
 42
0.0
 10
106.2614775471235
 20
122.5550912729795
 42
-0.4064177292206639
 10
106.5267759230422
 20
122.2967808213879
 42
-0.1534495940447011
 10
105.6696281615979
 20
120.568525461789
 42
-0.1525468292691314
 10
103.9915866159268
 20
119.6677825695986
 42
1.0
 10
104.0583736528609
 20
119.3202852228723
 42
0.1526803410811533
 10
105.9236283000918
 20
120.3221478449618
 42
0.1725876060467593
 10
106.9102485622599
 20
122.5141633709446
 42
0.4461292544900878
 97
        0
 75
     0
 76
     1
 47
0.017377
 98
        1
 10
106.642137
 20
122.61398
  0
HATCH
  5
31834930
330
318324AF
100
AcDbEntity
  8
JISSEN
100
AcDbHatch
 10
0.0
 20
0.0
 30
0.0
210
0.0
220
0.0
230
1.0
  2
SOLID
 70
     1
 71
     0
 91
        2
 92
        7
 72
     1
 73
     1
 93
       14
 10
93.66918544086258
 20
122.4504243964558
 42
0.0
 10
93.66918544086258
 20
122.7523716159067
 42
4.799819405554565
 10
93.42902914339232
 20
122.9013734598193
 42
0.0
 10
90.28665327475938
 20
122.871587906562
 42
0.9905662486174378
 10
90.29000707006948
 20
122.5177625013299
 42
0.0
 10
93.20770425142654
 20
122.5454183987835
 42
-0.4192449502352318
 10
93.30429324912351
 20
122.4642346014926
 42
-0.0662812898876632
 10
93.06587499816144
 20
121.2000393263968
 42
-0.0918635987627331
 10
92.53288027848007
 20
120.4736874547924
 42
-0.1492583108636039
 10
90.79148994539707
 20
119.6906702715105
 42
0.9915660455691702
 10
90.83559298755487
 20
119.3395850198315
 42
0.1487636223669539
 10
92.77429833550058
 20
120.205159562168
 42
0.0925783481940441
 10
93.39097767925283
 20
121.0430620958202
 42
0.0293617652771643
 10
93.41089857510143
 20
121.0913695688998
 42
0.0687792965439343
 97
        0
 92
       22
 72
     1
 73
     1
 93
        2
 10
93.45474907683025
 20
123.1025406409887
 42
-1.0
 10
93.98553486897206
 20
123.1025406409887
 42
-1.0
 97
        0
 75
     0
 76
     1
 47
0.016148
 98
        2
 10
93.49154699999999
 20
122.176284
 10
93.49154699999999
 20
122.176284
  0
HATCH
  5
31834931
330
318324AF
100
AcDbEntity
  8
JISSEN
100
AcDbHatch
 10
0.0
 20
0.0
 30
0.0
210
0.0
220
0.0
230
1.0
  2
SOLID
 70
     1
 71
     0
 91
        1
 92
        7
 72
     1
 73
     1
 93
       18
 10
131.89129125309
 20
122.3151996975675
 42
0.5416135566054853
 10
131.8104876833118
 20
122.4394150757287
 42
0.0
 10
131.206975740485
 20
122.439806760576
 42
0.0
 10
131.206975740485
 20
122.9897266586739
 42
1.0
 10
130.8531185457239
 20
122.9897266586739
 42
0.0
 10
130.8531185457239
 20
122.4400364171769
 42
0.0
 10
130.3300188613724
 20
122.4403759137229
 42
1.0
 10
130.3300188613558
 20
122.0865187189618
 42
0.0
 10
131.3761074267377
 20
122.0865187189618
 42
-0.1166945492652324
 10
130.1464679469345
 20
120.8046873102567
 42
1.0
 10
130.3385627053021
 20
120.507509723464
 42
0.0384500741818238
 10
130.8531185457239
 20
120.8992464792252
 42
0.0
 10
130.8531185457239
 20
119.4895852498468
 42
1.0
 10
131.206975740485
 20
119.4895852498468
 42
0.0
 10
131.206975740485
 20
121.1777339159879
 42
0.0
 10
131.9751356919829
 20
120.6117213201473
 42
1.0
 10
132.1850434395223
 20
120.8965961203794
 42
0.0
 10
131.3931028933145
 20
121.4801312596905
 42
0.0589195969637216
 97
        0
 75
     0
 76
     1
 47
0.008749
 98
        1
 10
131.392111
 20
121.947018
  0
ARC
  5
31834932
330
318324AF
100
AcDbEntity
  8
JISSEN
100
AcDbCircle
 10
107.73746
 20
121.747177
 30
0.0
 40
0.176929
100
AcDbArc
 50
90.017002
 51
270.0745449999999
  0
ARC
  5
31834933
330
318324AF
100
AcDbEntity
  8
JISSEN
100
AcDbCircle
 10
110.657448
 20
121.3740469999999
 30
0.0
 40
0.2
100
AcDbArc
 50
349.2996319999999
 51
90.07454499999999
  0
HATCH
  5
31834934
330
318324AF
100
AcDbEntity
  8
JISSEN
100
AcDbHatch
 10
0.0
 20
0.0
 30
0.0
210
0.0
220
0.0
230
1.0
  2
SOLID
 70
     1
 71
     0
 91
        1
 92
        7
 72
     1
 73
     1
 93
       11
 10
111.2404838870432
 20
121.6596729233195
 42
0.3729463684418663
 10
110.9749334719721
 20
121.925065772647
 42
0.0
 10
107.737407605731
 20
121.9241050403172
 42
1.000502283435829
 10
107.7376903042009
 20
121.5702481605559
 42
0.0
 10
110.657188031013
 20
121.5740466138242
 42
-0.4704305890664066
 10
110.8539705644181
 20
121.3369121979517
 42
-0.2804709442900909
 10
109.6236632978625
 20
119.9721900710567
 42
-0.0732195278813515
 10
108.3499849343519
 20
119.7552423767004
 42
1.023502577146075
 10
108.3582015692796
 20
119.4015760768295
 42
0.0914870587651524
 10
109.6572989193431
 20
119.6093420977148
 42
0.3270833522359061
 10
111.2404838870431
 20
121.5576529899894
 42
0.0
 97
        0
 75
     0
 76
     1
 47
0.006902
 98
        2
 10
110.961807
 20
121.669738
 10
110.8771899999999
 20
121.6351399999999
  0
HATCH
  5
31834935
330
318324AF
100
AcDbEntity
  8
JISSEN
100
AcDbHatch
 10
0.0
 20
0.0
 30
0.0
210
0.0
220
0.0
230
1.0
  2
SOLID
 70
     1
 71
     0
 91
        1
 92
        7
 72
     1
 73
     1
 93
        7
 10
127.7312714146149
 20
123.1251487413654
 42
0.3565704508199807
 10
127.5074088753835
 20
123.1283038641074
 42
-0.0679273792765849
 10
125.7963853670998
 20
122.100126400713
 42
1.016875346006721
 10
125.9436753756415
 20
121.7784347650934
 42
0.0598635258633757
 10
127.617409269498
 20
122.8081814674147
 42
0.0770984507099061
 10
129.2911318845517
 20
121.7784401597927
 42
1.024081643744559
 10
129.4361490706275
 20
122.1011072519738
 42
-0.0726804569604835
 97
        0
 75
     0
 76
     1
 47
0.008035
 98
        1
 10
127.699553
 20
122.9960909999999
  0
HATCH
  5
31834936
330
318324AF
100
AcDbEntity
  8
JISSEN
100
AcDbHatch
 10
0.0
 20
0.0
 30
0.0
210
0.0
220
0.0
230
1.0
  2
SOLID
 70
     1
 71
     1
 91
        2
 92
        7
 72
     1
 73
     1
 93
        2
 10
75.45610289378114
 20
121.1094396613455
 42
1.0
 10
68.90974479069824
 20
121.1094396613455
 42
1.0
 97
        1
330
318347E0
 92
       16
 93
        1
 72
     2
 10
72.182924
 20
121.1094399999999
 40
2.998365
 50
0.0
 51
360.0
 73
     1
 97
        1
330
31834919
 75
     0
 76
     1
 47
0.005367
 98
        1
 10
73.227946
 20
124.08048
  0
LINE
  5
31834937
330
318324AF
100
AcDbEntity
  8
JISSEN
100
AcDbLine
 10
141.4097449999999
 20
113.6109739999999
 30
0.0
 11
141.4097449999999
 21
247.110974
 31
0.0
  0
LINE
  5
31834938
330
318324AF
100
AcDbEntity
  8
JISSEN
100
AcDbLine
 10
61.40974499999999
 20
113.6109739999999
 30
0.0
 11
61.40974499999999
 21
247.110974
 31
0.0
  0
LINE
  5
31834939
330
318324AF
100
AcDbEntity
  8
JISSEN
100
AcDbLine
 10
67.409745
 20
107.6109739999999
 30
0.0
 11
135.4097449999999
 21
107.6109739999999
 31
0.0
  0
LINE
  5
3183493A
330
318324AF
100
AcDbEntity
  8
JISSEN
100
AcDbLine
 10
140.9097449999999
 20
247.610974
 30
0.0
 11
61.90974499999999
 21
247.610974
 31
0.0
  0
ARC
  5
3183493B
330
318324AF
100
AcDbEntity
  8
JISSEN
100
AcDbCircle
 10
135.4097449999999
 20
113.6109739999999
 30
0.0
 40
6.0
100
AcDbArc
 50
270.0
 51
0.0
  0
ARC
  5
3183493C
330
318324AF
100
AcDbEntity
  8
JISSEN
100
AcDbCircle
 10
67.409745
 20
113.6109739999999
 30
0.0
 40
6.0
100
AcDbArc
 50
180.0
 51
270.0
  0
LINE
  5
3183493D
330
318324AF
100
AcDbEntity
  8
JISSEN
100
AcDbLine
 10
72.30974499999999
 20
105.6109739999999
 30
0.0
 11
100.509745
 21
105.6109739999999
 31
0.0
  0
LINE
  5
3183493E
330
318324AF
100
AcDbEntity
  8
JISSEN
 48
10.0
100
AcDbLine
 10
72.30974499999999
 20
105.6109739999999
 30
0.0
 11
72.30974499999999
 21
107.6109739999999
 31
0.0
  0
LINE
  5
3183493F
330
318324AF
100
AcDbEntity
  8
JISSEN
 48
10.0
100
AcDbLine
 10
100.509745
 20
105.6109739999999
 30
0.0
 11
100.509745
 21
107.6109739999999
 31
0.0
  0
LINE
  5
31834940
330
318324AF
100
AcDbEntity
  8
TENSEN
 62
     3
100
AcDbLine
 10
84.32305799999999
 20
202.6309379999999
 30
0.0
 11
84.32305799999999
 21
190.107977
 31
0.0
  0
LINE
  5
31834941
330
318324AF
100
AcDbEntity
  8
TENSEN
 62
     3
100
AcDbLine
 10
83.85332099999999
 20
202.9021399999999
 30
0.0
 11
78.236956
 21
206.1447499999999
 31
0.0
  0
LINE
  5
31834942
330
318324AF
100
AcDbEntity
  8
TENSEN
 62
     3
100
AcDbLine
 10
83.85332099999999
 20
189.749509
 30
0.0
 11
78.565772
 21
192.802277
 31
0.0
  0
LINE
  5
31834943
330
318324AF
100
AcDbEntity
  8
TENSEN
 62
     3
100
AcDbLine
 10
78.096035
 20
206.388833
 30
0.0
 11
78.096035
 21
193.615885
 31
0.0
  0
LINE
  5
31834944
330
318324AF
100
AcDbEntity
  8
TENSEN
 62
     3
100
AcDbLine
 10
84.792795
 20
202.9021399999999
 30
0.0
 11
87.98429399999999
 21
204.7447539999999
 31
0.0
  0
LINE
  5
31834945
330
318324AF
100
AcDbEntity
  8
TENSEN
 62
     3
100
AcDbLine
 10
84.792795
 20
189.749509
 30
0.0
 11
87.98429399999999
 21
191.5921219999999
 31
0.0
  0
LINE
  5
31834946
330
318324AF
100
AcDbEntity
  8
TENSEN
 62
     3
100
AcDbLine
 10
87.98429399999999
 20
204.7447539999999
 30
0.0
 11
87.98429399999999
 21
191.5921219999999
 31
0.0
  0
LINE
  5
31834947
330
318324AF
100
AcDbEntity
  8
TENSEN
 62
     3
100
AcDbLine
 10
78.236956
 20
206.632915
 30
0.0
 11
80.61655700000001
 21
208.0067779999999
 31
0.0
  0
LINE
  5
31834948
330
318324AF
100
AcDbEntity
  8
TENSEN
 62
     3
100
AcDbLine
 10
87.98429399999999
 20
204.7447539999999
 30
0.0
 11
84.40441899999999
 21
206.811596
 31
0.0
  0
ELLIPSE
  5
31834949
330
318324AF
100
AcDbEntity
  8
JISSEN
 62
     3
100
AcDbEllipse
 10
81.882234
 20
206.388833
 30
0.0
 11
1.265677134198639
 21
0.0
 31
0.0
210
0.0
220
0.0
230
1.0
 40
0.5773500000000001
 41
3.141592653589792
 42
6.283185307179585
  0
LINE
  5
3183494A
330
318324AF
100
AcDbEntity
  8
TENSEN
 62
     3
100
AcDbLine
 10
82.777203
 20
205.8721219999999
 30
0.0
 11
84.40441899999999
 21
206.811596
 31
0.0
  0
LINE
  5
3183494B
330
318324AF
100
AcDbEntity
  8
JISSEN
 62
     3
100
AcDbLine
 10
84.32305799999999
 20
189.4783059999999
 30
0.0
 11
74.665035
 21
190.3405949999999
 31
0.0
  0
LINE
  5
3183494C
330
318324AF
100
AcDbEntity
  8
JISSEN
 62
     3
100
AcDbLine
 10
74.27884399999999
 20
190.4627379999999
 30
0.0
 11
68.29830799999999
 21
193.915603
 31
0.0
  0
LINE
  5
3183494D
330
318324AF
100
AcDbEntity
  8
JISSEN
 62
     3
100
AcDbLine
 10
84.32305799999999
 20
189.4783059999999
 30
0.0
 11
86.153676
 21
194.196262
 31
0.0
  0
LINE
  5
3183494E
330
318324AF
100
AcDbEntity
  8
JISSEN
 62
     3
100
AcDbLine
 10
86.153676
 20
194.196262
 30
0.0
 11
76.28907599999999
 21
195.0769949999999
 31
0.0
  0
LINE
  5
3183494F
330
318324AF
100
AcDbEntity
  8
JISSEN
 62
     3
100
AcDbLine
 10
76.28907599999999
 20
195.0769949999999
 30
0.0
 11
72.7092
 21
197.143837
 31
0.0
  0
LINE
  5
31834950
330
318324AF
100
AcDbEntity
  8
JISSEN
 62
     3
100
AcDbLine
 10
79.644811
 20
197.954157
 30
0.0
 11
75.44186299999999
 21
198.3294049999999
 31
0.0
  0
LINE
  5
31834951
330
318324AF
100
AcDbEntity
  8
JISSEN
 62
     3
100
AcDbLine
 10
86.153676
 20
194.196262
 30
0.0
 11
82.573801
 21
196.2631039999999
 31
0.0
  0
LINE
  5
31834952
330
318324AF
100
AcDbEntity
  8
JISSEN
 62
     3
100
AcDbLine
 10
69.78021099999999
 20
198.8348889999999
 30
0.0
 11
68.09524999999999
 21
194.4923269999999
 31
0.0
  0
LINE
  5
31834953
330
318324AF
100
AcDbEntity
  8
JISSEN
 62
     3
100
AcDbLine
 10
76.28907599999999
 20
195.0769949999999
 30
0.0
 11
74.656683
 21
190.8699149999999
 31
0.0
  0
LINE
  5
31834954
330
318324AF
100
AcDbEntity
  8
JISSEN
 62
     3
100
AcDbLine
 10
70.919262
 20
198.1772579999999
 30
0.0
 11
70.10476800000001
 21
196.0781029999999
 31
0.0
  0
LINE
  5
31834955
330
318324AF
100
AcDbEntity
  8
JISSEN
 62
     3
100
AcDbLine
 10
72.7092
 20
197.143837
 30
0.0
 11
71.894705
 21
195.0446819999999
 31
0.0
  0
ARC
  5
31834956
330
318324AF
100
AcDbEntity
  8
JISSEN
 62
     3
100
AcDbCircle
 10
70.999736
 20
195.5613929999999
 30
0.0
 40
1.033420999999999
100
AcDbArc
 50
150.0
 51
330.0
  0
ARC
  5
31834957
330
318324AF
100
AcDbEntity
  8
TENSEN
 62
     3
100
AcDbCircle
 10
78.377878
 20
206.388833
 30
0.0
 40
0.281842
100
AcDbArc
 50
119.9999999999999
 51
239.9999999999999
  0
ARC
  5
31834958
330
318324AF
100
AcDbEntity
  8
TENSEN
 62
     3
100
AcDbCircle
 10
84.32305799999999
 20
203.7157489999999
 30
0.0
 40
0.939474
100
AcDbArc
 50
239.9999999999999
 51
300.0
  0
ARC
  5
31834959
330
318324AF
100
AcDbEntity
  8
TENSEN
 62
     3
100
AcDbCircle
 10
84.32305799999999
 20
190.563117
 30
0.0
 40
0.939474
100
AcDbArc
 50
239.9999999999999
 51
300.0
  0
ARC
  5
3183495A
330
318324AF
100
AcDbEntity
  8
JISSEN
 62
     3
100
AcDbCircle
 10
68.533176
 20
194.322407
 30
0.0
 40
0.4697370000000001
100
AcDbArc
 50
158.7932059999999
 51
239.9999999999999
  0
ARC
  5
3183495B
330
318324AF
100
AcDbEntity
  8
JISSEN
 62
     3
100
AcDbCircle
 10
74.21875599999999
 20
191.039836
 30
0.0
 40
0.4697370000000001
100
AcDbArc
 50
239.9999999999999
 51
338.793206
  0
ARC
  5
3183495C
330
318324AF
100
AcDbEntity
  8
JISSEN
 62
     3
100
AcDbCircle
 10
74.748581
 20
191.2763459999999
 30
0.0
 40
0.939474
100
AcDbArc
 50
239.9999999999999
 51
264.8980390000001
  0
ARC
  5
3183495D
330
318324AF
100
AcDbEntity
  8
TENSEN
 62
     3
100
AcDbCircle
 10
79.03550899999999
 20
193.615885
 30
0.0
 40
0.939474
100
AcDbArc
 50
180.0
 51
239.9999999999999
  0
LINE
  5
3183495E
330
318324AF
100
AcDbEntity
  8
JISSEN
 62
     3
100
AcDbLine
 10
80.61655700000001
 20
206.388833
 30
0.0
 11
80.61655700000001
 21
210.693125
 31
0.0
  0
LINE
  5
3183495F
330
318324AF
100
AcDbEntity
  8
JISSEN
 62
     3
100
AcDbLine
 10
83.14791099999998
 20
206.388833
 30
0.0
 11
83.14791099999998
 21
210.693125
 31
0.0
  0
LINE
  5
31834960
330
318324AF
100
AcDbEntity
  8
JISSEN
 62
     3
100
AcDbLine
 10
83.14791099999998
 20
187.407637
 30
0.0
 11
83.14791099999998
 21
189.5832259999999
 31
0.0
  0
LINE
  5
31834961
330
318324AF
100
AcDbEntity
  8
JISSEN
 62
     3
100
AcDbLine
 10
80.61655700000001
 20
187.407637
 30
0.0
 11
80.61655700000001
 21
189.809231
 31
0.0
  0
LINE
  5
31834962
330
318324AF
100
AcDbEntity
  8
JISSEN
 62
     3
100
AcDbLine
 10
82.573801
 20
196.2631039999999
 30
0.0
 11
81.91855799999999
 21
194.574382
 31
0.0
  0
ARC
  5
31834963
330
318324AF
100
AcDbEntity
  8
JISSEN
 62
     3
100
AcDbCircle
 10
80.864337
 20
194.68066
 30
0.0
 40
1.033420999999999
100
AcDbArc
 50
150.0
 51
175.569284
  0
LINE
  5
31834964
330
318324AF
100
AcDbEntity
  8
JISSEN
 62
     3
100
AcDbLine
 10
80.783863
 20
197.296525
 30
0.0
 11
79.969368
 21
195.197371
 31
0.0
  0
ELLIPSE
  5
31834965
330
318324AF
100
AcDbEntity
  8
JISSEN
 62
     3
100
AcDbEllipse
 10
80.92757399999999
 20
171.630236
 30
0.0
 11
-2.596459127350169
 21
0.0
 31
0.0
210
0.0
220
0.0
230
1.0
 40
0.5773500000000001
 41
0.0
 42
3.141592653589792
  0
LINE
  5
31834966
330
318324AF
100
AcDbEntity
  8
TENSEN
 62
     3
100
AcDbLine
 10
86.50044799999999
 20
163.020887
 30
0.0
 11
86.50044799999999
 21
162.4059259999999
 31
0.0
  0
ELLIPSE
  5
31834967
330
318324AF
100
AcDbEntity
  8
JISSEN
 62
     3
100
AcDbEllipse
 10
80.92757399999999
 20
167.580236
 30
0.0
 11
-3.3125
 21
0.0
 31
0.0
210
0.0
220
0.0
230
1.0
 40
0.5773500000000001
 41
2.947028741322709
 42
3.141592653589792
  0
ELLIPSE
  5
31834968
330
318324AF
100
AcDbEntity
  8
JISSEN
 62
     3
100
AcDbEllipse
 10
85.88549
 20
163.860972
 30
0.0
 11
0.3712341024896919
 21
0.6429963270143823
 31
0.0
210
0.0
220
0.0
230
-1.0
 40
0.5773500000000001
 41
0.0
 42
6.283185307179585
  0
LINE
  5
31834969
330
318324AF
100
AcDbEntity
  8
JISSEN
 62
     3
100
AcDbLine
 10
84.67309
 20
163.160951
 30
0.0
 11
83.81576899999998
 21
163.655926
 31
0.0
  0
LINE
  5
3183496A
330
318324AF
100
AcDbEntity
  8
JISSEN
 62
     3
100
AcDbLine
 10
85.279308
 20
164.7234489999999
 30
0.0
 11
84.421987
 21
165.2184239999999
 31
0.0
  0
LINE
  5
3183496B
330
318324AF
100
AcDbEntity
  8
JISSEN
 62
     3
100
AcDbLine
 10
84.421987
 20
162.793553
 30
0.0
 11
85.279308
 21
162.298578
 31
0.0
  0
LINE
  5
3183496C
330
318324AF
100
AcDbEntity
  8
JISSEN
 62
     3
100
AcDbLine
 10
85.634422
 20
165.9182989999999
 30
0.0
 11
86.49174399999999
 21
165.423324
 31
0.0
  0
LINE
  5
3183496D
330
318324AF
100
AcDbEntity
  8
JISSEN
 62
     3
100
AcDbLine
 10
86.49174399999999
 20
162.998453
 30
0.0
 11
87.097961
 21
164.5609509999999
 31
0.0
  0
LINE
  5
3183496E
330
318324AF
100
AcDbEntity
  8
JISSEN
 62
     3
100
AcDbLine
 10
85.279308
 20
162.298578
 30
0.0
 11
86.49174399999999
 21
162.998453
 31
0.0
  0
LINE
  5
3183496F
330
318324AF
100
AcDbEntity
  8
JISSEN
 62
     3
100
AcDbLine
 10
84.67309
 20
163.160951
 30
0.0
 11
85.279308
 21
162.298578
 31
0.0
  0
LINE
  5
31834970
330
318324AF
100
AcDbEntity
  8
JISSEN
 62
     3
100
AcDbLine
 10
85.279308
 20
164.7234489999999
 30
0.0
 11
84.67309
 21
163.160951
 31
0.0
  0
LINE
  5
31834971
330
318324AF
100
AcDbEntity
  8
JISSEN
 62
     3
100
AcDbLine
 10
86.49174399999999
 20
165.423324
 30
0.0
 11
85.279308
 21
164.7234489999999
 31
0.0
  0
LINE
  5
31834972
330
318324AF
100
AcDbEntity
  8
JISSEN
 62
     3
100
AcDbLine
 10
87.097961
 20
164.5609509999999
 30
0.0
 11
86.49174399999999
 21
165.423324
 31
0.0
  0
LINE
  5
31834973
330
318324AF
100
AcDbEntity
  8
JISSEN
 62
     3
100
AcDbLine
 10
83.81576899999998
 20
163.655926
 30
0.0
 11
84.421987
 21
162.793553
 31
0.0
  0
LINE
  5
31834974
330
318324AF
100
AcDbEntity
  8
JISSEN
 62
     3
100
AcDbLine
 10
84.421987
 20
165.2184239999999
 30
0.0
 11
83.81576899999998
 21
163.655926
 31
0.0
  0
LINE
  5
31834975
330
318324AF
100
AcDbEntity
  8
JISSEN
 62
     3
100
AcDbLine
 10
85.634422
 20
165.9182989999999
 30
0.0
 11
84.421987
 21
165.2184239999999
 31
0.0
  0
LINE
  5
31834976
330
318324AF
100
AcDbEntity
  8
JISSEN
 62
     3
100
AcDbLine
 10
84.837591
 20
166.445875
 30
0.0
 11
84.17757399999999
 21
166.826936
 31
0.0
  0
LINE
  5
31834977
330
318324AF
100
AcDbEntity
  8
TENSEN
 62
     3
100
AcDbLine
 10
83.55596099999999
 20
160.7059259999999
 30
0.0
 11
86.820877
 21
156.6815249999999
 31
0.0
  0
LINE
  5
31834978
330
318324AF
100
AcDbEntity
  8
TENSEN
 62
     3
100
AcDbLine
 10
86.50044799999999
 20
162.4059259999999
 30
0.0
 11
89.470915
 21
158.211525
 31
0.0
  0
LINE
  5
31834979
330
318324AF
100
AcDbEntity
  8
TENSEN
 62
     3
100
AcDbLine
 10
86.820877
 20
151.39952
 30
0.0
 11
87.085881
 21
146.132986
 31
0.0
  0
LINE
  5
3183497A
330
318324AF
100
AcDbEntity
  8
TENSEN
 62
     3
100
AcDbLine
 10
89.470915
 20
152.9295199999999
 30
0.0
 11
89.20591100000001
 21
147.356986
 31
0.0
  0
LINE
  5
3183497B
330
318324AF
100
AcDbEntity
  8
TENSEN
 62
     3
100
AcDbLine
 10
89.20591100000001
 20
147.356986
 30
0.0
 11
87.085881
 21
146.132986
 31
0.0
  0
LINE
  5
3183497C
330
318324AF
100
AcDbEntity
  8
TENSEN
 62
     3
100
AcDbLine
 10
86.820877
 20
156.6815249999999
 30
0.0
 11
86.820877
 21
151.39952
 31
0.0
  0
LINE
  5
3183497D
330
318324AF
100
AcDbEntity
  8
TENSEN
 62
     3
100
AcDbLine
 10
89.470915
 20
158.211525
 30
0.0
 11
86.820877
 21
156.6815249999999
 31
0.0
  0
LINE
  5
3183497E
330
318324AF
100
AcDbEntity
  8
TENSEN
 62
     3
100
AcDbLine
 10
89.470915
 20
158.211525
 30
0.0
 11
89.470915
 21
152.9295199999999
 31
0.0
  0
LINE
  5
3183497F
330
318324AF
100
AcDbEntity
  8
TENSEN
 62
     3
100
AcDbLine
 10
86.50044799999999
 20
162.4059259999999
 30
0.0
 11
83.55596099999999
 21
160.7059259999999
 31
0.0
  0
LINE
  5
31834980
330
318324AF
100
AcDbEntity
  8
TENSEN
 62
     3
100
AcDbLine
 10
86.50044799999999
 20
167.4059259999999
 30
0.0
 11
83.55596099999999
 21
165.705926
 31
0.0
  0
LINE
  5
31834981
330
318324AF
100
AcDbEntity
  8
TENSEN
 62
     3
100
AcDbLine
 10
83.55596099999999
 20
165.705926
 30
0.0
 11
83.55596099999999
 21
160.7059259999999
 31
0.0
  0
LINE
  5
31834982
330
318324AF
100
AcDbEntity
  8
TENSEN
 62
     3
100
AcDbLine
 10
86.50044799999999
 20
167.4059259999999
 30
0.0
 11
86.50044799999999
 21
165.410942
 31
0.0
  0
LINE
  5
31834983
330
318324AF
100
AcDbEntity
  8
JISSEN
 62
     3
100
AcDbLine
 10
77.740088
 20
163.630236
 30
0.0
 11
77.740088
 21
165.29398
 31
0.0
  0
LINE
  5
31834984
330
318324AF
100
AcDbEntity
  8
JISSEN
 62
     3
100
AcDbLine
 10
77.67757399999999
 20
165.6602359999999
 30
0.0
 11
77.67757399999999
 21
167.210481
 31
0.0
  0
LINE
  5
31834985
330
318324AF
100
AcDbEntity
  8
JISSEN
 62
     3
100
AcDbLine
 10
84.17757399999999
 20
166.826936
 30
0.0
 11
84.17757399999999
 21
167.210481
 31
0.0
  0
ELLIPSE
  5
31834986
330
318324AF
100
AcDbEntity
  8
JISSEN
 62
     3
100
AcDbEllipse
 10
80.92757399999999
 20
165.6602359999999
 30
0.0
 11
-3.25
 21
0.0
 31
0.0
210
0.0
220
0.0
230
1.0
 40
0.5773500000000001
 41
0.0
 42
1.877830014072659
  0
LINE
  5
31834987
330
318324AF
100
AcDbEntity
  8
JISSEN
 62
     3
100
AcDbLine
 10
77.61507399999999
 20
167.580236
 30
0.0
 11
77.61507399999999
 21
168.0233239999999
 31
0.0
  0
LINE
  5
31834988
330
318324AF
100
AcDbEntity
  8
JISSEN
 62
     3
100
AcDbLine
 10
84.24007399999998
 20
167.580236
 30
0.0
 11
84.24007399999998
 21
168.0233239999999
 31
0.0
  0
ELLIPSE
  5
31834989
330
318324AF
100
AcDbEntity
  8
JISSEN
 62
     3
100
AcDbEllipse
 10
80.92757399999999
 20
167.580236
 30
0.0
 11
-3.3125
 21
0.0
 31
0.0
210
0.0
220
0.0
230
1.0
 40
0.5773500000000001
 41
0.0
 42
1.908709899543611
  0
LINE
  5
3183498A
330
318324AF
100
AcDbEntity
  8
JISSEN
 62
     3
100
AcDbLine
 10
77.740063
 20
169.2679919999999
 30
0.0
 11
79.60725699999999
 21
168.189943
 31
0.0
  0
LINE
  5
3183498B
330
318324AF
100
AcDbEntity
  8
JISSEN
 62
     3
100
AcDbLine
 10
79.60725699999999
 20
168.189943
 30
0.0
 11
82.24786899999999
 21
168.189937
 31
0.0
  0
LINE
  5
3183498C
330
318324AF
100
AcDbEntity
  8
JISSEN
 62
     3
100
AcDbLine
 10
82.24786899999999
 20
168.189937
 30
0.0
 11
84.115063
 21
169.26796
 31
0.0
  0
LINE
  5
3183498D
330
318324AF
100
AcDbEntity
  8
JISSEN
 62
     3
100
AcDbLine
 10
77.740063
 20
172.3924809999999
 30
0.0
 11
78.331115
 21
172.733732
 31
0.0
  0
LINE
  5
3183498E
330
318324AF
100
AcDbEntity
  8
JISSEN
 62
     3
100
AcDbLine
 10
83.524033
 20
172.733743
 30
0.0
 11
84.115063
 21
172.392512
 31
0.0
  0
LINE
  5
3183498F
330
318324AF
100
AcDbEntity
  8
JISSEN
 62
     3
100
AcDbLine
 10
77.740063
 20
170.8679919999999
 30
0.0
 11
79.60725699999999
 21
169.7899429999999
 31
0.0
  0
LINE
  5
31834990
330
318324AF
100
AcDbEntity
  8
JISSEN
 62
     3
100
AcDbLine
 10
82.24786899999999
 20
169.789937
 30
0.0
 11
84.115063
 21
170.86796
 31
0.0
  0
LINE
  5
31834991
330
318324AF
100
AcDbEntity
  8
JISSEN
 62
     3
100
AcDbLine
 10
79.60725699999999
 20
169.7899429999999
 30
0.0
 11
82.24786899999999
 21
169.789937
 31
0.0
  0
LINE
  5
31834992
330
318324AF
100
AcDbEntity
  8
JISSEN
 62
     3
100
AcDbLine
 10
84.115063
 20
172.392512
 30
0.0
 11
84.115063
 21
169.26796
 31
0.0
  0
LINE
  5
31834993
330
318324AF
100
AcDbEntity
  8
JISSEN
 62
     3
100
AcDbLine
 10
82.24786899999999
 20
169.789937
 30
0.0
 11
82.24786899999999
 21
168.189937
 31
0.0
  0
LINE
  5
31834994
330
318324AF
100
AcDbEntity
  8
JISSEN
 62
     3
100
AcDbLine
 10
79.60725699999999
 20
169.7899429999999
 30
0.0
 11
79.60725699999999
 21
168.189943
 31
0.0
  0
LINE
  5
31834995
330
318324AF
100
AcDbEntity
  8
JISSEN
 62
     3
100
AcDbLine
 10
77.740063
 20
172.3924809999999
 30
0.0
 11
77.740063
 21
169.2679919999999
 31
0.0
  0
ELLIPSE
  5
31834996
330
318324AF
100
AcDbEntity
  8
JISSEN
 62
     3
100
AcDbEllipse
 10
80.92757399999999
 20
163.630236
 30
0.0
 11
-3.187486227717827
 21
0.0
 31
0.0
210
0.0
220
0.0
230
1.0
 40
0.5773500000000001
 41
0.0
 42
2.124370123982983
  0
LINE
  5
31834997
330
318324AF
100
AcDbEntity
  8
JISSEN
 62
     3
100
AcDbLine
 10
78.48798000000001
 20
162.221736
 30
0.0
 11
80.92757399999999
 21
161.6383129999999
 31
0.0
  0
LINE
  5
31834998
330
318324AF
100
AcDbEntity
  8
JISSEN
 62
     3
100
AcDbLine
 10
77.477461
 20
163.630236
 30
0.0
 11
78.48798000000001
 21
162.221736
 31
0.0
  0
LINE
  5
31834999
330
318324AF
100
AcDbEntity
  8
JISSEN
 62
     3
100
AcDbLine
 10
77.740088
 20
163.996296
 30
0.0
 11
77.477461
 21
163.630236
 31
0.0
  0
LINE
  5
3183499A
330
318324AF
100
AcDbEntity
  8
JISSEN
 62
     3
100
AcDbLine
 10
77.477461
 20
162.030236
 30
0.0
 11
78.48798000000001
 21
160.621736
 31
0.0
  0
LINE
  5
3183499B
330
318324AF
100
AcDbEntity
  8
JISSEN
 62
     3
100
AcDbLine
 10
78.48798000000001
 20
160.621736
 30
0.0
 11
80.92757399999999
 21
160.0383129999999
 31
0.0
  0
LINE
  5
3183499C
330
318324AF
100
AcDbEntity
  8
JISSEN
 62
     3
100
AcDbLine
 10
81.28205600000001
 20
160.123086
 30
0.0
 11
80.92757399999999
 21
160.0383129999999
 31
0.0
  0
LINE
  5
3183499D
330
318324AF
100
AcDbEntity
  8
JISSEN
 62
     3
100
AcDbLine
 10
77.477461
 20
163.630236
 30
0.0
 11
77.477461
 21
162.030236
 31
0.0
  0
LINE
  5
3183499E
330
318324AF
100
AcDbEntity
  8
JISSEN
 62
     3
100
AcDbLine
 10
78.48797600000001
 20
162.2217339999999
 30
0.0
 11
78.48798000000001
 21
160.621736
 31
0.0
  0
LINE
  5
3183499F
330
318324AF
100
AcDbEntity
  8
JISSEN
 62
     3
100
AcDbLine
 10
80.92757399999999
 20
161.6383129999999
 30
0.0
 11
80.92757399999999
 21
160.0383129999999
 31
0.0
  0
LINE
  5
318349A0
330
318324AF
100
AcDbEntity
  8
JISSEN
 62
     3
100
AcDbLine
 10
77.36507399999999
 20
170.030236
 30
0.0
 11
77.36507399999999
 21
168.780236
 31
0.0
  0
LINE
  5
318349A1
330
318324AF
100
AcDbEntity
  8
JISSEN
 62
     3
100
AcDbLine
 10
84.49007399999999
 20
170.030236
 30
0.0
 11
84.49007399999999
 21
168.780236
 31
0.0
  0
ELLIPSE
  5
318349A2
330
318324AF
100
AcDbEntity
  8
JISSEN
 62
     3
100
AcDbEllipse
 10
80.92757399999999
 20
168.780236
 30
0.0
 11
-3.5625
 21
0.0
 31
0.0
210
0.0
220
0.0
230
1.0
 40
0.5773500000000001
 41
0.0
 42
3.141592653589792
  0
ELLIPSE
  5
318349A3
330
318324AF
100
AcDbEntity
  8
JISSEN
 62
     3
100
AcDbEllipse
 10
80.92757399999999
 20
170.030236
 30
0.0
 11
-3.5625
 21
0.0
 31
0.0
210
0.0
220
0.0
230
1.0
 40
0.5773500000000001
 41
5.820237750505099
 42
9.887739859872608
  0
LINE
  5
318349A4
330
318324AF
100
AcDbEntity
  8
JISSEN
 62
     3
100
AcDbLine
 10
83.524033
 20
171.630236
 30
0.0
 11
83.524033
 21
178.648201
 31
0.0
  0
LINE
  5
318349A5
330
318324AF
100
AcDbEntity
  8
JISSEN
 62
     3
100
AcDbLine
 10
78.331115
 20
171.630236
 30
0.0
 11
78.331115
 21
178.648201
 31
0.0
  0
LINE
  5
318349A6
330
318324AF
100
AcDbEntity
  8
JISSEN
 62
     3
100
AcDbLine
 10
78.331115
 20
148.003521
 30
0.0
 11
78.331115
 21
155.387209
 31
0.0
  0
LINE
  5
318349A7
330
318324AF
100
AcDbEntity
  8
JISSEN
 62
     3
100
AcDbLine
 10
83.524033
 20
148.003521
 30
0.0
 11
83.524033
 21
158.3574919999999
 31
0.0
  0
ARC
  5
318349A8
330
318324AF
100
AcDbEntity
  8
JISSEN
 62
     3
100
AcDbCircle
 10
79.629345
 20
179.935255
 30
0.0
 40
1.828088999999999
100
AcDbArc
 50
224.752327
 51
315.247673
  0
ARC
  5
318349A9
330
318324AF
100
AcDbEntity
  8
JISSEN
 62
     3
100
AcDbCircle
 10
79.629345
 20
177.3611469999999
 30
0.0
 40
1.828088999999999
100
AcDbArc
 50
44.752327
 51
135.247673
  0
ARC
  5
318349AA
330
318324AF
100
AcDbEntity
  8
JISSEN
 62
     3
100
AcDbCircle
 10
82.22580400000001
 20
177.3611469999999
 30
0.0
 40
1.828088999999999
100
AcDbArc
 50
44.752327
 51
135.247673
  0
ARC
  5
318349AB
330
318324AF
100
AcDbEntity
  8
JISSEN
 62
     3
100
AcDbCircle
 10
79.629345
 20
149.290575
 30
0.0
 40
1.828088999999999
100
AcDbArc
 50
224.752327
 51
315.247673
  0
ARC
  5
318349AC
330
318324AF
100
AcDbEntity
  8
JISSEN
 62
     3
100
AcDbCircle
 10
82.22580400000001
 20
149.290575
 30
0.0
 40
1.828088999999999
100
AcDbArc
 50
224.752327
 51
315.247673
  0
ARC
  5
318349AD
330
318324AF
100
AcDbEntity
  8
JISSEN
 62
     3
100
AcDbCircle
 10
82.22580400000001
 20
146.716467
 30
0.0
 40
1.828088999999999
100
AcDbArc
 50
44.752327
 51
135.247673
  0
LINE
  5
318349AE
330
318324AF
100
AcDbEntity
  8
JISSEN
 62
     3
100
AcDbLine
 10
86.93346
 20
167.1559259999999
 30
0.0
 11
82.87831700000001
 21
164.8146879999999
 31
0.0
  0
LINE
  5
318349AF
330
318324AF
100
AcDbEntity
  8
JISSEN
 62
     3
100
AcDbLine
 10
82.87831700000001
 20
164.8146879999999
 30
0.0
 11
82.87831700000001
 21
161.4146879999999
 31
0.0
  0
LINE
  5
318349B0
330
318324AF
100
AcDbEntity
  8
JISSEN
 62
     3
100
AcDbLine
 10
84.844284
 20
162.5497389999999
 30
0.0
 11
83.71123799999999
 21
161.895575
 31
0.0
  0
LINE
  5
318349B1
330
318324AF
100
AcDbEntity
  8
JISSEN
 62
     3
100
AcDbLine
 10
86.93346
 20
167.1559259999999
 30
0.0
 11
86.93346
 21
164.794962
 31
0.0
  0
LINE
  5
318349B2
330
318324AF
100
AcDbEntity
  8
JISSEN
 62
     3
100
AcDbLine
 10
83.80188000000002
 20
161.577907
 30
0.0
 11
79.11092299999999
 21
158.869582
 31
0.0
  0
LINE
  5
318349B3
330
318324AF
100
AcDbEntity
  8
JISSEN
 62
     3
100
AcDbLine
 10
83.80188000000002
 20
158.517907
 30
0.0
 11
79.11092299999999
 21
155.809582
 31
0.0
  0
LINE
  5
318349B4
330
318324AF
100
AcDbEntity
  8
JISSEN
 62
     3
100
AcDbLine
 10
83.80188000000002
 20
161.577907
 30
0.0
 11
83.80188000000002
 21
158.517907
 31
0.0
  0
LINE
  5
318349B5
330
318324AF
100
AcDbEntity
  8
JISSEN
 62
     3
100
AcDbLine
 10
82.87831700000001
 20
164.8146879999999
 30
0.0
 11
83.80188000000002
 21
161.577907
 31
0.0
  0
LINE
  5
318349B6
330
318324AF
100
AcDbEntity
  8
JISSEN
 62
     3
100
AcDbLine
 10
74.534075
 20
155.974647
 30
0.0
 11
74.534075
 21
153.4196279999999
 31
0.0
  0
LINE
  5
318349B7
330
318324AF
100
AcDbEntity
  8
JISSEN
 62
     3
100
AcDbLine
 10
79.11092299999999
 20
158.869582
 30
0.0
 11
74.534075
 21
155.974647
 31
0.0
  0
LINE
  5
318349B8
330
318324AF
100
AcDbEntity
  8
JISSEN
 62
     3
100
AcDbLine
 10
79.11092299999999
 20
155.809582
 30
0.0
 11
74.534075
 21
153.4196279999999
 31
0.0
  0
LWPOLYLINE
  5
318349B9
330
318324AF
100
AcDbEntity
  8
JISSEN
 62
     3
100
AcDbPolyline
 90
        2
 70
     0
 43
0.0
 10
80.57337999999999
 20
204.075733
 42
0.224019
 10
74.6438
 20
198.790167
 42
0.224019
  0
LINE
  5
318349BA
330
318324AF
100
AcDbEntity
  8
JISSEN
 62
     3
100
AcDbLine
 10
80.57337999999999
 20
204.075733
 30
0.0
 11
79.40054100000001
 21
204.7528719999999
 31
0.0
  0
LWPOLYLINE
  5
318349BB
330
318324AF
100
AcDbEntity
  8
JISSEN
 62
     3
100
AcDbPolyline
 90
        2
 70
     0
 43
0.0
 10
79.40054100000001
 20
204.7528719999999
 42
0.224019
 10
73.470962
 20
199.467306
 42
0.224019
  0
LINE
  5
318349BC
330
318324AF
100
AcDbEntity
  8
JISSEN
 62
     3
100
AcDbLine
 10
75.496592
 20
198.297807
 30
0.0
 11
74.6438
 21
198.790167
 31
0.0
  0
LINE
  5
318349BD
330
318324AF
100
AcDbEntity
  8
JISSEN
 62
     3
100
AcDbLine
 10
72.79644999999999
 20
199.856735
 30
0.0
 11
72.79644999999999
 21
197.42134
 31
0.0
  0
LINE
  5
318349BE
330
318324AF
100
AcDbEntity
  8
JISSEN
 62
     3
100
AcDbLine
 10
72.79644999999999
 20
197.42134
 30
0.0
 11
75.496592
 21
198.297807
 31
0.0
  0
LINE
  5
318349BF
330
318324AF
100
AcDbEntity
  8
JISSEN
 62
     3
100
AcDbLine
 10
73.470962
 20
199.467306
 30
0.0
 11
72.79644999999999
 21
199.856735
 31
0.0
  0
LINE
  5
318349C0
330
318324AF
100
AcDbEntity
  8
JISSEN
 62
     3
100
AcDbLine
 10
72.79644999999999
 20
198.565593
 30
0.0
 11
69.78021099999999
 21
198.8348889999999
 31
0.0
  0
LINE
  5
318349C1
330
318324AF
100
AcDbEntity
  8
JISSEN
 62
     3
100
AcDbLine
 10
82.87831700000001
 20
161.4146879999999
 30
0.0
 11
82.968959
 21
161.0970199999999
 31
0.0
  0
LINE
  5
318349C2
330
318324AF
100
AcDbEntity
  8
JISSEN
 62
     3
100
AcDbLine
 10
82.60333299999999
 20
162.0390659999999
 30
0.0
 11
80.92757399999999
 21
161.6383129999999
 31
0.0
  0
LINE
  5
318349C3
330
318324AF
100
AcDbEntity
  8
JISSEN
 62
     3
100
AcDbLine
 10
78.331115
 20
158.39151
 30
0.0
 11
78.331115
 21
160.84038
 31
0.0
  0
ARC
  5
318349C4
102
{ACAD_REACTORS
330
318349ED
102
}
330
318324AF
100
AcDbEntity
  8
JISSEN
 62
     3
100
AcDbCircle
 10
80.980071
 20
151.861065
 30
0.0
 40
8.372085
100
AcDbArc
 50
194.4971149999999
 51
291.994408
  0
ARC
  5
318349C5
330
318324AF
100
AcDbEntity
  8
JISSEN
 62
     3
100
AcDbCircle
 10
80.980071
 20
151.861065
 30
0.0
 40
8.372085
100
AcDbArc
 50
316.828227
 51
316.828227
  0
ARC
  5
318349C6
102
{ACAD_REACTORS
330
318349ED
102
}
330
318324AF
100
AcDbEntity
  8
JISSEN
 62
     3
100
AcDbCircle
 10
80.980071
 20
151.861065
 30
0.0
 40
10.734302
100
AcDbArc
 50
197.967466
 51
286.983671
  0
LINE
  5
318349C7
102
{ACAD_REACTORS
330
318349ED
102
}
330
318324AF
100
AcDbEntity
  8
JISSEN
 62
     3
100
AcDbLine
 10
74.18056899999999
 20
150.5193
 30
0.0
 11
72.87455099999999
 21
149.7652699999999
 31
0.0
  0
LINE
  5
318349C8
102
{ACAD_REACTORS
330
318349ED
102
}
330
318324AF
100
AcDbEntity
  8
JISSEN
 62
     3
100
AcDbLine
 10
74.18056899999999
 20
150.5193
 30
0.0
 11
70.642036
 21
152.8757129999999
 31
0.0
  0
LINE
  5
318349C9
102
{ACAD_REACTORS
330
318349ED
102
}
330
318324AF
100
AcDbEntity
  8
JISSEN
 62
     3
100
AcDbLine
 10
70.76926
 20
148.549781
 30
0.0
 11
69.175308
 21
147.629512
 31
0.0
  0
LINE
  5
318349CA
102
{ACAD_REACTORS
330
318349ED
102
}
330
318324AF
100
AcDbEntity
  8
JISSEN
 62
     3
100
AcDbLine
 10
70.642036
 20
152.8757129999999
 30
0.0
 11
69.175308
 21
147.629512
 31
0.0
  0
LINE
  5
318349CB
102
{ACAD_REACTORS
330
318349ED
102
}
330
318324AF
100
AcDbEntity
  8
JISSEN
 62
     3
100
AcDbLine
 10
84.11555099999999
 20
144.098297
 30
0.0
 11
84.11555099999999
 21
141.594907
 31
0.0
  0
ARC
  5
318349CC
330
318324AF
100
AcDbEntity
  8
JISSEN
 62
     3
100
AcDbCircle
 10
82.515072
 20
210.065734
 30
0.0
 40
0.8911249999999999
100
AcDbArc
 50
44.752327
 51
135.247673
  0
ARC
  5
318349CD
330
318324AF
100
AcDbEntity
  8
JISSEN
 62
     3
100
AcDbCircle
 10
81.24939499999999
 20
210.065734
 30
0.0
 40
0.8911249999999999
100
AcDbArc
 50
44.752327
 51
135.247673
  0
ARC
  5
318349CE
330
318324AF
100
AcDbEntity
  8
JISSEN
 62
     3
100
AcDbCircle
 10
81.24939499999999
 20
211.320516
 30
0.0
 40
0.8911249999999999
100
AcDbArc
 50
224.752327
 51
315.247673
  0
ARC
  5
318349CF
330
318324AF
100
AcDbEntity
  8
JISSEN
 62
     3
100
AcDbCircle
 10
82.515072
 20
186.780246
 30
0.0
 40
0.8911249999999999
100
AcDbArc
 50
44.752327
 51
135.247673
  0
ARC
  5
318349D0
330
318324AF
100
AcDbEntity
  8
JISSEN
 62
     3
100
AcDbCircle
 10
82.515072
 20
188.035028
 30
0.0
 40
0.8911249999999999
100
AcDbArc
 50
224.752327
 51
315.247673
  0
ARC
  5
318349D1
330
318324AF
100
AcDbEntity
  8
JISSEN
 62
     3
100
AcDbCircle
 10
81.24939499999999
 20
188.035028
 30
0.0
 40
0.8911249999999999
100
AcDbArc
 50
224.752327
 51
315.247673
  0
LINE
  5
318349D2
330
318324AF
100
AcDbEntity
  8
JISSEN
 62
     3
100
AcDbLine
 10
80.783863
 20
197.296525
 30
0.0
 11
79.644811
 21
197.954157
 31
0.0
  0
LINE
  5
318349D3
330
318324AF
100
AcDbEntity
  8
JISSEN
 62
     3
100
AcDbLine
 10
70.919262
 20
198.1772579999999
 30
0.0
 11
69.78021099999999
 21
198.8348889999999
 31
0.0
  0
TEXT
  5
318349D4
330
318324AF
100
AcDbEntity
  8
JISSEN
 62
     7
100
AcDbText
 10
85.072345
 20
237.178689
 30
0.0
 40
5.0
  1
手前に引く
  7
ｺ_ｼｯｸ
100
AcDbText
  0
LINE
  5
318349D5
330
318324AF
100
AcDbEntity
  8
JISSEN
100
AcDbLine
 10
101.4097449999999
 20
234.610974
 30
0.0
 11
119.409745
 21
234.610974
 31
0.0
  0
LINE
  5
318349D6
330
318324AF
100
AcDbEntity
  8
JISSEN
100
AcDbLine
 10
121.409745
 20
236.610974
 30
0.0
 11
121.409745
 21
242.610974
 31
0.0
  0
LINE
  5
318349D7
330
318324AF
100
AcDbEntity
  8
JISSEN
 62
     7
100
AcDbLine
 10
119.409745
 20
244.610974
 30
0.0
 11
83.40974499999999
 21
244.610974
 31
0.0
  0
ARC
  5
318349D8
330
318324AF
100
AcDbEntity
  8
JISSEN
100
AcDbCircle
 10
119.409745
 20
242.610974
 30
0.0
 40
2.0
100
AcDbArc
 50
0.0
 51
90.0
  0
ARC
  5
318349D9
330
318324AF
100
AcDbEntity
  8
JISSEN
100
AcDbCircle
 10
119.409745
 20
236.610974
 30
0.0
 40
2.0
100
AcDbArc
 50
270.0
 51
0.0
  0
ARC
  5
318349DA
330
318324AF
100
AcDbEntity
  8
JISSEN
 62
     7
100
AcDbCircle
 10
83.40974499999999
 20
242.610974
 30
0.0
 40
2.0
100
AcDbArc
 50
90.0
 51
180.0
  0
LINE
  5
318349DB
330
318324AF
100
AcDbEntity
  8
JISSEN
 62
     7
100
AcDbLine
 10
81.409745
 20
236.610974
 30
0.0
 11
81.409745
 21
242.610974
 31
0.0
  0
ARC
  5
318349DC
330
318324AF
100
AcDbEntity
  8
JISSEN
 62
     7
100
AcDbCircle
 10
83.40974499999999
 20
236.610974
 30
0.0
 40
2.0
100
AcDbArc
 50
180.0
 51
270.0
  0
LINE
  5
318349DD
330
318324AF
100
AcDbEntity
  8
JISSEN
 62
     7
100
AcDbLine
 10
101.4097449999999
 20
234.610974
 30
0.0
 11
83.40974499999999
 21
234.610974
 31
0.0
  0
TEXT
  5
318349DE
330
318324AF
100
AcDbEntity
  8
JISSEN
 62
     7
100
AcDbText
 10
71.53145962886597
 20
216.1118569999999
 30
0.0
 40
6.0
  1
手 動 起 動 弁
 41
1.199999999999999
  7
ｺ_ｼｯｸ
 72
     1
 11
101.6118719999999
 21
216.1118569999999
 31
0.0
100
AcDbText
  0
TEXT
  5
318349DF
330
318324AF
100
AcDbEntity
  8
JISSEN
 62
     3
100
AcDbText
 10
96.38942400000001
 20
201.44687
 30
0.0
 40
3.0
  1
①火災の場合
  7
ｺ_ｼｯｸ
100
AcDbText
  0
TEXT
  5
318349E0
330
318324AF
100
AcDbEntity
  8
JISSEN
 62
     3
100
AcDbText
 10
100.02282
 20
195.0562749999999
 30
0.0
 40
3.0
  1
カバーを外す
  7
ｺ_ｼｯｸ
100
AcDbText
  0
TEXT
  5
318349E1
330
318324AF
100
AcDbEntity
  8
JISSEN
 62
     3
100
AcDbText
 10
99.937585
 20
167.572113
 30
0.0
 40
3.0
  1
引上げると消火液が
  7
ｺ_ｼｯｸ
100
AcDbText
  0
TEXT
  5
318349E2
330
318324AF
100
AcDbEntity
  8
JISSEN
 62
     3
100
AcDbText
 10
95.66272600000001
 20
173.6583939999999
 30
0.0
 40
3.0
  1
②中のハンドルを
  7
ｺ_ｼｯｸ
100
AcDbText
  0
TEXT
  5
318349E3
330
318324AF
100
AcDbEntity
  8
JISSEN
 62
     3
100
AcDbText
 10
68.358991
 20
154.039481
 30
0.0
 40
3.5
  1
開
  7
ｺ_ｼｯｸ
100
AcDbText
  0
TEXT
  5
318349E4
330
318324AF
100
AcDbEntity
  8
JISSEN
 62
     3
100
AcDbText
 10
87.296756
 20
141.177532
 30
0.0
 40
3.5
  1
閉
  7
ｺ_ｼｯｸ
100
AcDbText
  0
TEXT
  5
318349E5
330
318324AF
100
AcDbEntity
  8
JISSEN
 62
     3
100
AcDbText
 10
94.893485
 20
141.9380679999999
 30
0.0
 40
3.0
  1
火災または点検時以外は
 41
0.9
  7
ｺ_ｼｯｸ
100
AcDbText
  0
TEXT
  5
318349E6
330
318324AF
100
AcDbEntity
  8
JISSEN
 62
     3
100
AcDbText
 10
94.643259
 20
137.339418
 30
0.0
 40
3.0
  1
絶対に手をふれないで
  7
ｺ_ｼｯｸ
100
AcDbText
  0
TEXT
  5
318349E7
330
318324AF
100
AcDbEntity
  8
JISSEN
 62
     3
100
AcDbText
 10
94.494365
 20
132.281471
 30
0.0
 40
3.0
  1
下さい。
  7
ｺ_ｼｯｸ
100
AcDbText
  0
TEXT
  5
318349E8
330
318324AF
100
AcDbEntity
  8
JISSEN
100
AcDbText
 10
105.6198629999999
 20
150.216668
 30
0.0
 40
3.5
  1
！ 注意
  7
ｺ_ｼｯｸ
100
AcDbText
  0
LINE
  5
318349E9
330
318324AF
100
AcDbEntity
  8
JISSEN
100
AcDbLine
 10
104.494558
 20
149.158579
 30
0.0
 11
111.353373
 21
149.158579
 31
0.0
  0
LINE
  5
318349EA
330
318324AF
100
AcDbEntity
  8
JISSEN
100
AcDbLine
 10
111.353373
 20
149.158579
 30
0.0
 11
107.9239649999999
 21
155.0984879999999
 31
0.0
  0
LINE
  5
318349EB
330
318324AF
100
AcDbEntity
  8
JISSEN
100
AcDbLine
 10
107.9239649999999
 20
155.0984879999999
 30
0.0
 11
104.494558
 21
149.158579
 31
0.0
  0
HATCH
  5
318349EC
330
318324AF
100
AcDbEntity
  8
SUNPOU
100
AcDbHatch
 10
0.0
 20
0.0
 30
0.0
210
0.0
220
0.0
230
1.0
  2
SOLID
 70
     1
 71
     0
 91
        2
 92
        7
 72
     1
 73
     1
 93
        7
 10
72.79645016665995
 20
197.4213398506129
 42
0.0
 10
75.49659230259658
 20
198.2978070724546
 42
0.0
 10
74.64379978803048
 20
198.7901670603022
 42
-0.1478358200107414
 10
78.09603540446676
 20
202.9260738756931
 42
0.0
 10
78.09603540446676
 20
204.258462840982
 42
0.1849485155330224
 10
73.47096156675059
 20
199.4673055230742
 42
0.0
 10
72.79645016665995
 20
199.856734861488
 42
0.0
 97
        0
 92
        7
 72
     1
 73
     1
 93
        4
 10
80.57337950639022
 20
204.0757331928388
 42
0.0
 10
79.40054128511031
 20
204.7528716556107
 42
0.0375159540357248
 10
78.09603540446676
 20
204.258462840982
 42
0.0
 10
78.09603540446676
 20
202.9260738756931
 42
-0.073740858400763
 97
        0
 75
     0
 76
     1
 47
0.056249
 98
        2
 10
73.62141899999999
 20
198.6114189999999
 10
78.986315
 20
204.009131
  0
HATCH
  5
318349ED
330
318324AF
100
AcDbEntity
  8
SUNPOU
100
AcDbHatch
 10
0.0
 20
0.0
 30
0.0
210
0.0
220
0.0
230
1.0
  2
SOLID
 70
     1
 71
     1
 91
        1
 92
        7
 72
     1
 73
     1
 93
        7
 10
72.87455055157566
 20
149.7652704007994
 42
0.0
 10
74.18056860160699
 20
150.5193002735516
 42
0.0
 10
70.64203645678777
 20
152.8757132470184
 42
0.0
 10
69.17530798579992
 20
147.6295117096511
 42
0.0
 10
70.76926042552234
 20
148.5497805798003
 42
0.4091933464324125
 10
84.11555132091825
 20
141.5949065377878
 42
0.0
 10
84.11555132091825
 20
144.0982967484986
 42
-0.4530798655933994
 97
        7
330
318349C7
330
318349C8
330
318349CA
330
318349C9
330
318349C6
330
318349CB
330
318349C4
 75
     0
 76
     1
 47
0.071796
 98
        1
 10
74.87361800000001
 20
143.945632
  0
TEXT
  5
318349EE
330
318324AF
100
AcDbEntity
  8
JISSEN
 62
     3
100
AcDbText
 10
99.803659
 20
161.40818
 30
0.0
 40
3.0
  1
放射されます
  7
ｺ_ｼｯｸ
100
AcDbText
  0
LWPOLYLINE
  5
318349EF
330
318324AF
100
AcDbEntity
  8
JISSEN
100
AcDbPolyline
 90
        4
 70
     1
 43
0.0
 10
102.4097449999999
 20
155.5219659999999
 10
123.4097449999999
 20
155.5219659999999
 10
123.4097449999999
 20
148.521966
 10
102.4097449999999
 20
148.521966
  0
ARC
  5
318349F0
330
318324AF
100
AcDbEntity
  8
JISSEN
100
AcDbCircle
 10
140.9097449999999
 20
247.110974
 30
0.0
 40
0.5
100
AcDbArc
 50
0.0
 51
90.0
  0
ARC
  5
318349F1
330
318324AF
100
AcDbEntity
  8
JISSEN
100
AcDbCircle
 10
61.90974499999999
 20
247.110974
 30
0.0
 40
0.5
100
AcDbArc
 50
90.0
 51
180.0
  0
LWPOLYLINE
  5
318349F2
330
318324AF
100
AcDbEntity
  8
JISSEN
100
AcDbPolyline
 90
        4
 70
     1
 43
0.0
 10
65.53624599999999
 20
231.610974
 10
137.2832449999999
 20
231.610974
 10
137.2832449999999
 20
228.281027
 10
65.53624599999999
 20
228.281027
  0
LWPOLYLINE
  5
318349F3
330
318324AF
100
AcDbEntity
  8
JISSEN
100
AcDbPolyline
 90
        4
 70
     1
 43
0.0
 10
65.53624599999999
 20
185.6109739999999
 10
137.2832449999999
 20
185.6109739999999
 10
137.2832449999999
 20
182.6109739999999
 10
65.53624599999999
 20
182.6109739999999
  0
LINE
  5
31834A27
330
318324AF
100
AcDbEntity
  8
JISSEN
100
AcDbLine
 10
138.560187
 20
332.110974
 30
0.0
 11
141.5606439999999
 21
332.110974
 31
0.0
  0
LINE
  5
31834A28
330
318324AF
100
AcDbEntity
  8
JISSEN
100
AcDbLine
 10
65.259303
 20
332.110974
 30
0.0
 11
62.258846
 21
332.110974
 31
0.0
  0
ARC
  5
31834B3E
330
318324AF
100
AcDbEntity
  8
JISSEN
100
AcDbCircle
 10
197.5411309999999
 20
114.2926355004638
 30
0.0
 40
6.0
100
AcDbArc
 50
180.0
 51
268.9999999999982
  0
LINE
  5
31834B3F
330
318324AF
100
AcDbEntity
  8
JISSEN
100
AcDbLine
 10
191.8411309999999
 20
231.610974
 30
0.0
 11
191.8411309999999
 21
228.6109740000001
 31
0.0
  0
LINE
  5
31834B40
330
318324AF
100
AcDbEntity
  8
JISSEN
100
AcDbLine
 10
191.5411309999999
 20
231.610974
 30
0.0
 11
191.8411309999999
 21
231.610974
 31
0.0
  0
LINE
  5
31834B41
330
318324AF
100
AcDbEntity
  8
JISSEN
100
AcDbLine
 10
191.8411309999999
 20
228.6109740000001
 30
0.0
 11
191.5411309999999
 21
228.6109740000001
 31
0.0
  0
LINE
  5
31834B42
330
318324AF
100
AcDbEntity
  8
JISSEN
100
AcDbLine
 10
191.5411309999999
 20
185.6109739999999
 30
0.0
 11
191.5411309999999
 21
228.6109740000001
 31
0.0
  0
LINE
  5
31834B43
330
318324AF
100
AcDbEntity
  8
JISSEN
100
AcDbLine
 10
191.5411309999999
 20
231.6109739999999
 30
0.0
 11
191.5411309999999
 21
247.6109739999999
 31
0.0
  0
LINE
  5
31834B44
330
318324AF
100
AcDbEntity
  8
JISSEN
100
AcDbLine
 10
191.8411309999999
 20
182.6109739999999
 30
0.0
 11
191.5411309999999
 21
182.6109739999999
 31
0.0
  0
LINE
  5
31834B45
330
318324AF
100
AcDbEntity
  8
JISSEN
100
AcDbLine
 10
191.5411309999999
 20
185.6109739999999
 30
0.0
 11
191.8411309999999
 21
185.6109739999999
 31
0.0
  0
LINE
  5
31834B46
330
318324AF
100
AcDbEntity
  8
JISSEN
100
AcDbLine
 10
191.8411309999999
 20
185.6109739999999
 30
0.0
 11
191.8411309999999
 21
182.6109739999999
 31
0.0
  0
ARC
  5
31834B4F
330
318324AF
100
AcDbEntity
  8
JISSEN
100
AcDbCircle
 10
219.6121988118657
 20
236.610974
 30
0.0
 40
5.0
100
AcDbArc
 50
225.0
 51
270.0
  0
ARC
  5
31834B50
330
318324AF
100
AcDbEntity
  8
JISSEN
100
AcDbCircle
 10
199.4700631881344
 20
242.610974
 30
0.0
 40
5.0
100
AcDbArc
 50
45.0
 51
90.0
  0
LINE
  5
31834B52
330
318324AF
100
AcDbEntity
  8
JISSEN
100
AcDbLine
 10
203.0055970940671
 20
246.1465079059327
 30
0.0
 11
216.0766649059327
 21
233.0754400940671
 31
0.0
  0
LINE
  5
31834B5F
330
318324AF
100
AcDbEntity
  8
JISSEN
100
AcDbLine
 10
236.5411309999999
 20
107.6109739999999
 30
0.0
 11
197.4364165613762
 21
108.2935493295255
 31
0.0
  0
LINE
  5
31834B61
330
318324AF
100
AcDbEntity
  8
JISSEN
100
AcDbLine
 10
202.4411309999999
 20
108.2061917140521
 30
0.0
 11
202.441131
 21
105.6109739999999
 31
0.0
  0
LINE
  5
31834B62
330
318324AF
100
AcDbEntity
  8
JISSEN
100
AcDbLine
 10
202.441131
 20
105.6109739999999
 30
0.0
 11
236.5411309999999
 21
105.6109739999996
 31
0.0
  0
LINE
  5
31834B6A
330
318324AF
100
AcDbEntity
  8
JISSEN
100
AcDbLine
 10
236.5411309999999
 20
105.6109739999999
 30
0.0
 11
236.5411309999999
 21
241.610974
 31
0.0
  0
LINE
  5
31834B6B
330
318324AF
100
AcDbEntity
  8
JISSEN
100
AcDbLine
 10
191.5411309999999
 20
114.2926355004638
 30
0.0
 11
191.5411309999999
 21
182.6109739999999
 31
0.0
  0
LINE
  5
31834B6D
330
318324AF
100
AcDbEntity
  8
JISSEN
100
AcDbLine
 10
191.5411309999999
 20
247.6109739999999
 30
0.0
 11
199.4700631881343
 21
247.6109740000001
 31
0.0
  0
LINE
  5
31834C08
330
318324AF
100
AcDbEntity
  8
JISSEN
100
AcDbLine
 10
336.759302
 20
332.110974
 30
0.0
 11
333.758845
 21
332.110974
 31
0.0
  0
LINE
  5
31834C09
330
318324AF
100
AcDbEntity
  8
JISSEN
100
AcDbLine
 10
410.060186
 20
332.110974
 30
0.0
 11
413.060643
 21
332.110974
 31
0.0
  0
LINE
  5
31834E2B
330
318324AF
100
AcDbEntity
  8
TENSEN
 48
3.0
100
AcDbLine
 10
477.19113
 20
235.998173
 30
0.0
 11
477.19113
 21
262.110974
 31
0.0
  0
LINE
  5
31834E2C
330
318324AF
100
AcDbEntity
  8
TENSEN
 48
3.0
100
AcDbLine
 10
498.8911299999998
 20
235.998173
 30
0.0
 11
498.8911299999998
 21
262.110974
 31
0.0
  0
ELLIPSE
  5
31834E2D
330
318324AF
100
AcDbEntity
  8
TENSEN
 48
3.0
100
AcDbEllipse
 10
493.4661299999999
 20
90.110974
 30
0.0
 11
-5.424999999999998
 21
0.0
 31
0.0
210
0.0
220
0.0
230
1.0
 40
0.3686639999999999
 41
0.0
 42
3.141592653589792
  0
LINE
  5
31834E2E
330
318324AF
100
AcDbEntity
  8
TENSEN
 48
3.0
100
AcDbLine
 10
498.8911299999998
 20
139.1233747004602
 30
0.0
 11
498.8911299999998
 21
90.110974
 31
0.0
  0
ELLIPSE
  5
31834E2F
330
318324AF
100
AcDbEntity
  8
TENSEN
 48
3.0
100
AcDbEllipse
 10
482.6161299999999
 20
90.110974
 30
0.0
 11
-5.424999999999998
 21
0.0
 31
0.0
210
0.0
220
0.0
230
1.0
 40
0.3686639999999999
 41
0.0
 42
6.283185307179585
  0
LINE
  5
31834E30
330
318324AF
100
AcDbEntity
  8
TENSEN
 48
3.0
100
AcDbLine
 10
477.19113
 20
173.2237749999999
 30
0.0
 11
477.19113
 21
90.110974
 31
0.0
  0
ELLIPSE
  5
31834E31
330
318324AF
100
AcDbEntity
  8
TENSEN
 48
3.0
100
AcDbEllipse
 10
493.4661299999999
 20
262.110974
 30
0.0
 11
5.424999999999998
 21
-0.0000000000000007
 31
0.0
210
0.0
220
0.0
230
1.0
 40
0.3686639999999999
 41
0.0
 42
6.283185307179585
  0
ELLIPSE
  5
31834E32
330
318324AF
100
AcDbEntity
  8
TENSEN
 48
3.0
100
AcDbEllipse
 10
482.6161299999999
 20
262.110974
 30
0.0
 11
5.424999999999998
 21
-0.0000000000000007
 31
0.0
210
0.0
220
0.0
230
1.0
 40
0.3686639999999999
 41
0.0
 42
3.141592653589792
  0
LINE
  5
31834E33
330
318324AF
100
AcDbEntity
  8
TENSEN
 48
3.0
100
AcDbLine
 10
369.259744
 20
173.2237749744684
 30
0.0
 11
369.259744
 21
90.110974
 31
0.0
  0
LINE
  5
31834E34
330
318324AF
100
AcDbEntity
  8
TENSEN
 48
3.0
100
AcDbLine
 10
347.559744
 20
173.2237749744681
 30
0.0
 11
347.559744
 21
90.110974
 31
0.0
  0
ELLIPSE
  5
31834E35
330
318324AF
100
AcDbEntity
  8
TENSEN
 48
3.0
100
AcDbEllipse
 10
352.9847439999999
 20
90.110974
 30
0.0
 11
-5.424999999999998
 21
0.0
 31
0.0
210
0.0
220
0.0
230
1.0
 40
0.3686639999999999
 41
0.0
 42
6.283185307179585
  0
ELLIPSE
  5
31834E36
330
318324AF
100
AcDbEntity
  8
TENSEN
 48
3.0
100
AcDbEllipse
 10
363.8347439999999
 20
90.110974
 30
0.0
 11
-5.424999999999998
 21
0.0
 31
0.0
210
0.0
220
0.0
230
1.0
 40
0.3686639999999999
 41
0.0
 42
3.141592653589792
  0
LINE
  5
31834E37
330
318324AF
100
AcDbEntity
  8
TENSEN
 48
3.0
100
AcDbLine
 10
347.559744
 20
235.998173025532
 30
0.0
 11
347.559744
 21
262.110974
 31
0.0
  0
LINE
  5
31834E38
330
318324AF
100
AcDbEntity
  8
TENSEN
 48
3.0
100
AcDbLine
 10
369.259744
 20
235.9981730255317
 30
0.0
 11
369.259744
 21
262.110974
 31
0.0
  0
ELLIPSE
  5
31834E39
330
318324AF
100
AcDbEntity
  8
TENSEN
 48
3.0
100
AcDbEllipse
 10
363.8347439999999
 20
262.110974
 30
0.0
 11
5.424999999999998
 21
-0.0000000000000007
 31
0.0
210
0.0
220
0.0
230
1.0
 40
0.3686639999999999
 41
0.0
 42
6.283185307179585
  0
ELLIPSE
  5
31834E3A
330
318324AF
100
AcDbEntity
  8
TENSEN
 48
3.0
100
AcDbEllipse
 10
352.9847439999999
 20
262.110974
 30
0.0
 11
5.424999999999998
 21
-0.0000000000000007
 31
0.0
210
0.0
220
0.0
230
1.0
 40
0.3686639999999999
 41
0.0
 42
3.141592653589792
  0
LINE
  5
31834FBC
330
318324AF
100
AcDbEntity
  8
TENSEN
100
AcDbLine
 10
477.19113
 20
173.2237749999999
 30
0.0
 11
477.3583299999999
 21
173.513374
 31
0.0
  0
LINE
  5
31834FBE
330
318324AF
100
AcDbEntity
  8
TENSEN
100
AcDbLine
 10
478.72563
 20
180.610974
 30
0.0
 11
478.56938
 21
175.610974
 31
0.0
  0
LINE
  5
31834FBF
330
318324AF
100
AcDbEntity
  8
TENSEN
100
AcDbLine
 10
477.4238799999999
 20
175.610974
 30
0.0
 11
482.0411299999999
 21
175.610974
 31
0.0
  0
LINE
  5
31834FC0
330
318324AF
100
AcDbEntity
  8
TENSEN
100
AcDbLine
 10
477.3583299999999
 20
173.513374
 30
0.0
 11
477.5801299999999
 21
180.610974
 31
0.0
  0
LINE
  5
31834FC1
330
318324AF
100
AcDbEntity
  8
TENSEN
100
AcDbLine
 10
478.56938
 20
175.610974
 30
0.0
 11
477.3583299999999
 21
173.513374
 31
0.0
  0
LINE
  5
31834FC7
330
318324AF
100
AcDbEntity
  8
JISSEN
100
AcDbLine
 10
333.4097439999999
 20
352.1109739999999
 30
0.0
 11
334.0923189999999
 21
313.00626
 31
0.0
  0
ARC
  5
31834FC8
330
318324AF
100
AcDbEntity
  8
JISSEN
100
AcDbCircle
 10
340.091406
 20
313.1109739999999
 30
0.0
 40
6.0
100
AcDbArc
 50
181.0
 51
270.0
  0
ARC
  5
31834FC9
330
318324AF
100
AcDbEntity
  8
JISSEN
100
AcDbCircle
 10
340.091406
 20
313.1109739999999
 30
0.0
 40
3.0
100
AcDbArc
 50
181.0
 51
270.0
  0
LINE
  5
31834FCA
330
318324AF
100
AcDbEntity
  8
JISSEN
100
AcDbLine
 10
336.409287
 20
352.1633319999999
 30
0.0
 11
336.410201
 21
352.1109739999999
 31
0.0
  0
LINE
  5
31834FCB
330
318324AF
100
AcDbEntity
  8
JISSEN
100
AcDbLine
 10
336.759302
 20
332.110974
 30
0.0
 11
337.0918629999999
 21
313.0586169999999
 31
0.0
  0
LINE
  5
31834FCC
330
318324AF
100
AcDbEntity
  8
JISSEN
100
AcDbLine
 10
410.060186
 20
332.110974
 30
0.0
 11
409.727626
 21
313.0586169999999
 31
0.0
  0
LINE
  5
31834FCD
330
318324AF
100
AcDbEntity
  8
JISSEN
100
AcDbLine
 10
410.410201
 20
352.1633319999999
 30
0.0
 11
410.4092869999999
 21
352.1109739999999
 31
0.0
  0
ARC
  5
31834FCE
330
318324AF
100
AcDbEntity
  8
JISSEN
100
AcDbCircle
 10
406.7280829999999
 20
313.1109739999999
 30
0.0
 40
3.0
100
AcDbArc
 50
270.0
 51
359.0
  0
ARC
  5
31834FCF
330
318324AF
100
AcDbEntity
  8
JISSEN
100
AcDbCircle
 10
406.7280829999999
 20
313.1109739999999
 30
0.0
 40
6.0
100
AcDbArc
 50
270.0
 51
359.0
  0
LINE
  5
31834FD0
330
318324AF
100
AcDbEntity
  8
JISSEN
100
AcDbLine
 10
413.4097439999999
 20
352.1109739999999
 30
0.0
 11
412.7271689999999
 21
313.00626
 31
0.0
  0
CIRCLE
  5
31834FD1
330
318324AF
100
AcDbEntity
  8
TENSEN
100
AcDbCircle
 10
358.4097439999999
 20
332.110974
 30
0.0
 40
10.84999999999999
  0
ARC
  5
31834FD2
330
318324AF
100
AcDbEntity
  8
JISSEN
100
AcDbCircle
 10
345.070641
 20
351.110974
 30
0.0
 40
1.0
100
AcDbArc
 50
10.0
 51
90.0
  0
ARC
  5
31834FD3
330
318324AF
100
AcDbEntity
  8
JISSEN
100
AcDbCircle
 10
371.748848
 20
351.110974
 30
0.0
 40
1.0
100
AcDbArc
 50
90.0
 51
170.0
  0
LINE
  5
31834FD4
330
318324AF
100
AcDbEntity
  8
JISSEN
100
AcDbLine
 10
342.86346
 20
352.1109739999999
 30
0.0
 11
345.1435299999999
 21
339.180056
 31
0.0
  0
LINE
  5
31834FD5
330
318324AF
100
AcDbEntity
  8
JISSEN
100
AcDbLine
 10
348.3765299999999
 20
338.1211149999999
 30
0.0
 11
346.055448
 21
351.284623
 31
0.0
  0
ARC
  5
31834FD6
330
318324AF
100
AcDbEntity
  8
JISSEN
100
AcDbCircle
 10
345.422107
 20
337.6001699999999
 30
0.0
 40
3.0
100
AcDbArc
 50
337.0887589999999
 51
10.0
  0
ARC
  5
31834FD7
330
318324AF
100
AcDbEntity
  8
JISSEN
100
AcDbCircle
 10
339.234684
 20
338.138167
 30
0.0
 40
6.0
100
AcDbArc
 50
342.5507859999999
 51
10.0
  0
ARC
  5
31834FD8
330
318324AF
100
AcDbEntity
  8
JISSEN
100
AcDbCircle
 10
358.4097439999999
 20
332.110974
 30
0.0
 40
11.1
100
AcDbArc
 50
157.088759
 51
22.911241
  0
ARC
  5
31834FD9
330
318324AF
100
AcDbEntity
  8
JISSEN
100
AcDbCircle
 10
358.4097439999999
 20
332.110974
 30
0.0
 40
14.1
100
AcDbArc
 50
162.550786
 51
17.449214
  0
ARC
  5
31834FDA
330
318324AF
100
AcDbEntity
  8
JISSEN
100
AcDbCircle
 10
371.397382
 20
337.6001699999999
 30
0.0
 40
3.0
100
AcDbArc
 50
170.0
 51
202.911241
  0
ARC
  5
31834FDB
330
318324AF
100
AcDbEntity
  8
JISSEN
100
AcDbCircle
 10
377.584805
 20
338.138167
 30
0.0
 40
6.0
100
AcDbArc
 50
170.0
 51
197.4492139999999
  0
LINE
  5
31834FDC
330
318324AF
100
AcDbEntity
  8
JISSEN
100
AcDbLine
 10
373.956028
 20
352.1109739999999
 30
0.0
 11
371.6759579999999
 21
339.180056
 31
0.0
  0
LINE
  5
31834FDD
330
318324AF
100
AcDbEntity
  8
JISSEN
100
AcDbLine
 10
368.4429579999999
 20
338.1211149999999
 30
0.0
 11
370.76404
 21
351.284623
 31
0.0
  0
LINE
  5
31834FDE
330
318324AF
100
AcDbEntity
  8
JISSEN
100
AcDbLine
 10
345.070641
 20
352.1109739999999
 30
0.0
 11
333.4097439999999
 21
352.1109739999999
 31
0.0
  0
LINE
  5
31834FDF
330
318324AF
100
AcDbEntity
  8
JISSEN
100
AcDbLine
 10
413.4097439999999
 20
352.1109739999999
 30
0.0
 11
371.748848
 21
352.1109739999999
 31
0.0
  0
LINE
  5
31834FE0
330
318324AF
100
AcDbEntity
  8
JISSEN
100
AcDbLine
 10
340.091406
 20
307.110974
 30
0.0
 11
406.7280829999999
 21
307.110974
 31
0.0
  0
LINE
  5
31834FE1
330
318324AF
100
AcDbEntity
  8
JISSEN
100
AcDbLine
 10
407.07762
 20
310.110974
 30
0.0
 11
340.091406
 21
310.110974
 31
0.0
  0
LWPOLYLINE
  5
31834FE2
330
318324AF
100
AcDbEntity
  8
WAKU
100
AcDbPolyline
 90
        4
 70
     1
 43
0.0
 10
271.4999989999999
 20
0.0
 10
542.9999979999999
 20
0.0
 10
542.9999979999999
 20
409.4999999999999
 10
271.4999989999999
 20
409.4999999999999
  0
LINE
  5
31834FE4
330
318324AF
100
AcDbEntity
  8
JISSEN
100
AcDbLine
 10
207.541131
 20
241.6109739999999
 30
0.0
 11
236.5411309999999
 21
241.610974
 31
0.0
  0
LINE
  5
31834FE5
330
318324AF
100
AcDbEntity
  8
JISSEN
100
AcDbLine
 10
219.6121988118657
 20
231.610974
 30
0.0
 11
236.5411309999999
 21
231.6109739999999
 31
0.0
  0
LINE
  5
31834FE6
330
318324AF
100
AcDbEntity
  8
TENSEN
 48
3.0
100
AcDbLine
 10
205.691131
 20
105.6109739999999
 30
0.0
 11
205.691131
 21
90.110974
 31
0.0
  0
LINE
  5
31834FE7
330
318324AF
100
AcDbEntity
  8
TENSEN
 48
3.0
100
AcDbLine
 10
227.391131
 20
105.6109739999997
 30
0.0
 11
227.3911309999999
 21
90.110974
 31
0.0
  0
LINE
  5
31835205
330
318324AF
100
AcDbEntity
  8
JISSEN
100
AcDbLine
 10
412.909744
 20
247.610974
 30
0.0
 11
369.259744
 21
247.610974
 31
0.0
  0
LINE
  5
31835206
330
318324AF
100
AcDbEntity
  8
JISSEN
100
AcDbLine
 10
341.8998552794903
 20
105.610974
 30
0.0
 11
347.559744
 21
105.610974
 31
0.0
  0
LINE
  5
31835207
330
318324AF
100
AcDbEntity
  8
JISSEN
 48
10.0
100
AcDbLine
 10
339.4097440000001
 20
107.610974
 30
0.0
 11
341.8998552794903
 21
107.610974
 31
0.0
  0
LINE
  5
31835208
330
318324AF
100
AcDbEntity
  8
JISSEN
100
AcDbLine
 10
333.4097440000001
 20
113.610974
 30
0.0
 11
333.4097440000002
 21
247.110974
 31
0.0
  0
LINE
  5
31835209
330
318324AF
100
AcDbEntity
  8
JISSEN
 48
10.0
100
AcDbLine
 10
344.9461351151477
 20
105.610974
 30
0.0
 11
344.9461351151477
 21
110.6109740000001
 31
0.0
  0
LINE
  5
3183520A
330
318324AF
100
AcDbEntity
  8
JISSEN
 48
10.0
100
AcDbLine
 10
341.8998552794903
 20
105.610974
 30
0.0
 11
341.8998552794903
 21
107.610974
 31
0.0
  0
LINE
  5
3183520B
330
318324AF
100
AcDbEntity
  8
JISSEN
 48
10.0
100
AcDbLine
 10
371.8733528848527
 20
105.610974
 30
0.0
 11
371.8733528848527
 21
110.610974
 31
0.0
  0
LINE
  5
3183520C
330
318324AF
100
AcDbEntity
  8
JISSEN
100
AcDbLine
 10
413.4097440000001
 20
113.610974
 30
0.0
 11
413.4097440000001
 21
247.1109740000001
 31
0.0
  0
LINE
  5
3183520D
330
318324AF
100
AcDbEntity
  8
JISSEN
 48
10.0
100
AcDbLine
 10
374.9196327205098
 20
107.610974
 30
0.0
 11
407.409744
 21
107.610974
 31
0.0
  0
LINE
  5
3183520E
330
318324AF
100
AcDbEntity
  8
JISSEN
100
AcDbLine
 10
410.4097440000001
 20
113.610974
 30
0.0
 11
410.4097440000001
 21
228.6109740000001
 31
0.0
  0
LINE
  5
3183520F
330
318324AF
100
AcDbEntity
  8
JISSEN
100
AcDbLine
 10
336.409744
 20
113.610974
 30
0.0
 11
336.409744
 21
228.610974
 31
0.0
  0
LINE
  5
31835210
330
318324AF
100
AcDbEntity
  8
JISSEN
 48
10.0
100
AcDbLine
 10
333.4097440000002
 20
231.610974
 30
0.0
 11
342.8634601494584
 21
231.610974
 31
0.0
  0
LINE
  5
31835211
330
318324AF
100
AcDbEntity
  8
JISSEN
100
AcDbLine
 10
410.4097440000001
 20
231.6109740000002
 30
0.0
 11
410.4097440000001
 21
247.110974
 31
0.0
  0
LINE
  5
31835212
330
318324AF
100
AcDbEntity
  8
JISSEN
 48
10.0
100
AcDbLine
 10
339.4097440000001
 20
110.610974
 30
0.0
 11
347.559744
 21
110.610974
 31
0.0
  0
LINE
  5
31835213
330
318324AF
100
AcDbEntity
  8
JISSEN
100
AcDbLine
 10
370.9097480148844
 20
228.6109740000001
 30
0.0
 11
370.9097480148843
 21
241.610974
 31
0.0
  0
LINE
  5
31835214
330
318324AF
100
AcDbEntity
  8
JISSEN
100
AcDbLine
 10
345.9097399851159
 20
228.6109740000001
 30
0.0
 11
345.9097399851157
 21
241.610974
 31
0.0
  0
LINE
  5
31835215
330
318324AF
100
AcDbEntity
  8
JISSEN
 48
10.0
100
AcDbLine
 10
336.409744
 20
228.610974
 30
0.0
 11
410.4097440000001
 21
228.6109740000001
 31
0.0
  0
LINE
  5
31835216
330
318324AF
100
AcDbEntity
  8
JISSEN
100
AcDbLine
 10
410.4097440000001
 20
185.610974
 30
0.0
 11
390.8699980378448
 21
185.610974
 31
0.0
  0
LINE
  5
31835217
330
318324AF
100
AcDbEntity
  8
JISSEN
100
AcDbLine
 10
375.9097440000001
 20
185.610974
 30
0.0
 11
375.9097440000001
 21
182.610974
 31
0.0
  0
LINE
  5
31835218
330
318324AF
100
AcDbEntity
  8
JISSEN
100
AcDbLine
 10
410.4097440000001
 20
182.610974
 30
0.0
 11
396.0661504605514
 21
182.610974
 31
0.0
  0
LINE
  5
31835219
330
318324AF
100
AcDbEntity
  8
JISSEN
100
AcDbLine
 10
372.7265472286866
 20
185.610974
 30
0.0
 11
372.7265472286866
 21
182.610974
 31
0.0
  0
LINE
  5
3183521A
330
318324AF
100
AcDbEntity
  8
JISSEN
100
AcDbLine
 10
344.0929407713134
 20
185.610974
 30
0.0
 11
344.0929407713134
 21
182.610974
 31
0.0
  0
LINE
  5
3183521B
330
318324AF
100
AcDbEntity
  8
JISSEN
100
AcDbLine
 10
344.0929407713134
 20
185.610974
 30
0.0
 11
344.0929407713134
 21
182.610974
 31
0.0
  0
LINE
  5
3183521C
330
318324AF
100
AcDbEntity
  8
JISSEN
100
AcDbLine
 10
373.9560278505416
 20
231.610974
 30
0.0
 11
373.9560278505415
 21
241.610974
 31
0.0
  0
LINE
  5
3183521D
330
318324AF
100
AcDbEntity
  8
JISSEN
100
AcDbLine
 10
342.8634601494584
 20
231.610974
 30
0.0
 11
342.8634601494584
 21
241.610974
 31
0.0
  0
LINE
  5
3183521E
330
318324AF
100
AcDbEntity
  8
JISSEN
100
AcDbLine
 10
342.8634601494584
 20
241.610974
 30
0.0
 11
347.559744
 21
241.610974
 31
0.0
  0
LINE
  5
3183521F
330
318324AF
100
AcDbEntity
  8
JISSEN
 48
10.0
100
AcDbLine
 10
373.9560278505416
 20
231.610974
 30
0.0
 11
413.4097440000001
 21
231.6109740000002
 31
0.0
  0
ARC
  5
31835220
330
318324AF
100
AcDbEntity
  8
JISSEN
 48
10.0
100
AcDbCircle
 10
339.4097440000001
 20
113.610974
 30
0.0
 40
3.0
100
AcDbArc
 50
180.0
 51
270.0
  0
ARC
  5
31835221
330
318324AF
100
AcDbEntity
  8
JISSEN
100
AcDbCircle
 10
407.409744
 20
113.610974
 30
0.0
 40
3.0
100
AcDbArc
 50
270.0
 51
0.000000000000007
  0
ARC
  5
31835222
330
318324AF
100
AcDbEntity
  8
JISSEN
100
AcDbCircle
 10
407.409744
 20
113.610974
 30
0.0
 40
6.0
100
AcDbArc
 50
270.0
 51
0.000000000000007
  0
ARC
  5
31835223
330
318324AF
100
AcDbEntity
  8
JISSEN
100
AcDbCircle
 10
339.4097440000001
 20
113.610974
 30
0.0
 40
6.0
100
AcDbArc
 50
180.0
 51
270.0
  0
LINE
  5
31835224
330
318324AF
100
AcDbEntity
  8
JISSEN
100
AcDbLine
 10
336.409744
 20
231.6109740000002
 30
0.0
 11
336.409744
 21
247.110974
 31
0.0
  0
LINE
  5
31835225
330
318324AF
100
AcDbEntity
  8
JISSEN
 48
10.0
100
AcDbLine
 10
374.9196327205098
 20
105.610974
 30
0.0
 11
374.9196327205098
 21
107.610974
 31
0.0
  0
ARC
  5
31835226
330
318324AF
100
AcDbEntity
  8
JISSEN
100
AcDbCircle
 10
412.909744
 20
247.1109740000001
 30
0.0
 40
0.5
100
AcDbArc
 50
0.000000000000007
 51
90.0
  0
ARC
  5
31835227
330
318324AF
100
AcDbEntity
  8
JISSEN
100
AcDbCircle
 10
333.9097440000002
 20
247.110974
 30
0.0
 40
0.5
100
AcDbArc
 50
90.0
 51
180.0
  0
ARC
  5
31835228
330
318324AF
100
AcDbEntity
  8
JISSEN
100
AcDbCircle
 10
335.9097440000001
 20
247.110974
 30
0.0
 40
0.5
100
AcDbArc
 50
0.000000000000007
 51
90.0
  0
ARC
  5
31835229
330
318324AF
100
AcDbEntity
  8
JISSEN
100
AcDbCircle
 10
410.9097440000001
 20
247.110974
 30
0.0
 40
0.5
100
AcDbArc
 50
90.0
 51
180.0
  0
LINE
  5
3183522A
330
318324AF
100
AcDbEntity
  8
JISSEN
100
AcDbLine
 10
347.559744
 20
235.998173025532
 30
0.0
 11
347.7269439956884
 21
235.7085741379745
 31
0.0
  0
LINE
  5
3183522B
330
318324AF
100
AcDbEntity
  8
JISSEN
100
AcDbLine
 10
369.2597440000001
 20
235.998173025532
 30
0.0
 11
369.0925440043118
 21
235.7085741379745
 31
0.0
  0
LINE
  5
3183522C
330
318324AF
100
AcDbEntity
  8
NITEN
100
AcDbLine
 10
347.9487440000001
 20
228.6109740000001
 30
0.0
 11
347.7269439956884
 21
235.7085741379745
 31
0.0
  0
LINE
  5
3183522D
330
318324AF
100
AcDbEntity
  8
NITEN
100
AcDbLine
 10
367.725244
 20
228.6109740000001
 30
0.0
 11
367.881494
 21
233.610974
 31
0.0
  0
LINE
  5
3183522E
330
318324AF
100
AcDbEntity
  8
NITEN
100
AcDbLine
 10
369.0269940000001
 20
233.610974
 30
0.0
 11
347.7924940000001
 21
233.610974
 31
0.0
  0
LINE
  5
3183522F
330
318324AF
100
AcDbEntity
  8
NITEN
100
AcDbLine
 10
369.0925440043118
 20
235.7085741379745
 30
0.0
 11
368.8707440000001
 21
228.6109740000001
 31
0.0
  0
LINE
  5
31835230
330
318324AF
100
AcDbEntity
  8
NITEN
100
AcDbLine
 10
367.881494
 20
233.610974
 30
0.0
 11
369.0925440043118
 21
235.7085741379745
 31
0.0
  0
LINE
  5
31835231
330
318324AF
100
AcDbEntity
  8
NITEN
100
AcDbLine
 10
348.9379940000001
 20
233.610974
 30
0.0
 11
349.0942440000001
 21
228.6109740000001
 31
0.0
  0
LINE
  5
31835232
330
318324AF
100
AcDbEntity
  8
NITEN
100
AcDbLine
 10
347.7269439956884
 20
235.7085741379745
 30
0.0
 11
348.9379940000001
 21
233.610974
 31
0.0
  0
LINE
  5
31835233
330
318324AF
100
AcDbEntity
  8
NITEN
100
AcDbLine
 10
347.559744
 20
173.2237749744682
 30
0.0
 11
347.7269439956884
 21
173.5133738620257
 31
0.0
  0
LINE
  5
31835234
330
318324AF
100
AcDbEntity
  8
NITEN
100
AcDbLine
 10
369.2597440000001
 20
173.2237749744682
 30
0.0
 11
369.0925440043118
 21
173.5133738620257
 31
0.0
  0
LINE
  5
31835235
330
318324AF
100
AcDbEntity
  8
NITEN
100
AcDbLine
 10
347.9487440000001
 20
180.6109740000001
 30
0.0
 11
347.7269439956884
 21
173.5133738620257
 31
0.0
  0
LINE
  5
31835236
330
318324AF
100
AcDbEntity
  8
NITEN
100
AcDbLine
 10
367.725244
 20
180.6109740000001
 30
0.0
 11
367.881494
 21
175.6109740000002
 31
0.0
  0
LINE
  5
31835237
330
318324AF
100
AcDbEntity
  8
NITEN
100
AcDbLine
 10
369.0269940000001
 20
175.6109740000002
 30
0.0
 11
347.7924940000001
 21
175.6109740000002
 31
0.0
  0
LINE
  5
31835238
330
318324AF
100
AcDbEntity
  8
NITEN
100
AcDbLine
 10
369.0925440043118
 20
173.5133738620257
 30
0.0
 11
368.8707440000001
 21
180.6109740000001
 31
0.0
  0
LINE
  5
31835239
330
318324AF
100
AcDbEntity
  8
NITEN
100
AcDbLine
 10
367.881494
 20
175.6109740000002
 30
0.0
 11
369.0925440043118
 21
173.5133738620257
 31
0.0
  0
LINE
  5
3183523A
330
318324AF
100
AcDbEntity
  8
NITEN
100
AcDbLine
 10
348.9379940000001
 20
175.6109740000002
 30
0.0
 11
349.0942440000001
 21
180.6109740000001
 31
0.0
  0
LINE
  5
3183523B
330
318324AF
100
AcDbEntity
  8
NITEN
100
AcDbLine
 10
347.7269439956884
 20
173.5133738620257
 30
0.0
 11
348.9379940000001
 21
175.6109740000002
 31
0.0
  0
LINE
  5
3183523C
330
318324AF
100
AcDbEntity
  8
JISSEN
100
AcDbLine
 10
384.8699980378447
 20
185.610974
 30
0.0
 11
372.0597440000001
 21
185.610974
 31
0.0
  0
LINE
  5
3183523D
330
318324AF
100
AcDbEntity
  8
JISSEN
100
AcDbLine
 10
390.0661504605512
 20
182.610974
 30
0.0
 11
372.0597440000001
 21
182.610974
 31
0.0
  0
LINE
  5
3183523E
330
318324AF
100
AcDbEntity
  8
JISSEN
100
AcDbLine
 10
399.2097440000007
 20
129.6109740000001
 30
0.0
 11
402.2097440000007
 21
129.6109740000001
 31
0.0
  0
LINE
  5
3183523F
330
318324AF
100
AcDbEntity
  8
JISSEN
100
AcDbLine
 10
399.2097440000001
 20
144.6109739999998
 30
0.0
 11
402.2097440000003
 21
144.6109739999998
 31
0.0
  0
ARC
  5
31835240
330
318324AF
100
AcDbEntity
  8
JISSEN
100
AcDbCircle
 10
397.2097440000002
 20
176.1772172702596
 30
0.0
 40
2.0
100
AcDbArc
 50
0.000000000000007
 51
59.99999999999985
  0
ARC
  5
31835241
330
318324AF
100
AcDbEntity
  8
JISSEN
100
AcDbCircle
 10
397.2097440000002
 20
176.1772172702596
 30
0.0
 40
5.000000000000042
100
AcDbArc
 50
0.000000000000007
 51
59.99999999999985
  0
LINE
  5
31835242
330
318324AF
100
AcDbEntity
  8
JISSEN
100
AcDbLine
 10
386.8631620126154
 20
198.8374713081038
 30
0.0
 11
387.3097440000004
 21
199.6109739999999
 31
0.0
  0
ARC
  5
31835243
330
318324AF
100
AcDbEntity
  8
JISSEN
100
AcDbCircle
 10
384.2097440000001
 20
191.7656745383793
 30
0.0
 40
2.0
100
AcDbArc
 50
180.0
 51
239.9999999999999
  0
ARC
  5
31835244
330
318324AF
100
AcDbEntity
  8
JISSEN
100
AcDbCircle
 10
384.2097440000001
 20
191.7656745383793
 30
0.0
 40
5.0
100
AcDbArc
 50
180.0
 51
239.9999999999999
  0
LINE
  5
31835245
330
318324AF
100
AcDbEntity
  8
JISSEN
100
AcDbLine
 10
383.7097440000005
 20
198.510974
 30
0.0
 11
382.2097440000005
 21
198.510974
 31
0.0
  0
LINE
  5
31835246
330
318324AF
100
AcDbEntity
  8
JISSEN
100
AcDbLine
 10
384.1563259873855
 20
198.8374713081038
 30
0.0
 11
383.7097440000005
 21
199.6109739999999
 31
0.0
  0
LINE
  5
31835247
330
318324AF
100
AcDbEntity
  8
JISSEN
100
AcDbLine
 10
379.209744
 20
197.6109740000002
 30
0.0
 11
378.709744
 21
197.6109740000002
 31
0.0
  0
LINE
  5
31835248
330
318324AF
100
AcDbEntity
  8
JISSEN
100
AcDbLine
 10
384.1563259873855
 20
198.8374713081038
 30
0.0
 11
386.8631620126154
 21
198.8374713081038
 31
0.0
  0
LINE
  5
31835249
330
318324AF
100
AcDbEntity
  8
JISSEN
100
AcDbLine
 10
383.2097440000001
 20
190.0336237308105
 30
0.0
 11
399.7097440000002
 21
180.5073442891818
 31
0.0
  0
LINE
  5
3183524A
330
318324AF
100
AcDbEntity
  8
JISSEN
100
AcDbLine
 10
381.7097440000001
 20
187.4355475194573
 30
0.0
 11
398.2097440000001
 21
177.9092680778283
 31
0.0
  0
LINE
  5
3183524B
330
318324AF
100
AcDbEntity
  8
JISSEN
100
AcDbLine
 10
387.3097440000004
 20
202.150974
 30
0.0
 11
388.749744
 21
202.150974
 31
0.0
  0
LINE
  5
3183524C
330
318324AF
100
AcDbEntity
  8
JISSEN
100
AcDbLine
 10
387.3097440000004
 20
201.6109740000001
 30
0.0
 11
388.2097440000001
 21
201.6109740000001
 31
0.0
  0
LINE
  5
3183524D
330
318324AF
100
AcDbEntity
  8
JISSEN
100
AcDbLine
 10
388.209744
 20
202.9376838279141
 30
0.0
 11
387.3097440000004
 21
202.9376838279139
 31
0.0
  0
LINE
  5
3183524E
330
318324AF
100
AcDbEntity
  8
JISSEN
100
AcDbLine
 10
387.3097440000004
 20
203.7325012982233
 30
0.0
 11
388.34071314129
 21
203.1513436493957
 31
0.0
  0
LINE
  5
3183524F
330
318324AF
100
AcDbEntity
  8
JISSEN
100
AcDbLine
 10
388.209744
 20
202.9376838279141
 30
0.0
 11
388.209744
 21
201.6109740000001
 31
0.0
  0
LINE
  5
31835250
330
318324AF
100
AcDbEntity
  8
JISSEN
100
AcDbLine
 10
388.2097440000001
 20
201.6109740000001
 30
0.0
 11
389.2097440000001
 21
202.6109740000002
 31
0.0
  0
LINE
  5
31835251
330
318324AF
100
AcDbEntity
  8
JISSEN
100
AcDbLine
 10
387.3097440000004
 20
205.4894467017771
 30
0.0
 11
388.34071314129
 21
206.0706043506044
 31
0.0
  0
LINE
  5
31835252
330
318324AF
100
AcDbEntity
  8
JISSEN
100
AcDbLine
 10
388.209744
 20
206.2842641720862
 30
0.0
 11
387.3097440000004
 21
206.2842641720862
 31
0.0
  0
LINE
  5
31835253
330
318324AF
100
AcDbEntity
  8
JISSEN
100
AcDbLine
 10
387.3097440000004
 20
207.0709740000001
 30
0.0
 11
388.749744
 21
207.0709740000001
 31
0.0
  0
LINE
  5
31835254
330
318324AF
100
AcDbEntity
  8
JISSEN
100
AcDbLine
 10
387.3097440000004
 20
207.6109740000001
 30
0.0
 11
388.2097440000001
 21
207.6109740000001
 31
0.0
  0
LINE
  5
31835255
330
318324AF
100
AcDbEntity
  8
JISSEN
100
AcDbLine
 10
388.2097440000001
 20
207.6109740000001
 30
0.0
 11
389.2097440000001
 21
206.6109740000002
 31
0.0
  0
LINE
  5
31835256
330
318324AF
100
AcDbEntity
  8
JISSEN
100
AcDbLine
 10
388.209744
 20
206.2842641720862
 30
0.0
 11
388.209744
 21
207.6109740000001
 31
0.0
  0
LINE
  5
31835257
330
318324AF
100
AcDbEntity
  8
JISSEN
100
AcDbLine
 10
389.2097440000001
 20
206.6109740000002
 30
0.0
 11
389.2097440000001
 21
204.6109740000002
 31
0.0
  0
LINE
  5
31835258
330
318324AF
100
AcDbEntity
  8
JISSEN
100
AcDbLine
 10
389.2097440000001
 20
206.6109740000002
 30
0.0
 11
389.2097440000001
 21
204.6109740000002
 31
0.0
  0
ARC
  5
31835259
330
318324AF
100
AcDbEntity
  8
JISSEN
100
AcDbCircle
 10
377.7563259873856
 20
204.6109740000002
 30
0.0
 40
9.553418012614818
100
AcDbArc
 50
342.4120462260103
 51
17.58795377398969
  0
ARC
  5
3183525A
330
318324AF
100
AcDbEntity
  8
JISSEN
100
AcDbCircle
 10
385.7197440000005
 20
204.6109740000002
 30
0.0
 40
2.999999999999439
100
AcDbArc
 50
326.0987380031254
 51
33.90126199687319
  0
LINE
  5
3183525B
330
318324AF
100
AcDbEntity
  8
JISSEN
100
AcDbLine
 10
389.2097440000001
 20
202.6109740000002
 30
0.0
 11
389.2097440000001
 21
204.6109740000002
 31
0.0
  0
LINE
  5
3183525C
330
318324AF
100
AcDbEntity
  8
JISSEN
100
AcDbLine
 10
386.8631620126153
 20
210.3844766918963
 30
0.0
 11
387.3097440000004
 21
209.6109740000001
 31
0.0
  0
ARC
  5
3183525D
330
318324AF
100
AcDbEntity
  8
JISSEN
100
AcDbCircle
 10
384.7539212515773
 20
208.9411010189222
 30
0.0
 40
2.555822748423206
100
AcDbArc
 50
325.6157525319573
 51
25.61575253194264
  0
LINE
  5
3183525E
330
318324AF
100
AcDbEntity
  8
JISSEN
100
AcDbLine
 10
383.7097440000005
 20
207.0104930528384
 30
0.0
 11
382.7097440000001
 21
205.2784422452689
 31
0.0
  0
ARC
  5
3183525F
330
318324AF
100
AcDbEntity
  8
JISSEN
100
AcDbCircle
 10
393.2631620126152
 20
204.6109740000002
 30
0.0
 40
9.553418012614818
100
AcDbArc
 50
162.4120462260103
 51
197.5879537739896
  0
LINE
  5
31835260
330
318324AF
100
AcDbEntity
  8
JISSEN
100
AcDbLine
 10
383.7097440000005
 20
205.0104930528384
 30
0.0
 11
382.7097440000001
 21
203.2784422452691
 31
0.0
  0
LINE
  5
31835261
330
318324AF
100
AcDbEntity
  8
JISSEN
100
AcDbLine
 10
383.7097440000005
 20
210.7109739999999
 30
0.0
 11
382.2097440000005
 21
210.7109739999999
 31
0.0
  0
LINE
  5
31835262
330
318324AF
100
AcDbEntity
  8
JISSEN
100
AcDbLine
 10
384.1563259873856
 20
210.3844766918963
 30
0.0
 11
383.7097440000005
 21
209.6109740000001
 31
0.0
  0
LINE
  5
31835263
330
318324AF
100
AcDbEntity
  8
JISSEN
100
AcDbLine
 10
379.2097440000005
 20
215.6109740000003
 30
0.0
 11
382.2097440000002
 21
215.6109740000003
 31
0.0
  0
LINE
  5
31835264
330
318324AF
100
AcDbEntity
  8
JISSEN
100
AcDbLine
 10
378.7097439999999
 20
211.6109740000001
 30
0.0
 11
374.159744
 21
211.6109740000001
 31
0.0
  0
LINE
  5
31835265
330
318324AF
100
AcDbEntity
  8
JISSEN
100
AcDbLine
 10
379.209744
 20
211.6109740000001
 30
0.0
 11
378.709744
 21
211.6109740000001
 31
0.0
  0
LINE
  5
31835266
330
318324AF
100
AcDbEntity
  8
JISSEN
100
AcDbLine
 10
378.709744
 20
211.6109740000001
 30
0.0
 11
378.709744
 21
207.4609740000003
 31
0.0
  0
ARC
  5
31835267
330
318324AF
100
AcDbEntity
  8
JISSEN
100
AcDbCircle
 10
386.2655667484236
 20
208.9411010189222
 30
0.0
 40
2.555822748423206
100
AcDbArc
 50
154.3842474680472
 51
214.3842474680427
  0
LINE
  5
31835268
330
318324AF
100
AcDbEntity
  8
JISSEN
100
AcDbLine
 10
384.1563259873856
 20
210.3844766918963
 30
0.0
 11
386.8631620126153
 21
210.3844766918963
 31
0.0
  0
LINE
  5
31835269
330
318324AF
100
AcDbEntity
  8
JISSEN
100
AcDbLine
 10
384.1563259873856
 20
207.4977253459482
 30
0.0
 11
386.8631620126153
 21
207.4977253459482
 31
0.0
  0
LINE
  5
3183526A
330
318324AF
100
AcDbEntity
  8
JISSEN
100
AcDbLine
 10
384.1563259873856
 20
201.7242226540519
 30
0.0
 11
386.8631620126151
 21
201.7242226540519
 31
0.0
  0
LINE
  5
3183526B
330
318324AF
100
AcDbEntity
  8
JISSEN
100
AcDbLine
 10
382.2097440000002
 20
215.6109740000003
 30
0.0
 11
382.2097440000002
 21
207.4609740000003
 31
0.0
  0
LINE
  5
3183526C
330
318324AF
100
AcDbEntity
  8
JISSEN
100
AcDbLine
 10
379.2097440000001
 20
191.7656745383793
 30
0.0
 11
379.2097440000002
 21
201.760974
 31
0.0
  0
LINE
  5
3183526D
330
318324AF
100
AcDbEntity
  8
JISSEN
100
AcDbLine
 10
387.3097440000004
 20
209.6109740000001
 30
0.0
 11
387.3097440000004
 21
199.6109740000002
 31
0.0
  0
LINE
  5
3183526E
330
318324AF
100
AcDbEntity
  8
JISSEN
100
AcDbLine
 10
383.7097440000005
 20
198.510974
 30
0.0
 11
383.7097440000005
 21
210.7109739999999
 31
0.0
  0
LINE
  5
3183526F
330
318324AF
100
AcDbEntity
  8
JISSEN
100
AcDbLine
 10
382.2097440000005
 20
198.510974
 30
0.0
 11
382.2097440000005
 21
201.760974
 31
0.0
  0
LINE
  5
31835270
330
318324AF
100
AcDbEntity
  8
JISSEN
100
AcDbLine
 10
378.709744
 20
201.760974
 30
0.0
 11
378.709744
 21
197.6109740000002
 31
0.0
  0
ARC
  5
31835271
330
318324AF
100
AcDbEntity
  8
JISSEN
100
AcDbCircle
 10
384.7539212515774
 20
200.2808469810778
 30
0.0
 40
2.555822748423071
100
AcDbArc
 50
334.3842474680383
 51
34.38424746804274
  0
ARC
  5
31835272
330
318324AF
100
AcDbEntity
  8
JISSEN
100
AcDbCircle
 10
386.2655667484235
 20
200.2808469810778
 30
0.0
 40
2.555822748423071
100
AcDbArc
 50
145.6157525319572
 51
205.6157525319681
  0
LINE
  5
31835273
330
318324AF
100
AcDbEntity
  8
JISSEN
100
AcDbLine
 10
370.6597440000001
 20
180.6109740000001
 30
0.0
 11
372.0597440000001
 21
181.4192643768655
 31
0.0
  0
ARC
  5
31835274
330
318324AF
100
AcDbEntity
  8
JISSEN
100
AcDbCircle
 10
370.1917955493539
 20
184.5169648070882
 30
0.0
 40
3.617316597931845
100
AcDbArc
 50
238.909546998927
 51
301.0904530010729
  0
LINE
  5
31835275
330
318324AF
100
AcDbEntity
  8
JISSEN
100
AcDbLine
 10
368.3238470987077
 20
181.4192643768655
 30
0.0
 11
367.7923374446822
 21
181.4192643768655
 31
0.0
  0
LINE
  5
31835276
330
318324AF
100
AcDbEntity
  8
JISSEN
100
AcDbLine
 10
358.0339099193724
 20
181.4192643768655
 30
0.0
 11
358.4097440000001
 21
181.4192643768655
 31
0.0
  0
LINE
  5
31835277
330
318324AF
100
AcDbEntity
  8
CORE
100
AcDbLine
 10
358.7855780806276
 20
181.4192643768655
 30
0.0
 11
358.4097440000001
 21
181.4192643768655
 31
0.0
  0
LINE
  5
31835278
330
318324AF
100
AcDbEntity
  8
JISSEN
100
AcDbLine
 10
370.6597440000001
 20
180.6109740000001
 30
0.0
 11
346.1597439999999
 21
180.6109740000001
 31
0.0
  0
ARC
  5
31835279
330
318324AF
100
AcDbEntity
  8
JISSEN
100
AcDbCircle
 10
363.288957762655
 20
200.6743082368695
 30
0.0
 40
19.77465910227462
100
AcDbArc
 50
256.8362485578214
 51
283.1637514421785
  0
ARC
  5
3183527A
330
318324AF
100
AcDbEntity
  8
JISSEN
100
AcDbCircle
 10
371.909744
 20
189.0251875623731
 30
0.0
 40
1.0
100
AcDbArc
 50
180.0
 51
224.9999999999995
  0
LINE
  5
3183527B
330
318324AF
100
AcDbEntity
  8
JISSEN
100
AcDbLine
 10
371.2026372188135
 20
188.3180807811865
 30
0.0
 11
372.0597440000001
 21
187.460974
 31
0.0
  0
ARC
  5
3183527C
330
318324AF
100
AcDbEntity
  8
JISSEN
100
AcDbCircle
 10
370.1917955493541
 20
185.8540606344945
 30
0.0
 40
2.464021505285912
100
AcDbArc
 50
40.70395287622793
 51
139.296047123772
  0
LINE
  5
3183527D
330
318324AF
100
AcDbEntity
  8
JISSEN
100
AcDbLine
 10
368.3238470987078
 20
187.460974
 30
0.0
 11
367.7923374446823
 21
187.460974
 31
0.0
  0
ARC
  5
3183527E
330
318324AF
100
AcDbEntity
  8
JISSEN
100
AcDbCircle
 10
369.909744
 20
193.696760437627
 30
0.0
 40
1.0
100
AcDbArc
 50
0.000000000000007
 51
27.99267997679139
  0
ARC
  5
3183527F
330
318324AF
100
AcDbEntity
  8
JISSEN
100
AcDbCircle
 10
370.9097440000001
 20
197.6109740000002
 30
0.0
 40
1.0
100
AcDbArc
 50
303.3446667468991
 51
329.9999999999987
  0
ARC
  5
31835280
330
318324AF
100
AcDbEntity
  8
JISSEN
100
AcDbCircle
 10
372.6417948075692
 20
196.6109740000002
 30
0.0
 40
1.0
100
AcDbArc
 50
90.0
 51
149.9999999999987
  0
ARC
  5
31835281
330
318324AF
100
AcDbEntity
  8
JISSEN
100
AcDbCircle
 10
370.9097440000001
 20
197.6109740000002
 30
0.0
 40
1.0
100
AcDbArc
 50
301.926795318693
 51
0.000000000000007
  0
ARC
  5
31835282
330
318324AF
100
AcDbEntity
  8
JISSEN
100
AcDbCircle
 10
372.5587666939156
 20
195.1048367022944
 30
0.0
 40
2.0
100
AcDbArc
 50
123.3446667468914
 51
207.9926799767913
  0
LINE
  5
31835283
330
318324AF
100
AcDbEntity
  8
JISSEN
100
AcDbLine
 10
370.9097439999999
 20
193.696760437627
 30
0.0
 11
370.9097439999999
 21
189.0251875623731
 31
0.0
  0
LINE
  5
31835284
330
318324AF
100
AcDbEntity
  8
JISSEN
100
AcDbLine
 10
358.0339099193725
 20
187.460974
 30
0.0
 11
358.4097440000001
 21
187.460974
 31
0.0
  0
LINE
  5
31835285
330
318324AF
100
AcDbEntity
  8
JISSEN
100
AcDbLine
 10
358.7855780806278
 20
187.460974
 30
0.0
 11
358.4097440000001
 21
187.460974
 31
0.0
  0
ARC
  5
31835286
330
318324AF
100
AcDbEntity
  8
JISSEN
100
AcDbCircle
 10
363.2889577626552
 20
176.0587794571677
 30
0.0
 40
12.2593013240189
100
AcDbArc
 50
68.4480976947578
 51
111.5519023052422
  0
LINE
  5
31835287
330
318324AF
100
AcDbEntity
  8
JISSEN
100
AcDbLine
 10
369.9995642788749
 20
188.6109740000001
 30
0.0
 11
346.2486229591317
 21
188.6109740000001
 31
0.0
  0
LINE
  5
31835288
330
318324AF
100
AcDbEntity
  8
JISSEN
100
AcDbLine
 10
346.7993240602018
 20
194.1109740000003
 30
0.0
 11
369.909744
 21
194.1109740000001
 31
0.0
  0
LINE
  5
31835289
330
318324AF
100
AcDbEntity
  8
JISSEN
100
AcDbLine
 10
347.5152340423075
 20
195.1109740000001
 30
0.0
 11
368.9097440000001
 21
195.1109740000001
 31
0.0
  0
LINE
  5
3183528A
330
318324AF
100
AcDbEntity
  8
JISSEN
100
AcDbLine
 10
346.5239727045081
 20
199.0109740000002
 30
0.0
 11
370.5097440000002
 21
199.0109740000002
 31
0.0
  0
LINE
  5
3183528B
330
318324AF
100
AcDbEntity
  8
JISSEN
100
AcDbLine
 10
347.5152340423075
 20
197.410974
 30
0.0
 11
368.9097440000001
 21
197.410974
 31
0.0
  0
LINE
  5
3183528C
330
318324AF
100
AcDbEntity
  8
JISSEN
100
AcDbLine
 10
372.0597440000001
 20
181.4192643768655
 30
0.0
 11
372.0597440000001
 21
187.460974
 31
0.0
  0
LINE
  5
3183528D
330
318324AF
100
AcDbEntity
  8
JISSEN
100
AcDbLine
 10
358.0339099193724
 20
181.4192643768655
 30
0.0
 11
358.0339099193724
 21
187.460974
 31
0.0
  0
LINE
  5
3183528E
330
318324AF
100
AcDbEntity
  8
JISSEN
100
AcDbLine
 10
358.7855780806276
 20
181.4192643768655
 30
0.0
 11
358.7855780806276
 21
187.460974
 31
0.0
  0
LINE
  5
3183528F
330
318324AF
100
AcDbEntity
  8
JISSEN
100
AcDbLine
 10
368.3238470987077
 20
181.4192643768655
 30
0.0
 11
368.3238470987077
 21
187.460974
 31
0.0
  0
LINE
  5
31835290
330
318324AF
100
AcDbEntity
  8
JISSEN
100
AcDbLine
 10
367.7923374446822
 20
181.4192643768655
 30
0.0
 11
367.7923374446822
 21
187.460974
 31
0.0
  0
LINE
  5
31835291
330
318324AF
100
AcDbEntity
  8
CORE
100
AcDbLine
 10
348.4956409012923
 20
181.4192643768655
 30
0.0
 11
349.0271505553178
 21
181.4192643768655
 31
0.0
  0
LINE
  5
31835292
330
318324AF
100
AcDbEntity
  8
JISSEN
100
AcDbLine
 10
346.1597439999999
 20
180.6109740000001
 30
0.0
 11
344.7597440000001
 21
181.4192643768655
 31
0.0
  0
ARC
  5
31835293
330
318324AF
100
AcDbEntity
  8
JISSEN
100
AcDbCircle
 10
346.6276924506461
 20
184.5169648070882
 30
0.0
 40
3.617316597931845
100
AcDbArc
 50
238.909546998927
 51
301.0904530010729
  0
LINE
  5
31835294
330
318324AF
100
AcDbEntity
  8
JISSEN
100
AcDbLine
 10
348.4956409012924
 20
187.460974
 30
0.0
 11
349.0271505553179
 21
187.460974
 31
0.0
  0
LINE
  5
31835295
330
318324AF
100
AcDbEntity
  8
JISSEN
100
AcDbLine
 10
345.3239575623732
 20
188.0251875623731
 30
0.0
 11
344.7597440000001
 21
187.460974
 31
0.0
  0
ARC
  5
31835296
330
318324AF
100
AcDbEntity
  8
JISSEN
100
AcDbCircle
 10
343.9097440000001
 20
189.4394011247464
 30
0.0
 40
2.0
100
AcDbArc
 50
315.0000000000006
 51
0.000000000000007
  0
ARC
  5
31835297
330
318324AF
100
AcDbEntity
  8
JISSEN
100
AcDbCircle
 10
346.6276924506463
 20
185.8540606344945
 30
0.0
 40
2.464021505285912
100
AcDbArc
 50
40.70395287622793
 51
139.296047123772
  0
ARC
  5
31835298
330
318324AF
100
AcDbEntity
  8
JISSEN
100
AcDbCircle
 10
346.909744
 20
193.696760437627
 30
0.0
 40
1.0
100
AcDbArc
 50
135.0000000000005
 51
180.0
  0
ARC
  5
31835299
330
318324AF
100
AcDbEntity
  8
JISSEN
100
AcDbCircle
 10
345.9097440000001
 20
195.5251875623732
 30
0.0
 40
1.0
100
AcDbArc
 50
315.0000000000006
 51
0.000000000000007
  0
LINE
  5
3183529A
330
318324AF
100
AcDbEntity
  8
JISSEN
100
AcDbLine
 10
346.6168507811866
 20
194.8180807811866
 30
0.0
 11
346.2026372188135
 21
194.4038672188135
 31
0.0
  0
LINE
  5
3183529B
330
318324AF
100
AcDbEntity
  8
JISSEN
100
AcDbLine
 10
345.6026372188136
 20
198.7180807811866
 30
0.0
 11
346.6168507811866
 21
197.7038672188136
 31
0.0
  0
ARC
  5
3183529C
330
318324AF
100
AcDbEntity
  8
JISSEN
100
AcDbCircle
 10
345.9097440000001
 20
196.9967604376269
 30
0.0
 40
1.0
100
AcDbArc
 50
0.000000000000007
 51
44.99999999999942
  0
LINE
  5
3183529D
330
318324AF
100
AcDbEntity
  8
JISSEN
100
AcDbLine
 10
346.909744
 20
196.9967604376269
 30
0.0
 11
346.909744
 21
195.5251875623732
 31
0.0
  0
ARC
  5
3183529E
330
318324AF
100
AcDbEntity
  8
JISSEN
100
AcDbCircle
 10
346.3097440000002
 20
199.425187562373
 30
0.0
 40
1.0
100
AcDbArc
 50
180.0
 51
224.9999999999995
  0
LINE
  5
3183529F
330
318324AF
100
AcDbEntity
  8
JISSEN
100
AcDbLine
 10
345.9097440000001
 20
193.696760437627
 30
0.0
 11
345.9097440000001
 21
189.4394011247464
 31
0.0
  0
LINE
  5
318352A0
330
318324AF
100
AcDbEntity
  8
JISSEN
100
AcDbLine
 10
344.7597440000001
 20
181.4192643768655
 30
0.0
 11
344.7597440000001
 21
187.460974
 31
0.0
  0
LINE
  5
318352A1
330
318324AF
100
AcDbEntity
  8
JISSEN
100
AcDbLine
 10
348.4956409012923
 20
181.4192643768655
 30
0.0
 11
348.4956409012923
 21
187.460974
 31
0.0
  0
LINE
  5
318352A2
330
318324AF
100
AcDbEntity
  8
JISSEN
100
AcDbLine
 10
349.0271505553178
 20
181.4192643768655
 30
0.0
 11
349.0271505553178
 21
187.460974
 31
0.0
  0
ARC
  5
318352A3
330
318324AF
100
AcDbEntity
  8
JISSEN
100
AcDbCircle
 10
353.5305302373452
 20
176.0587794571677
 30
0.0
 40
12.2593013240189
100
AcDbArc
 50
68.4480976947578
 51
111.5519023052422
  0
ARC
  5
318352A4
330
318324AF
100
AcDbEntity
  8
JISSEN
100
AcDbCircle
 10
353.5305302373452
 20
200.6743082368695
 30
0.0
 40
19.77465910227462
100
AcDbArc
 50
256.8362485578214
 51
283.1637514421785
  0
ARC
  5
318352A5
330
318324AF
100
AcDbEntity
  8
JISSEN
100
AcDbCircle
 10
383.9945443785446
 20
204.6109740000002
 30
0.0
 40
13.7499999999998
100
AcDbArc
 50
149.3967053917904
 51
158.9613034747042
  0
LINE
  5
318352A6
330
318324AF
100
AcDbEntity
  8
JISSEN
100
AcDbLine
 10
370.79396145385
 20
209.0819016062975
 30
0.0
 11
370.3963125381477
 21
208.8087833605475
 31
0.0
  0
ARC
  5
318352A7
330
318324AF
100
AcDbEntity
  8
JISSEN
100
AcDbCircle
 10
370.2278062469732
 20
209.9062002668121
 30
0.0
 40
1.0
100
AcDbArc
 50
304.4825494475113
 51
338.9613034747042
  0
ARC
  5
318352A8
330
318324AF
100
AcDbEntity
  8
JISSEN
100
AcDbCircle
 10
370.9624677450243
 20
207.9844847000328
 30
0.0
 40
1.0
100
AcDbArc
 50
124.4825494475112
 51
163.8112506112577
  0
LINE
  5
318352A9
330
318324AF
100
AcDbEntity
  8
JISSEN
100
AcDbLine
 10
372.159744
 20
214.6744823268956
 30
0.0
 11
372.159744
 21
213.6109740000001
 31
0.0
  0
ARC
  5
318352AA
330
318324AF
100
AcDbEntity
  8
JISSEN
100
AcDbCircle
 10
374.159744
 20
214.6744823268956
 30
0.0
 40
2.0
100
AcDbArc
 50
151.0449756281276
 51
180.0
  0
LINE
  5
318352AB
330
318324AF
100
AcDbEntity
  8
JISSEN
100
AcDbLine
 10
371.909744
 20
210.610974
 30
0.0
 11
371.909744
 21
204.6109740000002
 31
0.0
  0
LINE
  5
318352AC
330
318324AF
100
AcDbEntity
  8
JISSEN
100
AcDbLine
 10
369.1083102572252
 20
208.610974
 30
0.0
 11
345.6421952216393
 21
208.610974
 31
0.0
  0
LINE
  5
318352AD
330
318324AF
100
AcDbEntity
  8
JISSEN
100
AcDbLine
 10
371.6597440000001
 20
214.610974
 30
0.0
 11
345.4219151032749
 21
214.6109740000002
 31
0.0
  0
LINE
  5
318352AE
330
318324AF
100
AcDbEntity
  8
JISSEN
100
AcDbLine
 10
372.6597440000001
 20
218.1109740000001
 30
0.0
 11
372.6597440000001
 21
216.610974
 31
0.0
  0
LINE
  5
318352AF
330
318324AF
100
AcDbEntity
  8
JISSEN
100
AcDbLine
 10
372.6597440000002
 20
218.1109740000001
 30
0.0
 11
372.6597440000002
 21
219.610974
 31
0.0
  0
ARC
  5
318352B0
330
318324AF
100
AcDbEntity
  8
JISSEN
100
AcDbCircle
 10
371.6597440000002
 20
219.610974
 30
0.0
 40
1.0
100
AcDbArc
 50
0.000000000000007
 51
90.0
  0
LINE
  5
318352B1
330
318324AF
100
AcDbEntity
  8
JISSEN
100
AcDbLine
 10
370.8720930480517
 20
227.8026836231346
 30
0.0
 11
371.1597440000002
 21
227.8026836231346
 31
0.0
  0
LINE
  5
318352B2
330
318324AF
100
AcDbEntity
  8
JISSEN
100
AcDbLine
 10
370.6597440000002
 20
228.6109740000001
 30
0.0
 11
371.1597440000002
 21
228.3222988654053
 31
0.0
  0
LINE
  5
318352B3
330
318324AF
100
AcDbEntity
  8
JISSEN
100
AcDbLine
 10
363.9786178722058
 20
227.8026836231346
 30
0.0
 11
363.284167042782
 21
227.8026836231346
 31
0.0
  0
ARC
  5
318352B4
330
318324AF
100
AcDbEntity
  8
JISSEN
100
AcDbCircle
 10
367.4253554601286
 20
216.6309559143136
 30
0.0
 40
11.69134295109149
100
AcDbArc
 50
72.85379000110792
 51
107.146209998892
  0
LINE
  5
318352B5
330
318324AF
100
AcDbEntity
  8
JISSEN
100
AcDbLine
 10
363.2841670427819
 20
227.8026836231346
 30
0.0
 11
363.284167042782
 21
220.610974
 31
0.0
  0
LINE
  5
318352B6
330
318324AF
100
AcDbEntity
  8
JISSEN
100
AcDbLine
 10
363.9786178722058
 20
227.8026836231346
 30
0.0
 11
363.9786178722058
 21
220.610974
 31
0.0
  0
LINE
  5
318352B7
330
318324AF
100
AcDbEntity
  8
JISSEN
100
AcDbLine
 10
370.8720930480517
 20
227.8026836231346
 30
0.0
 11
370.8720930480517
 21
220.610974
 31
0.0
  0
LINE
  5
318352B8
330
318324AF
100
AcDbEntity
  8
JISSEN
100
AcDbLine
 10
371.1597440000002
 20
228.3222988654053
 30
0.0
 11
371.1597440000002
 21
220.610974
 31
0.0
  0
LINE
  5
318352B9
330
318324AF
100
AcDbEntity
  8
JISSEN
100
AcDbLine
 10
352.8408701277946
 20
227.8026836231346
 30
0.0
 11
353.5353209572158
 21
227.8026836231346
 31
0.0
  0
LINE
  5
318352BA
330
318324AF
100
AcDbEntity
  8
JISSEN
100
AcDbLine
 10
352.8408701277946
 20
227.8026836231346
 30
0.0
 11
352.8408701277946
 21
220.610974
 31
0.0
  0
LINE
  5
318352BB
330
318324AF
100
AcDbEntity
  8
JISSEN
100
AcDbLine
 10
353.5353209572185
 20
227.8026836231346
 30
0.0
 11
353.5353209572184
 21
220.610974
 31
0.0
  0
LINE
  5
318352BC
330
318324AF
100
AcDbEntity
  8
JISSEN
100
AcDbLine
 10
372.6597440000001
 20
218.1109740000001
 30
0.0
 11
344.1597440000001
 21
218.1109740000001
 31
0.0
  0
LINE
  5
318352BD
330
318324AF
100
AcDbEntity
  8
JISSEN
100
AcDbLine
 10
370.6597440000003
 20
228.6109740000001
 30
0.0
 11
346.1597440000003
 21
228.6109740000001
 31
0.0
  0
LINE
  5
318352BE
330
318324AF
100
AcDbEntity
  8
JISSEN
100
AcDbLine
 10
371.6597440000002
 20
220.610974
 30
0.0
 11
345.1597440000002
 21
220.610974
 31
0.0
  0
ARC
  5
318352BF
330
318324AF
100
AcDbEntity
  8
JISSEN
100
AcDbCircle
 10
358.4097440000002
 20
205.1994205843579
 30
0.0
 40
23.12287828104743
100
AcDbArc
 50
77.83045665700289
 51
102.1695433430037
  0
ARC
  5
318352C0
330
318324AF
100
AcDbEntity
  8
JISSEN
100
AcDbCircle
 10
370.6597440000001
 20
216.610974
 30
0.0
 40
2.0
100
AcDbArc
 50
331.0449756281276
 51
0.000000000000007
  0
ARC
  5
318352C1
330
318324AF
100
AcDbEntity
  8
JISSEN
100
AcDbCircle
 10
346.6597440000001
 20
209.7038486497197
 30
0.0
 40
2.0
100
AcDbArc
 50
180.0
 51
213.1229402077351
  0
ARC
  5
318352C2
330
318324AF
100
AcDbEntity
  8
JISSEN
100
AcDbCircle
 10
342.659744
 20
214.6744823268956
 30
0.0
 40
2.0
100
AcDbArc
 50
0.000000000000007
 51
28.95502437187236
  0
LINE
  5
318352C3
330
318324AF
100
AcDbEntity
  8
JISSEN
100
AcDbLine
 10
344.6597440000001
 20
214.6744823268956
 30
0.0
 11
344.6597440000001
 21
209.7038486497197
 31
0.0
  0
ARC
  5
318352C4
330
318324AF
100
AcDbEntity
  8
JISSEN
100
AcDbCircle
 10
343.309744
 20
207.5180993502804
 30
0.0
 40
2.0
100
AcDbArc
 50
0.000000000000007
 51
33.12294020774617
  0
LINE
  5
318352C5
330
318324AF
100
AcDbEntity
  8
JISSEN
100
AcDbLine
 10
344.1597440000001
 20
218.1109740000001
 30
0.0
 11
344.1597440000001
 21
216.610974
 31
0.0
  0
LINE
  5
318352C6
330
318324AF
100
AcDbEntity
  8
JISSEN
100
AcDbLine
 10
344.1597440000002
 20
218.1109740000001
 30
0.0
 11
344.1597440000002
 21
219.610974
 31
0.0
  0
ARC
  5
318352C7
330
318324AF
100
AcDbEntity
  8
JISSEN
100
AcDbCircle
 10
345.1597440000002
 20
219.610974
 30
0.0
 40
1.0
100
AcDbArc
 50
90.0
 51
180.0
  0
LINE
  5
318352C8
330
318324AF
100
AcDbEntity
  8
JISSEN
100
AcDbLine
 10
345.9473949519487
 20
227.8026836231346
 30
0.0
 11
345.6597440000002
 21
227.8026836231346
 31
0.0
  0
LINE
  5
318352C9
330
318324AF
100
AcDbEntity
  8
JISSEN
100
AcDbLine
 10
346.1597440000003
 20
228.6109740000001
 30
0.0
 11
345.6597440000002
 21
228.3222988654053
 31
0.0
  0
LINE
  5
318352CA
330
318324AF
100
AcDbEntity
  8
JISSEN
100
AcDbLine
 10
345.6597440000002
 20
228.3222988654053
 30
0.0
 11
345.6597440000002
 21
220.610974
 31
0.0
  0
LINE
  5
318352CB
330
318324AF
100
AcDbEntity
  8
JISSEN
100
AcDbLine
 10
345.9473949519487
 20
227.8026836231346
 30
0.0
 11
345.9473949519487
 21
220.610974
 31
0.0
  0
ARC
  5
318352CC
330
318324AF
100
AcDbEntity
  8
JISSEN
100
AcDbCircle
 10
346.1597440000001
 20
216.610974
 30
0.0
 40
2.0
100
AcDbArc
 50
180.0
 51
208.9550243718724
  0
ARC
  5
318352CD
330
318324AF
100
AcDbEntity
  8
JISSEN
100
AcDbCircle
 10
349.3941325398718
 20
216.6309559143136
 30
0.0
 40
11.69134295109149
100
AcDbArc
 50
72.85379000110792
 51
107.146209998892
  0
LINE
  5
318352CE
330
318324AF
100
AcDbEntity
  8
JISSEN
100
AcDbLine
 10
345.309744
 20
207.5180993502804
 30
0.0
 11
345.309744
 21
199.425187562373
 31
0.0
  0
ARC
  5
318352CF
330
318324AF
100
AcDbEntity
  8
JISSEN
100
AcDbCircle
 10
382.5826839890001
 20
204.6109740000002
 30
0.0
 40
13.09999999999988
100
AcDbArc
 50
163.8112506112577
 51
204.5260430626633
  0
LINE
  5
318352D0
330
318324AF
100
AcDbEntity
  8
JISSEN
100
AcDbLine
 10
371.909744
 20
197.6109740000002
 30
0.0
 11
371.909744
 21
204.6109740000002
 31
0.0
  0
LINE
  5
318352D1
330
318324AF
100
AcDbEntity
  8
JISSEN
100
AcDbLine
 10
378.709744
 20
197.6109740000002
 30
0.0
 11
372.6417948075692
 21
197.6109740000002
 31
0.0
  0
ARC
  5
318352D2
330
318324AF
100
AcDbEntity
  8
JISSEN
100
AcDbCircle
 10
374.159744
 20
213.6109740000001
 30
0.0
 40
2.0
100
AcDbArc
 50
180.0
 51
270.0
  0
LINE
  5
318352D3
330
318324AF
100
AcDbEntity
  8
JISSEN
100
AcDbLine
 10
399.2097440000001
 20
176.1772172702596
 30
0.0
 11
399.209744000001
 21
129.6109740000001
 31
0.0
  0
LINE
  5
318352D4
330
318324AF
100
AcDbEntity
  8
JISSEN
100
AcDbLine
 10
402.2097440000003
 20
176.1772172702596
 30
0.0
 11
402.2097440000008
 21
129.6109740000001
 31
0.0
  0
LINE
  5
318352D5
330
318324AF
100
AcDbEntity
  8
JISSEN
100
AcDbLine
 10
371.909744
 20
207.4609740000003
 30
0.0
 11
382.2097440000001
 21
207.4609740000003
 31
0.0
  0
LINE
  5
318352D6
330
318324AF
100
AcDbEntity
  8
JISSEN
100
AcDbLine
 10
382.7097440000001
 20
206.9609740000003
 30
0.0
 11
382.7097440000001
 21
202.260974
 31
0.0
  0
LINE
  5
318352D7
330
318324AF
100
AcDbEntity
  8
JISSEN
100
AcDbLine
 10
382.2097440000001
 20
201.760974
 30
0.0
 11
371.909744
 21
201.760974
 31
0.0
  0
ARC
  5
318352D8
330
318324AF
100
AcDbEntity
  8
JISSEN
100
AcDbCircle
 10
382.2097440000001
 20
206.9609740000003
 30
0.0
 40
0.5
100
AcDbArc
 50
0.000000000000007
 51
90.0
  0
ARC
  5
318352D9
330
318324AF
100
AcDbEntity
  8
JISSEN
100
AcDbCircle
 10
382.2097440000001
 20
202.260974
 30
0.0
 40
0.5
100
AcDbArc
 50
270.0
 51
0.000000000000007
  0
LINE
  5
318352DA
330
318324AF
100
AcDbEntity
  8
JISSEN
100
AcDbLine
 10
379.2097440000004
 20
207.4609740000003
 30
0.0
 11
379.2097440000005
 21
215.6109740000003
 31
0.0
  0
LINE
  5
318352DB
330
318324AF
100
AcDbEntity
  8
JISSEN
100
AcDbLine
 10
382.2097440000005
 20
207.4609740000003
 30
0.0
 11
382.2097440000005
 21
210.7109739999999
 31
0.0
  0
LINE
  5
318352DC
330
318324AF
100
AcDbEntity
  8
JISSEN
100
AcDbLine
 10
382.2097440000002
 20
201.760974
 30
0.0
 11
382.2097440000002
 21
191.7656745383793
 31
0.0
  0
LINE
  5
318352DD
330
318324AF
100
AcDbEntity
  8
JISSEN
 48
10.0
100
AcDbLine
 10
369.2597440000002
 20
110.610974
 30
0.0
 11
407.409744
 21
110.610974
 31
0.0
  0
LINE
  5
318352DE
330
318324AF
100
AcDbEntity
  8
JISSEN
100
AcDbLine
 10
369.2597440000001
 20
105.610974
 30
0.0
 11
374.9196327205098
 21
105.610974
 31
0.0
  0
LINE
  5
318352DF
330
318324AF
100
AcDbEntity
  8
JISSEN
100
AcDbLine
 10
344.7597440000001
 20
185.6109740000001
 30
0.0
 11
336.409744
 21
185.610974
 31
0.0
  0
LINE
  5
318352E0
330
318324AF
100
AcDbEntity
  8
JISSEN
100
AcDbLine
 10
344.7597440000001
 20
182.610974
 30
0.0
 11
336.409744
 21
182.610974
 31
0.0
  0
LINE
  5
318352E1
330
318324AF
100
AcDbEntity
  8
JISSEN
100
AcDbLine
 10
347.559744
 20
247.610974
 30
0.0
 11
333.9097440000002
 21
247.610974
 31
0.0
  0
LINE
  5
318352E2
330
318324AF
100
AcDbEntity
  8
JISSEN
100
AcDbLine
 10
369.2597440000001
 20
241.610974
 30
0.0
 11
373.9560278505416
 21
241.610974
 31
0.0
  0
POINT
  5
318352E3
330
318324AF
100
AcDbEntity
  8
DEFPOINTS
 62
     0
100
AcDbPoint
 10
402.2097440000007
 20
134.6109740000004
 30
0.0
  0
TEXT
  5
318352F2
330
318324AF
100
AcDbEntity
  8
SUNPOU
100
AcDbText
 10
205.5535384019733
 20
13.83779537659729
 30
0.0
 40
4.5
  1
手動起動装置  %%US-MB  
 72
     4
 11
236.9035384019734
 21
15.63779537659729
 31
0.0
100
AcDbText
  0
TEXT
  5
318352F3
330
318324AF
100
AcDbEntity
  8
SUNPOU
100
AcDbText
 10
202.9392526876876
 20
4.209223948025865
 30
0.0
 40
4.5
  1
A4 用紙、印刷尺度1/1.5
 72
     4
 11
236.9035384019734
 21
6.137795376597296
 31
0.0
100
AcDbText
  0
LINE
  5
318352F6
330
318324AF
100
AcDbEntity
  8
SUNPOU
100
AcDbLine
 10
263.6801644037009
 20
18.33758000434932
 30
0.0
 11
266.8801644037009
 21
18.33758000434932
 31
0.0
  0
LINE
  5
318352F7
330
318324AF
100
AcDbEntity
  8
SUNPOU
100
AcDbLine
 10
263.6801644037009
 20
13.83758000434932
 30
0.0
 11
266.8801644037009
 21
13.83758000434932
 31
0.0
  0
LINE
  5
318352F8
330
318324AF
100
AcDbEntity
  8
SUNPOU
100
AcDbLine
 10
264.5801644037009
 20
18.33758000434932
 30
0.0
 11
264.5801644037009
 21
13.83758000434932
 31
0.0
  0
LINE
  5
318352F9
330
318324AF
100
AcDbEntity
  8
SUNPOU
100
AcDbLine
 10
265.9801644037009
 20
18.33758000434932
 30
0.0
 11
265.9801644037009
 21
13.83758000434932
 31
0.0
  0
LINE
  5
318352FC
330
318324AF
100
AcDbEntity
  8
SUNPOU
100
AcDbLine
 10
538.982851371121
 20
18.33758000434932
 30
0.0
 11
538.982851371121
 21
13.83758000434932
 31
0.0
  0
LINE
  5
318352FD
330
318324AF
100
AcDbEntity
  8
SUNPOU
100
AcDbLine
 10
537.582851371121
 20
18.33758000434932
 30
0.0
 11
537.582851371121
 21
13.83758000434932
 31
0.0
  0
LINE
  5
318352FE
330
318324AF
100
AcDbEntity
  8
SUNPOU
100
AcDbLine
 10
536.682851371121
 20
13.83758000434932
 30
0.0
 11
539.8828513711209
 21
13.83758000434932
 31
0.0
  0
LINE
  5
318352FF
330
318324AF
100
AcDbEntity
  8
SUNPOU
100
AcDbLine
 10
536.682851371121
 20
18.33758000434932
 30
0.0
 11
539.8828513711209
 21
18.33758000434932
 31
0.0
  0
TEXT
  5
31835300
330
318324AF
100
AcDbEntity
  8
SUNPOU
100
AcDbText
 10
470.600633218651
 20
4.209223948025865
 30
0.0
 40
4.5
  1
A4 用紙、印刷尺度1/1.5
 72
     4
 11
504.5649189329367
 21
6.137795376597296
 31
0.0
100
AcDbText
  0
TEXT
  5
31835301
330
318324AF
100
AcDbEntity
  8
SUNPOU
100
AcDbText
 10
467.8149189329367
 20
13.83779537659729
 30
0.0
 40
4.5
  1
手動起動装置断面  %%US-MB  
 72
     4
 11
504.5649189329367
 21
15.63779537659729
 31
0.0
100
AcDbText
  0
LINE
  5
3183554E
330
318324AF
100
AcDbEntity
  8
JISSEN
100
AcDbLine
 10
493.5234455770513
 20
128.5639686162086
 30
0.0
 11
490.04113
 21
128.5639686162078
 31
0.0
  0
LINE
  5
3183554F
330
318324AF
100
AcDbEntity
  8
JISSEN
100
AcDbLine
 10
486.8255005696085
 20
128.5639686162078
 30
0.0
 11
490.0411299999994
 21
128.5639686162078
 31
0.0
  0
LINE
  5
31835550
330
318324AF
100
AcDbEntity
  8
SAISEN
100
AcDbLine
 10
490.0711247102726
 20
139.6255921151352
 30
0.0
 11
490.0711247102726
 21
137.5639686162078
 31
0.0
  0
LINE
  5
31835551
330
318324AF
100
AcDbEntity
  8
SAISEN
100
AcDbLine
 10
490.5111053350434
 20
138.0039492409789
 30
0.0
 11
490.5111053350434
 21
137.5639686162078
 31
0.0
  0
LINE
  5
31835552
330
318324AF
100
AcDbEntity
  8
SAISEN
100
AcDbLine
 10
490.5111053350434
 20
138.0039492409789
 30
0.0
 11
492.5727288339706
 21
139.1101862404031
 31
0.0
  0
LINE
  5
31835553
330
318324AF
100
AcDbEntity
  8
SAISEN
100
AcDbLine
 10
490.7310956474289
 20
139.2973696351229
 30
0.0
 11
490.5111053350434
 21
139.1793260528673
 31
0.0
  0
LINE
  5
31835554
330
318324AF
100
AcDbEntity
  8
SAISEN
100
AcDbLine
 10
490.5111053350434
 20
139.6255921151352
 30
0.0
 11
490.5111053350434
 21
139.1793260528673
 31
0.0
  0
LINE
  5
31835555
330
318324AF
100
AcDbEntity
  8
SAISEN
100
AcDbLine
 10
490.5111053350434
 20
139.6255921151352
 30
0.0
 11
490.0711247102726
 21
139.6255921151352
 31
0.0
  0
LINE
  5
31835556
330
318324AF
100
AcDbEntity
  8
SAISEN
100
AcDbLine
 10
490.0711247102726
 20
137.5639686162078
 30
0.0
 11
490.5111053350434
 21
137.5639686162078
 31
0.0
  0
ARC
  5
31835557
330
318324AF
100
AcDbEntity
  8
JISSEN
100
AcDbCircle
 10
493.256579995914
 20
134.0571162899808
 30
0.0
 40
5.5
100
AcDbArc
 50
272.9417290992331
 51
358.4999999999973
  0
LINE
  5
31835558
330
318324AF
100
AcDbEntity
  8
SAISEN
100
AcDbLine
 10
491.1710762721999
 20
140.3955582084842
 30
0.0
 11
492.0027505725028
 21
139.9797210583326
 31
0.0
  0
LINE
  5
31835559
330
318324AF
100
AcDbEntity
  8
SAISEN
100
AcDbLine
 10
490.5111053350434
 20
141.3855146142192
 30
0.0
 11
492.1327482091998
 21
140.5746931771408
 31
0.0
  0
LINE
  5
3183555A
330
318324AF
100
AcDbEntity
  8
SAISEN
100
AcDbLine
 10
490.5111053350434
 20
140.7255436770623
 30
0.0
 11
490.7310956474289
 21
140.6155485208695
 31
0.0
  0
LINE
  5
3183555B
330
318324AF
100
AcDbEntity
  8
SAISEN
100
AcDbLine
 10
490.0711247102726
 20
141.831780676487
 30
0.0
 11
490.0711247102726
 21
140.2855630522914
 31
0.0
  0
LINE
  5
3183555C
330
318324AF
100
AcDbEntity
  8
SAISEN
100
AcDbLine
 10
490.5111053350434
 20
141.831780676487
 30
0.0
 11
490.5111053350434
 21
141.3855146142192
 31
0.0
  0
LINE
  5
3183555D
330
318324AF
100
AcDbEntity
  8
SAISEN
100
AcDbLine
 10
490.0711247102726
 20
141.831780676487
 30
0.0
 11
490.5111053350434
 21
141.831780676487
 31
0.0
  0
LINE
  5
3183555E
330
318324AF
100
AcDbEntity
  8
SAISEN
100
AcDbLine
 10
490.5111053350434
 20
140.7255436770623
 30
0.0
 11
490.5111053350434
 21
140.2855630522914
 31
0.0
  0
LINE
  5
3183555F
330
318324AF
100
AcDbEntity
  8
SAISEN
100
AcDbLine
 10
490.5111053350434
 20
140.2855630522914
 30
0.0
 11
490.0711247102726
 21
140.2855630522914
 31
0.0
  0
LINE
  5
31835560
330
318324AF
100
AcDbEntity
  8
SAISEN
100
AcDbLine
 10
492.1327482091998
 20
141.3163748017549
 30
0.0
 11
492.1327482091998
 21
140.5746931771408
 31
0.0
  0
LINE
  5
31835561
330
318324AF
100
AcDbEntity
  8
SAISEN
100
AcDbLine
 10
492.1327482091998
 20
141.3163748017549
 30
0.0
 11
492.5727288339706
 21
141.3163748017549
 31
0.0
  0
ARC
  5
31835562
330
318324AF
100
AcDbEntity
  8
SAISEN
100
AcDbCircle
 10
491.3205666034472
 20
143.0811440016929
 30
0.0
 40
1.250996281867738
100
AcDbArc
 50
180.0
 51
0.0
  0
LINE
  5
31835563
330
318324AF
100
AcDbEntity
  8
SAISEN
100
AcDbLine
 10
490.5110984210624
 20
145.4359605322676
 30
0.0
 11
490.5110984210624
 21
145.8774886317502
 31
0.0
  0
LINE
  5
31835564
330
318324AF
100
AcDbEntity
  8
SAISEN
100
AcDbLine
 10
492.1300347858322
 20
145.8774886317502
 30
0.0
 11
492.1300347858322
 21
145.4359605322676
 31
0.0
  0
LINE
  5
31835565
330
318324AF
100
AcDbEntity
  8
SAISEN
100
AcDbLine
 10
492.1327482091998
 20
146.6149986114976
 30
0.0
 11
490.0711247102726
 21
146.6149986114976
 31
0.0
  0
LINE
  5
31835566
330
318324AF
100
AcDbEntity
  8
SAISEN
100
AcDbLine
 10
492.1327482091998
 20
147.1995442986935
 30
0.0
 11
490.7804210014432
 21
147.1995442986935
 31
0.0
  0
LINE
  5
31835567
330
318324AF
100
AcDbEntity
  8
SAISEN
100
AcDbLine
 10
490.5110984210624
 20
145.8774886317502
 30
0.0
 11
490.0695703215795
 21
145.8774886317502
 31
0.0
  0
LINE
  5
31835568
330
318324AF
100
AcDbEntity
  8
SAISEN
100
AcDbLine
 10
492.5727288339706
 20
147.6458103609614
 30
0.0
 11
492.5727288339706
 21
146.16873254923
 31
0.0
  0
LINE
  5
31835569
330
318324AF
100
AcDbEntity
  8
SAISEN
100
AcDbLine
 10
492.1327482091998
 20
147.6458103609614
 30
0.0
 11
492.1327482091998
 21
147.1995442986935
 31
0.0
  0
LINE
  5
3183556A
330
318324AF
100
AcDbEntity
  8
SAISEN
100
AcDbLine
 10
492.5727288339706
 20
147.6458103609614
 30
0.0
 11
492.1327482091998
 21
147.6458103609614
 31
0.0
  0
LINE
  5
3183556B
330
318324AF
100
AcDbEntity
  8
SAISEN
100
AcDbLine
 10
492.1327482091998
 20
146.6149986114976
 30
0.0
 11
492.1327482091998
 21
146.16873254923
 31
0.0
  0
LINE
  5
3183556C
330
318324AF
100
AcDbEntity
  8
SAISEN
100
AcDbLine
 10
492.5727288339706
 20
146.16873254923
 30
0.0
 11
492.1327482091998
 21
146.16873254923
 31
0.0
  0
LINE
  5
3183556D
330
318324AF
100
AcDbEntity
  8
SAISEN
100
AcDbLine
 10
492.5715628853151
 20
145.8774886317502
 30
0.0
 11
492.1300347858322
 21
145.8774886317502
 31
0.0
  0
LINE
  5
3183556E
330
318324AF
100
AcDbEntity
  8
SAISEN
100
AcDbLine
 10
492.1300347858322
 20
145.4359605322676
 30
0.0
 11
490.5110984210624
 21
145.4359605322676
 31
0.0
  0
LINE
  5
3183556F
330
318324AF
100
AcDbEntity
  8
SAISEN
100
AcDbLine
 10
492.1300347858322
 20
144.5529043333018
 30
0.0
 11
490.5110984210624
 21
144.5529043333018
 31
0.0
  0
LINE
  5
31835570
330
318324AF
100
AcDbEntity
  8
SAISEN
100
AcDbLine
 10
490.5110984210624
 20
144.5529043333018
 30
0.0
 11
490.5110984210624
 21
143.8170241674976
 31
0.0
  0
LINE
  5
31835571
330
318324AF
100
AcDbEntity
  8
SAISEN
100
AcDbLine
 10
492.1300347858322
 20
143.8170241674976
 30
0.0
 11
492.1300347858322
 21
144.5529043333018
 31
0.0
  0
LINE
  5
31835572
330
318324AF
100
AcDbEntity
  8
SAISEN
100
AcDbLine
 10
492.5715628853151
 20
143.0811440016929
 30
0.0
 11
492.5715628853151
 21
145.8774886317502
 31
0.0
  0
LINE
  5
31835573
330
318324AF
100
AcDbEntity
  8
SAISEN
100
AcDbLine
 10
490.0695703215795
 20
145.8774886317502
 30
0.0
 11
490.0695703215795
 21
143.0811440016929
 31
0.0
  0
ARC
  5
31835574
330
318324AF
100
AcDbEntity
  8
SAISEN
100
AcDbCircle
 10
491.3205666034472
 20
143.8170241674976
 30
0.0
 40
0.8094681823850022
100
AcDbArc
 50
180.0
 51
0.0
  0
LINE
  5
31835575
330
318324AF
100
AcDbEntity
  8
SAISEN
100
AcDbLine
 10
486.5411299999988
 20
141.5639686162082
 30
0.0
 11
486.5411299999988
 21
140.5639686162078
 31
0.0
  0
LINE
  5
31835576
330
318324AF
100
AcDbEntity
  8
SAISEN
100
AcDbLine
 10
487.541129999999
 20
140.5639686162078
 30
0.0
 11
487.541129999999
 21
141.5639686162082
 31
0.0
  0
LINE
  5
31835577
330
318324AF
100
AcDbEntity
  8
SAISEN
100
AcDbLine
 10
487.541129999999
 20
141.5639686162082
 30
0.0
 11
486.5411299999988
 21
141.5639686162082
 31
0.0
  0
LINE
  5
31835578
330
318324AF
100
AcDbEntity
  8
SAISEN
100
AcDbLine
 10
486.5411299999988
 20
140.5639686162078
 30
0.0
 11
487.541129999999
 21
140.5639686162078
 31
0.0
  0
LINE
  5
31835579
330
318324AF
100
AcDbEntity
  8
SAISEN
100
AcDbLine
 10
492.0388499051326
 20
149.5565833599668
 30
0.0
 11
490.0711247102726
 21
147.9349404858108
 31
0.0
  0
LINE
  5
3183557A
330
318324AF
100
AcDbEntity
  8
SAISEN
100
AcDbLine
 10
490.5111053350434
 20
149.5565833599668
 30
0.0
 11
492.0388499051326
 21
149.5565833599668
 31
0.0
  0
LINE
  5
3183557B
330
318324AF
100
AcDbEntity
  8
SAISEN
100
AcDbLine
 10
490.5111053350434
 20
149.5565833599668
 30
0.0
 11
490.5111053350434
 21
149.1166027351959
 31
0.0
  0
LINE
  5
3183557C
330
318324AF
100
AcDbEntity
  8
SAISEN
100
AcDbLine
 10
490.0711247102726
 20
149.1166027351959
 30
0.0
 11
490.5111053350434
 21
149.1166027351959
 31
0.0
  0
LINE
  5
3183557D
330
318324AF
100
AcDbEntity
  8
SAISEN
100
AcDbLine
 10
490.5111053350434
 20
150.1474144846594
 30
0.0
 11
492.1327482091998
 21
150.1474144846594
 31
0.0
  0
LINE
  5
3183557E
330
318324AF
100
AcDbEntity
  8
SAISEN
100
AcDbLine
 10
490.5111053350434
 20
150.5873951094305
 30
0.0
 11
490.0711247102726
 21
150.5873951094305
 31
0.0
  0
LINE
  5
3183557F
330
318324AF
100
AcDbEntity
  8
SAISEN
100
AcDbLine
 10
492.5727288339706
 20
150.5873951094305
 30
0.0
 11
492.1327482091998
 21
150.5873951094305
 31
0.0
  0
LINE
  5
31835580
330
318324AF
100
AcDbEntity
  8
SAISEN
100
AcDbLine
 10
490.5111053350434
 20
150.5873951094305
 30
0.0
 11
490.5111053350434
 21
150.1474144846594
 31
0.0
  0
LINE
  5
31835581
330
318324AF
100
AcDbEntity
  8
SAISEN
100
AcDbLine
 10
492.1327482091998
 20
150.5873951094305
 30
0.0
 11
492.1327482091998
 21
150.1474144846594
 31
0.0
  0
LINE
  5
31835582
330
318324AF
100
AcDbEntity
  8
SAISEN
100
AcDbLine
 10
490.0711247102726
 20
150.5873951094305
 30
0.0
 11
490.0711247102726
 21
149.1166027351959
 31
0.0
  0
LINE
  5
31835583
330
318324AF
100
AcDbEntity
  8
SAISEN
100
AcDbLine
 10
492.5727288339706
 20
150.5873951094305
 30
0.0
 11
492.5727288339706
 21
148.6766221104249
 31
0.0
  0
CIRCLE
  5
31835584
330
318324AF
100
AcDbEntity
  8
SAISEN
100
AcDbCircle
 10
491.3205666034472
 20
152.6475861571517
 30
0.0
 40
0.8094681823850024
  0
LWPOLYLINE
  5
31835585
330
318324AF
100
AcDbEntity
  8
SAISEN
100
AcDbPolyline
 90
       16
 70
     1
 43
0.0
 10
491.3205666034472
 20
150.6975037177702
 42
0.1443238288432184
 10
491.7668413592925
 20
150.8290601173319
 42
0.1071767194116677
 10
492.2051545575952
 20
151.2686696403922
 42
0.077822320363764
 10
492.4996256666935
 20
151.9369342268084
 42
0.079585750962787
 10
492.5715628853151
 20
152.6475861571517
 42
0.0650214376055212
 10
492.4699647178043
 20
153.4255498241304
 42
0.0778223203637648
 10
492.2051545575952
 20
154.026502673912
 42
0.1071767194116687
 10
491.7668413592925
 20
154.4661121969717
 42
0.144323828843219
 10
491.3205666034472
 20
154.597668596534
 42
0.1443238288432179
 10
490.8742918476021
 20
154.4661121969717
 42
0.1071767194116682
 10
490.4359786492995
 20
154.026502673912
 42
0.0778223203637647
 10
490.1711684890905
 20
153.4255498241304
 42
0.0650214376055213
 10
490.0695703215795
 20
152.6475861571517
 42
0.0650214376055212
 10
490.1711684890905
 20
151.8696224901738
 42
0.0778223203637645
 10
490.4359786492995
 20
151.2686696403922
 42
0.1071767194116684
 10
490.8742918476021
 20
150.8290601173319
 42
0.1443238288432191
  0
TEXT
  5
31835586
330
318324AF
100
AcDbEntity
  8
SAISEN
100
AcDbText
 10
486.0411299999988
 20
153.0520638543033
 30
0.0
 40
2.0
  1
W.O.G.
 50
270.0
  7
35FONT
 72
     4
 11
487.0411299999988
 21
148.813968616208
 31
0.0
100
AcDbText
  0
LINE
  5
31835587
330
318324AF
100
AcDbEntity
  8
SAISEN
100
AcDbLine
 10
490.7804210014432
 20
147.1995442986935
 30
0.0
 11
492.5727288339706
 21
148.6766221104249
 31
0.0
  0
LINE
  5
31835588
330
318324AF
100
AcDbEntity
  8
SAISEN
100
AcDbLine
 10
490.0711247102726
 20
146.6149986114976
 30
0.0
 11
490.0711247102726
 21
147.9349404858108
 31
0.0
  0
HATCH
  5
31835589
330
318324AF
100
AcDbEntity
  8
SAISEN
100
AcDbHatch
 10
0.0
 20
0.0
 30
0.0
210
0.0
220
0.0
230
1.0
  2
SOLID
 70
     1
 71
     0
 91
       11
 92
        7
 72
     1
 73
     1
 93
       16
 10
491.3205666034472
 20
150.6975037177702
 42
0.1443238288442031
 10
491.7668413592951
 20
150.8290601173336
 42
0.1071767194107518
 10
492.205154557594
 20
151.2686696403905
 42
0.0778223203630746
 10
492.4996256666912
 20
151.9369342268
 42
0.0795857509637407
 10
492.5715628853151
 20
152.6475861571517
 42
0.065021437605543
 10
492.4699647178041
 20
153.4255498241306
 42
0.077822320363472
 10
492.2051545575962
 20
154.02650267391
 42
0.1071767194122616
 10
491.7668413592915
 20
154.4661121969724
 42
0.1443238288428532
 10
491.3205666034472
 20
154.597668596534
 42
0.1443238288428584
 10
490.8742918476031
 20
154.4661121969724
 42
0.1071767194122079
 10
490.4359786492985
 20
154.0265026739103
 42
0.0778223203632769
 10
490.1711684890909
 20
153.4255498241324
 42
0.0650214376057009
 10
490.0695703215795
 20
152.6475861571517
 42
0.0650214376057937
 10
490.1711684890911
 20
151.8696224901707
 42
0.0778223203635918
 10
490.4359786493004
 20
151.2686696403906
 42
0.1071767194108234
 10
490.8742918475994
 20
150.8290601173335
 42
0.1443238288441809
 97
        0
 92
       22
 72
     1
 73
     1
 93
        2
 10
491.3205666034472
 20
153.4570543395367
 42
-1.0
 10
491.3205666034472
 20
151.8381179747667
 42
-1.0
 97
        0
 92
        7
 72
     0
 73
     1
 93
       20
 10
492.5727288339706
 20
148.6766221104249
 10
492.5727288339706
 20
150.5873951094305
 10
492.1327482091998
 20
150.5873951094305
 10
492.1327482091998
 20
150.1474144846594
 10
490.5111053350434
 20
150.1474144846594
 10
490.5111053350434
 20
150.5873951094305
 10
490.0711247102726
 20
150.5873951094305
 10
490.0711247102726
 20
149.1166027351959
 10
490.5111053350434
 20
149.1166027351959
 10
490.5111053350436
 20
149.5565833599668
 10
492.0388499051324
 20
149.5565833599668
 10
490.0711247102726
 20
147.9349404858107
 10
490.0711247102726
 20
146.6149986114976
 10
492.1327482091998
 20
146.6149986114976
 10
492.1327482091998
 20
146.16873254923
 10
492.5727288339706
 20
146.16873254923
 10
492.5727288339706
 20
147.6458103609614
 10
492.1327482091998
 20
147.6458103609614
 10
492.1327482091998
 20
147.1995442986935
 10
490.7804210014432
 20
147.1995442986935
 97
        0
 92
        7
 72
     0
 73
     1
 93
        5
 10
492.5715628853151
 20
143.8170241674976
 10
492.5715628853151
 20
145.8774886317502
 10
492.1300347858322
 20
145.8774886317502
 10
492.1300347858322
 20
145.4359605322676
 10
492.1300347858322
 20
143.8170241674976
 97
        0
 92
        7
 72
     0
 73
     1
 93
        8
 10
492.1300347858322
 20
144.5529043333018
 10
492.1300347858322
 20
145.4359605322676
 10
490.5110984210624
 20
145.4359605322676
 10
490.5110984210624
 20
145.8774886317502
 10
490.0695703215795
 20
145.8774886317502
 10
490.0695703215795
 20
143.8170241674976
 10
490.5110984210621
 20
143.8170241674976
 10
490.5110984210621
 20
144.5529043333018
 97
        0
 92
        7
 72
     1
 73
     1
 93
        4
 10
491.5522991833137
 20
141.8517979524964
 42
0.0
 10
492.0012502585892
 20
143.378950543644
 42
-0.7483373504521821
 10
490.5110984210624
 20
143.8170241674976
 42
0.0
 10
490.5110984210624
 20
142.1273342937568
 42
0.2262551041773905
 97
        0
 92
        7
 72
     1
 73
     1
 93
        4
 10
490.5110984210624
 20
142.1273342937568
 42
0.0
 10
490.5110984210624
 20
143.8170241674976
 42
0.0
 10
490.0695703215795
 20
143.8170241674976
 42
0.0
 10
490.0695703215795
 20
143.081144001693
 42
0.2202292433783565
 97
        0
 92
        7
 72
     1
 73
     1
 93
        4
 10
492.5715628853151
 20
143.0811440016929
 42
0.0
 10
492.5715628853151
 20
143.8170241674976
 42
0.0
 10
492.1300347858322
 20
143.8170241674976
 42
0.0
 10
491.5522991833137
 20
141.8517979524964
 42
0.3606382196031144
 97
        0
 92
       22
 72
     1
 73
     1
 93
        4
 10
492.5715628853151
 20
143.0811440016929
 42
0.0
 10
492.5715628853151
 20
143.8170241674976
 42
0.0
 10
492.1300347858322
 20
143.8170241674976
 42
0.0
 10
492.1300347858322
 20
142.1273342937568
 42
0.2202292433783335
 97
        0
 92
        7
 72
     0
 73
     1
 93
       20
 10
492.5727288339706
 20
139.1101862404031
 10
492.5727288339706
 20
141.3163748017549
 10
492.1327482091998
 20
141.3163748017549
 10
492.1327482091998
 20
140.5746931771408
 10
490.5111053350434
 20
141.3855146142192
 10
490.5111053350434
 20
141.7725335960571
 10
490.5110984210624
 20
141.7725335960571
 10
490.5110984210624
 20
141.831780676487
 10
490.0711247102726
 20
141.831780676487
 10
490.0711247102726
 20
140.2855630522914
 10
490.5111053350434
 20
140.2855630522914
 10
490.5111053350434
 20
140.7255436770623
 10
490.7310956474289
 20
140.6155485208695
 10
490.7310956474289
 20
139.2973696351229
 10
490.5111053350434
 20
139.1793260528672
 10
490.5111053350434
 20
139.6255921151352
 10
490.0711247102726
 20
139.6255921151352
 10
490.0711247102726
 20
137.5639686162078
 10
490.5111053350434
 20
137.5639686162078
 10
490.5111053350434
 20
138.0039492409788
 97
        0
 92
       22
 72
     0
 73
     1
 93
        3
 10
491.1710762721999
 20
139.5334567996341
 10
491.1710762721999
 20
140.3955582084842
 10
492.0027505725028
 20
139.9797210583326
 97
        0
 75
     0
 76
     1
 47
0.0341947940431478
 98
       11
 10
491.1799344645856
 20
151.1935575749788
 10
491.1799344645856
 20
151.1935575749788
 10
491.5560771761444
 20
148.3189773925138
 10
492.3767520063137
 20
144.9995208147624
 10
491.4192977135242
 20
144.9310782924107
 10
490.735401697458
 20
142.4671520927943
 10
490.4618434207351
 20
143.3226824709295
 10
491.898024859919
 20
142.4329308316186
 10
492.4109470340978
 20
143.2542399485779
 10
491.9664142669701
 20
139.4214656044499
 10
491.9664142669701
 20
139.4214656044499
  0
LINE
  5
3183558A
330
318324AF
100
AcDbEntity
  8
SAISEN
100
AcDbLine
 10
492.0027505725028
 20
139.9797210583326
 30
0.0
 11
491.1710762721999
 21
139.5334567996341
 31
0.0
  0
LINE
  5
3183558B
330
318324AF
100
AcDbEntity
  8
SAISEN
100
AcDbLine
 10
491.1710762721999
 20
139.5334567996341
 30
0.0
 11
491.1710762721999
 21
140.3955582084842
 31
0.0
  0
LINE
  5
3183558C
330
318324AF
100
AcDbEntity
  8
SAISEN
100
AcDbLine
 10
490.7310956474289
 20
140.6155485208695
 30
0.0
 11
490.7310956474289
 21
139.2973696351229
 31
0.0
  0
LINE
  5
3183558D
330
318324AF
100
AcDbEntity
  8
SAISEN
100
AcDbLine
 10
492.5727288339706
 20
141.3163748017549
 30
0.0
 11
492.5727288339706
 21
139.1101862404031
 31
0.0
  0
LINE
  5
3183558E
330
318324AF
100
AcDbEntity
  8
SAISEN
100
AcDbLine
 10
491.9369113151998
 20
157.3419284889911
 30
0.0
 11
491.7871096677082
 21
157.3419284889911
 31
0.0
  0
LINE
  5
3183558F
330
318324AF
100
AcDbEntity
  8
SAISEN
100
AcDbLine
 10
491.7871096677082
 20
156.8176227227708
 30
0.0
 11
491.9369113151998
 21
156.8176227227708
 31
0.0
  0
LINE
  5
31835590
330
318324AF
100
AcDbEntity
  8
SAISEN
100
AcDbLine
 10
491.7871096677082
 20
157.3419284889911
 30
0.0
 11
491.7871096677082
 21
156.8176227227708
 31
0.0
  0
LINE
  5
31835591
330
318324AF
100
AcDbEntity
  8
SAISEN
100
AcDbLine
 10
491.9369113151998
 20
157.1921268414993
 30
0.0
 11
491.9369113151998
 21
157.3419284889911
 31
0.0
  0
LINE
  5
31835592
330
318324AF
100
AcDbEntity
  8
SAISEN
100
AcDbLine
 10
491.9369113151998
 20
156.8176227227708
 30
0.0
 11
491.9358183224698
 21
156.9596080978448
 31
0.0
  0
LWPOLYLINE
  5
31835593
330
318324AF
100
AcDbEntity
  8
SAISEN
100
AcDbPolyline
 90
        2
 70
     0
 43
0.0
 10
491.4507747119895
 20
157.7744419511761
 42
0.003443646303572
 10
491.4506708372117
 20
157.7895238639041
 42
0.0857828071076088
  0
LWPOLYLINE
  5
31835594
330
318324AF
100
AcDbEntity
  8
SAISEN
100
AcDbPolyline
 90
        5
 70
     0
 43
0.0
 10
490.7399356375423
 20
158.3567570608528
 42
0.0508792192586596
 10
490.6919575786713
 20
158.33290494346
 42
0.1071591475341602
 10
490.5547877940551
 20
158.1981449942731
 42
0.0789991877022377
 10
490.4714752156763
 20
158.013120407522
 42
0.0664511817867672
 10
490.439613591422
 20
157.7744419511761
 42
0.0664511817867678
  0
LINE
  5
31835595
330
318324AF
100
AcDbEntity
  8
SAISEN
100
AcDbLine
 10
490.7399356375423
 20
158.3567570608528
 30
0.0
 11
490.7399356375423
 21
158.2069554133616
 31
0.0
  0
LINE
  5
31835596
330
318324AF
100
AcDbEntity
  8
SAISEN
100
AcDbLine
 10
490.7399356375423
 20
158.2069554133616
 30
0.0
 11
490.8897372850339
 21
158.2069554133616
 31
0.0
  0
LWPOLYLINE
  5
31835597
330
318324AF
100
AcDbEntity
  8
SAISEN
100
AcDbPolyline
 90
       13
 70
     0
 43
0.0
 10
491.9369113151998
 20
157.1921268414993
 42
0.0508792192586602
 10
491.984889374071
 20
157.2159789588927
 42
0.1071591475341562
 10
492.122059158687
 20
157.3507389080796
 42
0.0789991877022394
 10
492.2053717370657
 20
157.5357634948307
 42
0.0664511817867662
 10
492.2372333613199
 20
157.7744419511761
 42
0.0664511817867667
 10
492.2053717370657
 20
158.013120407522
 42
0.0789991877022392
 10
492.122059158687
 20
158.1981449942731
 42
0.1071591475341592
 10
491.984889374071
 20
158.33290494346
 42
0.141695250338409
 10
491.8440040366548
 20
158.3736485411421
 42
0.1416952503384097
 10
491.7031186992386
 20
158.33290494346
 42
0.1071591475341602
 10
491.5659489146227
 20
158.1981449942731
 42
0.0789991877022377
 10
491.4826363362439
 20
158.013120407522
 42
0.0664511817867672
 10
491.4507747119895
 20
157.7744419511761
 42
0.0664511817867678
  0
LWPOLYLINE
  5
31835598
330
318324AF
100
AcDbEntity
  8
SAISEN
100
AcDbPolyline
 90
        9
 70
     0
 43
0.0
 10
490.439613591422
 20
157.7744419511761
 42
0.0664511817867678
 10
490.4714752156763
 20
157.5357634948307
 42
0.078999187702239
 10
490.5547877940551
 20
157.3507389080796
 42
0.107159147534158
 10
490.7011039338011
 20
157.2069932893736
 42
0.1647051743017312
 10
490.8328429160873
 20
157.1752353612103
 42
0.1416952503384066
 10
490.9737282535035
 20
157.2159789588927
 42
0.1071591475341562
 10
491.1108980381194
 20
157.3507389080796
 42
0.0789991877022394
 10
491.1942106164977
 20
157.5357634948307
 42
0.0664511817867652
 10
491.2260722407523
 20
157.7744419511761
 42
0.0664511817867667
  0
LWPOLYLINE
  5
31835599
330
318324AF
100
AcDbEntity
  8
SAISEN
100
AcDbPolyline
 90
        5
 70
     0
 43
0.0
 10
491.9358183224698
 20
156.9596080978448
 42
0.0770392472783639
 10
492.0707351470854
 20
157.0089821300802
 42
0.1060700219635831
 10
492.2809477998483
 20
157.1918502669185
 42
0.085782807107608
 10
492.4126400299181
 20
157.4495995780768
 42
0.075444616229805
 10
492.4619358325572
 20
157.7744419511761
 42
0.0754446162298053
  0
LINE
  5
3183559A
330
318324AF
100
AcDbEntity
  8
SAISEN
100
AcDbLine
 10
490.7399356375423
 20
158.7312611795813
 30
0.0
 11
490.7410286302721
 21
158.5892758045072
 31
0.0
  0
LINE
  5
3183559B
330
318324AF
100
AcDbEntity
  8
SAISEN
100
AcDbLine
 10
490.8897372850339
 20
158.7312611795813
 30
0.0
 11
490.7399356375423
 21
158.7312611795813
 31
0.0
  0
HATCH
  5
3183559C
330
318324AF
100
AcDbEntity
  8
SAISEN
100
AcDbHatch
 10
0.0
 20
0.0
 30
0.0
210
0.0
220
0.0
230
1.0
  2
SOLID
 70
     1
 71
     0
 91
        6
 92
        7
 72
     1
 73
     1
 93
       13
 10
492.6117374800486
 20
157.7744419511755
 42
0.0714693076281868
 10
492.5094372701879
 20
158.4864795928628
 42
0.0829154742501526
 10
492.2387924429489
 20
159.0455510804689
 42
0.1067406714182418
 10
491.8010351921617
 20
159.4467287200783
 42
0.1330639172304189
 10
491.3384234763713
 20
159.5720617210742
 42
0.1286104568094165
 10
490.8897372850339
 20
159.4547091614416
 42
0.0
 10
490.8897372850339
 20
159.281254467988
 42
-0.010121117487598
 10
490.9330293229181
 20
159.3087697729896
 42
-0.1373351888464872
 10
491.3384234763713
 20
159.4222600735829
 42
-0.1373351888465864
 10
491.7438176298243
 20
159.3087697729894
 42
-0.1070187297917864
 10
492.1328666821758
 20
158.9396253196934
 42
-0.0809685170766165
 10
492.3712758388283
 20
158.4290246538979
 42
-0.0689212726864549
 10
492.4619358325572
 20
157.7744419511755
 42
0.0
 97
        0
 92
        7
 72
     1
 73
     1
 93
        9
 10
492.509437270187
 20
157.0624043094868
 42
0.0714693076283976
 10
492.6117374800486
 20
157.7744419511755
 42
0.0
 10
492.4619358325572
 20
157.7744419511755
 42
-0.0689212726864114
 10
492.3712758388282
 20
157.1198592484535
 42
-0.080968517075959
 10
492.1328666821781
 20
156.6092585826619
 42
-0.0967927712982433
 10
491.7871096677082
 20
156.2676294343647
 42
0.0
 10
491.7871096677082
 20
156.0941747409107
 42
0.0043785288574505
 10
491.8010351921654
 20
156.1021551822762
 42
0.1067406714179723
 10
492.2387924429505
 20
156.5033328218854
 42
0.08291547424935
 97
        0
 92
        7
 72
     1
 73
     1
 93
       12
 10
491.7871096677082
 20
156.0941747409107
 42
0.0
 10
491.7871096677082
 20
156.2676294343647
 42
-0.0101211174878375
 10
491.7438176298231
 20
156.2401141293625
 42
-0.1373351888460561
 10
491.3384234763713
 20
156.1266238287698
 42
-0.1598118359514112
 10
490.959581425148
 20
156.2149204906635
 42
-0.1070187297924671
 10
490.5439802705649
 20
156.6092585826606
 42
-0.0809685170769828
 10
490.3055711139119
 20
157.1198592484588
 42
-0.0689212726858721
 10
490.2149111201849
 20
157.7744419511757
 42
0.0
 10
490.2149111201849
 20
156.9213651767844
 42
0.0630737464956603
 10
490.4380545097909
 20
156.5033328218865
 42
0.1067406714191085
 10
490.9063988805668
 20
156.0741239650268
 42
0.155034902240476
 10
491.3384234763713
 20
155.9768221812784
 42
0.1286104568094142
 97
        0
 92
        7
 72
     1
 73
     1
 93
        4
 10
490.167409682555
 20
157.0624043094867
 42
0.0197384995537441
 10
490.2149111201849
 20
156.9213651767845
 42
0.0
 10
490.2149111201849
 20
157.7744419511766
 42
0.0
 10
490.0651094726935
 20
157.7744419511766
 42
0.0714693076285258
 97
        0
 92
        7
 72
     1
 73
     1
 93
        9
 10
490.2149111201849
 20
157.7744419511766
 42
-0.0689212726858514
 10
490.3055711139119
 20
158.4290246538934
 42
-0.0809685170775856
 10
490.5439802705672
 20
158.9396253196952
 42
-0.0967927712970778
 10
490.8897372850339
 20
159.281254467988
 42
0.0
 10
490.8897372850339
 20
159.4547091614416
 42
0.0043785288564212
 10
490.8758117605799
 20
159.4467287200781
 42
0.1067406714180835
 10
490.4380545097934
 20
159.0455510804694
 42
0.0829154742502209
 10
490.1674096825542
 20
158.4864795928628
 42
0.0714693076280759
 10
490.0651094726935
 20
157.7744419511766
 42
0.0
 97
        0
 92
        7
 72
     1
 73
     1
 93
       58
 10
490.3958991528951
 20
157.1918502669165
 42
0.1060700219623559
 10
490.6061118056558
 20
157.0089821300808
 42
0.1268223572483005
 10
490.8328429160873
 20
156.9505328899729
 42
0.1268223572484727
 10
491.0595740265188
 20
157.0089821300809
 42
0.1060700219622364
 10
491.2697866792792
 20
157.1918502669165
 42
0.0857828071080069
 10
491.4014789093499
 20
157.4495995780758
 42
0.07544461623009
 10
491.4507747119895
 20
157.7744419511763
 42
-0.0664511817862851
 10
491.4826363362436
 20
158.0131204075205
 42
-0.0789991877023321
 10
491.5659489146218
 20
158.1981449942719
 42
-0.107159147534525
 10
491.7031186992382
 20
158.3329049434596
 42
-0.1416952503390347
 10
491.8440040366548
 20
158.3736485411421
 42
-0.1416952503396784
 10
491.9848893740721
 20
158.3329049434593
 42
-0.1071591475328867
 10
492.1220591586862
 20
158.1981449942739
 42
-0.0789991877032185
 10
492.2053717370659
 20
158.0131204075206
 42
-0.0664511817863364
 10
492.2372333613199
 20
157.7744419511761
 42
-0.0664511817867061
 10
492.2053717370657
 20
157.5357634948308
 42
-0.0789991877026731
 10
492.1220591586865
 20
157.3507389080788
 42
-0.1071591475364773
 10
491.9848893740669
 20
157.2159789588901
 42
-0.0508792192538934
 10
491.9369113151998
 20
157.1921268414993
 42
0.0
 10
491.9369113151998
 20
157.3419284889911
 42
0.0
 10
491.7871096677082
 20
157.3419284889911
 42
0.0
 10
491.7871096677082
 20
156.8176227227708
 42
0.0
 10
491.9369113151998
 20
156.8176227227708
 42
0.0
 10
491.9358183224698
 20
156.9596080978448
 42
0.0770392472782703
 10
492.0707351470851
 20
157.0089821300802
 42
0.1060700219633449
 10
492.2809477998479
 20
157.1918502669179
 42
0.0857828071080859
 10
492.4126400299184
 20
157.4495995780776
 42
0.0754446162296209
 10
492.4619358325572
 20
157.7744419511761
 42
0.075444616229137
 10
492.4126400299188
 20
158.0992843242733
 42
0.085782807108364
 10
492.2809477998486
 20
158.3570336354339
 42
0.1060700219635
 10
492.0555135259434
 20
158.5531433610223
 42
0.1480812953272137
 10
491.8440040366546
 20
158.5983510123791
 42
0.1268223572508456
 10
491.6172729262192
 20
158.5399017722697
 42
0.1060700219599185
 10
491.4070602734637
 20
158.3570336354372
 42
0.0857828071089055
 10
491.2753680433914
 20
158.0992843242755
 42
0.0754446162296887
 10
491.2260722407523
 20
157.7744419511761
 42
-0.0664511817875532
 10
491.194210616497
 20
157.5357634948279
 42
-0.078999187699872
 10
491.1108980381213
 20
157.3507389080824
 42
-0.1071591475367322
 10
490.9737282535021
 20
157.2159789588919
 42
-0.1416952503370937
 10
490.8328429160873
 20
157.1752353612103
 42
-0.164705174301246
 10
490.7011039338016
 20
157.2069932893733
 42
-0.1071591475340511
 10
490.5547877940556
 20
157.3507389080793
 42
-0.0789991877028556
 10
490.4714752156762
 20
157.5357634948317
 42
-0.0664511817864829
 10
490.439613591422
 20
157.7744419511761
 42
-0.0664511817864085
 10
490.4714752156759
 20
158.0131204075209
 42
-0.0789991877026228
 10
490.5547877940549
 20
158.1981449942728
 42
-0.107159147533459
 10
490.69195757867
 20
158.3329049434592
 42
-0.0508792192601759
 10
490.7399356375423
 20
158.3567570608528
 42
0.0
 10
490.7399356375423
 20
158.2069554133616
 42
0.0
 10
490.8897372850339
 20
158.2069554133616
 42
0.0
 10
490.8897372850339
 20
158.7312611795813
 42
0.0
 10
490.7399356375423
 20
158.7312611795813
 42
0.0
 10
490.7410286302721
 20
158.5892758045072
 42
0.0770392472830199
 10
490.6061118056487
 20
158.5399017722683
 42
0.1060700219589673
 10
490.3958991528958
 20
158.357033635437
 42
0.0857828071093896
 10
490.2642069228233
 20
158.0992843242735
 42
0.0754446162292126
 10
490.2149111201849
 20
157.7744419511761
 42
0.0754446162295049
 10
490.2642069228234
 20
157.449599578078
 42
0.0857828071087055
 97
        0
 75
     0
 76
     1
 47
0.0070685640034986
 98
        6
 10
492.479004400218
 20
158.3290583583415
 10
492.4860725918396
 20
157.4448051460573
 10
491.3551022687828
 20
156.0300009274122
 10
490.132240266506
 20
157.5862860284268
 10
490.1534461384057
 20
158.2300222011878
 10
490.3442976884674
 20
157.9329125784645
  0
LWPOLYLINE
  5
3183559D
330
318324AF
100
AcDbEntity
  8
SAISEN
100
AcDbPolyline
 90
       16
 70
     1
 43
0.0
 10
490.2149111201849
 20
157.7744419511761
 42
0.0689212726861089
 10
490.3055711139126
 20
157.1198592484569
 42
0.0809685170767006
 10
490.5439802705649
 20
156.6092585826606
 42
0.1070187297923515
 10
490.9595814251475
 20
156.2149204906637
 42
0.1598118359516122
 10
491.3384234763713
 20
156.1266238287698
 42
0.1373351888463599
 10
491.7438176298236
 20
156.2401141293628
 42
0.1070187297923511
 10
492.1328666821771
 20
156.6092585826606
 42
0.0809685170767004
 10
492.3712758388293
 20
157.1198592484569
 42
0.068921272686109
 10
492.4619358325572
 20
157.7744419511761
 42
0.0689212726861093
 10
492.3712758388293
 20
158.4290246538953
 42
0.0809685170767009
 10
492.1328666821771
 20
158.9396253196918
 42
0.1070187297923514
 10
491.7438176298236
 20
159.3087697729899
 42
0.1373351888463605
 10
491.3384234763713
 20
159.4222600735829
 42
0.1373351888463604
 10
490.9330293229185
 20
159.3087697729899
 42
0.1070187297923513
 10
490.5439802705649
 20
158.9396253196918
 42
0.0809685170767004
 10
490.3055711139126
 20
158.4290246538953
 42
0.0689212726861086
  0
LWPOLYLINE
  5
3183559E
330
318324AF
100
AcDbEntity
  8
SAISEN
100
AcDbPolyline
 90
        9
 70
     0
 43
0.0
 10
492.4619358325572
 20
157.7744419511761
 42
0.0754446162298053
 10
492.4126400299181
 20
158.099284324276
 42
0.0857828071076088
 10
492.2809477998483
 20
158.3570336354341
 42
0.1060700219635837
 10
492.0555135259429
 20
158.5531433610225
 42
0.1480812953266344
 10
491.8440040366548
 20
158.5983510123791
 42
0.1268223572478397
 10
491.617272926224
 20
158.5399017722724
 42
0.1060700219635834
 10
491.4070602734615
 20
158.3570336354341
 42
0.085782807107608
 10
491.2753680433917
 20
158.099284324276
 42
0.0754446162298056
 10
491.2260722407523
 20
157.7744419511761
 42
0.0754446162298049
  0
LINE
  5
3183559F
330
318324AF
100
AcDbEntity
  8
SAISEN
100
AcDbLine
 10
490.8897372850339
 20
158.2069554133616
 30
0.0
 11
490.8897372850339
 21
158.7312611795813
 31
0.0
  0
LWPOLYLINE
  5
318355A0
330
318324AF
100
AcDbEntity
  8
SAISEN
100
AcDbPolyline
 90
       13
 70
     0
 43
0.0
 10
490.7410286302721
 20
158.5892758045072
 42
0.0770392472783632
 10
490.6061118056564
 20
158.5399017722724
 42
0.1060700219635834
 10
490.3958991528937
 20
158.3570336354341
 42
0.085782807107608
 10
490.264206922824
 20
158.099284324276
 42
0.0754446162298052
 10
490.2149111201849
 20
157.7744419511761
 42
0.0754446162298049
 10
490.264206922824
 20
157.4495995780768
 42
0.085782807107608
 10
490.3958991528937
 20
157.1918502669185
 42
0.1060700219635838
 10
490.6061118056564
 20
157.0089821300802
 42
0.1268223572478406
 10
490.8328429160873
 20
156.9505328899729
 42
0.1268223572478391
 10
491.0595740265178
 20
157.0089821300802
 42
0.1060700219635831
 10
491.2697866792806
 20
157.1918502669185
 42
0.085782807107608
 10
491.4014789093504
 20
157.4495995780768
 42
0.075444616229805
 10
491.4507747119895
 20
157.7744419511761
 42
0.0754446162298053
  0
LWPOLYLINE
  5
318355A1
330
318324AF
100
AcDbEntity
  8
SAISEN
100
AcDbPolyline
 90
       16
 70
     1
 43
0.0
 10
490.0651094726935
 20
157.7744419511761
 42
0.0714693076283245
 10
490.1674096825546
 20
157.0624043094882
 42
0.0829154742493596
 10
490.4380545097909
 20
156.5033328218866
 42
0.1067406714191292
 10
490.9063988805668
 20
156.0741239650267
 42
0.1550349022404454
 10
491.3384234763713
 20
155.9768221812784
 42
0.1330639172301401
 10
491.8010351921608
 20
156.1021551822736
 42
0.1067406714191296
 10
492.2387924429512
 20
156.5033328218866
 42
0.0829154742493594
 10
492.5094372701875
 20
157.0624043094882
 42
0.0714693076283241
 10
492.6117374800486
 20
157.7744419511761
 42
0.0714693076283252
 10
492.5094372701875
 20
158.4864795928646
 42
0.0829154742493602
 10
492.2387924429512
 20
159.0455510804658
 42
0.1067406714191293
 10
491.8010351921608
 20
159.4467287200788
 42
0.1330639172301401
 10
491.3384234763713
 20
159.5720617210742
 42
0.1330639172301399
 10
490.8758117605812
 20
159.4467287200788
 42
0.1067406714191293
 10
490.4380545097909
 20
159.0455510804658
 42
0.0829154742493597
 10
490.1674096825546
 20
158.4864795928646
 42
0.0714693076283244
  0
LINE
  5
318355A2
330
318324AF
100
AcDbEntity
  8
SAISEN
100
AcDbLine
 10
486.5411299999988
 20
157.0639686162081
 30
0.0
 11
486.5411299999988
 21
156.0639686162079
 31
0.0
  0
LINE
  5
318355A3
330
318324AF
100
AcDbEntity
  8
SAISEN
100
AcDbLine
 10
487.541129999999
 20
156.0639686162079
 30
0.0
 11
487.541129999999
 21
157.0639686162081
 31
0.0
  0
LINE
  5
318355A4
330
318324AF
100
AcDbEntity
  8
SAISEN
100
AcDbLine
 10
487.541129999999
 20
157.0639686162081
 30
0.0
 11
486.5411299999988
 21
157.0639686162081
 31
0.0
  0
LINE
  5
318355A5
330
318324AF
100
AcDbEntity
  8
SAISEN
100
AcDbLine
 10
486.5411299999988
 20
156.0639686162079
 30
0.0
 11
487.541129999999
 21
156.0639686162079
 31
0.0
  0
LINE
  5
318355A6
330
318324AF
100
AcDbEntity
  8
SAISEN
100
AcDbLine
 10
490.9411299999991
 20
167.4639686162078
 30
0.0
 11
490.9411299999991
 21
166.5639686162079
 31
0.0
  0
LINE
  5
318355A7
330
318324AF
100
AcDbEntity
  8
SAISEN
100
AcDbLine
 10
492.291129999999
 20
168.3139686162079
 30
0.0
 11
490.9411299999991
 21
170.0639686162078
 31
0.0
  0
LINE
  5
318355A8
330
318324AF
100
AcDbEntity
  8
SAISEN
100
AcDbLine
 10
490.9411299999991
 20
170.0639686162078
 30
0.0
 11
490.9411299999991
 21
169.1639686162079
 31
0.0
  0
LINE
  5
318355A9
330
318324AF
100
AcDbEntity
  8
SAISEN
100
AcDbLine
 10
490.9411299999991
 20
166.5639686162079
 30
0.0
 11
492.291129999999
 21
168.3139686162079
 31
0.0
  0
LINE
  5
318355AA
330
318324AF
100
AcDbEntity
  8
SAISEN
100
AcDbLine
 10
489.1411299999991
 20
166.5639686162079
 30
0.0
 11
489.1411299999991
 21
167.4639686162078
 31
0.0
  0
LINE
  5
318355AB
330
318324AF
100
AcDbEntity
  8
SAISEN
100
AcDbLine
 10
489.1411299999991
 20
169.1639686162079
 30
0.0
 11
489.1411299999991
 21
170.0639686162078
 31
0.0
  0
LINE
  5
318355AC
330
318324AF
100
AcDbEntity
  8
SAISEN
100
AcDbLine
 10
489.1411299999991
 20
170.0639686162078
 30
0.0
 11
487.791129999999
 21
168.3139686162079
 31
0.0
  0
LINE
  5
318355AD
330
318324AF
100
AcDbEntity
  8
SAISEN
100
AcDbLine
 10
487.791129999999
 20
168.3139686162079
 30
0.0
 11
489.1411299999991
 21
166.5639686162079
 31
0.0
  0
HATCH
  5
318355AE
330
318324AF
100
AcDbEntity
  8
SAISEN
100
AcDbHatch
 10
0.0
 20
0.0
 30
0.0
210
0.0
220
0.0
230
1.0
  2
SOLID
 70
     1
 71
     0
 91
        2
 92
        7
 72
     0
 73
     1
 93
        7
 10
492.291129999999
 20
168.3139686162079
 10
490.9411299999991
 20
170.0639686162078
 10
490.9411299999991
 20
169.1639686162079
 10
490.041129999999
 20
169.1639686162079
 10
490.041129999999
 20
167.4639686162078
 10
490.9411299999991
 20
167.4639686162078
 10
490.9411299999991
 20
166.5639686162078
 97
        0
 92
        7
 72
     0
 73
     1
 93
        7
 10
489.1411299999991
 20
166.5639686162079
 10
489.1411299999991
 20
167.4639686162078
 10
490.041129999999
 20
167.4639686162078
 10
490.041129999999
 20
169.1639686162079
 10
489.1411299999991
 20
169.1639686162079
 10
489.1411299999991
 20
170.0639686162078
 10
487.791129999999
 20
168.3139686162079
 97
        0
 75
     0
 76
     1
 47
0.0488238759365516
 98
        2
 10
491.2160249293341
 20
168.0876003220285
 10
489.0677737080697
 20
168.0387393499068
  0
LINE
  5
318355AF
330
318324AF
100
AcDbEntity
  8
SAISEN
100
AcDbLine
 10
490.9411299999991
 20
169.1639686162079
 30
0.0
 11
489.1411299999991
 21
169.1639686162079
 31
0.0
  0
LINE
  5
318355B0
330
318324AF
100
AcDbEntity
  8
SAISEN
100
AcDbLine
 10
489.1411299999991
 20
167.4639686162078
 30
0.0
 11
490.9411299999991
 21
167.4639686162078
 31
0.0
  0
LINE
  5
318355B1
330
318324AF
100
AcDbEntity
  8
JISSEN
100
AcDbLine
 10
501.69113
 20
181.4192643768661
 30
0.0
 11
501.69113
 21
187.4609740000006
 31
0.0
  0
LINE
  5
318355B2
330
318324AF
100
AcDbEntity
  8
JISSEN
100
AcDbLine
 10
500.29113
 20
180.6109740000005
 30
0.0
 11
500.0195575088447
 21
180.6109740000005
 31
0.0
  0
ARC
  5
318355B3
330
318324AF
100
AcDbEntity
  8
JISSEN
100
AcDbCircle
 10
499.8231815493535
 20
184.5169648070885
 30
0.0
 40
3.617316597931845
100
AcDbArc
 50
273.356950242627
 51
301.0904530010741
  0
LINE
  5
318355B4
330
318324AF
100
AcDbEntity
  8
JISSEN
100
AcDbLine
 10
500.29113
 20
180.6109740000005
 30
0.0
 11
501.69113
 21
181.4192643768661
 31
0.0
  0
LINE
  5
318355B5
330
318324AF
100
AcDbEntity
  8
JISSEN
100
AcDbLine
 10
499.9344448970747
 20
178.9855319521956
 30
0.0
 11
500.1931849853514
 21
183.9268327793178
 31
0.0
  0
TEXT
  5
318355B6
330
318324AF
100
AcDbEntity
  8
SAISEN
100
AcDbText
 10
484.6661299999994
 20
173.1996829019222
 30
0.0
 40
3.0
  1
OPEN
 50
270.0
 41
0.9
  7
35FONT
 72
     4
 11
486.1661299999995
 21
168.3139686162079
 31
0.0
100
AcDbText
  0
TEXT
  5
318355B7
330
318324AF
100
AcDbEntity
  8
SAISEN
100
AcDbText
 10
492.4161299999995
 20
173.3282543304936
 30
0.0
 40
3.0
  1
SHUT
 50
270.0
 41
0.9
  7
35FONT
 72
     4
 11
493.9161299999994
 21
168.3139686162079
 31
0.0
100
AcDbText
  0
LINE
  5
318355B8
330
318324AF
100
AcDbEntity
  8
JISSEN
100
AcDbLine
 10
499.1683873412661
 20
188.6109740000007
 30
0.0
 11
498.8679249192428
 21
188.6109740000007
 31
0.0
  0
ARC
  5
318355B9
330
318324AF
100
AcDbEntity
  8
JISSEN
100
AcDbCircle
 10
501.5411299999997
 20
189.0251875623732
 30
0.0
 40
1.0
100
AcDbArc
 50
180.0
 51
225.0
  0
LINE
  5
318355BA
330
318324AF
100
AcDbEntity
  8
JISSEN
100
AcDbLine
 10
499.8340232188133
 20
194.8180807811868
 30
0.0
 11
500.2482367811865
 21
194.4038672188136
 31
0.0
  0
LINE
  5
318355BB
330
318324AF
100
AcDbEntity
  8
JISSEN
100
AcDbLine
 10
499.2003665645276
 20
195.1109740000005
 30
0.0
 11
499.0411299999999
 21
195.1109740000005
 31
0.0
  0
LINE
  5
318355BC
330
318324AF
100
AcDbEntity
  8
JISSEN
100
AcDbLine
 10
499.9713484604796
 20
194.110974
 30
0.0
 11
499.0411299999999
 21
194.110974
 31
0.0
  0
ARC
  5
318355BD
330
318324AF
100
AcDbEntity
  8
JISSEN
100
AcDbCircle
 10
499.5411299999997
 20
193.6967604376274
 30
0.0
 40
1.0
100
AcDbArc
 50
0.0
 51
45.0
  0
LINE
  5
318355BE
330
318324AF
100
AcDbEntity
  8
JISSEN
100
AcDbLine
 10
500.5411299999999
 20
193.6967604376276
 30
0.0
 11
500.5411299999999
 21
189.0251875623732
 31
0.0
  0
LINE
  5
318355BF
330
318324AF
100
AcDbEntity
  8
JISSEN
  6
CONTINUOUS
100
AcDbLine
 10
499.5411299999999
 20
196.9967604376273
 30
0.0
 11
499.5411299999999
 21
195.5251875623734
 31
0.0
  0
ARC
  5
318355C0
330
318324AF
100
AcDbEntity
  8
JISSEN
  6
CONTINUOUS
100
AcDbCircle
 10
500.5411299999997
 20
196.9967604376273
 30
0.0
 40
1.0
100
AcDbArc
 50
135.0
 51
180.0
  0
LINE
  5
318355C1
330
318324AF
100
AcDbEntity
  8
JISSEN
100
AcDbLine
 10
499.2309361714502
 20
197.4109740000002
 30
0.0
 11
499.0411299999999
 21
197.4109740000002
 31
0.0
  0
LINE
  5
318355C2
330
318324AF
100
AcDbEntity
  8
JISSEN
100
AcDbLine
 10
500.2095878130302
 20
199.0109740000002
 30
0.0
 11
499.0411299999999
 21
199.0109740000002
 31
0.0
  0
LINE
  5
318355C3
330
318324AF
100
AcDbEntity
  8
JISSEN
  6
CONTINUOUS
100
AcDbLine
 10
500.8482367811865
 20
198.7180807811868
 30
0.0
 11
499.8340232188135
 21
197.7038672188138
 31
0.0
  0
ARC
  5
318355C4
330
318324AF
100
AcDbEntity
  8
JISSEN
100
AcDbCircle
 10
498.5411299999999
 20
201.1109740000003
 30
0.0
 40
0.5
100
AcDbArc
 50
0.0
 51
90.0
  0
LINE
  5
318355C5
330
318324AF
100
AcDbEntity
  8
JISSEN
100
AcDbLine
 10
498.0411299999999
 20
201.760974
 30
0.0
 11
495.6225216928224
 21
201.760974
 31
0.0
  0
ARC
  5
318355C6
330
318324AF
100
AcDbEntity
  8
JISSEN
100
AcDbCircle
 10
498.0411299999997
 20
202.7609740000003
 30
0.0
 40
1.0
100
AcDbArc
 50
270.0
 51
0.0
  0
ARC
  5
318355C7
330
318324AF
100
AcDbEntity
  8
JISSEN
100
AcDbCircle
 10
500.1411299999996
 20
199.4251875623735
 30
0.0
 40
1.0
100
AcDbArc
 50
315.0
 51
0.0
  0
LINE
  5
318355C8
330
318324AF
100
AcDbEntity
  8
JISSEN
100
AcDbLine
 10
499.0411299999999
 20
201.1109740000003
 30
0.0
 11
499.0411299999999
 21
190.6109740000003
 31
0.0
  0
ARC
  5
318355C9
330
318324AF
100
AcDbEntity
  8
JISSEN
100
AcDbCircle
 10
500.5411299999997
 20
195.5251875623734
 30
0.0
 40
1.0
100
AcDbArc
 50
180.0
 51
225.0
  0
ARC
  5
318355CA
330
318324AF
100
AcDbEntity
  8
JISSEN
100
AcDbCircle
 10
495.1121978118655
 20
202.1109740000003
 30
0.0
 40
0.5
100
AcDbArc
 50
160.5287793655059
 51
270.0
  0
ARC
  5
318355CB
330
318324AF
100
AcDbEntity
  8
JISSEN
100
AcDbCircle
 10
488.0411299999999
 20
205.1109740000003
 30
0.0
 40
5.0
100
AcDbArc
 50
239.9999999999998
 51
299.9999999999997
  0
LINE
  5
318355CC
330
318324AF
100
AcDbEntity
  8
JISSEN
100
AcDbLine
 10
498.5411299999999
 20
201.6109740000003
 30
0.0
 11
495.1121978118655
 21
201.6109740000003
 31
0.0
  0
ARC
  5
318355CD
330
318324AF
100
AcDbEntity
  8
JISSEN
100
AcDbCircle
 10
495.6225216928224
 20
199.7609740000001
 30
0.0
 40
2.0
100
AcDbArc
 50
90.0
 51
105.8471580991918
  0
ARC
  5
318355CE
330
318324AF
100
AcDbEntity
  8
JISSEN
100
AcDbCircle
 10
499.7911299999999
 20
209.70384864972
 30
0.0
 40
2.0
100
AcDbArc
 50
326.8770597922545
 51
0.0
  0
ARC
  5
318355CF
330
318324AF
100
AcDbEntity
  8
JISSEN
100
AcDbCircle
 10
503.1411299999996
 20
207.5180993502807
 30
0.0
 40
2.0
100
AcDbArc
 50
146.8770597922545
 51
180.0
  0
LINE
  5
318355D0
330
318324AF
100
AcDbEntity
  8
JISSEN
100
AcDbLine
 10
500.1411300000003
 20
208.6109740000007
 30
0.0
 11
495.8166207186812
 21
208.6109740000007
 31
0.0
  0
LINE
  5
318355D1
330
318324AF
100
AcDbEntity
  8
JISSEN
100
AcDbLine
 10
498.0411299999999
 20
207.4609740000006
 30
0.0
 11
495.6225216928224
 21
207.4609740000006
 31
0.0
  0
ARC
  5
318355D2
330
318324AF
100
AcDbEntity
  8
JISSEN
100
AcDbCircle
 10
498.0411299999997
 20
206.4609740000003
 30
0.0
 40
1.0
100
AcDbArc
 50
0.0
 51
90.0
  0
LINE
  5
318355D3
330
318324AF
100
AcDbEntity
  8
JISSEN
100
AcDbLine
 10
502.2911299999999
 20
218.1109740000005
 30
0.0
 11
502.2911299999999
 21
216.6109740000002
 31
0.0
  0
ARC
  5
318355D4
330
318324AF
100
AcDbEntity
  8
JISSEN
100
AcDbCircle
 10
500.2911299999997
 20
216.6109740000002
 30
0.0
 40
2.0
100
AcDbArc
 50
331.0449756281304
 51
0.0
  0
ARC
  5
318355D5
330
318324AF
100
AcDbEntity
  8
JISSEN
100
AcDbCircle
 10
503.7911299999997
 20
214.674482326896
 30
0.0
 40
2.0
100
AcDbArc
 50
151.0449756281304
 51
180.0
  0
LINE
  5
318355D6
330
318324AF
100
AcDbEntity
  8
JISSEN
100
AcDbLine
 10
501.7911299999999
 20
214.674482326896
 30
0.0
 11
501.7911299999999
 21
209.70384864972
 31
0.0
  0
ARC
  5
318355D7
330
318324AF
100
AcDbEntity
  8
JISSEN
100
AcDbCircle
 10
488.0411299999999
 20
204.1109740000003
 30
0.0
 40
5.0
100
AcDbArc
 50
60.00000000000028
 51
120.0000000000001
  0
ARC
  5
318355D8
330
318324AF
100
AcDbEntity
  8
JISSEN
100
AcDbCircle
 10
488.0411299999999
 20
204.6109740000003
 30
0.0
 40
1.979549371479691
100
AcDbArc
 50
14.6303980998706
 51
165.3696019001293
  0
LINE
  5
318355D9
330
318324AF
100
AcDbEntity
  8
JISSEN
100
AcDbLine
 10
490.5311300000001
 20
204.1109740000003
 30
0.0
 11
485.5511300000001
 21
204.1109740000003
 31
0.0
  0
LINE
  5
318355DA
330
318324AF
100
AcDbEntity
  8
JISSEN
100
AcDbLine
 10
490.5311300000001
 20
205.1109740000003
 30
0.0
 11
485.5511300000001
 21
205.1109740000003
 31
0.0
  0
LINE
  5
318355DB
330
318324AF
100
AcDbEntity
  8
JISSEN
100
AcDbLine
 10
485.0411299999999
 20
211.6820418118658
 30
0.0
 11
485.0411299999999
 21
215.1109740000002
 31
0.0
  0
LINE
  5
318355DC
330
318324AF
100
AcDbEntity
  8
JISSEN
100
AcDbLine
 10
485.6248381488527
 20
214.6109740000003
 30
0.0
 11
488.0411299999999
 21
214.6109740000003
 31
0.0
  0
ARC
  5
318355DD
330
318324AF
100
AcDbEntity
  8
JISSEN
100
AcDbCircle
 10
484.5411299999999
 20
215.1109740000002
 30
0.0
 40
0.5
100
AcDbArc
 50
359.9999999999934
 51
90.0
  0
ARC
  5
318355DE
330
318324AF
100
AcDbEntity
  8
JISSEN
100
AcDbCircle
 10
485.5411299999999
 20
211.6820418118658
 30
0.0
 40
0.5
100
AcDbArc
 50
180.0
 51
289.4712206344929
  0
LINE
  5
318355DF
330
318324AF
100
AcDbEntity
  8
JISSEN
100
AcDbLine
 10
501.2911299999997
 20
214.6109740000003
 30
0.0
 11
488.0411299999999
 21
214.6109740000003
 31
0.0
  0
ARC
  5
318355E0
330
318324AF
100
AcDbEntity
  8
JISSEN
100
AcDbCircle
 10
488.0411299999999
 20
204.6109740000003
 30
0.0
 40
8.0
100
AcDbArc
 50
27.68944132435283
 51
112.024312837042
  0
ARC
  5
318355E1
330
318324AF
100
AcDbEntity
  8
JISSEN
100
AcDbCircle
 10
495.6225216928224
 20
209.4609740000004
 30
0.0
 40
2.0
100
AcDbArc
 50
212.6080326881386
 51
270.0
  0
LINE
  5
318355E2
330
318324AF
100
AcDbEntity
  8
JISSEN
100
AcDbLine
 10
485.5411299999999
 20
208.4411010189225
 30
0.0
 11
485.5411299999999
 21
200.7808469810781
 31
0.0
  0
LINE
  5
318355E3
330
318324AF
100
AcDbEntity
  8
JISSEN
100
AcDbLine
 10
490.5411299999999
 20
208.4411010189225
 30
0.0
 11
490.5411299999999
 21
200.7808469810781
 31
0.0
  0
CIRCLE
  5
318355E4
330
318324AF
100
AcDbEntity
  8
JISSEN
100
AcDbCircle
 10
488.0411299999999
 20
204.6109740000003
 30
0.0
 40
3.0
  0
ARC
  5
318355E5
330
318324AF
100
AcDbEntity
  8
JISSEN
100
AcDbCircle
 10
488.0411299999999
 20
204.6109740000003
 30
0.0
 40
1.979549371479691
100
AcDbArc
 50
194.6303980998706
 51
345.3696019001294
  0
LINE
  5
318355E6
330
318324AF
100
AcDbEntity
  8
JISSEN
100
AcDbLine
 10
485.5511300000001
 20
202.9376838279138
 30
0.0
 11
485.5511300000001
 21
206.2842641720869
 31
0.0
  0
LINE
  5
318355E7
330
318324AF
100
AcDbEntity
  8
JISSEN
100
AcDbLine
 10
490.5311300000001
 20
202.9376838279145
 30
0.0
 11
490.5311300000001
 21
206.2842641720862
 31
0.0
  0
ARC
  5
318355E8
330
318324AF
100
AcDbEntity
  8
JISSEN
100
AcDbCircle
 10
488.0411299999999
 20
204.6109740000003
 30
0.0
 40
7.0
100
AcDbArc
 50
340.5287793655059
 51
109.4712206344865
  0
LINE
  5
318355E9
330
318324AF
100
AcDbEntity
  8
JISSEN
100
AcDbLine
 10
501.1411299999998
 20
207.5180993502807
 30
0.0
 11
501.1411299999998
 21
199.5251875623733
 31
0.0
  0
ARC
  5
318355EA
330
318324AF
100
AcDbEntity
  8
JISSEN
100
AcDbCircle
 10
488.0411299999997
 20
204.6109740000003
 30
0.0
 40
8.0
100
AcDbArc
 50
339.1078197067496
 51
20.89218029324418
  0
LINE
  5
318355EB
330
318324AF
100
AcDbEntity
  8
JISSEN
100
AcDbLine
 10
499.0411299999999
 20
206.4609740000003
 30
0.0
 11
499.0411299999999
 21
202.7609740000003
 31
0.0
  0
ARC
  5
318355EC
330
318324AF
100
AcDbEntity
  8
JISSEN
100
AcDbCircle
 10
486.0411300000122
 20
183.2048850867009
 30
0.0
 40
4.424038105730501
100
AcDbArc
 50
65.95239691946486
 51
114.0476030807272
  0
LINE
  5
318355ED
330
318324AF
100
AcDbEntity
  8
JISSEN
100
AcDbLine
 10
498.69113
 20
183.9268327793178
 30
0.0
 11
499.0411299999999
 21
190.6109740000003
 31
0.0
  0
ARC
  5
318355EE
330
318324AF
100
AcDbEntity
  8
JISSEN
100
AcDbCircle
 10
499.8231815493535
 20
185.8540606344947
 30
0.0
 40
2.464021505285912
100
AcDbArc
 50
40.70395287622669
 51
113.9169714817793
  0
LINE
  5
318355EF
330
318324AF
100
AcDbEntity
  8
JISSEN
100
AcDbLine
 10
500.8340232188134
 20
188.3180807811869
 30
0.0
 11
501.69113
 21
187.4609740000006
 31
0.0
  0
LINE
  5
318355F0
330
318324AF
100
AcDbEntity
  8
JISSEN
100
AcDbLine
 10
499.9359830584311
 20
179.0247031937461
 30
0.0
 11
498.7546952832795
 21
133.9131430742876
 31
0.0
  0
HATCH
  5
318355F1
330
318324AF
100
AcDbEntity
  8
SAISEN
100
AcDbHatch
 10
0.0
 20
0.0
 30
0.0
210
0.0
220
0.0
230
1.0
  2
SOLID
 70
     1
 71
     0
 91
        2
 92
        7
 72
     0
 73
     1
 93
        4
 10
487.541129999999
 20
156.0639686162079
 10
487.541129999999
 20
157.0639686162081
 10
486.5411299999988
 20
157.0639686162081
 10
486.5411299999988
 20
156.0639686162079
 97
        0
 92
        7
 72
     0
 73
     1
 93
        4
 10
487.541129999999
 20
140.5639686162078
 10
487.541129999999
 20
141.5639686162082
 10
486.5411299999988
 20
141.5639686162082
 10
486.5411299999988
 20
140.5639686162078
 97
        0
 75
     0
 76
     1
 47
0.0875597786246344
 98
        2
 10
487.2096886231514
 20
156.3327931265963
 10
487.034568809245
 20
140.8227458966058
  0
ARC
  5
318355F2
330
318324AF
100
AcDbEntity
  8
JISSEN
100
AcDbCircle
 10
501.2911299999997
 20
219.6109739999997
 30
0.0
 40
1.0
100
AcDbArc
 50
0.0
 51
90.0
  0
LINE
  5
318355F3
330
318324AF
100
AcDbEntity
  8
JISSEN
100
AcDbLine
 10
500.5034790480514
 20
227.8026836231345
 30
0.0
 11
500.7911299999997
 21
227.8026836231345
 31
0.0
  0
LINE
  5
318355F4
330
318324AF
100
AcDbEntity
  8
JISSEN
100
AcDbLine
 10
500.29113
 20
228.6109740000001
 30
0.0
 11
500.7911299999997
 21
228.3222988654052
 31
0.0
  0
LINE
  5
318355F5
330
318324AF
100
AcDbEntity
  8
JISSEN
100
AcDbLine
 10
500.7911299999997
 20
228.3222988654052
 30
0.0
 11
500.7911299999997
 21
220.6109739999999
 31
0.0
  0
LINE
  5
318355F6
330
318324AF
100
AcDbEntity
  8
JISSEN
100
AcDbLine
 10
500.5034790480514
 20
227.8026836231345
 30
0.0
 11
500.5034790480514
 21
220.6109739999999
 31
0.0
  0
LINE
  5
318355F7
330
318324AF
100
AcDbEntity
  8
JISSEN
100
AcDbLine
 10
493.6100038722052
 20
227.8026836231345
 30
0.0
 11
492.9155530427814
 21
227.8026836231345
 31
0.0
  0
ARC
  5
318355F8
330
318324AF
100
AcDbEntity
  8
JISSEN
100
AcDbCircle
 10
488.0411299999999
 20
205.1994205843573
 30
0.0
 40
23.12287828104744
100
AcDbArc
 50
77.83045665700291
 51
90.0
  0
LINE
  5
318355F9
330
318324AF
100
AcDbEntity
  8
JISSEN
100
AcDbLine
 10
493.6100038722052
 20
227.8026836231345
 30
0.0
 11
493.6100038722052
 21
220.6109739999999
 31
0.0
  0
LINE
  5
318355FA
330
318324AF
100
AcDbEntity
  8
JISSEN
100
AcDbLine
 10
492.9155530427814
 20
227.8026836231345
 30
0.0
 11
492.9155530427814
 21
220.6109739999999
 31
0.0
  0
LINE
  5
318355FB
330
318324AF
100
AcDbEntity
  8
JISSEN
100
AcDbLine
 10
501.2911299999997
 20
220.6109739999999
 30
0.0
 11
488.0411299999999
 21
220.6109739999999
 31
0.0
  0
LINE
  5
318355FC
330
318324AF
100
AcDbEntity
  8
JISSEN
100
AcDbLine
 10
500.29113
 20
228.6109740000001
 30
0.0
 11
488.0411299999999
 21
228.6109740000001
 31
0.0
  0
ARC
  5
318355FD
330
318324AF
100
AcDbEntity
  8
JISSEN
100
AcDbCircle
 10
497.0567414601281
 20
216.6309559143133
 30
0.0
 40
11.69134295109149
100
AcDbArc
 50
72.85379000110793
 51
107.1462099988853
  0
LINE
  5
318355FE
330
318324AF
100
AcDbEntity
  8
JISSEN
100
AcDbLine
 10
502.2911299999996
 20
218.1109739999999
 30
0.0
 11
502.2911299999996
 21
219.6109739999997
 31
0.0
  0
ARC
  5
318355FF
330
318324AF
100
AcDbEntity
  8
JISSEN
100
AcDbCircle
 10
483.161916237345
 20
200.67430823687
 30
0.0
 40
19.77465910227462
100
AcDbArc
 50
256.8362485578149
 51
260.9004730313752
  0
LINE
  5
31835600
330
318324AF
100
AcDbEntity
  8
JISSEN
100
AcDbLine
 10
478.6585365553174
 20
181.4192643768661
 30
0.0
 11
478.6585365553174
 21
187.4609740000006
 31
0.0
  0
ARC
  5
31835601
330
318324AF
100
AcDbEntity
  8
JISSEN
100
AcDbCircle
 10
476.2590784506459
 20
184.5169648070885
 30
0.0
 40
3.617316597931845
100
AcDbArc
 50
238.9095469989257
 51
301.0904530010741
  0
LINE
  5
31835602
330
318324AF
100
AcDbEntity
  8
JISSEN
100
AcDbLine
 10
475.7911299999999
 20
180.6109740000005
 30
0.0
 11
474.3911299999998
 21
181.4192643768661
 31
0.0
  0
LINE
  5
31835603
330
318324AF
100
AcDbEntity
  8
JISSEN
100
AcDbLine
 10
478.1270269012919
 20
181.4192643768661
 30
0.0
 11
478.1270269012919
 21
187.4609740000006
 31
0.0
  0
LINE
  5
31835604
330
318324AF
100
AcDbEntity
  8
JISSEN
100
AcDbLine
 10
474.3911299999998
 20
181.4192643768661
 30
0.0
 11
474.3911299999998
 21
187.4609740000006
 31
0.0
  0
LINE
  5
31835605
330
318324AF
100
AcDbEntity
  8
JISSEN
100
AcDbLine
 10
478.1270269012919
 20
187.4609740000006
 30
0.0
 11
478.6585365553174
 21
187.4609740000006
 31
0.0
  0
LINE
  5
31835606
330
318324AF
100
AcDbEntity
  8
JISSEN
100
AcDbLine
 10
475.7911299999999
 20
180.6109740000005
 30
0.0
 11
480.0627024911554
 21
180.6109740000005
 31
0.0
  0
LINE
  5
31835607
330
318324AF
100
AcDbEntity
  8
JISSEN
100
AcDbLine
 10
478.1270269012919
 20
181.4192643768661
 30
0.0
 11
478.6585365553174
 21
181.4192643768661
 31
0.0
  0
LINE
  5
31835608
330
318324AF
100
AcDbEntity
  8
JISSEN
100
AcDbLine
 10
480.1478151029254
 20
178.9855319521956
 30
0.0
 11
479.8890750146487
 21
183.926832779318
 31
0.0
  0
ARC
  5
31835609
330
318324AF
100
AcDbEntity
  8
JISSEN
100
AcDbCircle
 10
474.5411299999999
 20
189.0251875623732
 30
0.0
 40
1.0
100
AcDbArc
 50
315.0
 51
0.0
  0
LINE
  5
3183560A
330
318324AF
100
AcDbEntity
  8
JISSEN
100
AcDbLine
 10
476.2482367811863
 20
194.8180807811868
 30
0.0
 11
475.8340232188133
 21
194.4038672188136
 31
0.0
  0
ARC
  5
3183560B
330
318324AF
100
AcDbEntity
  8
JISSEN
100
AcDbCircle
 10
476.5411299999999
 20
193.6967604376274
 30
0.0
 40
1.0
100
AcDbArc
 50
135.0
 51
180.0
  0
LINE
  5
3183560C
330
318324AF
100
AcDbEntity
  8
JISSEN
100
AcDbLine
 10
475.5411299999999
 20
193.6967604376274
 30
0.0
 11
475.5411299999999
 21
189.0251875623732
 31
0.0
  0
LINE
  5
3183560D
330
318324AF
100
AcDbEntity
  8
JISSEN
100
AcDbLine
 10
476.8818934354722
 20
188.6109740000007
 30
0.0
 11
481.1458554953011
 21
188.6109740000005
 31
0.0
  0
LINE
  5
3183560E
330
318324AF
100
AcDbEntity
  8
JISSEN
100
AcDbLine
 10
476.8818934354722
 20
195.1109740000005
 30
0.0
 11
481.0411299999999
 21
195.1109740000005
 31
0.0
  0
LINE
  5
3183560F
330
318324AF
100
AcDbEntity
  8
JISSEN
100
AcDbLine
 10
476.1109115395202
 20
194.110974
 30
0.0
 11
481.0411299999999
 21
194.110974
 31
0.0
  0
LINE
  5
31835610
330
318324AF
100
AcDbEntity
  8
JISSEN
  6
CONTINUOUS
100
AcDbLine
 10
476.5411299999999
 20
196.9967604376273
 30
0.0
 11
476.5411299999999
 21
195.5251875623734
 31
0.0
  0
ARC
  5
31835611
330
318324AF
100
AcDbEntity
  8
JISSEN
  6
CONTINUOUS
100
AcDbCircle
 10
475.5411299999999
 20
196.9967604376273
 30
0.0
 40
1.0
100
AcDbArc
 50
0.0
 51
45.0
  0
ARC
  5
31835612
330
318324AF
100
AcDbEntity
  8
JISSEN
100
AcDbCircle
 10
475.94113
 20
199.4251875623735
 30
0.0
 40
1.0
100
AcDbArc
 50
180.0
 51
225.0
  0
LINE
  5
31835613
330
318324AF
100
AcDbEntity
  8
JISSEN
  6
CONTINUOUS
100
AcDbLine
 10
475.2340232188133
 20
198.7180807811868
 30
0.0
 11
476.2482367811863
 21
197.7038672188138
 31
0.0
  0
LINE
  5
31835614
330
318324AF
100
AcDbEntity
  8
JISSEN
100
AcDbLine
 10
476.8513238285494
 20
197.4109740000002
 30
0.0
 11
481.0411299999999
 21
197.4109740000002
 31
0.0
  0
LINE
  5
31835615
330
318324AF
100
AcDbEntity
  8
JISSEN
100
AcDbLine
 10
475.8726721869694
 20
199.0109740000002
 30
0.0
 11
481.0411299999999
 21
199.0109740000002
 31
0.0
  0
ARC
  5
31835616
330
318324AF
100
AcDbEntity
  8
JISSEN
100
AcDbCircle
 10
475.5411299999999
 20
195.5251875623734
 30
0.0
 40
1.0
100
AcDbArc
 50
315.0
 51
0.0
  0
ARC
  5
31835617
330
318324AF
100
AcDbEntity
  8
JISSEN
100
AcDbCircle
 10
476.2911299999997
 20
209.70384864972
 30
0.0
 40
2.0
100
AcDbArc
 50
180.0
 51
213.1229402077455
  0
ARC
  5
31835618
330
318324AF
100
AcDbEntity
  8
JISSEN
100
AcDbCircle
 10
472.94113
 20
207.5180993502807
 30
0.0
 40
2.0
100
AcDbArc
 50
0.0
 51
33.12294020774548
  0
LINE
  5
31835619
330
318324AF
100
AcDbEntity
  8
JISSEN
100
AcDbLine
 10
475.9411299999995
 20
208.6109740000007
 30
0.0
 11
480.4653471041087
 21
208.6109740000007
 31
0.0
  0
ARC
  5
3183561A
330
318324AF
100
AcDbEntity
  8
JISSEN
100
AcDbCircle
 10
483.0411299999999
 20
213.6109740000003
 30
0.0
 40
2.0
100
AcDbArc
 50
90.0
 51
180.0
  0
LINE
  5
3183561B
330
318324AF
100
AcDbEntity
  8
JISSEN
100
AcDbLine
 10
473.7911299999997
 20
218.1109740000005
 30
0.0
 11
473.7911299999997
 21
216.6109740000002
 31
0.0
  0
ARC
  5
3183561C
330
318324AF
100
AcDbEntity
  8
JISSEN
100
AcDbCircle
 10
475.7911299999999
 20
216.6109740000002
 30
0.0
 40
2.0
100
AcDbArc
 50
180.0
 51
208.9550243718695
  0
ARC
  5
3183561D
330
318324AF
100
AcDbEntity
  8
JISSEN
100
AcDbCircle
 10
472.2911299999999
 20
214.674482326896
 30
0.0
 40
2.0
100
AcDbArc
 50
0.0
 51
28.95502437186951
  0
LINE
  5
3183561E
330
318324AF
100
AcDbEntity
  8
JISSEN
100
AcDbLine
 10
475.7911299999999
 20
214.6109740000003
 30
0.0
 11
480.4242981802607
 21
214.6109740000003
 31
0.0
  0
LINE
  5
3183561F
330
318324AF
100
AcDbEntity
  8
JISSEN
100
AcDbLine
 10
474.2911299999999
 20
214.674482326896
 30
0.0
 11
474.2911299999999
 21
209.70384864972
 31
0.0
  0
LINE
  5
31835620
330
318324AF
100
AcDbEntity
  8
JISSEN
100
AcDbLine
 10
481.0411299999999
 20
213.6109740000003
 30
0.0
 11
481.0411299999999
 21
190.6109740000003
 31
0.0
  0
LINE
  5
31835621
330
318324AF
100
AcDbEntity
  8
JISSEN
100
AcDbLine
 10
474.9411299999998
 20
207.5180993502807
 30
0.0
 11
474.9411299999998
 21
199.4251875623735
 31
0.0
  0
LINE
  5
31835622
330
318324AF
100
AcDbEntity
  8
JISSEN
100
AcDbLine
 10
481.3911299999999
 20
183.926832779318
 30
0.0
 11
481.0411299999999
 21
190.6109740000003
 31
0.0
  0
ARC
  5
31835623
330
318324AF
100
AcDbEntity
  8
JISSEN
100
AcDbCircle
 10
483.161916237345
 20
176.0587794571678
 30
0.0
 40
12.2593013240189
100
AcDbArc
 50
99.35229517202561
 51
111.5519023052422
  0
ARC
  5
31835624
330
318324AF
100
AcDbEntity
  8
JISSEN
100
AcDbCircle
 10
476.2590784506459
 20
185.8540606344947
 30
0.0
 40
2.464021505285912
100
AcDbArc
 50
40.70395287622669
 51
139.2960471237733
  0
LINE
  5
31835625
330
318324AF
100
AcDbEntity
  8
JISSEN
100
AcDbLine
 10
475.2482367811864
 20
188.3180807811869
 30
0.0
 11
474.3911299999998
 21
187.4609740000006
 31
0.0
  0
LINE
  5
31835626
330
318324AF
100
AcDbEntity
  8
JISSEN
100
AcDbLine
 10
480.1462769415687
 20
179.0247031937461
 30
0.0
 11
481.327385282243
 21
133.9199954005147
 31
0.0
  0
ARC
  5
31835627
330
318324AF
100
AcDbEntity
  8
JISSEN
100
AcDbCircle
 10
474.7911299999999
 20
219.6109739999997
 30
0.0
 40
1.0
100
AcDbArc
 50
90.0
 51
180.0
  0
LINE
  5
31835628
330
318324AF
100
AcDbEntity
  8
JISSEN
100
AcDbLine
 10
482.4722561277943
 20
227.8026836231345
 30
0.0
 11
483.1667069572184
 21
227.8026836231345
 31
0.0
  0
LINE
  5
31835629
330
318324AF
100
AcDbEntity
  8
JISSEN
100
AcDbLine
 10
475.7911299999999
 20
228.6109740000001
 30
0.0
 11
475.2911300000001
 21
228.3222988654052
 31
0.0
  0
LINE
  5
3183562A
330
318324AF
100
AcDbEntity
  8
JISSEN
100
AcDbLine
 10
475.5787809519484
 20
227.8026836231345
 30
0.0
 11
475.2911300000001
 21
227.8026836231345
 31
0.0
  0
ARC
  5
3183562B
330
318324AF
100
AcDbEntity
  8
JISSEN
100
AcDbCircle
 10
479.0255185398715
 20
216.6309559143133
 30
0.0
 40
11.69134295109149
100
AcDbArc
 50
72.85379000111465
 51
107.146209998892
  0
LINE
  5
3183562C
330
318324AF
100
AcDbEntity
  8
JISSEN
100
AcDbLine
 10
475.5787809519484
 20
227.8026836231345
 30
0.0
 11
475.5787809519484
 21
220.6109739999999
 31
0.0
  0
LINE
  5
3183562D
330
318324AF
100
AcDbEntity
  8
JISSEN
100
AcDbLine
 10
475.2911300000001
 20
228.3222988654052
 30
0.0
 11
475.2911300000001
 21
220.6109739999999
 31
0.0
  0
LINE
  5
3183562E
330
318324AF
100
AcDbEntity
  8
JISSEN
100
AcDbLine
 10
483.1667069572184
 20
227.8026836231345
 30
0.0
 11
483.1667069572184
 21
220.6109739999999
 31
0.0
  0
LINE
  5
3183562F
330
318324AF
100
AcDbEntity
  8
JISSEN
100
AcDbLine
 10
482.4722561277943
 20
227.8026836231345
 30
0.0
 11
482.4722561277943
 21
220.6109739999999
 31
0.0
  0
LINE
  5
31835630
330
318324AF
100
AcDbEntity
  8
JISSEN
100
AcDbLine
 10
473.7911299999999
 20
218.1109739999999
 30
0.0
 11
473.7911299999999
 21
219.6109739999997
 31
0.0
  0
LWPOLYLINE
  5
31835631
330
318324AF
100
AcDbEntity
  8
JISSEN
100
AcDbPolyline
 90
        6
 70
     1
 43
0.0
 10
488.0411299999999
 20
210.3844766918964
 10
483.0411299999999
 20
207.4977253459484
 10
483.0411299999999
 20
201.7242226540521
 10
488.0411299999999
 20
198.837471308104
 10
493.0411299999999
 20
201.7242226540521
 10
493.0411300000002
 20
207.4977253459483
  0
CIRCLE
  5
31835632
330
318324AF
100
AcDbEntity
  8
JISSEN
100
AcDbCircle
 10
488.0411299999999
 20
204.6109740000003
 30
0.0
 40
5.0
  0
ARC
  5
31835633
330
318324AF
100
AcDbEntity
  8
JISSEN
100
AcDbCircle
 10
486.8255005696085
 20
134.0639686162078
 30
0.0
 40
5.5
100
AcDbArc
 50
181.4999999999961
 51
270.0
  0
LINE
  5
31835634
330
318324AF
100
AcDbEntity
  8
JISSEN
100
AcDbLine
 10
480.143707943681
 20
179.063968616208
 30
0.0
 11
499.938552056319
 21
179.0639686162079
 31
0.0
  0
LINE
  5
31835635
330
318324AF
100
AcDbEntity
  8
JISSEN
100
AcDbLine
 10
500.1931849853514
 20
183.9268327793178
 30
0.0
 11
479.8890750146487
 21
183.926832779318
 31
0.0
  0
LINE
  5
31835636
330
318324AF
100
AcDbEntity
  8
JISSEN
100
AcDbLine
 10
499.0411299999999
 20
190.6109740000003
 30
0.0
 11
481.0411299999999
 21
190.6109740000003
 31
0.0
  0
LINE
  5
31835637
330
318324AF
100
AcDbEntity
  8
JISSEN
100
AcDbLine
 10
482.0411299999999
 20
179.063968616208
 30
0.0
 11
498.0411299999999
 21
179.0639686162079
 31
0.0
  0
LINE
  5
31835638
330
318324AF
100
AcDbEntity
  8
JISSEN
100
AcDbLine
 10
502.2911299999996
 20
218.1109739999999
 30
0.0
 11
473.7911299999999
 21
218.1109739999999
 31
0.0
  0
CIRCLE
  5
31835639
330
318324AF
100
AcDbEntity
  8
JISSEN
100
AcDbCircle
 10
488.0411299999999
 20
204.6109740000003
 30
0.0
 40
6.120450628520401
  0
LINE
  5
3183563A
330
318324AF
100
AcDbEntity
  8
JISSEN
100
AcDbLine
 10
484.5411299999999
 20
215.6109740000003
 30
0.0
 11
483.0411299999999
 21
215.6109740000003
 31
0.0
  0
LINE
  5
3183563B
330
318324AF
100
AcDbEntity
  8
JISSEN
100
AcDbLine
 10
475.7911299999999
 20
228.6109740000001
 30
0.0
 11
488.0411299999999
 21
228.6109740000001
 31
0.0
  0
LINE
  5
3183563C
330
318324AF
100
AcDbEntity
  8
JISSEN
100
AcDbLine
 10
474.7911299999999
 20
220.6109739999999
 30
0.0
 11
488.0411299999999
 21
220.6109739999999
 31
0.0
  0
ARC
  5
3183563D
330
318324AF
100
AcDbEntity
  8
JISSEN
100
AcDbCircle
 10
488.0411299999999
 20
205.1994205843573
 30
0.0
 40
23.12287828104744
100
AcDbArc
 50
90.0
 51
102.1695433429971
  0
ELLIPSE
  5
3183563E
330
318324AF
100
AcDbEntity
  8
JISSEN
100
AcDbEllipse
 10
486.0411299999997
 20
188.1109740000003
 30
0.0
 11
2.5
 21
-0.0000000000000005
 31
0.0
210
0.0
220
0.0
230
1.0
 40
0.4999999999999773
 41
0.0
 42
6.283185307179583
  0
LINE
  5
3183564C
330
318324AF
100
AcDbEntity
  8
JISSEN
100
AcDbLine
 10
463.5411299999999
 20
247.6109739999999
 30
0.0
 11
470.9700621881344
 21
247.6109740000001
 31
0.0
  0
LINE
  5
3183564D
330
318324AF
100
AcDbEntity
  8
JISSEN
100
AcDbLine
 10
466.0411299999999
 20
231.6109739999999
 30
0.0
 11
466.0411299999999
 21
247.110974
 31
0.0
  0
LINE
  5
3183564E
330
318324AF
100
AcDbEntity
  8
JISSEN
100
AcDbLine
 10
463.0411299999999
 20
113.6109739999999
 30
0.0
 11
463.0411299999999
 21
247.1109739999999
 31
0.0
  0
LINE
  5
3183564F
330
318324AF
100
AcDbEntity
  8
JISSEN
100
AcDbLine
 10
508.0411299999999
 20
105.6109739999999
 30
0.0
 11
508.0411299999999
 21
241.610974
 31
0.0
  0
LINE
  5
31835650
330
318324AF
100
AcDbEntity
  8
JISSEN
 48
10.0
100
AcDbLine
 10
466.0411299999999
 20
113.6109739999999
 30
0.0
 11
466.0411299999999
 21
182.6109739999999
 31
0.0
  0
LINE
  5
31835651
330
318324AF
100
AcDbEntity
  8
JISSEN
100
AcDbLine
 10
476.94113
 20
228.6109740000001
 30
0.0
 11
476.94113
 21
241.6109739999999
 31
0.0
  0
LINE
  5
31835652
330
318324AF
100
AcDbEntity
  8
JISSEN
100
AcDbLine
 10
473.94113
 20
231.6109739999999
 30
0.0
 11
473.9411299999998
 21
241.6109739999999
 31
0.0
  0
LINE
  5
31835653
330
318324AF
100
AcDbEntity
  8
JISSEN
 48
10.0
100
AcDbLine
 10
473.94113
 20
231.6109739999999
 30
0.0
 11
466.0411299999999
 21
231.6109739999999
 31
0.0
  0
ARC
  5
31835654
330
318324AF
100
AcDbEntity
  8
JISSEN
100
AcDbCircle
 10
469.04113
 20
113.6109739999999
 30
0.0
 40
3.0
100
AcDbArc
 50
180.0
 51
270.0
  0
ARC
  5
31835655
330
318324AF
100
AcDbEntity
  8
JISSEN
100
AcDbCircle
 10
469.04113
 20
113.6109739999999
 30
0.0
 40
6.0
100
AcDbArc
 50
180.0
 51
270.0
  0
LINE
  5
31835656
330
318324AF
100
AcDbEntity
  8
JISSEN
100
AcDbLine
 10
473.94113
 20
107.6109739999999
 30
0.0
 11
473.94113
 21
105.6109739999999
 31
0.0
  0
LINE
  5
31835657
330
318324AF
100
AcDbEntity
  8
JISSEN
100
AcDbLine
 10
476.94113
 20
110.6109739999999
 30
0.0
 11
476.94113
 21
105.6109739999999
 31
0.0
  0
LINE
  5
31835658
330
318324AF
100
AcDbEntity
  8
JISSEN
100
AcDbLine
 10
473.94113
 20
107.6109739999999
 30
0.0
 11
469.04113
 21
107.6109739999999
 31
0.0
  0
LINE
  5
31835659
330
318324AF
100
AcDbEntity
  8
JISSEN
100
AcDbLine
 10
466.0411299999999
 20
185.6109739999999
 30
0.0
 11
474.3911299999998
 21
185.6109739999999
 31
0.0
  0
LINE
  5
3183565A
330
318324AF
100
AcDbEntity
  8
JISSEN
 48
10.0
100
AcDbLine
 10
466.0411299999999
 20
185.6109739999999
 30
0.0
 11
466.0411299999999
 21
228.6109740000001
 31
0.0
  0
LINE
  5
3183565B
330
318324AF
100
AcDbEntity
  8
JISSEN
100
AcDbLine
 10
473.9411299999998
 20
241.6109739999999
 30
0.0
 11
477.19113
 21
241.6109739999999
 31
0.0
  0
LINE
  5
3183565C
330
318324AF
100
AcDbEntity
  8
JISSEN
 48
10.0
100
AcDbLine
 10
466.0411299999999
 20
228.6109740000001
 30
0.0
 11
508.0411299999999
 21
228.6109740000001
 31
0.0
  0
LINE
  5
3183565D
330
318324AF
100
AcDbEntity
  8
JISSEN
100
AcDbLine
 10
474.3911299999998
 20
182.6109739999999
 30
0.0
 11
466.0411299999999
 21
182.6109739999999
 31
0.0
  0
LINE
  5
3183565E
330
318324AF
100
AcDbEntity
  8
HATCH
100
AcDbLine
 10
463.0411299999999
 20
243.2415390062423
 30
0.0
 11
466.0411299999999
 21
246.2415390062422
 31
0.0
  0
LINE
  5
3183565F
330
318324AF
100
AcDbEntity
  8
HATCH
100
AcDbLine
 10
463.0411299999999
 20
238.7514109457077
 30
0.0
 11
466.0411299999999
 21
241.7514109457077
 31
0.0
  0
LINE
  5
31835660
330
318324AF
100
AcDbEntity
  8
HATCH
100
AcDbLine
 10
463.0411299999999
 20
234.2612828851731
 30
0.0
 11
466.0411299999999
 21
237.2612828851731
 31
0.0
  0
LINE
  5
31835661
330
318324AF
100
AcDbEntity
  8
HATCH
100
AcDbLine
 10
463.0411299999999
 20
229.7711548246385
 30
0.0
 11
466.0411299999999
 21
232.7711548246386
 31
0.0
  0
LINE
  5
31835662
330
318324AF
100
AcDbEntity
  8
HATCH
100
AcDbLine
 10
463.0411299999999
 20
225.2810267641039
 30
0.0
 11
466.0411299999999
 21
228.281026764104
 31
0.0
  0
LINE
  5
31835663
330
318324AF
100
AcDbEntity
  8
HATCH
100
AcDbLine
 10
466.3710772358959
 20
228.6109740000001
 30
0.0
 11
469.371077235896
 21
231.6109739999999
 31
0.0
  0
LINE
  5
31835664
330
318324AF
100
AcDbEntity
  8
HATCH
100
AcDbLine
 10
463.0411299999999
 20
220.7908987035694
 30
0.0
 11
466.0411299999999
 21
223.7908987035694
 31
0.0
  0
LINE
  5
31835665
330
318324AF
100
AcDbEntity
  8
HATCH
100
AcDbLine
 10
473.94113
 20
231.6908987035695
 30
0.0
 11
476.8612052964305
 21
234.6109740000001
 31
0.0
  0
LINE
  5
31835666
330
318324AF
100
AcDbEntity
  8
HATCH
100
AcDbLine
 10
470.8612052964307
 20
228.6109740000001
 30
0.0
 11
473.8612052964305
 21
231.6109739999999
 31
0.0
  0
LINE
  5
31835667
330
318324AF
100
AcDbEntity
  8
HATCH
100
AcDbLine
 10
463.0411299999999
 20
216.3007706430348
 30
0.0
 11
466.0411299999999
 21
219.3007706430349
 31
0.0
  0
LINE
  5
31835668
330
318324AF
100
AcDbEntity
  8
HATCH
100
AcDbLine
 10
475.3513333569652
 20
228.6109740000001
 30
0.0
 11
476.94113
 21
230.2007706430348
 31
0.0
  0
LINE
  5
31835669
330
318324AF
100
AcDbEntity
  8
HATCH
100
AcDbLine
 10
463.0411299999999
 20
211.8106425825002
 30
0.0
 11
466.0411299999999
 21
214.8106425825002
 31
0.0
  0
LINE
  5
3183566A
330
318324AF
100
AcDbEntity
  8
HATCH
100
AcDbLine
 10
463.0411299999999
 20
207.3205145219656
 30
0.0
 11
466.0411299999999
 21
210.3205145219656
 31
0.0
  0
LINE
  5
3183566B
330
318324AF
100
AcDbEntity
  8
HATCH
100
AcDbLine
 10
463.0411299999999
 20
202.8303864614311
 30
0.0
 11
466.0411299999999
 21
205.8303864614311
 31
0.0
  0
LINE
  5
3183566C
330
318324AF
100
AcDbEntity
  8
HATCH
100
AcDbLine
 10
463.0411299999999
 20
198.3402584008964
 30
0.0
 11
466.0411299999999
 21
201.3402584008965
 31
0.0
  0
LINE
  5
3183566D
330
318324AF
100
AcDbEntity
  8
HATCH
100
AcDbLine
 10
463.0411299999999
 20
193.8501303403619
 30
0.0
 11
466.0411299999999
 21
196.8501303403619
 31
0.0
  0
LINE
  5
3183566E
330
318324AF
100
AcDbEntity
  8
HATCH
100
AcDbLine
 10
463.0411299999999
 20
189.3600022798274
 30
0.0
 11
466.0411299999999
 21
192.3600022798274
 31
0.0
  0
LINE
  5
3183566F
330
318324AF
100
AcDbEntity
  8
HATCH
100
AcDbLine
 10
463.0411299999999
 20
184.8698742192927
 30
0.0
 11
466.0411299999999
 21
187.8698742192928
 31
0.0
  0
LINE
  5
31835670
330
318324AF
100
AcDbEntity
  8
HATCH
100
AcDbLine
 10
463.0411299999999
 20
180.3797461587582
 30
0.0
 11
468.2723578412417
 21
185.6109739999999
 31
0.0
  0
LINE
  5
31835671
330
318324AF
100
AcDbEntity
  8
HATCH
100
AcDbLine
 10
463.04113
 20
175.8896180982237
 30
0.0
 11
466.0411299999999
 21
178.8896180982237
 31
0.0
  0
LINE
  5
31835672
330
318324AF
100
AcDbEntity
  8
HATCH
100
AcDbLine
 10
469.7624859017763
 20
182.6109739999999
 30
0.0
 11
472.7624859017764
 21
185.6109739999999
 31
0.0
  0
LINE
  5
31835673
330
318324AF
100
AcDbEntity
  8
HATCH
100
AcDbLine
 10
463.04113
 20
171.3994900376891
 30
0.0
 11
466.0411299999999
 21
174.3994900376891
 31
0.0
  0
LINE
  5
31835674
330
318324AF
100
AcDbEntity
  8
HATCH
100
AcDbLine
 10
463.0411299999999
 20
166.9093619771545
 30
0.0
 11
466.0411299999999
 21
169.9093619771545
 31
0.0
  0
LINE
  5
31835675
330
318324AF
100
AcDbEntity
  8
HATCH
100
AcDbLine
 10
463.04113
 20
162.41923391662
 30
0.0
 11
466.0411299999999
 21
165.4192339166199
 31
0.0
  0
LINE
  5
31835676
330
318324AF
100
AcDbEntity
  8
HATCH
100
AcDbLine
 10
463.04113
 20
157.9291058560853
 30
0.0
 11
466.0411299999999
 21
160.9291058560853
 31
0.0
  0
LINE
  5
31835677
330
318324AF
100
AcDbEntity
  8
HATCH
100
AcDbLine
 10
463.0411299999999
 20
153.4389777955508
 30
0.0
 11
466.0411299999999
 21
156.4389777955508
 31
0.0
  0
LINE
  5
31835678
330
318324AF
100
AcDbEntity
  8
HATCH
100
AcDbLine
 10
463.04113
 20
148.9488497350162
 30
0.0
 11
466.0411299999999
 21
151.9488497350162
 31
0.0
  0
LINE
  5
31835679
330
318324AF
100
AcDbEntity
  8
HATCH
100
AcDbLine
 10
463.04113
 20
144.4587216744817
 30
0.0
 11
466.0411299999999
 21
147.4587216744816
 31
0.0
  0
LINE
  5
3183567A
330
318324AF
100
AcDbEntity
  8
HATCH
100
AcDbLine
 10
463.04113
 20
139.9685936139471
 30
0.0
 11
466.0411299999999
 21
142.968593613947
 31
0.0
  0
LINE
  5
3183567B
330
318324AF
100
AcDbEntity
  8
HATCH
100
AcDbLine
 10
463.0411300000002
 20
135.4784655534125
 30
0.0
 11
466.0411299999999
 21
138.4784655534125
 31
0.0
  0
LINE
  5
3183567C
330
318324AF
100
AcDbEntity
  8
HATCH
100
AcDbLine
 10
463.0411299999999
 20
130.9883374928779
 30
0.0
 11
466.0411299999999
 21
133.9883374928778
 31
0.0
  0
LINE
  5
3183567D
330
318324AF
100
AcDbEntity
  8
HATCH
100
AcDbLine
 10
463.04113
 20
126.4982094323434
 30
0.0
 11
466.0411299999999
 21
129.4982094323433
 31
0.0
  0
LINE
  5
3183567E
330
318324AF
100
AcDbEntity
  8
HATCH
100
AcDbLine
 10
463.04113
 20
122.0080813718088
 30
0.0
 11
466.0411299999999
 21
125.0080813718087
 31
0.0
  0
LINE
  5
3183567F
330
318324AF
100
AcDbEntity
  8
HATCH
100
AcDbLine
 10
463.0411299999999
 20
117.5179533112742
 30
0.0
 11
466.0411299999999
 21
120.5179533112741
 31
0.0
  0
LINE
  5
31835680
330
318324AF
100
AcDbEntity
  8
HATCH
100
AcDbLine
 10
463.0670603903844
 20
113.053755641124
 30
0.0
 11
466.0411299999999
 21
116.0278252507396
 31
0.0
  0
LINE
  5
31835681
330
318324AF
100
AcDbEntity
  8
HATCH
100
AcDbLine
 10
464.3605067302815
 20
109.8570739204866
 30
0.0
 11
466.5076727471598
 21
112.0042399373649
 31
0.0
  0
LINE
  5
31835682
330
318324AF
100
AcDbEntity
  8
HATCH
100
AcDbLine
 10
466.9724381134714
 20
107.9788772431419
 30
0.0
 11
469.6045348703295
 21
110.6109739999999
 31
0.0
  0
LINE
  5
31835683
330
318324AF
100
AcDbEntity
  8
HATCH
100
AcDbLine
 10
471.094662930864
 20
107.610974
 30
0.0
 11
474.094662930864
 21
110.6109739999999
 31
0.0
  0
LINE
  5
31835684
330
318324AF
100
AcDbEntity
  8
HATCH
100
AcDbLine
 10
473.94113
 20
105.9673130086013
 30
0.0
 11
476.9411299999998
 21
108.9673130086012
 31
0.0
  0
LINE
  5
31835685
330
318324AF
100
AcDbEntity
  8
JISSEN
100
AcDbLine
 10
474.5055960940673
 20
246.1465079059327
 30
0.0
 11
479.04113
 21
241.610974
 31
0.0
  0
ARC
  5
31835686
330
318324AF
100
AcDbEntity
  8
JISSEN
100
AcDbCircle
 10
470.9700621881344
 20
242.610974
 30
0.0
 40
5.0
100
AcDbArc
 50
45.0
 51
90.0
  0
ARC
  5
31835687
330
318324AF
100
AcDbEntity
  8
JISSEN
100
AcDbCircle
 10
463.5411299999999
 20
247.1109739999999
 30
0.0
 40
0.5
100
AcDbArc
 50
90.0
 51
180.0
  0
ARC
  5
31835688
330
318324AF
100
AcDbEntity
  8
JISSEN
100
AcDbCircle
 10
465.5411299999999
 20
247.110974
 30
0.0
 40
0.5
100
AcDbArc
 50
0.0
 51
90.0
  0
LINE
  5
31835689
330
318324AF
100
AcDbEntity
  8
HATCH
100
AcDbLine
 10
473.94113
 20
236.181026764104
 30
0.0
 11
476.8612052964305
 21
239.1011020605346
 31
0.0
  0
LINE
  5
3183568A
330
318324AF
100
AcDbEntity
  8
HATCH
100
AcDbLine
 10
473.94113
 20
240.6711548246386
 30
0.0
 11
474.8809491753612
 21
241.610974
 31
0.0
  0
LINE
  5
3183568C
330
318324AF
100
AcDbEntity
  8
TENSEN
 48
2.0
100
AcDbLine
 10
498.89113
 20
235.998173025532
 30
0.0
 11
498.7239300043117
 21
235.7085741379745
 31
0.0
  0
LINE
  5
3183568D
330
318324AF
100
AcDbEntity
  8
NITEN
100
AcDbLine
 10
477.19113
 20
235.998173025532
 30
0.0
 11
477.3583299956881
 21
235.7085741379745
 31
0.0
  0
LINE
  5
3183568E
330
318324AF
100
AcDbEntity
  8
TENSEN
 48
2.0
100
AcDbLine
 10
498.5021299999999
 20
228.6109740000001
 30
0.0
 11
498.7239300043117
 21
235.7085741379745
 31
0.0
  0
LINE
  5
3183568F
330
318324AF
100
AcDbEntity
  8
TENSEN
 48
2.0
100
AcDbLine
 10
478.72563
 20
228.6109740000001
 30
0.0
 11
478.56938
 21
233.610974
 31
0.0
  0
LINE
  5
31835690
330
318324AF
100
AcDbEntity
  8
TENSEN
 48
2.0
100
AcDbLine
 10
477.4238799999999
 20
233.610974
 30
0.0
 11
498.65838
 21
233.610974
 31
0.0
  0
LINE
  5
31835691
330
318324AF
100
AcDbEntity
  8
TENSEN
 48
2.0
100
AcDbLine
 10
477.3583299956881
 20
235.7085741379745
 30
0.0
 11
477.5801299999999
 21
228.6109740000001
 31
0.0
  0
LINE
  5
31835692
330
318324AF
100
AcDbEntity
  8
TENSEN
 48
2.0
100
AcDbLine
 10
478.56938
 20
233.610974
 30
0.0
 11
477.3583299956881
 21
235.7085741379745
 31
0.0
  0
LINE
  5
31835693
330
318324AF
100
AcDbEntity
  8
TENSEN
 48
2.0
100
AcDbLine
 10
497.5128799999999
 20
233.610974
 30
0.0
 11
497.3566299999998
 21
228.6109740000001
 31
0.0
  0
LINE
  5
31835694
330
318324AF
100
AcDbEntity
  8
TENSEN
 48
2.0
100
AcDbLine
 10
498.7239300043117
 20
235.7085741379745
 30
0.0
 11
497.5128799999999
 21
233.610974
 31
0.0
  0
LINE
  5
3183569A
330
318324AF
100
AcDbEntity
  8
JISSEN
100
AcDbLine
 10
473.94113
 20
105.610974
 30
0.0
 11
508.0411299999999
 21
105.6109739999996
 31
0.0
  0
LINE
  5
3183569B
330
318324AF
100
AcDbEntity
  8
JISSEN
100
AcDbLine
 10
469.04113
 20
110.6109740000001
 30
0.0
 11
508.0411299999999
 21
110.6109739999998
 31
0.0
  0
LINE
  5
3183569C
330
318324AF
100
AcDbEntity
  8
JISSEN
100
AcDbLine
 10
477.1911299999999
 20
241.610974
 30
0.0
 11
508.0411299999999
 21
241.610974
 31
0.0
  0
ENDSEC
  0
SECTION
  2
OBJECTS
  0
DICTIONARY
  5
318324A3
330
0
100
AcDbDictionary
  3
ACAD_GROUP
350
318324A4
  3
ACAD_LAYOUT
350
31834A54
  3
ACAD_MLINESTYLE
350
318324A5
  3
ACAD_PLOTSETTINGS
350
31834A55
  3
ACAD_PLOTSTYLENAME
350
31834A52
  3
ACDBHEADERROUNDTRIPXREC
350
318356A6
  3
ACDBVARIABLEDICTIONARY
350
318352FA
  0
DICTIONARY
  5
31834B04
330
31832499
100
AcDbDictionary
280
     1
  3
ACAD_LAYERSTATES
360
31834B05
  0
DICTIONARY
  5
31834A86
330
318324AF
100
AcDbDictionary
280
     1
  3
ACAD_LAYOUTSELFREF
360
318356C8
  0
DICTIONARY
  5
31834A84
330
318324AC
100
AcDbDictionary
280
     1
  3
ACAD_LAYOUTSELFREF
360
318356C7
  0
DICTIONARY
  5
318324A4
102
{ACAD_REACTORS
330
318324A3
102
}
330
0
100
AcDbDictionary
  0
DICTIONARY
  5
31834A54
102
{ACAD_REACTORS
330
318324A3
102
}
330
318324A3
100
AcDbDictionary
  0
DICTIONARY
  5
318324A5
102
{ACAD_REACTORS
330
318324A3
102
}
330
0
100
AcDbDictionary
  3
STANDARD
350
318324B2
  0
DICTIONARY
  5
31834A55
102
{ACAD_REACTORS
330
318324A3
102
}
330
318324A3
100
AcDbDictionary
  0
ACDBDICTIONARYWDFLT
  5
31834A52
102
{ACAD_REACTORS
330
318324A3
102
}
330
318324A3
100
AcDbDictionary
281
     1
  3
Normal
350
31834A53
100
AcDbDictionaryWithDefault
340
31834A53
  0
DICTIONARY
  5
318356A6
102
{ACAD_REACTORS
330
318324A3
102
}
330
318324A3
100
AcDbDictionary
  3
CEPSNTYPE
350
318356B0
  3
DIMSTYLEDATA
350
318356B4
  3
FINGERPRINTGUID
350
318356B1
  3
HYPERLINKBASE
350
318356A9
  3
INSUNITS
350
318356AF
  3
LAYOUTDICT
350
318356AB
  3
LWETCUNION
350
318356AE
  3
PLOTSETDICT
350
318356AC
  3
PLOTSTYLNAMDICT
350
318356AD
  3
PSVPSCALE
350
318356B3
  3
PUCSBASE
350
318356B7
  3
PUCSORGBACK
350
318356BD
  3
PUCSORGBOTTOM
350
318356B9
  3
PUCSORGFRONT
350
318356BC
  3
PUCSORGLEFT
350
318356BA
  3
PUCSORGRIGHT
350
318356BB
  3
PUCSORGTOP
350
318356B8
  3
PUCSORTHOREF
350
318356B5
  3
PUCSORTHOVIEW
350
318356B6
  3
STYLESHEET
350
318356AA
  3
TSTACKALIGN
350
318356A7
  3
TSTACKSIZE
350
318356A8
  3
UCSBASE
350
318356C0
  3
UCSORGBACK
350
318356C6
  3
UCSORGBOTTOM
350
318356C2
  3
UCSORGFRONT
350
318356C5
  3
UCSORGLEFT
350
318356C3
  3
UCSORGRIGHT
350
318356C4
  3
UCSORGTOP
350
318356C1
  3
UCSORTHOREF
350
318356BE
  3
UCSORTHOVIEW
350
318356BF
  3
VERSIONGUID
350
318356B2
  0
DICTIONARY
  5
318352FA
102
{ACAD_REACTORS
330
318324A3
102
}
330
318324A3
100
AcDbDictionary
  3
DIMASSOC
350
318353CE
  3
SORTENTS
350
318352FB
  0
DICTIONARY
  5
31834B05
102
{ACAD_REACTORS
330
31834B04
102
}
330
31834B04
100
AcDbDictionary
  0
XRECORD
  5
318356C8
102
{ACAD_REACTORS
330
31834A86
102
}
330
31834A86
100
AcDbXrecord
340
318324AF
  0
XRECORD
  5
318356C7
102
{ACAD_REACTORS
330
31834A84
102
}
330
31834A84
100
AcDbXrecord
340
318324AC
  0
MLINESTYLE
  5
318324B2
102
{ACAD_REACTORS
330
318324A5
102
}
330
0
100
AcDbMlineStyle
  2
STANDARD
 70
     0
  3

 62
     0
 51
90.0
 52
90.0
 71
     2
 49
0.5
 62
   256
  6
BYLAYER
 49
-0.5
 62
   256
  6
BYLAYER
  0
ACDBPLACEHOLDER
  5
31834A53
102
{ACAD_REACTORS
330
31834A52
102
}
330
31834A52
100
AcDbPlaceHolder
280
     0
  0
XRECORD
  5
318356B0
102
{ACAD_REACTORS
330
318356A6
102
}
330
318356A6
100
AcDbXrecord
 90
        0
  0
XRECORD
  5
318356B4
102
{ACAD_REACTORS
330
318356A6
102
}
330
318356A6
100
AcDbXrecord
1000
DSTYLE
1002
{
1070
   341
340
318324B9
1070
   342
340
318324B9
1070
   343
340
318324B9
1070
   344
340
318324B9
1002
}
  0
XRECORD
  5
318356B1
102
{ACAD_REACTORS
330
318356A6
102
}
330
318356A6
100
AcDbXrecord
  1
{6FFBDF63-ACDB-4DB8-AF84-250F4F0351BB}
  0
XRECORD
  5
318356A9
102
{ACAD_REACTORS
330
318356A6
102
}
330
318356A6
100
AcDbXrecord
  1

  0
XRECORD
  5
318356AF
102
{ACAD_REACTORS
330
318356A6
102
}
330
318356A6
100
AcDbXrecord
 90
        0
  0
XRECORD
  5
318356AB
102
{ACAD_REACTORS
330
318356A6
102
}
330
318356A6
100
AcDbXrecord
340
31834A54
  0
XRECORD
  5
318356AE
102
{ACAD_REACTORS
330
318356A6
102
}
330
318356A6
100
AcDbXrecord
 90
    14877
  0
XRECORD
  5
318356AC
102
{ACAD_REACTORS
330
318356A6
102
}
330
318356A6
100
AcDbXrecord
340
31834A55
  0
XRECORD
  5
318356AD
102
{ACAD_REACTORS
330
318356A6
102
}
330
318356A6
100
AcDbXrecord
340
31834A52
  0
XRECORD
  5
318356B3
102
{ACAD_REACTORS
330
318356A6
102
}
330
318356A6
100
AcDbXrecord
 40
0.0
  0
XRECORD
  5
318356B7
102
{ACAD_REACTORS
330
318356A6
102
}
330
318356A6
100
AcDbXrecord
340
0
  0
XRECORD
  5
318356BD
102
{ACAD_REACTORS
330
318356A6
102
}
330
318356A6
100
AcDbXrecord
 10
0.0
 20
0.0
 30
0.0
  0
XRECORD
  5
318356B9
102
{ACAD_REACTORS
330
318356A6
102
}
330
318356A6
100
AcDbXrecord
 10
0.0
 20
0.0
 30
0.0
  0
XRECORD
  5
318356BC
102
{ACAD_REACTORS
330
318356A6
102
}
330
318356A6
100
AcDbXrecord
 10
0.0
 20
0.0
 30
0.0
  0
XRECORD
  5
318356BA
102
{ACAD_REACTORS
330
318356A6
102
}
330
318356A6
100
AcDbXrecord
 10
0.0
 20
0.0
 30
0.0
  0
XRECORD
  5
318356BB
102
{ACAD_REACTORS
330
318356A6
102
}
330
318356A6
100
AcDbXrecord
 10
0.0
 20
0.0
 30
0.0
  0
XRECORD
  5
318356B8
102
{ACAD_REACTORS
330
318356A6
102
}
330
318356A6
100
AcDbXrecord
 10
0.0
 20
0.0
 30
0.0
  0
XRECORD
  5
318356B5
102
{ACAD_REACTORS
330
318356A6
102
}
330
318356A6
100
AcDbXrecord
340
0
  0
XRECORD
  5
318356B6
102
{ACAD_REACTORS
330
318356A6
102
}
330
318356A6
100
AcDbXrecord
 70
     0
  0
XRECORD
  5
318356AA
102
{ACAD_REACTORS
330
318356A6
102
}
330
318356A6
100
AcDbXrecord
  1

  0
XRECORD
  5
318356A7
102
{ACAD_REACTORS
330
318356A6
102
}
330
318356A6
100
AcDbXrecord
 90
        1
  0
XRECORD
  5
318356A8
102
{ACAD_REACTORS
330
318356A6
102
}
330
318356A6
100
AcDbXrecord
 90
       70
  0
XRECORD
  5
318356C0
102
{ACAD_REACTORS
330
318356A6
102
}
330
318356A6
100
AcDbXrecord
340
0
  0
XRECORD
  5
318356C6
102
{ACAD_REACTORS
330
318356A6
102
}
330
318356A6
100
AcDbXrecord
 10
0.0
 20
0.0
 30
0.0
  0
XRECORD
  5
318356C2
102
{ACAD_REACTORS
330
318356A6
102
}
330
318356A6
100
AcDbXrecord
 10
0.0
 20
0.0
 30
0.0
  0
XRECORD
  5
318356C5
102
{ACAD_REACTORS
330
318356A6
102
}
330
318356A6
100
AcDbXrecord
 10
0.0
 20
0.0
 30
0.0
  0
XRECORD
  5
318356C3
102
{ACAD_REACTORS
330
318356A6
102
}
330
318356A6
100
AcDbXrecord
 10
0.0
 20
0.0
 30
0.0
  0
XRECORD
  5
318356C4
102
{ACAD_REACTORS
330
318356A6
102
}
330
318356A6
100
AcDbXrecord
 10
0.0
 20
0.0
 30
0.0
  0
XRECORD
  5
318356C1
102
{ACAD_REACTORS
330
318356A6
102
}
330
318356A6
100
AcDbXrecord
 10
0.0
 20
0.0
 30
0.0
  0
XRECORD
  5
318356BE
102
{ACAD_REACTORS
330
318356A6
102
}
330
318356A6
100
AcDbXrecord
340
0
  0
XRECORD
  5
318356BF
102
{ACAD_REACTORS
330
318356A6
102
}
330
318356A6
100
AcDbXrecord
 70
     0
  0
XRECORD
  5
318356B2
102
{ACAD_REACTORS
330
318356A6
102
}
330
318356A6
100
AcDbXrecord
  1
{F75B3CF7-8A7E-46CA-A1ED-F0F1D5F27882}
  0
DICTIONARYVAR
  5
318353CE
102
{ACAD_REACTORS
330
318352FA
102
}
330
318352FA
100
DictionaryVariables
280
     0
  1
0
  0
DICTIONARYVAR
  5
318352FB
102
{ACAD_REACTORS
330
318352FA
102
}
330
318352FA
100
DictionaryVariables
280
     0
  1
96
  0
ENDSEC
  0
EOF
