  0
SECTION
  2
HEADER
  9
$ACADVER
  1
AC1014
  9
$ACADMAINTVER
 70
     9
  9
$DWGCODEPAGE
  3
ANSI_932
  9
$INSBASE
 10
0.0
 20
0.0
 30
0.0
  9
$EXTMIN
 10
0.0
 20
0.0
 30
0.0
  9
$EXTMAX
 10
780.0
 20
546.0
 30
0.0
  9
$LIMMIN
 10
0.0
 20
0.0
  9
$LIMMAX
 10
780.0
 20
546.0
  9
$ORTHOMODE
 70
     1
  9
$REGENMODE
 70
     1
  9
$FILLMODE
 70
     1
  9
$QTEXTMODE
 70
     0
  9
$MIRRTEXT
 70
     0
  9
$DRAGMODE
 70
     2
  9
$LTSCALE
 40
5.0
  9
$OSMODE
 70
   167
  9
$ATTMODE
 70
     1
  9
$TEXTSIZE
 40
3.0
  9
$TRACEWID
 40
0.05
  9
$TEXTSTYLE
  7
K
  9
$CLAYER
  8
SCALE
  9
$CELTYPE
  6
BYLAYER
  9
$CECOLOR
 62
   256
  9
$CELTSCALE
 40
1.0
  9
$DELOBJ
 70
     1
  9
$DISPSILH
 70
     0
  9
$DIMSCALE
 40
2.0
  9
$DIMASZ
 40
1.5
  9
$DIMEXO
 40
0.75
  9
$DIMDLI
 40
6.0
  9
$DIMRND
 40
0.0
  9
$DIMDLE
 40
0.0
  9
$DIMEXE
 40
1.0
  9
$DIMTP
 40
495.0
  9
$DIMTM
 40
0.0
  9
$DIMTXT
 40
3.0
  9
$DIMCEN
 40
0.0
  9
$DIMTSZ
 40
0.0
  9
$DIMTOL
 70
     0
  9
$DIMLIM
 70
     0
  9
$DIMTIH
 70
     0
  9
$DIMTOH
 70
     0
  9
$DIMSE1
 70
     0
  9
$DIMSE2
 70
     0
  9
$DIMTAD
 70
     3
  9
$DIMZIN
 70
     8
  9
$DIMBLK
  1

  9
$DIMASO
 70
     0
  9
$DIMSHO
 70
     0
  9
$DIMPOST
  1

  9
$DIMAPOST
  1

  9
$DIMALT
 70
     0
  9
$DIMALTD
 70
     2
  9
$DIMALTF
 40
25.4
  9
$DIMLFAC
 40
1.0
  9
$DIMTOFL
 70
     1
  9
$DIMTVP
 40
0.0
  9
$DIMTIX
 70
     1
  9
$DIMSOXD
 70
     0
  9
$DIMSAH
 70
     1
  9
$DIMBLK1
  1
ARROWANG
  9
$DIMBLK2
  1
ARROWANG
  9
$DIMSTYLE
  2
IMAO
  9
$DIMCLRD
 70
   256
  9
$DIMCLRE
 70
   256
  9
$DIMCLRT
 70
   256
  9
$DIMTFAC
 40
1.0
  9
$DIMGAP
 40
1.0
  9
$DIMJUST
 70
     0
  9
$DIMSD1
 70
     0
  9
$DIMSD2
 70
     0
  9
$DIMTOLJ
 70
     1
  9
$DIMTZIN
 70
     0
  9
$DIMALTZ
 70
     0
  9
$DIMALTTZ
 70
     0
  9
$DIMFIT
 70
     3
  9
$DIMUPT
 70
     0
  9
$DIMUNIT
 70
     2
  9
$DIMDEC
 70
     2
  9
$DIMTDEC
 70
     2
  9
$DIMALTU
 70
     2
  9
$DIMALTTD
 70
     2
  9
$DIMTXSTY
  7
K
  9
$DIMAUNIT
 70
     0
  9
$LUNITS
 70
     2
  9
$LUPREC
 70
     2
  9
$SKETCHINC
 40
0.1
  9
$FILLETRAD
 40
3.0
  9
$AUNITS
 70
     0
  9
$AUPREC
 70
     2
  9
$MENU
  1
STDR12J
  9
$ELEVATION
 40
0.0
  9
$PELEVATION
 40
0.0
  9
$THICKNESS
 40
0.0
  9
$LIMCHECK
 70
     0
  9
$BLIPMODE
 70
     0
  9
$CHAMFERA
 40
0.0
  9
$CHAMFERB
 40
0.0
  9
$CHAMFERC
 40
0.0
  9
$CHAMFERD
 40
0.0
  9
$SKPOLY
 70
     0
  9
$TDCREATE
 40
2450694.736564815
  9
$TDUPDATE
 40
2454146.712173681
  9
$TDINDWG
 40
0.2759474421
  9
$TDUSRTIMER
 40
0.2759474421
  9
$USRTIMER
 70
     1
  9
$ANGBASE
 50
0.0
  9
$ANGDIR
 70
     0
  9
$PDMODE
 70
     0
  9
$PDSIZE
 40
0.0
  9
$PLINEWID
 40
0.0
  9
$COORDS
 70
     2
  9
$SPLFRAME
 70
     0
  9
$SPLINETYPE
 70
     6
  9
$SPLINESEGS
 70
     8
  9
$ATTDIA
 70
     0
  9
$ATTREQ
 70
     1
  9
$HANDLING
 70
 22529
  9
$HANDSEED
  5
5EF135D7
  9
$SURFTAB1
 70
     6
  9
$SURFTAB2
 70
     6
  9
$SURFTYPE
 70
     6
  9
$SURFU
 70
     6
  9
$SURFV
 70
     6
  9
$UCSNAME
  2

  9
$UCSORG
 10
0.0
 20
0.0
 30
0.0
  9
$UCSXDIR
 10
1.0
 20
0.0
 30
0.0
  9
$UCSYDIR
 10
0.0
 20
1.0
 30
0.0
  9
$PUCSNAME
  2

  9
$PUCSORG
 10
0.0
 20
0.0
 30
0.0
  9
$PUCSXDIR
 10
1.0
 20
0.0
 30
0.0
  9
$PUCSYDIR
 10
0.0
 20
1.0
 30
0.0
  9
$USERI1
 70
     3
  9
$USERI2
 70
     1
  9
$USERI3
 70
     1
  9
$USERI4
 70
     1
  9
$USERI5
 70
     1
  9
$USERR1
 40
1.0
  9
$USERR2
 40
3.0
  9
$USERR3
 40
3.0
  9
$USERR4
 40
1.5
  9
$USERR5
 40
10.0
  9
$WORLDVIEW
 70
     1
  9
$SHADEDGE
 70
     3
  9
$SHADEDIF
 70
    70
  9
$TILEMODE
 70
     1
  9
$MAXACTVP
 70
    16
  9
$PINSBASE
 10
0.0
 20
0.0
 30
0.0
  9
$PLIMCHECK
 70
     0
  9
$PEXTMIN
 10
1.000000000000000E+20
 20
1.000000000000000E+20
 30
1.000000000000000E+20
  9
$PEXTMAX
 10
-1.000000000000000E+20
 20
-1.000000000000000E+20
 30
-1.000000000000000E+20
  9
$PLIMMIN
 10
0.0
 20
0.0
  9
$PLIMMAX
 10
12.0
 20
9.0
  9
$UNITMODE
 70
     0
  9
$VISRETAIN
 70
     0
  9
$PLINEGEN
 70
     0
  9
$PSLTSCALE
 70
     0
  9
$TREEDEPTH
 70
     0
  9
$PICKSTYLE
 70
     1
  9
$CMLSTYLE
  2
STANDARD
  9
$CMLJUST
 70
     0
  9
$CMLSCALE
 40
1.0
  9
$PROXYGRAPHICS
 70
     1
  9
$MEASUREMENT
 70
     0
  0
ENDSEC
  0
SECTION
  2
CLASSES
  0
CLASS
  1
LWPOLYLINE
  2
AcDbPolyline
  3
AutoCAD 2000
 90
        0
280
     0
281
     1
  0
CLASS
  1
HATCH
  2
AcDbHatch
  3
AutoCAD 2000
 90
        0
280
     0
281
     1
  0
CLASS
  1
DICTIONARYVAR
  2
AcDbDictionaryVar
  3
AutoCAD 2000
 90
        0
280
     0
281
     0
  0
CLASS
  1
ACDBDICTIONARYWDFLT
  2
AcDbDictionaryWithDefault
  3
AutoCAD 2000
 90
        0
280
     0
281
     0
  0
CLASS
  1
ACDBPLACEHOLDER
  2
AcDbPlaceHolder
  3
AutoCAD 2000
 90
        0
280
     0
281
     0
  0
CLASS
  1
LAYOUT
  2
AcDbLayout
  3
AutoCAD 2000
 90
        0
280
     0
281
     0
  0
CLASS
  1
LONG_TRANSACTION
  2
AcDbLongTransaction
  3
AutoCAD 2000
 90
        0
280
     0
281
     0
  0
CLASS
  1
LWPOLYLINE
  2
AcDbPolyline
  3
AutoCAD 2000
 90
        0
280
     0
281
     1
  0
CLASS
  1
HATCH
  2
AcDbHatch
  3
AutoCAD 2000
 90
        0
280
     0
281
     1
  0
CLASS
  1
XRECORD
  2
AcDbXrecord
  3
AutoCAD 2000
 90
        0
280
     0
281
     0
  0
CLASS
  1
LONG_TRANSACTION
  2
AcDbLongTransaction
  3
AutoCAD 2000
 90
        0
280
     0
281
     0
  0
CLASS
  1
LWPOLYLINE
  2
AcDbPolyline
  3
AutoCAD 2000
 90
        0
280
     0
281
     1
  0
CLASS
  1
HATCH
  2
AcDbHatch
  3
AutoCAD 2000
 90
        0
280
     0
281
     1
  0
CLASS
  1
XRECORD
  2
AcDbXrecord
  3
AutoCAD 2000
 90
        0
280
     0
281
     0
  0
CLASS
  1
LONG_TRANSACTION
  2
AcDbLongTransaction
  3
AutoCAD 2000
 90
        0
280
     0
281
     0
  0
CLASS
  1
LWPOLYLINE
  2
AcDbPolyline
  3
AutoCAD 2000
 90
        0
280
     0
281
     1
  0
CLASS
  1
HATCH
  2
AcDbHatch
  3
AutoCAD 2000
 90
        0
280
     0
281
     1
  0
CLASS
  1
XRECORD
  2
AcDbXrecord
  3
AutoCAD 2000
 90
        0
280
     0
281
     0
  0
CLASS
  1
LONG_TRANSACTION
  2
AcDbLongTransaction
  3
AutoCAD 2000
 90
        0
280
     0
281
     0
  0
CLASS
  1
LWPOLYLINE
  2
AcDbPolyline
  3
AutoCAD 2000
 90
        0
280
     0
281
     1
  0
CLASS
  1
HATCH
  2
AcDbHatch
  3
AutoCAD 2000
 90
        0
280
     0
281
     1
  0
CLASS
  1
XRECORD
  2
AcDbXrecord
  3
AutoCAD 2000
 90
        0
280
     0
281
     0
  0
CLASS
  1
LONG_TRANSACTION
  2
AcDbLongTransaction
  3
AutoCAD 2000
 90
        0
280
     0
281
     0
  0
CLASS
  1
LWPOLYLINE
  2
AcDbPolyline
  3
AutoCAD 2000
 90
        0
280
     0
281
     1
  0
CLASS
  1
HATCH
  2
AcDbHatch
  3
AutoCAD 2000
 90
        0
280
     0
281
     1
  0
CLASS
  1
XRECORD
  2
AcDbXrecord
  3
AutoCAD 2000
 90
        0
280
     0
281
     0
  0
CLASS
  1
LONG_TRANSACTION
  2
AcDbLongTransaction
  3
AutoCAD 2000
 90
        0
280
     0
281
     0
  0
CLASS
  1
LWPOLYLINE
  2
AcDbPolyline
  3
AutoCAD 2000
 90
        0
280
     0
281
     1
  0
CLASS
  1
HATCH
  2
AcDbHatch
  3
AutoCAD 2000
 90
        0
280
     0
281
     1
  0
CLASS
  1
XRECORD
  2
AcDbXrecord
  3
AutoCAD 2000
 90
        0
280
     0
281
     0
  0
CLASS
  1
LONG_TRANSACTION
  2
AcDbLongTransaction
  3
AutoCAD 2000
 90
        0
280
     0
281
     0
  0
CLASS
  1
LWPOLYLINE
  2
AcDbPolyline
  3
AutoCAD 2000
 90
        0
280
     0
281
     1
  0
CLASS
  1
HATCH
  2
AcDbHatch
  3
AutoCAD 2000
 90
        0
280
     0
281
     1
  0
CLASS
  1
XRECORD
  2
AcDbXrecord
  3
AutoCAD 2000
 90
        0
280
     0
281
     0
  0
CLASS
  1
LONG_TRANSACTION
  2
AcDbLongTransaction
  3
AutoCAD 2000
 90
        0
280
     0
281
     0
  0
CLASS
  1
LWPOLYLINE
  2
AcDbPolyline
  3
AutoCAD 2000
 90
        0
280
     0
281
     1
  0
CLASS
  1
HATCH
  2
AcDbHatch
  3
AutoCAD 2000
 90
        0
280
     0
281
     1
  0
CLASS
  1
XRECORD
  2
AcDbXrecord
  3
AutoCAD 2000
 90
        0
280
     0
281
     0
  0
CLASS
  1
LONG_TRANSACTION
  2
AcDbLongTransaction
  3
AutoCAD 2000
 90
        0
280
     0
281
     0
  0
CLASS
  1
LWPOLYLINE
  2
AcDbPolyline
  3
AutoCAD 2000
 90
        0
280
     0
281
     1
  0
CLASS
  1
HATCH
  2
AcDbHatch
  3
AutoCAD 2000
 90
        0
280
     0
281
     1
  0
CLASS
  1
XRECORD
  2
AcDbXrecord
  3
AutoCAD 2000
 90
        0
280
     0
281
     0
  0
ENDSEC
  0
SECTION
  2
TABLES
  0
TABLE
  2
VPORT
  5
5EF092B1
330
0
100
AcDbSymbolTable
 70
    10
  0
VPORT
  5
5EF092D4
330
5EF092B1
100
AcDbSymbolTableRecord
100
AcDbViewportTableRecord
  2
2
 70
     0
 10
0.5
 20
0.0
 11
1.0
 21
1.0
 12
0.9240312421264802
 22
1.052650975462766
 13
0.0
 23
0.0
 14
1.0
 24
1.0
 15
10.0
 25
10.0
 16
0.0
 26
0.0
 36
1.0
 17
0.0
 27
0.0
 37
0.0
 40
2.105301950925533
 41
0.8778135048231511
 42
50.0
 43
0.0
 44
0.0
 50
0.0
 51
0.0
 71
     0
 72
   500
 73
     1
 74
     1
 75
     0
 76
     0
 77
     0
 78
     0
  0
VPORT
  5
5EF092D5
330
5EF092B1
100
AcDbSymbolTableRecord
100
AcDbViewportTableRecord
  2
2
 70
     0
 10
0.0
 20
0.0
 11
0.5
 21
1.0
 12
0.9240312421264802
 22
1.052650975462766
 13
0.0
 23
0.0
 14
1.0
 24
1.0
 15
10.0
 25
10.0
 16
0.0
 26
0.0
 36
1.0
 17
0.0
 27
0.0
 37
0.0
 40
2.105301950925533
 41
0.8778135048231511
 42
50.0
 43
0.0
 44
0.0
 50
0.0
 51
0.0
 71
     0
 72
   500
 73
     1
 74
     1
 75
     0
 76
     0
 77
     0
 78
     0
  0
VPORT
  5
5EF092D6
330
5EF092B1
100
AcDbSymbolTableRecord
100
AcDbViewportTableRecord
  2
3
 70
     0
 10
0.0
 20
0.5
 11
1.0
 21
1.0
 12
2.832169994473273
 22
1.052650975462766
 13
0.0
 23
0.0
 14
1.0
 24
1.0
 15
10.0
 25
10.0
 16
0.0
 26
0.0
 36
1.0
 17
0.0
 27
0.0
 37
0.0
 40
2.105301950925533
 41
3.571428571428571
 42
50.0
 43
0.0
 44
0.0
 50
0.0
 51
0.0
 71
     0
 72
   500
 73
     1
 74
     1
 75
     0
 76
     0
 77
     0
 78
     0
  0
VPORT
  5
5EF092D7
330
5EF092B1
100
AcDbSymbolTableRecord
100
AcDbViewportTableRecord
  2
3
 70
     0
 10
0.0
 20
0.0
 11
1.0
 21
0.5
 12
2.856741679241311
 22
1.052650975462766
 13
0.0
 23
0.0
 14
1.0
 24
1.0
 15
10.0
 25
10.0
 16
0.0
 26
0.0
 36
1.0
 17
0.0
 27
0.0
 37
0.0
 40
2.105301950925533
 41
3.594771241830065
 42
50.0
 43
0.0
 44
0.0
 50
0.0
 51
0.0
 71
     0
 72
   500
 73
     1
 74
     1
 75
     0
 76
     0
 77
     0
 78
     0
  0
VPORT
  5
5EF092D8
330
5EF092B1
100
AcDbSymbolTableRecord
100
AcDbViewportTableRecord
  2
4
 70
     0
 10
0.5
 20
0.0
 11
1.0
 21
0.5
 12
2.886857516709719
 22
1.052650975462766
 13
0.0
 23
0.0
 14
1.0
 24
1.0
 15
10.0
 25
10.0
 16
0.0
 26
0.0
 36
1.0
 17
0.0
 27
0.0
 37
0.0
 40
4.27520703030907
 41
1.784313725490195
 42
50.0
 43
0.0
 44
0.0
 50
0.0
 51
0.0
 71
     0
 72
   500
 73
     1
 74
     1
 75
     0
 76
     0
 77
     0
 78
     0
  0
VPORT
  5
5EF092D9
330
5EF092B1
100
AcDbSymbolTableRecord
100
AcDbViewportTableRecord
  2
4
 70
     0
 10
0.5
 20
0.5
 11
1.0
 21
1.0
 12
2.862090274555523
 22
1.052650975462766
 13
0.0
 23
0.0
 14
1.0
 24
1.0
 15
10.0
 25
10.0
 16
0.0
 26
0.0
 36
1.0
 17
0.0
 27
0.0
 37
0.0
 40
4.27520703030907
 41
1.772727272727272
 42
50.0
 43
0.0
 44
0.0
 50
0.0
 51
0.0
 71
     0
 72
   500
 73
     1
 74
     1
 75
     0
 76
     0
 77
     0
 78
     0
  0
VPORT
  5
5EF092DA
330
5EF092B1
100
AcDbSymbolTableRecord
100
AcDbViewportTableRecord
  2
4
 70
     0
 10
0.0
 20
0.5
 11
0.5
 21
1.0
 12
2.862090274555523
 22
1.052650975462766
 13
0.0
 23
0.0
 14
1.0
 24
1.0
 15
10.0
 25
10.0
 16
0.0
 26
0.0
 36
1.0
 17
0.0
 27
0.0
 37
0.0
 40
4.27520703030907
 41
1.772727272727272
 42
50.0
 43
0.0
 44
0.0
 50
0.0
 51
0.0
 71
     0
 72
   500
 73
     1
 74
     1
 75
     0
 76
     0
 77
     0
 78
     0
  0
VPORT
  5
5EF092DB
330
5EF092B1
100
AcDbSymbolTableRecord
100
AcDbViewportTableRecord
  2
4
 70
     0
 10
0.0
 20
0.0
 11
0.5
 21
0.5
 12
2.886857516709719
 22
1.052650975462766
 13
0.0
 23
0.0
 14
1.0
 24
1.0
 15
10.0
 25
10.0
 16
0.0
 26
0.0
 36
1.0
 17
0.0
 27
0.0
 37
0.0
 40
4.27520703030907
 41
1.784313725490195
 42
50.0
 43
0.0
 44
0.0
 50
0.0
 51
0.0
 71
     0
 72
   500
 73
     1
 74
     1
 75
     0
 76
     0
 77
     0
 78
     0
  0
VPORT
  5
5EF135B3
330
5EF092B1
100
AcDbSymbolTableRecord
100
AcDbViewportTableRecord
  2
*ACTIVE
 70
     0
 10
0.0
 20
0.0
 11
1.0
 21
1.0
 12
483.4290993404231
 22
272.9955591251568
 13
0.0
 23
0.0
 14
1.0
 24
1.0
 15
10.0
 25
10.0
 16
0.0
 26
0.0
 36
1.0
 17
0.0
 27
0.0
 37
0.0
 40
549.7452409924393
 41
1.764444444444444
 42
50.0
 43
0.0
 44
0.0
 50
0.0
 51
0.0
 71
     0
 72
   500
 73
     1
 74
     0
 75
     0
 76
     0
 77
     0
 78
     0
  0
ENDTAB
  0
TABLE
  2
LTYPE
  5
5EF092AE
330
0
100
AcDbSymbolTable
 70
     3
  0
LTYPE
  5
5EF092BB
330
5EF092AE
100
AcDbSymbolTableRecord
100
AcDbLinetypeTableRecord
  2
BYBLOCK
 70
     0
  3

 72
    65
 73
     0
 40
0.0
  0
LTYPE
  5
5EF092BC
330
5EF092AE
100
AcDbSymbolTableRecord
100
AcDbLinetypeTableRecord
  2
BYLAYER
 70
     0
  3

 72
    65
 73
     0
 40
0.0
  0
LTYPE
  5
5EF092BD
330
5EF092AE
100
AcDbSymbolTableRecord
100
AcDbLinetypeTableRecord
  2
CONTINUOUS
 70
     0
  3
実線
 72
    65
 73
     0
 40
0.0
  0
LTYPE
  5
5EF092D1
330
5EF092AE
100
AcDbSymbolTableRecord
100
AcDbLinetypeTableRecord
  2
CENTER
 70
     0
  3
____ _ ____ _ ____ _ ____ _ ____ _ ____ _ ____
 72
    65
 73
     4
 40
2.0
 49
1.25
 74
     0
 49
-0.25
 74
     0
 49
0.25
 74
     0
 49
-0.25
 74
     0
  0
LTYPE
  5
5EF1017A
330
5EF092AE
100
AcDbSymbolTableRecord
100
AcDbLinetypeTableRecord
  2
PHANTOM
 70
     0
  3
_____ _ _ _____ _ _ _____ _ _ _____ _ _ ____
 72
    65
 73
     6
 40
2.5
 49
1.25
 74
     0
 49
-0.25
 74
     0
 49
0.25
 74
     0
 49
-0.25
 74
     0
 49
0.25
 74
     0
 49
-0.25
 74
     0
  0
ENDTAB
  0
TABLE
  2
LAYER
  5
5EF092AB
102
{ACAD_XDICTIONARY
360
5EF0FDBF
102
}
330
0
100
AcDbSymbolTable
 70
     8
  0
LAYER
  5
5EF092B8
330
5EF092AB
100
AcDbSymbolTableRecord
100
AcDbLayerTableRecord
  2
0
 70
     0
 62
     7
  6
CONTINUOUS
  0
LAYER
  5
5EF092E0
330
5EF092AB
100
AcDbSymbolTableRecord
100
AcDbLayerTableRecord
  2
ITTEN
 70
     0
 62
     1
  6
CENTER
  0
LAYER
  5
5EF092E3
330
5EF092AB
100
AcDbSymbolTableRecord
100
AcDbLayerTableRecord
  2
SUNPOU
 70
     0
 62
     3
  6
CONTINUOUS
  0
LAYER
  5
5EF092E5
330
5EF092AB
100
AcDbSymbolTableRecord
100
AcDbLayerTableRecord
  2
SAISEN
 70
     0
 62
     4
  6
CONTINUOUS
  0
LAYER
  5
5EF092E6
330
5EF092AB
100
AcDbSymbolTableRecord
100
AcDbLayerTableRecord
  2
JISSEN
 70
     0
 62
     7
  6
CONTINUOUS
  0
LAYER
  5
5EF092EA
330
5EF092AB
100
AcDbSymbolTableRecord
100
AcDbLayerTableRecord
  2
WAKU
 70
     0
 62
     5
  6
CONTINUOUS
  0
LAYER
  5
5EF092FD
330
5EF092AB
100
AcDbSymbolTableRecord
100
AcDbLayerTableRecord
  2
SCALE
 70
     0
 62
     7
  6
CONTINUOUS
  0
LAYER
  5
5EF1017C
330
5EF092AB
100
AcDbSymbolTableRecord
100
AcDbLayerTableRecord
  2
NITEN
 70
     0
 62
     2
  6
PHANTOM
  0
ENDTAB
  0
TABLE
  2
STYLE
  5
5EF092AC
330
0
100
AcDbSymbolTable
 70
     2
  0
STYLE
  5
5EF092B9
330
5EF092AC
100
AcDbSymbolTableRecord
100
AcDbTextStyleTableRecord
  2
STANDARD
 70
     0
 40
0.0
 41
1.0
 50
0.0
 71
     0
 42
0.2
  3
ROMANS
  4
EXTFONT
  0
STYLE
  5
5EF092CF
330
5EF092AC
100
AcDbSymbolTableRecord
100
AcDbTextStyleTableRecord
  2
K
 70
     0
 40
0.0
 41
1.0
 50
0.0
 71
     0
 42
3.0
  3
ROMANS
  4
EXTFONT
  0
ENDTAB
  0
TABLE
  2
VIEW
  5
5EF092AF
330
0
100
AcDbSymbolTable
 70
     0
  0
ENDTAB
  0
TABLE
  2
UCS
  5
5EF092B0
330
0
100
AcDbSymbolTable
 70
     0
  0
ENDTAB
  0
TABLE
  2
APPID
  5
5EF092B2
330
0
100
AcDbSymbolTable
 70
     1
  0
APPID
  5
5EF092BA
330
5EF092B2
100
AcDbSymbolTableRecord
100
AcDbRegAppTableRecord
  2
ACAD
 70
     0
  0
ENDTAB
  0
TABLE
  2
DIMSTYLE
  5
5EF092B3
330
0
100
AcDbSymbolTable
 70
     2
  0
DIMSTYLE
105
5EF092DE
330
5EF092B3
100
AcDbSymbolTableRecord
100
AcDbDimStyleTableRecord
  2
IMAO
 70
     0
  3

  4

  5
ARROWANG
  6
ARROWANG
  7
ARROWANG
 40
1.0
 41
1.5
 42
0.75
 43
6.0
 44
1.0
 45
0.0
 46
0.0
 47
495.0
 48
0.0
140
3.0
141
0.0
142
0.0
143
25.4
144
1.0
145
0.0
146
1.0
147
1.0
 71
     0
 72
     0
 73
     0
 74
     0
 75
     0
 76
     0
 77
     3
 78
     8
170
     0
171
     2
172
     1
173
     1
174
     1
175
     0
176
   256
177
   256
178
   256
270
     2
271
     2
272
     2
273
     2
274
     2
340
5EF092CF
275
     0
280
     0
281
     0
282
     0
283
     1
284
     0
285
     0
286
     0
287
     3
288
     0
  0
DIMSTYLE
105
5EF11935
330
5EF092B3
100
AcDbSymbolTableRecord
100
AcDbDimStyleTableRecord
  2
STANDARD
 70
     0
  3

  4

  5
OPEN30
  6

  7

 40
5.0
 41
0.18
 42
0.0625
 43
0.38
 44
0.18
 45
0.0
 46
0.0
 47
0.0
 48
0.0
140
0.18
141
0.09
142
0.0
143
25.4
144
1.0
145
0.0
146
1.0
147
0.09
 71
     0
 72
     0
 73
     1
 74
     1
 75
     0
 76
     0
 77
     0
 78
     0
170
     0
171
     2
172
     0
173
     0
174
     0
175
     0
176
   256
177
     0
178
     0
270
     2
271
     4
272
     4
273
     2
274
     2
340
5EF092B9
275
     0
280
     0
281
     0
282
     0
283
     1
284
     0
285
     0
286
     0
287
     3
288
     0
  0
ENDTAB
  0
TABLE
  2
BLOCK_RECORD
  5
5EF092AA
330
0
100
AcDbSymbolTable
 70
     2
  0
BLOCK_RECORD
  5
5EF092C1
102
{ACAD_XDICTIONARY
360
5EF0FABC
102
}
330
5EF092AA
100
AcDbSymbolTableRecord
100
AcDbBlockTableRecord
  2
*MODEL_SPACE
  0
BLOCK_RECORD
  5
5EF092BE
102
{ACAD_XDICTIONARY
360
5EF0FABA
102
}
330
5EF092AA
100
AcDbSymbolTableRecord
100
AcDbBlockTableRecord
  2
*PAPER_SPACE
  0
BLOCK_RECORD
  5
5EF092CB
330
5EF092AA
100
AcDbSymbolTableRecord
100
AcDbBlockTableRecord
  2
ARROWANG
  0
BLOCK_RECORD
  5
5EF1192A
330
5EF092AA
100
AcDbSymbolTableRecord
100
AcDbBlockTableRecord
  2
_OPEN30
  0
ENDTAB
  0
ENDSEC
  0
SECTION
  2
BLOCKS
  0
BLOCK
  5
5EF092EF
330
5EF092C1
100
AcDbEntity
  8
0
100
AcDbBlockBegin
  2
*MODEL_SPACE
 70
     0
 10
0.0
 20
0.0
 30
0.0
  3
*MODEL_SPACE
  1

  0
ENDBLK
  5
5EF092F0
330
5EF092C1
100
AcDbEntity
  8
0
100
AcDbBlockEnd
  0
BLOCK
  5
5EF092ED
330
5EF092BE
100
AcDbEntity
 67
     1
  8
0
100
AcDbBlockBegin
  2
*PAPER_SPACE
 70
     0
 10
0.0
 20
0.0
 30
0.0
  3
*PAPER_SPACE
  1

  0
ENDBLK
  5
5EF092EE
330
5EF092BE
100
AcDbEntity
 67
     1
  8
0
100
AcDbBlockEnd
  0
BLOCK
  5
1D
330
5EF092CB
100
AcDbEntity
  8
0
100
AcDbBlockBegin
  2
ARROWANG
 70
     0
 10
0.0
 20
0.0
 30
0.0
  3
ARROWANG
  1

  0
LINE
  5
1E
330
5EF092CB
100
AcDbEntity
  8
SUNPOU
100
AcDbLine
 10
0.0
 20
0.0
 30
0.0
 11
-1.499999999999957
 21
0.4019237886467409
 31
0.0
  0
LINE
  5
1F
330
5EF092CB
100
AcDbEntity
  8
SUNPOU
100
AcDbLine
 10
0.0
 20
0.0
 30
0.0
 11
-1.500000000000028
 21
-0.4019237886467124
 31
0.0
  0
ENDBLK
  5
20
330
5EF092CB
100
AcDbEntity
  8
0
100
AcDbBlockEnd
  0
BLOCK
  5
5EF1192E
330
5EF1192A
100
AcDbEntity
  8
0
100
AcDbBlockBegin
  2
_OPEN30
 70
     0
 10
0.0
 20
0.0
 30
0.0
  3
_OPEN30
  1

  0
LINE
  5
5EF1192B
330
5EF1192A
100
AcDbEntity
  8
0
  6
BYBLOCK
 62
     0
100
AcDbLine
 10
-1.0
 20
0.26794919
 30
0.0
 11
0.0
 21
0.0
 31
0.0
  0
LINE
  5
5EF1192C
330
5EF1192A
100
AcDbEntity
  8
0
  6
BYBLOCK
 62
     0
100
AcDbLine
 10
0.0
 20
0.0
 30
0.0
 11
-1.0
 21
-0.26794919
 31
0.0
  0
LINE
  5
5EF1192D
330
5EF1192A
100
AcDbEntity
  8
0
  6
BYBLOCK
 62
     0
100
AcDbLine
 10
0.0
 20
0.0
 30
0.0
 11
-1.0
 21
0.0
 31
0.0
  0
ENDBLK
  5
5EF1192F
330
5EF1192A
100
AcDbEntity
  8
0
100
AcDbBlockEnd
  0
ENDSEC
  0
SECTION
  2
ENTITIES
  0
TEXT
  5
2D6D6C92
330
5EF092C1
100
AcDbEntity
  8
JISSEN
100
AcDbText
 10
349.9540407660656
 20
1.542807100332489
 30
0.0
 40
3.5
  1

  7
K
100
AcDbText
  0
LWPOLYLINE
  5
5EF0A015
330
5EF092C1
100
AcDbEntity
  8
WAKU
100
AcDbPolyline
 90
        4
 70
     1
 43
0.0
 10
0.0
 20
0.0
 10
780.0
 20
0.0
 10
780.0
 20
546.0
 10
0.0
 20
546.0
  0
LINE
  5
5EF0FA72
330
5EF092C1
100
AcDbEntity
  8
SUNPOU
100
AcDbLine
 10
534.9843013057288
 20
111.4440992610322
 30
0.0
 11
494.0310427758176
 21
70.49084073112101
 31
0.0
  0
LINE
  5
5EF0FA73
330
5EF092C1
100
AcDbEntity
  8
SUNPOU
100
AcDbLine
 10
533.5280072678092
 20
109.9878052231124
 30
0.0
 11
537.7706479549288
 21
114.2304459102317
 31
0.0
  0
INSERT
  5
5EF0FA74
330
5EF092C1
100
AcDbEntity
  8
SUNPOU
100
AcDbBlockReference
  2
ARROWANG
 10
529.2853665806901
 20
105.7451645359932
 30
0.0
 41
6.0
 42
6.0
 43
6.0
 50
225.0
  0
INSERT
  5
5EF0FA75
330
5EF092C1
100
AcDbEntity
  8
SUNPOU
100
AcDbBlockReference
  2
ARROWANG
 10
515.8503377381457
 20
92.31013569344884
 30
0.0
 41
6.0
 42
6.0
 43
6.0
 50
45.0
  0
LINE
  5
5EF0FA76
330
5EF092C1
100
AcDbEntity
  8
SUNPOU
100
AcDbLine
 10
494.0310427758176
 20
70.49084073112101
 30
0.0
 11
460.9744341069563
 21
70.49084073112101
 31
0.0
  0
TEXT
  5
5EF0FA77
330
5EF092C1
100
AcDbEntity
  8
SUNPOU
100
AcDbText
 10
461.6174889967787
 20
71.29595304515601
 30
0.0
 40
6.0
  1
4-%%c19
  7
K
100
AcDbText
  0
LINE
  5
5EF0FA78
330
5EF092C1
100
AcDbEntity
  8
SUNPOU
100
AcDbLine
 10
613.9519929522812
 20
323.1913039762667
 30
0.0
 11
579.5834613374454
 21
288.8227723614308
 31
0.0
  0
MTEXT
  5
5EF0FA79
330
5EF092C1
100
AcDbEntity
  8
SUNPOU
100
AcDbMText
 10
635.0542798564683
 20
328.4229266188054
 30
0.0
 40
6.0
 41
0.0
 71
     5
 72
     1
  1
Rc 1/2
  7
K
1001
ACAD
1000
MTEXTBEGIN
1070
    73
1070
     1
1070
    44
1040
1.0
1070
    74
1070
     0
1000
MTEXTEND
  0
LINE
  5
5EF0FA7A
330
5EF092C1
100
AcDbEntity
  8
SUNPOU
100
AcDbLine
 10
613.9519929522812
 20
323.1913039762667
 30
0.0
 11
652.2828512850396
 21
323.1913039762669
 31
0.0
  0
INSERT
  5
5EF0FA7B
330
5EF092C1
100
AcDbEntity
  8
SUNPOU
100
AcDbBlockReference
  2
ARROWANG
 10
579.5834613374454
 20
288.8227723614308
 30
0.0
 41
6.0
 42
6.0
 43
6.0
 50
225.0
  0
TEXT
  5
5EF0FB6F
330
5EF092C1
100
AcDbEntity
  8
SUNPOU
100
AcDbText
 10
678.6006182813224
 20
7.614403698276305
 30
0.0
 40
6.0
  1
A3 用紙、印刷尺度：1/2
  7
K
100
AcDbText
  0
TEXT
  5
5EF0FB74
330
5EF092C1
100
AcDbEntity
  8
SUNPOU
100
AcDbText
 10
678.6006182813224
 20
17.6144036982763
 30
0.0
 40
6.0
  1
一斉開放弁 UDV65 外観図
  7
K
100
AcDbText
  0
LINE
  5
5EF12427
330
5EF092C1
100
AcDbEntity
  8
JISSEN
100
AcDbLine
 10
175.4823284276139
 20
322.5251247977796
 30
0.0
 11
175.4823284276158
 21
297.5019741683924
 31
0.0
  0
LINE
  5
5EF12428
330
5EF092C1
100
AcDbEntity
  8
JISSEN
100
AcDbLine
 10
207.4823284276149
 20
323.5251247977801
 30
0.0
 11
207.4823284276158
 21
296.5251247977962
 31
0.0
  0
ARC
  5
5EF1242C
330
5EF092C1
100
AcDbEntity
  8
JISSEN
100
AcDbCircle
 10
183.2550870916625
 20
287.6497459225247
 30
0.0
 40
3.875378875274283
100
AcDbArc
 50
44.95592676268039
 51
90.0
  0
LINE
  5
5EF1242D
330
5EF092C1
100
AcDbEntity
  8
JISSEN
100
AcDbLine
 10
182.4823284276185
 20
291.5251247977989
 30
0.0
 11
200.4823284276112
 21
291.5251247977989
 31
0.0
  0
ARC
  5
5EF12431
330
5EF092C1
100
AcDbEntity
  8
JISSEN
100
AcDbCircle
 10
184.7323284276149
 20
200.2822481209036
 30
0.0
 40
1.0
100
AcDbArc
 50
316.3971810272891
 51
136.3971810272891
  0
LINE
  5
5EF12432
330
5EF092C1
100
AcDbEntity
  8
JISSEN
100
AcDbLine
 10
185.4564663586493
 20
199.5925929484897
 30
0.0
 11
180.7863300201793
 21
194.6889497930956
 31
0.0
  0
ARC
  5
5EF12433
330
5EF092C1
100
AcDbEntity
  8
JISSEN
100
AcDbCircle
 10
184.7323284276149
 20
184.2822481209036
 30
0.0
 40
1.0
100
AcDbArc
 50
205.9206115365689
 51
25.920611536569
  0
LINE
  5
5EF12434
330
5EF092C1
100
AcDbEntity
  8
JISSEN
100
AcDbLine
 10
180.7863300201793
 20
194.6889497930956
 30
0.0
 11
185.6317290136507
 21
184.7193734871757
 31
0.0
  0
LINE
  5
5EF12436
330
5EF092C1
100
AcDbEntity
  8
JISSEN
100
AcDbLine
 10
191.4823284276149
 20
41.91512479777929
 30
0.0
 11
178.0472995850709
 21
53.91512479777929
 31
0.0
  0
LINE
  5
5EF12437
330
5EF092C1
100
AcDbEntity
  8
JISSEN
100
AcDbLine
 10
191.4823284276149
 20
53.91512479777929
 30
0.0
 11
178.0472995850709
 21
41.91512479777929
 31
0.0
  0
LINE
  5
5EF12439
330
5EF092C1
100
AcDbEntity
  8
JISSEN
100
AcDbLine
 10
191.4823284276149
 20
53.91512479777929
 30
0.0
 11
174.5575009196368
 21
53.91512479777929
 31
0.0
  0
ARC
  5
5EF1243B
330
5EF092C1
100
AcDbEntity
  8
JISSEN
100
AcDbCircle
 10
191.4823284276149
 20
188.5251247977794
 30
0.0
 40
114.0
100
AcDbArc
 50
226.4430185355558
 51
270.0
  0
LWPOLYLINE
  5
5EF1243C
330
5EF092C1
100
AcDbEntity
  8
JISSEN
100
AcDbPolyline
 90
        4
 70
     1
 43
0.0
 10
148.9823284276148
 20
163.5251247977798
 10
233.9823284276149
 20
163.5251247977798
 10
233.9823284276149
 20
133.5251247977798
 10
148.9823284276148
 20
133.5251247977798
  0
LWPOLYLINE
  5
5EF1243D
330
5EF092C1
100
AcDbEntity
  8
JISSEN
100
AcDbPolyline
 90
        8
 70
     1
 43
0.0
 10
233.9823284276149
 20
131.5251247977798
 10
148.9823284276148
 20
131.5251247977798
 42
-0.4142135623730951
 10
146.9823284276148
 20
133.5251247977798
 10
146.9823284276148
 20
163.5251247977798
 42
-0.4142135623730951
 10
148.9823284276148
 20
165.5251247977798
 10
233.9823284276149
 20
165.5251247977798
 42
-0.4142135623730951
 10
235.9823284276149
 20
163.5251247977798
 10
235.9823284276149
 20
133.5251247977798
 42
-0.4142135623730951
  0
LINE
  5
5EF1243E
330
5EF092C1
100
AcDbEntity
  8
JISSEN
100
AcDbLine
 10
168.9823284276149
 20
63.52512479777942
 30
0.0
 11
191.4823284276149
 21
63.52512479777942
 31
0.0
  0
LWPOLYLINE
  5
5EF1243F
330
5EF092C1
100
AcDbEntity
  8
JISSEN
100
AcDbPolyline
 90
       12
 70
     0
 43
0.0
 10
217.9823284276212
 20
213.2822481209036
 10
211.0541251973458
 20
217.2822481209036
 10
211.0541251973458
 20
215.2822481209145
 10
201.8510219762642
 20
215.2822481209145
 10
196.3560671373857
 20
217.2822481209036
 10
164.9823284276149
 20
217.2822481209036
 10
164.9823284276149
 20
209.2822481209036
 10
196.3560671373247
 20
209.2822481209036
 10
201.8510219762642
 20
211.2822481209145
 10
211.0541251973458
 20
211.2822481209145
 10
211.0541251973458
 20
209.2822481209231
 10
217.9823284276212
 20
213.2822481209036
  0
LINE
  5
5EF12443
330
5EF092C1
100
AcDbEntity
  8
JISSEN
100
AcDbLine
 10
178.0472995850709
 20
41.91512479777929
 30
0.0
 11
178.0472995850709
 21
53.91512479777929
 31
0.0
  0
LINE
  5
5EF12444
330
5EF092C1
100
AcDbEntity
  8
SAISEN
100
AcDbLine
 10
176.3368284276134
 20
63.52512479777897
 30
0.0
 11
176.036500919637
 21
53.91512479777929
 31
0.0
  0
LINE
  5
5EF12445
330
5EF092C1
100
AcDbEntity
  8
JISSEN
100
AcDbLine
 10
174.5575009196368
 20
53.91512479777929
 30
0.0
 11
174.8578284276141
 21
63.52512479777897
 31
0.0
  0
LINE
  5
5EF12446
330
5EF092C1
100
AcDbEntity
  8
JISSEN
100
AcDbLine
 10
120.4823284276149
 20
62.02512479777943
 30
0.0
 11
120.4823284276149
 21
89.50492483837706
 31
0.0
  0
LINE
  5
5EF12447
330
5EF092C1
100
AcDbEntity
  8
SAISEN
100
AcDbLine
 10
111.9623284276153
 20
61.02512479777715
 30
0.0
 11
112.0779592059184
 21
57.32512479777643
 31
0.0
  0
LINE
  5
5EF12448
330
5EF092C1
100
AcDbEntity
  8
JISSEN
100
AcDbLine
 10
96.03669764931101
 20
57.3251247977787
 30
0.0
 11
96.15232842761953
 21
61.02512479777942
 31
0.0
  0
LINE
  5
5EF12449
330
5EF092C1
100
AcDbEntity
  8
SAISEN
100
AcDbLine
 10
97.00232842762261
 20
61.02512479777942
 30
0.0
 11
96.88669764931773
 21
57.3251247977787
 31
0.0
  0
LINE
  5
5EF1244A
330
5EF092C1
100
AcDbEntity
  8
JISSEN
100
AcDbLine
 10
112.9279592059278
 20
57.3251247977787
 30
0.0
 11
112.8123284276211
 21
61.02512479777897
 31
0.0
  0
LINE
  5
5EF1244B
330
5EF092C1
100
AcDbEntity
  8
JISSEN
100
AcDbLine
 10
112.9676098018567
 20
57.3251247977787
 30
0.0
 11
104.4823284276167
 21
57.3251247977787
 31
0.0
  0
LINE
  5
5EF1244C
330
5EF092C1
100
AcDbEntity
  8
JISSEN
100
AcDbLine
 10
95.83232842761708
 20
61.02512479777942
 30
0.0
 11
97.00232842762261
 21
61.02512479777942
 31
0.0
  0
LINE
  5
5EF1244D
330
5EF092C1
100
AcDbEntity
  8
JISSEN
100
AcDbLine
 10
104.4823284276167
 20
57.3251247977787
 30
0.0
 11
95.99704705338035
 21
57.3251247977787
 31
0.0
  0
ARC
  5
5EF1244E
330
5EF092C1
100
AcDbEntity
  8
JISSEN
100
AcDbCircle
 10
119.4823284276149
 20
62.02512479777943
 30
0.0
 40
1.0
100
AcDbArc
 50
270.0
 51
0.0
  0
LINE
  5
5EF1244F
330
5EF092C1
100
AcDbEntity
  8
JISSEN
100
AcDbLine
 10
103.4823284276149
 20
61.02512479777942
 30
0.0
 11
119.4823284276149
 21
61.02512479777942
 31
0.0
  0
LINE
  5
5EF12450
330
5EF092C1
100
AcDbEntity
  8
JISSEN
100
AcDbLine
 10
82.98232842761491
 20
61.02512479777988
 30
0.0
 11
81.4823284276149
 21
62.52512479777988
 31
0.0
  0
LINE
  5
5EF12451
330
5EF092C1
100
AcDbEntity
  8
JISSEN
100
AcDbLine
 10
82.98232842761491
 20
61.02512479777988
 30
0.0
 11
103.4823284276149
 21
61.02512479777942
 31
0.0
  0
ARC
  5
5EF12452
330
5EF092C1
100
AcDbEntity
  8
JISSEN
100
AcDbCircle
 10
125.4823284276149
 20
89.50492483837706
 30
0.0
 40
5.0
100
AcDbArc
 50
56.31532738753479
 51
180.0
  0
ARC
  5
5EF12453
330
5EF092C1
100
AcDbEntity
  8
JISSEN
100
AcDbCircle
 10
109.4823284276167
 20
102.2870821483761
 30
0.0
 40
5.0
100
AcDbArc
 50
46.44301853555584
 51
180.0
  0
CIRCLE
  5
5EF12455
330
5EF092C1
100
AcDbEntity
  8
JISSEN
100
AcDbCircle
 10
151.4823284276149
 20
136.0251247977798
 30
0.0
 40
0.8
  0
ARC
  5
5EF12457
330
5EF092C1
100
AcDbEntity
  8
JISSEN
100
AcDbCircle
 10
168.9823284276149
 20
66.52512479777943
 30
0.0
 40
3.0
100
AcDbArc
 50
180.0
 51
270.0
  0
ARC
  5
5EF12458
330
5EF092C1
100
AcDbEntity
  8
JISSEN
100
AcDbCircle
 10
160.9823284276149
 20
73.50012751458052
 30
0.0
 40
5.0
100
AcDbArc
 50
0.0
 51
75.14922065068597
  0
LINE
  5
5EF12459
330
5EF092C1
100
AcDbEntity
  8
JISSEN
100
AcDbLine
 10
165.9823284276158
 20
73.50012751458052
 30
0.0
 11
165.9823284276149
 21
66.52512479777943
 31
0.0
  0
LINE
  5
5EF12464
330
5EF092C1
100
AcDbEntity
  8
JISSEN
100
AcDbLine
 10
111.9823284276176
 20
48.32512479777824
 30
0.0
 11
96.98232842761854
 21
48.32512479777824
 31
0.0
  0
LINE
  5
5EF12468
330
5EF092C1
100
AcDbEntity
  8
JISSEN
100
AcDbLine
 10
104.4823284276167
 20
48.3251247977787
 30
0.0
 11
104.4823284276167
 21
57.3251247977787
 31
0.0
  0
LINE
  5
5EF12469
330
5EF092C1
100
AcDbEntity
  8
SAISEN
100
AcDbLine
 10
96.98232842761854
 20
57.3251247977787
 30
0.0
 11
103.4216682558385
 21
48.32512479777824
 31
0.0
  0
LINE
  5
5EF1246A
330
5EF092C1
100
AcDbEntity
  8
SAISEN
100
AcDbLine
 10
103.4216682558385
 20
57.32512479777824
 30
0.0
 11
96.98232842761763
 21
48.32512479777915
 31
0.0
  0
LINE
  5
5EF1246B
330
5EF092C1
100
AcDbEntity
  8
SAISEN
100
AcDbLine
 10
105.5429885993985
 20
57.3251247977787
 30
0.0
 11
111.9823284276185
 21
48.32512479777824
 31
0.0
  0
LINE
  5
5EF1246C
330
5EF092C1
100
AcDbEntity
  8
SAISEN
100
AcDbLine
 10
111.9823284276185
 20
57.3251247977787
 30
0.0
 11
105.5429885993985
 21
48.32512479777824
 31
0.0
  0
LINE
  5
5EF1246D
330
5EF092C1
100
AcDbEntity
  8
JISSEN
100
AcDbLine
 10
103.4216682558385
 20
48.32512479777824
 30
0.0
 11
103.4216682558385
 21
57.32512479777824
 31
0.0
  0
LINE
  5
5EF1246E
330
5EF092C1
100
AcDbEntity
  8
JISSEN
100
AcDbLine
 10
105.5429885993985
 20
48.32512479777824
 30
0.0
 11
105.5429885993985
 21
57.32512479777915
 31
0.0
  0
LINE
  5
5EF1246F
330
5EF092C1
100
AcDbEntity
  8
JISSEN
100
AcDbLine
 10
96.98232842761763
 20
48.32512479777915
 30
0.0
 11
96.98232842761854
 21
57.3251247977787
 31
0.0
  0
LINE
  5
5EF12470
330
5EF092C1
100
AcDbEntity
  8
JISSEN
100
AcDbLine
 10
111.9823284276185
 20
48.32512479777824
 30
0.0
 11
111.9823284276185
 21
57.32512479777915
 31
0.0
  0
ARC
  5
5EF12475
330
5EF092C1
100
AcDbEntity
  8
JISSEN
100
AcDbCircle
 10
170.4823284276149
 20
297.5019741683922
 30
0.0
 40
5.0
100
AcDbArc
 50
281.0058424506485
 51
0.0
  0
LINE
  5
5EF12476
330
5EF092C1
100
AcDbEntity
  8
JISSEN
100
AcDbLine
 10
182.4823284276149
 20
291.5251247977966
 30
0.0
 11
180.5126733130123
 21
290.3879438871699
 31
0.0
  0
LINE
  5
5EF12477
330
5EF092C1
100
AcDbEntity
  8
JISSEN
100
AcDbLine
 10
180.5126733130123
 20
281.5251247977989
 30
0.0
 11
180.5126733130123
 21
290.3879438871699
 31
0.0
  0
ARC
  5
5EF12478
330
5EF092C1
100
AcDbEntity
  8
JISSEN
100
AcDbCircle
 10
139.9538169024387
 20
287.6497459225247
 30
0.0
 40
3.875378875274283
100
AcDbArc
 50
90.0
 51
135.0440732373195
  0
LINE
  5
5EF12479
330
5EF092C1
100
AcDbEntity
  8
JISSEN
100
AcDbLine
 10
122.7265755664909
 20
291.5251247977989
 30
0.0
 11
140.7265755664836
 21
291.5251247977989
 31
0.0
  0
ARC
  5
5EF1247A
330
5EF092C1
100
AcDbEntity
  8
JISSEN
100
AcDbCircle
 10
111.4823284276148
 20
279.525124797798
 30
0.0
 40
2.0
100
AcDbArc
 50
90.0
 51
180.0
  0
ARC
  5
5EF1247B
330
5EF092C1
100
AcDbEntity
  8
JISSEN
100
AcDbCircle
 10
131.7265755664873
 20
277.7293806626448
 30
0.0
 40
13.79574413515414
100
AcDbArc
 50
66.57340249132435
 51
113.4265975086756
  0
LINE
  5
5EF1247C
330
5EF092C1
100
AcDbEntity
  8
JISSEN
100
AcDbLine
 10
122.7265755664873
 20
291.5251247977966
 30
0.0
 11
120.7569204518838
 21
290.3879438871699
 31
0.0
  0
ARC
  5
5EF1247D
330
5EF092C1
100
AcDbEntity
  8
JISSEN
100
AcDbCircle
 10
123.4993342305349
 20
287.6497459225247
 30
0.0
 40
3.875378875274283
100
AcDbArc
 50
44.95592676268039
 51
90.0
  0
LINE
  5
5EF1247E
330
5EF092C1
100
AcDbEntity
  8
JISSEN
100
AcDbLine
 10
126.241748009186
 20
281.5251247977989
 30
0.0
 11
126.241748009186
 21
290.3879438871699
 31
0.0
  0
LINE
  5
5EF1247F
330
5EF092C1
100
AcDbEntity
  8
JISSEN
100
AcDbLine
 10
120.7569204518838
 20
281.5251247977989
 30
0.0
 11
120.7569204518838
 21
290.3879438871699
 31
0.0
  0
LINE
  5
5EF12480
330
5EF092C1
100
AcDbEntity
  8
JISSEN
100
AcDbLine
 10
137.2114031237886
 20
290.3879438871699
 30
0.0
 11
137.2114031237886
 21
281.5251247977989
 31
0.0
  0
LINE
  5
5EF12486
330
5EF092C1
100
AcDbEntity
  8
JISSEN
100
AcDbLine
 10
140.7265755664873
 20
291.5251247977966
 30
0.0
 11
142.6962306810898
 21
290.3879438871699
 31
0.0
  0
LINE
  5
5EF12487
330
5EF092C1
100
AcDbEntity
  8
JISSEN
100
AcDbLine
 10
142.6962306810898
 20
290.3879438871699
 30
0.0
 11
142.6962306810898
 21
281.5251247977989
 31
0.0
  0
ARC
  5
5EF12488
330
5EF092C1
100
AcDbEntity
  8
JISSEN
100
AcDbCircle
 10
122.4823284276158
 20
240.5251247979768
 30
0.0
 40
5.0
100
AcDbArc
 50
0.0
 51
90.0
  0
ARC
  5
5EF12489
330
5EF092C1
100
AcDbEntity
  8
JISSEN
100
AcDbCircle
 10
110.4823284276148
 20
246.5251247979768
 30
0.0
 40
1.0
100
AcDbArc
 50
180.0
 51
270.0
  0
ARC
  5
5EF1248D
330
5EF092C1
100
AcDbEntity
  8
JISSEN
100
AcDbCircle
 10
110.4823284276148
 20
246.5251247979768
 30
0.0
 40
1.0
100
AcDbArc
 50
180.0
 51
270.0
  0
ARC
  5
5EF1248E
330
5EF092C1
100
AcDbEntity
  8
JISSEN
100
AcDbCircle
 10
110.4823284276148
 20
246.5251247977985
 30
0.0
 40
1.0
100
AcDbArc
 50
180.0
 51
270.0
  0
LINE
  5
5EF1248F
330
5EF092C1
100
AcDbEntity
  8
JISSEN
100
AcDbLine
 10
82.4823284276149
 20
251.0251247977794
 30
0.0
 11
92.48232842761581
 21
251.0251247977794
 31
0.0
  0
LINE
  5
5EF12490
330
5EF092C1
100
AcDbEntity
  8
JISSEN
100
AcDbLine
 10
93.4823284276158
 20
245.0251247977798
 30
0.0
 11
93.4823284276158
 21
245.9544259315534
 31
0.0
  0
LINE
  5
5EF12491
330
5EF092C1
100
AcDbEntity
  8
JISSEN
100
AcDbLine
 10
93.4823284276158
 20
250.0251247977794
 30
0.0
 11
93.4823284276158
 21
245.0251247977798
 31
0.0
  0
ARC
  5
5EF12492
330
5EF092C1
100
AcDbEntity
  8
JISSEN
100
AcDbCircle
 10
103.4823284276149
 20
235.0251247977794
 30
0.0
 40
1.0
100
AcDbArc
 50
0.0
 51
90.0
  0
ARC
  5
5EF12493
330
5EF092C1
100
AcDbEntity
  8
JISSEN
100
AcDbCircle
 10
102.4823284276158
 20
245.0251247977798
 30
0.0
 40
9.0
100
AcDbArc
 50
180.0
 51
270.0
  0
ARC
  5
5EF12494
330
5EF092C1
100
AcDbEntity
  8
JISSEN
100
AcDbCircle
 10
82.06811486524157
 20
236.0251248083163
 30
0.0
 40
1.0
100
AcDbArc
 50
315.0000000000186
 51
44.99999999998129
  0
LINE
  5
5EF12495
330
5EF092C1
100
AcDbEntity
  8
JISSEN
100
AcDbLine
 10
81.4823284276149
 20
238.0251247977794
 30
0.0
 11
82.77522164642823
 21
236.732231589503
 31
0.0
  0
LINE
  5
5EF12496
330
5EF092C1
100
AcDbEntity
  8
JISSEN
100
AcDbLine
 10
81.4823284276149
 20
234.0251247977799
 30
0.0
 11
81.4823284276149
 21
233.2836560419627
 31
0.0
  0
LINE
  5
5EF12497
330
5EF092C1
100
AcDbEntity
  8
JISSEN
100
AcDbLine
 10
82.77522164642823
 20
235.3180180271297
 30
0.0
 11
81.4823284276149
 21
234.0251247977799
 31
0.0
  0
LINE
  5
5EF12498
330
5EF092C1
100
AcDbEntity
  8
JISSEN
100
AcDbLine
 10
81.4823284276149
 20
250.0251247977794
 30
0.0
 11
81.4823284276149
 21
238.0251247977794
 31
0.0
  0
LINE
  5
5EF12499
330
5EF092C1
100
AcDbEntity
  8
JISSEN
100
AcDbLine
 10
83.06811486524157
 20
236.0251247977794
 30
0.0
 11
103.4823284276149
 21
236.0251247977794
 31
0.0
  0
ARC
  5
5EF1249A
330
5EF092C1
100
AcDbEntity
  8
JISSEN
100
AcDbCircle
 10
82.4823284276149
 20
250.0251247977794
 30
0.0
 40
1.0
100
AcDbArc
 50
90.0
 51
180.0
  0
ARC
  5
5EF1249B
330
5EF092C1
100
AcDbEntity
  8
JISSEN
100
AcDbCircle
 10
92.48232842761581
 20
250.0251247977794
 30
0.0
 40
1.0
100
AcDbArc
 50
0.0
 51
90.0
  0
ARC
  5
5EF124A1
330
5EF092C1
100
AcDbEntity
  8
JISSEN
100
AcDbCircle
 10
191.4823284276149
 20
189.525124797798
 30
0.0
 40
105.0
100
AcDbArc
 50
101.0058424506485
 51
117.6862467145529
  0
LINE
  5
5EF124A2
330
5EF092C1
100
AcDbEntity
  8
JISSEN
100
AcDbLine
 10
184.0081904965804
 20
200.9719032933171
 30
0.0
 11
175.7323284276148
 21
192.2822481209036
 31
0.0
  0
ARC
  5
5EF124A3
330
5EF092C1
100
AcDbEntity
  8
JISSEN
100
AcDbCircle
 10
174.7323284276149
 20
200.2822481209036
 30
0.0
 40
1.0
100
AcDbArc
 50
0.0
 51
180.0
  0
LINE
  5
5EF124A4
330
5EF092C1
100
AcDbEntity
  8
JISSEN
100
AcDbLine
 10
175.7323284276148
 20
200.2822481209036
 30
0.0
 11
175.7323284276148
 21
192.2822481209036
 31
0.0
  0
LINE
  5
5EF124A5
330
5EF092C1
100
AcDbEntity
  8
JISSEN
100
AcDbLine
 10
179.3139903725909
 20
193.1429931631282
 30
0.0
 11
175.7323284276148
 21
189.3822481209035
 31
0.0
  0
ARC
  5
5EF124A6
330
5EF092C1
100
AcDbEntity
  8
JISSEN
100
AcDbCircle
 10
174.7323284276149
 20
184.2822481209036
 30
0.0
 40
1.0
100
AcDbArc
 50
180.0
 51
0.0
  0
LINE
  5
5EF124A7
330
5EF092C1
100
AcDbEntity
  8
JISSEN
100
AcDbLine
 10
173.7323284276149
 20
184.2822481209036
 30
0.0
 11
173.7323284276149
 21
200.2822481209036
 31
0.0
  0
LINE
  5
5EF124A8
330
5EF092C1
100
AcDbEntity
  8
JISSEN
100
AcDbLine
 10
175.7323284276148
 20
189.3822481209035
 30
0.0
 11
175.7323284276148
 21
184.2822481209036
 31
0.0
  0
LINE
  5
5EF124A9
330
5EF092C1
100
AcDbEntity
  8
JISSEN
100
AcDbLine
 10
179.3139903725909
 20
193.1429931631282
 30
0.0
 11
183.832927841579
 21
183.8451227546311
 31
0.0
  0
LINE
  5
5EF124AA
330
5EF092C1
100
AcDbEntity
  8
JISSEN
100
AcDbLine
 10
172.2323284276149
 20
195.2822481209036
 30
0.0
 11
172.2323284276149
 21
189.2822481209036
 31
0.0
  0
ARC
  5
5EF124AB
330
5EF092C1
100
AcDbEntity
  8
JISSEN
100
AcDbCircle
 10
191.4823284276149
 20
108.5251247977794
 30
0.0
 40
114.0
100
AcDbArc
 50
125.4387225545224
 51
133.5569814644441
  0
ARC
  5
5EF124AC
330
5EF092C1
100
AcDbEntity
  8
JISSEN
100
AcDbCircle
 10
109.4823284276148
 20
194.7631674471808
 30
0.0
 40
5.0
100
AcDbArc
 50
180.0
 51
313.5569814644441
  0
ARC
  5
5EF124AD
330
5EF092C1
100
AcDbEntity
  8
JISSEN
100
AcDbCircle
 10
122.4823284276158
 20
205.4787219461063
 30
0.0
 40
5.0
100
AcDbArc
 50
305.4387225545224
 51
0.0
  0
CIRCLE
  5
5EF124AF
330
5EF092C1
100
AcDbEntity
  8
JISSEN
100
AcDbCircle
 10
151.4823284276149
 20
161.0251247977798
 30
0.0
 40
0.8
  0
ARC
  5
5EF124B1
330
5EF092C1
100
AcDbEntity
  8
JISSEN
100
AcDbCircle
 10
157.7323284276149
 20
200.2822481209036
 30
0.0
 40
1.0
100
AcDbArc
 50
0.0
 51
180.0
  0
ARC
  5
5EF124B2
330
5EF092C1
100
AcDbEntity
  8
JISSEN
100
AcDbCircle
 10
166.2323284276149
 20
195.2822481209036
 30
0.0
 40
4.0
100
AcDbArc
 50
0.0
 51
180.0
  0
LINE
  5
5EF124B3
330
5EF092C1
100
AcDbEntity
  8
JISSEN
100
AcDbLine
 10
170.2323284276149
 20
195.2822481209036
 30
0.0
 11
170.2323284276149
 21
189.2822481209036
 31
0.0
  0
ARC
  5
5EF124B4
330
5EF092C1
100
AcDbEntity
  8
JISSEN
100
AcDbCircle
 10
166.2323284276149
 20
189.2822481209036
 30
0.0
 40
4.0
100
AcDbArc
 50
180.0
 51
0.0
  0
LINE
  5
5EF124B5
330
5EF092C1
100
AcDbEntity
  8
JISSEN
100
AcDbLine
 10
162.2323284276149
 20
195.2822481209036
 30
0.0
 11
162.2323284276149
 21
189.2822481209036
 31
0.0
  0
LINE
  5
5EF124B6
330
5EF092C1
100
AcDbEntity
  8
JISSEN
100
AcDbLine
 10
160.2323284276149
 20
195.2822481209036
 30
0.0
 11
160.2323284276149
 21
189.2822481209036
 31
0.0
  0
ARC
  5
5EF124B7
330
5EF092C1
100
AcDbEntity
  8
JISSEN
100
AcDbCircle
 10
157.7323284276149
 20
184.2822481209036
 30
0.0
 40
1.0
100
AcDbArc
 50
180.0
 51
0.0
  0
LINE
  5
5EF124B8
330
5EF092C1
100
AcDbEntity
  8
JISSEN
100
AcDbLine
 10
156.7323284276149
 20
184.2822481209036
 30
0.0
 11
156.7323284276149
 21
200.2822481209036
 31
0.0
  0
LINE
  5
5EF124B9
330
5EF092C1
100
AcDbEntity
  8
JISSEN
100
AcDbLine
 10
158.7323284276149
 20
200.2822481209036
 30
0.0
 11
158.7323284276149
 21
184.2822481209036
 31
0.0
  0
ARC
  5
5EF124BA
330
5EF092C1
100
AcDbEntity
  8
JISSEN
100
AcDbCircle
 10
166.2323284276149
 20
195.2822481209036
 30
0.0
 40
6.0
100
AcDbArc
 50
0.0
 51
180.0
  0
ARC
  5
5EF124BB
330
5EF092C1
100
AcDbEntity
  8
JISSEN
100
AcDbCircle
 10
166.2323284276149
 20
189.2822481209036
 30
0.0
 40
6.0
100
AcDbArc
 50
180.0
 51
0.0
  0
LINE
  5
5EF124BC
330
5EF092C1
100
AcDbEntity
  8
JISSEN
100
AcDbLine
 10
127.4823284276158
 20
240.5251247979768
 30
0.0
 11
127.4823284276149
 21
205.4787219461063
 31
0.0
  0
LINE
  5
5EF124C8
330
5EF092C1
100
AcDbEntity
  8
JISSEN
100
AcDbLine
 10
299.9823284276148
 20
61.02512479777942
 30
0.0
 11
301.4823284276149
 21
62.52512479777942
 31
0.0
  0
ARC
  5
5EF124C9
330
5EF092C1
100
AcDbEntity
  8
JISSEN
100
AcDbCircle
 10
191.4823284276149
 20
188.5251247977794
 30
0.0
 40
114.0
100
AcDbArc
 50
270.0
 51
313.5569814644441
  0
CIRCLE
  5
5EF124CC
330
5EF092C1
100
AcDbEntity
  8
JISSEN
100
AcDbCircle
 10
231.4823284276148
 20
136.0251247977798
 30
0.0
 40
0.8
  0
ARC
  5
5EF124CE
330
5EF092C1
100
AcDbEntity
  8
JISSEN
100
AcDbCircle
 10
213.9823284276149
 20
66.52512479777943
 30
0.0
 40
3.0
100
AcDbArc
 50
270.0
 51
0.0
  0
LINE
  5
5EF124CF
330
5EF092C1
100
AcDbEntity
  8
JISSEN
100
AcDbLine
 10
191.4823284276149
 20
63.52512479777942
 30
0.0
 11
213.9823284276149
 21
63.52512479777942
 31
0.0
  0
ARC
  5
5EF124D0
330
5EF092C1
100
AcDbEntity
  8
JISSEN
100
AcDbCircle
 10
221.9823284276158
 20
73.50012751458052
 30
0.0
 40
5.0
100
AcDbArc
 50
104.850779349314
 51
180.0
  0
LINE
  5
5EF124D1
330
5EF092C1
100
AcDbEntity
  8
JISSEN
100
AcDbLine
 10
216.9823284276148
 20
73.50012751458007
 30
0.0
 11
216.9823284276148
 21
66.52512479777943
 31
0.0
  0
ARC
  5
5EF124D2
330
5EF092C1
100
AcDbEntity
  8
JISSEN
100
AcDbCircle
 10
279.4823284276158
 20
62.02512479777943
 30
0.0
 40
1.0
100
AcDbArc
 50
180.0
 51
270.0
  0
ARC
  5
5EF124D3
330
5EF092C1
100
AcDbEntity
  8
JISSEN
100
AcDbCircle
 10
273.4823284276149
 20
102.2870821483779
 30
0.0
 40
5.0
100
AcDbArc
 50
0.0
 51
133.5569814644441
  0
LINE
  5
5EF124D5
330
5EF092C1
100
AcDbEntity
  8
JISSEN
100
AcDbLine
 10
279.4823284276158
 20
61.02512479777942
 30
0.0
 11
299.9823284276148
 21
61.02512479777942
 31
0.0
  0
LINE
  5
5EF124DF
330
5EF092C1
100
AcDbEntity
  8
JISSEN
100
AcDbLine
 10
208.4071559355939
 20
53.91512479777929
 30
0.0
 11
191.4823284276149
 21
53.91512479777929
 31
0.0
  0
LINE
  5
5EF124E0
330
5EF092C1
100
AcDbEntity
  8
JISSEN
100
AcDbLine
 10
191.4823284276149
 20
53.91512479777929
 30
0.0
 11
204.9173572701597
 21
41.91512479777929
 31
0.0
  0
LINE
  5
5EF124E1
330
5EF092C1
100
AcDbEntity
  8
JISSEN
100
AcDbLine
 10
204.9173572701597
 20
53.91512479777929
 30
0.0
 11
191.4823284276149
 21
41.91512479777929
 31
0.0
  0
LINE
  5
5EF124E3
330
5EF092C1
100
AcDbEntity
  8
JISSEN
100
AcDbLine
 10
204.9173572701597
 20
53.91512479777929
 30
0.0
 11
204.9173572701597
 21
41.91512479777929
 31
0.0
  0
LINE
  5
5EF124E6
330
5EF092C1
100
AcDbEntity
  8
SAISEN
100
AcDbLine
 10
206.6278284276172
 20
63.52512479777897
 30
0.0
 11
206.9281559355936
 21
53.91512479777929
 31
0.0
  0
LINE
  5
5EF124E7
330
5EF092C1
100
AcDbEntity
  8
JISSEN
100
AcDbLine
 10
208.4071559355939
 20
53.91512479777929
 30
0.0
 11
208.1068284276166
 21
63.52512479777942
 31
0.0
  0
LINE
  5
5EF12525
330
5EF092C1
100
AcDbEntity
  8
JISSEN
100
AcDbLine
 10
299.9823284276148
 20
236.0251247977794
 30
0.0
 11
301.4823284276149
 21
234.5251247977794
 31
0.0
  0
LINE
  5
5EF12529
330
5EF092C1
100
AcDbEntity
  8
JISSEN
100
AcDbLine
 10
242.2380812887397
 20
291.5251247977968
 30
0.0
 11
240.2684261741362
 21
290.3879438871701
 31
0.0
  0
LINE
  5
5EF1252A
330
5EF092C1
100
AcDbEntity
  8
JISSEN
100
AcDbLine
 10
271.9823284276149
 20
300.5251247979767
 30
0.0
 11
245.9823284276148
 21
300.5251247979767
 31
0.0
  0
LINE
  5
5EF12531
330
5EF092C1
100
AcDbEntity
  8
JISSEN
100
AcDbLine
 10
242.9823284276149
 20
295.5251247977967
 30
0.0
 11
208.4823284276148
 21
295.5251247977962
 31
0.0
  0
ARC
  5
5EF12532
330
5EF092C1
100
AcDbEntity
  8
JISSEN
100
AcDbCircle
 10
191.4823284276176
 20
189.525124797798
 30
0.0
 40
105.0
100
AcDbArc
 50
62.31375328545102
 51
78.99415754935141
  0
ARC
  5
5EF12533
330
5EF092C1
100
AcDbEntity
  8
JISSEN
100
AcDbCircle
 10
208.4823284276148
 20
296.5251247977962
 30
0.0
 40
1.0
100
AcDbArc
 50
180.0
 51
270.0
  0
ARC
  5
5EF12534
330
5EF092C1
100
AcDbEntity
  8
JISSEN
100
AcDbCircle
 10
212.4823284276148
 20
297.5019741683927
 30
0.0
 40
5.0
100
AcDbArc
 50
180.0
 51
258.9941575493514
  0
LINE
  5
5EF12535
330
5EF092C1
100
AcDbEntity
  8
JISSEN
100
AcDbLine
 10
202.4519835422184
 20
290.3879438871699
 30
0.0
 11
202.4519835422184
 21
281.5251247977989
 31
0.0
  0
ARC
  5
5EF12536
330
5EF092C1
100
AcDbEntity
  8
JISSEN
100
AcDbCircle
 10
191.4823284276149
 20
277.7293806626448
 30
0.0
 40
13.79574413515414
100
AcDbArc
 50
66.57340249132435
 51
113.4265975086756
  0
LINE
  5
5EF12537
330
5EF092C1
100
AcDbEntity
  8
JISSEN
100
AcDbLine
 10
185.9975008703136
 20
281.5251247977989
 30
0.0
 11
185.9975008703136
 21
290.3879438871699
 31
0.0
  0
ARC
  5
5EF12538
330
5EF092C1
100
AcDbEntity
  8
JISSEN
100
AcDbCircle
 10
199.7095697635672
 20
287.6497459225247
 30
0.0
 40
3.875378875274283
100
AcDbArc
 50
90.0
 51
135.0440732373195
  0
LINE
  5
5EF12539
330
5EF092C1
100
AcDbEntity
  8
JISSEN
100
AcDbLine
 10
196.9671559849171
 20
290.3879438871699
 30
0.0
 11
196.9671559849161
 21
281.5251247977989
 31
0.0
  0
LINE
  5
5EF1253A
330
5EF092C1
100
AcDbEntity
  8
JISSEN
100
AcDbLine
 10
200.4823284276148
 20
291.5251247977966
 30
0.0
 11
202.4519835422184
 21
290.3879438871699
 31
0.0
  0
ARC
  5
5EF1253B
330
5EF092C1
100
AcDbEntity
  8
JISSEN
100
AcDbCircle
 10
242.9823284276149
 20
297.0251247977962
 30
0.0
 40
1.5
100
AcDbArc
 50
270.0
 51
0.0
  0
ARC
  5
5EF1253C
330
5EF092C1
100
AcDbEntity
  8
JISSEN
100
AcDbCircle
 10
242.9823284276139
 20
297.0251247977962
 30
0.0
 40
1.5
100
AcDbArc
 50
270.0
 51
0.0
  0
LINE
  5
5EF1253D
330
5EF092C1
100
AcDbEntity
  8
JISSEN
100
AcDbLine
 10
244.4823284276149
 20
299.025124797798
 30
0.0
 11
244.4823284276149
 21
291.5251247977991
 31
0.0
  0
LINE
  5
5EF1253E
330
5EF092C1
100
AcDbEntity
  8
JISSEN
100
AcDbLine
 10
240.2684261741362
 20
290.3879438871701
 30
0.0
 11
240.2684261741362
 21
281.525124797799
 31
0.0
  0
ARC
  5
5EF1253F
330
5EF092C1
100
AcDbEntity
  8
JISSEN
100
AcDbCircle
 10
245.9823284276148
 20
299.0251247979768
 30
0.0
 40
1.5
100
AcDbArc
 50
90.0
 51
180.0
  0
LINE
  5
5EF12540
330
5EF092C1
100
AcDbEntity
  8
JISSEN
100
AcDbLine
 10
244.4823284276149
 20
299.0251247979768
 30
0.0
 11
244.4823284276149
 21
296.0251247979767
 31
0.0
  0
LINE
  5
5EF12542
330
5EF092C1
100
AcDbEntity
  8
JISSEN
100
AcDbLine
 10
244.4823284276149
 20
296.0251247979767
 30
0.0
 11
244.4823284276149
 21
291.5251247977991
 31
0.0
  0
ARC
  5
5EF12544
330
5EF092C1
100
AcDbEntity
  8
JISSEN
100
AcDbCircle
 10
251.2380812887397
 20
277.7293806626449
 30
0.0
 40
13.79574413515414
100
AcDbArc
 50
66.57340249132435
 51
113.4265975086756
  0
LINE
  5
5EF12545
330
5EF092C1
100
AcDbEntity
  8
JISSEN
100
AcDbLine
 10
260.2380812887397
 20
291.5251247977968
 30
0.0
 11
262.2077364033423
 21
290.3879438871701
 31
0.0
  0
ARC
  5
5EF12546
330
5EF092C1
100
AcDbEntity
  8
JISSEN
100
AcDbCircle
 10
259.4653226246921
 20
287.6497459225248
 30
0.0
 40
3.875378875274283
100
AcDbArc
 50
90.0
 51
135.0440732373195
  0
LINE
  5
5EF12547
330
5EF092C1
100
AcDbEntity
  8
JISSEN
100
AcDbLine
 10
256.722908846041
 20
281.525124797799
 30
0.0
 11
256.722908846041
 21
290.3879438871701
 31
0.0
  0
LINE
  5
5EF12548
330
5EF092C1
100
AcDbEntity
  8
JISSEN
100
AcDbLine
 10
262.2077364033423
 20
281.525124797799
 30
0.0
 11
262.2077364033423
 21
290.3879438871701
 31
0.0
  0
ARC
  5
5EF12549
330
5EF092C1
100
AcDbEntity
  8
JISSEN
100
AcDbCircle
 10
243.0108399527873
 20
287.6497459225248
 30
0.0
 40
3.875378875274283
100
AcDbArc
 50
44.95592676268039
 51
90.0
  0
LINE
  5
5EF1254A
330
5EF092C1
100
AcDbEntity
  8
JISSEN
100
AcDbLine
 10
245.7532537314375
 20
290.3879438871701
 30
0.0
 11
245.7532537314384
 21
281.525124797799
 31
0.0
  0
ARC
  5
5EF1254B
330
5EF092C1
100
AcDbEntity
  8
JISSEN
100
AcDbCircle
 10
271.9823284276158
 20
280.0251247977989
 30
0.0
 40
1.5
100
AcDbArc
 50
0.0
 51
90.0
  0
LINE
  5
5EF1254C
330
5EF092C1
100
AcDbEntity
  8
JISSEN
100
AcDbLine
 10
260.2380812887361
 20
291.5251247977991
 30
0.0
 11
242.2380812887433
 21
291.5251247977991
 31
0.0
  0
ARC
  5
5EF1254D
330
5EF092C1
100
AcDbEntity
  8
JISSEN
100
AcDbCircle
 10
271.9823284276149
 20
299.0251247979768
 30
0.0
 40
1.5
100
AcDbArc
 50
0.0
 51
90.0
  0
ARC
  5
5EF1254E
330
5EF092C1
100
AcDbEntity
  8
JISSEN
100
AcDbCircle
 10
272.4823284276149
 20
264.5251247977985
 30
0.0
 40
1.0
100
AcDbArc
 50
270.0
 51
0.0
  0
ARC
  5
5EF1254F
330
5EF092C1
100
AcDbEntity
  8
JISSEN
100
AcDbCircle
 10
272.4823284276149
 20
264.5251247977985
 30
0.0
 40
1.0
100
AcDbArc
 50
270.0
 51
0.0
  0
ARC
  5
5EF12553
330
5EF092C1
100
AcDbEntity
  8
JISSEN
100
AcDbCircle
 10
272.482328427614
 20
246.525124797799
 30
0.0
 40
1.0
100
AcDbArc
 50
270.0
 51
0.0
  0
ARC
  5
5EF12554
330
5EF092C1
100
AcDbEntity
  8
JISSEN
100
AcDbCircle
 10
260.482328427614
 20
240.5251247977989
 30
0.0
 40
5.0
100
AcDbArc
 50
90.0
 51
180.0
  0
LINE
  5
5EF12555
330
5EF092C1
100
AcDbEntity
  8
JISSEN
100
AcDbLine
 10
255.4823284276139
 20
240.5251247977989
 30
0.0
 11
255.4823284276139
 21
229.6499289439712
 31
0.0
  0
LINE
  5
5EF12556
330
5EF092C1
100
AcDbEntity
  8
JISSEN
100
AcDbLine
 10
255.482328427613
 20
229.6499289439707
 30
0.0
 11
255.482328427613
 21
229.1899498297666
 31
0.0
  0
ARC
  5
5EF12557
330
5EF092C1
100
AcDbEntity
  8
JISSEN
100
AcDbCircle
 10
279.4823284276148
 20
235.0251247977794
 30
0.0
 40
1.0
100
AcDbArc
 50
90.0
 51
180.0
  0
LINE
  5
5EF1255A
330
5EF092C1
100
AcDbEntity
  8
JISSEN
100
AcDbLine
 10
279.4823284276148
 20
236.0251247977794
 30
0.0
 11
299.9823284276148
 21
236.0251247977794
 31
0.0
  0
CIRCLE
  5
5EF1255C
330
5EF092C1
100
AcDbEntity
  8
JISSEN
100
AcDbCircle
 10
231.4823284276148
 20
161.0251247977798
 30
0.0
 40
0.8
  0
ARC
  5
5EF1255F
330
5EF092C1
100
AcDbEntity
  8
JISSEN
100
AcDbCircle
 10
225.2323284276148
 20
200.2822481209036
 30
0.0
 40
1.0
100
AcDbArc
 50
270.0
 51
90.0
  0
ARC
  5
5EF12560
330
5EF092C1
100
AcDbEntity
  8
JISSEN
100
AcDbCircle
 10
215.2323284276149
 20
200.2822481209036
 30
0.0
 40
1.0
100
AcDbArc
 50
90.0
 51
180.0
  0
ARC
  5
5EF12561
330
5EF092C1
100
AcDbEntity
  8
JISSEN
100
AcDbCircle
 10
206.7323284276148
 20
195.2822481209036
 30
0.0
 40
6.0
100
AcDbArc
 50
14.99999999999445
 51
180.0
  0
LINE
  5
5EF12562
330
5EF092C1
100
AcDbEntity
  8
JISSEN
100
AcDbLine
 10
225.2323284276148
 20
199.2822481209036
 30
0.0
 11
216.2323284276149
 21
199.2822481209036
 31
0.0
  0
ARC
  5
5EF12563
330
5EF092C1
100
AcDbEntity
  8
JISSEN
100
AcDbCircle
 10
220.2323284276149
 20
189.2822481209036
 30
0.0
 40
4.0
100
AcDbArc
 50
194.9999999999944
 51
118.0724869358258
  0
LINE
  5
5EF12564
330
5EF092C1
100
AcDbEntity
  8
JISSEN
100
AcDbLine
 10
216.2323284276149
 20
199.2822481209036
 30
0.0
 11
216.2323284276149
 21
193.9489147875701
 31
0.0
  0
LINE
  5
5EF12565
330
5EF092C1
100
AcDbEntity
  8
JISSEN
100
AcDbLine
 10
216.2323284276149
 20
193.9489147875701
 30
0.0
 11
217.40879901585
 21
194.5763657679622
 31
0.0
  0
LINE
  5
5EF12566
330
5EF092C1
100
AcDbEntity
  8
JISSEN
100
AcDbLine
 10
215.7029166629095
 20
191.399895179727
 30
0.0
 11
218.3499754864383
 21
192.811659885609
 31
0.0
  0
LINE
  5
5EF12567
330
5EF092C1
100
AcDbEntity
  8
JISSEN
100
AcDbLine
 10
214.2323284276149
 20
200.2822481209036
 30
0.0
 11
214.2323284276149
 21
192.2822481209036
 31
0.0
  0
ARC
  5
5EF12568
330
5EF092C1
100
AcDbEntity
  8
JISSEN
100
AcDbCircle
 10
215.2323284276149
 20
192.2822481209036
 30
0.0
 40
1.0
100
AcDbArc
 50
180.0
 51
298.0724869358258
  0
ARC
  5
5EF12569
330
5EF092C1
100
AcDbEntity
  8
JISSEN
100
AcDbCircle
 10
215.4026992961703
 20
187.988152895391
 30
0.0
 40
1.00000000000044
100
AcDbArc
 50
14.99999999999445
 51
194.9999999999944
  0
ARC
  5
5EF1256A
330
5EF092C1
100
AcDbEntity
  8
JISSEN
100
AcDbCircle
 10
220.2323284276149
 20
189.2822481209036
 30
0.0
 40
6.0
100
AcDbArc
 50
194.9999999999944
 51
118.0724869358258
  0
ARC
  5
5EF1256B
330
5EF092C1
100
AcDbEntity
  8
JISSEN
100
AcDbCircle
 10
206.7323284276148
 20
195.2822481209036
 30
0.0
 40
4.0
100
AcDbArc
 50
14.99999999999445
 51
180.0
  0
CIRCLE
  5
5EF1256C
330
5EF092C1
100
AcDbEntity
  8
JISSEN
100
AcDbCircle
 10
206.7323284276148
 20
189.2822481209036
 30
0.0
 40
4.0
  0
ARC
  5
5EF1256D
330
5EF092C1
100
AcDbEntity
  8
JISSEN
100
AcDbCircle
 10
206.7323284276148
 20
189.2822481209036
 30
0.0
 40
6.0
100
AcDbArc
 50
180.0
 51
131.8103148958003
  0
LINE
  5
5EF1256E
330
5EF092C1
100
AcDbEntity
  8
JISSEN
100
AcDbLine
 10
198.2323284276139
 20
191.2822481209036
 30
0.0
 11
188.2323284276158
 21
191.2822481209036
 31
0.0
  0
LINE
  5
5EF1256F
330
5EF092C1
100
AcDbEntity
  8
JISSEN
100
AcDbLine
 10
188.2323284276158
 20
193.2822481209036
 30
0.0
 11
198.2323284276139
 21
193.2822481209036
 31
0.0
  0
ARC
  5
5EF12570
330
5EF092C1
100
AcDbEntity
  8
JISSEN
100
AcDbCircle
 10
188.2323284276158
 20
192.2822481209036
 30
0.0
 40
1.0
100
AcDbArc
 50
90.0
 51
270.0
  0
ARC
  5
5EF12571
330
5EF092C1
100
AcDbEntity
  8
JISSEN
100
AcDbCircle
 10
198.2323284276139
 20
192.2822481209036
 30
0.0
 40
1.0
100
AcDbArc
 50
270.0
 51
90.0
  0
LINE
  5
5EF12572
330
5EF092C1
100
AcDbEntity
  8
JISSEN
100
AcDbLine
 10
200.7323284276149
 20
195.2822481209036
 30
0.0
 11
200.7323284276149
 21
189.2822481209036
 31
0.0
  0
LINE
  5
5EF12573
330
5EF092C1
100
AcDbEntity
  8
JISSEN
100
AcDbLine
 10
202.7323284276149
 20
195.2822481209036
 30
0.0
 11
202.7323284276149
 21
193.754384075903
 31
0.0
  0
ARC
  5
5EF12574
330
5EF092C1
100
AcDbEntity
  8
JISSEN
100
AcDbCircle
 10
211.5619575590603
 20
196.5763433464158
 30
0.0
 40
1.0
100
AcDbArc
 50
194.9999999999944
 51
14.99999999999445
  0
LINE
  5
5EF12575
330
5EF092C1
100
AcDbEntity
  8
JISSEN
100
AcDbLine
 10
215.2323284276149
 20
201.2822481209036
 30
0.0
 11
225.2323284276148
 21
201.2822481209036
 31
0.0
  0
ARC
  5
5EF12577
330
5EF092C1
100
AcDbEntity
  8
JISSEN
100
AcDbCircle
 10
273.4823284276149
 20
206.8104238002249
 30
0.0
 40
5.0
100
AcDbArc
 50
230.1615600229936
 51
0.0
  0
ARC
  5
5EF1257A
330
5EF092C1
100
AcDbEntity
  8
JISSEN
100
AcDbCircle
 10
191.4823284276149
 20
108.5251247977796
 30
0.0
 40
123.0
100
AcDbArc
 50
50.16156002299368
 51
57.38015806070888
  0
ARC
  5
5EF1257B
330
5EF092C1
100
AcDbEntity
  8
JISSEN
100
AcDbCircle
 10
260.4823284276158
 20
216.3351428851537
 30
0.0
 40
5.0
100
AcDbArc
 50
180.0
 51
237.3801580607088
  0
LINE
  5
5EF1257E
330
5EF092C1
100
AcDbEntity
  8
JISSEN
100
AcDbLine
 10
255.4823284276139
 20
229.6499289439712
 30
0.0
 11
255.4823284276149
 21
216.3351428851537
 31
0.0
  0
LINE
  5
5EF125CE
330
5EF092C1
100
AcDbEntity
  8
JISSEN
100
AcDbLine
 10
191.4823284276158
 20
323.5251247977801
 30
0.0
 11
176.482328427614
 21
323.5251247977796
 31
0.0
  0
ARC
  5
5EF125CF
330
5EF092C1
100
AcDbEntity
  8
JISSEN
100
AcDbCircle
 10
176.482328427614
 20
322.5251247977796
 30
0.0
 40
1.0
100
AcDbArc
 50
90.0
 51
180.0
  0
LINE
  5
5EF125D1
330
5EF092C1
100
AcDbEntity
  8
JISSEN
100
AcDbLine
 10
194.482328427613
 20
339.5251247977798
 30
0.0
 11
194.482328427613
 21
328.0251247977798
 31
0.0
  0
LINE
  5
5EF125D2
330
5EF092C1
100
AcDbEntity
  8
JISSEN
100
AcDbLine
 10
196.482328427613
 20
336.2751247977778
 30
0.0
 11
196.482328427613
 21
328.0251247977798
 31
0.0
  0
LINE
  5
5EF125D3
330
5EF092C1
100
AcDbEntity
  8
SAISEN
100
AcDbLine
 10
188.4823284276137
 20
339.5251247977784
 30
0.0
 11
194.482328427613
 21
328.0251247977798
 31
0.0
  0
LINE
  5
5EF125D4
330
5EF092C1
100
AcDbEntity
  8
JISSEN
100
AcDbLine
 10
197.7323284276112
 20
325.8600612883187
 30
0.0
 11
197.7323284276103
 21
323.5251247977801
 31
0.0
  0
LINE
  5
5EF125D5
330
5EF092C1
100
AcDbEntity
  8
JISSEN
100
AcDbLine
 10
185.232328427616
 20
325.8600612883187
 30
0.0
 11
197.7323284276112
 21
325.8600612883187
 31
0.0
  0
LINE
  5
5EF125D6
330
5EF092C1
100
AcDbEntity
  8
JISSEN
100
AcDbLine
 10
196.482328427613
 20
328.0251247977798
 30
0.0
 11
197.7323284276149
 21
325.8600612883169
 31
0.0
  0
LINE
  5
5EF125D7
330
5EF092C1
100
AcDbEntity
  8
JISSEN
100
AcDbLine
 10
186.4823284276164
 20
328.0251247977797
 30
0.0
 11
196.482328427613
 21
328.0251247977798
 31
0.0
  0
LINE
  5
5EF125D8
330
5EF092C1
100
AcDbEntity
  8
JISSEN
100
AcDbLine
 10
185.232328427613
 20
323.5251247977805
 30
0.0
 11
184.9823284276158
 21
323.5251247977803
 31
0.0
  0
LINE
  5
5EF125D9
330
5EF092C1
100
AcDbEntity
  8
JISSEN
100
AcDbLine
 10
185.232328427613
 20
323.5251247977794
 30
0.0
 11
198.2323284276139
 21
323.5251247977803
 31
0.0
  0
LINE
  5
5EF125DA
330
5EF092C1
100
AcDbEntity
  8
JISSEN
100
AcDbLine
 10
191.4823284276158
 20
323.5251247977799
 30
0.0
 11
206.4823284276148
 21
323.5251247977801
 31
0.0
  0
ARC
  5
5EF125DB
330
5EF092C1
100
AcDbEntity
  8
JISSEN
100
AcDbCircle
 10
206.4823284276148
 20
322.5251247977801
 30
0.0
 40
1.0
100
AcDbArc
 50
0.0
 51
90.0
  0
ARC
  5
5EF125DC
330
5EF092C1
100
AcDbEntity
  8
JISSEN
100
AcDbCircle
 10
196.015171140089
 20
337.0251247977849
 30
0.0
 40
0.2
100
AcDbArc
 50
134.9999999997239
 51
224.9999999995391
  0
LINE
  5
5EF125DD
330
5EF092C1
100
AcDbEntity
  8
SAISEN
100
AcDbLine
 10
194.482328427613
 20
339.5251247977798
 30
0.0
 11
188.4823284276128
 21
328.0251247977797
 31
0.0
  0
LINE
  5
5EF125DE
330
5EF092C1
100
AcDbEntity
  8
JISSEN
100
AcDbLine
 10
196.4823284276121
 20
336.2751247977776
 30
0.0
 11
195.8737497838505
 21
336.8837034415482
 31
0.0
  0
LINE
  5
5EF125DF
330
5EF092C1
100
AcDbEntity
  8
JISSEN
100
AcDbLine
 10
196.4823284276121
 20
336.2751247977776
 30
0.0
 11
194.4823284276121
 21
336.2751247977794
 31
0.0
  0
LINE
  5
5EF125E1
330
5EF092C1
100
AcDbEntity
  8
JISSEN
100
AcDbLine
 10
196.4823284276139
 20
337.7751247977785
 30
0.0
 11
195.8737497838524
 21
337.1665461540223
 31
0.0
  0
LINE
  5
5EF125E2
330
5EF092C1
100
AcDbEntity
  8
JISSEN
100
AcDbLine
 10
196.4823284276139
 20
337.7751247977785
 30
0.0
 11
194.4823284276121
 21
337.7751247977776
 31
0.0
  0
LINE
  5
5EF125E3
330
5EF092C1
100
AcDbEntity
  8
JISSEN
100
AcDbLine
 10
196.482328427613
 20
339.5251247977798
 30
0.0
 11
196.482328427613
 21
337.7751247977785
 31
0.0
  0
LINE
  5
5EF125E4
330
5EF092C1
100
AcDbEntity
  8
JISSEN
100
AcDbLine
 10
186.9823284276167
 20
340.0251247977799
 30
0.0
 11
195.982328427613
 21
340.0251247977799
 31
0.0
  0
LINE
  5
5EF125E5
330
5EF092C1
100
AcDbEntity
  8
JISSEN
100
AcDbLine
 10
196.482328427613
 20
339.5251247977798
 30
0.0
 11
195.982328427613
 21
340.0251247977799
 31
0.0
  0
LINE
  5
5EF125E6
330
5EF092C1
100
AcDbEntity
  8
JISSEN
100
AcDbLine
 10
194.482328427613
 20
339.5251247977798
 30
0.0
 11
196.482328427613
 21
339.5251247977798
 31
0.0
  0
LINE
  5
5EF125E7
330
5EF092C1
100
AcDbEntity
  8
JISSEN
100
AcDbLine
 10
193.5438812404222
 20
340.0251247977799
 30
0.0
 11
194.482328427613
 21
339.5251247977798
 31
0.0
  0
LINE
  5
5EF125F3
330
5EF092C1
100
AcDbEntity
  8
JISSEN
100
AcDbLine
 10
556.0653268424744
 20
322.5251247977803
 30
0.0
 11
556.0653268424735
 21
297.5019741682158
 31
0.0
  0
LINE
  5
5EF12987
330
5EF092C1
100
AcDbEntity
  8
JISSEN
100
AcDbLine
 10
603.2943197817294
 20
139.5251247977787
 30
0.0
 11
540.8363339032216
 21
139.5251247977787
 31
0.0
  0
ARC
  5
5EF1298D
330
5EF092C1
100
AcDbEntity
  8
JISSEN
100
AcDbCircle
 10
549.5653268424753
 20
66.52512479777897
 30
0.0
 40
3.0
100
AcDbArc
 50
219.4766407139441
 51
270.0
  0
LINE
  5
5EF1298E
330
5EF092C1
100
AcDbEntity
  8
JISSEN
100
AcDbLine
 10
549.5653268424753
 20
63.52512479777897
 30
0.0
 11
551.298767185182
 21
63.52512479777897
 31
0.0
  0
CIRCLE
  5
5EF12997
330
5EF092C1
100
AcDbEntity
  8
JISSEN
100
AcDbCircle
 10
522.5678521594177
 20
99.02765011472093
 30
0.0
 40
9.5
  0
LINE
  5
5EF12A09
330
5EF092C1
100
AcDbEntity
  8
JISSEN
100
AcDbLine
 10
558.6302979999323
 20
41.91512479777929
 30
0.0
 11
558.6302979999323
 21
53.91512479777929
 31
0.0
  0
LINE
  5
5EF12A0B
330
5EF092C1
100
AcDbEntity
  8
JISSEN
100
AcDbLine
 10
572.0653268424753
 20
41.91512479777929
 30
0.0
 11
558.6302979999323
 21
53.91512479777929
 31
0.0
  0
LINE
  5
5EF12A0C
330
5EF092C1
100
AcDbEntity
  8
JISSEN
100
AcDbLine
 10
572.0653268424753
 20
53.91512479777929
 30
0.0
 11
558.6302979999323
 21
41.91512479777929
 31
0.0
  0
LINE
  5
5EF12A0F
330
5EF092C1
100
AcDbEntity
  8
JISSEN
100
AcDbLine
 10
555.1404993344981
 20
53.91512479777929
 30
0.0
 11
555.4126769254757
 21
62.62437246846729
 31
0.0
  0
LINE
  5
5EF12A10
330
5EF092C1
100
AcDbEntity
  8
SAISEN
100
AcDbLine
 10
556.8831748655697
 20
62.35232014718121
 30
0.0
 11
556.6194993344975
 21
53.91512479777929
 31
0.0
  0
ARC
  5
5EF12A13
330
5EF092C1
100
AcDbEntity
  8
JISSEN
100
AcDbCircle
 10
572.0653268424735
 20
189.525124797622
 30
0.0
 40
105.0
100
AcDbArc
 50
101.0058424507016
 51
104.5506991766728
  0
ARC
  5
5EF12A14
330
5EF092C1
100
AcDbEntity
  8
JISSEN
100
AcDbCircle
 10
572.0653268424753
 20
281.525124797622
 30
0.0
 40
19.0
100
AcDbArc
 50
90.0
 51
180.0
  0
LINE
  5
5EF12A15
330
5EF092C1
100
AcDbEntity
  8
JISSEN
100
AcDbLine
 10
654.0653268424753
 20
263.5251247976223
 30
0.0
 11
490.0653268424753
 21
263.5251247976232
 31
0.0
  0
LINE
  5
5EF12A16
330
5EF092C1
100
AcDbEntity
  8
JISSEN
100
AcDbLine
 10
490.0653268424753
 20
281.52512479762
 30
0.0
 11
553.0653268424753
 21
281.525124797622
 31
0.0
  0
LINE
  5
5EF12A17
330
5EF092C1
100
AcDbEntity
  8
JISSEN
100
AcDbLine
 10
491.0653268424753
 20
245.5251247978007
 30
0.0
 11
653.0653268424753
 21
245.5251247978003
 31
0.0
  0
LINE
  5
5EF12A18
330
5EF092C1
100
AcDbEntity
  8
JISSEN
100
AcDbLine
 10
546.5653268424771
 20
290.9535498555547
 30
0.0
 11
546.5653268424762
 21
281.5251247976209
 31
0.0
  0
ARC
  5
5EF12A19
330
5EF092C1
100
AcDbEntity
  8
JISSEN
100
AcDbCircle
 10
542.0653268424771
 20
273.5251247976211
 30
0.0
 40
18.0
100
AcDbArc
 50
75.52248781407008
 51
104.4775121859299
  0
LINE
  5
5EF12A1A
330
5EF092C1
100
AcDbEntity
  8
JISSEN
100
AcDbLine
 10
537.5653268424753
 20
290.9535498555542
 30
0.0
 11
537.5653268424753
 21
281.5251247976216
 31
0.0
  0
ARC
  5
5EF12A1D
330
5EF092C1
100
AcDbEntity
  8
JISSEN
100
AcDbCircle
 10
572.0653268424735
 20
189.525124797622
 30
0.0
 40
105.0
100
AcDbArc
 50
114.4743425628687
 51
118.8138172904649
  0
LINE
  5
5EF12A1E
330
5EF092C1
100
AcDbEntity
  8
JISSEN
100
AcDbLine
 10
528.5653268424771
 20
290.9535498555544
 30
0.0
 11
528.5653268424762
 21
281.5251247976218
 31
0.0
  0
ARC
  5
5EF12A1F
330
5EF092C1
100
AcDbEntity
  8
JISSEN
100
AcDbCircle
 10
498.5653268424771
 20
273.52512479762
 30
0.0
 40
18.0
100
AcDbArc
 50
75.52248781407008
 51
104.4775121859299
  0
ARC
  5
5EF12A20
330
5EF092C1
100
AcDbEntity
  8
JISSEN
100
AcDbCircle
 10
507.5653268424771
 20
273.52512479762
 30
0.0
 40
18.0
100
AcDbArc
 50
75.52248781407008
 51
104.4775121859299
  0
LINE
  5
5EF12A21
330
5EF092C1
100
AcDbEntity
  8
JISSEN
100
AcDbLine
 10
512.0653268424771
 20
281.5251247976202
 30
0.0
 11
494.0653268424771
 21
281.5251247976206
 31
0.0
  0
LINE
  5
5EF12A22
330
5EF092C1
100
AcDbEntity
  8
JISSEN
100
AcDbLine
 10
494.0653268424771
 20
290.9535498555533
 30
0.0
 11
494.0653268424771
 21
281.5251247976206
 31
0.0
  0
LINE
  5
5EF12A23
330
5EF092C1
100
AcDbEntity
  8
JISSEN
100
AcDbLine
 10
507.5653268424771
 20
291.5251247976202
 30
0.0
 11
498.5653268424771
 21
291.5251247976202
 31
0.0
  0
LINE
  5
5EF12A24
330
5EF092C1
100
AcDbEntity
  8
JISSEN
100
AcDbLine
 10
512.0653268424771
 20
290.9535498555535
 30
0.0
 11
512.0653268424771
 21
281.5251247976198
 31
0.0
  0
LINE
  5
5EF12A25
330
5EF092C1
100
AcDbEntity
  8
JISSEN
100
AcDbLine
 10
503.0653268424771
 20
290.9535498555531
 30
0.0
 11
503.0653268424771
 21
281.5251247976204
 31
0.0
  0
ARC
  5
5EF12A29
330
5EF092C1
100
AcDbEntity
  8
JISSEN
100
AcDbCircle
 10
503.0653268424753
 20
240.5251247978008
 30
0.0
 40
5.0
100
AcDbArc
 50
0.0
 51
90.0
  0
ARC
  5
5EF12A2A
330
5EF092C1
100
AcDbEntity
  8
JISSEN
100
AcDbCircle
 10
491.0653268424753
 20
246.5251247978008
 30
0.0
 40
1.0
100
AcDbArc
 50
180.0
 51
270.0
  0
LINE
  5
5EF12A2D
330
5EF092C1
100
AcDbEntity
  8
JISSEN
100
AcDbLine
 10
542.0653268424771
 20
291.5251247976214
 30
0.0
 11
533.0653268424771
 21
291.5251247976214
 31
0.0
  0
LINE
  5
5EF12A2E
330
5EF092C1
100
AcDbEntity
  8
JISSEN
100
AcDbLine
 10
546.5653268424771
 20
281.5251247976214
 30
0.0
 11
528.5653268424762
 21
281.5251247976218
 31
0.0
  0
ARC
  5
5EF12A2F
330
5EF092C1
100
AcDbEntity
  8
JISSEN
100
AcDbCircle
 10
533.0653268424771
 20
273.5251247976211
 30
0.0
 40
18.0
100
AcDbArc
 50
75.52248781407008
 51
104.4775121859299
  0
CIRCLE
  5
5EF12A30
330
5EF092C1
100
AcDbEntity
  8
JISSEN
100
AcDbCircle
 10
522.5678521594177
 20
198.0225994808374
 30
0.0
 40
9.5
  0
LINE
  5
5EF12A33
330
5EF092C1
100
AcDbEntity
  8
JISSEN
100
AcDbLine
 10
508.0653268424762
 20
240.5251247978008
 30
0.0
 11
508.0653268424771
 21
208.1929553264669
 31
0.0
  0
ARC
  5
5EF12A42
330
5EF092C1
100
AcDbEntity
  8
JISSEN
100
AcDbCircle
 10
551.0653268424735
 20
297.5019741682162
 30
0.0
 40
5.0
100
AcDbArc
 50
281.0058424507015
 51
0.0
  0
LINE
  5
5EF12A43
330
5EF092C1
100
AcDbEntity
  8
JISSEN
100
AcDbLine
 10
553.0653268424753
 20
281.525124797622
 30
0.0
 11
553.0653268424753
 21
263.5251247976227
 31
0.0
  0
LINE
  5
5EF12BBF
330
5EF092C1
100
AcDbEntity
  8
NITEN
100
AcDbLine
 10
568.1153268424745
 20
366.0251247977792
 30
0.0
 11
568.1153268424755
 21
354.0251247977789
 31
0.0
  0
LINE
  5
5EF12BC4
330
5EF092C1
100
AcDbEntity
  8
NITEN
100
AcDbLine
 10
565.8153268424753
 20
323.5251247977802
 30
0.0
 11
565.8153268424753
 21
351.8600612883192
 31
0.0
  0
LINE
  5
5EF12BC5
330
5EF092C1
100
AcDbEntity
  8
NITEN
100
AcDbLine
 10
567.0653268424789
 20
354.0251247977789
 30
0.0
 11
565.8153268424771
 21
351.8600612883158
 31
0.0
  0
LINE
  5
5EF12BC6
330
5EF092C1
100
AcDbEntity
  8
NITEN
100
AcDbLine
 10
578.3153268424682
 20
351.8600612883185
 30
0.0
 11
565.8153268424808
 21
351.8600612883176
 31
0.0
  0
LINE
  5
5EF12BC7
330
5EF092C1
100
AcDbEntity
  8
NITEN
100
AcDbLine
 10
577.065326842468
 20
354.0251247977793
 30
0.0
 11
567.0653268424789
 21
354.0251247977789
 31
0.0
  0
ARC
  5
5EF12BC8
330
5EF092C1
100
AcDbEntity
  8
JISSEN
100
AcDbCircle
 10
557.0653268424743
 20
322.5251247977803
 30
0.0
 40
1.0
100
AcDbArc
 50
90.0
 51
180.0
  0
LINE
  5
5EF12BC9
330
5EF092C1
100
AcDbEntity
  8
JISSEN
100
AcDbLine
 10
587.0653268424762
 20
323.5251247977799
 30
0.0
 11
557.0653268424743
 21
323.5251247977803
 31
0.0
  0
LINE
  5
5EF12BD4
330
5EF092C1
100
AcDbEntity
  8
NITEN
100
AcDbLine
 10
576.0153268424724
 20
365.5251247977793
 30
0.0
 11
568.1153268424745
 21
365.5251247977787
 31
0.0
  0
LINE
  5
5EF12BD5
330
5EF092C1
100
AcDbEntity
  8
NITEN
100
AcDbLine
 10
576.0153268424724
 20
366.025124797779
 30
0.0
 11
568.1153268424745
 21
366.0251247977792
 31
0.0
  0
ARC
  5
5EF133DC
330
5EF092C1
100
AcDbEntity
  8
JISSEN
100
AcDbCircle
 10
103.4823284276149
 20
62.02512479777943
 30
0.0
 40
1.0
100
AcDbArc
 50
270.0
 51
0.0
  0
LINE
  5
5EF133DD
330
5EF092C1
100
AcDbEntity
  8
SCALE
100
AcDbLine
 10
301.4823284276149
 20
234.5251247977794
 30
0.0
 11
301.4823284276149
 21
62.52512479777942
 31
0.0
  0
LINE
  5
5EF133DE
330
5EF092C1
100
AcDbEntity
  8
SCALE
100
AcDbLine
 10
299.9823284276148
 20
236.0251247977794
 30
0.0
 11
299.9823284276148
 21
61.02512479777942
 31
0.0
  0
LINE
  5
5EF133DF
330
5EF092C1
100
AcDbEntity
  8
SCALE
100
AcDbLine
 10
278.4823284276149
 20
235.0251247977794
 30
0.0
 11
278.4823284276157
 21
62.02512479777943
 31
0.0
  0
LINE
  5
5EF133E0
330
5EF092C1
100
AcDbEntity
  8
SCALE
100
AcDbLine
 10
104.4823284276149
 20
235.0251247977794
 30
0.0
 11
104.4823284276149
 21
62.02512479777943
 31
0.0
  0
LINE
  5
5EF133E1
330
5EF092C1
100
AcDbEntity
  8
SCALE
100
AcDbLine
 10
83.06811486524157
 20
236.0251247977794
 30
0.0
 11
83.0681148652377
 21
61.02512479777988
 31
0.0
  0
LINE
  5
5EF133E2
330
5EF092C1
100
AcDbEntity
  8
SCALE
100
AcDbLine
 10
81.4823284276149
 20
62.52512479777988
 30
0.0
 11
81.4823284276149
 21
234.0251247977799
 31
0.0
  0
LINE
  5
5EF133E3
330
5EF092C1
100
AcDbEntity
  8
JISSEN
100
AcDbLine
 10
189.4207756148075
 20
340.0251247977799
 30
0.0
 11
188.4823284276167
 21
339.5251247977798
 31
0.0
  0
LINE
  5
5EF133E4
330
5EF092C1
100
AcDbEntity
  8
JISSEN
100
AcDbLine
 10
188.4823284276167
 20
339.5251247977798
 30
0.0
 11
186.4823284276167
 21
339.5251247977798
 31
0.0
  0
LINE
  5
5EF133E5
330
5EF092C1
100
AcDbEntity
  8
JISSEN
100
AcDbLine
 10
186.4823284276167
 20
339.5251247977798
 30
0.0
 11
186.9823284276167
 21
340.0251247977799
 31
0.0
  0
LINE
  5
5EF133E6
330
5EF092C1
100
AcDbEntity
  8
JISSEN
100
AcDbLine
 10
186.4823284276167
 20
339.5251247977798
 30
0.0
 11
186.4823284276167
 21
337.7751247977785
 31
0.0
  0
LINE
  5
5EF133E7
330
5EF092C1
100
AcDbEntity
  8
JISSEN
100
AcDbLine
 10
186.4823284276157
 20
337.7751247977785
 30
0.0
 11
188.4823284276176
 21
337.7751247977776
 31
0.0
  0
LINE
  5
5EF133E8
330
5EF092C1
100
AcDbEntity
  8
JISSEN
100
AcDbLine
 10
186.4823284276157
 20
337.7751247977785
 30
0.0
 11
187.0909070713773
 21
337.1665461540223
 31
0.0
  0
LINE
  5
5EF133E9
330
5EF092C1
100
AcDbEntity
  8
JISSEN
100
AcDbLine
 10
186.4823284276176
 20
336.2751247977776
 30
0.0
 11
188.4823284276176
 21
336.2751247977794
 31
0.0
  0
LINE
  5
5EF133EA
330
5EF092C1
100
AcDbEntity
  8
JISSEN
100
AcDbLine
 10
186.4823284276176
 20
336.2751247977776
 30
0.0
 11
187.0909070713792
 21
336.8837034415482
 31
0.0
  0
ARC
  5
5EF133EB
330
5EF092C1
100
AcDbEntity
  8
JISSEN
100
AcDbCircle
 10
186.9494857151407
 20
337.0251247977849
 30
0.0
 40
0.2
100
AcDbArc
 50
315.0000000004609
 51
45.00000000027608
  0
LINE
  5
5EF133EC
330
5EF092C1
100
AcDbEntity
  8
JISSEN
100
AcDbLine
 10
186.4823284276167
 20
328.0251247977798
 30
0.0
 11
185.2323284276149
 21
325.8600612883169
 31
0.0
  0
LINE
  5
5EF133ED
330
5EF092C1
100
AcDbEntity
  8
JISSEN
100
AcDbLine
 10
185.2323284276185
 20
325.8600612883187
 30
0.0
 11
185.2323284276194
 21
323.5251247977801
 31
0.0
  0
LINE
  5
5EF133EE
330
5EF092C1
100
AcDbEntity
  8
JISSEN
100
AcDbLine
 10
186.4823284276167
 20
336.2751247977778
 30
0.0
 11
186.4823284276167
 21
328.0251247977798
 31
0.0
  0
LINE
  5
5EF133EF
330
5EF092C1
100
AcDbEntity
  8
JISSEN
100
AcDbLine
 10
188.4823284276167
 20
339.5251247977798
 30
0.0
 11
188.4823284276167
 21
328.0251247977798
 31
0.0
  0
CIRCLE
  5
5EF133F0
330
5EF092C1
100
AcDbEntity
  8
JISSEN
100
AcDbCircle
 10
621.5628015255329
 20
99.02765011472093
 30
0.0
 40
9.5
  0
CIRCLE
  5
5EF133F1
330
5EF092C1
100
AcDbEntity
  8
JISSEN
100
AcDbCircle
 10
621.5628015255329
 20
198.0225994808374
 30
0.0
 40
9.5
  0
CIRCLE
  5
5EF133F2
330
5EF092C1
100
AcDbEntity
  8
SCALE
100
AcDbCircle
 10
572.0653268424753
 20
148.5251247977794
 30
0.0
 40
32.5
  0
CIRCLE
  5
5EF133F3
330
5EF092C1
100
AcDbEntity
  8
SCALE
100
AcDbCircle
 10
572.0653268424753
 20
148.5251247977794
 30
0.0
 40
34.5
  0
CIRCLE
  5
5EF133F5
330
5EF092C1
100
AcDbEntity
  8
SCALE
100
AcDbCircle
 10
572.0653268424753
 20
148.5251247977794
 30
0.0
 40
86.0
  0
CIRCLE
  5
5EF133F6
330
5EF092C1
100
AcDbEntity
  8
SCALE
100
AcDbCircle
 10
572.0653268424753
 20
148.5251247977794
 30
0.0
 40
87.5
  0
LINE
  5
5EF133F7
330
5EF092C1
100
AcDbEntity
  8
JISSEN
100
AcDbLine
 10
636.0653268424743
 20
240.5251247978008
 30
0.0
 11
636.0653268424734
 21
208.1929553264669
 31
0.0
  0
LINE
  5
5EF133F8
330
5EF092C1
100
AcDbEntity
  8
JISSEN
100
AcDbLine
 10
654.0653268424753
 20
263.525124797623
 30
0.0
 11
654.0653268424753
 21
246.525124797623
 31
0.0
  0
LINE
  5
5EF133F9
330
5EF092C1
100
AcDbEntity
  8
JISSEN
100
AcDbLine
 10
654.0653268424753
 20
260.0251247976204
 30
0.0
 11
654.0653268424753
 21
246.5251247978008
 31
0.0
  0
ARC
  5
5EF133FA
330
5EF092C1
100
AcDbEntity
  8
JISSEN
100
AcDbCircle
 10
653.0653268424753
 20
246.5251247978008
 30
0.0
 40
1.0
100
AcDbArc
 50
270.0
 51
0.000000000000007
  0
ARC
  5
5EF133FB
330
5EF092C1
100
AcDbEntity
  8
JISSEN
100
AcDbCircle
 10
641.0653268424753
 20
240.5251247978008
 30
0.0
 40
5.0
100
AcDbArc
 50
90.0
 51
180.0
  0
LINE
  5
5EF133FC
330
5EF092C1
100
AcDbEntity
  8
JISSEN
100
AcDbLine
 10
654.0653268424753
 20
281.52512479762
 30
0.0
 11
654.0653268424753
 21
263.52512479762
 31
0.0
  0
LINE
  5
5EF133FD
330
5EF092C1
100
AcDbEntity
  8
JISSEN
100
AcDbLine
 10
654.0653268424753
 20
281.52512479762
 30
0.0
 11
654.0653268424753
 21
263.52512479762
 31
0.0
  0
LINE
  5
5EF133FE
330
5EF092C1
100
AcDbEntity
  8
JISSEN
100
AcDbLine
 10
641.0653268424734
 20
290.9535498555531
 30
0.0
 11
641.0653268424734
 21
281.5251247976204
 31
0.0
  0
LINE
  5
5EF133FF
330
5EF092C1
100
AcDbEntity
  8
JISSEN
100
AcDbLine
 10
632.0653268424734
 20
290.9535498555535
 30
0.0
 11
632.0653268424734
 21
281.5251247976198
 31
0.0
  0
LINE
  5
5EF13400
330
5EF092C1
100
AcDbEntity
  8
JISSEN
100
AcDbLine
 10
636.5653268424734
 20
291.5251247976202
 30
0.0
 11
645.5653268424734
 21
291.5251247976202
 31
0.0
  0
LINE
  5
5EF13401
330
5EF092C1
100
AcDbEntity
  8
JISSEN
100
AcDbLine
 10
650.0653268424734
 20
290.9535498555533
 30
0.0
 11
650.0653268424734
 21
281.5251247976206
 31
0.0
  0
LINE
  5
5EF13402
330
5EF092C1
100
AcDbEntity
  8
JISSEN
100
AcDbLine
 10
632.0653268424734
 20
281.5251247976202
 30
0.0
 11
650.0653268424734
 21
281.5251247976206
 31
0.0
  0
ARC
  5
5EF13403
330
5EF092C1
100
AcDbEntity
  8
JISSEN
100
AcDbCircle
 10
636.5653268424734
 20
273.52512479762
 30
0.0
 40
18.0
100
AcDbArc
 50
75.5224878140701
 51
104.4775121859299
  0
ARC
  5
5EF13404
330
5EF092C1
100
AcDbEntity
  8
JISSEN
100
AcDbCircle
 10
645.5653268424734
 20
273.52512479762
 30
0.0
 40
18.0
100
AcDbArc
 50
75.5224878140701
 51
104.4775121859299
  0
ARC
  5
5EF13405
330
5EF092C1
100
AcDbEntity
  8
JISSEN
100
AcDbCircle
 10
572.0653268424753
 20
281.525124797622
 30
0.0
 40
19.0
100
AcDbArc
 50
0.000000000000007
 51
90.0
  0
ARC
  5
5EF13406
330
5EF092C1
100
AcDbEntity
  8
JISSEN
100
AcDbCircle
 10
593.0653268424771
 20
297.5019741682162
 30
0.0
 40
5.0
100
AcDbArc
 50
180.0
 51
258.9941575492983
  0
ARC
  5
5EF13407
330
5EF092C1
100
AcDbEntity
  8
JISSEN
100
AcDbCircle
 10
611.0653268424734
 20
273.5251247976211
 30
0.0
 40
18.0
100
AcDbArc
 50
75.5224878140701
 51
104.4775121859299
  0
LINE
  5
5EF13408
330
5EF092C1
100
AcDbEntity
  8
JISSEN
100
AcDbLine
 10
597.5653268424735
 20
281.5251247976214
 30
0.0
 11
615.5653268424743
 21
281.5251247976218
 31
0.0
  0
LINE
  5
5EF13409
330
5EF092C1
100
AcDbEntity
  8
JISSEN
100
AcDbLine
 10
602.0653268424735
 20
291.5251247976214
 30
0.0
 11
611.0653268424734
 21
291.5251247976214
 31
0.0
  0
LINE
  5
5EF1340A
330
5EF092C1
100
AcDbEntity
  8
JISSEN
100
AcDbLine
 10
615.5653268424734
 20
290.9535498555544
 30
0.0
 11
615.5653268424743
 21
281.5251247976218
 31
0.0
  0
ARC
  5
5EF1340B
330
5EF092C1
100
AcDbEntity
  8
JISSEN
100
AcDbCircle
 10
572.0653268424771
 20
189.525124797622
 30
0.0
 40
105.0
100
AcDbArc
 50
61.18618270953506
 51
65.52565743713123
  0
LINE
  5
5EF1340C
330
5EF092C1
100
AcDbEntity
  8
JISSEN
100
AcDbLine
 10
606.5653268424753
 20
290.9535498555542
 30
0.0
 11
606.5653268424753
 21
281.5251247976216
 31
0.0
  0
ARC
  5
5EF1340D
330
5EF092C1
100
AcDbEntity
  8
JISSEN
100
AcDbCircle
 10
602.0653268424735
 20
273.5251247976211
 30
0.0
 40
18.0
100
AcDbArc
 50
75.5224878140701
 51
104.4775121859299
  0
LINE
  5
5EF1340E
330
5EF092C1
100
AcDbEntity
  8
JISSEN
100
AcDbLine
 10
597.5653268424735
 20
290.9535498555547
 30
0.0
 11
597.5653268424744
 21
281.5251247976209
 31
0.0
  0
LINE
  5
5EF1340F
330
5EF092C1
100
AcDbEntity
  8
JISSEN
100
AcDbLine
 10
654.0653268424753
 20
281.52512479762
 30
0.0
 11
591.0653268424753
 21
281.525124797622
 31
0.0
  0
ARC
  5
5EF13410
330
5EF092C1
100
AcDbEntity
  8
JISSEN
100
AcDbCircle
 10
572.0653268424771
 20
189.525124797622
 30
0.0
 40
105.0
100
AcDbArc
 50
75.44930082332718
 51
78.9941575492984
  0
LINE
  5
5EF13411
330
5EF092C1
100
AcDbEntity
  8
JISSEN
100
AcDbLine
 10
588.0653268424762
 20
322.5251247977803
 30
0.0
 11
588.0653268424771
 21
297.5019741682158
 31
0.0
  0
ARC
  5
5EF13412
330
5EF092C1
100
AcDbEntity
  8
JISSEN
100
AcDbCircle
 10
587.0653268424762
 20
322.5251247977803
 30
0.0
 40
1.0
100
AcDbArc
 50
0.000000000000007
 51
90.0
  0
LINE
  5
5EF13413
330
5EF092C1
100
AcDbEntity
  8
SCALE
100
AcDbLine
 10
490.0653268424753
 20
281.52512479762
 30
0.0
 11
490.0653268424753
 21
246.5251247978008
 31
0.0
  0
LINE
  5
5EF13414
330
5EF092C1
100
AcDbEntity
  8
NITEN
100
AcDbLine
 10
577.065326842468
 20
354.0251247977789
 30
0.0
 11
578.3153268424698
 21
351.8600612883158
 31
0.0
  0
LINE
  5
5EF13415
330
5EF092C1
100
AcDbEntity
  8
NITEN
100
AcDbLine
 10
578.3153268424719
 20
323.5251247977799
 30
0.0
 11
578.3153268424716
 21
351.8600612883192
 31
0.0
  0
LINE
  5
5EF13416
330
5EF092C1
100
AcDbEntity
  8
NITEN
100
AcDbLine
 10
576.0153268424724
 20
366.0251247977792
 30
0.0
 11
576.0153268424715
 21
354.0251247977789
 31
0.0
  0
CIRCLE
  5
5EF13417
330
5EF092C1
100
AcDbEntity
  8
SCALE
100
AcDbCircle
 10
572.0653268424735
 20
281.525124797622
 30
0.0
 40
5.0
  0
CIRCLE
  5
5EF13418
330
5EF092C1
100
AcDbEntity
  8
SCALE
100
AcDbCircle
 10
572.0653268424735
 20
281.525124797622
 30
0.0
 40
9.315499999999985
  0
CIRCLE
  5
5EF13419
330
5EF092C1
100
AcDbEntity
  8
SAISEN
100
AcDbCircle
 10
572.0653268424735
 20
281.525124797622
 30
0.0
 40
10.47750000000002
  0
LINE
  5
5EF1341A
330
5EF092C1
100
AcDbEntity
  8
SAISEN
100
AcDbLine
 10
587.2474788193808
 20
62.35232014718121
 30
0.0
 11
587.5111543504531
 21
53.91512479777929
 31
0.0
  0
LINE
  5
5EF1341B
330
5EF092C1
100
AcDbEntity
  8
JISSEN
100
AcDbLine
 10
588.9901543504524
 20
53.91512479777929
 30
0.0
 11
588.7179767594748
 21
62.62437246846729
 31
0.0
  0
LINE
  5
5EF1341D
330
5EF092C1
100
AcDbEntity
  8
JISSEN
100
AcDbLine
 10
572.0653268424753
 20
53.91512479777929
 30
0.0
 11
585.5003556850183
 21
41.91512479777929
 31
0.0
  0
LINE
  5
5EF1341E
330
5EF092C1
100
AcDbEntity
  8
JISSEN
100
AcDbLine
 10
572.0653268424753
 20
41.91512479777929
 30
0.0
 11
585.5003556850183
 21
53.91512479777929
 31
0.0
  0
LINE
  5
5EF13420
330
5EF092C1
100
AcDbEntity
  8
JISSEN
100
AcDbLine
 10
585.5003556850183
 20
41.91512479777929
 30
0.0
 11
585.5003556850183
 21
53.91512479777929
 31
0.0
  0
LINE
  5
5EF13421
330
5EF092C1
100
AcDbEntity
  8
JISSEN
100
AcDbLine
 10
594.5653268424753
 20
63.52512479777897
 30
0.0
 11
592.8318864997686
 21
63.52512479777897
 31
0.0
  0
ARC
  5
5EF13422
330
5EF092C1
100
AcDbEntity
  8
JISSEN
100
AcDbCircle
 10
594.5653268424753
 20
66.52512479777897
 30
0.0
 40
3.0
100
AcDbArc
 50
270.0
 51
320.5233592860559
  0
LINE
  5
5EF13423
330
5EF092C1
100
AcDbEntity
  8
SCALE
100
AcDbLine
 10
588.9901543504524
 20
53.91512479777929
 30
0.0
 11
555.1404993344981
 21
53.91512479777929
 31
0.0
  0
LINE
  5
5EF13424
330
5EF092C1
100
AcDbEntity
  8
SCALE
100
AcDbLine
 10
585.5003556850183
 20
41.91512479777929
 30
0.0
 11
558.6302979999323
 21
41.91512479777929
 31
0.0
  0
LINE
  5
5EF13425
330
5EF092C1
100
AcDbEntity
  8
SCALE
100
AcDbLine
 10
572.0653268424753
 20
41.91512479777929
 30
0.0
 11
572.0653268424753
 21
53.91512479777929
 31
0.0
  0
LINE
  5
5EF13426
330
5EF092C1
100
AcDbEntity
  8
SCALE
100
AcDbLine
 10
591.0653268424753
 20
281.525124797622
 30
0.0
 11
591.0653268424753
 21
263.5251247976226
 31
0.0
  0
LINE
  5
5EF1345D
330
5EF092C1
100
AcDbEntity
  8
JISSEN
100
AcDbLine
 10
242.4823284276135
 20
462.3005289689926
 30
0.0
 11
199.2282951200286
 21
462.3005289689926
 31
0.0
  0
ARC
  5
5EF1345E
330
5EF092C1
100
AcDbEntity
  8
JISSEN
100
AcDbCircle
 10
242.4823284276135
 20
464.3005289689925
 30
0.0
 40
2.0
100
AcDbArc
 50
270.0
 51
0.0
  0
ARC
  5
5EF13462
330
5EF092C1
100
AcDbEntity
  8
JISSEN
100
AcDbCircle
 10
245.4823284276135
 20
466.3005289689905
 30
0.0
 40
1.0
100
AcDbArc
 50
90.0
 51
180.0
  0
ARC
  5
5EF13478
330
5EF092C1
100
AcDbEntity
  8
JISSEN
100
AcDbCircle
 10
191.4823284276135
 20
448.3005289689906
 30
0.0
 40
5.0
100
AcDbArc
 50
307.8144885060365
 51
52.18551149398432
  0
CIRCLE
  5
5EF13479
330
5EF092C1
100
AcDbEntity
  8
JISSEN
100
AcDbCircle
 10
191.4823284276135
 20
448.3005289689906
 30
0.0
 40
6.25
  0
ARC
  5
5EF1347A
330
5EF092C1
100
AcDbEntity
  8
JISSEN
100
AcDbCircle
 10
191.4823284276135
 20
448.3005289689906
 30
0.0
 40
4.5
100
AcDbArc
 50
298.6245509534514
 51
61.37544904657185
  0
LINE
  5
5EF1347B
330
5EF092C1
100
AcDbEntity
  8
JISSEN
100
AcDbLine
 10
194.5478626388085
 20
444.3505289689916
 30
0.0
 11
188.416794216419
 21
444.3505289689916
 31
0.0
  0
LINE
  5
5EF1347C
330
5EF092C1
100
AcDbEntity
  8
JISSEN
100
AcDbLine
 10
194.5478626388071
 20
452.2505289689903
 30
0.0
 11
188.4167942164199
 21
452.2505289689903
 31
0.0
  0
ARC
  5
5EF1347D
330
5EF092C1
100
AcDbEntity
  8
JISSEN
100
AcDbCircle
 10
191.4823284276135
 20
448.3005289689906
 30
0.0
 40
5.0
100
AcDbArc
 50
127.8144885060156
 51
232.1855114939634
  0
ARC
  5
5EF1347E
330
5EF092C1
100
AcDbEntity
  8
JISSEN
100
AcDbCircle
 10
191.4823284276135
 20
448.3005289689906
 30
0.0
 40
4.5
100
AcDbArc
 50
118.6245509534281
 51
241.3754490465484
  0
ARC
  5
5EF1347F
330
5EF092C1
100
AcDbEntity
  8
SCALE
100
AcDbCircle
 10
191.4823284276135
 20
448.3005289689905
 30
0.0
 40
81.99999999999999
100
AcDbArc
 50
13.39760950171153
 51
346.6023904982884
  0
ARC
  5
5EF13480
330
5EF092C1
100
AcDbEntity
  8
SCALE
100
AcDbCircle
 10
191.4823284276135
 20
448.3005289689905
 30
0.0
 40
50.60632371555425
100
AcDbArc
 50
16.06008543155372
 51
343.9399145684463
  0
LINE
  5
5EF13481
330
5EF092C1
100
AcDbEntity
  8
SCALE
100
AcDbLine
 10
245.4823284276135
 20
467.3005289689905
 30
0.0
 11
273.4823284276133
 21
467.3005289689905
 31
0.0
  0
LINE
  5
5EF13482
330
5EF092C1
100
AcDbEntity
  8
JISSEN
100
AcDbLine
 10
242.4823284276135
 20
434.3005289689885
 30
0.0
 11
199.2282951200286
 21
434.3005289689885
 31
0.0
  0
LINE
  5
5EF13483
330
5EF092C1
100
AcDbEntity
  8
SCALE
100
AcDbLine
 10
245.4823284276135
 20
429.3005289689905
 30
0.0
 11
273.4823284276133
 21
429.3005289689905
 31
0.0
  0
ARC
  5
5EF13484
330
5EF092C1
100
AcDbEntity
  8
JISSEN
100
AcDbCircle
 10
245.4823284276135
 20
430.3005289689905
 30
0.0
 40
1.0
100
AcDbArc
 50
180.0
 51
270.0
  0
ARC
  5
5EF13486
330
5EF092C1
100
AcDbEntity
  8
JISSEN
100
AcDbCircle
 10
242.4823284276135
 20
432.3005289689884
 30
0.0
 40
2.0
100
AcDbArc
 50
0.0
 51
90.00000000000003
  0
CIRCLE
  5
5EF13489
330
5EF092C1
100
AcDbEntity
  8
SCALE
100
AcDbCircle
 10
191.4823284276135
 20
448.3005289689905
 30
0.0
 40
16.0
  0
LINE
  5
5EF134E4
330
5EF092C1
100
AcDbEntity
  8
JISSEN
100
AcDbLine
 10
81.48232842761354
 20
534.3005289688094
 30
0.0
 11
81.48232842761354
 21
362.3005289691716
 31
0.0
  0
LINE
  5
5EF134E5
330
5EF092C1
100
AcDbEntity
  8
JISSEN
100
AcDbLine
 10
104.1940152234119
 20
534.8179813752467
 30
0.0
 11
105.7041829725903
 21
448.3005289688095
 31
0.0
  0
LINE
  5
5EF134E6
330
5EF092C1
100
AcDbEntity
  8
JISSEN
100
AcDbLine
 10
82.98232842761354
 20
535.8005289688094
 30
0.0
 11
82.98232842761263
 21
458.3005289688095
 31
0.0
  0
ARC
  5
5EF134E7
330
5EF092C1
100
AcDbEntity
  8
JISSEN
100
AcDbCircle
 10
191.4823284276126
 20
408.3005289688095
 30
0.0
 40
114.0
100
AcDbArc
 50
120.3269780969925
 51
134.3639892911091
  0
LINE
  5
5EF134E8
330
5EF092C1
100
AcDbEntity
  8
JISSEN
100
AcDbLine
 10
93.48232842761262
 20
457.3005289688095
 30
0.0
 11
93.48232842761262
 21
448.3005289688095
 31
0.0
  0
ARC
  5
5EF134E9
330
5EF092C1
100
AcDbEntity
  8
JISSEN
100
AcDbCircle
 10
109.8932840936477
 20
494.8005289688094
 30
0.0
 40
5.0
100
AcDbArc
 50
181.0000000000021
 51
270.0
  0
LINE
  5
5EF134EA
330
5EF092C1
100
AcDbEntity
  8
JISSEN
100
AcDbLine
 10
109.8932840936477
 20
489.8005289688094
 30
0.0
 11
111.7719150552065
 21
489.8005289688094
 31
0.0
  0
ARC
  5
5EF134EB
330
5EF092C1
100
AcDbEntity
  8
JISSEN
100
AcDbCircle
 10
92.48232842761263
 20
457.3005289688095
 30
0.0
 40
1.0
100
AcDbArc
 50
0.0
 51
90.0
  0
LINE
  5
5EF134EC
330
5EF092C1
100
AcDbEntity
  8
JISSEN
100
AcDbLine
 10
81.48232842761263
 20
458.3005289688095
 30
0.0
 11
92.48232842761263
 21
458.3005289688095
 31
0.0
  0
ARC
  5
5EF134F1
330
5EF092C1
100
AcDbEntity
  8
JISSEN
100
AcDbCircle
 10
103.194167528255
 20
534.8005289688094
 30
0.0
 40
1.0
100
AcDbArc
 50
1.000000000002168
 51
90.0
  0
LINE
  5
5EF134F2
330
5EF092C1
100
AcDbEntity
  8
JISSEN
100
AcDbLine
 10
103.194167528255
 20
535.8005289688094
 30
0.0
 11
82.98232842761354
 21
535.8005289688094
 31
0.0
  0
LINE
  5
5EF134F3
330
5EF092C1
100
AcDbEntity
  8
JISSEN
100
AcDbLine
 10
82.98232842761354
 20
535.8005289688094
 30
0.0
 11
81.48232842761354
 21
534.3005289688094
 31
0.0
  0
LINE
  5
5EF134F4
330
5EF092C1
100
AcDbEntity
  8
JISSEN
100
AcDbLine
 10
301.4823284276126
 20
534.3005289688094
 30
0.0
 11
301.4823284276126
 21
362.3005289691716
 31
0.0
  0
LINE
  5
5EF134F5
330
5EF092C1
100
AcDbEntity
  8
JISSEN
100
AcDbLine
 10
299.9823284276126
 20
535.8005289688094
 30
0.0
 11
299.9823284276128
 21
360.8005289691719
 31
0.0
  0
ARC
  5
5EF134F6
330
5EF092C1
100
AcDbEntity
  8
JISSEN
100
AcDbCircle
 10
191.4823284276126
 20
408.3005289688095
 30
0.0
 40
114.0
100
AcDbArc
 50
45.63601070889087
 51
59.67302190299295
  0
LINE
  5
5EF134F7
330
5EF092C1
100
AcDbEntity
  8
JISSEN
100
AcDbLine
 10
278.7706416318151
 20
534.8179813752467
 30
0.0
 11
277.2604738826396
 21
448.3005289689905
 31
0.0
  0
ARC
  5
5EF134FB
330
5EF092C1
100
AcDbEntity
  8
JISSEN
100
AcDbCircle
 10
273.0713727615784
 20
494.8005289688094
 30
0.0
 40
5.0
100
AcDbArc
 50
270.0
 51
358.9999999999978
  0
LINE
  5
5EF134FC
330
5EF092C1
100
AcDbEntity
  8
JISSEN
100
AcDbLine
 10
273.0713727615784
 20
489.8005289688094
 30
0.0
 11
271.1927418000204
 21
489.8005289688094
 31
0.0
  0
LINE
  5
5EF13502
330
5EF092C1
100
AcDbEntity
  8
JISSEN
100
AcDbLine
 10
279.4823284276126
 20
535.8005289688094
 30
0.0
 11
299.9823284276126
 21
535.8005289688094
 31
0.0
  0
ARC
  5
5EF13504
330
5EF092C1
100
AcDbEntity
  8
JISSEN
100
AcDbCircle
 10
279.770489326971
 20
534.8005289688094
 30
0.0
 40
1.0
100
AcDbArc
 50
90.0
 51
178.9999999999978
  0
LINE
  5
5EF13505
330
5EF092C1
100
AcDbEntity
  8
JISSEN
100
AcDbLine
 10
299.9823284276126
 20
535.8005289688094
 30
0.0
 11
301.4823284276126
 21
534.3005289688094
 31
0.0
  0
LINE
  5
5EF1351F
330
5EF092C1
100
AcDbEntity
  8
JISSEN
100
AcDbLine
 10
299.9823284276126
 20
360.8005289691715
 30
0.0
 11
301.4823284276126
 21
362.3005289691715
 31
0.0
  0
ARC
  5
5EF13520
330
5EF092C1
100
AcDbEntity
  8
JISSEN
100
AcDbCircle
 10
279.770489326971
 20
361.8005289691715
 30
0.0
 40
1.0
100
AcDbArc
 50
181.0000000000021
 51
270.0
  0
LINE
  5
5EF13521
330
5EF092C1
100
AcDbEntity
  8
JISSEN
100
AcDbLine
 10
279.4823284276126
 20
360.8005289691715
 30
0.0
 11
299.9823284276126
 21
360.8005289691715
 31
0.0
  0
LINE
  5
5EF13522
330
5EF092C1
100
AcDbEntity
  8
JISSEN
100
AcDbLine
 10
82.98232842761354
 20
360.8005289691715
 30
0.0
 11
81.48232842761354
 21
362.3005289691715
 31
0.0
  0
LINE
  5
5EF13523
330
5EF092C1
100
AcDbEntity
  8
JISSEN
100
AcDbLine
 10
103.194167528255
 20
360.8005289691715
 30
0.0
 11
82.98232842761354
 21
360.8005289691715
 31
0.0
  0
ARC
  5
5EF13524
330
5EF092C1
100
AcDbEntity
  8
JISSEN
100
AcDbCircle
 10
103.194167528255
 20
361.8005289691715
 30
0.0
 40
1.0
100
AcDbArc
 50
270.0
 51
358.9999999999978
  0
LINE
  5
5EF13525
330
5EF092C1
100
AcDbEntity
  8
JISSEN
100
AcDbLine
 10
278.7706416318151
 20
361.7830765627342
 30
0.0
 11
277.2604738826396
 21
448.3005289689864
 31
0.0
  0
ARC
  5
5EF13527
330
5EF092C1
100
AcDbEntity
  8
JISSEN
100
AcDbCircle
 10
92.48232842761263
 20
439.3005289691715
 30
0.0
 40
1.0
100
AcDbArc
 50
270.0
 51
0.0
  0
LINE
  5
5EF13528
330
5EF092C1
100
AcDbEntity
  8
JISSEN
100
AcDbLine
 10
93.48232842761262
 20
439.3005289691715
 30
0.0
 11
93.48232842761262
 21
448.3005289691715
 31
0.0
  0
LINE
  5
5EF13529
330
5EF092C1
100
AcDbEntity
  8
JISSEN
100
AcDbLine
 10
81.48232842761263
 20
438.3005289691715
 30
0.0
 11
92.48232842761263
 21
438.3005289691715
 31
0.0
  0
LINE
  5
5EF1352A
330
5EF092C1
100
AcDbEntity
  8
JISSEN
100
AcDbLine
 10
82.98232842761354
 20
360.8005289691715
 30
0.0
 11
82.98232842761263
 21
438.3005289691715
 31
0.0
  0
LINE
  5
5EF1352B
330
5EF092C1
100
AcDbEntity
  8
JISSEN
100
AcDbLine
 10
104.1940152234119
 20
361.7830765627342
 30
0.0
 11
105.7041829725903
 21
448.3005289691715
 31
0.0
  0
LINE
  5
5EF1352C
330
5EF092C1
100
AcDbEntity
  8
JISSEN
100
AcDbLine
 10
109.8932840936477
 20
406.8005289691715
 30
0.0
 11
111.7719150552065
 21
406.8005289691715
 31
0.0
  0
ARC
  5
5EF1352D
330
5EF092C1
100
AcDbEntity
  8
JISSEN
100
AcDbCircle
 10
109.8932840936477
 20
401.8005289691715
 30
0.0
 40
5.0
100
AcDbArc
 50
90.00000000000003
 51
178.9999999999978
  0
ARC
  5
5EF1352E
330
5EF092C1
100
AcDbEntity
  8
JISSEN
100
AcDbCircle
 10
191.4823284276126
 20
488.3005289691713
 30
0.0
 40
114.0
100
AcDbArc
 50
225.6360107088908
 51
239.6730219030074
  0
LINE
  5
5EF1352F
330
5EF092C1
100
AcDbEntity
  8
JISSEN
100
AcDbLine
 10
273.0713727615784
 20
406.8005289691715
 30
0.0
 11
271.1927418000204
 21
406.8005289691715
 31
0.0
  0
ARC
  5
5EF13530
330
5EF092C1
100
AcDbEntity
  8
JISSEN
100
AcDbCircle
 10
273.0713727615784
 20
401.8005289691715
 30
0.0
 40
5.0
100
AcDbArc
 50
1.00000000000219
 51
90.00000000000003
  0
ARC
  5
5EF13531
330
5EF092C1
100
AcDbEntity
  8
JISSEN
100
AcDbCircle
 10
191.4823284276126
 20
488.3005289691713
 30
0.0
 40
114.0
100
AcDbArc
 50
300.326978097007
 51
314.363989291109
  0
LINE
  5
5EF13532
330
5EF092C1
100
AcDbEntity
  8
SCALE
100
AcDbLine
 10
109.4823284276148
 20
279.525124797798
 30
0.0
 11
109.4823284276148
 21
264.5251247977985
 31
0.0
  0
ARC
  5
5EF13535
330
5EF092C1
100
AcDbEntity
  8
JISSEN
100
AcDbCircle
 10
110.4823284276148
 20
264.5251247977985
 30
0.0
 40
1.0
100
AcDbArc
 50
180.0
 51
270.0
  0
ARC
  5
5EF13536
330
5EF092C1
100
AcDbEntity
  8
JISSEN
100
AcDbCircle
 10
110.4823284276148
 20
264.5251247977985
 30
0.0
 40
1.0
100
AcDbArc
 50
180.0
 51
270.0
  0
LINE
  5
5EF13537
330
5EF092C1
100
AcDbEntity
  8
SCALE
100
AcDbLine
 10
272.4823284276149
 20
263.5251247977985
 30
0.0
 11
110.4823284276148
 21
263.5251247977985
 31
0.0
  0
LINE
  5
5EF13538
330
5EF092C1
100
AcDbEntity
  8
SCALE
100
AcDbLine
 10
271.9823284276158
 20
281.5251247977989
 30
0.0
 11
111.5126733130114
 21
281.5251247977989
 31
0.0
  0
ARC
  5
5EF13539
330
5EF092C1
100
AcDbEntity
  8
JISSEN
100
AcDbCircle
 10
272.4823284276149
 20
262.5251247977985
 30
0.0
 40
1.0
100
AcDbArc
 50
0.0
 51
90.00000000000003
  0
ARC
  5
5EF1353A
330
5EF092C1
100
AcDbEntity
  8
JISSEN
100
AcDbCircle
 10
272.4823284276149
 20
262.5251247977985
 30
0.0
 40
1.0
100
AcDbArc
 50
0.0
 51
90.00000000000003
  0
ARC
  5
5EF1353B
330
5EF092C1
100
AcDbEntity
  8
JISSEN
100
AcDbCircle
 10
110.4823284276148
 20
262.5251247977985
 30
0.0
 40
1.0
100
AcDbArc
 50
90.00000000000003
 51
180.0
  0
ARC
  5
5EF1353C
330
5EF092C1
100
AcDbEntity
  8
JISSEN
100
AcDbCircle
 10
110.4823284276148
 20
262.5251247977985
 30
0.0
 40
1.0
100
AcDbArc
 50
90.00000000000003
 51
180.0
  0
LINE
  5
5EF1353D
330
5EF092C1
100
AcDbEntity
  8
SCALE
100
AcDbLine
 10
273.4823284276149
 20
262.5251247977985
 30
0.0
 11
273.4823284276139
 21
246.525124797799
 31
0.0
  0
LINE
  5
5EF1353E
330
5EF092C1
100
AcDbEntity
  8
SCALE
100
AcDbLine
 10
109.4823284276148
 20
262.5251247977985
 30
0.0
 11
109.4823284276148
 21
246.5251247979768
 31
0.0
  0
LINE
  5
5EF1353F
330
5EF092C1
100
AcDbEntity
  8
SCALE
100
AcDbLine
 10
272.482328427614
 20
245.5251247977989
 30
0.0
 11
110.4823284276148
 21
245.5251247977985
 31
0.0
  0
LINE
  5
5EF13540
330
5EF092C1
100
AcDbEntity
  8
SCALE
100
AcDbLine
 10
273.4823284276149
 20
299.0251247979768
 30
0.0
 11
273.4823284276149
 21
264.5251247977985
 31
0.0
  0
LINE
  5
5EF13543
330
5EF092C1
100
AcDbEntity
  8
SCALE
100
AcDbLine
 10
273.4823284276133
 20
467.3005289689905
 30
0.0
 11
273.4823284276133
 21
429.3005289689905
 31
0.0
  0
LINE
  5
5EF13544
330
5EF092C1
100
AcDbEntity
  8
SCALE
100
AcDbLine
 10
244.4823284276135
 20
466.3005289689905
 30
0.0
 11
244.4823284276135
 21
430.3005289689905
 31
0.0
  0
LINE
  5
5EF13547
330
5EF092C1
100
AcDbEntity
  8
ITTEN
  6
CENTER
 48
3.0
100
AcDbLine
 10
311.4823284276149
 20
148.5251247977794
 30
0.0
 11
71.4823284276149
 21
148.5251247977794
 31
0.0
  0
CIRCLE
  5
5EF13548
330
5EF092C1
100
AcDbEntity
  8
SAISEN
100
AcDbCircle
 10
191.4823284276135
 20
379.3005289689903
 30
0.0
 40
9.0
  0
LWPOLYLINE
  5
5EF1354A
330
5EF092C1
100
AcDbEntity
  8
SCALE
100
AcDbPolyline
 90
        6
 70
     1
 43
0.0
 10
185.997500870312
 20
388.8005289689903
 10
180.5126733130107
 20
379.3005289689904
 10
185.997500870312
 20
369.8005289689904
 10
196.967155984915
 20
369.8005289689904
 10
202.4519835422163
 20
379.3005289689904
 10
196.967155984915
 20
388.8005289689903
  0
LWPOLYLINE
  5
5EF1354C
330
5EF092C1
100
AcDbEntity
  8
SCALE
100
AcDbPolyline
 90
        6
 70
     1
 43
0.0
 10
196.9671559849152
 20
526.8005289689902
 10
202.4519835422165
 20
517.3005289689903
 10
196.9671559849152
 20
507.8005289689904
 10
185.9975008703121
 20
507.8005289689904
 10
180.5126733130108
 20
517.3005289689903
 10
185.9975008703121
 20
526.8005289689902
  0
CIRCLE
  5
5EF1354D
330
5EF092C1
100
AcDbEntity
  8
SAISEN
100
AcDbCircle
 10
191.4823284276135
 20
517.3005289689902
 30
0.0
 40
9.0
  0
CIRCLE
  5
5EF1354E
330
5EF092C1
100
AcDbEntity
  8
SAISEN
100
AcDbCircle
 10
251.2380812887395
 20
482.8005289689899
 30
0.0
 40
9.0
  0
LWPOLYLINE
  5
5EF1354F
330
5EF092C1
100
AcDbEntity
  8
SCALE
100
AcDbPolyline
 90
        6
 70
     1
 43
0.0
 10
262.2077364033427
 20
482.8005289689899
 10
256.7229088460412
 20
473.3005289689901
 10
245.7532537314382
 20
473.3005289689899
 10
240.2684261741369
 20
482.8005289689899
 10
245.7532537314384
 20
492.3005289689899
 10
256.7229088460412
 20
492.3005289689899
  0
LWPOLYLINE
  5
5EF13550
330
5EF092C1
100
AcDbEntity
  8
SCALE
100
AcDbPolyline
 90
        6
 70
     1
 43
0.0
 10
142.6962306810903
 20
482.8005289689905
 10
137.2114031237888
 20
492.3005289689903
 10
126.2417480091859
 20
492.3005289689905
 10
120.7569204518844
 20
482.8005289689905
 10
126.241748009186
 20
473.3005289689905
 10
137.2114031237888
 20
473.3005289689905
  0
CIRCLE
  5
5EF13551
330
5EF092C1
100
AcDbEntity
  8
SAISEN
100
AcDbCircle
 10
131.7265755664874
 20
482.8005289689902
 30
0.0
 40
9.0
  0
LWPOLYLINE
  5
5EF13552
330
5EF092C1
100
AcDbEntity
  8
SCALE
100
AcDbPolyline
 90
        6
 70
     1
 43
0.0
 10
240.2684261741367
 20
413.8005289689904
 10
245.7532537314382
 20
404.3005289689906
 10
256.7229088460412
 20
404.3005289689904
 10
262.2077364033425
 20
413.8005289689904
 10
256.722908846041
 20
423.3005289689904
 10
245.7532537314382
 20
423.3005289689904
  0
CIRCLE
  5
5EF13553
330
5EF092C1
100
AcDbEntity
  8
SAISEN
100
AcDbCircle
 10
251.2380812887397
 20
413.8005289689906
 30
0.0
 40
9.0
  0
CIRCLE
  5
5EF13554
330
5EF092C1
100
AcDbEntity
  8
SAISEN
100
AcDbCircle
 10
131.7265755664873
 20
413.8005289689907
 30
0.0
 40
9.0
  0
LWPOLYLINE
  5
5EF13555
330
5EF092C1
100
AcDbEntity
  8
SCALE
100
AcDbPolyline
 90
        6
 70
     1
 43
0.0
 10
142.6962306810903
 20
413.8005289689904
 10
137.2114031237888
 20
404.3005289689906
 10
126.241748009186
 20
404.3005289689904
 10
120.7569204518845
 20
413.8005289689904
 10
126.241748009186
 20
423.3005289689904
 10
137.2114031237888
 20
423.3005289689904
  0
LINE
  5
5EF1355A
330
5EF092C1
100
AcDbEntity
  8
SCALE
100
AcDbLine
 10
191.4823284276149
 20
41.91512479777929
 30
0.0
 11
191.4823284276149
 21
53.91512479777929
 31
0.0
  0
LINE
  5
5EF1355C
330
5EF092C1
100
AcDbEntity
  8
SCALE
100
AcDbLine
 10
204.9173572701597
 20
41.91512479777929
 30
0.0
 11
178.0472995850709
 21
41.91512479777929
 31
0.0
  0
LINE
  5
5EF1355E
330
5EF092C1
100
AcDbEntity
  8
ITTEN
  6
CENTER
 48
3.0
100
AcDbLine
 10
191.4823284276149
 20
350.0251247977798
 30
0.0
 11
191.4823284276149
 21
31.9151247977793
 31
0.0
  0
LINE
  5
5EF13560
330
5EF092C1
100
AcDbEntity
  8
ITTEN
  6
CENTER
 48
3.0
100
AcDbLine
 10
474.5653268424753
 20
148.5251247977794
 30
0.0
 11
669.5653268424753
 21
148.5251247977794
 31
0.0
  0
LINE
  5
5EF13562
330
5EF092C1
100
AcDbEntity
  8
ITTEN
  6
CENTER
 48
3.0
100
AcDbLine
 10
572.0653268424753
 20
350.0251247976041
 30
0.0
 11
572.0653268424753
 21
31.91512479760354
 31
0.0
  0
CIRCLE
  5
5EF13563
330
5EF092C1
100
AcDbEntity
  8
ITTEN
  6
CENTER
 48
3.0
100
AcDbCircle
 10
572.0653268424753
 20
148.5251247977794
 30
0.0
 40
69.99999999999928
  0
LINE
  5
5EF13564
330
5EF092C1
100
AcDbEntity
  8
ITTEN
 48
2.0
100
AcDbLine
 10
587.5453268424735
 20
281.525124797622
 30
0.0
 11
556.5853268424734
 21
281.525124797622
 31
0.0
  0
LINE
  5
5EF13565
330
5EF092C1
100
AcDbEntity
  8
SUNPOU
100
AcDbLine
 10
555.0853268424734
 20
281.525124797622
 30
0.0
 11
453.5194182470909
 21
281.525124797622
 31
0.0
  0
LINE
  5
5EF13567
330
5EF092C1
100
AcDbEntity
  8
SUNPOU
100
AcDbLine
 10
455.5194182470911
 20
281.525124797622
 30
0.0
 11
455.5194182470909
 21
148.5251247977786
 31
0.0
  0
INSERT
  5
5EF13568
330
5EF092C1
100
AcDbEntity
  8
SUNPOU
100
AcDbBlockReference
  2
ARROWANG
 10
455.5194182470909
 20
281.525124797622
 30
0.0
 41
3.0
 42
3.0
 43
3.0
 50
90.0
  0
INSERT
  5
5EF13569
330
5EF092C1
100
AcDbEntity
  8
SUNPOU
100
AcDbBlockReference
  2
ARROWANG
 10
455.5194182470909
 20
148.5251247977794
 30
0.0
 41
3.0
 42
3.0
 43
3.0
 50
270.0
  0
MTEXT
  5
5EF1356A
330
5EF092C1
100
AcDbEntity
  8
SUNPOU
100
AcDbMText
 10
450.5194182470908
 20
215.0251247977009
 30
0.0
 40
6.0
 41
0.0
 71
     5
 72
     1
  1
\A1;133
  7
K
 11
0.0000000000000001
 21
1.0
 31
0.0
1001
ACAD
1000
MTEXTBEGIN
1070
    73
1070
     1
1070
    44
1040
1.0
1070
    74
1070
     0
1000
MTEXTEND
  0
LINE
  5
5EF13571
330
5EF092C1
100
AcDbEntity
  8
JISSEN
100
AcDbLine
 10
576.0153268424724
 20
340.0251247977791
 30
0.0
 11
576.0153268424715
 21
328.0251247977789
 31
0.0
  0
LINE
  5
5EF13572
330
5EF092C1
100
AcDbEntity
  8
JISSEN
100
AcDbLine
 10
578.3153268424716
 20
323.5251247977803
 30
0.0
 11
578.3153268424716
 21
325.8600612883192
 31
0.0
  0
LINE
  5
5EF13573
330
5EF092C1
100
AcDbEntity
  8
JISSEN
100
AcDbLine
 10
577.065326842468
 20
328.0251247977789
 30
0.0
 11
578.3153268424698
 21
325.8600612883158
 31
0.0
  0
LINE
  5
5EF13574
330
5EF092C1
100
AcDbEntity
  8
JISSEN
100
AcDbLine
 10
576.0153268424724
 20
340.0251247977791
 30
0.0
 11
568.1153268424745
 21
340.0251247977791
 31
0.0
  0
LINE
  5
5EF13575
330
5EF092C1
100
AcDbEntity
  8
JISSEN
100
AcDbLine
 10
576.0153268424724
 20
339.5251247977792
 30
0.0
 11
568.1153268424745
 21
339.5251247977787
 31
0.0
  0
LINE
  5
5EF13576
330
5EF092C1
100
AcDbEntity
  8
JISSEN
100
AcDbLine
 10
577.065326842468
 20
328.0251247977793
 30
0.0
 11
567.0653268424789
 21
328.0251247977789
 31
0.0
  0
LINE
  5
5EF13577
330
5EF092C1
100
AcDbEntity
  8
JISSEN
100
AcDbLine
 10
578.3153268424682
 20
325.8600612883185
 30
0.0
 11
565.8153268424808
 21
325.8600612883176
 31
0.0
  0
LINE
  5
5EF13578
330
5EF092C1
100
AcDbEntity
  8
JISSEN
100
AcDbLine
 10
567.0653268424789
 20
328.0251247977789
 30
0.0
 11
565.8153268424771
 21
325.8600612883158
 31
0.0
  0
LINE
  5
5EF13579
330
5EF092C1
100
AcDbEntity
  8
JISSEN
100
AcDbLine
 10
565.8153268424753
 20
323.5251247977803
 30
0.0
 11
565.8153268424753
 21
325.8600612883192
 31
0.0
  0
LINE
  5
5EF1357A
330
5EF092C1
100
AcDbEntity
  8
JISSEN
100
AcDbLine
 10
568.1153268424745
 20
340.0251247977791
 30
0.0
 11
568.1153268424755
 21
328.0251247977789
 31
0.0
  0
LINE
  5
5EF1357B
330
5EF092C1
100
AcDbEntity
  8
SUNPOU
100
AcDbLine
 10
566.6153268424745
 20
366.0251247977792
 30
0.0
 11
433.9774385306377
 21
366.0251247977792
 31
0.0
  0
LINE
  5
5EF1357C
330
5EF092C1
100
AcDbEntity
  8
SUNPOU
100
AcDbLine
 10
473.0653268424752
 20
148.5251247977794
 30
0.0
 11
433.9774385306377
 21
148.5251247977794
 31
0.0
  0
LINE
  5
5EF1357D
330
5EF092C1
100
AcDbEntity
  8
SUNPOU
100
AcDbLine
 10
435.9774385306377
 20
366.0251247977792
 30
0.0
 11
435.9774385306377
 21
148.5251247977794
 31
0.0
  0
INSERT
  5
5EF1357E
330
5EF092C1
100
AcDbEntity
  8
SUNPOU
100
AcDbBlockReference
  2
ARROWANG
 10
435.9774385306377
 20
366.0251247977792
 30
0.0
 41
3.0
 42
3.0
 43
3.0
 50
90.0
  0
INSERT
  5
5EF1357F
330
5EF092C1
100
AcDbEntity
  8
SUNPOU
100
AcDbBlockReference
  2
ARROWANG
 10
435.9774385306377
 20
148.5251247977794
 30
0.0
 41
3.0
 42
3.0
 43
3.0
 50
270.0
  0
MTEXT
  5
5EF13580
330
5EF092C1
100
AcDbEntity
  8
SUNPOU
100
AcDbMText
 10
430.9774385306377
 20
257.2751247977795
 30
0.0
 40
6.0
 41
0.0
 71
     5
 72
     1
  1
217.5 (全開時)
  7
K
 11
0.0000000000000001
 21
1.0
 31
0.0
1001
ACAD
1000
MTEXTBEGIN
1070
    73
1070
     1
1070
    44
1040
1.0
1070
    74
1070
     0
1000
MTEXTEND
  0
LINE
  5
5EF13583
330
5EF092C1
100
AcDbEntity
  8
ITTEN
  6
CENTER
 48
3.0
100
AcDbLine
 10
268.4823284276153
 20
218.5251247977794
 30
0.0
 11
311.4823284276149
 21
218.5251247977794
 31
0.0
  0
LINE
  5
5EF13584
330
5EF092C1
100
AcDbEntity
  8
ITTEN
  6
CENTER
 48
3.0
100
AcDbLine
 10
268.4823284276153
 20
78.52512479777942
 30
0.0
 11
311.4823284276149
 21
78.52512479777942
 31
0.0
  0
LINE
  5
5EF13585
330
5EF092C1
100
AcDbEntity
  8
ITTEN
  6
CENTER
 48
3.0
100
AcDbLine
 10
114.4823284276144
 20
218.5251247977794
 30
0.0
 11
71.4823284276149
 21
218.5251247977794
 31
0.0
  0
LINE
  5
5EF13586
330
5EF092C1
100
AcDbEntity
  8
ITTEN
  6
CENTER
 48
3.0
100
AcDbLine
 10
114.4823284276144
 20
78.52512479777942
 30
0.0
 11
71.4823284276149
 21
78.52512479777942
 31
0.0
  0
LINE
  5
5EF13587
330
5EF092C1
100
AcDbEntity
  8
SUNPOU
100
AcDbLine
 10
312.9823284276149
 20
218.5251247977794
 30
0.0
 11
337.6579012785373
 21
218.5251247977794
 31
0.0
  0
LINE
  5
5EF13588
330
5EF092C1
100
AcDbEntity
  8
SUNPOU
100
AcDbLine
 10
312.9823284276149
 20
78.52512479777942
 30
0.0
 11
337.6579012785373
 21
78.52512479777942
 31
0.0
  0
LINE
  5
5EF13589
330
5EF092C1
100
AcDbEntity
  8
SUNPOU
100
AcDbLine
 10
335.6579012785373
 20
218.5251247977794
 30
0.0
 11
335.6579012785373
 21
78.52512479777942
 31
0.0
  0
INSERT
  5
5EF1358A
330
5EF092C1
100
AcDbEntity
  8
SUNPOU
100
AcDbBlockReference
  2
ARROWANG
 10
335.6579012785373
 20
218.5251247977794
 30
0.0
 41
3.0
 42
3.0
 43
3.0
 50
90.0
  0
INSERT
  5
5EF1358B
330
5EF092C1
100
AcDbEntity
  8
SUNPOU
100
AcDbBlockReference
  2
ARROWANG
 10
335.6579012785373
 20
78.52512479777942
 30
0.0
 41
3.0
 42
3.0
 43
3.0
 50
270.0
  0
MTEXT
  5
5EF1358C
330
5EF092C1
100
AcDbEntity
  8
SUNPOU
100
AcDbMText
 10
330.6579012785373
 20
148.5251247977795
 30
0.0
 40
6.0
 41
0.0
 71
     5
 72
     1
  1
\A1;%%c140
  7
K
 11
0.0000000000000001
 21
1.0
 31
0.0
1001
ACAD
1000
MTEXTBEGIN
1070
    73
1070
     1
1070
    44
1040
1.0
1070
    74
1070
     0
1000
MTEXTEND
  0
LINE
  5
5EF1358D
330
5EF092C1
100
AcDbEntity
  8
SUNPOU
100
AcDbLine
 10
301.4823284276149
 20
236.0251247977794
 30
0.0
 11
357.5728870038446
 21
236.0251247977793
 31
0.0
  0
LINE
  5
5EF1358E
330
5EF092C1
100
AcDbEntity
  8
SUNPOU
100
AcDbLine
 10
301.4823284276149
 20
61.02512479777942
 30
0.0
 11
357.5728870038446
 21
61.02512479777942
 31
0.0
  0
LINE
  5
5EF1358F
330
5EF092C1
100
AcDbEntity
  8
SUNPOU
100
AcDbLine
 10
355.5728870038449
 20
236.0251247977793
 30
0.0
 11
355.5728870038446
 21
61.02512479777942
 31
0.0
  0
INSERT
  5
5EF13590
330
5EF092C1
100
AcDbEntity
  8
SUNPOU
100
AcDbBlockReference
  2
ARROWANG
 10
355.5728870038446
 20
236.0251247977793
 30
0.0
 41
3.0
 42
3.0
 43
3.0
 50
90.0
  0
INSERT
  5
5EF13591
330
5EF092C1
100
AcDbEntity
  8
SUNPOU
100
AcDbBlockReference
  2
ARROWANG
 10
355.5728870038446
 20
61.02512479777942
 30
0.0
 41
3.0
 42
3.0
 43
3.0
 50
270.0
  0
MTEXT
  5
5EF13592
330
5EF092C1
100
AcDbEntity
  8
SUNPOU
100
AcDbMText
 10
350.5728870038447
 20
148.5251247977795
 30
0.0
 40
6.0
 41
0.0
 71
     5
 72
     1
  1
\A1;%%c175
  7
K
 11
0.0000000000000001
 21
1.0
 31
0.0
1001
ACAD
1000
MTEXTBEGIN
1070
    73
1070
     1
1070
    44
1040
1.0
1070
    74
1070
     0
1000
MTEXTEND
  0
LINE
  5
5EF13593
330
5EF092C1
100
AcDbEntity
  8
SUNPOU
100
AcDbLine
 10
69.9823284276149
 20
148.5251247977794
 30
0.0
 11
43.26902769645585
 21
148.5251247977794
 31
0.0
  0
LINE
  5
5EF13594
330
5EF092C1
100
AcDbEntity
  8
SUNPOU
100
AcDbLine
 10
185.4823284276167
 20
340.0251247977799
 30
0.0
 11
43.26902769645596
 21
340.0251247977799
 31
0.0
  0
LINE
  5
5EF13595
330
5EF092C1
100
AcDbEntity
  8
SUNPOU
100
AcDbLine
 10
45.26902769645585
 20
148.5251247977794
 30
0.0
 11
45.26902769645596
 21
340.0251247977799
 31
0.0
  0
INSERT
  5
5EF13596
330
5EF092C1
100
AcDbEntity
  8
SUNPOU
100
AcDbBlockReference
  2
ARROWANG
 10
45.26902769645585
 20
148.5251247977794
 30
0.0
 41
3.0
 42
3.0
 43
3.0
 50
270.0
  0
INSERT
  5
5EF13597
330
5EF092C1
100
AcDbEntity
  8
SUNPOU
100
AcDbBlockReference
  2
ARROWANG
 10
45.26902769645596
 20
340.0251247977799
 30
0.0
 41
3.0
 42
3.0
 43
3.0
 50
90.0
  0
MTEXT
  5
5EF13598
330
5EF092C1
100
AcDbEntity
  8
SUNPOU
100
AcDbMText
 10
40.26902769645585
 20
244.2751247977798
 30
0.0
 40
6.0
 41
0.0
 71
     5
 72
     1
  1
191.5 (全閉時)
  7
K
 11
0.0000000000000001
 21
1.0
 31
0.0
1001
ACAD
1000
MTEXTBEGIN
1070
    73
1070
     1
1070
    44
1040
1.0
1070
    74
1070
     0
1000
MTEXTEND
  0
LINE
  5
5EF13599
330
5EF092C1
100
AcDbEntity
  8
ITTEN
  6
CENTER
 48
3.0
100
AcDbLine
 10
311.4823284276135
 20
448.3005289689905
 30
0.0
 11
71.48232842761354
 21
448.3005289689905
 31
0.0
  0
CIRCLE
  5
5EF1359A
330
5EF092C1
100
AcDbEntity
  8
ITTEN
  6
CENTER
 48
3.0
100
AcDbCircle
 10
191.4823284276135
 20
448.3005289689905
 30
0.0
 40
68.99999999999971
  0
LINE
  5
5EF1359B
330
5EF092C1
100
AcDbEntity
  8
SUNPOU
100
AcDbLine
 10
278.4823284276157
 20
60.52512479777942
 30
0.0
 11
278.4823284276157
 21
23.71722951766219
 31
0.0
  0
LINE
  5
5EF1359D
330
5EF092C1
100
AcDbEntity
  8
SUNPOU
100
AcDbLine
 10
278.4823284276157
 20
25.71722951766219
 30
0.0
 11
301.4823284276149
 21
25.71722951766219
 31
0.0
  0
INSERT
  5
5EF1359E
330
5EF092C1
100
AcDbEntity
  8
SUNPOU
100
AcDbBlockReference
  2
ARROWANG
 10
278.4823284276157
 20
25.71722951766219
 30
0.0
 41
3.0
 42
3.0
 43
3.0
 50
180.0
  0
INSERT
  5
5EF1359F
330
5EF092C1
100
AcDbEntity
  8
SUNPOU
100
AcDbBlockReference
  2
ARROWANG
 10
301.4823284276149
 20
25.71722951766219
 30
0.0
 41
3.0
 42
3.0
 43
3.0
  0
MTEXT
  5
5EF135A0
330
5EF092C1
100
AcDbEntity
  8
SUNPOU
100
AcDbMText
 10
289.9823284276153
 20
30.71722951766219
 30
0.0
 40
6.0
 41
0.0
 71
     5
 72
     1
  1
\A1;22
  7
K
1001
ACAD
1000
MTEXTBEGIN
1070
    73
1070
     1
1070
    44
1040
1.0
1070
    74
1070
     0
1000
MTEXTEND
  0
LINE
  5
5EF135A1
330
5EF092C1
100
AcDbEntity
  8
SUNPOU
100
AcDbLine
 10
81.4823284276149
 20
61.02512479777988
 30
0.0
 11
81.4823284276149
 21
10.5
 31
0.0
  0
LINE
  5
5EF135A2
330
5EF092C1
100
AcDbEntity
  8
SUNPOU
100
AcDbLine
 10
301.4823284276149
 20
61.02512479777988
 30
0.0
 11
301.4823284276149
 21
10.5
 31
0.0
  0
LINE
  5
5EF135A3
330
5EF092C1
100
AcDbEntity
  8
SUNPOU
100
AcDbLine
 10
81.4823284276149
 20
12.5
 30
0.0
 11
301.4823284276146
 21
12.5
 31
0.0
  0
INSERT
  5
5EF135A4
330
5EF092C1
100
AcDbEntity
  8
SUNPOU
100
AcDbBlockReference
  2
ARROWANG
 10
81.4823284276149
 20
12.5
 30
0.0
 41
3.0
 42
3.0
 43
3.0
 50
180.0
  0
INSERT
  5
5EF135A5
330
5EF092C1
100
AcDbEntity
  8
SUNPOU
100
AcDbBlockReference
  2
ARROWANG
 10
301.4823284276149
 20
12.5
 30
0.0
 41
3.0
 42
3.0
 43
3.0
  0
MTEXT
  5
5EF135A6
330
5EF092C1
100
AcDbEntity
  8
SUNPOU
100
AcDbMText
 10
191.4823284276149
 20
17.5
 30
0.0
 40
6.0
 41
0.0
 71
     5
 72
     1
  1
\A1;220
  7
K
1001
ACAD
1000
MTEXTBEGIN
1070
    73
1070
     1
1070
    44
1040
1.0
1070
    74
1070
     0
1000
MTEXTEND
  0
ENDSEC
  0
SECTION
  2
OBJECTS
  0
DICTIONARY
  5
5EF092B5
330
0
100
AcDbDictionary
  3
ACAD_GROUP
350
5EF092B6
  3
ACAD_LAYOUT
350
5EF0F402
  3
ACAD_MLINESTYLE
350
5EF092B7
  3
ACAD_PLOTSETTINGS
350
5EF0F403
  3
ACAD_PLOTSTYLENAME
350
5EF0F400
  3
ACDBHEADERROUNDTRIPXREC
350
5EF135B4
  3
ACDBVARIABLEDICTIONARY
350
5EF095CB
  0
DICTIONARY
  5
5EF0FDBF
330
5EF092AB
100
AcDbDictionary
280
     1
  3
ACAD_LAYERSTATES
360
5EF0FDC0
  0
DICTIONARY
  5
5EF0FABC
330
5EF092C1
100
AcDbDictionary
280
     1
  3
ACAD_LAYOUTSELFREF
360
5EF135D6
  0
DICTIONARY
  5
5EF0FABA
330
5EF092BE
100
AcDbDictionary
280
     1
  3
ACAD_LAYOUTSELFREF
360
5EF135D5
  0
DICTIONARY
  5
5EF092B6
102
{ACAD_REACTORS
330
5EF092B5
102
}
330
5EF092B5
100
AcDbDictionary
  0
DICTIONARY
  5
5EF0F402
102
{ACAD_REACTORS
330
5EF092B5
102
}
330
5EF092B5
100
AcDbDictionary
  0
DICTIONARY
  5
5EF092B7
102
{ACAD_REACTORS
330
5EF092B5
102
}
330
5EF092B5
100
AcDbDictionary
  3
STANDARD
350
5EF092C4
  0
DICTIONARY
  5
5EF0F403
102
{ACAD_REACTORS
330
5EF092B5
102
}
330
5EF092B5
100
AcDbDictionary
  0
ACDBDICTIONARYWDFLT
  5
5EF0F400
102
{ACAD_REACTORS
330
5EF092B5
102
}
330
5EF092B5
100
AcDbDictionary
281
     1
  3
Normal
350
5EF0F401
100
AcDbDictionaryWithDefault
340
5EF0F401
  0
DICTIONARY
  5
5EF135B4
102
{ACAD_REACTORS
330
5EF092B5
102
}
330
5EF092B5
100
AcDbDictionary
  3
CEPSNTYPE
350
5EF135BE
  3
DIMSTYLEDATA
350
5EF135C2
  3
FINGERPRINTGUID
350
5EF135BF
  3
HYPERLINKBASE
350
5EF135B7
  3
INSUNITS
350
5EF135BD
  3
LAYOUTDICT
350
5EF135B9
  3
LWETCUNION
350
5EF135BC
  3
PLOTSETDICT
350
5EF135BA
  3
PLOTSTYLNAMDICT
350
5EF135BB
  3
PSVPSCALE
350
5EF135C1
  3
PUCSBASE
350
5EF135C5
  3
PUCSORGBACK
350
5EF135CB
  3
PUCSORGBOTTOM
350
5EF135C7
  3
PUCSORGFRONT
350
5EF135CA
  3
PUCSORGLEFT
350
5EF135C8
  3
PUCSORGRIGHT
350
5EF135C9
  3
PUCSORGTOP
350
5EF135C6
  3
PUCSORTHOREF
350
5EF135C3
  3
PUCSORTHOVIEW
350
5EF135C4
  3
STYLESHEET
350
5EF135B8
  3
TSTACKALIGN
350
5EF135B5
  3
TSTACKSIZE
350
5EF135B6
  3
UCSBASE
350
5EF135CE
  3
UCSORGBACK
350
5EF135D4
  3
UCSORGBOTTOM
350
5EF135D0
  3
UCSORGFRONT
350
5EF135D3
  3
UCSORGLEFT
350
5EF135D1
  3
UCSORGRIGHT
350
5EF135D2
  3
UCSORGTOP
350
5EF135CF
  3
UCSORTHOREF
350
5EF135CC
  3
UCSORTHOVIEW
350
5EF135CD
  3
VERSIONGUID
350
5EF135C0
  0
DICTIONARY
  5
5EF095CB
102
{ACAD_REACTORS
330
5EF092B5
102
}
330
5EF092B5
100
AcDbDictionary
  3
DIMASSOC
350
5EF0FDB2
  3
SORTENTS
350
5EF095CC
  0
DICTIONARY
  5
5EF0FDC0
102
{ACAD_REACTORS
330
5EF0FDBF
102
}
330
5EF0FDBF
100
AcDbDictionary
  0
XRECORD
  5
5EF135D6
102
{ACAD_REACTORS
330
5EF0FABC
102
}
330
5EF0FABC
100
AcDbXrecord
340
5EF092C1
  0
XRECORD
  5
5EF135D5
102
{ACAD_REACTORS
330
5EF0FABA
102
}
330
5EF0FABA
100
AcDbXrecord
340
5EF092BE
  0
MLINESTYLE
  5
5EF092C4
102
{ACAD_REACTORS
330
5EF092B7
102
}
330
5EF092B7
100
AcDbMlineStyle
  2
STANDARD
 70
     0
  3

 62
     0
 51
90.0
 52
90.0
 71
     2
 49
0.5
 62
   256
  6
BYLAYER
 49
-0.5
 62
   256
  6
BYLAYER
  0
ACDBPLACEHOLDER
  5
5EF0F401
102
{ACAD_REACTORS
330
5EF0F400
102
}
330
5EF0F400
100
AcDbPlaceHolder
280
     0
  0
XRECORD
  5
5EF135BE
102
{ACAD_REACTORS
330
5EF135B4
102
}
330
5EF135B4
100
AcDbXrecord
 90
        0
  0
XRECORD
  5
5EF135C2
102
{ACAD_REACTORS
330
5EF135B4
102
}
330
5EF135B4
100
AcDbXrecord
1000
DSTYLE
1002
{
1070
   341
340
5EF092CB
1070
   343
340
5EF092CB
1070
   344
340
5EF092CB
1002
}
  0
XRECORD
  5
5EF135BF
102
{ACAD_REACTORS
330
5EF135B4
102
}
330
5EF135B4
100
AcDbXrecord
  1
{65593C7E-58AB-4548-9DBE-C99EC0C7B61B}
  0
XRECORD
  5
5EF135B7
102
{ACAD_REACTORS
330
5EF135B4
102
}
330
5EF135B4
100
AcDbXrecord
  1

  0
XRECORD
  5
5EF135BD
102
{ACAD_REACTORS
330
5EF135B4
102
}
330
5EF135B4
100
AcDbXrecord
 90
        0
  0
XRECORD
  5
5EF135B9
102
{ACAD_REACTORS
330
5EF135B4
102
}
330
5EF135B4
100
AcDbXrecord
340
5EF0F402
  0
XRECORD
  5
5EF135BC
102
{ACAD_REACTORS
330
5EF135B4
102
}
330
5EF135B4
100
AcDbXrecord
 90
    14877
  0
XRECORD
  5
5EF135BA
102
{ACAD_REACTORS
330
5EF135B4
102
}
330
5EF135B4
100
AcDbXrecord
340
5EF0F403
  0
XRECORD
  5
5EF135BB
102
{ACAD_REACTORS
330
5EF135B4
102
}
330
5EF135B4
100
AcDbXrecord
340
5EF0F400
  0
XRECORD
  5
5EF135C1
102
{ACAD_REACTORS
330
5EF135B4
102
}
330
5EF135B4
100
AcDbXrecord
 40
0.0
  0
XRECORD
  5
5EF135C5
102
{ACAD_REACTORS
330
5EF135B4
102
}
330
5EF135B4
100
AcDbXrecord
340
0
  0
XRECORD
  5
5EF135CB
102
{ACAD_REACTORS
330
5EF135B4
102
}
330
5EF135B4
100
AcDbXrecord
 10
0.0
 20
0.0
 30
0.0
  0
XRECORD
  5
5EF135C7
102
{ACAD_REACTORS
330
5EF135B4
102
}
330
5EF135B4
100
AcDbXrecord
 10
0.0
 20
0.0
 30
0.0
  0
XRECORD
  5
5EF135CA
102
{ACAD_REACTORS
330
5EF135B4
102
}
330
5EF135B4
100
AcDbXrecord
 10
0.0
 20
0.0
 30
0.0
  0
XRECORD
  5
5EF135C8
102
{ACAD_REACTORS
330
5EF135B4
102
}
330
5EF135B4
100
AcDbXrecord
 10
0.0
 20
0.0
 30
0.0
  0
XRECORD
  5
5EF135C9
102
{ACAD_REACTORS
330
5EF135B4
102
}
330
5EF135B4
100
AcDbXrecord
 10
0.0
 20
0.0
 30
0.0
  0
XRECORD
  5
5EF135C6
102
{ACAD_REACTORS
330
5EF135B4
102
}
330
5EF135B4
100
AcDbXrecord
 10
0.0
 20
0.0
 30
0.0
  0
XRECORD
  5
5EF135C3
102
{ACAD_REACTORS
330
5EF135B4
102
}
330
5EF135B4
100
AcDbXrecord
340
0
  0
XRECORD
  5
5EF135C4
102
{ACAD_REACTORS
330
5EF135B4
102
}
330
5EF135B4
100
AcDbXrecord
 70
     0
  0
XRECORD
  5
5EF135B8
102
{ACAD_REACTORS
330
5EF135B4
102
}
330
5EF135B4
100
AcDbXrecord
  1

  0
XRECORD
  5
5EF135B5
102
{ACAD_REACTORS
330
5EF135B4
102
}
330
5EF135B4
100
AcDbXrecord
 90
        1
  0
XRECORD
  5
5EF135B6
102
{ACAD_REACTORS
330
5EF135B4
102
}
330
5EF135B4
100
AcDbXrecord
 90
       70
  0
XRECORD
  5
5EF135CE
102
{ACAD_REACTORS
330
5EF135B4
102
}
330
5EF135B4
100
AcDbXrecord
340
0
  0
XRECORD
  5
5EF135D4
102
{ACAD_REACTORS
330
5EF135B4
102
}
330
5EF135B4
100
AcDbXrecord
 10
0.0
 20
0.0
 30
0.0
  0
XRECORD
  5
5EF135D0
102
{ACAD_REACTORS
330
5EF135B4
102
}
330
5EF135B4
100
AcDbXrecord
 10
0.0
 20
0.0
 30
0.0
  0
XRECORD
  5
5EF135D3
102
{ACAD_REACTORS
330
5EF135B4
102
}
330
5EF135B4
100
AcDbXrecord
 10
0.0
 20
0.0
 30
0.0
  0
XRECORD
  5
5EF135D1
102
{ACAD_REACTORS
330
5EF135B4
102
}
330
5EF135B4
100
AcDbXrecord
 10
0.0
 20
0.0
 30
0.0
  0
XRECORD
  5
5EF135D2
102
{ACAD_REACTORS
330
5EF135B4
102
}
330
5EF135B4
100
AcDbXrecord
 10
0.0
 20
0.0
 30
0.0
  0
XRECORD
  5
5EF135CF
102
{ACAD_REACTORS
330
5EF135B4
102
}
330
5EF135B4
100
AcDbXrecord
 10
0.0
 20
0.0
 30
0.0
  0
XRECORD
  5
5EF135CC
102
{ACAD_REACTORS
330
5EF135B4
102
}
330
5EF135B4
100
AcDbXrecord
340
0
  0
XRECORD
  5
5EF135CD
102
{ACAD_REACTORS
330
5EF135B4
102
}
330
5EF135B4
100
AcDbXrecord
 70
     0
  0
XRECORD
  5
5EF135C0
102
{ACAD_REACTORS
330
5EF135B4
102
}
330
5EF135B4
100
AcDbXrecord
  1
{81884611-C06C-4FD2-A765-8A30C73B5E22}
  0
DICTIONARYVAR
  5
5EF0FDB2
102
{ACAD_REACTORS
330
5EF095CB
102
}
330
5EF095CB
100
DictionaryVariables
280
     0
  1
0
  0
DICTIONARYVAR
  5
5EF095CC
102
{ACAD_REACTORS
330
5EF095CB
102
}
330
5EF095CB
100
DictionaryVariables
280
     0
  1
96
  0
ENDSEC
  0
EOF
