  0
SECTION
  2
HEADER
  9
$ACADVER
  1
AC1014
  9
$ACADMAINTVER
 70
     9
  9
$DWGCODEPAGE
  3
ANSI_932
  9
$INSBASE
 10
0.0
 20
0.0
 30
0.0
  9
$EXTMIN
 10
0.0
 20
0.0
 30
0.0
  9
$EXTMAX
 10
780.0
 20
546.0
 30
1440.312462297261
  9
$LIMMIN
 10
0.0
 20
0.0
  9
$LIMMAX
 10
780.0
 20
546.0
  9
$ORTHOMODE
 70
     1
  9
$REGENMODE
 70
     1
  9
$FILLMODE
 70
     1
  9
$QTEXTMODE
 70
     0
  9
$MIRRTEXT
 70
     0
  9
$DRAGMODE
 70
     2
  9
$LTSCALE
 40
5.0
  9
$OSMODE
 70
   167
  9
$ATTMODE
 70
     1
  9
$TEXTSIZE
 40
3.0
  9
$TRACEWID
 40
0.05
  9
$TEXTSTYLE
  7
K
  9
$CLAYER
  8
SCALE
  9
$CELTYPE
  6
BYLAYER
  9
$CECOLOR
 62
   256
  9
$CELTSCALE
 40
1.0
  9
$DELOBJ
 70
     1
  9
$DISPSILH
 70
     0
  9
$DIMSCALE
 40
2.0
  9
$DIMASZ
 40
1.5
  9
$DIMEXO
 40
0.75
  9
$DIMDLI
 40
6.0
  9
$DIMRND
 40
0.0
  9
$DIMDLE
 40
0.0
  9
$DIMEXE
 40
1.0
  9
$DIMTP
 40
495.0
  9
$DIMTM
 40
0.0
  9
$DIMTXT
 40
3.0
  9
$DIMCEN
 40
0.0
  9
$DIMTSZ
 40
0.0
  9
$DIMTOL
 70
     0
  9
$DIMLIM
 70
     0
  9
$DIMTIH
 70
     0
  9
$DIMTOH
 70
     0
  9
$DIMSE1
 70
     0
  9
$DIMSE2
 70
     0
  9
$DIMTAD
 70
     3
  9
$DIMZIN
 70
     8
  9
$DIMBLK
  1

  9
$DIMASO
 70
     0
  9
$DIMSHO
 70
     0
  9
$DIMPOST
  1

  9
$DIMAPOST
  1

  9
$DIMALT
 70
     0
  9
$DIMALTD
 70
     2
  9
$DIMALTF
 40
25.4
  9
$DIMLFAC
 40
1.0
  9
$DIMTOFL
 70
     1
  9
$DIMTVP
 40
0.0
  9
$DIMTIX
 70
     1
  9
$DIMSOXD
 70
     0
  9
$DIMSAH
 70
     1
  9
$DIMBLK1
  1
ARROWANG
  9
$DIMBLK2
  1
ARROWANG
  9
$DIMSTYLE
  2
IMAO
  9
$DIMCLRD
 70
   256
  9
$DIMCLRE
 70
   256
  9
$DIMCLRT
 70
   256
  9
$DIMTFAC
 40
1.0
  9
$DIMGAP
 40
1.0
  9
$DIMJUST
 70
     0
  9
$DIMSD1
 70
     0
  9
$DIMSD2
 70
     0
  9
$DIMTOLJ
 70
     1
  9
$DIMTZIN
 70
     0
  9
$DIMALTZ
 70
     0
  9
$DIMALTTZ
 70
     0
  9
$DIMFIT
 70
     3
  9
$DIMUPT
 70
     0
  9
$DIMUNIT
 70
     2
  9
$DIMDEC
 70
     2
  9
$DIMTDEC
 70
     2
  9
$DIMALTU
 70
     2
  9
$DIMALTTD
 70
     2
  9
$DIMTXSTY
  7
K
  9
$DIMAUNIT
 70
     0
  9
$LUNITS
 70
     2
  9
$LUPREC
 70
     2
  9
$SKETCHINC
 40
0.1
  9
$FILLETRAD
 40
3.0
  9
$AUNITS
 70
     0
  9
$AUPREC
 70
     2
  9
$MENU
  1
STDR12J
  9
$ELEVATION
 40
0.0
  9
$PELEVATION
 40
0.0
  9
$THICKNESS
 40
0.0
  9
$LIMCHECK
 70
     0
  9
$BLIPMODE
 70
     0
  9
$CHAMFERA
 40
0.0
  9
$CHAMFERB
 40
0.0
  9
$CHAMFERC
 40
0.0
  9
$CHAMFERD
 40
0.0
  9
$SKPOLY
 70
     0
  9
$TDCREATE
 40
2450694.736564815
  9
$TDUPDATE
 40
2453833.470171319
  9
$TDINDWG
 40
0.2309572917
  9
$TDUSRTIMER
 40
0.2309572917
  9
$USRTIMER
 70
     1
  9
$ANGBASE
 50
0.0
  9
$ANGDIR
 70
     0
  9
$PDMODE
 70
     0
  9
$PDSIZE
 40
0.0
  9
$PLINEWID
 40
0.0
  9
$COORDS
 70
     2
  9
$SPLFRAME
 70
     0
  9
$SPLINETYPE
 70
     6
  9
$SPLINESEGS
 70
     8
  9
$ATTDIA
 70
     0
  9
$ATTREQ
 70
     1
  9
$HANDLING
 70
 22529
  9
$HANDSEED
  5
5EF11948
  9
$SURFTAB1
 70
     6
  9
$SURFTAB2
 70
     6
  9
$SURFTYPE
 70
     6
  9
$SURFU
 70
     6
  9
$SURFV
 70
     6
  9
$UCSNAME
  2

  9
$UCSORG
 10
0.0
 20
0.0
 30
0.0
  9
$UCSXDIR
 10
1.0
 20
0.0
 30
0.0
  9
$UCSYDIR
 10
0.0
 20
1.0
 30
0.0
  9
$PUCSNAME
  2

  9
$PUCSORG
 10
0.0
 20
0.0
 30
0.0
  9
$PUCSXDIR
 10
1.0
 20
0.0
 30
0.0
  9
$PUCSYDIR
 10
0.0
 20
1.0
 30
0.0
  9
$USERI1
 70
     3
  9
$USERI2
 70
     1
  9
$USERI3
 70
     1
  9
$USERI4
 70
     1
  9
$USERI5
 70
     1
  9
$USERR1
 40
1.0
  9
$USERR2
 40
3.0
  9
$USERR3
 40
3.0
  9
$USERR4
 40
1.5
  9
$USERR5
 40
10.0
  9
$WORLDVIEW
 70
     1
  9
$SHADEDGE
 70
     3
  9
$SHADEDIF
 70
    70
  9
$TILEMODE
 70
     1
  9
$MAXACTVP
 70
    16
  9
$PINSBASE
 10
0.0
 20
0.0
 30
0.0
  9
$PLIMCHECK
 70
     0
  9
$PEXTMIN
 10
1.000000000000000E+20
 20
1.000000000000000E+20
 30
1.000000000000000E+20
  9
$PEXTMAX
 10
-1.000000000000000E+20
 20
-1.000000000000000E+20
 30
-1.000000000000000E+20
  9
$PLIMMIN
 10
0.0
 20
0.0
  9
$PLIMMAX
 10
12.0
 20
9.0
  9
$UNITMODE
 70
     0
  9
$VISRETAIN
 70
     0
  9
$PLINEGEN
 70
     0
  9
$PSLTSCALE
 70
     0
  9
$TREEDEPTH
 70
     0
  9
$PICKSTYLE
 70
     1
  9
$CMLSTYLE
  2
STANDARD
  9
$CMLJUST
 70
     0
  9
$CMLSCALE
 40
1.0
  9
$PROXYGRAPHICS
 70
     1
  9
$MEASUREMENT
 70
     0
  0
ENDSEC
  0
SECTION
  2
CLASSES
  0
CLASS
  1
LWPOLYLINE
  2
AcDbPolyline
  3
AutoCAD 2000
 90
        0
280
     0
281
     1
  0
CLASS
  1
HATCH
  2
AcDbHatch
  3
AutoCAD 2000
 90
        0
280
     0
281
     1
  0
CLASS
  1
DICTIONARYVAR
  2
AcDbDictionaryVar
  3
AutoCAD 2000
 90
        0
280
     0
281
     0
  0
CLASS
  1
ACDBDICTIONARYWDFLT
  2
AcDbDictionaryWithDefault
  3
AutoCAD 2000
 90
        0
280
     0
281
     0
  0
CLASS
  1
ACDBPLACEHOLDER
  2
AcDbPlaceHolder
  3
AutoCAD 2000
 90
        0
280
     0
281
     0
  0
CLASS
  1
LAYOUT
  2
AcDbLayout
  3
AutoCAD 2000
 90
        0
280
     0
281
     0
  0
CLASS
  1
LONG_TRANSACTION
  2
AcDbLongTransaction
  3
AutoCAD 2000
 90
        0
280
     0
281
     0
  0
CLASS
  1
LWPOLYLINE
  2
AcDbPolyline
  3
AutoCAD 2000
 90
        0
280
     0
281
     1
  0
CLASS
  1
HATCH
  2
AcDbHatch
  3
AutoCAD 2000
 90
        0
280
     0
281
     1
  0
CLASS
  1
XRECORD
  2
AcDbXrecord
  3
AutoCAD 2000
 90
        0
280
     0
281
     0
  0
CLASS
  1
LONG_TRANSACTION
  2
AcDbLongTransaction
  3
AutoCAD 2000
 90
        0
280
     0
281
     0
  0
CLASS
  1
LWPOLYLINE
  2
AcDbPolyline
  3
AutoCAD 2000
 90
        0
280
     0
281
     1
  0
CLASS
  1
HATCH
  2
AcDbHatch
  3
AutoCAD 2000
 90
        0
280
     0
281
     1
  0
CLASS
  1
XRECORD
  2
AcDbXrecord
  3
AutoCAD 2000
 90
        0
280
     0
281
     0
  0
CLASS
  1
LONG_TRANSACTION
  2
AcDbLongTransaction
  3
AutoCAD 2000
 90
        0
280
     0
281
     0
  0
CLASS
  1
LWPOLYLINE
  2
AcDbPolyline
  3
AutoCAD 2000
 90
        0
280
     0
281
     1
  0
CLASS
  1
HATCH
  2
AcDbHatch
  3
AutoCAD 2000
 90
        0
280
     0
281
     1
  0
CLASS
  1
XRECORD
  2
AcDbXrecord
  3
AutoCAD 2000
 90
        0
280
     0
281
     0
  0
CLASS
  1
LONG_TRANSACTION
  2
AcDbLongTransaction
  3
AutoCAD 2000
 90
        0
280
     0
281
     0
  0
CLASS
  1
LWPOLYLINE
  2
AcDbPolyline
  3
AutoCAD 2000
 90
        0
280
     0
281
     1
  0
CLASS
  1
HATCH
  2
AcDbHatch
  3
AutoCAD 2000
 90
        0
280
     0
281
     1
  0
CLASS
  1
XRECORD
  2
AcDbXrecord
  3
AutoCAD 2000
 90
        0
280
     0
281
     0
  0
CLASS
  1
LONG_TRANSACTION
  2
AcDbLongTransaction
  3
AutoCAD 2000
 90
        0
280
     0
281
     0
  0
CLASS
  1
LWPOLYLINE
  2
AcDbPolyline
  3
AutoCAD 2000
 90
        0
280
     0
281
     1
  0
CLASS
  1
HATCH
  2
AcDbHatch
  3
AutoCAD 2000
 90
        0
280
     0
281
     1
  0
CLASS
  1
XRECORD
  2
AcDbXrecord
  3
AutoCAD 2000
 90
        0
280
     0
281
     0
  0
CLASS
  1
LONG_TRANSACTION
  2
AcDbLongTransaction
  3
AutoCAD 2000
 90
        0
280
     0
281
     0
  0
CLASS
  1
LWPOLYLINE
  2
AcDbPolyline
  3
AutoCAD 2000
 90
        0
280
     0
281
     1
  0
CLASS
  1
HATCH
  2
AcDbHatch
  3
AutoCAD 2000
 90
        0
280
     0
281
     1
  0
CLASS
  1
XRECORD
  2
AcDbXrecord
  3
AutoCAD 2000
 90
        0
280
     0
281
     0
  0
CLASS
  1
LONG_TRANSACTION
  2
AcDbLongTransaction
  3
AutoCAD 2000
 90
        0
280
     0
281
     0
  0
CLASS
  1
LWPOLYLINE
  2
AcDbPolyline
  3
AutoCAD 2000
 90
        0
280
     0
281
     1
  0
CLASS
  1
HATCH
  2
AcDbHatch
  3
AutoCAD 2000
 90
        0
280
     0
281
     1
  0
CLASS
  1
XRECORD
  2
AcDbXrecord
  3
AutoCAD 2000
 90
        0
280
     0
281
     0
  0
CLASS
  1
LONG_TRANSACTION
  2
AcDbLongTransaction
  3
AutoCAD 2000
 90
        0
280
     0
281
     0
  0
CLASS
  1
LWPOLYLINE
  2
AcDbPolyline
  3
AutoCAD 2000
 90
        0
280
     0
281
     1
  0
CLASS
  1
HATCH
  2
AcDbHatch
  3
AutoCAD 2000
 90
        0
280
     0
281
     1
  0
CLASS
  1
XRECORD
  2
AcDbXrecord
  3
AutoCAD 2000
 90
        0
280
     0
281
     0
  0
CLASS
  1
LONG_TRANSACTION
  2
AcDbLongTransaction
  3
AutoCAD 2000
 90
        0
280
     0
281
     0
  0
CLASS
  1
LWPOLYLINE
  2
AcDbPolyline
  3
AutoCAD 2000
 90
        0
280
     0
281
     1
  0
CLASS
  1
HATCH
  2
AcDbHatch
  3
AutoCAD 2000
 90
        0
280
     0
281
     1
  0
CLASS
  1
XRECORD
  2
AcDbXrecord
  3
AutoCAD 2000
 90
        0
280
     0
281
     0
  0
ENDSEC
  0
SECTION
  2
TABLES
  0
TABLE
  2
VPORT
  5
5EF092B1
330
0
100
AcDbSymbolTable
 70
    10
  0
VPORT
  5
5EF092D4
330
5EF092B1
100
AcDbSymbolTableRecord
100
AcDbViewportTableRecord
  2
2
 70
     0
 10
0.5
 20
0.0
 11
1.0
 21
1.0
 12
0.9240312421264802
 22
1.052650975462766
 13
0.0
 23
0.0
 14
1.0
 24
1.0
 15
10.0
 25
10.0
 16
0.0
 26
0.0
 36
1.0
 17
0.0
 27
0.0
 37
0.0
 40
2.105301950925533
 41
0.8778135048231511
 42
50.0
 43
0.0
 44
0.0
 50
0.0
 51
0.0
 71
     0
 72
   500
 73
     1
 74
     1
 75
     0
 76
     0
 77
     0
 78
     0
  0
VPORT
  5
5EF092D5
330
5EF092B1
100
AcDbSymbolTableRecord
100
AcDbViewportTableRecord
  2
2
 70
     0
 10
0.0
 20
0.0
 11
0.5
 21
1.0
 12
0.9240312421264802
 22
1.052650975462766
 13
0.0
 23
0.0
 14
1.0
 24
1.0
 15
10.0
 25
10.0
 16
0.0
 26
0.0
 36
1.0
 17
0.0
 27
0.0
 37
0.0
 40
2.105301950925533
 41
0.8778135048231511
 42
50.0
 43
0.0
 44
0.0
 50
0.0
 51
0.0
 71
     0
 72
   500
 73
     1
 74
     1
 75
     0
 76
     0
 77
     0
 78
     0
  0
VPORT
  5
5EF092D6
330
5EF092B1
100
AcDbSymbolTableRecord
100
AcDbViewportTableRecord
  2
3
 70
     0
 10
0.0
 20
0.5
 11
1.0
 21
1.0
 12
2.832169994473273
 22
1.052650975462766
 13
0.0
 23
0.0
 14
1.0
 24
1.0
 15
10.0
 25
10.0
 16
0.0
 26
0.0
 36
1.0
 17
0.0
 27
0.0
 37
0.0
 40
2.105301950925533
 41
3.571428571428571
 42
50.0
 43
0.0
 44
0.0
 50
0.0
 51
0.0
 71
     0
 72
   500
 73
     1
 74
     1
 75
     0
 76
     0
 77
     0
 78
     0
  0
VPORT
  5
5EF092D7
330
5EF092B1
100
AcDbSymbolTableRecord
100
AcDbViewportTableRecord
  2
3
 70
     0
 10
0.0
 20
0.0
 11
1.0
 21
0.5
 12
2.856741679241311
 22
1.052650975462766
 13
0.0
 23
0.0
 14
1.0
 24
1.0
 15
10.0
 25
10.0
 16
0.0
 26
0.0
 36
1.0
 17
0.0
 27
0.0
 37
0.0
 40
2.105301950925533
 41
3.594771241830065
 42
50.0
 43
0.0
 44
0.0
 50
0.0
 51
0.0
 71
     0
 72
   500
 73
     1
 74
     1
 75
     0
 76
     0
 77
     0
 78
     0
  0
VPORT
  5
5EF092D8
330
5EF092B1
100
AcDbSymbolTableRecord
100
AcDbViewportTableRecord
  2
4
 70
     0
 10
0.5
 20
0.0
 11
1.0
 21
0.5
 12
2.886857516709719
 22
1.052650975462766
 13
0.0
 23
0.0
 14
1.0
 24
1.0
 15
10.0
 25
10.0
 16
0.0
 26
0.0
 36
1.0
 17
0.0
 27
0.0
 37
0.0
 40
4.27520703030907
 41
1.784313725490195
 42
50.0
 43
0.0
 44
0.0
 50
0.0
 51
0.0
 71
     0
 72
   500
 73
     1
 74
     1
 75
     0
 76
     0
 77
     0
 78
     0
  0
VPORT
  5
5EF092D9
330
5EF092B1
100
AcDbSymbolTableRecord
100
AcDbViewportTableRecord
  2
4
 70
     0
 10
0.5
 20
0.5
 11
1.0
 21
1.0
 12
2.862090274555523
 22
1.052650975462766
 13
0.0
 23
0.0
 14
1.0
 24
1.0
 15
10.0
 25
10.0
 16
0.0
 26
0.0
 36
1.0
 17
0.0
 27
0.0
 37
0.0
 40
4.27520703030907
 41
1.772727272727272
 42
50.0
 43
0.0
 44
0.0
 50
0.0
 51
0.0
 71
     0
 72
   500
 73
     1
 74
     1
 75
     0
 76
     0
 77
     0
 78
     0
  0
VPORT
  5
5EF092DA
330
5EF092B1
100
AcDbSymbolTableRecord
100
AcDbViewportTableRecord
  2
4
 70
     0
 10
0.0
 20
0.5
 11
0.5
 21
1.0
 12
2.862090274555523
 22
1.052650975462766
 13
0.0
 23
0.0
 14
1.0
 24
1.0
 15
10.0
 25
10.0
 16
0.0
 26
0.0
 36
1.0
 17
0.0
 27
0.0
 37
0.0
 40
4.27520703030907
 41
1.772727272727272
 42
50.0
 43
0.0
 44
0.0
 50
0.0
 51
0.0
 71
     0
 72
   500
 73
     1
 74
     1
 75
     0
 76
     0
 77
     0
 78
     0
  0
VPORT
  5
5EF092DB
330
5EF092B1
100
AcDbSymbolTableRecord
100
AcDbViewportTableRecord
  2
4
 70
     0
 10
0.0
 20
0.0
 11
0.5
 21
0.5
 12
2.886857516709719
 22
1.052650975462766
 13
0.0
 23
0.0
 14
1.0
 24
1.0
 15
10.0
 25
10.0
 16
0.0
 26
0.0
 36
1.0
 17
0.0
 27
0.0
 37
0.0
 40
4.27520703030907
 41
1.784313725490195
 42
50.0
 43
0.0
 44
0.0
 50
0.0
 51
0.0
 71
     0
 72
   500
 73
     1
 74
     1
 75
     0
 76
     0
 77
     0
 78
     0
  0
VPORT
  5
5EF11924
330
5EF092B1
100
AcDbSymbolTableRecord
100
AcDbViewportTableRecord
  2
*ACTIVE
 70
     0
 10
0.0
 20
0.0
 11
1.0
 21
1.0
 12
483.4390739722166
 22
273.0163890778105
 13
0.0
 23
0.0
 14
1.0
 24
1.0
 15
10.0
 25
10.0
 16
0.0
 26
0.0
 36
1.0
 17
0.0
 27
0.0
 37
0.0
 40
549.8039720248451
 41
1.764444444444444
 42
50.0
 43
0.0
 44
0.0
 50
0.0
 51
0.0
 71
     0
 72
   500
 73
     1
 74
     0
 75
     0
 76
     0
 77
     0
 78
     0
  0
ENDTAB
  0
TABLE
  2
LTYPE
  5
5EF092AE
330
0
100
AcDbSymbolTable
 70
     3
  0
LTYPE
  5
5EF092BB
330
5EF092AE
100
AcDbSymbolTableRecord
100
AcDbLinetypeTableRecord
  2
BYBLOCK
 70
     0
  3

 72
    65
 73
     0
 40
0.0
  0
LTYPE
  5
5EF092BC
330
5EF092AE
100
AcDbSymbolTableRecord
100
AcDbLinetypeTableRecord
  2
BYLAYER
 70
     0
  3

 72
    65
 73
     0
 40
0.0
  0
LTYPE
  5
5EF092BD
330
5EF092AE
100
AcDbSymbolTableRecord
100
AcDbLinetypeTableRecord
  2
CONTINUOUS
 70
     0
  3
実線
 72
    65
 73
     0
 40
0.0
  0
LTYPE
  5
5EF092D1
330
5EF092AE
100
AcDbSymbolTableRecord
100
AcDbLinetypeTableRecord
  2
CENTER
 70
     0
  3
____ _ ____ _ ____ _ ____ _ ____ _ ____ _ ____
 72
    65
 73
     4
 40
2.0
 49
1.25
 74
     0
 49
-0.25
 74
     0
 49
0.25
 74
     0
 49
-0.25
 74
     0
  0
LTYPE
  5
5EF1017A
330
5EF092AE
100
AcDbSymbolTableRecord
100
AcDbLinetypeTableRecord
  2
PHANTOM
 70
     0
  3
_____ _ _ _____ _ _ _____ _ _ _____ _ _ ____
 72
    65
 73
     6
 40
2.5
 49
1.25
 74
     0
 49
-0.25
 74
     0
 49
0.25
 74
     0
 49
-0.25
 74
     0
 49
0.25
 74
     0
 49
-0.25
 74
     0
  0
ENDTAB
  0
TABLE
  2
LAYER
  5
5EF092AB
102
{ACAD_XDICTIONARY
360
5EF0FDBF
102
}
330
0
100
AcDbSymbolTable
 70
     9
  0
LAYER
  5
5EF092B8
330
5EF092AB
100
AcDbSymbolTableRecord
100
AcDbLayerTableRecord
  2
0
 70
     0
 62
     7
  6
CONTINUOUS
  0
LAYER
  5
5EF092E0
330
5EF092AB
100
AcDbSymbolTableRecord
100
AcDbLayerTableRecord
  2
ITTEN
 70
     0
 62
     1
  6
CENTER
  0
LAYER
  5
5EF092E3
330
5EF092AB
100
AcDbSymbolTableRecord
100
AcDbLayerTableRecord
  2
SUNPOU
 70
     0
 62
     3
  6
CONTINUOUS
  0
LAYER
  5
5EF092E5
330
5EF092AB
100
AcDbSymbolTableRecord
100
AcDbLayerTableRecord
  2
SAISEN
 70
     0
 62
     4
  6
CONTINUOUS
  0
LAYER
  5
5EF092E6
330
5EF092AB
100
AcDbSymbolTableRecord
100
AcDbLayerTableRecord
  2
JISSEN
 70
     0
 62
     7
  6
CONTINUOUS
  0
LAYER
  5
5EF092EA
330
5EF092AB
100
AcDbSymbolTableRecord
100
AcDbLayerTableRecord
  2
WAKU
 70
     0
 62
     5
  6
CONTINUOUS
  0
LAYER
  5
5EF092FD
330
5EF092AB
100
AcDbSymbolTableRecord
100
AcDbLayerTableRecord
  2
SCALE
 70
     0
 62
     7
  6
CONTINUOUS
  0
LAYER
  5
5EF0FDBD
330
5EF092AB
100
AcDbSymbolTableRecord
100
AcDbLayerTableRecord
  2
HATCH
 70
     0
 62
     4
  6
CONTINUOUS
  0
LAYER
  5
5EF1017C
330
5EF092AB
100
AcDbSymbolTableRecord
100
AcDbLayerTableRecord
  2
NITEN
 70
     0
 62
     2
  6
PHANTOM
  0
ENDTAB
  0
TABLE
  2
STYLE
  5
5EF092AC
330
0
100
AcDbSymbolTable
 70
     2
  0
STYLE
  5
5EF092B9
330
5EF092AC
100
AcDbSymbolTableRecord
100
AcDbTextStyleTableRecord
  2
STANDARD
 70
     0
 40
0.0
 41
1.0
 50
0.0
 71
     0
 42
0.2
  3
ROMANS
  4
EXTFONT
  0
STYLE
  5
5EF092CF
330
5EF092AC
100
AcDbSymbolTableRecord
100
AcDbTextStyleTableRecord
  2
K
 70
     0
 40
0.0
 41
1.0
 50
0.0
 71
     0
 42
3.0
  3
ROMANS
  4
EXTFONT
  0
ENDTAB
  0
TABLE
  2
VIEW
  5
5EF092AF
330
0
100
AcDbSymbolTable
 70
     0
  0
ENDTAB
  0
TABLE
  2
UCS
  5
5EF092B0
330
0
100
AcDbSymbolTable
 70
     0
  0
ENDTAB
  0
TABLE
  2
APPID
  5
5EF092B2
330
0
100
AcDbSymbolTable
 70
     1
  0
APPID
  5
5EF092BA
330
5EF092B2
100
AcDbSymbolTableRecord
100
AcDbRegAppTableRecord
  2
ACAD
 70
     0
  0
ENDTAB
  0
TABLE
  2
DIMSTYLE
  5
5EF092B3
330
0
100
AcDbSymbolTable
 70
     1
  0
DIMSTYLE
105
5EF092DE
330
5EF092B3
100
AcDbSymbolTableRecord
100
AcDbDimStyleTableRecord
  2
IMAO
 70
     0
  3

  4

  5
ARROWANG
  6
ARROWANG
  7
ARROWANG
 40
1.0
 41
1.5
 42
0.75
 43
6.0
 44
1.0
 45
0.0
 46
0.0
 47
495.0
 48
0.0
140
3.0
141
0.0
142
0.0
143
25.4
144
1.0
145
0.0
146
1.0
147
1.0
 71
     0
 72
     0
 73
     0
 74
     0
 75
     0
 76
     0
 77
     3
 78
     8
170
     0
171
     2
172
     1
173
     1
174
     1
175
     0
176
   256
177
   256
178
   256
270
     2
271
     2
272
     2
273
     2
274
     2
340
5EF092CF
275
     0
280
     0
281
     0
282
     0
283
     1
284
     0
285
     0
286
     0
287
     3
288
     0
  0
ENDTAB
  0
TABLE
  2
BLOCK_RECORD
  5
5EF092AA
330
0
100
AcDbSymbolTable
 70
     1
  0
BLOCK_RECORD
  5
5EF092C1
102
{ACAD_XDICTIONARY
360
5EF0FABC
102
}
330
5EF092AA
100
AcDbSymbolTableRecord
100
AcDbBlockTableRecord
  2
*MODEL_SPACE
  0
BLOCK_RECORD
  5
5EF092BE
102
{ACAD_XDICTIONARY
360
5EF0FABA
102
}
330
5EF092AA
100
AcDbSymbolTableRecord
100
AcDbBlockTableRecord
  2
*PAPER_SPACE
  0
BLOCK_RECORD
  5
5EF092CB
330
5EF092AA
100
AcDbSymbolTableRecord
100
AcDbBlockTableRecord
  2
ARROWANG
  0
ENDTAB
  0
ENDSEC
  0
SECTION
  2
BLOCKS
  0
BLOCK
  5
5EF092EF
330
5EF092C1
100
AcDbEntity
  8
0
100
AcDbBlockBegin
  2
*MODEL_SPACE
 70
     0
 10
0.0
 20
0.0
 30
0.0
  3
*MODEL_SPACE
  1

  0
ENDBLK
  5
5EF092F0
330
5EF092C1
100
AcDbEntity
  8
0
100
AcDbBlockEnd
  0
BLOCK
  5
5EF092ED
330
5EF092BE
100
AcDbEntity
 67
     1
  8
0
100
AcDbBlockBegin
  2
*PAPER_SPACE
 70
     0
 10
0.0
 20
0.0
 30
0.0
  3
*PAPER_SPACE
  1

  0
ENDBLK
  5
5EF092EE
330
5EF092BE
100
AcDbEntity
 67
     1
  8
0
100
AcDbBlockEnd
  0
BLOCK
  5
1D
330
5EF092CB
100
AcDbEntity
  8
0
100
AcDbBlockBegin
  2
ARROWANG
 70
     0
 10
0.0
 20
0.0
 30
0.0
  3
ARROWANG
  1

  0
LINE
  5
1E
330
5EF092CB
100
AcDbEntity
  8
SUNPOU
100
AcDbLine
 10
0.0
 20
0.0
 30
0.0
 11
-1.499999999999957
 21
0.4019237886467409
 31
0.0
  0
LINE
  5
1F
330
5EF092CB
100
AcDbEntity
  8
SUNPOU
100
AcDbLine
 10
0.0
 20
0.0
 30
0.0
 11
-1.500000000000028
 21
-0.4019237886467124
 31
0.0
  0
ENDBLK
  5
20
330
5EF092CB
100
AcDbEntity
  8
0
100
AcDbBlockEnd
  0
ENDSEC
  0
SECTION
  2
ENTITIES
  0
TEXT
  5
2D6D6C92
330
5EF092C1
100
AcDbEntity
  8
JISSEN
100
AcDbText
 10
349.9540407660656
 20
1.542807100332489
 30
0.0
 40
3.5
  1

  7
K
100
AcDbText
  0
LWPOLYLINE
  5
5EF0A015
330
5EF092C1
100
AcDbEntity
  8
WAKU
100
AcDbPolyline
 90
        4
 70
     1
 43
0.0
 10
0.0
 20
0.0
 10
780.0
 20
0.0
 10
780.0
 20
546.0
 10
0.0
 20
546.0
  0
CIRCLE
  5
5EF0F99E
330
5EF092C1
100
AcDbEntity
  8
ITTEN
  6
CENTER
 48
3.0
100
AcDbCircle
 10
569.6758193939579
 20
148.9908391819303
 30
0.0
 40
60.0
  0
LINE
  5
5EF0F9A4
330
5EF092C1
100
AcDbEntity
  8
ITTEN
 48
2.0
100
AcDbLine
 10
518.4105777579333
 20
200.256080817955
 30
0.0
 11
536.088247287597
 21
182.5784112882913
 31
0.0
  0
LINE
  5
5EF0F9A5
330
5EF092C1
100
AcDbEntity
  8
ITTEN
 48
2.0
100
AcDbLine
 10
603.263391500319
 20
115.4032670755693
 30
0.0
 11
620.9410610299827
 21
97.72559754590567
 31
0.0
  0
LINE
  5
5EF0F9A6
330
5EF092C1
100
AcDbEntity
  8
ITTEN
 48
2.0
100
AcDbLine
 10
518.4105777579333
 20
97.72559754590567
 30
0.0
 11
536.088247287597
 21
115.4032670755693
 31
0.0
  0
LINE
  5
5EF0F9A7
330
5EF092C1
100
AcDbEntity
  8
ITTEN
 48
2.0
100
AcDbLine
 10
603.263391500319
 20
182.5784112882913
 30
0.0
 11
620.9410610299827
 21
200.256080817955
 31
0.0
  0
LINE
  5
5EF0F9ED
330
5EF092C1
100
AcDbEntity
  8
ITTEN
  6
CENTER
 48
3.0
100
AcDbLine
 10
569.6758193939579
 20
324.9908391819303
 30
0.0
 11
569.6758193939579
 21
53.28083918193039
 31
0.0
  0
LINE
  5
5EF0F9EF
330
5EF092C1
100
AcDbEntity
  8
ITTEN
  6
CENTER
 48
3.0
100
AcDbLine
 10
487.175819393958
 20
148.9908391819303
 30
0.0
 11
652.175819393958
 21
148.9908391819303
 31
0.0
  0
LINE
  5
5EF0F9F0
330
5EF092C1
100
AcDbEntity
  8
ITTEN
 48
2.0
100
AcDbLine
 10
585.1558193939597
 20
257.9908391819303
 30
0.0
 11
554.1958193939596
 21
257.9908391819303
 31
0.0
  0
LINE
  5
5EF0FA52
330
5EF092C1
100
AcDbEntity
  8
ITTEN
  6
CENTER
 48
3.0
100
AcDbLine
 10
323.5667006966632
 20
208.9908391819303
 30
0.0
 11
293.5667006966632
 21
208.9908391819303
 31
0.0
  0
LINE
  5
5EF0FA53
330
5EF092C1
100
AcDbEntity
  8
ITTEN
  6
CENTER
 48
3.0
100
AcDbLine
 10
323.5667006966632
 20
88.99083918193037
 30
0.0
 11
293.5667006966632
 21
88.99083918193037
 31
0.0
  0
LINE
  5
5EF0FA54
330
5EF092C1
100
AcDbEntity
  8
ITTEN
  6
CENTER
 48
3.0
100
AcDbLine
 10
153.5667006966633
 20
88.99083918193037
 30
0.0
 11
123.5667006966633
 21
88.99083918193037
 31
0.0
  0
LINE
  5
5EF0FA55
330
5EF092C1
100
AcDbEntity
  8
ITTEN
  6
CENTER
 48
3.0
100
AcDbLine
 10
153.5667006966633
 20
208.9908391819303
 30
0.0
 11
123.5667006966633
 21
208.9908391819303
 31
0.0
  0
LINE
  5
5EF0FA5A
330
5EF092C1
100
AcDbEntity
  8
SUNPOU
100
AcDbLine
 10
325.0667006966632
 20
208.9908391819303
 30
0.0
 11
354.4834473362298
 21
208.9908391819303
 31
0.0
  0
LINE
  5
5EF0FA5B
330
5EF092C1
100
AcDbEntity
  8
SUNPOU
100
AcDbLine
 10
325.0667006966632
 20
88.99083918193037
 30
0.0
 11
354.4834473362298
 21
88.99083918193037
 31
0.0
  0
LINE
  5
5EF0FA5C
330
5EF092C1
100
AcDbEntity
  8
SUNPOU
100
AcDbLine
 10
352.4834473362298
 20
208.9908391819303
 30
0.0
 11
352.4834473362298
 21
88.99083918193037
 31
0.0
  0
INSERT
  5
5EF0FA5D
330
5EF092C1
100
AcDbEntity
  8
SCALE
100
AcDbBlockReference
  2
ARROWANG
 10
352.4834473362298
 20
208.9908391819303
 30
0.0
 41
3.0
 42
3.0
 43
3.0
 50
90.0
  0
INSERT
  5
5EF0FA5E
330
5EF092C1
100
AcDbEntity
  8
SCALE
100
AcDbBlockReference
  2
ARROWANG
 10
352.4834473362298
 20
88.99083918193037
 30
0.0
 41
3.0
 42
3.0
 43
3.0
 50
270.0
  0
MTEXT
  5
5EF0FA5F
330
5EF092C1
100
AcDbEntity
  8
SUNPOU
100
AcDbMText
 10
347.4834473362297
 20
148.9908391819304
 30
0.0
 40
6.0
 41
0.0
 71
     5
 72
     1
  1
\A1;%%c120
  7
K
 11
0.0000000000000001
 21
1.0
 31
0.0
1001
ACAD
1000
MTEXTBEGIN
1070
    73
1070
     1
1070
    44
1040
1.0
1070
    74
1070
     0
1000
MTEXTEND
  0
LINE
  5
5EF0FA60
330
5EF092C1
100
AcDbEntity
  8
SUNPOU
100
AcDbLine
 10
318.5667006966633
 20
226.4908391819303
 30
0.0
 11
373.3505711279681
 21
226.4908391819303
 31
0.0
  0
LINE
  5
5EF0FA61
330
5EF092C1
100
AcDbEntity
  8
SUNPOU
100
AcDbLine
 10
318.5667006966633
 20
71.49083918193037
 30
0.0
 11
373.3505711279681
 21
71.49083918193037
 31
0.0
  0
LINE
  5
5EF0FA62
330
5EF092C1
100
AcDbEntity
  8
SUNPOU
100
AcDbLine
 10
371.3505711279681
 20
226.4908391819303
 30
0.0
 11
371.3505711279681
 21
71.49083918193037
 31
0.0
  0
INSERT
  5
5EF0FA63
330
5EF092C1
100
AcDbEntity
  8
SUNPOU
100
AcDbBlockReference
  2
ARROWANG
 10
371.3505711279681
 20
226.4908391819303
 30
0.0
 41
3.0
 42
3.0
 43
3.0
 50
90.0
  0
INSERT
  5
5EF0FA64
330
5EF092C1
100
AcDbEntity
  8
SUNPOU
100
AcDbBlockReference
  2
ARROWANG
 10
371.3505711279681
 20
71.49083918193037
 30
0.0
 41
3.0
 42
3.0
 43
3.0
 50
270.0
  0
MTEXT
  5
5EF0FA65
330
5EF092C1
100
AcDbEntity
  8
SUNPOU
100
AcDbMText
 10
366.3505711279681
 20
148.9908391819303
 30
0.0
 40
6.0
 41
0.0
 71
     5
 72
     1
  1
\A1;%%c155
  7
K
 11
0.0000000000000001
 21
1.0
 31
0.0
1001
ACAD
1000
MTEXTBEGIN
1070
    73
1070
     1
1070
    44
1040
1.0
1070
    74
1070
     0
1000
MTEXTEND
  0
MTEXT
  5
5EF0FA66
330
5EF092C1
100
AcDbEntity
  8
SUNPOU
100
AcDbMText
 10
308.5667006966633
 20
45.97873373962374
 30
0.0
 40
6.0
 41
0.0
 71
     5
 72
     1
  1
\A1;20
  7
K
1001
ACAD
1000
MTEXTBEGIN
1070
    73
1070
     1
1070
    44
1040
1.0
1070
    74
1070
     0
1000
MTEXTEND
  0
INSERT
  5
5EF0FA67
330
5EF092C1
100
AcDbEntity
  8
SUNPOU
100
AcDbBlockReference
  2
ARROWANG
 10
318.5667006966633
 20
40.97873373962374
 30
0.0
 41
3.0
 42
3.0
 43
3.0
  0
INSERT
  5
5EF0FA68
330
5EF092C1
100
AcDbEntity
  8
SUNPOU
100
AcDbBlockReference
  2
ARROWANG
 10
298.5667006966633
 20
40.97873373962374
 30
0.0
 41
3.0
 42
3.0
 43
3.0
 50
180.0
  0
LINE
  5
5EF0FA69
330
5EF092C1
100
AcDbEntity
  8
SUNPOU
100
AcDbLine
 10
298.5667006966633
 20
40.97873373962374
 30
0.0
 11
318.5667006966633
 21
40.97873373962374
 31
0.0
  0
LINE
  5
5EF0FA6A
330
5EF092C1
100
AcDbEntity
  8
SUNPOU
100
AcDbLine
 10
298.5667006966633
 20
70.99083918193037
 30
0.0
 11
298.5667006966633
 21
38.97873373962374
 31
0.0
  0
LINE
  5
5EF0FA6B
330
5EF092C1
100
AcDbEntity
  8
SUNPOU
100
AcDbLine
 10
128.5667006966633
 20
71.49083918193037
 30
0.0
 11
128.5667006966633
 21
23.78437849167471
 31
0.0
  0
LINE
  5
5EF0FA6C
330
5EF092C1
100
AcDbEntity
  8
SUNPOU
100
AcDbLine
 10
318.5667006966633
 20
71.49083918193037
 30
0.0
 11
318.5667006966633
 21
23.78437849167471
 31
0.0
  0
LINE
  5
5EF0FA6D
330
5EF092C1
100
AcDbEntity
  8
SUNPOU
100
AcDbLine
 10
128.5667006966633
 20
25.78437849167471
 30
0.0
 11
318.5667006966633
 21
25.78437849167471
 31
0.0
  0
INSERT
  5
5EF0FA6E
330
5EF092C1
100
AcDbEntity
  8
SUNPOU
100
AcDbBlockReference
  2
ARROWANG
 10
128.5667006966633
 20
25.78437849167471
 30
0.0
 41
3.0
 42
3.0
 43
3.0
 50
180.0
  0
INSERT
  5
5EF0FA6F
330
5EF092C1
100
AcDbEntity
  8
SUNPOU
100
AcDbBlockReference
  2
ARROWANG
 10
318.5667006966633
 20
25.78437849167471
 30
0.0
 41
3.0
 42
3.0
 43
3.0
  0
MTEXT
  5
5EF0FA70
330
5EF092C1
100
AcDbEntity
  8
SUNPOU
100
AcDbMText
 10
223.5667006966633
 20
30.78437849167471
 30
0.0
 40
6.0
 41
0.0
 71
     5
 72
     1
  1
\A1;190
  7
K
1001
ACAD
1000
MTEXTBEGIN
1070
    73
1070
     1
1070
    44
1040
1.0
1070
    74
1070
     0
1000
MTEXTEND
  0
LINE
  5
5EF0FA72
330
5EF092C1
100
AcDbEntity
  8
SUNPOU
100
AcDbLine
 10
539.6658616690764
 20
118.9808814570488
 30
0.0
 11
498.7126031391652
 21
78.02762292713762
 31
0.0
  0
LINE
  5
5EF0FA73
330
5EF092C1
100
AcDbEntity
  8
SUNPOU
100
AcDbLine
 10
538.2095676311568
 20
117.524587419129
 30
0.0
 11
542.4522083182763
 21
121.7672281062483
 31
0.0
  0
INSERT
  5
5EF0FA74
330
5EF092C1
100
AcDbEntity
  8
SUNPOU
100
AcDbBlockReference
  2
ARROWANG
 10
533.9669269440377
 20
113.2819467320098
 30
0.0
 41
6.0
 42
6.0
 43
6.0
 50
225.0
  0
INSERT
  5
5EF0FA75
330
5EF092C1
100
AcDbEntity
  8
SUNPOU
100
AcDbBlockReference
  2
ARROWANG
 10
520.5318981014933
 20
99.84691788946546
 30
0.0
 41
6.0
 42
6.0
 43
6.0
 50
45.0
  0
LINE
  5
5EF0FA76
330
5EF092C1
100
AcDbEntity
  8
SUNPOU
100
AcDbLine
 10
498.7126031391652
 20
78.02762292713762
 30
0.0
 11
465.6559944703039
 21
78.02762292713762
 31
0.0
  0
TEXT
  5
5EF0FA77
330
5EF092C1
100
AcDbEntity
  8
SUNPOU
100
AcDbText
 10
466.2990493601263
 20
78.83273524117263
 30
0.0
 40
6.0
  1
4-%%c19
  7
K
100
AcDbText
  0
LINE
  5
5EF0FA78
330
5EF092C1
100
AcDbEntity
  8
SUNPOU
100
AcDbLine
 10
611.5624855037639
 20
299.6570183605751
 30
0.0
 11
577.1939538889281
 21
265.2884867457391
 31
0.0
  0
MTEXT
  5
5EF0FA79
330
5EF092C1
100
AcDbEntity
  8
SUNPOU
100
AcDbMText
 10
632.6647724079511
 20
304.8886410031137
 30
0.0
 40
6.0
 41
0.0
 71
     5
 72
     1
  1
Rc 1/2
  7
K
1001
ACAD
1000
MTEXTBEGIN
1070
    73
1070
     1
1070
    44
1040
1.0
1070
    74
1070
     0
1000
MTEXTEND
  0
LINE
  5
5EF0FA7A
330
5EF092C1
100
AcDbEntity
  8
SUNPOU
100
AcDbLine
 10
611.5624855037639
 20
299.6570183605751
 30
0.0
 11
649.8933438365224
 21
299.6570183605752
 31
0.0
  0
INSERT
  5
5EF0FA7B
330
5EF092C1
100
AcDbEntity
  8
SUNPOU
100
AcDbBlockReference
  2
ARROWANG
 10
577.1939538889281
 20
265.2884867457391
 30
0.0
 41
6.0
 42
6.0
 43
6.0
 50
225.0
  0
LINE
  5
5EF0FA7C
330
5EF092C1
100
AcDbEntity
  8
SUNPOU
100
AcDbLine
 10
552.6958193939597
 20
257.9908391819303
 30
0.0
 11
466.678957331323
 21
257.9908391819303
 31
0.0
  0
LINE
  5
5EF0FA7E
330
5EF092C1
100
AcDbEntity
  8
SUNPOU
100
AcDbLine
 10
468.6789573313229
 20
257.9908391819303
 30
0.0
 11
468.6789573313229
 21
148.9908391819299
 31
0.0
  0
INSERT
  5
5EF0FA7F
330
5EF092C1
100
AcDbEntity
  8
SUNPOU
100
AcDbBlockReference
  2
ARROWANG
 10
468.6789573313229
 20
257.9908391819303
 30
0.0
 41
3.0
 42
3.0
 43
3.0
 50
90.0
  0
INSERT
  5
5EF0FA80
330
5EF092C1
100
AcDbEntity
  8
SUNPOU
100
AcDbBlockReference
  2
ARROWANG
 10
468.6789573313229
 20
148.9908391819303
 30
0.0
 41
3.0
 42
3.0
 43
3.0
 50
270.0
  0
MTEXT
  5
5EF0FA81
330
5EF092C1
100
AcDbEntity
  8
SUNPOU
100
AcDbMText
 10
463.6789573313229
 20
203.4908391819304
 30
0.0
 40
6.0
 41
0.0
 71
     5
 72
     1
  1
\A1;109
  7
K
 11
0.0000000000000001
 21
1.0
 31
0.0
1001
ACAD
1000
MTEXTBEGIN
1070
    73
1070
     1
1070
    44
1040
1.0
1070
    74
1070
     0
1000
MTEXTEND
  0
MTEXT
  5
5EF0FA88
330
5EF092C1
100
AcDbEntity
  8
SUNPOU
100
AcDbMText
 10
443.6191725402213
 20
228.4908391819296
 30
0.0
 40
6.0
 41
0.0
 71
     5
 72
     1
  1
159 (全開時)
  7
K
 11
0.0000000000000001
 21
1.0
 31
0.0
1001
ACAD
1000
MTEXTBEGIN
1070
    73
1070
     1
1070
    44
1040
1.0
1070
    74
1070
     0
1000
MTEXTEND
  0
MTEXT
  5
5EF0FADB
330
5EF092C1
100
AcDbEntity
  8
SUNPOU
100
AcDbMText
 10
97.97884592840956
 20
217.9908391819368
 30
0.0
 40
6.0
 41
0.0
 71
     5
 72
     1
  1
141 (全閉時)
  7
K
 11
0.0000000000000001
 21
1.0
 31
0.0
1001
ACAD
1000
MTEXTBEGIN
1070
    73
1070
     1
1070
    44
1040
1.0
1070
    74
1070
     0
1000
MTEXTEND
  0
TEXT
  5
5EF0FB6F
330
5EF092C1
100
AcDbEntity
  8
SUNPOU
100
AcDbText
 10
678.6006182813224
 20
7.614403698276305
 30
0.0
 40
6.0
  1
A3 用紙、印刷尺度：1/2
  7
K
100
AcDbText
  0
TEXT
  5
5EF0FB74
330
5EF092C1
100
AcDbEntity
  8
SUNPOU
100
AcDbText
 10
678.6006182813224
 20
17.6144036982763
 30
0.0
 40
6.0
  1
一斉開放弁 UDV50 外観図
  7
K
100
AcDbText
  0
LINE
  5
5EF0FBF3
330
5EF092C1
100
AcDbEntity
  8
JISSEN
100
AcDbLine
 10
318.5667017826633
 20
358.0667747598058
 30
0.0
 11
318.5667017826633
 21
434.1242370637081
 31
0.0
  0
LINE
  5
5EF0FBF4
330
5EF092C1
100
AcDbEntity
  8
JISSEN
100
AcDbLine
 10
297.0667017826633
 20
357.5667747598058
 30
0.0
 11
297.0667017826633
 21
434.1242370637081
 31
0.0
  0
LINE
  5
5EF0FBF6
330
5EF092C1
100
AcDbEntity
  8
JISSEN
100
AcDbLine
 10
150.0667017826633
 20
357.5667747598058
 30
0.0
 11
150.0667017826633
 21
430.8757533433985
 31
0.0
  0
LINE
  5
5EF0FBF7
330
5EF092C1
100
AcDbEntity
  8
JISSEN
100
AcDbLine
 10
128.5667017826633
 20
358.0667747598058
 30
0.0
 11
128.5667017826633
 21
434.1242370637081
 31
0.0
  0
ARC
  5
5EF0FBF8
330
5EF092C1
100
AcDbEntity
  8
JISSEN
100
AcDbCircle
 10
223.5667017826633
 20
434.1242370637081
 30
0.0
 40
71.5
100
AcDbArc
 50
180.0
 51
344.589412455975
  0
LINE
  5
5EF0FBF9
330
5EF092C1
100
AcDbEntity
  8
JISSEN
100
AcDbLine
 10
148.5667017826633
 20
356.5667747598058
 30
0.0
 11
130.0667017826633
 21
356.5667747598058
 31
0.0
  0
LINE
  5
5EF0FBFA
330
5EF092C1
100
AcDbEntity
  8
JISSEN
100
AcDbLine
 10
130.0667017826633
 20
356.5667747598058
 30
0.0
 11
130.0667017826633
 21
356.5667747598058
 31
0.0
  0
LINE
  5
5EF0FBFB
330
5EF092C1
100
AcDbEntity
  8
JISSEN
100
AcDbLine
 10
130.0667017826633
 20
356.5667747598058
 30
0.0
 11
128.5667017826633
 21
358.0667747598058
 31
0.0
  0
ARC
  5
5EF0FBFC
330
5EF092C1
100
AcDbEntity
  8
JISSEN
100
AcDbCircle
 10
149.0667017826633
 20
357.5667747598058
 30
0.0
 40
1.0
100
AcDbArc
 50
270.0
 51
0.0
  0
LINE
  5
5EF0FBFD
330
5EF092C1
100
AcDbEntity
  8
JISSEN
100
AcDbLine
 10
298.5667017826633
 20
356.5667747598058
 30
0.0
 11
317.0667017826633
 21
356.5667747598058
 31
0.0
  0
ARC
  5
5EF0FBFE
330
5EF092C1
100
AcDbEntity
  8
JISSEN
100
AcDbCircle
 10
298.0667017826633
 20
357.5667747598058
 30
0.0
 40
1.0
100
AcDbArc
 50
180.0
 51
270.0
  0
LINE
  5
5EF0FBFF
330
5EF092C1
100
AcDbEntity
  8
JISSEN
100
AcDbLine
 10
317.0667017826633
 20
356.5667747598058
 30
0.0
 11
318.5667017826633
 21
358.0667747598058
 31
0.0
  0
LINE
  5
5EF0FC00
330
5EF092C1
100
AcDbEntity
  8
JISSEN
100
AcDbLine
 10
317.0667017826632
 20
356.5667747598058
 30
0.0
 11
317.0667017826632
 21
356.5667747598058
 31
0.0
  0
LINE
  5
5EF0FC02
330
5EF092C1
100
AcDbEntity
  8
JISSEN
100
AcDbLine
 10
129.5667017826633
 20
424.124237063708
 30
0.0
 11
140.0667017826633
 21
424.124237063708
 31
0.0
  0
ARC
  5
5EF0FC03
330
5EF092C1
100
AcDbEntity
  8
JISSEN
100
AcDbCircle
 10
146.0667017826633
 20
426.6242370637081
 30
0.0
 40
5.0
100
AcDbArc
 50
90.0
 51
180.0
  0
LINE
  5
5EF0FC04
330
5EF092C1
100
AcDbEntity
  8
JISSEN
100
AcDbLine
 10
148.5667017826633
 20
511.6816993676104
 30
0.0
 11
130.0667017826633
 21
511.6816993676104
 31
0.0
  0
ARC
  5
5EF0FC06
330
5EF092C1
100
AcDbEntity
  8
JISSEN
100
AcDbCircle
 10
146.0667017826633
 20
441.6242370637081
 30
0.0
 40
5.0
100
AcDbArc
 50
180.0
 51
270.0
  0
LINE
  5
5EF0FC07
330
5EF092C1
100
AcDbEntity
  8
JISSEN
100
AcDbLine
 10
129.5667017826633
 20
444.124237063708
 30
0.0
 11
140.0667017826633
 21
444.124237063708
 31
0.0
  0
LINE
  5
5EF0FC09
330
5EF092C1
100
AcDbEntity
  8
JISSEN
100
AcDbLine
 10
128.5667017826633
 20
510.1816993676104
 30
0.0
 11
128.5667017826633
 21
434.1242370637081
 31
0.0
  0
ARC
  5
5EF0FC0A
330
5EF092C1
100
AcDbEntity
  8
JISSEN
100
AcDbCircle
 10
129.5667017826633
 20
425.1242370637081
 30
0.0
 40
1.0
100
AcDbArc
 50
180.0
 51
270.0
  0
ARC
  5
5EF0FC0B
330
5EF092C1
100
AcDbEntity
  8
JISSEN
100
AcDbCircle
 10
129.5667017826633
 20
443.1242370637081
 30
0.0
 40
1.0
100
AcDbArc
 50
90.0
 51
180.0
  0
LINE
  5
5EF0FC0C
330
5EF092C1
100
AcDbEntity
  8
JISSEN
100
AcDbLine
 10
130.0667017826633
 20
511.6816993676104
 30
0.0
 11
128.5667017826633
 21
510.1816993676104
 31
0.0
  0
LINE
  5
5EF0FC0D
330
5EF092C1
100
AcDbEntity
  8
JISSEN
100
AcDbLine
 10
130.0667017826633
 20
511.6816993676104
 30
0.0
 11
130.0667017826633
 21
511.6816993676104
 31
0.0
  0
ARC
  5
5EF0FC0E
330
5EF092C1
100
AcDbEntity
  8
JISSEN
100
AcDbCircle
 10
223.5667017826633
 20
484.124237063708
 30
0.0
 40
107.0
100
AcDbArc
 50
304.3237649528626
 51
308.3694645522041
  0
LINE
  5
5EF0FC0F
330
5EF092C1
100
AcDbEntity
  8
JISSEN
100
AcDbLine
 10
267.0667017826633
 20
415.124237063708
 30
0.0
 11
293.0667017826633
 21
415.124237063708
 31
0.0
  0
LINE
  5
5EF0FC10
330
5EF092C1
100
AcDbEntity
  8
JISSEN
100
AcDbLine
 10
267.0667017826633
 20
453.124237063708
 30
0.0
 11
293.0667017826633
 21
453.124237063708
 31
0.0
  0
ARC
  5
5EF0FC11
330
5EF092C1
100
AcDbEntity
  8
JISSEN
100
AcDbCircle
 10
223.5667017826633
 20
384.1242370637081
 30
0.0
 40
107.0
100
AcDbArc
 50
51.63053544779587
 51
55.67623504713736
  0
ARC
  5
5EF0FC12
330
5EF092C1
100
AcDbEntity
  8
JISSEN
100
AcDbCircle
 10
223.5667017826633
 20
434.1242370637081
 30
0.0
 40
71.5
100
AcDbArc
 50
15.41058754402501
 51
180.0
  0
LINE
  5
5EF0FC14
330
5EF092C1
100
AcDbEntity
  8
JISSEN
100
AcDbLine
 10
150.0667017826633
 20
510.6816993676104
 30
0.0
 11
150.0667017826633
 21
437.3727207840176
 31
0.0
  0
CIRCLE
  5
5EF0FC1A
330
5EF092C1
100
AcDbEntity
  8
SAISEN
100
AcDbCircle
 10
182.5545084738434
 20
475.1364303725279
 30
0.0
 40
9.0
  0
LWPOLYLINE
  5
5EF0FC1B
330
5EF092C1
100
AcDbEntity
  8
JISSEN
100
AcDbPolyline
 90
        6
 70
     1
 43
0.0
 10
190.311225992657
 20
482.8931478913412
 10
179.715352811978
 20
485.7323035532068
 10
171.9586352931646
 20
477.9755860343934
 10
174.7977909550302
 20
467.3797128537144
 10
185.393664135709
 20
464.5405571918489
 10
193.1503816545224
 20
472.2972747106624
  0
CIRCLE
  5
5EF0FC1C
330
5EF092C1
100
AcDbEntity
  8
SAISEN
100
AcDbCircle
 10
264.578895091483
 20
475.1364303725279
 30
0.0
 40
9.0
  0
LWPOLYLINE
  5
5EF0FC1D
330
5EF092C1
100
AcDbEntity
  8
JISSEN
100
AcDbPolyline
 90
        6
 70
     1
 43
0.0
 10
275.1747682721619
 20
477.9755860343934
 10
267.4180507533485
 20
485.7323035532068
 10
256.8221775726696
 20
482.8931478913412
 10
253.9830219108041
 20
472.2972747106623
 10
261.7397394296175
 20
464.5405571918489
 10
272.3356126102963
 20
467.3797128537144
  0
ARC
  5
5EF0FC1F
330
5EF092C1
100
AcDbEntity
  8
JISSEN
100
AcDbCircle
 10
223.5667017826633
 20
434.1242370637081
 30
0.0
 40
15.0
100
AcDbArc
 50
180.0
 51
0.0
  0
ARC
  5
5EF0FC20
330
5EF092C1
100
AcDbEntity
  8
JISSEN
100
AcDbCircle
 10
223.5667017826633
 20
434.1242370637081
 30
0.0
 40
15.0
100
AcDbArc
 50
0.0
 51
180.0
  0
ARC
  5
5EF0FC21
330
5EF092C1
100
AcDbEntity
  8
JISSEN
100
AcDbCircle
 10
140.0667017826633
 20
425.1242370637081
 30
0.0
 40
1.0
100
AcDbArc
 50
270.0
 51
0.0
  0
LWPOLYLINE
  5
5EF0FC24
330
5EF092C1
100
AcDbEntity
  8
JISSEN
100
AcDbPolyline
 90
        6
 70
     1
 43
0.0
 10
190.311225992657
 20
385.3553262360749
 10
179.715352811978
 20
382.5161705742093
 10
171.9586352931646
 20
390.2728880930228
 10
174.7977909550302
 20
400.8687612737016
 10
185.393664135709
 20
403.7079169355672
 10
193.1503816545224
 20
395.9511994167538
  0
CIRCLE
  5
5EF0FC26
330
5EF092C1
100
AcDbEntity
  8
SAISEN
100
AcDbCircle
 10
182.5545084738434
 20
393.1120437548883
 30
0.0
 40
9.0
  0
ARC
  5
5EF0FC27
330
5EF092C1
100
AcDbEntity
  8
JISSEN
100
AcDbCircle
 10
153.0667017826633
 20
398.3135061609282
 30
0.0
 40
3.0
100
AcDbArc
 50
90.0
 51
180.0
  0
ARC
  5
5EF0FC28
330
5EF092C1
100
AcDbEntity
  8
JISSEN
100
AcDbCircle
 10
223.5667017826633
 20
484.124237063708
 30
0.0
 40
107.0
100
AcDbArc
 50
231.6305354477958
 51
235.6762350471373
  0
LINE
  5
5EF0FC29
330
5EF092C1
100
AcDbEntity
  8
JISSEN
100
AcDbLine
 10
154.0449387273466
 20
401.3135061609283
 30
0.0
 11
153.0667017826633
 21
401.3135061609283
 31
0.0
  0
ARC
  5
5EF0FC2A
330
5EF092C1
100
AcDbEntity
  8
JISSEN
100
AcDbCircle
 10
154.0449387273466
 20
396.3135061609282
 30
0.0
 40
5.0
100
AcDbArc
 50
51.63053544779587
 51
90.0
  0
ARC
  5
5EF0FC2B
330
5EF092C1
100
AcDbEntity
  8
JISSEN
100
AcDbCircle
 10
147.4352365399662
 20
441.6242370637081
 30
0.0
 40
5.0
100
AcDbArc
 50
270.0
 51
354.3737290538929
  0
ARC
  5
5EF0FC2C
330
5EF092C1
100
AcDbEntity
  8
JISSEN
100
AcDbCircle
 10
147.4352365399662
 20
426.6242370637081
 30
0.0
 40
5.0
100
AcDbArc
 50
5.626270946107005
 51
90.0
  0
LINE
  5
5EF0FC2D
330
5EF092C1
100
AcDbEntity
  8
JISSEN
100
AcDbLine
 10
141.0667017826633
 20
425.1242370637081
 30
0.0
 11
141.0667017826633
 21
426.6242370637081
 31
0.0
  0
LINE
  5
5EF0FC2E
330
5EF092C1
100
AcDbEntity
  8
JISSEN
100
AcDbLine
 10
147.4352365399662
 20
431.624237063708
 30
0.0
 11
146.0667017826633
 21
431.624237063708
 31
0.0
  0
LINE
  5
5EF0FC2F
330
5EF092C1
100
AcDbEntity
  8
JISSEN
100
AcDbLine
 10
147.4352365399662
 20
436.624237063708
 30
0.0
 11
146.0667017826633
 21
436.624237063708
 31
0.0
  0
LINE
  5
5EF0FC30
330
5EF092C1
100
AcDbEntity
  8
JISSEN
100
AcDbLine
 10
141.0667017826633
 20
443.1242370637081
 30
0.0
 11
141.0667017826633
 21
441.6242370637081
 31
0.0
  0
ARC
  5
5EF0FC31
330
5EF092C1
100
AcDbEntity
  8
JISSEN
100
AcDbCircle
 10
140.0667017826633
 20
443.1242370637081
 30
0.0
 40
1.0
100
AcDbArc
 50
0.0
 51
90.0
  0
ARC
  5
5EF0FC32
330
5EF092C1
100
AcDbEntity
  8
JISSEN
100
AcDbCircle
 10
223.5667017826633
 20
384.1242370637081
 30
0.0
 40
107.0
100
AcDbArc
 50
124.3237649528626
 51
128.3694645522041
  0
ARC
  5
5EF0FC33
330
5EF092C1
100
AcDbEntity
  8
JISSEN
100
AcDbCircle
 10
153.0667017826633
 20
469.9349679664879
 30
0.0
 40
3.0
100
AcDbArc
 50
180.0
 51
270.0
  0
LINE
  5
5EF0FC34
330
5EF092C1
100
AcDbEntity
  8
JISSEN
100
AcDbLine
 10
154.0449387273466
 20
466.9349679664879
 30
0.0
 11
153.0667017826633
 21
466.9349679664879
 31
0.0
  0
ARC
  5
5EF0FC35
330
5EF092C1
100
AcDbEntity
  8
JISSEN
100
AcDbCircle
 10
154.0449387273466
 20
471.9349679664879
 30
0.0
 40
5.0
100
AcDbArc
 50
270.0
 51
308.3694645522041
  0
LINE
  5
5EF0FC36
330
5EF092C1
100
AcDbEntity
  8
JISSEN
100
AcDbLine
 10
265.5667017826633
 20
421.1242370637081
 30
0.0
 11
265.5667017826633
 21
434.1242370637081
 31
0.0
  0
LINE
  5
5EF0FC37
330
5EF092C1
100
AcDbEntity
  8
JISSEN
100
AcDbLine
 10
231.0500165562111
 20
421.1242370637081
 30
0.0
 11
264.0667017826633
 21
421.1242370637081
 31
0.0
  0
LWPOLYLINE
  5
5EF0FC38
330
5EF092C1
100
AcDbEntity
  8
JISSEN
100
AcDbPolyline
 90
        6
 70
     1
 43
0.0
 10
275.1747682721619
 20
390.2728880930228
 10
267.4180507533485
 20
382.5161705742094
 10
256.8221775726696
 20
385.3553262360749
 10
253.9830219108041
 20
395.9511994167538
 10
261.7397394296175
 20
403.7079169355672
 10
272.3356126102963
 20
400.8687612737017
  0
CIRCLE
  5
5EF0FC3B
330
5EF092C1
100
AcDbEntity
  8
SAISEN
100
AcDbCircle
 10
264.578895091483
 20
393.1120437548883
 30
0.0
 40
9.0
  0
LINE
  5
5EF0FC3D
330
5EF092C1
100
AcDbEntity
  8
JISSEN
100
AcDbLine
 10
265.5667017826633
 20
419.624237063708
 30
0.0
 11
265.5667017826633
 21
419.624237063708
 31
0.0
  0
LINE
  5
5EF0FC3E
330
5EF092C1
100
AcDbEntity
  8
JISSEN
100
AcDbLine
 10
265.5667017826633
 20
416.6242370637081
 30
0.0
 11
265.5667017826633
 21
419.624237063708
 31
0.0
  0
ARC
  5
5EF0FC3F
330
5EF092C1
100
AcDbEntity
  8
JISSEN
100
AcDbCircle
 10
267.0667017826633
 20
416.6242370637081
 30
0.0
 40
1.5
100
AcDbArc
 50
180.0
 51
270.0
  0
LINE
  5
5EF0FC40
330
5EF092C1
100
AcDbEntity
  8
JISSEN
100
AcDbLine
 10
265.5667017826633
 20
421.1242370637081
 30
0.0
 11
265.5667017826633
 21
421.1242370637081
 31
0.0
  0
LINE
  5
5EF0FC41
330
5EF092C1
100
AcDbEntity
  8
JISSEN
100
AcDbLine
 10
265.5667017826633
 20
420.124237063708
 30
0.0
 11
265.5667017826633
 21
420.124237063708
 31
0.0
  0
ARC
  5
5EF0FC42
330
5EF092C1
100
AcDbEntity
  8
JISSEN
100
AcDbCircle
 10
264.0667017826633
 20
419.624237063708
 30
0.0
 40
1.5
100
AcDbArc
 50
0.0
 51
90.0
  0
LINE
  5
5EF0FC43
330
5EF092C1
100
AcDbEntity
  8
JISSEN
100
AcDbLine
 10
265.5667017826633
 20
419.624237063708
 30
0.0
 11
265.5667017826633
 21
421.1258345544806
 31
0.0
  0
LINE
  5
5EF0FC44
330
5EF092C1
100
AcDbEntity
  8
JISSEN
100
AcDbLine
 10
231.0500165562111
 20
447.1242370637081
 30
0.0
 11
264.0667017826633
 21
447.1242370637081
 31
0.0
  0
LINE
  5
5EF0FC51
330
5EF092C1
100
AcDbEntity
  8
JISSEN
100
AcDbLine
 10
265.5667017826633
 20
451.6242370637081
 30
0.0
 11
265.5667017826633
 21
448.624237063708
 31
0.0
  0
LINE
  5
5EF0FC52
330
5EF092C1
100
AcDbEntity
  8
JISSEN
100
AcDbLine
 10
265.5667017826633
 20
447.1242370637081
 30
0.0
 11
265.5667017826633
 21
434.1242370637081
 31
0.0
  0
LINE
  5
5EF0FC53
330
5EF092C1
100
AcDbEntity
  8
JISSEN
100
AcDbLine
 10
265.5667017826633
 20
448.124237063708
 30
0.0
 11
265.5667017826633
 21
448.124237063708
 31
0.0
  0
LINE
  5
5EF0FC54
330
5EF092C1
100
AcDbEntity
  8
JISSEN
100
AcDbLine
 10
265.5667017826633
 20
448.624237063708
 30
0.0
 11
265.5667017826633
 21
448.624237063708
 31
0.0
  0
LINE
  5
5EF0FC55
330
5EF092C1
100
AcDbEntity
  8
JISSEN
100
AcDbLine
 10
265.5667017826633
 20
447.1242370637081
 30
0.0
 11
265.5667017826633
 21
447.1242370637081
 31
0.0
  0
LINE
  5
5EF0FC56
330
5EF092C1
100
AcDbEntity
  8
JISSEN
100
AcDbLine
 10
265.5667017826633
 20
448.624237063708
 30
0.0
 11
265.5667017826633
 21
447.1226395729355
 31
0.0
  0
ARC
  5
5EF0FC57
330
5EF092C1
100
AcDbEntity
  8
JISSEN
100
AcDbCircle
 10
264.0667017826633
 20
448.624237063708
 30
0.0
 40
1.5
100
AcDbArc
 50
270.0
 51
0.0
  0
ARC
  5
5EF0FC58
330
5EF092C1
100
AcDbEntity
  8
JISSEN
100
AcDbCircle
 10
267.0667017826633
 20
451.6242370637081
 30
0.0
 40
1.5
100
AcDbArc
 50
90.0
 51
180.0
  0
ARC
  5
5EF0FC59
330
5EF092C1
100
AcDbEntity
  8
JISSEN
100
AcDbCircle
 10
149.0667017826633
 20
510.6816993676104
 30
0.0
 40
1.0
100
AcDbArc
 50
0.0
 51
90.0
  0
LINE
  5
5EF0FC5A
330
5EF092C1
100
AcDbEntity
  8
JISSEN
100
AcDbLine
 10
297.0667017826633
 20
510.6816993676104
 30
0.0
 11
297.0667017826633
 21
434.1242370637081
 31
0.0
  0
LINE
  5
5EF0FC5B
330
5EF092C1
100
AcDbEntity
  8
JISSEN
100
AcDbLine
 10
318.5667017826633
 20
510.1816993676104
 30
0.0
 11
318.5667017826633
 21
434.1242370637081
 31
0.0
  0
LINE
  5
5EF0FC5C
330
5EF092C1
100
AcDbEntity
  8
JISSEN
100
AcDbLine
 10
294.5667017826633
 20
416.6242370637081
 30
0.0
 11
294.5667017826633
 21
434.1242370637081
 31
0.0
  0
ARC
  5
5EF0FC5E
330
5EF092C1
100
AcDbEntity
  8
JISSEN
100
AcDbCircle
 10
294.0667017826633
 20
398.3135061609282
 30
0.0
 40
3.0
100
AcDbArc
 50
0.0
 51
90.0
  0
LINE
  5
5EF0FC5F
330
5EF092C1
100
AcDbEntity
  8
JISSEN
100
AcDbLine
 10
293.08846483798
 20
401.3135061609283
 30
0.0
 11
294.0667017826633
 21
401.3135061609283
 31
0.0
  0
ARC
  5
5EF0FC60
330
5EF092C1
100
AcDbEntity
  8
JISSEN
100
AcDbCircle
 10
293.08846483798
 20
396.3135061609282
 30
0.0
 40
5.0
100
AcDbArc
 50
90.0
 51
128.3694645522041
  0
ARC
  5
5EF0FC61
330
5EF092C1
100
AcDbEntity
  8
JISSEN
100
AcDbCircle
 10
293.0667017826633
 20
416.6242370637081
 30
0.0
 40
1.5
100
AcDbArc
 50
270.0
 51
0.0
  0
LINE
  5
5EF0FC62
330
5EF092C1
100
AcDbEntity
  8
JISSEN
100
AcDbLine
 10
294.5667017826633
 20
451.6242370637081
 30
0.0
 11
294.5667017826633
 21
434.1242370637081
 31
0.0
  0
ARC
  5
5EF0FC63
330
5EF092C1
100
AcDbEntity
  8
JISSEN
100
AcDbCircle
 10
293.0667017826633
 20
451.6242370637081
 30
0.0
 40
1.5
100
AcDbArc
 50
0.0
 51
90.0
  0
ARC
  5
5EF0FC64
330
5EF092C1
100
AcDbEntity
  8
JISSEN
100
AcDbCircle
 10
294.0667017826633
 20
469.9349679664879
 30
0.0
 40
3.0
100
AcDbArc
 50
270.0
 51
0.0
  0
LINE
  5
5EF0FC65
330
5EF092C1
100
AcDbEntity
  8
JISSEN
100
AcDbLine
 10
293.08846483798
 20
466.9349679664879
 30
0.0
 11
294.0667017826633
 21
466.9349679664879
 31
0.0
  0
ARC
  5
5EF0FC66
330
5EF092C1
100
AcDbEntity
  8
JISSEN
100
AcDbCircle
 10
293.08846483798
 20
471.9349679664879
 30
0.0
 40
5.0
100
AcDbArc
 50
231.6305354477958
 51
270.0
  0
LINE
  5
5EF0FC68
330
5EF092C1
100
AcDbEntity
  8
JISSEN
100
AcDbLine
 10
298.5667017826633
 20
511.6816993676104
 30
0.0
 11
317.0667017826633
 21
511.6816993676104
 31
0.0
  0
ARC
  5
5EF0FC69
330
5EF092C1
100
AcDbEntity
  8
JISSEN
100
AcDbCircle
 10
298.0667017826633
 20
510.6816993676104
 30
0.0
 40
1.0
100
AcDbArc
 50
90.0
 51
180.0
  0
LINE
  5
5EF0FC6A
330
5EF092C1
100
AcDbEntity
  8
JISSEN
100
AcDbLine
 10
317.0667017826632
 20
511.6816993676104
 30
0.0
 11
317.0667017826632
 21
511.6816993676104
 31
0.0
  0
LINE
  5
5EF0FC6B
330
5EF092C1
100
AcDbEntity
  8
JISSEN
100
AcDbLine
 10
317.0667017826633
 20
511.6816993676104
 30
0.0
 11
318.5667017826633
 21
510.1816993676104
 31
0.0
  0
LINE
  5
5EF0FC70
330
5EF092C1
100
AcDbEntity
  8
ITTEN
  6
CENTER
 48
3.0
100
AcDbLine
 10
323.5667017826633
 20
434.1242370637081
 30
0.0
 11
123.5667017826633
 21
434.1242370637081
 31
0.0
  0
LINE
  5
5EF0FC73
330
5EF092C1
100
AcDbEntity
  8
ITTEN
  6
CENTER
 48
3.0
100
AcDbLine
 10
223.5667017826633
 20
357.6242370637081
 30
0.0
 11
223.5667017826633
 21
510.624237063708
 31
0.0
  0
CIRCLE
  5
5EF0FCB8
330
5EF092C1
100
AcDbEntity
  8
ITTEN
  6
CENTER
 48
3.0
100
AcDbCircle
 10
223.5667017826633
 20
434.1242370637081
 30
0.0
 40
58.00000000000006
  0
LINE
  5
5EF0FCF8
330
5EF092C1
100
AcDbEntity
  8
ITTEN
  6
CENTER
 48
1.5
100
AcDbLine
 10
274.8319434186879
 20
485.3894786997328
 30
0.0
 11
254.3258467642781
 21
464.8833820453229
 31
0.0
  0
LINE
  5
5EF0FCF9
330
5EF092C1
100
AcDbEntity
  8
ITTEN
  6
CENTER
 48
1.5
100
AcDbLine
 10
172.3014601466387
 20
485.3894786997328
 30
0.0
 11
192.8075568010485
 21
464.8833820453229
 31
0.0
  0
LINE
  5
5EF0FCFA
330
5EF092C1
100
AcDbEntity
  8
ITTEN
  6
CENTER
 48
1.5
100
AcDbLine
 10
172.3014601466387
 20
382.8589954276834
 30
0.0
 11
192.8075568010485
 21
403.3650920820933
 31
0.0
  0
LINE
  5
5EF0FCFB
330
5EF092C1
100
AcDbEntity
  8
ITTEN
  6
CENTER
 48
1.5
100
AcDbLine
 10
274.8319434186879
 20
382.8589954276834
 30
0.0
 11
254.3258467642781
 21
403.3650920820933
 31
0.0
  0
LINE
  5
5EF0FFCF
330
5EF092C1
100
AcDbEntity
  8
NITEN
100
AcDbLine
 10
564.1758193939584
 20
295.1248137781409
 30
0.0
 11
564.1758193939616
 21
276.9908391819285
 31
0.0
  0
LINE
  5
5EF0FFD0
330
5EF092C1
100
AcDbEntity
  8
NITEN
100
AcDbLine
 10
575.1758193939846
 20
295.1248137781407
 30
0.0
 11
575.1758193939809
 21
276.9908391819284
 31
0.0
  0
LINE
  5
5EF0FFF1
330
5EF092C1
100
AcDbEntity
  8
NITEN
100
AcDbLine
 10
574.6758193939712
 20
295.9908391819286
 30
0.0
 11
575.175819393973
 21
295.1248137781427
 31
0.0
  0
LINE
  5
5EF0FFF2
330
5EF092C1
100
AcDbEntity
  8
NITEN
100
AcDbLine
 10
574.6758193939712
 20
295.9908391819286
 30
0.0
 11
575.175819393973
 21
295.1248137781427
 31
0.0
  0
LINE
  5
5EF0FFF9
330
5EF092C1
100
AcDbEntity
  8
NITEN
100
AcDbLine
 10
564.6758193939457
 20
295.9908391819286
 30
0.0
 11
564.1758193939439
 21
295.1248137781427
 31
0.0
  0
LINE
  5
5EF0FFFA
330
5EF092C1
100
AcDbEntity
  8
NITEN
100
AcDbLine
 10
564.6758193939457
 20
295.9908391819286
 30
0.0
 11
564.1758193939439
 21
295.1248137781427
 31
0.0
  0
ARC
  5
5EF10023
330
5EF092C1
100
AcDbEntity
  8
JISSEN
100
AcDbCircle
 10
569.6758193939579
 20
148.9908391819303
 30
0.0
 40
75.99999999999997
100
AcDbArc
 50
270.0
 51
90.0
  0
ARC
  5
5EF10024
330
5EF092C1
100
AcDbEntity
  8
JISSEN
100
AcDbCircle
 10
569.6758193939489
 20
148.9908391819394
 30
0.0
 40
77.5
100
AcDbArc
 50
270.0
 51
90.0
  0
CIRCLE
  5
5EF10025
330
5EF092C1
100
AcDbEntity
  8
JISSEN
100
AcDbCircle
 10
612.1022262651507
 20
191.4172460531231
 30
0.0
 40
9.5
  0
ARC
  5
5EF10027
330
5EF092C1
100
AcDbEntity
  8
JISSEN
100
AcDbCircle
 10
569.6758193939671
 20
148.9908391819212
 30
0.0
 40
25.0
100
AcDbArc
 50
270.0
 51
90.0
  0
LINE
  5
5EF10028
330
5EF092C1
100
AcDbEntity
  8
JISSEN
100
AcDbLine
 10
583.1108482365029
 20
59.13083918192978
 30
0.0
 11
569.6758193939562
 21
59.13083918192978
 31
0.0
  0
LINE
  5
5EF10029
330
5EF092C1
100
AcDbEntity
  8
JISSEN
100
AcDbLine
 10
583.1108482365029
 20
71.13083918192979
 30
0.0
 11
569.6758193939579
 21
59.13083918192978
 31
0.0
  0
LINE
  5
5EF1002A
330
5EF092C1
100
AcDbEntity
  8
JISSEN
100
AcDbLine
 10
569.6758193939579
 20
71.13083918192979
 30
0.0
 11
583.1108482365029
 21
59.13083918192978
 31
0.0
  0
LINE
  5
5EF1002B
330
5EF092C1
100
AcDbEntity
  8
JISSEN
100
AcDbLine
 10
569.6758193939579
 20
71.13083918192979
 30
0.0
 11
583.1108482365029
 21
59.13083918192978
 31
0.0
  0
LINE
  5
5EF1002C
330
5EF092C1
100
AcDbEntity
  8
JISSEN
100
AcDbLine
 10
586.600646901937
 20
71.13083918192979
 30
0.0
 11
569.6758193939562
 21
71.13083918192979
 31
0.0
  0
LINE
  5
5EF1002E
330
5EF092C1
100
AcDbEntity
  8
JISSEN
100
AcDbLine
 10
591.0299758980357
 20
135.9908391819312
 30
0.0
 11
569.6758193939579
 21
135.9908391819307
 31
0.0
  0
CIRCLE
  5
5EF10030
330
5EF092C1
100
AcDbEntity
  8
JISSEN
100
AcDbCircle
 10
612.1022262651507
 20
106.5644323107376
 30
0.0
 40
9.5
  0
LINE
  5
5EF10031
330
5EF092C1
100
AcDbEntity
  8
JISSEN
100
AcDbLine
 10
583.1108482365029
 20
71.13083918192979
 30
0.0
 11
583.1108482365029
 21
59.13083918192978
 31
0.0
  0
LINE
  5
5EF10032
330
5EF092C1
100
AcDbEntity
  8
JISSEN
100
AcDbLine
 10
583.1108482365029
 20
71.13083918192979
 30
0.0
 11
583.1108482365029
 21
59.13083918192978
 31
0.0
  0
LINE
  5
5EF10033
330
5EF092C1
100
AcDbEntity
  8
SAISEN
100
AcDbLine
 10
585.0621842169179
 20
73.03355001536556
 30
0.0
 11
585.1216469019358
 21
71.13083918192979
 31
0.0
  0
LINE
  5
5EF10034
330
5EF092C1
100
AcDbEntity
  8
JISSEN
100
AcDbLine
 10
586.600646901937
 20
71.13083918192979
 30
0.0
 11
586.5314190606726
 21
73.3460193997812
 31
0.0
  0
LINE
  5
5EF10035
330
5EF092C1
100
AcDbEntity
  8
JISSEN
100
AcDbLine
 10
569.6758193939598
 20
71.13083918192979
 30
0.0
 11
569.6758193939598
 21
59.13083918192978
 31
0.0
  0
LINE
  5
5EF10036
330
5EF092C1
100
AcDbEntity
  8
JISSEN
100
AcDbLine
 39
960.208308198174
 10
575.1758193939726
 20
276.9908391819267
 30
0.0
 11
569.6758193939707
 21
276.9908391819267
 31
0.0
  0
LINE
  5
5EF10037
330
5EF092C1
100
AcDbEntity
  8
JISSEN
100
AcDbLine
 39
960.208308198174
 10
575.1758193939726
 20
276.9908391819267
 30
0.0
 11
569.6758193939707
 21
276.9908391819267
 31
0.0
  0
LINE
  5
5EF10038
330
5EF092C1
100
AcDbEntity
  8
JISSEN
100
AcDbLine
 10
569.6758193939598
 20
276.9908391819303
 30
0.0
 11
582.9258193939616
 21
276.9908391819303
 31
0.0
  0
ARC
  5
5EF10039
330
5EF092C1
100
AcDbEntity
  8
SAISEN
100
AcDbCircle
 10
569.6758193939598
 20
257.9908391819303
 30
0.0
 40
10.47749999999999
100
AcDbArc
 50
270.0
 51
90.0
  0
LINE
  5
5EF1003A
330
5EF092C1
100
AcDbEntity
  8
JISSEN
100
AcDbLine
 10
584.6758193939616
 20
275.2408391819285
 30
0.0
 11
577.6405855550014
 21
275.2408391819285
 31
0.0
  0
ARC
  5
5EF1003C
330
5EF092C1
100
AcDbEntity
  8
JISSEN
100
AcDbCircle
 10
569.6758193939598
 20
257.9908391819303
 30
0.0
 40
19.0
100
AcDbArc
 50
357.2705973632594
 51
90.0
  0
LINE
  5
5EF1003D
330
5EF092C1
100
AcDbEntity
  8
JISSEN
100
AcDbLine
 10
641.175819393958
 20
238.9908391819303
 30
0.0
 11
569.6758193939598
 21
238.9908391819303
 31
0.0
  0
ARC
  5
5EF1003E
330
5EF092C1
100
AcDbEntity
  8
JISSEN
100
AcDbCircle
 10
640.1758193939598
 20
253.9908391819303
 30
0.0
 40
1.0
100
AcDbArc
 50
0.0
 51
90.0
  0
LINE
  5
5EF1003F
330
5EF092C1
100
AcDbEntity
  8
JISSEN
100
AcDbLine
 10
641.175819393958
 20
222.9908391819303
 30
0.0
 11
621.3207818240347
 21
222.9908391819303
 31
0.0
  0
LINE
  5
5EF10040
330
5EF092C1
100
AcDbEntity
  8
JISSEN
100
AcDbLine
 10
641.175819393958
 20
238.9908391819303
 30
0.0
 11
641.175819393958
 21
222.9908391819303
 31
0.0
  0
LINE
  5
5EF10041
330
5EF092C1
100
AcDbEntity
  8
JISSEN
100
AcDbLine
 10
641.1758193939598
 20
253.9908391819303
 30
0.0
 11
641.1758193939598
 21
238.9908391819303
 31
0.0
  0
LINE
  5
5EF10042
330
5EF092C1
100
AcDbEntity
  8
JISSEN
100
AcDbLine
 10
621.3207818240347
 20
222.9908391819303
 30
0.0
 11
592.7029772732979
 21
222.9908391819303
 31
0.0
  0
LINE
  5
5EF10043
330
5EF092C1
100
AcDbEntity
  8
JISSEN
100
AcDbLine
 10
622.675819393958
 20
217.9908391819303
 30
0.0
 11
622.675819393958
 21
205.5350696568425
 31
0.0
  0
ARC
  5
5EF10044
330
5EF092C1
100
AcDbEntity
  8
JISSEN
100
AcDbCircle
 10
627.675819393958
 20
217.9908391819303
 30
0.0
 40
5.0
100
AcDbArc
 50
90.0
 51
180.0
  0
LINE
  5
5EF10045
330
5EF092C1
100
AcDbEntity
  8
JISSEN
100
AcDbLine
 10
590.6519963573622
 20
254.9908391819303
 30
0.0
 11
640.1758193939598
 21
254.9908391819303
 31
0.0
  0
ARC
  5
5EF10046
330
5EF092C1
100
AcDbEntity
  8
JISSEN
100
AcDbCircle
 10
590.6519963573622
 20
256.9908391819303
 30
0.0
 40
2.0
100
AcDbArc
 50
177.2705973632594
 51
270.0
  0
LINE
  5
5EF10047
330
5EF092C1
100
AcDbEntity
  8
JISSEN
100
AcDbLine
 10
584.6758193939598
 20
275.2408391819303
 30
0.0
 11
584.6758193939598
 21
269.6527429716211
 31
0.0
  0
LINE
  5
5EF10048
330
5EF092C1
100
AcDbEntity
  8
JISSEN
100
AcDbLine
 10
582.9258193939598
 20
276.9908391819303
 30
0.0
 11
584.6758193939616
 21
275.2408391819285
 31
0.0
  0
LINE
  5
5EF10049
330
5EF092C1
100
AcDbEntity
  8
JISSEN
100
AcDbLine
 10
582.9258193939598
 20
276.9908391819303
 30
0.0
 11
584.6758193939616
 21
275.2408391819285
 31
0.0
  0
ARC
  5
5EF1004A
330
5EF092C1
100
AcDbEntity
  8
JISSEN
100
AcDbCircle
 10
569.6758193939598
 20
257.9908391819303
 30
0.0
 40
5.0
100
AcDbArc
 50
270.0
 51
90.0
  0
ARC
  5
5EF1004B
330
5EF092C1
100
AcDbEntity
  8
JISSEN
100
AcDbCircle
 10
569.6758193939598
 20
257.9908391819303
 30
0.0
 40
9.3155
100
AcDbArc
 50
270.0
 51
90.0
  0
LINE
  5
5EF1004C
330
5EF092C1
100
AcDbEntity
  8
JISSEN
100
AcDbLine
 10
575.1758193939726
 20
276.4908391819267
 30
0.0
 11
575.6758193939726
 21
276.9908391819267
 31
0.0
  0
LINE
  5
5EF1004D
330
5EF092C1
100
AcDbEntity
  8
JISSEN
100
AcDbLine
 10
575.1758193939726
 20
276.4908391819267
 30
0.0
 11
575.6758193939726
 21
276.9908391819267
 31
0.0
  0
LINE
  5
5EF1004E
330
5EF092C1
100
AcDbEntity
  8
JISSEN
100
AcDbLine
 10
575.1758193939799
 20
276.4908391819249
 30
0.0
 11
575.6758193939798
 21
276.990839181923
 31
0.0
  0
LINE
  5
5EF1004F
330
5EF092C1
100
AcDbEntity
  8
JISSEN
100
AcDbLine
 10
575.1758193939799
 20
276.4908391819249
 30
0.0
 11
575.6758193939798
 21
276.990839181923
 31
0.0
  0
LINE
  5
5EF10050
330
5EF092C1
100
AcDbEntity
  8
JISSEN
100
AcDbLine
 10
575.1758193939726
 20
276.4908391819285
 30
0.0
 11
575.6758193939726
 21
276.9908391819285
 31
0.0
  0
LINE
  5
5EF10051
330
5EF092C1
100
AcDbEntity
  8
JISSEN
100
AcDbLine
 10
575.1758193939726
 20
276.4908391819285
 30
0.0
 11
575.6758193939726
 21
276.9908391819285
 31
0.0
  0
LINE
  5
5EF10052
330
5EF092C1
100
AcDbEntity
  8
JISSEN
100
AcDbLine
 10
602.2009637456889
 20
261.9908391819303
 30
0.0
 11
601.6880127027792
 21
261.6946867592249
 31
0.0
  0
LINE
  5
5EF10053
330
5EF092C1
100
AcDbEntity
  8
JISSEN
100
AcDbLine
 10
619.1750616598641
 20
261.9908391819303
 30
0.0
 11
619.6880127027792
 21
261.6946867592222
 31
0.0
  0
LINE
  5
5EF10054
330
5EF092C1
100
AcDbEntity
  8
JISSEN
100
AcDbLine
 10
602.2009637456889
 20
261.9908391819303
 30
0.0
 11
619.1750616598641
 21
261.9908391819303
 31
0.0
  0
LINE
  5
5EF10055
330
5EF092C1
100
AcDbEntity
  8
JISSEN
100
AcDbLine
 39
960.208308198174
 10
610.6880127027793
 20
261.2328065438721
 30
0.0
 11
610.6880127027774
 21
254.9908391819303
 31
0.0
  0
ARC
  5
5EF10056
330
5EF092C1
100
AcDbEntity
  8
JISSEN
100
AcDbCircle
 39
960.208308198174
 10
615.1880127027792
 20
239.5424786183066
 30
480.104154099087
 40
22.15220814091828
100
AcDbArc
 50
78.27936080015682
 51
101.7206391998431
  0
ARC
  5
5EF10057
330
5EF092C1
100
AcDbEntity
  8
JISSEN
100
AcDbCircle
 39
960.208308198174
 10
606.1880127027792
 20
239.5424786183066
 30
0.0
 40
22.15220814091828
100
AcDbArc
 50
78.27936080015682
 51
101.7206391998431
  0
LINE
  5
5EF10058
330
5EF092C1
100
AcDbEntity
  8
JISSEN
100
AcDbLine
 39
960.208308198174
 10
619.6880127027792
 20
254.9908391819318
 30
0.0
 11
619.6880127027792
 21
261.6946867592223
 31
0.0
  0
LINE
  5
5EF10059
330
5EF092C1
100
AcDbEntity
  8
JISSEN
100
AcDbLine
 39
960.208308198174
 10
601.6880127027792
 20
254.9908391819329
 30
0.0
 11
601.6880127027783
 21
261.6946867592249
 31
0.0
  0
LINE
  5
5EF1005A
330
5EF092C1
100
AcDbEntity
  8
JISSEN
100
AcDbLine
 39
960.208308198174
 10
537.6636260851368
 20
254.9908391819329
 30
0.0
 11
537.6636260851377
 21
261.6946867592249
 31
0.0
  0
LINE
  5
5EF1005B
330
5EF092C1
100
AcDbEntity
  8
JISSEN
100
AcDbLine
 39
960.208308198174
 10
519.6636260851367
 20
254.9908391819318
 30
0.0
 11
519.6636260851367
 21
261.6946867592223
 31
0.0
  0
ARC
  5
5EF1005C
330
5EF092C1
100
AcDbEntity
  8
JISSEN
100
AcDbCircle
 39
960.208308198174
 10
533.1636260851367
 20
239.5424786183066
 30
0.0
 40
22.15220814091828
100
AcDbArc
 50
78.27936080015682
 51
101.7206391998431
  0
ARC
  5
5EF1005D
330
5EF092C1
100
AcDbEntity
  8
JISSEN
100
AcDbCircle
 39
960.208308198174
 10
524.1636260851367
 20
239.5424786183066
 30
480.104154099087
 40
22.15220814091828
100
AcDbArc
 50
78.27936080015682
 51
101.7206391998431
  0
LINE
  5
5EF1005E
330
5EF092C1
100
AcDbEntity
  8
JISSEN
100
AcDbLine
 39
960.208308198174
 10
528.6636260851367
 20
261.2328065438721
 30
0.0
 11
528.6636260851386
 21
254.9908391819303
 31
0.0
  0
LINE
  5
5EF1005F
330
5EF092C1
100
AcDbEntity
  8
JISSEN
100
AcDbLine
 10
537.1506750422271
 20
261.9908391819303
 30
0.0
 11
520.1765771280519
 21
261.9908391819303
 31
0.0
  0
LINE
  5
5EF10060
330
5EF092C1
100
AcDbEntity
  8
JISSEN
100
AcDbLine
 10
520.1765771280519
 20
261.9908391819303
 30
0.0
 11
519.6636260851367
 21
261.6946867592222
 31
0.0
  0
LINE
  5
5EF10061
330
5EF092C1
100
AcDbEntity
  8
JISSEN
100
AcDbLine
 10
537.1506750422271
 20
261.9908391819303
 30
0.0
 11
537.6636260851368
 21
261.6946867592249
 31
0.0
  0
LINE
  5
5EF10062
330
5EF092C1
100
AcDbEntity
  8
JISSEN
100
AcDbLine
 10
564.1758193939434
 20
276.4908391819285
 30
0.0
 11
563.6758193939434
 21
276.9908391819285
 31
0.0
  0
LINE
  5
5EF10063
330
5EF092C1
100
AcDbEntity
  8
JISSEN
100
AcDbLine
 10
564.1758193939434
 20
276.4908391819285
 30
0.0
 11
563.6758193939434
 21
276.9908391819285
 31
0.0
  0
LINE
  5
5EF10064
330
5EF092C1
100
AcDbEntity
  8
JISSEN
100
AcDbLine
 10
564.1758193939361
 20
276.4908391819249
 30
0.0
 11
563.6758193939361
 21
276.990839181923
 31
0.0
  0
LINE
  5
5EF10065
330
5EF092C1
100
AcDbEntity
  8
JISSEN
100
AcDbLine
 10
564.1758193939361
 20
276.4908391819249
 30
0.0
 11
563.6758193939361
 21
276.990839181923
 31
0.0
  0
LINE
  5
5EF10066
330
5EF092C1
100
AcDbEntity
  8
JISSEN
100
AcDbLine
 10
564.1758193939434
 20
276.4908391819267
 30
0.0
 11
563.6758193939434
 21
276.9908391819267
 31
0.0
  0
LINE
  5
5EF10067
330
5EF092C1
100
AcDbEntity
  8
JISSEN
100
AcDbLine
 10
564.1758193939434
 20
276.4908391819267
 30
0.0
 11
563.6758193939434
 21
276.9908391819267
 31
0.0
  0
ARC
  5
5EF10068
330
5EF092C1
100
AcDbEntity
  8
JISSEN
100
AcDbCircle
 10
569.6758193939562
 20
257.9908391819303
 30
0.0
 40
9.3155
100
AcDbArc
 50
90.0
 51
270.0
  0
ARC
  5
5EF10069
330
5EF092C1
100
AcDbEntity
  8
JISSEN
100
AcDbCircle
 10
569.6758193939562
 20
257.9908391819303
 30
0.0
 40
5.0
100
AcDbArc
 50
90.0
 51
270.0
  0
LINE
  5
5EF1006A
330
5EF092C1
100
AcDbEntity
  8
JISSEN
100
AcDbLine
 10
556.4258193939561
 20
276.9908391819303
 30
0.0
 11
554.6758193939544
 21
275.2408391819285
 31
0.0
  0
LINE
  5
5EF1006B
330
5EF092C1
100
AcDbEntity
  8
JISSEN
100
AcDbLine
 10
556.4258193939561
 20
276.9908391819303
 30
0.0
 11
554.6758193939544
 21
275.2408391819285
 31
0.0
  0
LINE
  5
5EF1006C
330
5EF092C1
100
AcDbEntity
  8
JISSEN
100
AcDbLine
 10
554.6758193939561
 20
275.2408391819303
 30
0.0
 11
554.6758193939561
 21
269.6527429716211
 31
0.0
  0
ARC
  5
5EF1006D
330
5EF092C1
100
AcDbEntity
  8
JISSEN
100
AcDbCircle
 10
548.6996424305537
 20
256.9908391819303
 30
0.0
 40
2.0
100
AcDbArc
 50
270.0
 51
2.72940263674054
  0
LINE
  5
5EF1006E
330
5EF092C1
100
AcDbEntity
  8
JISSEN
100
AcDbLine
 10
548.6996424305537
 20
254.9908391819303
 30
0.0
 11
499.1758193939562
 21
254.9908391819303
 31
0.0
  0
ARC
  5
5EF1006F
330
5EF092C1
100
AcDbEntity
  8
JISSEN
100
AcDbCircle
 10
511.675819393958
 20
217.9908391819303
 30
0.0
 40
5.0
100
AcDbArc
 50
0.0
 51
90.0
  0
LINE
  5
5EF10070
330
5EF092C1
100
AcDbEntity
  8
JISSEN
100
AcDbLine
 10
516.675819393958
 20
217.9908391819303
 30
0.0
 11
516.675819393958
 21
205.5350696568425
 31
0.0
  0
LINE
  5
5EF10071
330
5EF092C1
100
AcDbEntity
  8
JISSEN
100
AcDbLine
 10
518.0308569638813
 20
222.9908391819303
 30
0.0
 11
546.648661514618
 21
222.9908391819303
 31
0.0
  0
LINE
  5
5EF10072
330
5EF092C1
100
AcDbEntity
  8
JISSEN
100
AcDbLine
 10
498.1758193939562
 20
253.9908391819303
 30
0.0
 11
498.1758193939562
 21
238.9908391819303
 31
0.0
  0
LINE
  5
5EF10073
330
5EF092C1
100
AcDbEntity
  8
JISSEN
100
AcDbLine
 10
498.175819393958
 20
238.9908391819303
 30
0.0
 11
498.175819393958
 21
222.9908391819303
 31
0.0
  0
LINE
  5
5EF10074
330
5EF092C1
100
AcDbEntity
  8
JISSEN
100
AcDbLine
 10
498.175819393958
 20
222.9908391819303
 30
0.0
 11
518.0308569638813
 21
222.9908391819303
 31
0.0
  0
ARC
  5
5EF10075
330
5EF092C1
100
AcDbEntity
  8
JISSEN
100
AcDbCircle
 10
499.1758193939562
 20
253.9908391819303
 30
0.0
 40
1.0
100
AcDbArc
 50
90.0
 51
180.0
  0
LINE
  5
5EF10076
330
5EF092C1
100
AcDbEntity
  8
JISSEN
100
AcDbLine
 10
498.175819393958
 20
238.9908391819303
 30
0.0
 11
569.6758193939562
 21
238.9908391819303
 31
0.0
  0
ARC
  5
5EF10077
330
5EF092C1
100
AcDbEntity
  8
JISSEN
100
AcDbCircle
 10
569.6758193939562
 20
257.9908391819303
 30
0.0
 40
19.0
100
AcDbArc
 50
90.0
 51
182.7294026367405
  0
LINE
  5
5EF10079
330
5EF092C1
100
AcDbEntity
  8
JISSEN
100
AcDbLine
 10
554.6758193939544
 20
275.2408391819285
 30
0.0
 11
561.7110532329146
 21
275.2408391819285
 31
0.0
  0
ARC
  5
5EF1007A
330
5EF092C1
100
AcDbEntity
  8
SAISEN
100
AcDbCircle
 10
569.6758193939562
 20
257.9908391819303
 30
0.0
 40
10.47749999999999
100
AcDbArc
 50
90.0
 51
270.0
  0
LINE
  5
5EF1007B
330
5EF092C1
100
AcDbEntity
  8
JISSEN
100
AcDbLine
 10
569.6758193939562
 20
276.9908391819303
 30
0.0
 11
556.4258193939544
 21
276.9908391819303
 31
0.0
  0
LINE
  5
5EF1007C
330
5EF092C1
100
AcDbEntity
  8
JISSEN
100
AcDbLine
 39
960.208308198174
 10
564.1758193939434
 20
276.9908391819267
 30
0.0
 11
569.6758193939452
 21
276.9908391819267
 31
0.0
  0
LINE
  5
5EF1007D
330
5EF092C1
100
AcDbEntity
  8
JISSEN
100
AcDbLine
 39
960.208308198174
 10
564.1758193939434
 20
276.9908391819267
 30
0.0
 11
569.6758193939452
 21
276.9908391819267
 31
0.0
  0
LINE
  5
5EF1007E
330
5EF092C1
100
AcDbEntity
  8
JISSEN
100
AcDbLine
 10
569.6758193939562
 20
71.13083918192979
 30
0.0
 11
569.6758193939562
 21
59.13083918192978
 31
0.0
  0
LINE
  5
5EF1007F
330
5EF092C1
100
AcDbEntity
  8
JISSEN
100
AcDbLine
 10
552.750991885979
 20
71.13083918192979
 30
0.0
 11
552.8202197272434
 21
73.3460193997812
 31
0.0
  0
LINE
  5
5EF10080
330
5EF092C1
100
AcDbEntity
  8
SAISEN
100
AcDbLine
 10
554.2894545709981
 20
73.03355001536556
 30
0.0
 11
554.2299918859802
 21
71.13083918192979
 31
0.0
  0
LINE
  5
5EF10081
330
5EF092C1
100
AcDbEntity
  8
JISSEN
100
AcDbLine
 10
556.2407905514131
 20
71.13083918192979
 30
0.0
 11
556.2407905514131
 21
59.13083918192978
 31
0.0
  0
LINE
  5
5EF10082
330
5EF092C1
100
AcDbEntity
  8
JISSEN
100
AcDbLine
 10
556.2407905514131
 20
71.13083918192979
 30
0.0
 11
556.2407905514131
 21
59.13083918192978
 31
0.0
  0
CIRCLE
  5
5EF10083
330
5EF092C1
100
AcDbEntity
  8
JISSEN
100
AcDbCircle
 10
527.2494125227653
 20
106.5644323107376
 30
0.0
 40
9.5
  0
LINE
  5
5EF10085
330
5EF092C1
100
AcDbEntity
  8
JISSEN
100
AcDbLine
 10
548.3216628898802
 20
135.9908391819312
 30
0.0
 11
569.6758193939579
 21
135.9908391819307
 31
0.0
  0
LINE
  5
5EF10087
330
5EF092C1
100
AcDbEntity
  8
JISSEN
100
AcDbLine
 10
552.750991885979
 20
71.13083918192979
 30
0.0
 11
569.6758193939598
 21
71.13083918192979
 31
0.0
  0
LINE
  5
5EF10088
330
5EF092C1
100
AcDbEntity
  8
JISSEN
100
AcDbLine
 10
569.6758193939579
 20
71.13083918192979
 30
0.0
 11
556.2407905514131
 21
59.13083918192978
 31
0.0
  0
LINE
  5
5EF10089
330
5EF092C1
100
AcDbEntity
  8
JISSEN
100
AcDbLine
 10
569.6758193939579
 20
71.13083918192979
 30
0.0
 11
556.2407905514131
 21
59.13083918192978
 31
0.0
  0
LINE
  5
5EF1008A
330
5EF092C1
100
AcDbEntity
  8
JISSEN
100
AcDbLine
 10
556.2407905514131
 20
71.13083918192979
 30
0.0
 11
569.6758193939579
 21
59.13083918192978
 31
0.0
  0
LINE
  5
5EF1008B
330
5EF092C1
100
AcDbEntity
  8
JISSEN
100
AcDbLine
 10
556.2407905514131
 20
59.13083918192978
 30
0.0
 11
569.6758193939598
 21
59.13083918192978
 31
0.0
  0
ARC
  5
5EF1008C
330
5EF092C1
100
AcDbEntity
  8
JISSEN
100
AcDbCircle
 10
569.6758193939489
 20
148.9908391819212
 30
0.0
 40
25.0
100
AcDbArc
 50
90.0
 51
270.0
  0
CIRCLE
  5
5EF1008E
330
5EF092C1
100
AcDbEntity
  8
JISSEN
100
AcDbCircle
 10
527.2494125227653
 20
191.4172460531231
 30
0.0
 40
9.5
  0
ARC
  5
5EF1008F
330
5EF092C1
100
AcDbEntity
  8
JISSEN
100
AcDbCircle
 10
569.6758193939671
 20
148.9908391819394
 30
0.0
 40
77.5
100
AcDbArc
 50
90.0
 51
270.0
  0
ARC
  5
5EF10090
330
5EF092C1
100
AcDbEntity
  8
JISSEN
100
AcDbCircle
 10
569.6758193939579
 20
148.9908391819303
 30
0.0
 40
75.99999999999997
100
AcDbArc
 50
90.0
 51
270.0
  0
LINE
  5
5EF10093
330
5EF092C1
100
AcDbEntity
  8
JISSEN
100
AcDbLine
 10
316.5667006968234
 20
226.4908391818503
 30
0.0
 11
318.5667006968198
 21
224.4908391818503
 31
0.0
  0
ARC
  5
5EF10094
330
5EF092C1
100
AcDbEntity
  8
JISSEN
100
AcDbCircle
 10
292.566700696667
 20
274.9908391819485
 30
0.0
 40
2.0
100
AcDbArc
 50
0.0
 51
90.0
  0
LINE
  5
5EF10095
330
5EF092C1
100
AcDbEntity
  8
JISSEN
100
AcDbLine
 10
294.566700696667
 20
274.9908391819485
 30
0.0
 11
294.566700696667
 21
238.9908391819521
 31
0.0
  0
ARC
  5
5EF10096
330
5EF092C1
100
AcDbEntity
  8
JISSEN
100
AcDbCircle
 10
266.5667006966669
 20
274.9908391819485
 30
0.0
 40
2.0
100
AcDbArc
 50
90.0
 51
180.0
  0
LINE
  5
5EF10097
330
5EF092C1
100
AcDbEntity
  8
JISSEN
100
AcDbLine
 10
273.0537496537509
 20
261.9908391818794
 30
0.0
 11
274.3667006966644
 21
261.23280654382
 31
0.0
  0
ARC
  5
5EF10098
330
5EF092C1
100
AcDbEntity
  8
JISSEN
100
AcDbCircle
 10
274.3667006966662
 20
245.7747739057617
 30
0.0
 40
16.21606527611808
100
AcDbArc
 50
94.35648211769164
 51
107.5879537739636
  0
LINE
  5
5EF10099
330
5EF092C1
100
AcDbEntity
  8
JISSEN
100
AcDbLine
 10
264.5667006966651
 20
274.9908391819485
 30
0.0
 11
264.5667006966651
 21
261.9908391818776
 31
0.0
  0
ARC
  5
5EF1009A
330
5EF092C1
100
AcDbEntity
  8
JISSEN
100
AcDbCircle
 10
254.7667006966658
 20
245.7747739057599
 30
0.0
 40
16.21606527611808
100
AcDbArc
 50
72.41204622603636
 51
85.64351788230835
  0
LINE
  5
5EF1009B
330
5EF092C1
100
AcDbEntity
  8
JISSEN
100
AcDbLine
 10
256.0796517395757
 20
261.9908391818776
 30
0.0
 11
254.766700696664
 21
261.23280654382
 31
0.0
  0
ARC
  5
5EF1009C
330
5EF092C1
100
AcDbEntity
  8
JISSEN
100
AcDbCircle
 10
264.5667006966651
 20
245.7747739057599
 30
0.0
 40
16.21606527611808
100
AcDbArc
 50
72.41204622603636
 51
107.5879537739636
  0
LINE
  5
5EF1009D
330
5EF092C1
100
AcDbEntity
  8
JISSEN
100
AcDbLine
 10
256.0796517395757
 20
261.9908391818776
 30
0.0
 11
273.0537496537509
 21
261.9908391818794
 31
0.0
  0
ARC
  5
5EF1009E
330
5EF092C1
100
AcDbEntity
  8
JISSEN
100
AcDbCircle
 10
262.5667006966651
 20
274.9908391819485
 30
0.0
 40
2.0
100
AcDbArc
 50
270.0
 51
0.0
  0
LINE
  5
5EF1009F
330
5EF092C1
100
AcDbEntity
  8
JISSEN
100
AcDbLine
 10
254.766700696664
 20
261.23280654382
 30
0.0
 11
254.7667006966658
 21
254.9908391818776
 31
0.0
  0
LINE
  5
5EF100A0
330
5EF092C1
100
AcDbEntity
  8
JISSEN
100
AcDbLine
 10
259.6667006966637
 20
261.23280654382
 30
0.0
 11
259.6667006966655
 21
254.9908391818776
 31
0.0
  0
LINE
  5
5EF100A1
330
5EF092C1
100
AcDbEntity
  8
JISSEN
100
AcDbLine
 10
274.3667006966644
 20
261.23280654382
 30
0.0
 11
274.3667006966644
 21
254.9908391818794
 31
0.0
  0
LINE
  5
5EF100A2
330
5EF092C1
100
AcDbEntity
  8
JISSEN
100
AcDbLine
 10
269.4667006966648
 20
261.23280654382
 30
0.0
 11
269.4667006966648
 21
254.9908391818794
 31
0.0
  0
LINE
  5
5EF100A3
330
5EF092C1
100
AcDbEntity
  8
JISSEN
100
AcDbLine
 10
292.566700696667
 20
276.9908391819485
 30
0.0
 11
266.5667006966669
 21
276.9908391819485
 31
0.0
  0
LINE
  5
5EF100A4
330
5EF092C1
100
AcDbEntity
  8
JISSEN
100
AcDbLine
 10
271.0667006966651
 20
238.9908391819521
 30
0.0
 11
294.566700696667
 21
238.9908391819521
 31
0.0
  0
LINE
  5
5EF100A5
330
5EF092C1
100
AcDbEntity
  8
JISSEN
100
AcDbLine
 10
271.0667006966651
 20
238.9908391819521
 30
0.0
 11
295.0667006966651
 21
238.9908391819521
 31
0.0
  0
LINE
  5
5EF100A6
330
5EF092C1
100
AcDbEntity
  8
JISSEN
100
AcDbLine
 10
295.9327261004529
 20
221.4908391819522
 30
0.0
 11
297.0667006966633
 21
219.5267375668195
 31
0.0
  0
ARC
  5
5EF100A7
330
5EF092C1
100
AcDbEntity
  8
JISSEN
100
AcDbCircle
 10
294.0667006966633
 20
223.9908391819521
 30
0.0
 40
1.0
100
AcDbArc
 50
270.0
 51
0.0
  0
ARC
  5
5EF100A8
330
5EF092C1
100
AcDbEntity
  8
JISSEN
100
AcDbCircle
 10
298.0667006966633
 20
229.4908179397975
 30
0.0
 40
3.0
100
AcDbArc
 50
180.0000000060447
 51
270.2156137811825
  0
ARC
  5
5EF100A9
330
5EF092C1
100
AcDbEntity
  8
JISSEN
100
AcDbCircle
 10
298.0667006966633
 20
225.4908391819522
 30
0.0
 40
1.0
100
AcDbArc
 50
90.0
 51
180.0
  0
LINE
  5
5EF100AA
330
5EF092C1
100
AcDbEntity
  8
JISSEN
100
AcDbLine
 10
293.5667006966633
 20
222.9908391819522
 30
0.0
 11
292.2244489684181
 21
222.9908391819522
 31
0.0
  0
ARC
  5
5EF100AB
330
5EF092C1
100
AcDbEntity
  8
JISSEN
100
AcDbCircle
 10
293.3346498890988
 20
219.9908391819521
 30
0.0
 40
3.0
100
AcDbArc
 50
30.00000000001235
 51
90.0
  0
LINE
  5
5EF100AC
330
5EF092C1
100
AcDbEntity
  8
JISSEN
100
AcDbLine
 10
292.2244489684181
 20
222.9908391819522
 30
0.0
 11
294.0667006966633
 21
222.9908391819522
 31
0.0
  0
LINE
  5
5EF100AD
330
5EF092C1
100
AcDbEntity
  8
JISSEN
100
AcDbLine
 10
278.3692752837834
 20
219.7009398985796
 30
0.0
 11
276.8682375927347
 21
215.5768727366744
 31
0.0
  0
LINE
  5
5EF100AE
330
5EF092C1
100
AcDbEntity
  8
JISSEN
100
AcDbLine
 10
276.5667006966633
 20
213.8667720200451
 30
0.0
 11
276.5667006966633
 21
194.8031557179788
 31
0.0
  0
ARC
  5
5EF100AF
330
5EF092C1
100
AcDbEntity
  8
JISSEN
100
AcDbCircle
 10
281.5667006966633
 20
213.8667720200451
 30
0.0
 40
5.0
100
AcDbArc
 50
160.0000000000184
 51
180.0
  0
ARC
  5
5EF100B0
330
5EF092C1
100
AcDbEntity
  8
JISSEN
100
AcDbCircle
 10
283.0677383877119
 20
217.9908391819521
 30
0.0
 40
5.0
100
AcDbArc
 50
90.0
 51
160.0000000000184
  0
LINE
  5
5EF100B1
330
5EF092C1
100
AcDbEntity
  8
JISSEN
100
AcDbLine
 10
295.0667006966597
 20
238.9908391819503
 30
0.0
 11
295.0667006966633
 21
223.9908391819521
 31
0.0
  0
LINE
  5
5EF100B2
330
5EF092C1
100
AcDbEntity
  8
JISSEN
100
AcDbLine
 10
298.0554112356914
 20
226.4908391818612
 30
0.0
 11
316.5667006968234
 21
226.4908391818503
 31
0.0
  0
LINE
  5
5EF100B3
330
5EF092C1
100
AcDbEntity
  8
JISSEN
100
AcDbLine
 10
233.5667006966651
 20
276.9908391819485
 30
0.0
 11
236.566700696667
 21
276.9908391819485
 31
0.0
  0
LINE
  5
5EF100B4
330
5EF092C1
100
AcDbEntity
  8
JISSEN
100
AcDbLine
 10
236.5667006966379
 20
276.9908391819685
 30
0.0
 11
238.5667006966415
 21
274.9908391819722
 31
0.0
  0
LINE
  5
5EF100B5
330
5EF092C1
100
AcDbEntity
  8
JISSEN
100
AcDbLine
 10
236.566700696667
 20
276.9908391819485
 30
0.0
 11
238.566700696667
 21
274.9908391819485
 31
0.0
  0
ARC
  5
5EF100B6
330
5EF092C1
100
AcDbEntity
  8
JISSEN
100
AcDbCircle
 10
240.566700696667
 20
274.9908391819485
 30
0.0
 40
2.0
100
AcDbArc
 50
180.0
 51
270.0
  0
LINE
  5
5EF100B7
330
5EF092C1
100
AcDbEntity
  8
JISSEN
100
AcDbLine
 10
236.5667006966633
 20
276.9908391819485
 30
0.0
 11
223.5667006966666
 21
276.9908391819486
 31
0.0
  0
ARC
  5
5EF100B8
330
5EF092C1
100
AcDbEntity
  8
JISSEN
100
AcDbCircle
 10
240.066700696667
 20
256.4908391819776
 30
0.0
 40
1.5
100
AcDbArc
 50
180.0000000001042
 51
270.0000000001042
  0
LINE
  5
5EF100B9
330
5EF092C1
100
AcDbEntity
  8
JISSEN
100
AcDbLine
 10
238.5667006966396
 20
274.990839181974
 30
0.0
 11
238.566700696667
 21
256.4908391819758
 31
0.0
  0
LINE
  5
5EF100BA
330
5EF092C1
100
AcDbEntity
  8
JISSEN
100
AcDbLine
 10
213.566700696638
 20
276.9908391819358
 30
0.0
 11
210.5667006966343
 21
276.9908391819321
 31
0.0
  0
LINE
  5
5EF100BB
330
5EF092C1
100
AcDbEntity
  8
JISSEN
100
AcDbLine
 10
210.5667006966634
 20
276.9908391819522
 30
0.0
 11
208.5667006966634
 21
274.9908391819522
 31
0.0
  0
LINE
  5
5EF100BC
330
5EF092C1
100
AcDbEntity
  8
JISSEN
100
AcDbLine
 10
210.5667006966343
 20
276.9908391819321
 30
0.0
 11
208.566700696638
 21
274.9908391819303
 31
0.0
  0
LINE
  5
5EF100BD
330
5EF092C1
100
AcDbEntity
  8
JISSEN
100
AcDbLine
 10
191.0437496537526
 20
261.9908391819867
 30
0.0
 11
192.3567006966661
 21
261.2328065439273
 31
0.0
  0
ARC
  5
5EF100BE
330
5EF092C1
100
AcDbEntity
  8
JISSEN
100
AcDbCircle
 10
192.3567006966679
 20
245.7747739058691
 30
0.0
 40
16.21606527611808
100
AcDbArc
 50
94.35648211769164
 51
107.5879537739636
  0
ARC
  5
5EF100BF
330
5EF092C1
100
AcDbEntity
  8
JISSEN
100
AcDbCircle
 10
207.0667006966634
 20
256.4908391819558
 30
0.0
 40
1.5
100
AcDbArc
 50
270.0
 51
0.0
  0
LINE
  5
5EF100C0
330
5EF092C1
100
AcDbEntity
  8
JISSEN
100
AcDbLine
 10
192.3567006966661
 20
261.2328065439273
 30
0.0
 11
192.3567006966661
 21
254.9908391819867
 31
0.0
  0
LINE
  5
5EF100C1
330
5EF092C1
100
AcDbEntity
  8
JISSEN
100
AcDbLine
 10
187.4567006966665
 20
261.2328065439273
 30
0.0
 11
187.4567006966665
 21
254.9908391819867
 31
0.0
  0
LINE
  5
5EF100C2
330
5EF092C1
100
AcDbEntity
  8
JISSEN
100
AcDbLine
 10
208.5667006966652
 20
274.990839181954
 30
0.0
 11
208.5667006966634
 21
256.4908391819558
 31
0.0
  0
LINE
  5
5EF100C3
330
5EF092C1
100
AcDbEntity
  8
JISSEN
100
AcDbLine
 10
210.566700696638
 20
276.9908391819321
 30
0.0
 11
223.5667006966666
 21
276.990839181948
 31
0.0
  0
LINE
  5
5EF100C4
330
5EF092C1
100
AcDbEntity
  8
JISSEN
100
AcDbLine
 10
208.5667006966652
 20
274.9908391819576
 30
0.0
 11
238.5667006966396
 21
274.990839181974
 31
0.0
  0
LINE
  5
5EF100C5
330
5EF092C1
100
AcDbEntity
  8
JISSEN
100
AcDbLine
 10
233.8167006966633
 20
193.4908391819503
 30
0.0
 11
243.8167006966633
 21
193.4908391819503
 31
0.0
  0
ARC
  5
5EF100C6
330
5EF092C1
100
AcDbEntity
  8
JISSEN
100
AcDbCircle
 10
233.8167006966633
 20
192.4908391819522
 30
0.0
 40
1.0
100
AcDbArc
 50
90.0
 51
180.0
  0
ARC
  5
5EF100C7
330
5EF092C1
100
AcDbEntity
  8
JISSEN
100
AcDbCircle
 10
206.8167006966634
 20
192.4908391819503
 30
0.0
 40
1.0
100
AcDbArc
 50
0.0
 51
180.0
  0
ARC
  5
5EF100C8
330
5EF092C1
100
AcDbEntity
  8
JISSEN
100
AcDbCircle
 10
189.8167006966634
 20
192.4908391819503
 30
0.0
 40
1.0
100
AcDbArc
 50
0.0
 51
180.0
  0
LINE
  5
5EF100C9
330
5EF092C1
100
AcDbEntity
  8
JISSEN
100
AcDbLine
 10
174.0696517395774
 20
261.9908391819849
 30
0.0
 11
172.7567006966657
 21
261.2328065439273
 31
0.0
  0
ARC
  5
5EF100CA
330
5EF092C1
100
AcDbEntity
  8
JISSEN
100
AcDbCircle
 10
172.7567006966676
 20
245.7747739058672
 30
0.0
 40
16.21606527611808
100
AcDbArc
 50
72.41204622603636
 51
85.64351788230835
  0
LINE
  5
5EF100CB
330
5EF092C1
100
AcDbEntity
  8
JISSEN
100
AcDbLine
 10
172.7567006966657
 20
261.2328065439273
 30
0.0
 11
172.7567006966676
 21
254.9908391819849
 31
0.0
  0
LINE
  5
5EF100CC
330
5EF092C1
100
AcDbEntity
  8
JISSEN
100
AcDbLine
 10
177.6567006966654
 20
261.2328065439273
 30
0.0
 11
177.6567006966672
 21
254.9908391819849
 31
0.0
  0
ARC
  5
5EF100CD
330
5EF092C1
100
AcDbEntity
  8
JISSEN
100
AcDbCircle
 10
153.0667006966653
 20
253.9908391820213
 30
0.0
 40
1.0
100
AcDbArc
 50
90.0
 51
180.0
  0
LINE
  5
5EF100CE
330
5EF092C1
100
AcDbEntity
  8
JISSEN
100
AcDbLine
 10
152.0667006966653
 20
253.9908391820213
 30
0.0
 11
152.0667006966653
 21
238.9908391820213
 31
0.0
  0
ARC
  5
5EF100CF
330
5EF092C1
100
AcDbEntity
  8
JISSEN
100
AcDbCircle
 10
139.5667006966653
 20
239.4908391819522
 30
0.0
 40
1.5
100
AcDbArc
 50
13.34236379711318
 51
90.0
  0
ARC
  5
5EF100D0
330
5EF092C1
100
AcDbEntity
  8
JISSEN
100
AcDbCircle
 10
139.5667006966634
 20
239.4908391819522
 30
0.0
 40
1.5
100
AcDbArc
 50
13.34236379711318
 51
90.0
  0
LINE
  5
5EF100D1
330
5EF092C1
100
AcDbEntity
  8
JISSEN
100
AcDbLine
 10
128.5667006966634
 20
238.9908391819521
 30
0.0
 11
130.5667006966634
 21
240.9908391819521
 31
0.0
  0
LINE
  5
5EF100D2
330
5EF092C1
100
AcDbEntity
  8
JISSEN
100
AcDbLine
 10
139.5667006966634
 20
240.9908391819521
 30
0.0
 11
130.5667006966634
 21
240.9908391819521
 31
0.0
  0
LINE
  5
5EF100D3
330
5EF092C1
100
AcDbEntity
  8
JISSEN
100
AcDbLine
 10
152.0667006966653
 20
238.9908391819521
 30
0.0
 11
173.5667006966652
 21
238.9908391819521
 31
0.0
  0
LINE
  5
5EF100D4
330
5EF092C1
100
AcDbEntity
  8
JISSEN
100
AcDbLine
 10
176.0667006966689
 20
238.9908391819521
 30
0.0
 11
153.0667006966671
 21
238.9908391819521
 31
0.0
  0
LINE
  5
5EF100D5
330
5EF092C1
100
AcDbEntity
  8
JISSEN
100
AcDbLine
 10
168.7641261095452
 20
219.7009398985796
 30
0.0
 11
170.2651638005938
 21
215.5768727366744
 31
0.0
  0
ARC
  5
5EF100D6
330
5EF092C1
100
AcDbEntity
  8
JISSEN
100
AcDbCircle
 10
164.0656630056148
 20
217.9908391819521
 30
0.0
 40
5.0
100
AcDbArc
 50
19.99999999998168
 51
90.0
  0
LINE
  5
5EF100D7
330
5EF092C1
100
AcDbEntity
  8
JISSEN
100
AcDbLine
 10
170.5667006966634
 20
213.8667720200451
 30
0.0
 11
170.5667006966634
 21
194.8031557179788
 31
0.0
  0
ARC
  5
5EF100D8
330
5EF092C1
100
AcDbEntity
  8
JISSEN
100
AcDbCircle
 10
165.5667006966634
 20
213.8667720200451
 30
0.0
 40
5.0
100
AcDbArc
 50
0.0
 51
19.99999999998168
  0
LINE
  5
5EF100D9
330
5EF092C1
100
AcDbEntity
  8
JISSEN
100
AcDbLine
 10
145.8912560170013
 20
235.9908391819522
 30
0.0
 11
147.2421453763256
 21
235.9908391819522
 31
0.0
  0
ARC
  5
5EF100DA
330
5EF092C1
100
AcDbEntity
  8
JISSEN
100
AcDbCircle
 10
153.7987515042279
 20
219.9908391819503
 30
0.0
 40
3.0
100
AcDbArc
 50
90.0
 51
149.9999999999876
  0
ARC
  5
5EF100DB
330
5EF092C1
100
AcDbEntity
  8
JISSEN
100
AcDbCircle
 10
153.5667006966634
 20
224.4908391819521
 30
0.0
 40
1.5
100
AcDbArc
 50
180.0
 51
270.0
  0
LINE
  5
5EF100DC
330
5EF092C1
100
AcDbEntity
  8
JISSEN
100
AcDbLine
 10
151.2006752928757
 20
221.4908391819503
 30
0.0
 11
150.0667006966634
 21
219.5267375668195
 31
0.0
  0
LINE
  5
5EF100DD
330
5EF092C1
100
AcDbEntity
  8
JISSEN
100
AcDbLine
 10
153.7987515042279
 20
222.9908391819522
 30
0.0
 11
153.5667006966634
 21
222.9908391819522
 31
0.0
  0
ARC
  5
5EF100DE
330
5EF092C1
100
AcDbEntity
  8
JISSEN
  6
BYBLOCK
100
AcDbCircle
 10
149.0667006966634
 20
229.4908179397975
 30
0.0
 40
3.0
100
AcDbArc
 50
269.7843862188173
 51
359.9999999939551
  0
ARC
  5
5EF100DF
330
5EF092C1
100
AcDbEntity
  8
JISSEN
  6
BYBLOCK
100
AcDbCircle
 10
149.0667006966634
 20
225.4908391819522
 30
0.0
 40
1.0
100
AcDbArc
 50
0.0
 51
90.0
  0
LINE
  5
5EF100E0
330
5EF092C1
100
AcDbEntity
  8
JISSEN
  6
BYBLOCK
100
AcDbLine
 10
128.5667006966634
 20
228.490839181954
 30
0.0
 11
130.5667006966634
 21
226.4908391819521
 31
0.0
  0
LINE
  5
5EF100E1
330
5EF092C1
100
AcDbEntity
  8
JISSEN
  6
BYBLOCK
100
AcDbLine
 10
130.5667006966634
 20
226.4908391819521
 30
0.0
 11
128.5667006966634
 21
224.4908391819521
 31
0.0
  0
LINE
  5
5EF100E2
330
5EF092C1
100
AcDbEntity
  8
JISSEN
  6
BYBLOCK
100
AcDbLine
 10
130.5667006966634
 20
226.4908391819521
 30
0.0
 11
149.0667006966634
 21
226.4908391819521
 31
0.0
  0
LINE
  5
5EF100E3
330
5EF092C1
100
AcDbEntity
  8
JISSEN
 48
0.5
100
AcDbLine
 10
128.5667006966634
 20
228.490839181954
 30
0.0
 11
128.5667006966634
 21
238.9908391819521
 31
0.0
  0
ARC
  5
5EF100E4
330
5EF092C1
100
AcDbEntity
  8
JISSEN
100
AcDbCircle
 10
147.2421453763256
 20
240.9908391819521
 30
0.0
 40
5.0
100
AcDbArc
 50
270.0
 51
344.7769774870403
  0
ARC
  5
5EF100E5
330
5EF092C1
100
AcDbEntity
  8
JISSEN
100
AcDbCircle
 10
145.8912560170031
 20
240.9908391819521
 30
0.0
 40
5.0
100
AcDbArc
 50
193.3423637971132
 51
270.0
  0
ARC
  5
5EF100E6
330
5EF092C1
100
AcDbEntity
  8
JISSEN
100
AcDbCircle
 10
145.8912560170013
 20
240.9908391819521
 30
0.0
 40
5.0
100
AcDbArc
 50
193.3423637971132
 51
270.0
  0
LINE
  5
5EF100E7
330
5EF092C1
100
AcDbEntity
  8
JISSEN
100
AcDbLine
 10
152.0667006966634
 20
239.6779545864869
 30
0.0
 11
152.0667006966634
 21
224.4908391819521
 31
0.0
  0
LINE
  5
5EF100E8
330
5EF092C1
100
AcDbEntity
  8
JISSEN
100
AcDbLine
 10
223.5667006966634
 20
238.9908391819503
 30
0.0
 11
152.0667006966634
 21
238.9908391819521
 31
0.0
  0
ARC
  5
5EF100E9
330
5EF092C1
100
AcDbEntity
  8
JISSEN
100
AcDbCircle
 10
182.5567006966668
 20
245.7747739058672
 30
0.0
 40
16.21606527611808
100
AcDbArc
 50
72.41204622603636
 51
107.5879537739636
  0
LINE
  5
5EF100EA
330
5EF092C1
100
AcDbEntity
  8
JISSEN
100
AcDbLine
 10
174.0696517395774
 20
261.9908391819849
 30
0.0
 11
191.0437496537526
 21
261.9908391819867
 31
0.0
  0
LINE
  5
5EF100EB
330
5EF092C1
100
AcDbEntity
  8
JISSEN
100
AcDbLine
 10
294.5667006966651
 20
254.9908391818376
 30
0.0
 11
153.0667006966653
 21
254.9908391820213
 31
0.0
  0
LINE
  5
5EF100EC
330
5EF092C1
100
AcDbEntity
  8
JISSEN
100
AcDbLine
 10
153.5667006966634
 20
222.9908391819522
 30
0.0
 11
292.2244489684181
 21
222.9908391819522
 31
0.0
  0
LWPOLYLINE
  5
5EF100ED
330
5EF092C1
100
AcDbEntity
  8
JISSEN
100
AcDbPolyline
 90
       12
 70
     0
 43
0.0
 10
250.0667006966706
 20
201.9908391819522
 10
243.1384974663943
 20
205.9908391819521
 10
243.1384974663943
 20
203.9908391819631
 10
233.9353942453127
 20
203.9908391819631
 10
228.440439406435
 20
205.9908391819521
 10
197.0667006966634
 20
205.9908391819521
 10
197.0667006966634
 20
197.9908391819521
 10
228.4404394063732
 20
197.9908391819503
 10
233.9353942453127
 20
199.9908391819631
 10
243.1384974663943
 20
199.9908391819631
 10
243.1384974663943
 20
197.9908391819703
 10
250.0667006966706
 20
201.9908391819522
  0
LINE
  5
5EF100EE
330
5EF092C1
100
AcDbEntity
  8
JISSEN
100
AcDbLine
 10
223.5667006966634
 20
238.9908391819521
 30
0.0
 11
295.0667006966597
 21
238.9908391819485
 31
0.0
  0
LINE
  5
5EF100EF
330
5EF092C1
100
AcDbEntity
  8
JISSEN
100
AcDbLine
 10
262.5667006966651
 20
272.9908391819485
 30
0.0
 11
240.566700696667
 21
272.9908391819485
 31
0.0
  0
ARC
  5
5EF100F0
330
5EF092C1
100
AcDbEntity
  8
JISSEN
100
AcDbCircle
 10
294.0667006966633
 20
183.9911227859452
 30
0.0
 40
3.0
100
AcDbArc
 50
269.035096376887
 51
0.0
  0
ARC
  5
5EF100F1
330
5EF092C1
100
AcDbEntity
  8
JISSEN
100
AcDbCircle
 10
223.5667006966634
 20
98.9908391819522
 30
0.0
 40
107.0
100
AcDbArc
 50
50.96721327707104
 51
58.81137766654104
  0
ARC
  5
5EF100F2
330
5EF092C1
100
AcDbEntity
  8
JISSEN
100
AcDbCircle
 10
294.1003805949932
 20
185.9908391819521
 30
0.0
 40
5.0
100
AcDbArc
 50
230.967213277071
 51
269.035096376887
  0
LINE
  5
5EF100F3
330
5EF092C1
100
AcDbEntity
  8
JISSEN
100
AcDbLine
 10
256.3167006966633
 20
187.4908391819503
 30
0.0
 11
256.3167006966633
 21
181.4908391819503
 31
0.0
  0
LINE
  5
5EF100F4
330
5EF092C1
100
AcDbEntity
  8
JISSEN
100
AcDbLine
 10
258.3167006966633
 20
187.4908391819503
 30
0.0
 11
258.3167006966633
 21
181.4908391819503
 31
0.0
  0
LINE
  5
5EF100F5
330
5EF092C1
100
AcDbEntity
  8
JISSEN
100
AcDbLine
 10
248.3167006966633
 20
187.4908391819503
 30
0.0
 11
248.3167006966633
 21
181.4908391819503
 31
0.0
  0
ARC
  5
5EF100F6
330
5EF092C1
100
AcDbEntity
  8
JISSEN
100
AcDbCircle
 10
252.3167006966633
 20
187.4908391819503
 30
0.0
 40
4.0
100
AcDbArc
 50
0.0
 51
180.0
  0
ARC
  5
5EF100F7
330
5EF092C1
100
AcDbEntity
  8
JISSEN
100
AcDbCircle
 10
252.3167006966633
 20
181.4908391819503
 30
0.0
 40
4.0
100
AcDbArc
 50
180.0
 51
0.0
  0
CIRCLE
  5
5EF100F8
330
5EF092C1
100
AcDbEntity
  8
JISSEN
100
AcDbCircle
 10
263.5667006966633
 20
161.4908391819521
 30
0.0
 40
0.8
  0
ARC
  5
5EF100F9
330
5EF092C1
100
AcDbEntity
  8
JISSEN
100
AcDbCircle
 10
294.0667006966633
 20
110.9908391819522
 30
0.0
 40
3.0
100
AcDbArc
 50
0.0
 51
90.0
  0
ARC
  5
5EF100FA
330
5EF092C1
100
AcDbEntity
  8
JISSEN
100
AcDbCircle
 10
292.5014524551207
 20
101.9908391819521
 30
0.0
 40
12.0
100
AcDbArc
 50
90.0
 51
125.4001726252818
  0
LINE
  5
5EF100FB
330
5EF092C1
100
AcDbEntity
  8
JISSEN
100
AcDbLine
 10
292.5014524551207
 20
113.9908391819522
 30
0.0
 11
294.0667006966633
 21
113.9908391819522
 31
0.0
  0
CIRCLE
  5
5EF100FC
330
5EF092C1
100
AcDbEntity
  8
JISSEN
100
AcDbCircle
 10
263.5667006966633
 20
136.4908391819521
 30
0.0
 40
0.8
  0
LINE
  5
5EF100FD
330
5EF092C1
100
AcDbEntity
  8
JISSEN
100
AcDbLine
 10
316.5667006966561
 20
71.49083918185033
 30
0.0
 11
318.5667006966597
 21
73.49083918185034
 31
0.0
  0
ARC
  5
5EF100FE
330
5EF092C1
100
AcDbEntity
  8
JISSEN
100
AcDbCircle
 10
298.0667006966633
 20
72.4908391819522
 30
0.0
 40
1.0
100
AcDbArc
 50
180.0
 51
270.0
  0
ARC
  5
5EF100FF
330
5EF092C1
100
AcDbEntity
  8
JISSEN
100
AcDbCircle
 10
298.0667006966561
 20
72.49083918187216
 30
0.0
 40
1.0
100
AcDbArc
 50
179.9999999998957
 51
269.9999999998957
  0
LINE
  5
5EF10100
330
5EF092C1
100
AcDbEntity
  8
JISSEN
100
AcDbLine
 10
249.5667006966633
 20
91.366492494039
 30
0.0
 11
249.5667006966633
 21
81.99083918195219
 31
0.0
  0
ARC
  5
5EF10101
330
5EF092C1
100
AcDbEntity
  8
JISSEN
100
AcDbCircle
 10
254.5667006966633
 20
91.366492494039
 30
0.0
 40
5.0
100
AcDbArc
 50
106.0684593829078
 51
180.0
  0
LINE
  5
5EF10102
330
5EF092C1
100
AcDbEntity
  8
JISSEN
100
AcDbLine
 10
316.5667006967561
 20
71.4908391819522
 30
0.0
 11
298.0667006966633
 21
71.4908391819522
 31
0.0
  0
LINE
  5
5EF10103
330
5EF092C1
100
AcDbEntity
  8
JISSEN
100
AcDbLine
 10
316.5667006966561
 20
71.49083918185033
 30
0.0
 11
298.0667006966561
 21
71.49083918187216
 31
0.0
  0
LINE
  5
5EF10104
330
5EF092C1
100
AcDbEntity
  8
JISSEN
100
AcDbLine
 10
246.3167006966633
 20
187.4908391819503
 30
0.0
 11
246.3167006966633
 21
181.4908391819503
 31
0.0
  0
LINE
  5
5EF10105
330
5EF092C1
100
AcDbEntity
  8
JISSEN
100
AcDbLine
 10
234.8167006966633
 20
186.1575058486164
 30
0.0
 11
235.9931712848994
 21
186.7849568290098
 31
0.0
  0
LINE
  5
5EF10106
330
5EF092C1
100
AcDbEntity
  8
JISSEN
100
AcDbLine
 10
234.287288931957
 20
183.6084862407737
 30
0.0
 11
236.9343477554867
 21
185.0202509466566
 31
0.0
  0
LINE
  5
5EF10107
330
5EF092C1
100
AcDbEntity
  8
JISSEN
100
AcDbLine
 10
234.8167006966633
 20
191.4908391819522
 30
0.0
 11
234.8167006966633
 21
186.1575058486164
 31
0.0
  0
LINE
  5
5EF10108
330
5EF092C1
100
AcDbEntity
  8
JISSEN
100
AcDbLine
 10
243.8167006966633
 20
191.4908391819522
 30
0.0
 11
234.8167006966633
 21
191.4908391819522
 31
0.0
  0
ARC
  5
5EF10109
330
5EF092C1
100
AcDbEntity
  8
JISSEN
100
AcDbCircle
 10
238.8167006966633
 20
181.4908391819503
 30
0.0
 40
6.0
100
AcDbArc
 50
194.9999999999944
 51
118.0724869358253
  0
ARC
  5
5EF1010A
330
5EF092C1
100
AcDbEntity
  8
JISSEN
100
AcDbCircle
 10
238.8167006966633
 20
181.4908391819503
 30
0.0
 40
4.0
100
AcDbArc
 50
194.9999999999944
 51
118.0724869358253
  0
ARC
  5
5EF1010B
330
5EF092C1
100
AcDbEntity
  8
JISSEN
100
AcDbCircle
 10
233.9870715652196
 20
180.1967439564382
 30
0.0
 40
1.00000000000044
100
AcDbArc
 50
14.99999999999445
 51
194.9999999999944
  0
ARC
  5
5EF1010C
330
5EF092C1
100
AcDbEntity
  8
JISSEN
100
AcDbCircle
 10
230.3167006966633
 20
184.4908391819503
 30
0.0
 40
1.0
100
AcDbArc
 50
270.0
 51
90.0
  0
ARC
  5
5EF1010D
330
5EF092C1
100
AcDbEntity
  8
JISSEN
100
AcDbCircle
 10
220.3167006966653
 20
184.4908391819503
 30
0.0
 40
1.0
100
AcDbArc
 50
90.0
 51
270.0
  0
LINE
  5
5EF1010E
330
5EF092C1
100
AcDbEntity
  8
JISSEN
100
AcDbLine
 10
220.3167006966653
 20
185.4908391819503
 30
0.0
 11
230.3167006966633
 21
185.4908391819503
 31
0.0
  0
LINE
  5
5EF1010F
330
5EF092C1
100
AcDbEntity
  8
JISSEN
100
AcDbLine
 10
230.3167006966633
 20
183.4908391819503
 30
0.0
 11
220.3167006966653
 21
183.4908391819503
 31
0.0
  0
ARC
  5
5EF10110
330
5EF092C1
100
AcDbEntity
  8
JISSEN
100
AcDbCircle
 10
233.8167006966633
 20
184.4908391819503
 30
0.0
 40
1.0
100
AcDbArc
 50
180.0
 51
298.0724869358254
  0
LINE
  5
5EF10111
330
5EF092C1
100
AcDbEntity
  8
JISSEN
100
AcDbLine
 10
202.3167006966634
 20
187.4908391819503
 30
0.0
 11
202.3167006966634
 21
181.4908391819503
 31
0.0
  0
LINE
  5
5EF10112
330
5EF092C1
100
AcDbEntity
  8
JISSEN
100
AcDbLine
 10
204.3167006966634
 20
187.4908391819503
 30
0.0
 11
204.3167006966634
 21
181.4908391819503
 31
0.0
  0
LINE
  5
5EF10113
330
5EF092C1
100
AcDbEntity
  8
JISSEN
100
AcDbLine
 10
211.3983626416395
 20
185.3515842241763
 30
0.0
 11
207.8167006966634
 21
181.5908391819507
 31
0.0
  0
ARC
  5
5EF10114
330
5EF092C1
100
AcDbEntity
  8
JISSEN
100
AcDbCircle
 10
206.8167006966634
 20
176.4908391819503
 30
0.0
 40
1.0
100
AcDbArc
 50
180.0
 51
0.0
  0
LINE
  5
5EF10115
330
5EF092C1
100
AcDbEntity
  8
JISSEN
100
AcDbLine
 10
211.3983626416395
 20
185.3515842241763
 30
0.0
 11
215.9173001106285
 21
176.0537138156782
 31
0.0
  0
LINE
  5
5EF10116
330
5EF092C1
100
AcDbEntity
  8
JISSEN
100
AcDbLine
 10
207.8167006966634
 20
181.5908391819507
 30
0.0
 11
207.8167006966634
 21
176.4908391819503
 31
0.0
  0
LINE
  5
5EF10117
330
5EF092C1
100
AcDbEntity
  8
JISSEN
100
AcDbLine
 10
194.3167006966634
 20
187.4908391819503
 30
0.0
 11
194.3167006966634
 21
181.4908391819503
 31
0.0
  0
LINE
  5
5EF10118
330
5EF092C1
100
AcDbEntity
  8
JISSEN
100
AcDbLine
 10
192.3167006966634
 20
187.4908391819503
 30
0.0
 11
192.3167006966634
 21
181.4908391819503
 31
0.0
  0
ARC
  5
5EF10119
330
5EF092C1
100
AcDbEntity
  8
JISSEN
100
AcDbCircle
 10
189.8167006966634
 20
176.4908391819503
 30
0.0
 40
1.0
100
AcDbArc
 50
180.0
 51
0.0
  0
ARC
  5
5EF1011A
330
5EF092C1
100
AcDbEntity
  8
JISSEN
100
AcDbCircle
 10
198.3167006966634
 20
181.4908391819503
 30
0.0
 40
6.0
100
AcDbArc
 50
180.0
 51
0.0
  0
ARC
  5
5EF1011B
330
5EF092C1
100
AcDbEntity
  8
JISSEN
100
AcDbCircle
 10
198.3167006966634
 20
181.4908391819503
 30
0.0
 40
4.0
100
AcDbArc
 50
180.0
 51
0.0
  0
ARC
  5
5EF1011C
330
5EF092C1
100
AcDbEntity
  8
JISSEN
100
AcDbCircle
 10
198.3167006966634
 20
187.4908391819503
 30
0.0
 40
4.0
100
AcDbArc
 50
0.0
 51
180.0
  0
LINE
  5
5EF1011D
330
5EF092C1
100
AcDbEntity
  8
JISSEN
100
AcDbLine
 10
212.8707022892287
 20
186.8975408541432
 30
0.0
 11
217.7161012827002
 21
176.9279645482242
 31
0.0
  0
ARC
  5
5EF1011E
330
5EF092C1
100
AcDbEntity
  8
JISSEN
100
AcDbCircle
 10
216.8167006966634
 20
176.4908391819522
 30
0.0
 40
1.0
100
AcDbArc
 50
205.92061153659
 51
25.92061153659016
  0
LINE
  5
5EF1011F
330
5EF092C1
100
AcDbEntity
  8
JISSEN
100
AcDbLine
 10
217.5408386276978
 20
191.8011840095373
 30
0.0
 11
212.8707022892287
 21
186.8975408541432
 31
0.0
  0
CIRCLE
  5
5EF10120
330
5EF092C1
100
AcDbEntity
  8
JISSEN
100
AcDbCircle
 10
183.5667006966634
 20
161.4908391819521
 30
0.0
 40
0.8
  0
ARC
  5
5EF10121
330
5EF092C1
100
AcDbEntity
  8
JISSEN
100
AcDbCircle
 10
153.0330207983336
 20
185.9908391819521
 30
0.0
 40
5.0
100
AcDbArc
 50
270.9649036231128
 51
309.0327867229289
  0
ARC
  5
5EF10122
330
5EF092C1
100
AcDbEntity
  8
JISSEN
100
AcDbCircle
 10
153.0667006966634
 20
183.9911227859452
 30
0.0
 40
3.0
100
AcDbArc
 50
180.0
 51
270.9649036231128
  0
ARC
  5
5EF10123
330
5EF092C1
100
AcDbEntity
  8
JISSEN
100
AcDbCircle
 10
223.5667006966634
 20
98.9908391819522
 30
0.0
 40
107.0
100
AcDbArc
 50
121.1886223334589
 51
129.0327867229289
  0
CIRCLE
  5
5EF10124
330
5EF092C1
100
AcDbEntity
  8
JISSEN
100
AcDbCircle
 10
183.5667006966634
 20
136.4908391819521
 30
0.0
 40
0.8
  0
LINE
  5
5EF10125
330
5EF092C1
100
AcDbEntity
  8
JISSEN
100
AcDbLine
 10
153.0558475575765
 20
113.9908391819522
 30
0.0
 11
154.6319489382078
 21
113.9908391819522
 31
0.0
  0
ARC
  5
5EF10126
330
5EF092C1
100
AcDbEntity
  8
JISSEN
100
AcDbCircle
 10
153.0558475575765
 20
110.9908391819522
 30
0.0
 40
3.0
100
AcDbArc
 50
90.0
 51
180.0
  0
ARC
  5
5EF10127
330
5EF092C1
100
AcDbEntity
  8
JISSEN
100
AcDbCircle
 10
154.6319489382078
 20
101.9908391819521
 30
0.0
 40
12.0
100
AcDbArc
 50
54.59982737471816
 51
90.0
  0
LINE
  5
5EF10128
330
5EF092C1
100
AcDbEntity
  8
SAISEN
100
AcDbLine
 10
238.7590780392221
 20
78.9908391819522
 30
0.0
 11
239.0125282046411
 21
70.88083918195161
 31
0.0
  0
LINE
  5
5EF10129
330
5EF092C1
100
AcDbEntity
  8
JISSEN
100
AcDbLine
 10
240.4915282046423
 20
70.88083918195161
 30
0.0
 11
240.2380780392214
 21
78.9908391819522
 31
0.0
  0
LINE
  5
5EF1012A
330
5EF092C1
100
AcDbEntity
  8
JISSEN
100
AcDbLine
 10
237.0017295392082
 20
70.88083918195161
 30
0.0
 11
237.0017295392082
 21
58.88083918195161
 31
0.0
  0
LINE
  5
5EF1012B
330
5EF092C1
100
AcDbEntity
  8
JISSEN
100
AcDbLine
 10
223.5667006966634
 20
70.88083918195161
 30
0.0
 11
237.0017295392082
 21
58.88083918195161
 31
0.0
  0
LINE
  5
5EF1012C
330
5EF092C1
100
AcDbEntity
  8
JISSEN
100
AcDbLine
 10
237.0017295392082
 20
70.88083918195161
 30
0.0
 11
223.5667006966634
 21
58.88083918195161
 31
0.0
  0
LINE
  5
5EF1012D
330
5EF092C1
100
AcDbEntity
  8
JISSEN
100
AcDbLine
 10
197.5667006966634
 20
91.366492494039
 30
0.0
 11
197.5667006966634
 21
81.99083918195219
 31
0.0
  0
ARC
  5
5EF1012E
330
5EF092C1
100
AcDbEntity
  8
JISSEN
100
AcDbCircle
 10
192.5667006966634
 20
91.366492494039
 30
0.0
 40
5.0
100
AcDbArc
 50
0.0
 51
73.93154061709218
  0
LINE
  5
5EF1012F
330
5EF092C1
100
AcDbEntity
  8
JISSEN
100
AcDbLine
 10
206.6418731886863
 20
70.88083918195161
 30
0.0
 11
206.8953233541053
 21
78.9908391819522
 31
0.0
  0
LINE
  5
5EF10130
330
5EF092C1
100
AcDbEntity
  8
SAISEN
100
AcDbLine
 10
208.3743233541065
 20
78.9908391819522
 30
0.0
 11
208.1208731886856
 21
70.88083918195161
 31
0.0
  0
LINE
  5
5EF10131
330
5EF092C1
100
AcDbEntity
  8
JISSEN
100
AcDbLine
 10
210.1316718541186
 20
58.88083918195161
 30
0.0
 11
210.1316718541186
 21
70.88083918195161
 31
0.0
  0
ARC
  5
5EF10132
330
5EF092C1
100
AcDbEntity
  8
JISSEN
100
AcDbCircle
 10
200.5667006966634
 20
81.99083918195219
 30
0.0
 40
3.0
100
AcDbArc
 50
180.0
 51
270.0
  0
LINE
  5
5EF10133
330
5EF092C1
100
AcDbEntity
  8
JISSEN
100
AcDbLine
 10
240.4915282046423
 20
70.88083918195161
 30
0.0
 11
206.6418731886863
 21
70.88083918195161
 31
0.0
  0
LINE
  5
5EF10134
330
5EF092C1
100
AcDbEntity
  8
JISSEN
100
AcDbLine
 10
200.5667006966634
 20
78.9908391819522
 30
0.0
 11
246.5667006966633
 21
78.9908391819522
 31
0.0
  0
LINE
  5
5EF10135
330
5EF092C1
100
AcDbEntity
  8
JISSEN
100
AcDbLine
 10
237.0017295392082
 20
58.88083918195161
 30
0.0
 11
210.1316718541186
 21
58.88083918195161
 31
0.0
  0
LINE
  5
5EF10136
330
5EF092C1
100
AcDbEntity
  8
JISSEN
100
AcDbLine
 10
223.5667006966634
 20
70.88083918195161
 30
0.0
 11
210.1316718541186
 21
58.88083918195161
 31
0.0
  0
LINE
  5
5EF10137
330
5EF092C1
100
AcDbEntity
  8
JISSEN
100
AcDbLine
 10
223.5667006966634
 20
58.88083918195161
 30
0.0
 11
210.1316718541186
 21
70.88083918195161
 31
0.0
  0
ARC
  5
5EF10138
330
5EF092C1
100
AcDbEntity
  8
JISSEN
100
AcDbCircle
 10
165.0667006966652
 20
72.4908391819522
 30
0.0
 40
1.0
100
AcDbArc
 50
270.0
 51
0.0
  0
LINE
  5
5EF10139
330
5EF092C1
100
AcDbEntity
  8
JISSEN
100
AcDbLine
 10
158.5519820709016
 20
67.79083918195147
 30
0.0
 11
158.5519820709016
 21
58.79083918195147
 31
0.0
  0
LINE
  5
5EF1013A
330
5EF092C1
100
AcDbEntity
  8
JISSEN
100
AcDbLine
 10
158.716700696663
 20
71.4908391819522
 30
0.0
 11
158.716700696663
 21
67.79083918195147
 31
0.0
  0
LINE
  5
5EF1013B
330
5EF092C1
100
AcDbEntity
  8
JISSEN
100
AcDbLine
 10
166.0667006966652
 20
100.0577810062318
 30
0.0
 11
166.0667006966652
 21
72.4908391819522
 31
0.0
  0
LINE
  5
5EF1013C
330
5EF092C1
100
AcDbEntity
  8
JISSEN
100
AcDbLine
 10
150.0667006966634
 20
71.4908391819522
 30
0.0
 11
150.0667006966634
 21
74.26964907153115
 31
0.0
  0
ARC
  5
5EF1013D
330
5EF092C1
100
AcDbEntity
  8
JISSEN
100
AcDbCircle
 10
149.0667006966634
 20
72.4908391819522
 30
0.0
 40
1.0
100
AcDbArc
 50
270.0
 51
0.0
  0
LINE
  5
5EF1013E
330
5EF092C1
100
AcDbEntity
  8
JISSEN
100
AcDbLine
 10
153.7667006966623
 20
71.49083918195401
 30
0.0
 11
143.3802357801835
 21
71.49083918195401
 31
0.0
  0
LINE
  5
5EF1013F
330
5EF092C1
100
AcDbEntity
  8
JISSEN
100
AcDbLine
 10
150.0667006966634
 20
58.79083918195147
 30
0.0
 11
150.0667006966634
 21
67.79083918195147
 31
0.0
  0
LINE
  5
5EF10140
330
5EF092C1
100
AcDbEntity
  8
JISSEN
100
AcDbLine
 10
141.5814193224234
 20
58.79083918195147
 30
0.0
 11
141.5814193224252
 21
67.79083918195147
 31
0.0
  0
LINE
  5
5EF10141
330
5EF092C1
100
AcDbEntity
  8
JISSEN
100
AcDbLine
 10
141.5814193224252
 20
67.79083918195147
 30
0.0
 11
150.0667006966634
 21
58.79083918195147
 31
0.0
  0
LINE
  5
5EF10142
330
5EF092C1
100
AcDbEntity
  8
JISSEN
100
AcDbLine
 10
141.5814193224234
 20
58.79083918195147
 30
0.0
 11
150.0667006966634
 21
67.79083918195147
 31
0.0
  0
LINE
  5
5EF10143
330
5EF092C1
100
AcDbEntity
  8
JISSEN
100
AcDbLine
 10
150.0667006966634
 20
67.79083918195147
 30
0.0
 11
141.4167006966638
 21
67.79083918195147
 31
0.0
  0
LINE
  5
5EF10144
330
5EF092C1
100
AcDbEntity
  8
JISSEN
100
AcDbLine
 10
141.4167006966638
 20
67.79083918195147
 30
0.0
 11
141.4167006966638
 21
71.4908391819522
 31
0.0
  0
LINE
  5
5EF10145
330
5EF092C1
100
AcDbEntity
  8
JISSEN
100
AcDbLine
 10
130.5667006966634
 20
71.4908391819522
 30
0.0
 11
128.5667006966634
 21
73.49083918195219
 31
0.0
  0
LINE
  5
5EF10146
330
5EF092C1
100
AcDbEntity
  8
JISSEN
100
AcDbLine
 10
130.5667006966634
 20
71.4908391819522
 30
0.0
 11
149.0667006966634
 21
71.4908391819522
 31
0.0
  0
LINE
  5
5EF10147
330
5EF092C1
100
AcDbEntity
  8
JISSEN
100
AcDbLine
 10
165.0667006966652
 20
71.4908391819522
 30
0.0
 11
130.5667006966634
 21
71.4908391819522
 31
0.0
  0
LINE
  5
5EF10148
330
5EF092C1
100
AcDbEntity
  8
JISSEN
100
AcDbLine
 10
158.5519820709016
 20
58.79083918195147
 30
0.0
 11
150.0667006966634
 21
67.79083918195329
 31
0.0
  0
LINE
  5
5EF10149
330
5EF092C1
100
AcDbEntity
  8
JISSEN
100
AcDbLine
 10
150.0667006966634
 20
58.79083918195147
 30
0.0
 11
158.5519820709016
 21
67.79083918195147
 31
0.0
  0
LINE
  5
5EF1014A
330
5EF092C1
100
AcDbEntity
  8
JISSEN
100
AcDbLine
 10
158.5519820709016
 20
58.79083918195147
 30
0.0
 11
141.5814193224234
 21
58.79083918195147
 31
0.0
  0
LINE
  5
5EF1014B
330
5EF092C1
100
AcDbEntity
  8
JISSEN
100
AcDbLine
 10
158.716700696663
 20
67.79083918195147
 30
0.0
 11
150.0667006966634
 21
67.79083918195147
 31
0.0
  0
LINE
  5
5EF1014C
330
5EF092C1
100
AcDbEntity
  8
JISSEN
100
AcDbLine
 10
141.4167006966638
 20
71.4908391819522
 30
0.0
 11
158.716700696663
 21
71.4908391819522
 31
0.0
  0
ARC
  5
5EF1014D
330
5EF092C1
100
AcDbEntity
  8
JISSEN
100
AcDbCircle
 10
171.0667006966652
 20
100.0577810062318
 30
0.0
 40
5.0
100
AcDbArc
 50
62.04681311661882
 51
180.0
  0
ARC
  5
5EF1014F
330
5EF092C1
100
AcDbEntity
  8
JISSEN
100
AcDbCircle
 10
223.5667006966634
 20
198.9908391819522
 30
0.0
 40
107.0
100
AcDbArc
 50
234.5998273747181
 51
305.4001726252818
  0
LWPOLYLINE
  5
5EF10150
330
5EF092C1
100
AcDbEntity
  8
JISSEN
100
AcDbPolyline
 90
        8
 70
     1
 43
0.0
 10
266.0667006966633
 20
131.9908391819503
 10
181.0667006966634
 20
131.9908391819522
 42
-0.4142135623730951
 10
179.0667006966634
 20
133.9908391819522
 10
179.0667006966634
 20
163.9908391819522
 42
-0.4142135623730951
 10
181.0667006966634
 20
165.9908391819522
 10
266.0667006966633
 20
165.9908391819522
 42
-0.4142135623730951
 10
268.0667006966633
 20
163.9908391819522
 10
268.0667006966633
 20
133.9908391819503
 42
-0.4142135623730951
  0
LWPOLYLINE
  5
5EF10151
330
5EF092C1
100
AcDbEntity
  8
JISSEN
100
AcDbPolyline
 90
        4
 70
     1
 43
0.0
 10
181.0667006966634
 20
163.9908391819522
 10
266.0667006966633
 20
163.9908391819522
 10
266.0667006966633
 20
133.9908391819522
 10
181.0667006966634
 20
133.9908391819522
  0
ARC
  5
5EF10152
330
5EF092C1
100
AcDbEntity
  8
JISSEN
100
AcDbCircle
 10
246.5667006966633
 20
81.99083918195219
 30
0.0
 40
3.0
100
AcDbArc
 50
270.0
 51
0.0
  0
ARC
  5
5EF10153
330
5EF092C1
100
AcDbEntity
  8
JISSEN
100
AcDbCircle
 10
252.3167006966633
 20
181.4908391819503
 30
0.0
 40
6.0
100
AcDbArc
 50
180.0
 51
0.0
  0
ARC
  5
5EF10154
330
5EF092C1
100
AcDbEntity
  8
JISSEN
100
AcDbCircle
 10
165.5667006966634
 20
194.8031557179788
 30
0.0
 40
5.0
100
AcDbArc
 50
301.1886223334589
 51
0.0
  0
LINE
  5
5EF10155
330
5EF092C1
100
AcDbEntity
  8
JISSEN
100
AcDbLine
 10
150.0667006966634
 20
225.4908391819522
 30
0.0
 11
150.0667006966634
 21
72.4908391819522
 31
0.0
  0
LINE
  5
5EF10156
330
5EF092C1
100
AcDbEntity
  8
JISSEN
100
AcDbLine
 10
128.5667006966634
 20
224.4908391819521
 30
0.0
 11
128.5667006966634
 21
73.49083918195038
 31
0.0
  0
LINE
  5
5EF10157
330
5EF092C1
100
AcDbEntity
  8
JISSEN
100
AcDbLine
 10
297.0667006966633
 20
225.4908391819522
 30
0.0
 11
297.0667006966633
 21
72.4908391819522
 31
0.0
  0
ARC
  5
5EF10159
330
5EF092C1
100
AcDbEntity
  8
JISSEN
100
AcDbCircle
 10
198.3167006966634
 20
187.4908391819503
 30
0.0
 40
6.0
100
AcDbArc
 50
0.0
 51
180.0
  0
LINE
  5
5EF1015A
330
5EF092C1
100
AcDbEntity
  8
JISSEN
100
AcDbLine
 10
190.8167006966634
 20
192.4908391819503
 30
0.0
 11
190.8167006966634
 21
176.4908391819503
 31
0.0
  0
LINE
  5
5EF1015B
330
5EF092C1
100
AcDbEntity
  8
JISSEN
100
AcDbLine
 10
188.8167006966634
 20
176.4908391819503
 30
0.0
 11
188.8167006966634
 21
192.4908391819503
 31
0.0
  0
LINE
  5
5EF1015C
330
5EF092C1
100
AcDbEntity
  8
JISSEN
100
AcDbLine
 10
205.8167006966634
 20
176.4908391819503
 30
0.0
 11
205.8167006966634
 21
192.4908391819503
 31
0.0
  0
ARC
  5
5EF1015D
330
5EF092C1
100
AcDbEntity
  8
JISSEN
100
AcDbCircle
 10
216.8167006966634
 20
192.4908391819503
 30
0.0
 40
1.0
100
AcDbArc
 50
316.3971810273277
 51
136.3971810273278
  0
LINE
  5
5EF1015E
330
5EF092C1
100
AcDbEntity
  8
JISSEN
100
AcDbLine
 10
207.8167006966634
 20
192.4908391819503
 30
0.0
 11
207.8167006966634
 21
184.4908391819503
 31
0.0
  0
LINE
  5
5EF1015F
330
5EF092C1
100
AcDbEntity
  8
JISSEN
100
AcDbLine
 10
216.092562765629
 20
193.1804943543652
 30
0.0
 11
207.8167006966634
 21
184.4908391819503
 31
0.0
  0
LINE
  5
5EF10160
330
5EF092C1
100
AcDbEntity
  8
JISSEN
100
AcDbLine
 10
232.8167006966633
 20
192.4908391819522
 30
0.0
 11
232.8167006966633
 21
184.4908391819503
 31
0.0
  0
ARC
  5
5EF10161
330
5EF092C1
100
AcDbEntity
  8
JISSEN
100
AcDbCircle
 10
252.3167006966633
 20
187.4908391819503
 30
0.0
 40
6.0
100
AcDbArc
 50
0.0
 51
180.0
  0
ARC
  5
5EF10162
330
5EF092C1
100
AcDbEntity
  8
JISSEN
100
AcDbCircle
 10
243.8167006966633
 20
192.4908391819522
 30
0.0
 40
1.0
100
AcDbArc
 50
270.0
 51
90.0
  0
ARC
  5
5EF10163
330
5EF092C1
100
AcDbEntity
  8
JISSEN
100
AcDbCircle
 10
281.5667006966633
 20
194.8031557179788
 30
0.0
 40
5.0
100
AcDbArc
 50
180.0
 51
238.811377666541
  0
LINE
  5
5EF10164
330
5EF092C1
100
AcDbEntity
  8
JISSEN
100
AcDbLine
 10
318.5667006966633
 20
224.4908391820067
 30
0.0
 11
318.5667006966633
 21
73.49083918185397
 31
0.0
  0
LINE
  5
5EF10165
330
5EF092C1
100
AcDbEntity
  8
JISSEN
100
AcDbLine
 10
316.5667006968234
 20
226.4908391818503
 30
0.0
 11
316.5667006966561
 21
71.49083918185033
 31
0.0
  0
LINE
  5
5EF10166
330
5EF092C1
100
AcDbEntity
  8
JISSEN
100
AcDbLine
 10
130.5667006966634
 20
226.4908391819521
 30
0.0
 11
130.5667006966634
 21
71.4908391819522
 31
0.0
  0
LINE
  5
5EF1016B
330
5EF092C1
100
AcDbEntity
  8
ITTEN
  6
CENTER
 48
3.0
100
AcDbLine
 10
223.5667017826633
 20
53.28083918193039
 30
0.0
 11
223.5667017826633
 21
303.9908391819303
 31
0.0
  0
LINE
  5
5EF1016C
330
5EF092C1
100
AcDbEntity
  8
ITTEN
  6
CENTER
 48
3.0
100
AcDbLine
 10
328.5667006966633
 20
148.9908391819303
 30
0.0
 11
118.5667006966633
 21
148.9908391819303
 31
0.0
  0
CIRCLE
  5
5EF1016D
330
5EF092C1
100
AcDbEntity
  8
JISSEN
100
AcDbCircle
 10
569.6758193939579
 20
148.9908391819303
 30
0.0
 40
27.0
  0
LINE
  5
5EF112D5
330
5EF092C1
100
AcDbEntity
  8
JISSEN
 48
0.5
100
AcDbLine
 10
586.4660744818128
 20
135.9908391819311
 30
0.0
 11
587.3002356189829
 21
131.2600762900602
 31
0.0
  0
LINE
  5
5EF113FF
330
5EF092C1
100
AcDbEntity
  8
JISSEN
100
AcDbLine
 39
960.208308198174
 10
218.5667006966507
 20
277.9908391819414
 30
0.0
 11
223.5667006966507
 21
277.9908391819486
 31
0.0
  0
LINE
  5
5EF11400
330
5EF092C1
100
AcDbEntity
  8
JISSEN
100
AcDbLine
 39
960.208308198174
 10
220.5667006966343
 20
289.490839181945
 30
0.0
 11
218.5667006966343
 21
289.4908391819413
 31
0.0
  0
LINE
  5
5EF11401
330
5EF092C1
100
AcDbEntity
  8
JISSEN
100
AcDbLine
 39
960.208308198174
 10
218.0667006966489
 20
276.9908391819413
 30
0.0
 11
223.5667006966525
 21
276.9908391819486
 31
0.0
  0
LINE
  5
5EF11402
330
5EF092C1
100
AcDbEntity
  8
JISSEN
100
AcDbLine
 39
960.208308198174
 10
229.0667006966525
 20
276.9908391819486
 30
0.0
 11
223.5667006966507
 21
276.9908391819486
 31
0.0
  0
LINE
  5
5EF11403
330
5EF092C1
100
AcDbEntity
  8
JISSEN
100
AcDbLine
 39
960.208308198174
 10
226.5667006966507
 20
289.4908391819486
 30
0.0
 11
228.5667006966507
 21
289.4908391819486
 31
0.0
  0
LINE
  5
5EF11404
330
5EF092C1
100
AcDbEntity
  8
JISSEN
100
AcDbLine
 39
960.208308198174
 10
228.5667006966507
 20
277.9908391819486
 30
0.0
 11
223.5667006966507
 21
277.9908391819486
 31
0.0
  0
LINE
  5
5EF11429
330
5EF092C1
100
AcDbEntity
  8
JISSEN
100
AcDbLine
 10
218.5667006966325
 20
289.4908391819395
 30
0.0
 11
218.5667006966507
 21
277.9908391819414
 31
0.0
  0
LINE
  5
5EF1142A
330
5EF092C1
100
AcDbEntity
  8
JISSEN
100
AcDbLine
 10
228.5667006966507
 20
289.4908391819504
 30
0.0
 11
228.5667006966507
 21
277.9908391819486
 31
0.0
  0
LINE
  5
5EF1142B
330
5EF092C1
100
AcDbEntity
  8
JISSEN
100
AcDbLine
 10
226.5667006966507
 20
289.4908391819486
 30
0.0
 11
226.5667006966507
 21
277.9908391819486
 31
0.0
  0
LINE
  5
5EF1142C
330
5EF092C1
100
AcDbEntity
  8
HATCH
100
AcDbLine
 10
226.5667006966507
 20
289.4908391819486
 30
0.0
 11
223.5667006966507
 21
283.7408391819486
 31
0.0
  0
LINE
  5
5EF1142D
330
5EF092C1
100
AcDbEntity
  8
JISSEN
100
AcDbLine
 10
220.5667006966343
 20
289.490839181945
 30
0.0
 11
220.5667006966507
 21
277.990839181945
 31
0.0
  0
LINE
  5
5EF1142E
330
5EF092C1
100
AcDbEntity
  8
HATCH
100
AcDbLine
 10
220.5667006966343
 20
289.490839181945
 30
0.0
 11
223.5667006966416
 21
283.7408391819486
 31
0.0
  0
LINE
  5
5EF11465
330
5EF092C1
100
AcDbEntity
  8
JISSEN
100
AcDbLine
 10
218.5667006966507
 20
277.9908391819414
 30
0.0
 11
217.9893504274607
 21
276.9908391819413
 31
0.0
  0
LINE
  5
5EF11469
330
5EF092C1
100
AcDbEntity
  8
JISSEN
100
AcDbLine
 10
228.5667006966507
 20
277.9908391819486
 30
0.0
 11
229.1440509658425
 21
276.9908391819486
 31
0.0
  0
LINE
  5
5EF1146A
330
5EF092C1
100
AcDbEntity
  8
HATCH
100
AcDbLine
 10
223.5667006966507
 20
283.7408391819522
 30
0.0
 11
226.5667006966507
 21
277.9908391819486
 31
0.0
  0
LINE
  5
5EF1146B
330
5EF092C1
100
AcDbEntity
  8
HATCH
100
AcDbLine
 10
223.5667006966416
 20
283.7408391819522
 30
0.0
 11
220.5667006966507
 21
277.990839181945
 31
0.0
  0
LINE
  5
5EF1146E
330
5EF092C1
100
AcDbEntity
  8
JISSEN
100
AcDbLine
 10
223.5667006966343
 20
289.9908391819486
 30
0.0
 11
219.0667006966343
 21
289.9908391819432
 31
0.0
  0
LINE
  5
5EF1146F
330
5EF092C1
100
AcDbEntity
  8
JISSEN
100
AcDbLine
 10
218.5667006966343
 20
289.4908391819413
 30
0.0
 11
219.0667006966343
 21
289.9908391819432
 31
0.0
  0
LINE
  5
5EF11470
330
5EF092C1
100
AcDbEntity
  8
JISSEN
100
AcDbLine
 10
225.6282535094598
 20
289.9908391819486
 30
0.0
 11
226.5667006966507
 21
289.4908391819486
 31
0.0
  0
LINE
  5
5EF11471
330
5EF092C1
100
AcDbEntity
  8
JISSEN
100
AcDbLine
 10
228.5667006966507
 20
289.4908391819486
 30
0.0
 11
228.0667006966507
 21
289.9908391819486
 31
0.0
  0
LINE
  5
5EF11472
330
5EF092C1
100
AcDbEntity
  8
JISSEN
100
AcDbLine
 10
223.5667006966507
 20
289.9908391819486
 30
0.0
 11
228.0667006966507
 21
289.9908391819486
 31
0.0
  0
LINE
  5
5EF11473
330
5EF092C1
100
AcDbEntity
  8
JISSEN
100
AcDbLine
 10
221.5051478838252
 20
289.9908391819468
 30
0.0
 11
220.5667006966343
 21
289.490839181945
 31
0.0
  0
LINE
  5
5EF118F5
330
5EF092C1
100
AcDbEntity
  8
JISSEN
 48
0.5
100
AcDbLine
 10
552.8855643060849
 20
135.9908391819311
 30
0.0
 11
552.0514031689149
 21
131.2600762900602
 31
0.0
  0
LINE
  5
5EF118F6
330
5EF092C1
100
AcDbEntity
  8
SUNPOU
100
AcDbLine
 10
485.675819393958
 20
148.9908391819303
 30
0.0
 11
446.6191725402214
 21
148.9908391819303
 31
0.0
  0
LINE
  5
5EF118F7
330
5EF092C1
100
AcDbEntity
  8
SUNPOU
100
AcDbLine
 10
568.1758193939712
 20
307.9908391819285
 30
0.0
 11
446.6191725402214
 21
307.9908391819285
 31
0.0
  0
LINE
  5
5EF118F8
330
5EF092C1
100
AcDbEntity
  8
SUNPOU
100
AcDbLine
 10
448.6191725402213
 20
148.9908391819303
 30
0.0
 11
448.6191725402213
 21
307.9908391819285
 31
0.0
  0
INSERT
  5
5EF118F9
330
5EF092C1
100
AcDbEntity
  8
SUNPOU
100
AcDbBlockReference
  2
ARROWANG
 10
448.6191725402213
 20
148.9908391819303
 30
0.0
 41
3.0
 42
3.0
 43
3.0
 50
270.0
  0
INSERT
  5
5EF118FA
330
5EF092C1
100
AcDbEntity
  8
SUNPOU
100
AcDbBlockReference
  2
ARROWANG
 10
448.6191725402213
 20
307.9908391819285
 30
0.0
 41
3.0
 42
3.0
 43
3.0
 50
90.0
  0
LINE
  5
5EF118FC
330
5EF092C1
100
AcDbEntity
  8
SUNPOU
100
AcDbLine
 10
217.5667006966343
 20
289.9908391819432
 30
0.0
 11
100.9788459284095
 21
289.9908391819432
 31
0.0
  0
LINE
  5
5EF118FD
330
5EF092C1
100
AcDbEntity
  8
SUNPOU
100
AcDbLine
 10
127.0667006966634
 20
148.9908391819303
 30
0.0
 11
100.9788459284095
 21
148.9908391819303
 31
0.0
  0
LINE
  5
5EF118FE
330
5EF092C1
100
AcDbEntity
  8
SUNPOU
100
AcDbLine
 10
102.9788459284095
 20
286.9908391819432
 30
0.0
 11
102.9788459284095
 21
148.9908391819303
 31
0.0
  0
INSERT
  5
5EF118FF
330
5EF092C1
100
AcDbEntity
  8
SUNPOU
100
AcDbBlockReference
  2
ARROWANG
 10
102.9788459284096
 20
289.9908391819432
 30
0.0
 41
3.0
 42
3.0
 43
3.0
 50
90.0
  0
INSERT
  5
5EF11900
330
5EF092C1
100
AcDbEntity
  8
SUNPOU
100
AcDbBlockReference
  2
ARROWANG
 10
102.9788459284095
 20
148.9908391819303
 30
0.0
 41
3.0
 42
3.0
 43
3.0
 50
270.0
  0
CIRCLE
  5
5EF11905
330
5EF092C1
100
AcDbEntity
  8
SCALE
100
AcDbCircle
 10
223.5667017826633
 20
434.1242370637081
 30
0.0
 40
5.5
  0
CIRCLE
  5
5EF11906
330
5EF092C1
100
AcDbEntity
  8
SCALE
100
AcDbCircle
 10
223.5667017826633
 20
434.1242370637081
 30
0.0
 40
5.0
  0
LINE
  5
5EF11907
330
5EF092C1
100
AcDbEntity
  8
SCALE
100
AcDbLine
 10
220.5011675714695
 20
438.074237063708
 30
0.0
 11
226.6322359938572
 21
438.074237063708
 31
0.0
  0
LINE
  5
5EF11908
330
5EF092C1
100
AcDbEntity
  8
SCALE
100
AcDbLine
 10
220.5011675714693
 20
430.1742370637081
 30
0.0
 11
226.6322359938572
 21
430.174237063708
 31
0.0
  0
CIRCLE
  5
5EF11909
330
5EF092C1
100
AcDbEntity
  8
SCALE
100
AcDbCircle
 10
223.5667017826633
 20
434.1242370637081
 30
0.0
 40
9.25
  0
CIRCLE
  5
5EF1190A
330
5EF092C1
100
AcDbEntity
  8
SCALE
100
AcDbCircle
 10
223.5667017826633
 20
434.1242370637081
 30
0.0
 40
10.74999999999999
  0
LINE
  5
5EF1190B
330
5EF092C1
100
AcDbEntity
  8
NITEN
100
AcDbLine
 10
565.7258193939711
 20
295.9908391819286
 30
0.0
 11
565.7258193939711
 21
307.9908391819285
 31
0.0
  0
LINE
  5
5EF1190C
330
5EF092C1
100
AcDbEntity
  8
NITEN
100
AcDbLine
 10
573.6258193939448
 20
295.9908391819286
 30
0.0
 11
573.6258193939448
 21
307.9908391819285
 31
0.0
  0
LINE
  5
5EF1190D
330
5EF092C1
100
AcDbEntity
  8
NITEN
100
AcDbLine
 10
565.7258193939711
 20
307.9908391819285
 30
0.0
 11
573.6258193939448
 21
307.9908391819285
 31
0.0
  0
LINE
  5
5EF1190E
330
5EF092C1
100
AcDbEntity
  8
SCALE
100
AcDbLine
 10
565.7258193939711
 20
289.9908391819286
 30
0.0
 11
573.6258193939448
 21
289.9908391819286
 31
0.0
  0
LINE
  5
5EF1190F
330
5EF092C1
100
AcDbEntity
  8
SCALE
100
AcDbLine
 10
573.6258193939448
 20
277.9908391819286
 30
0.0
 11
573.6258193939448
 21
289.9908391819286
 31
0.0
  0
LINE
  5
5EF11910
330
5EF092C1
100
AcDbEntity
  8
SCALE
100
AcDbLine
 10
565.7258193939711
 20
277.9908391819286
 30
0.0
 11
565.7258193939711
 21
289.9908391819286
 31
0.0
  0
LINE
  5
5EF11911
330
5EF092C1
100
AcDbEntity
  8
JISSEN
 62
     7
100
AcDbLine
 39
960.208308198174
 10
575.175819393973
 20
276.9908391819249
 30
0.0
 11
569.6758193939712
 21
276.9908391819249
 31
0.0
  0
LINE
  5
5EF11912
330
5EF092C1
100
AcDbEntity
  8
JISSEN
 62
     7
100
AcDbLine
 39
960.208308198174
 10
574.6758193939712
 20
277.9908391819286
 30
0.0
 11
569.6758193939712
 21
277.9908391819286
 31
0.0
  0
LINE
  5
5EF11913
330
5EF092C1
100
AcDbEntity
  8
JISSEN
 62
     7
100
AcDbLine
 39
960.208308198174
 10
575.175819393973
 20
276.9908391819249
 30
0.0
 11
569.6758193939712
 21
276.9908391819249
 31
0.0
  0
LINE
  5
5EF11914
330
5EF092C1
100
AcDbEntity
  8
JISSEN
 62
     7
100
AcDbLine
 39
960.208308198174
 10
574.6758193939712
 20
277.9908391819286
 30
0.0
 11
569.6758193939712
 21
277.9908391819286
 31
0.0
  0
LINE
  5
5EF11915
330
5EF092C1
100
AcDbEntity
  8
JISSEN
 62
     7
100
AcDbLine
 39
960.208308198174
 10
564.6758193939457
 20
277.9908391819286
 30
0.0
 11
569.6758193939457
 21
277.9908391819286
 31
0.0
  0
LINE
  5
5EF11916
330
5EF092C1
100
AcDbEntity
  8
JISSEN
 62
     7
100
AcDbLine
 39
960.208308198174
 10
564.1758193939439
 20
276.9908391819249
 30
0.0
 11
569.6758193939457
 21
276.9908391819249
 31
0.0
  0
LINE
  5
5EF11917
330
5EF092C1
100
AcDbEntity
  8
JISSEN
 62
     7
100
AcDbLine
 39
960.208308198174
 10
564.6758193939457
 20
277.9908391819286
 30
0.0
 11
569.6758193939457
 21
277.9908391819286
 31
0.0
  0
LINE
  5
5EF11918
330
5EF092C1
100
AcDbEntity
  8
JISSEN
 62
     7
100
AcDbLine
 39
960.208308198174
 10
564.1758193939439
 20
276.9908391819249
 30
0.0
 11
569.6758193939457
 21
276.9908391819249
 31
0.0
  0
LINE
  5
5EF11919
330
5EF092C1
100
AcDbEntity
  8
JISSEN
 62
     7
100
AcDbLine
 10
564.6758193939457
 20
277.9908391819286
 30
0.0
 11
564.1758193939439
 21
277.1248137781427
 31
0.0
  0
LINE
  5
5EF1191A
330
5EF092C1
100
AcDbEntity
  8
JISSEN
 62
     7
100
AcDbLine
 10
564.6758193939457
 20
277.9908391819286
 30
0.0
 11
564.1758193939439
 21
277.1248137781427
 31
0.0
  0
LINE
  5
5EF1191B
330
5EF092C1
100
AcDbEntity
  8
JISSEN
 62
     7
100
AcDbLine
 10
574.6758193939712
 20
277.9908391819286
 30
0.0
 11
575.175819393973
 21
277.1248137781427
 31
0.0
  0
LINE
  5
5EF1191C
330
5EF092C1
100
AcDbEntity
  8
JISSEN
 62
     7
100
AcDbLine
 10
574.6758193939712
 20
277.9908391819286
 30
0.0
 11
575.175819393973
 21
277.1248137781427
 31
0.0
  0
LINE
  5
5EF1191D
330
5EF092C1
100
AcDbEntity
  8
NITEN
100
AcDbLine
 10
575.1758193939846
 20
295.1248137781226
 30
0.0
 11
564.1758193939584
 21
295.1248137781206
 31
0.0
  0
LINE
  5
5EF1191E
330
5EF092C1
100
AcDbEntity
  8
NITEN
100
AcDbLine
 10
564.6758193939457
 20
295.9908391819286
 30
0.0
 11
574.6758193939712
 21
295.9908391819286
 31
0.0
  0
ENDSEC
  0
SECTION
  2
OBJECTS
  0
DICTIONARY
  5
5EF092B5
330
0
100
AcDbDictionary
  3
ACAD_GROUP
350
5EF092B6
  3
ACAD_LAYOUT
350
5EF0F402
  3
ACAD_MLINESTYLE
350
5EF092B7
  3
ACAD_PLOTSETTINGS
350
5EF0F403
  3
ACAD_PLOTSTYLENAME
350
5EF0F400
  3
ACDBHEADERROUNDTRIPXREC
350
5EF11925
  3
ACDBVARIABLEDICTIONARY
350
5EF095CB
  0
DICTIONARY
  5
5EF0FDBF
330
5EF092AB
100
AcDbDictionary
280
     1
  3
ACAD_LAYERSTATES
360
5EF0FDC0
  0
DICTIONARY
  5
5EF0FABC
330
5EF092C1
100
AcDbDictionary
280
     1
  3
ACAD_LAYOUTSELFREF
360
5EF11947
  0
DICTIONARY
  5
5EF0FABA
330
5EF092BE
100
AcDbDictionary
280
     1
  3
ACAD_LAYOUTSELFREF
360
5EF11946
  0
DICTIONARY
  5
5EF092B6
102
{ACAD_REACTORS
330
5EF092B5
102
}
330
5EF092B5
100
AcDbDictionary
  0
DICTIONARY
  5
5EF0F402
102
{ACAD_REACTORS
330
5EF092B5
102
}
330
5EF092B5
100
AcDbDictionary
  0
DICTIONARY
  5
5EF092B7
102
{ACAD_REACTORS
330
5EF092B5
102
}
330
5EF092B5
100
AcDbDictionary
  3
STANDARD
350
5EF092C4
  0
DICTIONARY
  5
5EF0F403
102
{ACAD_REACTORS
330
5EF092B5
102
}
330
5EF092B5
100
AcDbDictionary
  0
ACDBDICTIONARYWDFLT
  5
5EF0F400
102
{ACAD_REACTORS
330
5EF092B5
102
}
330
5EF092B5
100
AcDbDictionary
281
     1
  3
Normal
350
5EF0F401
100
AcDbDictionaryWithDefault
340
5EF0F401
  0
DICTIONARY
  5
5EF11925
102
{ACAD_REACTORS
330
5EF092B5
102
}
330
5EF092B5
100
AcDbDictionary
  3
CEPSNTYPE
350
5EF1192F
  3
DIMSTYLEDATA
350
5EF11933
  3
FINGERPRINTGUID
350
5EF11930
  3
HYPERLINKBASE
350
5EF11928
  3
INSUNITS
350
5EF1192E
  3
LAYOUTDICT
350
5EF1192A
  3
LWETCUNION
350
5EF1192D
  3
PLOTSETDICT
350
5EF1192B
  3
PLOTSTYLNAMDICT
350
5EF1192C
  3
PSVPSCALE
350
5EF11932
  3
PUCSBASE
350
5EF11936
  3
PUCSORGBACK
350
5EF1193C
  3
PUCSORGBOTTOM
350
5EF11938
  3
PUCSORGFRONT
350
5EF1193B
  3
PUCSORGLEFT
350
5EF11939
  3
PUCSORGRIGHT
350
5EF1193A
  3
PUCSORGTOP
350
5EF11937
  3
PUCSORTHOREF
350
5EF11934
  3
PUCSORTHOVIEW
350
5EF11935
  3
STYLESHEET
350
5EF11929
  3
TSTACKALIGN
350
5EF11926
  3
TSTACKSIZE
350
5EF11927
  3
UCSBASE
350
5EF1193F
  3
UCSORGBACK
350
5EF11945
  3
UCSORGBOTTOM
350
5EF11941
  3
UCSORGFRONT
350
5EF11944
  3
UCSORGLEFT
350
5EF11942
  3
UCSORGRIGHT
350
5EF11943
  3
UCSORGTOP
350
5EF11940
  3
UCSORTHOREF
350
5EF1193D
  3
UCSORTHOVIEW
350
5EF1193E
  3
VERSIONGUID
350
5EF11931
  0
DICTIONARY
  5
5EF095CB
102
{ACAD_REACTORS
330
5EF092B5
102
}
330
5EF092B5
100
AcDbDictionary
  3
DIMASSOC
350
5EF0FDB2
  3
SORTENTS
350
5EF095CC
  0
DICTIONARY
  5
5EF0FDC0
102
{ACAD_REACTORS
330
5EF0FDBF
102
}
330
5EF0FDBF
100
AcDbDictionary
  0
XRECORD
  5
5EF11947
102
{ACAD_REACTORS
330
5EF0FABC
102
}
330
5EF0FABC
100
AcDbXrecord
340
5EF092C1
  0
XRECORD
  5
5EF11946
102
{ACAD_REACTORS
330
5EF0FABA
102
}
330
5EF0FABA
100
AcDbXrecord
340
5EF092BE
  0
MLINESTYLE
  5
5EF092C4
102
{ACAD_REACTORS
330
5EF092B7
102
}
330
5EF092B7
100
AcDbMlineStyle
  2
STANDARD
 70
     0
  3

 62
     0
 51
90.0
 52
90.0
 71
     2
 49
0.5
 62
   256
  6
BYLAYER
 49
-0.5
 62
   256
  6
BYLAYER
  0
ACDBPLACEHOLDER
  5
5EF0F401
102
{ACAD_REACTORS
330
5EF0F400
102
}
330
5EF0F400
100
AcDbPlaceHolder
280
     0
  0
XRECORD
  5
5EF1192F
102
{ACAD_REACTORS
330
5EF11925
102
}
330
5EF11925
100
AcDbXrecord
 90
        0
  0
XRECORD
  5
5EF11933
102
{ACAD_REACTORS
330
5EF11925
102
}
330
5EF11925
100
AcDbXrecord
1000
DSTYLE
1002
{
1070
   341
340
5EF092CB
1070
   343
340
5EF092CB
1070
   344
340
5EF092CB
1002
}
  0
XRECORD
  5
5EF11930
102
{ACAD_REACTORS
330
5EF11925
102
}
330
5EF11925
100
AcDbXrecord
  1
{65593C7E-58AB-4548-9DBE-C99EC0C7B61B}
  0
XRECORD
  5
5EF11928
102
{ACAD_REACTORS
330
5EF11925
102
}
330
5EF11925
100
AcDbXrecord
  1

  0
XRECORD
  5
5EF1192E
102
{ACAD_REACTORS
330
5EF11925
102
}
330
5EF11925
100
AcDbXrecord
 90
        0
  0
XRECORD
  5
5EF1192A
102
{ACAD_REACTORS
330
5EF11925
102
}
330
5EF11925
100
AcDbXrecord
340
5EF0F402
  0
XRECORD
  5
5EF1192D
102
{ACAD_REACTORS
330
5EF11925
102
}
330
5EF11925
100
AcDbXrecord
 90
    14877
  0
XRECORD
  5
5EF1192B
102
{ACAD_REACTORS
330
5EF11925
102
}
330
5EF11925
100
AcDbXrecord
340
5EF0F403
  0
XRECORD
  5
5EF1192C
102
{ACAD_REACTORS
330
5EF11925
102
}
330
5EF11925
100
AcDbXrecord
340
5EF0F400
  0
XRECORD
  5
5EF11932
102
{ACAD_REACTORS
330
5EF11925
102
}
330
5EF11925
100
AcDbXrecord
 40
0.0
  0
XRECORD
  5
5EF11936
102
{ACAD_REACTORS
330
5EF11925
102
}
330
5EF11925
100
AcDbXrecord
340
0
  0
XRECORD
  5
5EF1193C
102
{ACAD_REACTORS
330
5EF11925
102
}
330
5EF11925
100
AcDbXrecord
 10
0.0
 20
0.0
 30
0.0
  0
XRECORD
  5
5EF11938
102
{ACAD_REACTORS
330
5EF11925
102
}
330
5EF11925
100
AcDbXrecord
 10
0.0
 20
0.0
 30
0.0
  0
XRECORD
  5
5EF1193B
102
{ACAD_REACTORS
330
5EF11925
102
}
330
5EF11925
100
AcDbXrecord
 10
0.0
 20
0.0
 30
0.0
  0
XRECORD
  5
5EF11939
102
{ACAD_REACTORS
330
5EF11925
102
}
330
5EF11925
100
AcDbXrecord
 10
0.0
 20
0.0
 30
0.0
  0
XRECORD
  5
5EF1193A
102
{ACAD_REACTORS
330
5EF11925
102
}
330
5EF11925
100
AcDbXrecord
 10
0.0
 20
0.0
 30
0.0
  0
XRECORD
  5
5EF11937
102
{ACAD_REACTORS
330
5EF11925
102
}
330
5EF11925
100
AcDbXrecord
 10
0.0
 20
0.0
 30
0.0
  0
XRECORD
  5
5EF11934
102
{ACAD_REACTORS
330
5EF11925
102
}
330
5EF11925
100
AcDbXrecord
340
0
  0
XRECORD
  5
5EF11935
102
{ACAD_REACTORS
330
5EF11925
102
}
330
5EF11925
100
AcDbXrecord
 70
     0
  0
XRECORD
  5
5EF11929
102
{ACAD_REACTORS
330
5EF11925
102
}
330
5EF11925
100
AcDbXrecord
  1

  0
XRECORD
  5
5EF11926
102
{ACAD_REACTORS
330
5EF11925
102
}
330
5EF11925
100
AcDbXrecord
 90
        1
  0
XRECORD
  5
5EF11927
102
{ACAD_REACTORS
330
5EF11925
102
}
330
5EF11925
100
AcDbXrecord
 90
       70
  0
XRECORD
  5
5EF1193F
102
{ACAD_REACTORS
330
5EF11925
102
}
330
5EF11925
100
AcDbXrecord
340
0
  0
XRECORD
  5
5EF11945
102
{ACAD_REACTORS
330
5EF11925
102
}
330
5EF11925
100
AcDbXrecord
 10
0.0
 20
0.0
 30
0.0
  0
XRECORD
  5
5EF11941
102
{ACAD_REACTORS
330
5EF11925
102
}
330
5EF11925
100
AcDbXrecord
 10
0.0
 20
0.0
 30
0.0
  0
XRECORD
  5
5EF11944
102
{ACAD_REACTORS
330
5EF11925
102
}
330
5EF11925
100
AcDbXrecord
 10
0.0
 20
0.0
 30
0.0
  0
XRECORD
  5
5EF11942
102
{ACAD_REACTORS
330
5EF11925
102
}
330
5EF11925
100
AcDbXrecord
 10
0.0
 20
0.0
 30
0.0
  0
XRECORD
  5
5EF11943
102
{ACAD_REACTORS
330
5EF11925
102
}
330
5EF11925
100
AcDbXrecord
 10
0.0
 20
0.0
 30
0.0
  0
XRECORD
  5
5EF11940
102
{ACAD_REACTORS
330
5EF11925
102
}
330
5EF11925
100
AcDbXrecord
 10
0.0
 20
0.0
 30
0.0
  0
XRECORD
  5
5EF1193D
102
{ACAD_REACTORS
330
5EF11925
102
}
330
5EF11925
100
AcDbXrecord
340
0
  0
XRECORD
  5
5EF1193E
102
{ACAD_REACTORS
330
5EF11925
102
}
330
5EF11925
100
AcDbXrecord
 70
     0
  0
XRECORD
  5
5EF11931
102
{ACAD_REACTORS
330
5EF11925
102
}
330
5EF11925
100
AcDbXrecord
  1
{966559C3-ED43-416A-A7BB-EA4DBA4E6D2C}
  0
DICTIONARYVAR
  5
5EF0FDB2
102
{ACAD_REACTORS
330
5EF095CB
102
}
330
5EF095CB
100
DictionaryVariables
280
     0
  1
0
  0
DICTIONARYVAR
  5
5EF095CC
102
{ACAD_REACTORS
330
5EF095CB
102
}
330
5EF095CB
100
DictionaryVariables
280
     0
  1
96
  0
ENDSEC
  0
EOF
