  0
SECTION
  2
HEADER
  9
$ACADVER
  1
AC1014
  9
$ACADMAINTVER
 70
     9
  9
$DWGCODEPAGE
  3
ANSI_932
  9
$INSBASE
 10
0.0
 20
0.0
 30
0.0
  9
$EXTMIN
 10
-0.0118935010536916
 20
-0.0083254507376296
 30
-0.0219619971635439
  9
$EXTMAX
 10
780.0119043981924
 20
546.0083330787349
 30
1440.334444416587
  9
$LIMMIN
 10
0.0
 20
0.0
  9
$LIMMAX
 10
780.0
 20
546.0
  9
$ORTHOMODE
 70
     1
  9
$REGENMODE
 70
     1
  9
$FILLMODE
 70
     1
  9
$QTEXTMODE
 70
     0
  9
$MIRRTEXT
 70
     0
  9
$DRAGMODE
 70
     2
  9
$LTSCALE
 40
5.0
  9
$OSMODE
 70
   167
  9
$ATTMODE
 70
     1
  9
$TEXTSIZE
 40
1.0
  9
$TRACEWID
 40
0.05
  9
$TEXTSTYLE
  7
K
  9
$CLAYER
  8
SCALE
  9
$CELTYPE
  6
BYLAYER
  9
$CECOLOR
 62
   256
  9
$CELTSCALE
 40
1.0
  9
$DELOBJ
 70
     1
  9
$DISPSILH
 70
     0
  9
$DIMSCALE
 40
2.0
  9
$DIMASZ
 40
3.0
  9
$DIMEXO
 40
0.75
  9
$DIMDLI
 40
6.0
  9
$DIMRND
 40
0.0
  9
$DIMDLE
 40
0.0
  9
$DIMEXE
 40
1.0
  9
$DIMTP
 40
495.0
  9
$DIMTM
 40
0.0
  9
$DIMTXT
 40
3.0
  9
$DIMCEN
 40
0.0
  9
$DIMTSZ
 40
0.0
  9
$DIMTOL
 70
     0
  9
$DIMLIM
 70
     0
  9
$DIMTIH
 70
     0
  9
$DIMTOH
 70
     0
  9
$DIMSE1
 70
     0
  9
$DIMSE2
 70
     0
  9
$DIMTAD
 70
     3
  9
$DIMZIN
 70
     8
  9
$DIMBLK
  1
ARROWANG
  9
$DIMASO
 70
     0
  9
$DIMSHO
 70
     0
  9
$DIMPOST
  1

  9
$DIMAPOST
  1

  9
$DIMALT
 70
     0
  9
$DIMALTD
 70
     2
  9
$DIMALTF
 40
25.4
  9
$DIMLFAC
 40
1.0
  9
$DIMTOFL
 70
     1
  9
$DIMTVP
 40
0.0
  9
$DIMTIX
 70
     1
  9
$DIMSOXD
 70
     0
  9
$DIMSAH
 70
     1
  9
$DIMBLK1
  1
ARROWANG
  9
$DIMBLK2
  1
ARROWANG
  9
$DIMSTYLE
  2
IMAO
  9
$DIMCLRD
 70
   256
  9
$DIMCLRE
 70
   256
  9
$DIMCLRT
 70
   256
  9
$DIMTFAC
 40
1.0
  9
$DIMGAP
 40
1.0
  9
$DIMJUST
 70
     0
  9
$DIMSD1
 70
     0
  9
$DIMSD2
 70
     0
  9
$DIMTOLJ
 70
     1
  9
$DIMTZIN
 70
     0
  9
$DIMALTZ
 70
     0
  9
$DIMALTTZ
 70
     0
  9
$DIMFIT
 70
     3
  9
$DIMUPT
 70
     0
  9
$DIMUNIT
 70
     2
  9
$DIMDEC
 70
     2
  9
$DIMTDEC
 70
     2
  9
$DIMALTU
 70
     2
  9
$DIMALTTD
 70
     2
  9
$DIMTXSTY
  7
K
  9
$DIMAUNIT
 70
     0
  9
$LUNITS
 70
     2
  9
$LUPREC
 70
     2
  9
$SKETCHINC
 40
0.1
  9
$FILLETRAD
 40
3.0
  9
$AUNITS
 70
     0
  9
$AUPREC
 70
     2
  9
$MENU
  1
STDR12J
  9
$ELEVATION
 40
0.0
  9
$PELEVATION
 40
0.0
  9
$THICKNESS
 40
0.0
  9
$LIMCHECK
 70
     0
  9
$BLIPMODE
 70
     0
  9
$CHAMFERA
 40
0.0
  9
$CHAMFERB
 40
0.0
  9
$CHAMFERC
 40
0.0
  9
$CHAMFERD
 40
0.0
  9
$SKPOLY
 70
     0
  9
$TDCREATE
 40
2450694.736564815
  9
$TDUPDATE
 40
2453866.597431609
  9
$TDINDWG
 40
0.1560325347
  9
$TDUSRTIMER
 40
0.1560324190
  9
$USRTIMER
 70
     1
  9
$ANGBASE
 50
0.0
  9
$ANGDIR
 70
     0
  9
$PDMODE
 70
     0
  9
$PDSIZE
 40
0.0
  9
$PLINEWID
 40
0.0
  9
$COORDS
 70
     2
  9
$SPLFRAME
 70
     0
  9
$SPLINETYPE
 70
     6
  9
$SPLINESEGS
 70
     8
  9
$ATTDIA
 70
     0
  9
$ATTREQ
 70
     1
  9
$HANDLING
 70
 22529
  9
$HANDSEED
  5
5EF0DDC0
  9
$SURFTAB1
 70
     6
  9
$SURFTAB2
 70
     6
  9
$SURFTYPE
 70
     6
  9
$SURFU
 70
     6
  9
$SURFV
 70
     6
  9
$UCSNAME
  2

  9
$UCSORG
 10
0.0
 20
0.0
 30
0.0
  9
$UCSXDIR
 10
1.0
 20
0.0
 30
0.0
  9
$UCSYDIR
 10
0.0
 20
1.0
 30
0.0
  9
$PUCSNAME
  2

  9
$PUCSORG
 10
0.0
 20
0.0
 30
0.0
  9
$PUCSXDIR
 10
1.0
 20
0.0
 30
0.0
  9
$PUCSYDIR
 10
0.0
 20
1.0
 30
0.0
  9
$USERI1
 70
     3
  9
$USERI2
 70
     1
  9
$USERI3
 70
     1
  9
$USERI4
 70
     1
  9
$USERI5
 70
     1
  9
$USERR1
 40
1.0
  9
$USERR2
 40
3.0
  9
$USERR3
 40
3.0
  9
$USERR4
 40
1.5
  9
$USERR5
 40
10.0
  9
$WORLDVIEW
 70
     1
  9
$SHADEDGE
 70
     3
  9
$SHADEDIF
 70
    70
  9
$TILEMODE
 70
     1
  9
$MAXACTVP
 70
    16
  9
$PINSBASE
 10
0.0
 20
0.0
 30
0.0
  9
$PLIMCHECK
 70
     0
  9
$PEXTMIN
 10
1.000000000000000E+20
 20
1.000000000000000E+20
 30
1.000000000000000E+20
  9
$PEXTMAX
 10
-1.000000000000000E+20
 20
-1.000000000000000E+20
 30
-1.000000000000000E+20
  9
$PLIMMIN
 10
0.0
 20
0.0
  9
$PLIMMAX
 10
12.0
 20
9.0
  9
$UNITMODE
 70
     0
  9
$VISRETAIN
 70
     0
  9
$PLINEGEN
 70
     0
  9
$PSLTSCALE
 70
     0
  9
$TREEDEPTH
 70
     0
  9
$PICKSTYLE
 70
     1
  9
$CMLSTYLE
  2
STANDARD
  9
$CMLJUST
 70
     0
  9
$CMLSCALE
 40
1.0
  9
$PROXYGRAPHICS
 70
     1
  9
$MEASUREMENT
 70
     0
  0
ENDSEC
  0
SECTION
  2
CLASSES
  0
CLASS
  1
LWPOLYLINE
  2
AcDbPolyline
  3
AutoCAD 2000
 90
        0
280
     0
281
     1
  0
CLASS
  1
HATCH
  2
AcDbHatch
  3
AutoCAD 2000
 90
        0
280
     0
281
     1
  0
CLASS
  1
DICTIONARYVAR
  2
AcDbDictionaryVar
  3
AutoCAD 2000
 90
        0
280
     0
281
     0
  0
CLASS
  1
ACDBDICTIONARYWDFLT
  2
AcDbDictionaryWithDefault
  3
AutoCAD 2000
 90
        0
280
     0
281
     0
  0
CLASS
  1
ACDBPLACEHOLDER
  2
AcDbPlaceHolder
  3
AutoCAD 2000
 90
        0
280
     0
281
     0
  0
CLASS
  1
LAYOUT
  2
AcDbLayout
  3
AutoCAD 2000
 90
        0
280
     0
281
     0
  0
CLASS
  1
LONG_TRANSACTION
  2
AcDbLongTransaction
  3
AutoCAD 2000
 90
        0
280
     0
281
     0
  0
CLASS
  1
LWPOLYLINE
  2
AcDbPolyline
  3
AutoCAD 2000
 90
        0
280
     0
281
     1
  0
CLASS
  1
HATCH
  2
AcDbHatch
  3
AutoCAD 2000
 90
        0
280
     0
281
     1
  0
CLASS
  1
XRECORD
  2
AcDbXrecord
  3
AutoCAD 2000
 90
        0
280
     0
281
     0
  0
CLASS
  1
LONG_TRANSACTION
  2
AcDbLongTransaction
  3
AutoCAD 2000
 90
        0
280
     0
281
     0
  0
CLASS
  1
LWPOLYLINE
  2
AcDbPolyline
  3
AutoCAD 2000
 90
        0
280
     0
281
     1
  0
CLASS
  1
HATCH
  2
AcDbHatch
  3
AutoCAD 2000
 90
        0
280
     0
281
     1
  0
CLASS
  1
XRECORD
  2
AcDbXrecord
  3
AutoCAD 2000
 90
        0
280
     0
281
     0
  0
CLASS
  1
LONG_TRANSACTION
  2
AcDbLongTransaction
  3
AutoCAD 2000
 90
        0
280
     0
281
     0
  0
CLASS
  1
LWPOLYLINE
  2
AcDbPolyline
  3
AutoCAD 2000
 90
        0
280
     0
281
     1
  0
CLASS
  1
HATCH
  2
AcDbHatch
  3
AutoCAD 2000
 90
        0
280
     0
281
     1
  0
CLASS
  1
XRECORD
  2
AcDbXrecord
  3
AutoCAD 2000
 90
        0
280
     0
281
     0
  0
CLASS
  1
LONG_TRANSACTION
  2
AcDbLongTransaction
  3
AutoCAD 2000
 90
        0
280
     0
281
     0
  0
CLASS
  1
LWPOLYLINE
  2
AcDbPolyline
  3
AutoCAD 2000
 90
        0
280
     0
281
     1
  0
CLASS
  1
HATCH
  2
AcDbHatch
  3
AutoCAD 2000
 90
        0
280
     0
281
     1
  0
CLASS
  1
XRECORD
  2
AcDbXrecord
  3
AutoCAD 2000
 90
        0
280
     0
281
     0
  0
CLASS
  1
LONG_TRANSACTION
  2
AcDbLongTransaction
  3
AutoCAD 2000
 90
        0
280
     0
281
     0
  0
CLASS
  1
LWPOLYLINE
  2
AcDbPolyline
  3
AutoCAD 2000
 90
        0
280
     0
281
     1
  0
CLASS
  1
HATCH
  2
AcDbHatch
  3
AutoCAD 2000
 90
        0
280
     0
281
     1
  0
CLASS
  1
XRECORD
  2
AcDbXrecord
  3
AutoCAD 2000
 90
        0
280
     0
281
     0
  0
CLASS
  1
LONG_TRANSACTION
  2
AcDbLongTransaction
  3
AutoCAD 2000
 90
        0
280
     0
281
     0
  0
CLASS
  1
LWPOLYLINE
  2
AcDbPolyline
  3
AutoCAD 2000
 90
        0
280
     0
281
     1
  0
CLASS
  1
HATCH
  2
AcDbHatch
  3
AutoCAD 2000
 90
        0
280
     0
281
     1
  0
CLASS
  1
XRECORD
  2
AcDbXrecord
  3
AutoCAD 2000
 90
        0
280
     0
281
     0
  0
CLASS
  1
LONG_TRANSACTION
  2
AcDbLongTransaction
  3
AutoCAD 2000
 90
        0
280
     0
281
     0
  0
CLASS
  1
LWPOLYLINE
  2
AcDbPolyline
  3
AutoCAD 2000
 90
        0
280
     0
281
     1
  0
CLASS
  1
HATCH
  2
AcDbHatch
  3
AutoCAD 2000
 90
        0
280
     0
281
     1
  0
CLASS
  1
XRECORD
  2
AcDbXrecord
  3
AutoCAD 2000
 90
        0
280
     0
281
     0
  0
ENDSEC
  0
SECTION
  2
TABLES
  0
TABLE
  2
VPORT
  5
5EF092B1
330
0
100
AcDbSymbolTable
 70
    11
  0
VPORT
  5
5EF092D4
330
5EF092B1
100
AcDbSymbolTableRecord
100
AcDbViewportTableRecord
  2
2
 70
     0
 10
0.5
 20
0.0
 11
1.0
 21
1.0
 12
0.9240312421264802
 22
1.052650975462763
 13
0.0
 23
0.0
 14
1.0
 24
1.0
 15
10.0
 25
10.0
 16
0.0
 26
0.0
 36
1.0
 17
0.0
 27
0.0
 37
0.0
 40
2.105301950925533
 41
0.8778135048231511
 42
50.0
 43
0.0
 44
0.0
 50
0.0
 51
0.0
 71
     0
 72
   500
 73
     1
 74
     1
 75
     0
 76
     0
 77
     0
 78
     0
  0
VPORT
  5
5EF092D5
330
5EF092B1
100
AcDbSymbolTableRecord
100
AcDbViewportTableRecord
  2
2
 70
     0
 10
0.0
 20
0.0
 11
0.5
 21
1.0
 12
0.9240312421264802
 22
1.052650975462763
 13
0.0
 23
0.0
 14
1.0
 24
1.0
 15
10.0
 25
10.0
 16
0.0
 26
0.0
 36
1.0
 17
0.0
 27
0.0
 37
0.0
 40
2.105301950925533
 41
0.8778135048231511
 42
50.0
 43
0.0
 44
0.0
 50
0.0
 51
0.0
 71
     0
 72
   500
 73
     1
 74
     1
 75
     0
 76
     0
 77
     0
 78
     0
  0
VPORT
  5
5EF092D6
330
5EF092B1
100
AcDbSymbolTableRecord
100
AcDbViewportTableRecord
  2
3
 70
     0
 10
0.0
 20
0.5
 11
1.0
 21
1.0
 12
2.832169994473273
 22
1.052650975462763
 13
0.0
 23
0.0
 14
1.0
 24
1.0
 15
10.0
 25
10.0
 16
0.0
 26
0.0
 36
1.0
 17
0.0
 27
0.0
 37
0.0
 40
2.105301950925533
 41
3.571428571428571
 42
50.0
 43
0.0
 44
0.0
 50
0.0
 51
0.0
 71
     0
 72
   500
 73
     1
 74
     1
 75
     0
 76
     0
 77
     0
 78
     0
  0
VPORT
  5
5EF092D7
330
5EF092B1
100
AcDbSymbolTableRecord
100
AcDbViewportTableRecord
  2
3
 70
     0
 10
0.0
 20
0.0
 11
1.0
 21
0.5
 12
2.856741679241311
 22
1.052650975462763
 13
0.0
 23
0.0
 14
1.0
 24
1.0
 15
10.0
 25
10.0
 16
0.0
 26
0.0
 36
1.0
 17
0.0
 27
0.0
 37
0.0
 40
2.105301950925533
 41
3.594771241830064
 42
50.0
 43
0.0
 44
0.0
 50
0.0
 51
0.0
 71
     0
 72
   500
 73
     1
 74
     1
 75
     0
 76
     0
 77
     0
 78
     0
  0
VPORT
  5
5EF092D8
330
5EF092B1
100
AcDbSymbolTableRecord
100
AcDbViewportTableRecord
  2
4
 70
     0
 10
0.5
 20
0.0
 11
1.0
 21
0.5
 12
2.886857516709718
 22
1.052650975462763
 13
0.0
 23
0.0
 14
1.0
 24
1.0
 15
10.0
 25
10.0
 16
0.0
 26
0.0
 36
1.0
 17
0.0
 27
0.0
 37
0.0
 40
4.275207030309068
 41
1.784313725490195
 42
50.0
 43
0.0
 44
0.0
 50
0.0
 51
0.0
 71
     0
 72
   500
 73
     1
 74
     1
 75
     0
 76
     0
 77
     0
 78
     0
  0
VPORT
  5
5EF092D9
330
5EF092B1
100
AcDbSymbolTableRecord
100
AcDbViewportTableRecord
  2
4
 70
     0
 10
0.5
 20
0.5
 11
1.0
 21
1.0
 12
2.862090274555523
 22
1.052650975462763
 13
0.0
 23
0.0
 14
1.0
 24
1.0
 15
10.0
 25
10.0
 16
0.0
 26
0.0
 36
1.0
 17
0.0
 27
0.0
 37
0.0
 40
4.275207030309068
 41
1.772727272727269
 42
50.0
 43
0.0
 44
0.0
 50
0.0
 51
0.0
 71
     0
 72
   500
 73
     1
 74
     1
 75
     0
 76
     0
 77
     0
 78
     0
  0
VPORT
  5
5EF092DA
330
5EF092B1
100
AcDbSymbolTableRecord
100
AcDbViewportTableRecord
  2
4
 70
     0
 10
0.0
 20
0.5
 11
0.5
 21
1.0
 12
2.862090274555523
 22
1.052650975462763
 13
0.0
 23
0.0
 14
1.0
 24
1.0
 15
10.0
 25
10.0
 16
0.0
 26
0.0
 36
1.0
 17
0.0
 27
0.0
 37
0.0
 40
4.275207030309068
 41
1.772727272727269
 42
50.0
 43
0.0
 44
0.0
 50
0.0
 51
0.0
 71
     0
 72
   500
 73
     1
 74
     1
 75
     0
 76
     0
 77
     0
 78
     0
  0
VPORT
  5
5EF092DB
330
5EF092B1
100
AcDbSymbolTableRecord
100
AcDbViewportTableRecord
  2
4
 70
     0
 10
0.0
 20
0.0
 11
0.5
 21
0.5
 12
2.886857516709718
 22
1.052650975462763
 13
0.0
 23
0.0
 14
1.0
 24
1.0
 15
10.0
 25
10.0
 16
0.0
 26
0.0
 36
1.0
 17
0.0
 27
0.0
 37
0.0
 40
4.275207030309068
 41
1.784313725490195
 42
50.0
 43
0.0
 44
0.0
 50
0.0
 51
0.0
 71
     0
 72
   500
 73
     1
 74
     1
 75
     0
 76
     0
 77
     0
 78
     0
  0
VPORT
  5
5EF0DD9C
330
5EF092B1
100
AcDbSymbolTableRecord
100
AcDbViewportTableRecord
  2
*ACTIVE
 70
     0
 10
0.0
 20
0.0
 11
1.0
 21
1.0
 12
390.0000054485694
 22
273.0000038139987
 13
0.0
 23
0.0
 14
1.0
 24
1.0
 15
10.0
 25
10.0
 16
0.0
 26
0.0
 36
1.0
 17
0.0
 27
0.0
 37
0.0
 40
549.6527295074713
 41
1.764444444444444
 42
50.0
 43
0.0
 44
0.0
 50
0.0
 51
0.0
 71
     0
 72
   500
 73
     1
 74
     0
 75
     0
 76
     0
 77
     0
 78
     0
  0
ENDTAB
  0
TABLE
  2
LTYPE
  5
5EF092AE
330
0
100
AcDbSymbolTable
 70
     3
  0
LTYPE
  5
5EF092BB
330
5EF092AE
100
AcDbSymbolTableRecord
100
AcDbLinetypeTableRecord
  2
BYBLOCK
 70
     0
  3

 72
    65
 73
     0
 40
0.0
  0
LTYPE
  5
5EF092BC
330
5EF092AE
100
AcDbSymbolTableRecord
100
AcDbLinetypeTableRecord
  2
BYLAYER
 70
     0
  3

 72
    65
 73
     0
 40
0.0
  0
LTYPE
  5
5EF092BD
330
5EF092AE
100
AcDbSymbolTableRecord
100
AcDbLinetypeTableRecord
  2
CONTINUOUS
 70
     0
  3
実線
 72
    65
 73
     0
 40
0.0
  0
LTYPE
  5
5EF092D1
330
5EF092AE
100
AcDbSymbolTableRecord
100
AcDbLinetypeTableRecord
  2
CENTER
 70
     0
  3
____ _ ____ _ ____ _ ____ _ ____ _ ____ _ ____
 72
    65
 73
     4
 40
2.0
 49
1.25
 74
     0
 49
-0.25
 74
     0
 49
0.25
 74
     0
 49
-0.25
 74
     0
  0
LTYPE
  5
5EF092D2
330
5EF092AE
100
AcDbSymbolTableRecord
100
AcDbLinetypeTableRecord
  2
PHANTOM
 70
     0
  3
_____ _ _ _____ _ _ _____ _ _ _____ _ _ ____
 72
    65
 73
     6
 40
2.5
 49
1.25
 74
     0
 49
-0.25
 74
     0
 49
0.25
 74
     0
 49
-0.25
 74
     0
 49
0.25
 74
     0
 49
-0.25
 74
     0
  0
ENDTAB
  0
TABLE
  2
LAYER
  5
5EF092AB
102
{ACAD_XDICTIONARY
360
5EF0C241
102
}
330
0
100
AcDbSymbolTable
 70
    10
  0
LAYER
  5
5EF092B8
330
5EF092AB
100
AcDbSymbolTableRecord
100
AcDbLayerTableRecord
  2
0
 70
     0
 62
     7
  6
CONTINUOUS
  0
LAYER
  5
5EF092E0
330
5EF092AB
100
AcDbSymbolTableRecord
100
AcDbLayerTableRecord
  2
ITTEN
 70
     0
 62
     1
  6
CENTER
  0
LAYER
  5
5EF092E1
330
5EF092AB
100
AcDbSymbolTableRecord
100
AcDbLayerTableRecord
  2
NITEN
 70
     0
 62
     2
  6
PHANTOM
  0
LAYER
  5
5EF092E2
330
5EF092AB
100
AcDbSymbolTableRecord
100
AcDbLayerTableRecord
  2
HATCH
 70
     0
 62
     4
  6
CONTINUOUS
  0
LAYER
  5
5EF092E3
330
5EF092AB
100
AcDbSymbolTableRecord
100
AcDbLayerTableRecord
  2
SUNPOU
 70
     0
 62
     3
  6
CONTINUOUS
  0
LAYER
  5
5EF092E5
330
5EF092AB
100
AcDbSymbolTableRecord
100
AcDbLayerTableRecord
  2
SAISEN
 70
     0
 62
     4
  6
CONTINUOUS
  0
LAYER
  5
5EF092E6
330
5EF092AB
100
AcDbSymbolTableRecord
100
AcDbLayerTableRecord
  2
JISSEN
 70
     0
 62
     7
  6
CONTINUOUS
  0
LAYER
  5
5EF092EA
330
5EF092AB
100
AcDbSymbolTableRecord
100
AcDbLayerTableRecord
  2
WAKU
 70
     0
 62
     5
  6
CONTINUOUS
  0
LAYER
  5
5EF092FD
330
5EF092AB
100
AcDbSymbolTableRecord
100
AcDbLayerTableRecord
  2
SCALE
 70
     0
 62
     7
  6
CONTINUOUS
  0
LAYER
  5
5EF0A10D
330
5EF092AB
100
AcDbSymbolTableRecord
100
AcDbLayerTableRecord
  2
ASSIST
 70
     0
 62
     7
  6
CONTINUOUS
  0
ENDTAB
  0
TABLE
  2
STYLE
  5
5EF092AC
330
0
100
AcDbSymbolTable
 70
     2
  0
STYLE
  5
5EF092B9
330
5EF092AC
100
AcDbSymbolTableRecord
100
AcDbTextStyleTableRecord
  2
STANDARD
 70
     0
 40
0.0
 41
1.0
 50
0.0
 71
     0
 42
0.2
  3
ROMANS
  4
EXTFONT
  0
STYLE
  5
5EF092CF
330
5EF092AC
100
AcDbSymbolTableRecord
100
AcDbTextStyleTableRecord
  2
K
 70
     0
 40
0.0
 41
1.0
 50
0.0
 71
     0
 42
1.0
  3
ROMANS
  4
EXTFONT
  0
ENDTAB
  0
TABLE
  2
VIEW
  5
5EF092AF
330
0
100
AcDbSymbolTable
 70
     0
  0
ENDTAB
  0
TABLE
  2
UCS
  5
5EF092B0
330
0
100
AcDbSymbolTable
 70
     0
  0
ENDTAB
  0
TABLE
  2
APPID
  5
5EF092B2
330
0
100
AcDbSymbolTable
 70
     1
  0
APPID
  5
5EF092BA
330
5EF092B2
100
AcDbSymbolTableRecord
100
AcDbRegAppTableRecord
  2
ACAD
 70
     0
  0
ENDTAB
  0
TABLE
  2
DIMSTYLE
  5
5EF092B3
330
0
100
AcDbSymbolTable
 70
     1
  0
DIMSTYLE
105
5EF092DE
330
5EF092B3
100
AcDbSymbolTableRecord
100
AcDbDimStyleTableRecord
  2
IMAO
 70
     0
  3

  4

  5
ARROWANG
  6
ARROWANG
  7
ARROWANG
 40
1.0
 41
1.5
 42
0.75
 43
6.0
 44
1.0
 45
0.0
 46
0.0
 47
495.0
 48
0.0
140
3.0
141
0.0
142
0.0
143
25.4
144
1.0
145
0.0
146
1.0
147
1.0
 71
     0
 72
     0
 73
     0
 74
     0
 75
     0
 76
     0
 77
     3
 78
     8
170
     0
171
     2
172
     1
173
     1
174
     1
175
     0
176
   256
177
   256
178
   256
270
     2
271
     2
272
     2
273
     2
274
     2
340
5EF092CF
275
     0
280
     0
281
     0
282
     0
283
     1
284
     0
285
     0
286
     0
287
     3
288
     0
  0
ENDTAB
  0
TABLE
  2
BLOCK_RECORD
  5
5EF092AA
330
0
100
AcDbSymbolTable
 70
     1
  0
BLOCK_RECORD
  5
5EF092C1
102
{ACAD_XDICTIONARY
360
5EF0C0F3
102
}
330
5EF092AA
100
AcDbSymbolTableRecord
100
AcDbBlockTableRecord
  2
*MODEL_SPACE
  0
BLOCK_RECORD
  5
5EF092BE
102
{ACAD_XDICTIONARY
360
5EF0C0F1
102
}
330
5EF092AA
100
AcDbSymbolTableRecord
100
AcDbBlockTableRecord
  2
*PAPER_SPACE
  0
BLOCK_RECORD
  5
5EF092CB
330
5EF092AA
100
AcDbSymbolTableRecord
100
AcDbBlockTableRecord
  2
ARROWANG
  0
ENDTAB
  0
ENDSEC
  0
SECTION
  2
BLOCKS
  0
BLOCK
  5
5EF092EF
330
5EF092C1
100
AcDbEntity
  8
0
100
AcDbBlockBegin
  2
*MODEL_SPACE
 70
     0
 10
0.0
 20
0.0
 30
0.0
  3
*MODEL_SPACE
  1

  0
ENDBLK
  5
5EF092F0
330
5EF092C1
100
AcDbEntity
  8
0
100
AcDbBlockEnd
  0
BLOCK
  5
5EF092ED
330
5EF092BE
100
AcDbEntity
 67
     1
  8
0
100
AcDbBlockBegin
  2
*PAPER_SPACE
 70
     0
 10
0.0
 20
0.0
 30
0.0
  3
*PAPER_SPACE
  1

  0
ENDBLK
  5
5EF092EE
330
5EF092BE
100
AcDbEntity
 67
     1
  8
0
100
AcDbBlockEnd
  0
BLOCK
  5
1D
330
5EF092CB
100
AcDbEntity
  8
0
100
AcDbBlockBegin
  2
ARROWANG
 70
     0
 10
0.0
 20
0.0
 30
0.0
  3
ARROWANG
  1

  0
LINE
  5
1E
330
5EF092CB
100
AcDbEntity
  8
SUNPOU
100
AcDbLine
 10
0.0
 20
0.0
 30
0.0
 11
-1.499999999999956
 21
0.401923788646741
 31
0.0
  0
LINE
  5
1F
330
5EF092CB
100
AcDbEntity
  8
SUNPOU
100
AcDbLine
 10
0.0
 20
0.0
 30
0.0
 11
-1.500000000000025
 21
-0.4019237886467124
 31
0.0
  0
ENDBLK
  5
20
330
5EF092CB
100
AcDbEntity
  8
0
100
AcDbBlockEnd
  0
ENDSEC
  0
SECTION
  2
ENTITIES
  0
TEXT
  5
2D6D6C92
330
5EF092C1
100
AcDbEntity
  8
JISSEN
100
AcDbText
 10
349.9540407660655
 20
1.542807100332488
 30
0.0
 40
3.5
  1

  7
K
100
AcDbText
  0
LWPOLYLINE
  5
5EF0A015
330
5EF092C1
100
AcDbEntity
  8
WAKU
100
AcDbPolyline
 90
        4
 70
     1
 43
0.0
 10
0.0
 20
0.0
 10
780.0
 20
0.0
 10
780.0
 20
546.0
 10
0.0
 20
546.0
  0
LINE
  5
5EF0AEFC
330
5EF092C1
100
AcDbEntity
  8
JISSEN
100
AcDbLine
 10
114.0714239807798
 20
148.9486297955281
 30
0.0
 11
107.9403555583929
 21
148.9486297955278
 31
0.0
  0
ARC
  5
5EF0AEFF
330
5EF092C1
100
AcDbEntity
  8
JISSEN
100
AcDbCircle
 10
111.0058897695862
 20
152.8986297955284
 30
0.0
 40
5.0
100
AcDbArc
 50
127.814488506017
 51
232.185511493995
  0
LINE
  5
5EF0AF00
330
5EF092C1
100
AcDbEntity
  8
JISSEN
100
AcDbLine
 10
114.0714239807802
 20
156.8486297955284
 30
0.0
 11
107.9403555583919
 21
156.848629795528
 31
0.0
  0
LINE
  5
5EF0AF01
330
5EF092C1
100
AcDbEntity
  8
JISSEN
100
AcDbLine
 10
110.0058897695864
 20
145.3249424008894
 30
0.0
 11
110.0058897695864
 21
148.357429513665
 31
0.0
  0
LINE
  5
5EF0AF02
330
5EF092C1
100
AcDbEntity
  8
JISSEN
100
AcDbLine
 10
112.0058897695864
 20
148.357429513665
 30
0.0
 11
112.0058897695864
 21
145.3249424008894
 31
0.0
  0
LINE
  5
5EF0AF03
330
5EF092C1
100
AcDbEntity
  8
JISSEN
100
AcDbLine
 10
108.0058897695865
 20
145.8729098500911
 30
0.0
 11
108.0058897695865
 21
147.9749275076368
 31
0.0
  0
LINE
  5
5EF0AF04
330
5EF092C1
100
AcDbEntity
  8
JISSEN
100
AcDbLine
 10
114.0058897695864
 20
147.9749275076368
 30
0.0
 11
114.0058897695864
 21
145.8729098500911
 31
0.0
  0
ARC
  5
5EF0AF05
330
5EF092C1
100
AcDbEntity
  8
JISSEN
100
AcDbCircle
 10
111.0058897695864
 20
153.1590473200989
 30
0.0
 40
5.989582475429369
100
AcDbArc
 50
300.0575514154991
 51
239.9424485845007
  0
ARC
  5
5EF0AF06
330
5EF092C1
100
AcDbEntity
  8
JISSEN
100
AcDbCircle
 10
111.0058897695864
 20
152.8986297955284
 30
0.0
 40
7.639420184262231
100
AcDbArc
 50
246.877396550053
 51
262.4783978160296
  0
ARC
  5
5EF0AF07
330
5EF092C1
100
AcDbEntity
  8
JISSEN
100
AcDbCircle
 10
111.0058897695864
 20
152.8986297955284
 30
0.0
 40
7.639420184262231
100
AcDbArc
 50
277.5216021839704
 51
293.1226034499468
  0
CIRCLE
  5
5EF0AF08
330
5EF092C1
100
AcDbEntity
  8
JISSEN
100
AcDbCircle
 10
109.0058897695864
 20
147.170410176834
 30
0.0
 40
0.6
  0
CIRCLE
  5
5EF0AF09
330
5EF092C1
100
AcDbEntity
  8
JISSEN
100
AcDbCircle
 10
113.0058897695864
 20
147.170410176834
 30
0.0
 40
0.6
  0
ARC
  5
5EF0AF0A
330
5EF092C1
100
AcDbEntity
  8
JISSEN
100
AcDbCircle
 10
111.0058897695862
 20
152.8986297955284
 30
0.0
 40
5.0
100
AcDbArc
 50
307.8144885060098
 51
52.1855114939836
  0
ARC
  5
5EF0AF0B
330
5EF092C1
100
AcDbEntity
  8
SCALE
100
AcDbCircle
 39
960.208308198174
 10
111.0058897695864
 20
152.8986297955285
 30
0.0
 40
4.65
100
AcDbArc
 50
238.1532413708473
 51
257.5813184941805
  0
ARC
  5
5EF0AF0C
330
5EF092C1
100
AcDbEntity
  8
SCALE
100
AcDbCircle
 39
960.208308198174
 10
111.0058897695864
 20
152.8986297955285
 30
0.0
 40
4.65
100
AcDbArc
 50
58.1532413708209
 51
121.846758629179
  0
ARC
  5
5EF0AF0D
330
5EF092C1
100
AcDbEntity
  8
SCALE
100
AcDbCircle
 39
960.208308198174
 10
111.0058897695864
 20
152.8986297955285
 30
0.0
 40
4.65
100
AcDbArc
 50
282.4186815058191
 51
301.8467586291581
  0
LINE
  5
5EF0AF0E
330
5EF092C1
100
AcDbEntity
  8
JISSEN
100
AcDbLine
 10
330.0714239807811
 20
148.9486297955281
 30
0.0
 11
323.9403555583943
 21
148.9486297955278
 31
0.0
  0
ARC
  5
5EF0AF11
330
5EF092C1
100
AcDbEntity
  8
JISSEN
100
AcDbCircle
 10
327.0058897695875
 20
152.8986297955284
 30
0.0
 40
5.0
100
AcDbArc
 50
127.814488506017
 51
232.185511493995
  0
LINE
  5
5EF0AF12
330
5EF092C1
100
AcDbEntity
  8
JISSEN
100
AcDbLine
 10
330.0714239807816
 20
156.8486297955284
 30
0.0
 11
323.9403555583935
 21
156.848629795528
 31
0.0
  0
LINE
  5
5EF0AF13
330
5EF092C1
100
AcDbEntity
  8
JISSEN
100
AcDbLine
 10
326.005889769588
 20
145.3249424008894
 30
0.0
 11
326.005889769588
 21
148.357429513665
 31
0.0
  0
LINE
  5
5EF0AF14
330
5EF092C1
100
AcDbEntity
  8
JISSEN
100
AcDbLine
 10
328.005889769588
 20
148.357429513665
 30
0.0
 11
328.005889769588
 21
145.3249424008894
 31
0.0
  0
LINE
  5
5EF0AF15
330
5EF092C1
100
AcDbEntity
  8
JISSEN
100
AcDbLine
 10
324.005889769588
 20
145.8729098500911
 30
0.0
 11
324.005889769588
 21
147.9749275076368
 31
0.0
  0
LINE
  5
5EF0AF16
330
5EF092C1
100
AcDbEntity
  8
JISSEN
100
AcDbLine
 10
330.005889769588
 20
147.9749275076368
 30
0.0
 11
330.005889769588
 21
145.8729098500911
 31
0.0
  0
ARC
  5
5EF0AF17
330
5EF092C1
100
AcDbEntity
  8
JISSEN
100
AcDbCircle
 10
327.0058897695878
 20
153.1590473200989
 30
0.0
 40
5.989582475429369
100
AcDbArc
 50
300.0575514154991
 51
239.9424485845007
  0
ARC
  5
5EF0AF18
330
5EF092C1
100
AcDbEntity
  8
JISSEN
100
AcDbCircle
 10
327.0058897695878
 20
152.8986297955284
 30
0.0
 40
7.639420184262231
100
AcDbArc
 50
246.877396550053
 51
262.4783978160296
  0
ARC
  5
5EF0AF19
330
5EF092C1
100
AcDbEntity
  8
JISSEN
100
AcDbCircle
 10
327.0058897695878
 20
152.8986297955284
 30
0.0
 40
7.639420184262231
100
AcDbArc
 50
277.5216021839704
 51
293.1226034499468
  0
CIRCLE
  5
5EF0AF1A
330
5EF092C1
100
AcDbEntity
  8
JISSEN
100
AcDbCircle
 10
325.0058897695878
 20
147.170410176834
 30
0.0
 40
0.6
  0
CIRCLE
  5
5EF0AF1B
330
5EF092C1
100
AcDbEntity
  8
JISSEN
100
AcDbCircle
 10
329.005889769588
 20
147.170410176834
 30
0.0
 40
0.6
  0
ARC
  5
5EF0AF1C
330
5EF092C1
100
AcDbEntity
  8
JISSEN
100
AcDbCircle
 10
327.0058897695875
 20
152.8986297955284
 30
0.0
 40
5.0
100
AcDbArc
 50
307.8144885060098
 51
52.1855114939836
  0
ARC
  5
5EF0AF1D
330
5EF092C1
100
AcDbEntity
  8
SCALE
100
AcDbCircle
 39
960.208308198174
 10
327.0058897695878
 20
152.8986297955285
 30
0.0
 40
4.65
100
AcDbArc
 50
238.1532413708473
 51
257.5813184941805
  0
ARC
  5
5EF0AF1E
330
5EF092C1
100
AcDbEntity
  8
SCALE
100
AcDbCircle
 39
960.208308198174
 10
327.0058897695878
 20
152.8986297955285
 30
0.0
 40
4.65
100
AcDbArc
 50
58.1532413708209
 51
121.846758629179
  0
ARC
  5
5EF0AF1F
330
5EF092C1
100
AcDbEntity
  8
SCALE
100
AcDbCircle
 39
960.208308198174
 10
327.0058897695878
 20
152.8986297955285
 30
0.0
 40
4.65
100
AcDbArc
 50
282.4186815058191
 51
301.8467586291581
  0
ARC
  5
5EF0AFF8
330
5EF092C1
100
AcDbEntity
  8
JISSEN
100
AcDbCircle
 10
194.7784151479105
 20
73.89862979552798
 30
0.0
 40
5.0
100
AcDbArc
 50
90.00000000000195
 51
165.3533521779575
  0
LINE
  5
5EF0AFF9
330
5EF092C1
100
AcDbEntity
  8
SAISEN
100
AcDbLine
 39
960.208308198174
 10
164.0058897695879
 20
67.0586297955274
 30
0.0
 11
177.4409186121308
 21
55.05862979552739
 31
0.0
  0
LINE
  5
5EF0AFFA
330
5EF092C1
100
AcDbEntity
  8
SAISEN
100
AcDbLine
 39
960.208308198174
 10
177.4409186121308
 20
67.0586297955274
 30
0.0
 11
164.0058897695879
 21
55.05862979552739
 31
0.0
  0
LINE
  5
5EF0AFFB
330
5EF092C1
100
AcDbEntity
  8
JISSEN
100
AcDbLine
 39
960.208308198174
 10
177.4409186121308
 20
55.05862979552739
 30
0.0
 11
177.4409186121308
 21
67.0586297955274
 31
0.0
  0
LINE
  5
5EF0AFFC
330
5EF092C1
100
AcDbEntity
  8
JISSEN
100
AcDbLine
 10
177.4409186121308
 20
55.05862979552739
 30
0.0
 11
150.570860927043
 21
55.05862979552739
 31
0.0
  0
LINE
  5
5EF0AFFD
330
5EF092C1
100
AcDbEntity
  8
SAISEN
100
AcDbLine
 10
179.2138897695895
 20
73.66862979552887
 30
0.0
 11
179.420452269588
 21
67.0586297955274
 31
0.0
  0
LINE
  5
5EF0AFFE
330
5EF092C1
100
AcDbEntity
  8
JISSEN
100
AcDbLine
 10
180.6928897695901
 20
73.66862979552887
 30
0.0
 11
180.8994522695893
 21
67.0586297955274
 31
0.0
  0
LINE
  5
5EF0AFFF
330
5EF092C1
100
AcDbEntity
  8
JISSEN
100
AcDbLine
 10
180.8994522695893
 20
67.0586297955274
 30
0.0
 11
147.1123272695885
 21
67.0586297955274
 31
0.0
  0
LINE
  5
5EF0B000
330
5EF092C1
100
AcDbEntity
  8
SAISEN
100
AcDbLine
 39
960.208308198174
 10
150.570860927043
 20
55.05862979552739
 30
0.0
 11
164.0058897695879
 21
67.0586297955274
 31
0.0
  0
LINE
  5
5EF0B001
330
5EF092C1
100
AcDbEntity
  8
SAISEN
100
AcDbLine
 39
960.208308198174
 10
164.0058897695879
 20
55.05862979552739
 30
0.0
 11
150.570860927043
 21
67.0586297955274
 31
0.0
  0
LINE
  5
5EF0B002
330
5EF092C1
100
AcDbEntity
  8
JISSEN
100
AcDbLine
 39
960.208308198174
 10
150.570860927043
 20
55.05862979552739
 30
0.0
 11
150.570860927043
 21
67.0586297955274
 31
0.0
  0
LINE
  5
5EF0B003
330
5EF092C1
100
AcDbEntity
  8
JISSEN
100
AcDbLine
 10
147.3188897695868
 20
73.66862979552641
 30
0.0
 11
147.1123272695885
 21
67.0586297955274
 31
0.0
  0
LINE
  5
5EF0B004
330
5EF092C1
100
AcDbEntity
  8
SAISEN
100
AcDbLine
 10
148.7978897695884
 20
73.66862979552641
 30
0.0
 11
148.5913272695895
 21
67.0586297955274
 31
0.0
  0
LINE
  5
5EF0B005
330
5EF092C1
100
AcDbEntity
  8
JISSEN
100
AcDbLine
 39
960.208308198174
 10
164.0058897695879
 20
67.0586297955274
 30
0.0
 11
164.0058897695879
 21
55.05862979552739
 31
0.0
  0
ARC
  5
5EF0B006
330
5EF092C1
100
AcDbEntity
  8
JISSEN
100
AcDbCircle
 10
188.0058897695897
 20
75.66862979552844
 30
0.0
 40
2.0
100
AcDbArc
 50
270.0000000000037
 51
345.3533521779578
  0
ARC
  5
5EF0B007
330
5EF092C1
100
AcDbEntity
  8
JISSEN
100
AcDbCircle
 10
145.0058897695903
 20
75.66862979552571
 30
0.0
 40
2.0
100
AcDbArc
 50
180.0000000000053
 51
270.0000000000035
  0
LINE
  5
5EF0B008
330
5EF092C1
100
AcDbEntity
  8
JISSEN
100
AcDbLine
 10
145.0058897695903
 20
73.6686297955257
 30
0.0
 11
188.00588976959
 21
73.66862979552895
 31
0.0
  0
LINE
  5
5EF0B011
330
5EF092C1
100
AcDbEntity
  8
JISSEN
100
AcDbLine
 10
612.5269818581291
 20
55.05862979552751
 30
0.0
 11
585.6569241730412
 21
55.05862979552751
 31
0.0
  0
LINE
  5
5EF0B012
330
5EF092C1
100
AcDbEntity
  8
JISSEN
100
AcDbLine
 39
960.208308198174
 10
612.5269818581291
 20
55.05862979552751
 30
0.0
 11
612.5269818581257
 21
66.4362102133764
 31
0.0
  0
LINE
  5
5EF0B013
330
5EF092C1
100
AcDbEntity
  8
SAISEN
100
AcDbLine
 39
960.208308198174
 10
611.688996785381
 20
66.31015199240585
 30
0.0
 11
599.0919530155861
 21
55.05862979552751
 31
0.0
  0
LINE
  5
5EF0B014
330
5EF092C1
100
AcDbEntity
  8
SAISEN
100
AcDbLine
 39
960.208308198174
 10
600.9288755278032
 20
65.41791354512219
 30
0.0
 11
612.5269818581291
 21
55.05862979552751
 31
0.0
  0
ARC
  5
5EF0B16B
330
5EF092C1
100
AcDbEntity
  8
JISSEN
100
AcDbCircle
 10
108.8845694260275
 20
138.8986297955317
 30
0.0
 40
1.0
100
AcDbArc
 50
314.9999999999973
 51
45.0
  0
ARC
  5
5EF0B16C
330
5EF092C1
100
AcDbEntity
  8
JISSEN
100
AcDbCircle
 10
113.1272101131475
 20
138.8986297955317
 30
0.0
 40
1.0
100
AcDbArc
 50
135.0
 51
225.0000000000103
  0
ARC
  5
5EF0B16D
330
5EF092C1
100
AcDbEntity
  8
JISSEN
100
AcDbCircle
 10
108.8845694260275
 20
166.898629795525
 30
0.0
 40
1.0
100
AcDbArc
 50
315.0
 51
45.00000000000259
  0
ARC
  5
5EF0B16E
330
5EF092C1
100
AcDbEntity
  8
JISSEN
100
AcDbCircle
 10
113.1272101131475
 20
166.898629795525
 30
0.0
 40
1.0
100
AcDbArc
 50
134.9999999999894
 51
225.0
  0
ARC
  5
5EF0B16F
330
5EF092C1
100
AcDbEntity
  8
JISSEN
100
AcDbCircle
 10
111.0058897695864
 20
136.7773094519714
 30
0.0
 40
1.0
100
AcDbArc
 50
45.00000000001043
 51
135.0
  0
ARC
  5
5EF0B170
330
5EF092C1
100
AcDbEntity
  8
JISSEN
100
AcDbCircle
 10
111.0058897695876
 20
141.0199501390918
 30
0.0
 40
1.0
100
AcDbArc
 50
224.9999999999895
 51
314.9999999999973
  0
LINE
  5
5EF0B171
330
5EF092C1
100
AcDbEntity
  8
JISSEN
100
AcDbLine
 10
111.712996550774
 20
140.3128433579055
 30
0.0
 11
112.2987829883944
 21
140.8986297955254
 31
0.0
  0
LINE
  5
5EF0B172
330
5EF092C1
100
AcDbEntity
  8
JISSEN
100
AcDbLine
 10
112.42010333196
 20
139.6057365767185
 30
0.0
 11
113.4807635037389
 21
140.666396748497
 31
0.0
  0
LINE
  5
5EF0B173
330
5EF092C1
100
AcDbEntity
  8
JISSEN
100
AcDbLine
 10
109.5916762072132
 20
139.605736576718
 30
0.0
 11
108.531016035434
 21
140.6663967484974
 31
0.0
  0
LINE
  5
5EF0B174
330
5EF092C1
100
AcDbEntity
  8
JISSEN
100
AcDbLine
 10
110.2987829884009
 20
140.3128433579055
 30
0.0
 11
109.6343599811707
 21
140.9772663651345
 31
0.0
  0
LINE
  5
5EF0B175
330
5EF092C1
100
AcDbEntity
  8
JISSEN
100
AcDbLine
 10
108.531016035434
 20
140.6663967484974
 30
0.0
 11
108.9420565661264
 21
141.0774372791894
 31
0.0
  0
LINE
  5
5EF0B176
330
5EF092C1
100
AcDbEntity
  8
JISSEN
100
AcDbLine
 10
113.4807635037409
 20
137.1308628425645
 30
0.0
 11
112.7736567225524
 21
136.4237560613785
 31
0.0
  0
LINE
  5
5EF0B177
330
5EF092C1
100
AcDbEntity
  8
JISSEN
100
AcDbLine
 10
112.7736567225524
 20
136.4237560613787
 30
0.0
 11
111.7129965507732
 21
137.4844162331585
 31
0.0
  0
LINE
  5
5EF0B178
330
5EF092C1
100
AcDbEntity
  8
JISSEN
100
AcDbLine
 10
113.4807635037409
 20
137.1308628425645
 30
0.0
 11
112.42010333196
 21
138.1915230143446
 31
0.0
  0
LINE
  5
5EF0B179
330
5EF092C1
100
AcDbEntity
  8
JISSEN
100
AcDbLine
 10
109.2381228166191
 20
136.4237560613775
 30
0.0
 11
110.2987829884
 21
137.4844162331585
 31
0.0
  0
LINE
  5
5EF0B17A
330
5EF092C1
100
AcDbEntity
  8
JISSEN
100
AcDbLine
 10
108.5310160354332
 20
137.1308628425645
 30
0.0
 11
109.5916762072141
 21
138.191523014345
 31
0.0
  0
LINE
  5
5EF0B17B
330
5EF092C1
100
AcDbEntity
  8
JISSEN
100
AcDbLine
 10
109.2381228166191
 20
136.423756061378
 30
0.0
 11
108.5310160354332
 21
137.1308628425645
 31
0.0
  0
LINE
  5
5EF0B17C
330
5EF092C1
100
AcDbEntity
  8
JISSEN
100
AcDbLine
 10
113.2485304567103
 20
140.8986297955254
 30
0.0
 11
113.4807635037389
 21
140.666396748497
 31
0.0
  0
LINE
  5
5EF0B17D
330
5EF092C1
100
AcDbEntity
  8
JISSEN
100
AcDbLine
 10
113.2485304567103
 20
164.8986297955313
 30
0.0
 11
113.4807635037389
 21
165.1308628425598
 31
0.0
  0
LINE
  5
5EF0B17E
330
5EF092C1
100
AcDbEntity
  8
JISSEN
100
AcDbLine
 10
109.2381228166191
 20
169.3735035296788
 30
0.0
 11
108.5310160354332
 21
168.6663967484923
 31
0.0
  0
LINE
  5
5EF0B17F
330
5EF092C1
100
AcDbEntity
  8
JISSEN
100
AcDbLine
 10
108.5310160354332
 20
168.6663967484923
 30
0.0
 11
109.5916762072141
 21
167.6057365767119
 31
0.0
  0
LINE
  5
5EF0B180
330
5EF092C1
100
AcDbEntity
  8
JISSEN
100
AcDbLine
 10
109.2381228166191
 20
169.3735035296794
 30
0.0
 11
110.2987829884
 21
168.3128433578986
 31
0.0
  0
LINE
  5
5EF0B181
330
5EF092C1
100
AcDbEntity
  8
JISSEN
100
AcDbLine
 10
113.4807635037409
 20
168.6663967484923
 30
0.0
 11
112.42010333196
 21
167.6057365767123
 31
0.0
  0
LINE
  5
5EF0B182
330
5EF092C1
100
AcDbEntity
  8
JISSEN
100
AcDbLine
 10
112.7736567225524
 20
169.3735035296783
 30
0.0
 11
111.7129965507732
 21
168.3128433578986
 31
0.0
  0
LINE
  5
5EF0B183
330
5EF092C1
100
AcDbEntity
  8
JISSEN
100
AcDbLine
 10
113.4807635037409
 20
168.6663967484923
 30
0.0
 11
112.7736567225524
 21
169.3735035296786
 31
0.0
  0
LINE
  5
5EF0B184
330
5EF092C1
100
AcDbEntity
  8
JISSEN
100
AcDbLine
 10
108.531016035434
 20
165.1308628425595
 30
0.0
 11
108.9420565661264
 21
164.7198223118673
 31
0.0
  0
LINE
  5
5EF0B185
330
5EF092C1
100
AcDbEntity
  8
JISSEN
100
AcDbLine
 10
110.2987829884009
 20
165.4844162331514
 30
0.0
 11
109.6343599811707
 21
164.8199932259225
 31
0.0
  0
LINE
  5
5EF0B186
330
5EF092C1
100
AcDbEntity
  8
JISSEN
100
AcDbLine
 10
109.5916762072132
 20
166.1915230143389
 30
0.0
 11
108.531016035434
 21
165.1308628425595
 31
0.0
  0
LINE
  5
5EF0B187
330
5EF092C1
100
AcDbEntity
  8
JISSEN
100
AcDbLine
 10
112.42010333196
 20
166.1915230143383
 30
0.0
 11
113.4807635037389
 21
165.1308628425598
 31
0.0
  0
LINE
  5
5EF0B188
330
5EF092C1
100
AcDbEntity
  8
JISSEN
100
AcDbLine
 10
111.712996550774
 20
165.4844162331514
 30
0.0
 11
112.2987829883944
 21
164.8986297955313
 31
0.0
  0
ARC
  5
5EF0B189
330
5EF092C1
100
AcDbEntity
  8
JISSEN
100
AcDbCircle
 10
111.0058897695876
 20
164.7773094519649
 30
0.0
 40
1.0
100
AcDbArc
 50
45.00000000000259
 51
135.0000000000104
  0
ARC
  5
5EF0B18A
330
5EF092C1
100
AcDbEntity
  8
JISSEN
100
AcDbCircle
 10
111.0058897695864
 20
169.0199501390855
 30
0.0
 40
1.0
100
AcDbArc
 50
225.0
 51
314.9999999999895
  0
LINE
  5
5EF0B18B
330
5EF092C1
100
AcDbEntity
  8
JISSEN
100
AcDbLine
 10
324.7632490824617
 20
140.8986297955254
 30
0.0
 11
324.5310160354329
 21
140.666396748497
 31
0.0
  0
LINE
  5
5EF0B18C
330
5EF092C1
100
AcDbEntity
  8
JISSEN
100
AcDbLine
 10
328.7736567225528
 20
136.423756061378
 30
0.0
 11
329.4807635037386
 21
137.1308628425645
 31
0.0
  0
LINE
  5
5EF0B18D
330
5EF092C1
100
AcDbEntity
  8
JISSEN
100
AcDbLine
 10
329.4807635037386
 20
137.1308628425645
 30
0.0
 11
328.4201033319577
 21
138.191523014345
 31
0.0
  0
LINE
  5
5EF0B18E
330
5EF092C1
100
AcDbEntity
  8
JISSEN
100
AcDbLine
 10
328.7736567225528
 20
136.4237560613775
 30
0.0
 11
327.7129965507719
 21
137.4844162331585
 31
0.0
  0
LINE
  5
5EF0B18F
330
5EF092C1
100
AcDbEntity
  8
JISSEN
100
AcDbLine
 10
324.5310160354311
 20
137.1308628425645
 30
0.0
 11
325.591676207212
 21
138.1915230143446
 31
0.0
  0
LINE
  5
5EF0B190
330
5EF092C1
100
AcDbEntity
  8
JISSEN
100
AcDbLine
 10
325.2381228166193
 20
136.4237560613787
 30
0.0
 11
326.2987829883986
 21
137.4844162331585
 31
0.0
  0
LINE
  5
5EF0B191
330
5EF092C1
100
AcDbEntity
  8
JISSEN
100
AcDbLine
 10
324.5310160354311
 20
137.1308628425645
 30
0.0
 11
325.2381228166193
 21
136.4237560613785
 31
0.0
  0
LINE
  5
5EF0B192
330
5EF092C1
100
AcDbEntity
  8
JISSEN
100
AcDbLine
 10
329.4807635037376
 20
140.6663967484974
 30
0.0
 11
329.0697229730456
 21
141.0774372791894
 31
0.0
  0
LINE
  5
5EF0B193
330
5EF092C1
100
AcDbEntity
  8
JISSEN
100
AcDbLine
 10
327.7129965507711
 20
140.3128433579055
 30
0.0
 11
328.377419558001
 21
140.9772663651345
 31
0.0
  0
LINE
  5
5EF0B194
330
5EF092C1
100
AcDbEntity
  8
JISSEN
100
AcDbLine
 10
328.4201033319586
 20
139.605736576718
 30
0.0
 11
329.4807635037376
 21
140.6663967484974
 31
0.0
  0
LINE
  5
5EF0B195
330
5EF092C1
100
AcDbEntity
  8
JISSEN
100
AcDbLine
 10
325.591676207212
 20
139.6057365767185
 30
0.0
 11
324.5310160354329
 21
140.666396748497
 31
0.0
  0
LINE
  5
5EF0B196
330
5EF092C1
100
AcDbEntity
  8
JISSEN
100
AcDbLine
 10
326.2987829883976
 20
140.3128433579055
 30
0.0
 11
325.7129965507773
 21
140.8986297955254
 31
0.0
  0
ARC
  5
5EF0B197
330
5EF092C1
100
AcDbEntity
  8
JISSEN
100
AcDbCircle
 10
327.0058897695843
 20
141.0199501390918
 30
0.0
 40
1.0
100
AcDbArc
 50
225.0000000000025
 51
315.0000000000104
  0
ARC
  5
5EF0B198
330
5EF092C1
100
AcDbEntity
  8
JISSEN
100
AcDbCircle
 10
324.8845694260243
 20
138.8986297955317
 30
0.0
 40
1.0
100
AcDbArc
 50
314.9999999999895
 51
45.0
  0
ARC
  5
5EF0B199
330
5EF092C1
100
AcDbEntity
  8
JISSEN
100
AcDbCircle
 10
327.0058897695851
 20
136.7773094519714
 30
0.0
 40
1.0
100
AcDbArc
 50
45.0
 51
134.9999999999894
  0
ARC
  5
5EF0B19A
330
5EF092C1
100
AcDbEntity
  8
JISSEN
100
AcDbCircle
 10
329.1272101131443
 20
138.8986297955317
 30
0.0
 40
1.0
100
AcDbArc
 50
135.0
 51
225.0000000000025
  0
ARC
  5
5EF0B19B
330
5EF092C1
100
AcDbEntity
  8
JISSEN
100
AcDbCircle
 10
329.1272101131443
 20
166.898629795525
 30
0.0
 40
1.0
100
AcDbArc
 50
134.9999999999974
 51
225.0
  0
ARC
  5
5EF0B19C
330
5EF092C1
100
AcDbEntity
  8
JISSEN
100
AcDbCircle
 10
327.0058897695851
 20
169.0199501390855
 30
0.0
 40
1.0
100
AcDbArc
 50
225.0000000000103
 51
315.0
  0
ARC
  5
5EF0B19D
330
5EF092C1
100
AcDbEntity
  8
JISSEN
100
AcDbCircle
 10
324.8845694260243
 20
166.898629795525
 30
0.0
 40
1.0
100
AcDbArc
 50
315.0
 51
45.00000000001043
  0
ARC
  5
5EF0B19E
330
5EF092C1
100
AcDbEntity
  8
JISSEN
100
AcDbCircle
 10
327.0058897695843
 20
164.7773094519649
 30
0.0
 40
1.0
100
AcDbArc
 50
44.99999999998957
 51
134.9999999999974
  0
LINE
  5
5EF0B19F
330
5EF092C1
100
AcDbEntity
  8
JISSEN
100
AcDbLine
 10
326.2987829883976
 20
165.4844162331514
 30
0.0
 11
325.7129965507773
 21
164.8986297955313
 31
0.0
  0
LINE
  5
5EF0B1A0
330
5EF092C1
100
AcDbEntity
  8
JISSEN
100
AcDbLine
 10
325.591676207212
 20
166.1915230143383
 30
0.0
 11
324.5310160354329
 21
165.1308628425598
 31
0.0
  0
LINE
  5
5EF0B1A1
330
5EF092C1
100
AcDbEntity
  8
JISSEN
100
AcDbLine
 10
328.4201033319586
 20
166.1915230143389
 30
0.0
 11
329.4807635037376
 21
165.1308628425595
 31
0.0
  0
LINE
  5
5EF0B1A2
330
5EF092C1
100
AcDbEntity
  8
JISSEN
100
AcDbLine
 10
327.7129965507711
 20
165.4844162331514
 30
0.0
 11
328.377419558001
 21
164.8199932259225
 31
0.0
  0
LINE
  5
5EF0B1A3
330
5EF092C1
100
AcDbEntity
  8
JISSEN
100
AcDbLine
 10
329.4807635037376
 20
165.1308628425595
 30
0.0
 11
329.0697229730456
 21
164.7198223118673
 31
0.0
  0
LINE
  5
5EF0B1A4
330
5EF092C1
100
AcDbEntity
  8
JISSEN
100
AcDbLine
 10
324.5310160354311
 20
168.6663967484923
 30
0.0
 11
325.2381228166193
 21
169.3735035296786
 31
0.0
  0
LINE
  5
5EF0B1A5
330
5EF092C1
100
AcDbEntity
  8
JISSEN
100
AcDbLine
 10
325.2381228166193
 20
169.3735035296783
 30
0.0
 11
326.2987829883986
 21
168.3128433578986
 31
0.0
  0
LINE
  5
5EF0B1A6
330
5EF092C1
100
AcDbEntity
  8
JISSEN
100
AcDbLine
 10
324.5310160354311
 20
168.6663967484923
 30
0.0
 11
325.591676207212
 21
167.6057365767123
 31
0.0
  0
LINE
  5
5EF0B1A7
330
5EF092C1
100
AcDbEntity
  8
JISSEN
100
AcDbLine
 10
328.7736567225528
 20
169.3735035296794
 30
0.0
 11
327.7129965507719
 21
168.3128433578986
 31
0.0
  0
LINE
  5
5EF0B1A8
330
5EF092C1
100
AcDbEntity
  8
JISSEN
100
AcDbLine
 10
329.4807635037386
 20
168.6663967484923
 30
0.0
 11
328.4201033319577
 21
167.6057365767119
 31
0.0
  0
LINE
  5
5EF0B1A9
330
5EF092C1
100
AcDbEntity
  8
JISSEN
100
AcDbLine
 10
328.7736567225528
 20
169.3735035296788
 30
0.0
 11
329.4807635037386
 21
168.6663967484923
 31
0.0
  0
LINE
  5
5EF0B1AA
330
5EF092C1
100
AcDbEntity
  8
JISSEN
100
AcDbLine
 10
324.7632490824617
 20
164.8986297955313
 30
0.0
 11
324.5310160354329
 21
165.1308628425598
 31
0.0
  0
TEXT
  5
5EF0B25A
330
5EF092C1
100
AcDbEntity
  8
SUNPOU
100
AcDbText
 10
117.6392231029183
 20
165.5319631288618
 30
0.0
 40
4.0
  1
開
  7
K
 72
     4
 11
119.505889769585
 21
167.3986297955285
 31
0.0
100
AcDbText
  0
CIRCLE
  5
5EF0B25B
330
5EF092C1
100
AcDbEntity
  8
SUNPOU
100
AcDbCircle
 10
119.505889769585
 20
167.3986297955285
 30
0.0
 40
2.5
  0
ARC
  5
5EF0B25C
330
5EF092C1
100
AcDbEntity
  8
JISSEN
100
AcDbCircle
 10
111.0058897695867
 20
152.8986297955284
 30
0.0
 40
20.0
100
AcDbArc
 50
9.869056154713435
 51
14.47751218593749
  0
LINE
  5
5EF0B25D
330
5EF092C1
100
AcDbEntity
  8
JISSEN
 48
0.5
100
AcDbLine
 10
129.3764802470352
 20
155.4979292146837
 30
0.0
 11
130.3467390053163
 21
155.7579092654143
 31
0.0
  0
ARC
  5
5EF0B25E
330
5EF092C1
100
AcDbEntity
  8
JISSEN
 48
0.5
100
AcDbCircle
 39
960.208308198174
 10
129.5058897695864
 20
155.0149663015393
 30
0.0
 40
0.5
100
AcDbArc
 50
105.0000000000019
 51
128.4027637876753
  0
ARC
  5
5EF0B25F
330
5EF092C1
100
AcDbEntity
  8
JISSEN
100
AcDbCircle
 10
130.2173294827649
 20
156.2408721785589
 30
0.0
 40
0.5
100
AcDbArc
 50
285.0000000000006
 51
9.869056154712016
  0
ARC
  5
5EF0B260
330
5EF092C1
100
AcDbEntity
  8
JISSEN
100
AcDbCircle
 10
111.0058897695872
 20
152.8986297955284
 30
0.0
 40
20.0
100
AcDbArc
 50
36.86989764585332
 51
90.0
  0
LINE
  5
5EF0B261
330
5EF092C1
100
AcDbEntity
  8
JISSEN
 48
0.5
100
AcDbLine
 39
960.208308198174
 10
111.0058897695876
 20
172.8986297955318
 30
0.0
 11
109.0058897695876
 21
172.8986297955318
 31
0.0
  0
ARC
  5
5EF0B262
330
5EF092C1
100
AcDbEntity
  8
JISSEN
 48
0.5
100
AcDbCircle
 10
108.0058897695876
 20
175.3986297955318
 30
0.0
 40
0.5
100
AcDbArc
 50
0.000000000000007
 51
89.99999999999905
  0
ARC
  5
5EF0B263
330
5EF092C1
100
AcDbEntity
  8
JISSEN
 48
0.5
100
AcDbCircle
 39
960.208308198174
 10
109.0058897695876
 20
173.3986297955318
 30
0.0
 40
0.5
100
AcDbArc
 50
180.0
 51
270.0
  0
LINE
  5
5EF0B264
330
5EF092C1
100
AcDbEntity
  8
JISSEN
 48
0.5
100
AcDbLine
 10
108.5058897695875
 20
175.3986297955318
 30
0.0
 11
108.5058897695875
 21
173.3986297955318
 31
0.0
  0
ARC
  5
5EF0B265
330
5EF092C1
100
AcDbEntity
  8
JISSEN
100
AcDbCircle
 10
307.7944500564094
 20
156.2408721785589
 30
0.0
 40
0.5
100
AcDbArc
 50
170.1309438452879
 51
254.9999999999993
  0
ARC
  5
5EF0B266
330
5EF092C1
100
AcDbEntity
  8
JISSEN
 48
0.5
100
AcDbCircle
 39
960.208308198174
 10
308.5058897695878
 20
155.0149663015393
 30
0.0
 40
0.5
100
AcDbArc
 50
34.56403804566532
 51
74.99999999999807
  0
LINE
  5
5EF0B267
330
5EF092C1
100
AcDbEntity
  8
JISSEN
 48
0.5
100
AcDbLine
 10
308.635299292139
 20
155.4979292146837
 30
0.0
 11
307.6650405338582
 21
155.7579092654143
 31
0.0
  0
ARC
  5
5EF0B268
330
5EF092C1
100
AcDbEntity
  8
JISSEN
100
AcDbCircle
 10
327.0058897695875
 20
152.8986297955284
 30
0.0
 40
20.0
100
AcDbArc
 50
165.5224878140623
 51
170.1309438452865
  0
ARC
  5
5EF0B269
330
5EF092C1
100
AcDbEntity
  8
JISSEN
100
AcDbCircle
 10
327.0058897695875
 20
152.8986297955284
 30
0.0
 40
20.0
100
AcDbArc
 50
90.0
 51
143.1301023541466
  0
LINE
  5
5EF0B26A
330
5EF092C1
100
AcDbEntity
  8
JISSEN
 48
0.5
100
AcDbLine
 39
960.208308198174
 10
330.0058897695871
 20
175.8986297955318
 30
0.0
 11
334.5058897695867
 21
175.8986297955319
 31
0.0
  0
LINE
  5
5EF0B26B
330
5EF092C1
100
AcDbEntity
  8
JISSEN
 48
0.5
100
AcDbLine
 10
329.5058897695871
 20
175.3986297955318
 30
0.0
 11
329.5058897695871
 21
173.3986297955318
 31
0.0
  0
LINE
  5
5EF0B26C
330
5EF092C1
100
AcDbEntity
  8
JISSEN
 48
0.5
100
AcDbLine
 39
960.208308198174
 10
327.0058897695871
 20
172.8986297955318
 30
0.0
 11
329.0058897695871
 21
172.8986297955318
 31
0.0
  0
ARC
  5
5EF0B26D
330
5EF092C1
100
AcDbEntity
  8
JISSEN
 48
0.5
100
AcDbCircle
 39
960.208308198174
 10
329.0058897695871
 20
173.3986297955318
 30
0.0
 40
0.5
100
AcDbArc
 50
270.0
 51
0.000000000000007
  0
ARC
  5
5EF0B26E
330
5EF092C1
100
AcDbEntity
  8
JISSEN
 48
0.5
100
AcDbCircle
 10
330.0058897695871
 20
175.3986297955318
 30
0.0
 40
0.5
100
AcDbArc
 50
90.00000000000095
 51
180.0
  0
TEXT
  5
5EF0B26F
330
5EF092C1
100
AcDbEntity
  8
SUNPOU
100
AcDbText
 10
316.6392231029209
 20
165.5319631288618
 30
0.0
 40
4.0
  1
開
  7
K
 72
     4
 11
318.5058897695876
 21
167.3986297955285
 31
0.0
100
AcDbText
  0
CIRCLE
  5
5EF0B270
330
5EF092C1
100
AcDbEntity
  8
SUNPOU
100
AcDbCircle
 10
318.5058897695876
 20
167.3986297955285
 30
0.0
 40
2.5
  0
CIRCLE
  5
5EF0B271
330
5EF092C1
100
AcDbEntity
  8
SUNPOU
100
AcDbCircle
 10
120.4699913847242
 20
162.3986297955273
 30
0.0
 40
1.5
  0
TEXT
  5
5EF0B272
330
5EF092C1
100
AcDbEntity
  8
SUNPOU
100
AcDbText
 10
121.4699913847241
 20
161.4462488431463
 30
0.0
 40
2.0
  1
L
 50
89.99999999999957
  7
K
 72
     4
 11
120.4699913847242
 21
162.3986297955273
 31
0.0
100
AcDbText
  0
LINE
  5
5EF0B273
330
5EF092C1
100
AcDbEntity
  8
SUNPOU
100
AcDbLine
 10
136.9699913847257
 20
161.6505597955274
 30
0.0
 11
136.4352569109684
 21
161.6505597955274
 31
0.0
  0
LINE
  5
5EF0B274
330
5EF092C1
100
AcDbEntity
  8
SUNPOU
100
AcDbLine
 10
137.9699913847256
 20
161.6505597955274
 30
0.0
 11
138.5047258584829
 21
161.6505597955274
 31
0.0
  0
LINE
  5
5EF0B275
330
5EF092C1
100
AcDbEntity
  8
SUNPOU
100
AcDbLine
 10
137.9699913847256
 20
161.6505597955274
 30
0.0
 11
137.9699913847254
 21
158.6486297955274
 31
0.0
  0
LINE
  5
5EF0B276
330
5EF092C1
100
AcDbEntity
  8
SUNPOU
100
AcDbLine
 10
136.9699913847254
 20
158.6486297955274
 30
0.0
 11
136.9699913847256
 21
161.6505597955274
 31
0.0
  0
LINE
  5
5EF0B277
330
5EF092C1
100
AcDbEntity
  8
SUNPOU
100
AcDbLine
 10
137.9699913847254
 20
158.6486297955274
 30
0.0
 11
136.9699913847254
 21
158.6486297955274
 31
0.0
  0
LINE
  5
5EF0B278
330
5EF092C1
100
AcDbEntity
  8
SUNPOU
100
AcDbLine
 10
137.4699913847257
 20
164.1486297955274
 30
0.0
 11
136.4352569109684
 21
161.6505597955274
 31
0.0
  0
LINE
  5
5EF0B279
330
5EF092C1
100
AcDbEntity
  8
SUNPOU
100
AcDbLine
 10
137.4699913847257
 20
164.1486297955274
 30
0.0
 11
138.5047258584829
 21
161.6505597955274
 31
0.0
  0
TEXT
  5
5EF0B27A
330
5EF092C1
100
AcDbEntity
  8
SUNPOU
100
AcDbText
 10
130.4699913847257
 20
163.3033917002892
 30
0.0
 40
4.0
  1
S
 50
270.0
  7
K
 72
     4
 11
132.4699913847257
 21
161.3986297955273
 31
0.0
100
AcDbText
  0
TEXT
  5
5EF0B27B
330
5EF092C1
100
AcDbEntity
  8
SUNPOU
100
AcDbText
 10
127.4699913847241
 20
155.8986297955284
 30
0.0
 40
4.0
  1
解除
 50
90.0
 41
0.8789062499998701
  7
K
 72
     5
 11
127.4699913847241
 21
163.3986297955273
 31
0.0
100
AcDbText
  0
LINE
  5
5EF0B27C
330
5EF092C1
100
AcDbEntity
  8
SUNPOU
100
AcDbLine
 10
125.0058897695864
 20
154.8986297955284
 30
0.0
 11
125.0058897695864
 21
153.8986297955284
 31
0.0
  0
LINE
  5
5EF0B27D
330
5EF092C1
100
AcDbEntity
  8
SUNPOU
100
AcDbLine
 10
128.4699913847241
 20
152.8986297955284
 30
0.0
 11
125.0058897695864
 21
154.8986297955284
 31
0.0
  0
LINE
  5
5EF0B27E
330
5EF092C1
100
AcDbEntity
  8
SUNPOU
100
AcDbLine
 10
125.0058897695864
 20
153.8986297955284
 30
0.0
 11
123.469991384724
 21
153.8986297955284
 31
0.0
  0
LINE
  5
5EF0B27F
330
5EF092C1
100
AcDbEntity
  8
SUNPOU
100
AcDbLine
 10
125.0058897695864
 20
151.8986297955284
 30
0.0
 11
125.0058897695864
 21
150.8986297955284
 31
0.0
  0
LINE
  5
5EF0B280
330
5EF092C1
100
AcDbEntity
  8
SUNPOU
100
AcDbLine
 10
125.0058897695864
 20
150.8986297955284
 30
0.0
 11
128.4699913847241
 21
152.8986297955284
 31
0.0
  0
LINE
  5
5EF0B281
330
5EF092C1
100
AcDbEntity
  8
SUNPOU
100
AcDbLine
 10
123.469991384724
 20
151.8986297955284
 30
0.0
 11
125.0058897695864
 21
151.8986297955284
 31
0.0
  0
LINE
  5
5EF0B282
330
5EF092C1
100
AcDbEntity
  8
SUNPOU
100
AcDbLine
 10
123.469991384724
 20
153.8986297955284
 30
0.0
 11
123.469991384724
 21
151.8986297955284
 31
0.0
  0
TEXT
  5
5EF0B283
330
5EF092C1
100
AcDbEntity
  8
SUNPOU
100
AcDbText
 10
127.4699913847241
 20
142.39862979553
 30
0.0
 40
4.0
  1
ﾛｯｸ
 50
90.0
 41
1.339285714285429
  7
K
 72
     5
 11
127.4699913847241
 21
149.8986297955284
 31
0.0
100
AcDbText
  0
TEXT
  5
5EF0B284
330
5EF092C1
100
AcDbEntity
  8
SUNPOU
100
AcDbText
 10
130.4699913847257
 20
146.4938678907679
 30
0.0
 40
4.0
  1
O
 50
270.0
  7
K
 72
     4
 11
132.4699913847257
 21
144.3986297955298
 31
0.0
100
AcDbText
  0
LINE
  5
5EF0B285
330
5EF092C1
100
AcDbEntity
  8
SUNPOU
100
AcDbLine
 10
137.4699913847257
 20
141.6486297955299
 30
0.0
 11
138.5047258584829
 21
144.1466997955299
 31
0.0
  0
LINE
  5
5EF0B286
330
5EF092C1
100
AcDbEntity
  8
SUNPOU
100
AcDbLine
 10
137.4699913847257
 20
141.6486297955299
 30
0.0
 11
136.4352569109684
 21
144.1466997955299
 31
0.0
  0
LINE
  5
5EF0B287
330
5EF092C1
100
AcDbEntity
  8
SUNPOU
100
AcDbLine
 10
137.9699913847254
 20
147.1486297955298
 30
0.0
 11
136.9699913847254
 21
147.1486297955298
 31
0.0
  0
LINE
  5
5EF0B288
330
5EF092C1
100
AcDbEntity
  8
SUNPOU
100
AcDbLine
 10
136.9699913847254
 20
147.1486297955298
 30
0.0
 11
136.9699913847256
 21
144.1466997955299
 31
0.0
  0
LINE
  5
5EF0B289
330
5EF092C1
100
AcDbEntity
  8
SUNPOU
100
AcDbLine
 10
137.9699913847256
 20
144.1466997955299
 30
0.0
 11
137.9699913847254
 21
147.1486297955298
 31
0.0
  0
LINE
  5
5EF0B28A
330
5EF092C1
100
AcDbEntity
  8
SUNPOU
100
AcDbLine
 10
137.9699913847256
 20
144.1466997955299
 30
0.0
 11
138.5047258584829
 21
144.1466997955299
 31
0.0
  0
LINE
  5
5EF0B28B
330
5EF092C1
100
AcDbEntity
  8
SUNPOU
100
AcDbLine
 10
136.9699913847257
 20
144.1466997955299
 30
0.0
 11
136.4352569109684
 21
144.1466997955299
 31
0.0
  0
LINE
  5
5EF0B28C
330
5EF092C1
100
AcDbEntity
  8
SUNPOU
100
AcDbLine
 10
301.0417881544431
 20
144.1466997955294
 30
0.0
 11
301.5765226282005
 21
144.1466997955294
 31
0.0
  0
LINE
  5
5EF0B28D
330
5EF092C1
100
AcDbEntity
  8
SUNPOU
100
AcDbLine
 10
300.0417881544431
 20
144.1466997955294
 30
0.0
 11
299.5070536806855
 21
144.1466997955294
 31
0.0
  0
LINE
  5
5EF0B28E
330
5EF092C1
100
AcDbEntity
  8
SUNPOU
100
AcDbLine
 10
300.0417881544431
 20
144.1466997955294
 30
0.0
 11
300.0417881544433
 21
147.1486297955294
 31
0.0
  0
LINE
  5
5EF0B28F
330
5EF092C1
100
AcDbEntity
  8
SUNPOU
100
AcDbLine
 10
301.0417881544433
 20
147.1486297955294
 30
0.0
 11
301.0417881544431
 21
144.1466997955294
 31
0.0
  0
LINE
  5
5EF0B290
330
5EF092C1
100
AcDbEntity
  8
SUNPOU
100
AcDbLine
 10
300.0417881544433
 20
147.1486297955294
 30
0.0
 11
301.0417881544433
 21
147.1486297955294
 31
0.0
  0
LINE
  5
5EF0B291
330
5EF092C1
100
AcDbEntity
  8
SUNPOU
100
AcDbLine
 10
300.5417881544431
 20
141.6486297955295
 30
0.0
 11
301.5765226282005
 21
144.1466997955294
 31
0.0
  0
LINE
  5
5EF0B292
330
5EF092C1
100
AcDbEntity
  8
SUNPOU
100
AcDbLine
 10
300.5417881544431
 20
141.6486297955295
 30
0.0
 11
299.5070536806855
 21
144.1466997955294
 31
0.0
  0
TEXT
  5
5EF0B293
330
5EF092C1
100
AcDbEntity
  8
SUNPOU
100
AcDbText
 10
307.5417881544431
 20
142.3033917002916
 30
0.0
 40
4.0
  1
O
 50
90.0
  7
K
 72
     4
 11
305.5417881544431
 21
144.3986297955297
 31
0.0
100
AcDbText
  0
TEXT
  5
5EF0B294
330
5EF092C1
100
AcDbEntity
  8
SUNPOU
100
AcDbText
 10
310.5417881544447
 20
149.8986297955284
 30
0.0
 40
4.0
  1
解除
 50
270.0
 41
0.8789062499998369
  7
K
 72
     5
 11
310.5417881544447
 21
142.3986297955298
 31
0.0
100
AcDbText
  0
LINE
  5
5EF0B295
330
5EF092C1
100
AcDbEntity
  8
SUNPOU
100
AcDbLine
 10
313.0058897695823
 20
150.8986297955284
 30
0.0
 11
313.0058897695823
 21
151.8986297955285
 31
0.0
  0
LINE
  5
5EF0B296
330
5EF092C1
100
AcDbEntity
  8
SUNPOU
100
AcDbLine
 10
313.0058897695823
 20
151.8986297955285
 30
0.0
 11
314.5417881544446
 21
151.8986297955285
 31
0.0
  0
LINE
  5
5EF0B297
330
5EF092C1
100
AcDbEntity
  8
SUNPOU
100
AcDbLine
 10
309.5417881544447
 20
152.8986297955284
 30
0.0
 11
313.0058897695823
 21
150.8986297955284
 31
0.0
  0
LINE
  5
5EF0B298
330
5EF092C1
100
AcDbEntity
  8
SUNPOU
100
AcDbLine
 10
313.0058897695823
 20
153.8986297955284
 30
0.0
 11
313.0058897695823
 21
154.8986297955284
 31
0.0
  0
LINE
  5
5EF0B299
330
5EF092C1
100
AcDbEntity
  8
SUNPOU
100
AcDbLine
 10
313.0058897695823
 20
154.8986297955284
 30
0.0
 11
309.5417881544447
 21
152.8986297955284
 31
0.0
  0
LINE
  5
5EF0B29A
330
5EF092C1
100
AcDbEntity
  8
SUNPOU
100
AcDbLine
 10
314.5417881544446
 20
153.8986297955285
 30
0.0
 11
313.0058897695823
 21
153.8986297955284
 31
0.0
  0
LINE
  5
5EF0B29B
330
5EF092C1
100
AcDbEntity
  8
SUNPOU
100
AcDbLine
 10
314.5417881544446
 20
151.8986297955285
 30
0.0
 11
314.5417881544446
 21
153.8986297955285
 31
0.0
  0
TEXT
  5
5EF0B29C
330
5EF092C1
100
AcDbEntity
  8
SUNPOU
100
AcDbText
 10
310.5417881544447
 20
163.3986297955269
 30
0.0
 40
4.0
  1
ﾛｯｸ
 50
270.0
 41
1.339285714285445
  7
K
 72
     5
 11
310.5417881544447
 21
155.8986297955284
 31
0.0
100
AcDbText
  0
TEXT
  5
5EF0B29D
330
5EF092C1
100
AcDbEntity
  8
SUNPOU
100
AcDbText
 10
307.5417881544431
 20
159.4938678907654
 30
0.0
 40
4.0
  1
S
 50
90.0
  7
K
 72
     4
 11
305.5417881544431
 21
161.3986297955273
 31
0.0
100
AcDbText
  0
LINE
  5
5EF0B29E
330
5EF092C1
100
AcDbEntity
  8
SUNPOU
100
AcDbLine
 10
300.5417881544431
 20
164.1486297955273
 30
0.0
 11
299.5070536806855
 21
161.6505597955271
 31
0.0
  0
LINE
  5
5EF0B29F
330
5EF092C1
100
AcDbEntity
  8
SUNPOU
100
AcDbLine
 10
300.5417881544431
 20
164.1486297955273
 30
0.0
 11
301.5765226282005
 21
161.6505597955271
 31
0.0
  0
LINE
  5
5EF0B2A0
330
5EF092C1
100
AcDbEntity
  8
SUNPOU
100
AcDbLine
 10
300.0417881544433
 20
158.6486297955272
 30
0.0
 11
301.0417881544433
 21
158.6486297955273
 31
0.0
  0
LINE
  5
5EF0B2A1
330
5EF092C1
100
AcDbEntity
  8
SUNPOU
100
AcDbLine
 10
301.0417881544433
 20
158.6486297955273
 30
0.0
 11
301.0417881544431
 21
161.6505597955271
 31
0.0
  0
LINE
  5
5EF0B2A2
330
5EF092C1
100
AcDbEntity
  8
SUNPOU
100
AcDbLine
 10
300.0417881544431
 20
161.6505597955271
 30
0.0
 11
300.0417881544433
 21
158.6486297955273
 31
0.0
  0
LINE
  5
5EF0B2A3
330
5EF092C1
100
AcDbEntity
  8
SUNPOU
100
AcDbLine
 10
300.0417881544431
 20
161.6505597955271
 30
0.0
 11
299.5070536806855
 21
161.6505597955271
 31
0.0
  0
LINE
  5
5EF0B2A4
330
5EF092C1
100
AcDbEntity
  8
SUNPOU
100
AcDbLine
 10
301.0417881544431
 20
161.6505597955271
 30
0.0
 11
301.5765226282005
 21
161.6505597955271
 31
0.0
  0
TEXT
  5
5EF0B2A5
330
5EF092C1
100
AcDbEntity
  8
SUNPOU
100
AcDbText
 10
316.5417881544442
 20
163.4462488431459
 30
0.0
 40
2.0
  1
R
 50
270.0000000000005
  7
K
 72
     4
 11
317.5417881544443
 21
162.3986297955269
 31
0.0
100
AcDbText
  0
CIRCLE
  5
5EF0B2A6
330
5EF092C1
100
AcDbEntity
  8
SUNPOU
100
AcDbCircle
 10
317.5417881544443
 20
162.3986297955269
 30
0.0
 40
1.5
  0
CIRCLE
  5
5EF0B2AF
330
5EF092C1
100
AcDbEntity
  8
SCALE
100
AcDbCircle
 10
111.0058897695862
 20
152.8986297955284
 30
0.0
 40
11.0
  0
CIRCLE
  5
5EF0B2B0
330
5EF092C1
100
AcDbEntity
  8
SCALE
100
AcDbCircle
 10
327.0058897695875
 20
152.8986297955284
 30
0.0
 40
11.0
  0
LINE
  5
5EF0B350
330
5EF092C1
100
AcDbEntity
  8
SUNPOU
100
AcDbLine
 10
117.0058897695871
 20
132.89862979553
 30
0.0
 11
117.0058897695871
 21
138.89862979553
 31
0.0
  0
LINE
  5
5EF0B351
330
5EF092C1
100
AcDbEntity
  8
SUNPOU
100
AcDbLine
 10
117.0058897695871
 20
138.89862979553
 30
0.0
 11
131.005889769587
 21
138.89862979553
 31
0.0
  0
LINE
  5
5EF0B352
330
5EF092C1
100
AcDbEntity
  8
SUNPOU
100
AcDbLine
 10
131.005889769587
 20
132.8986297955301
 30
0.0
 11
117.0058897695871
 21
132.89862979553
 31
0.0
  0
TEXT
  5
5EF0B353
330
5EF092C1
100
AcDbEntity
  8
SUNPOU
100
AcDbText
 10
117.4725564362538
 20
133.3986297955298
 30
0.0
 40
5.0
  1
常時開
 50
0.0000000000008793
 41
0.8
  7
K
 72
     4
 11
124.0058897695871
 21
135.89862979553
 31
0.0
100
AcDbText
  0
LINE
  5
5EF0B354
330
5EF092C1
100
AcDbEntity
  8
SUNPOU
100
AcDbLine
 10
131.005889769587
 20
138.89862979553
 30
0.0
 11
131.005889769587
 21
132.8986297955301
 31
0.0
  0
TEXT
  5
5EF0B355
330
5EF092C1
100
AcDbEntity
  8
SUNPOU
100
AcDbText
 10
307.4725564362546
 20
133.3986297955316
 30
0.0
 40
5.0
  1
常時開
 41
0.8
  7
K
 72
     4
 11
314.005889769588
 21
135.8986297955316
 31
0.0
100
AcDbText
  0
LINE
  5
5EF0B356
330
5EF092C1
100
AcDbEntity
  8
SUNPOU
100
AcDbLine
 10
321.005889769588
 20
138.8986297955316
 30
0.0
 11
307.005889769588
 21
138.8986297955316
 31
0.0
  0
LINE
  5
5EF0B357
330
5EF092C1
100
AcDbEntity
  8
SUNPOU
100
AcDbLine
 10
321.005889769588
 20
132.8986297955313
 30
0.0
 11
321.005889769588
 21
138.8986297955316
 31
0.0
  0
LINE
  5
5EF0B358
330
5EF092C1
100
AcDbEntity
  8
SUNPOU
100
AcDbLine
 10
307.005889769588
 20
132.8986297955313
 30
0.0
 11
321.005889769588
 21
132.8986297955313
 31
0.0
  0
LINE
  5
5EF0B359
330
5EF092C1
100
AcDbEntity
  8
SUNPOU
100
AcDbLine
 10
307.005889769588
 20
138.8986297955316
 30
0.0
 11
307.005889769588
 21
132.8986297955313
 31
0.0
  0
LINE
  5
5EF0B35A
330
5EF092C1
100
AcDbEntity
  8
JISSEN
100
AcDbLine
 10
327.255889769588
 20
164.8986297955314
 30
0.0
 11
295.005889769588
 21
164.8986297955304
 31
0.0
  0
LINE
  5
5EF0B35B
330
5EF092C1
100
AcDbEntity
  8
JISSEN
100
AcDbLine
 10
327.2558897695887
 20
140.8986297955318
 30
0.0
 11
295.0058897695885
 21
140.8986297955309
 31
0.0
  0
LINE
  5
5EF0B35C
330
5EF092C1
100
AcDbEntity
  8
JISSEN
100
AcDbLine
 10
111.0058897695853
 20
129.8986297955273
 30
0.0
 11
129.005889769586
 21
129.8986297955279
 31
0.0
  0
LINE
  5
5EF0B35D
330
5EF092C1
100
AcDbEntity
  8
JISSEN
100
AcDbLine
 10
134.0058897695855
 20
140.8986297955285
 30
0.0
 11
134.0058897695856
 21
134.8986297955282
 31
0.0
  0
ARC
  5
5EF0B35E
330
5EF092C1
100
AcDbEntity
  8
JISSEN
100
AcDbCircle
 10
129.0058897695858
 20
134.898629795528
 30
0.0
 40
5.0
100
AcDbArc
 50
270.0000000000021
 51
0.0000000000023157
  0
ARC
  5
5EF0B35F
330
5EF092C1
100
AcDbEntity
  8
JISSEN
100
AcDbCircle
 10
309.0058897695878
 20
134.8986297955313
 30
0.0
 40
5.0
100
AcDbArc
 50
180.0
 51
270.0
  0
LINE
  5
5EF0B360
330
5EF092C1
100
AcDbEntity
  8
JISSEN
100
AcDbLine
 10
304.0058897695878
 20
140.898629795531
 30
0.0
 11
304.0058897695878
 21
134.8986297955313
 31
0.0
  0
LINE
  5
5EF0B361
330
5EF092C1
100
AcDbEntity
  8
JISSEN
100
AcDbLine
 10
327.0058897695883
 20
129.8986297955316
 30
0.0
 11
309.0058897695878
 21
129.8986297955316
 31
0.0
  0
ARC
  5
5EF0B3F7
330
5EF092C1
100
AcDbEntity
  8
JISSEN
100
AcDbCircle
 10
628.5380151116028
 20
148.8986297955285
 30
0.0
 40
3.0
100
AcDbArc
 50
0.0000000001077317
 51
89.99999999999991
  0
ARC
  5
5EF0B3F8
330
5EF092C1
100
AcDbEntity
  8
JISSEN
100
AcDbCircle
 10
628.5380151115876
 20
156.8986297955284
 30
0.0
 40
3.0
100
AcDbArc
 50
270.0
 51
0.0000000001077317
  0
LINE
  5
5EF0B3F9
330
5EF092C1
100
AcDbEntity
  8
JISSEN
100
AcDbLine
 10
599.0919530155861
 20
153.8986297955284
 30
0.0
 11
628.5380151115876
 21
153.8986297955284
 31
0.0
  0
LINE
  5
5EF0B3FA
330
5EF092C1
100
AcDbEntity
  8
JISSEN
100
AcDbLine
 10
599.0919530155861
 20
151.8986297955285
 30
0.0
 11
628.5380151116028
 21
151.8986297955284
 31
0.0
  0
ARC
  5
5EF0B3FB
330
5EF092C1
100
AcDbEntity
  8
JISSEN
100
AcDbCircle
 10
599.0919530155861
 20
152.8986297955284
 30
0.0
 40
33.0
100
AcDbArc
 50
269.9999999999996
 51
344.9999999999998
  0
ARC
  5
5EF0B3FC
330
5EF092C1
100
AcDbEntity
  8
JISSEN
 48
0.5
100
AcDbCircle
 10
597.5956335200571
 20
277.9486297955276
 30
0.0
 40
130.0
100
AcDbArc
 50
270.6594975772353
 51
281.760305412575
  0
ARC
  5
5EF0B3FD
330
5EF092C1
100
AcDbEntity
  8
JISSEN
 48
0.5
100
AcDbCircle
 10
597.5956335200582
 20
27.94862979552771
 30
0.0
 40
130.0
100
AcDbArc
 50
78.23969458742538
 51
89.34050242276489
  0
ARC
  5
5EF0B3FE
330
5EF092C1
100
AcDbEntity
  8
JISSEN
100
AcDbCircle
 10
628.5743472838062
 20
159.9486297955275
 30
0.0
 40
3.0
100
AcDbArc
 50
42.3390666024816
 51
90.00000000000026
  0
LINE
  5
5EF0B3FF
330
5EF092C1
100
AcDbEntity
  8
JISSEN
 48
0.5
100
AcDbLine
 10
622.5085321962072
 20
142.9486297955279
 30
0.0
 11
628.5743472838062
 21
142.9486297955279
 31
0.0
  0
ARC
  5
5EF0B400
330
5EF092C1
100
AcDbEntity
  8
JISSEN
100
AcDbCircle
 10
628.5743472838062
 20
145.9486297955279
 30
0.0
 40
3.0
100
AcDbArc
 50
270.0000000000009
 51
317.6609334089046
  0
LINE
  5
5EF0B402
330
5EF092C1
100
AcDbEntity
  8
JISSEN
100
AcDbLine
 10
601.6414369863269
 20
149.4542675591875
 30
0.0
 11
601.6414369863269
 21
148.0116009149489
 31
0.0
  0
LINE
  5
5EF0B403
330
5EF092C1
100
AcDbEntity
  8
JISSEN
100
AcDbLine
 10
597.0919530155859
 20
156.4486297938093
 30
0.0
 11
601.0919530155859
 21
156.4486297938093
 31
0.0
  0
LINE
  5
5EF0B404
330
5EF092C1
100
AcDbEntity
  8
JISSEN
 48
0.5
100
AcDbLine
 10
622.5085321962072
 20
162.9486297955274
 30
0.0
 11
628.5743472838062
 21
162.9486297955274
 31
0.0
  0
LINE
  5
5EF0B40A
330
5EF092C1
100
AcDbEntity
  8
ASSIST
100
AcDbLine
 10
618.1784051772847
 20
145.4486297955279
 30
0.0
 11
617.6480265178062
 21
146.3672725809954
 31
0.0
  0
LINE
  5
5EF0B40B
330
5EF092C1
100
AcDbEntity
  8
ASSIST
100
AcDbLine
 10
617.6480265178061
 20
159.52998701006
 30
0.0
 11
618.1784051772847
 21
160.4486297955275
 31
0.0
  0
ARC
  5
5EF0B410
330
5EF092C1
100
AcDbEntity
  8
JISSEN
 48
0.5
100
AcDbCircle
 10
622.5085321962072
 20
157.9486297955277
 30
0.0
 40
5.0
100
AcDbArc
 50
90.0000000000003
 51
150.0
  0
ARC
  5
5EF0B411
330
5EF092C1
100
AcDbEntity
  8
JISSEN
 48
0.5
100
AcDbCircle
 10
622.5085321962072
 20
147.9486297955283
 30
0.0
 40
5.0
100
AcDbArc
 50
209.9999999999999
 51
269.9999999999998
  0
LINE
  5
5EF0B413
330
5EF092C1
100
AcDbEntity
  8
JISSEN
100
AcDbLine
 10
601.0919530155859
 20
156.4486297938093
 30
0.0
 11
602.4994307568865
 21
157.85610753511
 31
0.0
  0
ARC
  5
5EF0B416
330
5EF092C1
100
AcDbEntity
  8
JISSEN
 48
0.5
100
AcDbCircle
 10
613.3178994988838
 20
162.0299870100601
 30
0.0
 40
5.0
100
AcDbArc
 50
263.3120862956864
 51
330.0000000000001
  0
ARC
  5
5EF0B417
330
5EF092C1
100
AcDbEntity
  8
JISSEN
 48
0.5
100
AcDbCircle
 10
613.3178994988841
 20
143.8672725809954
 30
0.0
 40
5.0
100
AcDbArc
 50
30.00000000000013
 51
96.68791370431463
  0
ARC
  5
5EF0B41D
330
5EF092C1
100
AcDbEntity
  8
JISSEN
100
AcDbCircle
 10
597.5956335200582
 20
152.9486297950094
 30
0.0
 40
34.39999999999999
100
AcDbArc
 50
344.7978559096013
 51
350.6439447619358
  0
LINE
  5
5EF0B41E
330
5EF092C1
100
AcDbEntity
  8
JISSEN
100
AcDbLine
 10
631.5380151115844
 20
158.5410113892164
 30
0.0
 11
631.5380151116055
 21
147.35624820093
 31
0.0
  0
ARC
  5
5EF0B41F
330
5EF092C1
100
AcDbEntity
  8
JISSEN
100
AcDbCircle
 10
597.5956335200582
 20
152.9486297950094
 30
0.0
 40
34.39999999999999
100
AcDbArc
 50
9.356055238279532
 51
15.20214409294924
  0
ARC
  5
5EF0B420
330
5EF092C1
100
AcDbEntity
  8
JISSEN
100
AcDbCircle
 10
327.0058897695861
 20
375.8028848777021
 30
0.0
 40
32.99999999999954
100
AcDbArc
 50
68.67631373650175
 51
111.3236862634982
  0
ARC
  5
5EF0B421
330
5EF092C1
100
AcDbEntity
  8
JISSEN
100
AcDbCircle
 10
327.0058897695861
 20
507.8028848777004
 30
0.0
 40
32.99999999999954
100
AcDbArc
 50
248.6763137365017
 51
291.3236862634981
  0
LINE
  5
5EF0B433
330
5EF092C1
100
AcDbEntity
  8
JISSEN
100
AcDbLine
 10
245.0058897695873
 20
173.8986297955284
 30
0.0
 11
193.0058897695873
 21
173.8986297955284
 31
0.0
  0
LINE
  5
5EF0B434
330
5EF092C1
100
AcDbEntity
  8
JISSEN
100
AcDbLine
 10
245.0058897695873
 20
131.8986297955285
 30
0.0
 11
245.0058897695873
 21
173.8986297955284
 31
0.0
  0
LINE
  5
5EF0B435
330
5EF092C1
100
AcDbEntity
  8
JISSEN
100
AcDbLine
 10
193.0058897695873
 20
131.8986297955285
 30
0.0
 11
245.0058897695873
 21
131.8986297955285
 31
0.0
  0
LINE
  5
5EF0B436
330
5EF092C1
100
AcDbEntity
  8
JISSEN
100
AcDbLine
 10
193.0058897695873
 20
173.8986297955284
 30
0.0
 11
193.0058897695873
 21
131.8986297955285
 31
0.0
  0
LINE
  5
5EF0B48C
330
5EF092C1
100
AcDbEntity
  8
JISSEN
100
AcDbLine
 10
594.0919530155861
 20
305.3986297955248
 30
0.0
 11
592.8419530155878
 21
303.2335662860663
 31
0.0
  0
LINE
  5
5EF0B48D
330
5EF092C1
100
AcDbEntity
  8
JISSEN
100
AcDbLine
 10
604.0919530155861
 20
305.3986297955248
 30
0.0
 11
605.3419530155878
 21
303.2335662860619
 31
0.0
  0
LINE
  5
5EF0B48E
330
5EF092C1
100
AcDbEntity
  8
JISSEN
100
AcDbLine
 10
594.0919530155861
 20
316.8986297955248
 30
0.0
 11
604.0919530155861
 21
316.8986297955248
 31
0.0
  0
LINE
  5
5EF0B48F
330
5EF092C1
100
AcDbEntity
  8
JISSEN
100
AcDbLine
 10
604.0919530155861
 20
316.8986297955248
 30
0.0
 11
603.5919530155861
 21
317.3986297955248
 31
0.0
  0
LINE
  5
5EF0B490
330
5EF092C1
100
AcDbEntity
  8
JISSEN
100
AcDbLine
 10
594.0919530155861
 20
316.8986297955248
 30
0.0
 11
594.5919530155861
 21
317.3986297955248
 31
0.0
  0
LINE
  5
5EF0B491
330
5EF092C1
100
AcDbEntity
  8
JISSEN
100
AcDbLine
 10
594.0919530155861
 20
305.3986297955248
 30
0.0
 11
604.0919530155861
 21
305.3986297955248
 31
0.0
  0
LINE
  5
5EF0B492
330
5EF092C1
100
AcDbEntity
  8
JISSEN
100
AcDbLine
 10
594.5919530155861
 20
317.3986297955248
 30
0.0
 11
603.5919530155861
 21
317.3986297955248
 31
0.0
  0
LINE
  5
5EF0B493
330
5EF092C1
100
AcDbEntity
  8
JISSEN
100
AcDbLine
 10
594.0919530155861
 20
305.3986297955248
 30
0.0
 11
594.0919530155861
 21
316.8986297955248
 31
0.0
  0
LINE
  5
5EF0B494
330
5EF092C1
100
AcDbEntity
  8
JISSEN
100
AcDbLine
 10
604.0919530155861
 20
316.898629795525
 30
0.0
 11
604.0919530155861
 21
305.3986297955248
 31
0.0
  0
ARC
  5
5EF0B4B2
330
5EF092C1
100
AcDbEntity
  8
JISSEN
100
AcDbCircle
 10
599.0919530155861
 20
152.8986297955284
 30
0.0
 40
33.0
100
AcDbArc
 50
15.0000000000001
 51
90.0000000000004
  0
ARC
  5
5EF0B4B4
330
5EF092C1
100
AcDbEntity
  8
JISSEN
100
AcDbCircle
 10
629.4002133520762
 20
162.3986297959801
 30
0.0
 40
3.0
100
AcDbArc
 50
52.05116599561844
 51
85.47818550682853
  0
LINE
  5
5EF0B4B5
330
5EF092C1
100
AcDbEntity
  8
SCALE
100
AcDbLine
 10
632.3408540601063
 20
144.8292753186134
 30
0.0
 11
632.3408540603248
 21
160.96798427231
 31
0.0
  0
ARC
  5
5EF0B4B6
330
5EF092C1
100
AcDbEntity
  8
SCALE
100
AcDbCircle
 10
605.9214995883287
 20
150.3986297959803
 30
0.0
 40
27.0
100
AcDbArc
 50
339.7035791392454
 51
348.0960064213553
  0
ARC
  5
5EF0B4B7
330
5EF092C1
100
AcDbEntity
  8
JISSEN
100
AcDbCircle
 10
629.4002133520762
 20
143.3986297959808
 30
0.0
 40
3.0
100
AcDbArc
 50
274.5218145004875
 51
307.9488340043831
  0
ARC
  5
5EF0B4B8
330
5EF092C1
100
AcDbEntity
  8
SCALE
100
AcDbCircle
 10
605.9214995883287
 20
155.39862979598
 30
0.0
 40
27.0
100
AcDbArc
 50
11.90399357709256
 51
20.29642086075508
  0
ARC
  5
5EF0B4C0
330
5EF092C1
100
AcDbEntity
  8
JISSEN
100
AcDbCircle
 10
599.0919530155861
 20
152.8986297955284
 30
0.0
 40
35.0
100
AcDbArc
 50
269.9999999999998
 51
90.0000000000004
  0
ARC
  5
5EF0B4C1
330
5EF092C1
100
AcDbEntity
  8
JISSEN
100
AcDbCircle
 10
599.0919530155861
 20
152.8986297955284
 30
0.0
 40
45.49999999999999
100
AcDbArc
 50
269.9999999999998
 51
90.0000000000004
  0
ARC
  5
5EF0B4C2
330
5EF092C1
100
AcDbEntity
  8
JISSEN
100
AcDbCircle
 10
599.0919530155861
 20
152.8986297955284
 30
0.0
 40
47.5
100
AcDbArc
 50
269.9999999999998
 51
90.0000000000004
  0
LINE
  5
5EF0B4CC
330
5EF092C1
100
AcDbEntity
  8
JISSEN
 48
0.5
100
AcDbLine
 10
309.3058897695866
 20
150.3986297955313
 30
0.0
 11
304.1421630392401
 21
150.398629795531
 31
0.0
  0
ARC
  5
5EF0B4CD
330
5EF092C1
100
AcDbEntity
  8
JISSEN
 48
0.5
100
AcDbCircle
 10
327.0058897695873
 20
152.8986297955317
 30
0.0
 40
23.0
100
AcDbArc
 50
186.240131098259
 51
192.5558577985871
  0
ARC
  5
5EF0B4CE
330
5EF092C1
100
AcDbEntity
  8
JISSEN
 48
0.5
100
AcDbCircle
 10
334.505889769588
 20
134.8986297955314
 30
0.0
 40
5.0
100
AcDbArc
 50
270.0000000000017
 51
0.0000000000024056
  0
LINE
  5
5EF0B4CF
330
5EF092C1
100
AcDbEntity
  8
JISSEN
 48
0.5
100
AcDbLine
 39
960.208308198174
 10
327.0058897695878
 20
129.8986297955316
 30
0.0
 11
334.505889769588
 21
129.8986297955316
 31
0.0
  0
LINE
  5
5EF0B4D0
330
5EF092C1
100
AcDbEntity
  8
JISSEN
 48
0.5
100
AcDbLine
 10
339.5058897695868
 20
170.8986297955321
 30
0.0
 11
339.5058897695878
 21
134.8986297955317
 31
0.0
  0
ARC
  5
5EF0B4D1
330
5EF092C1
100
AcDbEntity
  8
JISSEN
 48
0.5
100
AcDbCircle
 10
334.5058897695868
 20
170.8986297955318
 30
0.0
 40
5.0
100
AcDbArc
 50
0.000000000001057
 51
90.00000000000175
  0
ARC
  5
5EF0B4D2
330
5EF092C1
100
AcDbEntity
  8
SCALE
100
AcDbCircle
 10
327.0058897695871
 20
166.8986297955316
 30
0.0
 40
3.999999999999886
100
AcDbArc
 50
322.6168015821154
 51
210.0000000000056
  0
ARC
  5
5EF0B4D3
330
5EF092C1
100
AcDbEntity
  8
JISSEN
 48
0.5
100
AcDbCircle
 10
327.0058897695887
 20
138.8986297955316
 30
0.0
 40
4.000000000000341
100
AcDbArc
 50
150.0000000000003
 51
37.3831984178831
  0
ARC
  5
5EF0B4D5
330
5EF092C1
100
AcDbEntity
  8
JISSEN
100
AcDbCircle
 39
960.208308198174
 10
327.0058897695883
 20
152.8986297955315
 30
0.0
 40
11.99999999999863
100
AcDbArc
 50
271.1937484371429
 51
88.8062515628599
  0
LINE
  5
5EF0B4D6
330
5EF092C1
100
AcDbEntity
  8
JISSEN
100
AcDbLine
 39
960.208308198174
 10
295.005889769588
 20
164.8986297955304
 30
0.0
 11
295.0058897695886
 21
140.8986297955309
 31
0.0
  0
LINE
  5
5EF0B4D7
330
5EF092C1
100
AcDbEntity
  8
JISSEN
100
AcDbLine
 39
960.208308198174
 10
297.505889769588
 20
164.8986297955304
 30
0.0
 11
297.5058897695887
 21
140.898629795531
 31
0.0
  0
ARC
  5
5EF0B4D8
330
5EF092C1
100
AcDbEntity
  8
JISSEN
100
AcDbCircle
 10
307.0058897695885
 20
150.9986297955308
 30
0.0
 40
0.5
100
AcDbArc
 50
180.0000000000071
 51
270.0000000000013
  0
ARC
  5
5EF0B4D9
330
5EF092C1
100
AcDbEntity
  8
JISSEN
100
AcDbCircle
 10
309.0058897695876
 20
149.9986297955308
 30
0.0
 40
0.5
100
AcDbArc
 50
359.9999999999935
 51
90.00000000000133
  0
LINE
  5
5EF0B4DA
330
5EF092C1
100
AcDbEntity
  8
JISSEN
100
AcDbLine
 10
309.0058897695876
 20
150.498629795531
 30
0.0
 11
307.0058897695885
 21
150.498629795531
 31
0.0
  0
ARC
  5
5EF0B4DB
330
5EF092C1
100
AcDbEntity
  8
SCALE
100
AcDbCircle
 10
309.0058897695876
 20
148.3986297955308
 30
0.0
 40
0.5
100
AcDbArc
 50
270.0000000000009
 51
359.9999999999935
  0
LINE
  5
5EF0B4DC
330
5EF092C1
100
AcDbEntity
  8
SCALE
100
AcDbLine
 10
309.5058897695876
 20
149.9986297955308
 30
0.0
 11
309.5058897695876
 21
148.398629795531
 31
0.0
  0
ARC
  5
5EF0B4DD
330
5EF092C1
100
AcDbEntity
  8
JISSEN
100
AcDbCircle
 10
302.5058897695876
 20
148.3986297955304
 30
0.0
 40
0.5
100
AcDbArc
 50
180.0000000000014
 51
270.0000000000012
  0
LINE
  5
5EF0B4DE
330
5EF092C1
100
AcDbEntity
  8
SCALE
100
AcDbLine
 10
302.5058897695876
 20
147.8986297955311
 30
0.0
 11
309.0058897695876
 21
147.8986297955313
 31
0.0
  0
ARC
  5
5EF0B4DF
330
5EF092C1
100
AcDbEntity
  8
JISSEN
100
AcDbCircle
 10
302.5058897695874
 20
157.3986297955307
 30
0.0
 40
0.5
100
AcDbArc
 50
90.00000000000168
 51
180.0000000000014
  0
LINE
  5
5EF0B4E0
330
5EF092C1
100
AcDbEntity
  8
JISSEN
100
AcDbLine
 39
960.208308198174
 10
302.0058897695873
 20
157.3986297955308
 30
0.0
 11
302.0058897695875
 21
148.3986297955308
 31
0.0
  0
LINE
  5
5EF0B4E1
330
5EF092C1
100
AcDbEntity
  8
JISSEN
100
AcDbLine
 10
302.5058897695871
 20
157.8986297955308
 30
0.0
 11
309.0058897695882
 21
157.898629795531
 31
0.0
  0
ARC
  5
5EF0B4E2
330
5EF092C1
100
AcDbEntity
  8
SCALE
100
AcDbCircle
 10
309.0058897695882
 20
157.3986297955308
 30
0.0
 40
0.5
100
AcDbArc
 50
0.000000000001744
 51
90.00000000000168
  0
ARC
  5
5EF0B4E3
330
5EF092C1
100
AcDbEntity
  8
JISSEN
100
AcDbCircle
 10
309.0058897695882
 20
155.7986297955304
 30
0.0
 40
0.5
100
AcDbArc
 50
270.0000000000017
 51
0.000000000001744
  0
LINE
  5
5EF0B4E4
330
5EF092C1
100
AcDbEntity
  8
SCALE
100
AcDbLine
 10
309.5058897695881
 20
155.7986297955308
 30
0.0
 11
309.5058897695881
 21
157.398629795531
 31
0.0
  0
ARC
  5
5EF0B4E5
330
5EF092C1
100
AcDbEntity
  8
JISSEN
100
AcDbCircle
 39
960.208308198174
 10
307.0058897695882
 20
154.7986297955304
 30
0.0
 40
0.5
100
AcDbArc
 50
90.00000000000175
 51
180.0000000000071
  0
LINE
  5
5EF0B4E6
330
5EF092C1
100
AcDbEntity
  8
JISSEN
100
AcDbLine
 10
309.0058897695882
 20
155.2986297955308
 30
0.0
 11
307.0058897695882
 21
155.2986297955308
 31
0.0
  0
LINE
  5
5EF0B4E7
330
5EF092C1
100
AcDbEntity
  8
JISSEN
100
AcDbLine
 39
960.208308198174
 10
306.5058897695885
 20
150.9986297955308
 30
0.0
 11
306.5058897695883
 21
154.7986297955304
 31
0.0
  0
ARC
  5
5EF0B4E8
330
5EF092C1
100
AcDbEntity
  8
JISSEN
100
AcDbCircle
 10
340.005889769588
 20
127.8986297955322
 30
0.0
 40
5.0
100
AcDbArc
 50
0.0000000000012351
 51
90.000000000002
  0
ARC
  5
5EF0B4E9
330
5EF092C1
100
AcDbEntity
  8
JISSEN
100
AcDbCircle
 10
340.0058897695866
 20
177.8986297955321
 30
0.0
 40
5.0
100
AcDbArc
 50
270.0000000000017
 51
0.000000000001744
  0
LINE
  5
5EF0B4EA
330
5EF092C1
100
AcDbEntity
  8
JISSEN
100
AcDbLine
 10
339.088465464544
 20
132.8986297955319
 30
0.0
 11
340.005889769588
 21
132.8986297955319
 31
0.0
  0
LINE
  5
5EF0B4EB
330
5EF092C1
100
AcDbEntity
  8
JISSEN
100
AcDbLine
 10
339.0884654645428
 20
172.8986297955322
 30
0.0
 11
340.0058897695866
 21
172.8986297955322
 31
0.0
  0
LINE
  5
5EF0B4EC
330
5EF092C1
100
AcDbEntity
  8
JISSEN
100
AcDbLine
 10
340.0058897695866
 20
172.8986297955322
 30
0.0
 11
340.005889769588
 21
132.8986297955319
 31
0.0
  0
LINE
  5
5EF0B4FD
330
5EF092C1
100
AcDbEntity
  8
JISSEN
100
AcDbLine
 10
623.1996481701727
 20
272.8986297955275
 30
0.0
 11
679.0919530155897
 21
272.8986297955275
 31
0.0
  0
LINE
  5
5EF0B4FE
330
5EF092C1
100
AcDbEntity
  8
JISSEN
100
AcDbLine
 10
580.0919530155859
 20
273.8986297955285
 30
0.0
 11
580.0919530155859
 21
254.8986297955281
 31
0.0
  0
LINE
  5
5EF0B4FF
330
5EF092C1
100
AcDbEntity
  8
JISSEN
100
AcDbLine
 10
618.0919530155859
 20
273.8986297955285
 30
0.0
 11
618.0919530155859
 21
254.8986297955277
 31
0.0
  0
ARC
  5
5EF0B500
330
5EF092C1
100
AcDbEntity
  8
JISSEN
100
AcDbCircle
 10
625.0919530155815
 20
282.8986297955276
 30
0.0
 40
10.0
100
AcDbArc
 50
224.7545797662394
 51
270.0
  0
LINE
  5
5EF0B501
330
5EF092C1
100
AcDbEntity
  8
JISSEN
100
AcDbLine
 10
615.0919530155816
 20
298.8986297955276
 30
0.0
 11
615.0919530155816
 21
284.1455805614947
 31
0.0
  0
ARC
  5
5EF0B502
330
5EF092C1
100
AcDbEntity
  8
JISSEN
100
AcDbCircle
 10
599.0919530155857
 20
273.8986297955285
 30
0.0
 40
19.0
100
AcDbArc
 50
0.0000000000006857
 51
180.0000000000006
  0
LINE
  5
5EF0B503
330
5EF092C1
100
AcDbEntity
  8
JISSEN
100
AcDbLine
 10
574.9842578609992
 20
279.5947822182343
 30
0.0
 11
574.9842578609992
 21
272.8986297955275
 31
0.0
  0
LINE
  5
5EF0B504
330
5EF092C1
100
AcDbEntity
  8
JISSEN
100
AcDbLine
 10
569.7881054382926
 20
279.5947822182343
 30
0.0
 11
569.7881054382926
 21
272.8986297955275
 31
0.0
  0
LINE
  5
5EF0B505
330
5EF092C1
100
AcDbEntity
  8
JISSEN
100
AcDbLine
 10
559.3958005928794
 20
279.5947822182343
 30
0.0
 11
559.3958005928794
 21
272.8986297955275
 31
0.0
  0
LINE
  5
5EF0B506
330
5EF092C1
100
AcDbEntity
  8
JISSEN
100
AcDbLine
 10
554.1996481701728
 20
279.5947822182343
 30
0.0
 11
554.1996481701728
 21
272.8986297955275
 31
0.0
  0
LINE
  5
5EF0B507
330
5EF092C1
100
AcDbEntity
  8
JISSEN
100
AcDbLine
 10
573.5919530155857
 20
280.3986297955276
 30
0.0
 11
555.5919530155859
 21
280.3986297955276
 31
0.0
  0
LINE
  5
5EF0B508
330
5EF092C1
100
AcDbEntity
  8
JISSEN
100
AcDbLine
 10
573.5919530155857
 20
280.3986297955276
 30
0.0
 11
574.9842578609992
 21
279.5947822182343
 31
0.0
  0
LINE
  5
5EF0B509
330
5EF092C1
100
AcDbEntity
  8
JISSEN
100
AcDbLine
 10
555.5919530155859
 20
280.3986297955276
 30
0.0
 11
554.1996481701728
 21
279.5947822182343
 31
0.0
  0
ARC
  5
5EF0B50A
330
5EF092C1
100
AcDbEntity
  8
JISSEN
100
AcDbCircle
 10
564.5919530155858
 20
263.2024773728224
 30
0.0
 40
17.19615242270538
100
AcDbArc
 50
72.4120462260049
 51
107.5879537739951
  0
ARC
  5
5EF0B50B
330
5EF092C1
100
AcDbEntity
  8
JISSEN
100
AcDbCircle
 10
554.1996481701728
 20
263.2024773728224
 30
0.0
 40
17.19615242270538
100
AcDbArc
 50
72.4120462260049
 51
85.64351788229432
  0
ARC
  5
5EF0B50C
330
5EF092C1
100
AcDbEntity
  8
JISSEN
100
AcDbCircle
 10
574.9842578609992
 20
263.2024773728224
 30
0.0
 40
17.19615242270538
100
AcDbArc
 50
94.3564821177061
 51
107.5879537739951
  0
LINE
  5
5EF0B50D
330
5EF092C1
100
AcDbEntity
  8
JISSEN
100
AcDbLine
 10
519.6996481701728
 20
279.5947822182303
 30
0.0
 11
519.6996481701733
 21
272.8986297955235
 31
0.0
  0
LINE
  5
5EF0B50E
330
5EF092C1
100
AcDbEntity
  8
JISSEN
100
AcDbLine
 10
524.8958005928796
 20
279.5947822182303
 30
0.0
 11
524.8958005928797
 21
272.8986297955236
 31
0.0
  0
LINE
  5
5EF0B50F
330
5EF092C1
100
AcDbEntity
  8
JISSEN
100
AcDbLine
 10
540.4842578609994
 20
279.5947822182312
 30
0.0
 11
540.4842578609998
 21
272.8986297955243
 31
0.0
  0
LINE
  5
5EF0B510
330
5EF092C1
100
AcDbEntity
  8
JISSEN
100
AcDbLine
 10
535.2881054382928
 20
279.5947822182308
 30
0.0
 11
535.2881054382931
 21
272.8986297955239
 31
0.0
  0
LINE
  5
5EF0B511
330
5EF092C1
100
AcDbEntity
  8
JISSEN
100
AcDbLine
 10
521.0919530155861
 20
280.3986297955237
 30
0.0
 11
519.6996481701728
 21
279.5947822182302
 31
0.0
  0
ARC
  5
5EF0B512
330
5EF092C1
100
AcDbEntity
  8
JISSEN
100
AcDbCircle
 10
519.6996481701735
 20
263.2024773728181
 30
0.0
 40
17.19615242270538
100
AcDbArc
 50
72.41204622600779
 51
85.64351788229677
  0
LINE
  5
5EF0B513
330
5EF092C1
100
AcDbEntity
  8
JISSEN
100
AcDbLine
 10
521.0919530155861
 20
280.3986297955237
 30
0.0
 11
539.0919530155861
 21
280.3986297955244
 31
0.0
  0
LINE
  5
5EF0B514
330
5EF092C1
100
AcDbEntity
  8
JISSEN
100
AcDbLine
 10
539.0919530155861
 20
280.3986297955244
 30
0.0
 11
540.4842578609994
 21
279.5947822182312
 31
0.0
  0
ARC
  5
5EF0B515
330
5EF092C1
100
AcDbEntity
  8
JISSEN
100
AcDbCircle
 10
530.091953015587
 20
263.2024773728184
 30
0.0
 40
17.19615242270538
100
AcDbArc
 50
72.41204622600779
 51
107.5879537739979
  0
ARC
  5
5EF0B516
330
5EF092C1
100
AcDbEntity
  8
JISSEN
100
AcDbCircle
 10
540.4842578610002
 20
263.2024773728192
 30
0.0
 40
17.19615242270538
100
AcDbArc
 50
94.35648211770859
 51
107.5879537739979
  0
LINE
  5
5EF0B517
330
5EF092C1
100
AcDbEntity
  8
JISSEN
100
AcDbLine
 10
604.0919530155861
 20
305.3986297955248
 30
0.0
 11
604.0919530155861
 21
305.3986297955248
 31
0.0
  0
LINE
  5
5EF0B519
330
5EF092C1
100
AcDbEntity
  8
JISSEN
100
AcDbLine
 10
663.5919530155897
 20
226.8986297955275
 30
0.0
 11
663.5919530155897
 21
212.0256117919026
 31
0.0
  0
ARC
  5
5EF0B51A
330
5EF092C1
100
AcDbEntity
  8
JISSEN
100
AcDbCircle
 10
657.6996481701719
 20
263.2024773728192
 30
0.0
 40
17.19615242270538
100
AcDbArc
 50
72.41204622600204
 51
85.64351788229144
  0
ARC
  5
5EF0B51B
330
5EF092C1
100
AcDbEntity
  8
JISSEN
100
AcDbCircle
 10
668.0919530155851
 20
263.2024773728184
 30
0.0
 40
17.19615242270538
100
AcDbArc
 50
72.41204622600204
 51
107.5879537739921
  0
LINE
  5
5EF0B51C
330
5EF092C1
100
AcDbEntity
  8
JISSEN
100
AcDbLine
 10
662.8958005928794
 20
279.5947822182308
 30
0.0
 11
662.8958005928791
 21
272.8986297955239
 31
0.0
  0
LINE
  5
5EF0B51D
330
5EF092C1
100
AcDbEntity
  8
JISSEN
100
AcDbLine
 10
659.091953015586
 20
280.3986297955244
 30
0.0
 11
657.6996481701727
 21
279.5947822182312
 31
0.0
  0
LINE
  5
5EF0B51E
330
5EF092C1
100
AcDbEntity
  8
JISSEN
100
AcDbLine
 10
677.0919530155861
 20
280.3986297955237
 30
0.0
 11
659.091953015586
 21
280.3986297955244
 31
0.0
  0
LINE
  5
5EF0B51F
330
5EF092C1
100
AcDbEntity
  8
JISSEN
100
AcDbLine
 10
657.6996481701727
 20
279.5947822182312
 30
0.0
 11
657.6996481701724
 21
272.8986297955243
 31
0.0
  0
ARC
  5
5EF0B520
330
5EF092C1
100
AcDbEntity
  8
JISSEN
100
AcDbCircle
 10
678.4842578609985
 20
263.2024773728181
 30
0.0
 40
17.19615242270538
100
AcDbArc
 50
94.35648211770322
 51
107.5879537739921
  0
LINE
  5
5EF0B521
330
5EF092C1
100
AcDbEntity
  8
JISSEN
100
AcDbLine
 10
677.0919530155861
 20
280.3986297955237
 30
0.0
 11
678.4842578609993
 21
279.5947822182302
 31
0.0
  0
LINE
  5
5EF0B522
330
5EF092C1
100
AcDbEntity
  8
JISSEN
100
AcDbLine
 10
673.2881054382926
 20
279.5947822182303
 30
0.0
 11
673.2881054382922
 21
272.8986297955236
 31
0.0
  0
LINE
  5
5EF0B523
330
5EF092C1
100
AcDbEntity
  8
JISSEN
100
AcDbLine
 10
678.4842578609993
 20
279.5947822182303
 30
0.0
 11
678.4842578609988
 21
272.8986297955235
 31
0.0
  0
ARC
  5
5EF0B524
330
5EF092C1
100
AcDbEntity
  8
JISSEN
100
AcDbCircle
 10
623.1996481701727
 20
263.2024773728224
 30
0.0
 40
17.19615242270538
100
AcDbArc
 50
72.4120462260049
 51
85.64351788229387
  0
ARC
  5
5EF0B525
330
5EF092C1
100
AcDbEntity
  8
JISSEN
100
AcDbCircle
 10
643.9842578609994
 20
263.2024773728224
 30
0.0
 40
17.19615242270538
100
AcDbArc
 50
94.35648211770567
 51
107.5879537739951
  0
ARC
  5
5EF0B526
330
5EF092C1
100
AcDbEntity
  8
JISSEN
100
AcDbCircle
 10
633.5919530155862
 20
263.2024773728224
 30
0.0
 40
17.19615242270538
100
AcDbArc
 50
72.4120462260049
 51
107.5879537739951
  0
LINE
  5
5EF0B527
330
5EF092C1
100
AcDbEntity
  8
JISSEN
100
AcDbLine
 10
638.7881054382927
 20
279.5947822182343
 30
0.0
 11
638.7881054382927
 21
272.8986297955275
 31
0.0
  0
LINE
  5
5EF0B528
330
5EF092C1
100
AcDbEntity
  8
JISSEN
100
AcDbLine
 10
628.3958005928796
 20
279.5947822182343
 30
0.0
 11
628.3958005928796
 21
272.8986297955275
 31
0.0
  0
LINE
  5
5EF0B529
330
5EF092C1
100
AcDbEntity
  8
JISSEN
100
AcDbLine
 10
642.5919530155862
 20
280.3986297955276
 30
0.0
 11
643.9842578609994
 21
279.5947822182343
 31
0.0
  0
LINE
  5
5EF0B52A
330
5EF092C1
100
AcDbEntity
  8
JISSEN
100
AcDbLine
 10
624.5919530155862
 20
280.3986297955276
 30
0.0
 11
623.1996481701727
 21
279.5947822182343
 31
0.0
  0
LINE
  5
5EF0B52B
330
5EF092C1
100
AcDbEntity
  8
JISSEN
100
AcDbLine
 10
624.5919530155862
 20
280.3986297955276
 30
0.0
 11
642.5919530155862
 21
280.3986297955276
 31
0.0
  0
LINE
  5
5EF0B52C
330
5EF092C1
100
AcDbEntity
  8
JISSEN
100
AcDbLine
 10
643.9842578609994
 20
279.5947822182343
 30
0.0
 11
643.9842578609994
 21
272.8986297955275
 31
0.0
  0
LINE
  5
5EF0B52D
330
5EF092C1
100
AcDbEntity
  8
JISSEN
100
AcDbLine
 10
623.1996481701727
 20
279.5947822182343
 30
0.0
 11
623.1996481701727
 21
272.8986297955275
 31
0.0
  0
LINE
  5
5EF0B52E
330
5EF092C1
100
AcDbEntity
  8
JISSEN
100
AcDbLine
 10
605.3419530155878
 20
303.2335662860629
 30
0.0
 11
605.3419530155878
 21
300.8986297955276
 31
0.0
  0
LINE
  5
5EF0B52F
330
5EF092C1
100
AcDbEntity
  8
JISSEN
100
AcDbLine
 10
592.8419530155861
 20
303.2335662860638
 30
0.0
 11
592.841953015587
 21
300.8986297955276
 31
0.0
  0
LINE
  5
5EF0B530
330
5EF092C1
100
AcDbEntity
  8
JISSEN
100
AcDbLine
 10
592.8419530155878
 20
303.2335662860638
 30
0.0
 11
605.3419530155842
 21
303.2335662860638
 31
0.0
  0
LINE
  5
5EF0B531
330
5EF092C1
100
AcDbEntity
  8
JISSEN
100
AcDbLine
 10
594.0919530155861
 20
305.3986297955248
 30
0.0
 11
594.0919530155861
 21
305.3986297955248
 31
0.0
  0
LINE
  5
5EF0B532
330
5EF092C1
100
AcDbEntity
  8
JISSEN
100
AcDbLine
 10
599.0919530155897
 20
254.8986297955276
 30
0.0
 11
681.0919530155898
 21
254.8986297955276
 31
0.0
  0
ARC
  5
5EF0B533
330
5EF092C1
100
AcDbEntity
  8
JISSEN
100
AcDbCircle
 10
679.0919530155897
 20
270.8986297955275
 30
0.0
 40
2.0
100
AcDbArc
 50
0.0
 51
90.00000000000005
  0
LINE
  5
5EF0B534
330
5EF092C1
100
AcDbEntity
  8
JISSEN
100
AcDbLine
 10
681.0919530155898
 20
254.8986297955276
 30
0.0
 11
681.0919530155898
 21
270.8986297955275
 31
0.0
  0
LINE
  5
5EF0B535
330
5EF092C1
100
AcDbEntity
  8
JISSEN
100
AcDbLine
 10
517.0919530155896
 20
254.8986297955265
 30
0.0
 11
599.0919530155897
 21
254.8986297955265
 31
0.0
  0
LINE
  5
5EF0B536
330
5EF092C1
100
AcDbEntity
  8
JISSEN
100
AcDbLine
 10
517.0919530155896
 20
270.8986297955275
 30
0.0
 11
517.0919530155896
 21
254.8986297955276
 31
0.0
  0
ARC
  5
5EF0B537
330
5EF092C1
100
AcDbEntity
  8
JISSEN
100
AcDbCircle
 10
519.0919530155896
 20
270.8986297955275
 30
0.0
 40
2.0
100
AcDbArc
 50
90.0
 51
179.9999999999985
  0
LINE
  5
5EF0B538
330
5EF092C1
100
AcDbEntity
  8
JISSEN
100
AcDbLine
 10
519.0919530155896
 20
272.8986297955275
 30
0.0
 11
574.9842578609992
 21
272.8986297955275
 31
0.0
  0
ARC
  5
5EF0B539
330
5EF092C1
100
AcDbEntity
  8
JISSEN
100
AcDbCircle
 10
573.0919530155897
 20
282.8986297955276
 30
0.0
 40
10.0
100
AcDbArc
 50
270.0
 51
315.2454202337623
  0
LINE
  5
5EF0B53A
330
5EF092C1
100
AcDbEntity
  8
JISSEN
100
AcDbLine
 10
583.0919530155897
 20
298.8986297955276
 30
0.0
 11
615.0919530155912
 21
298.8986297955276
 31
0.0
  0
LINE
  5
5EF0B53B
330
5EF092C1
100
AcDbEntity
  8
JISSEN
100
AcDbLine
 10
583.0919530155897
 20
298.8986297955276
 30
0.0
 11
583.0919530155897
 21
284.1455805614943
 31
0.0
  0
LINE
  5
5EF0B53C
330
5EF092C1
100
AcDbEntity
  8
JISSEN
100
AcDbLine
 10
585.0919530155898
 20
300.8986297955276
 30
0.0
 11
613.0919530155916
 21
300.8986297955276
 31
0.0
  0
LINE
  5
5EF0B53D
330
5EF092C1
100
AcDbEntity
  8
JISSEN
100
AcDbLine
 10
613.0919530155916
 20
300.8986297955276
 30
0.0
 11
615.0919530155912
 21
298.8986297955276
 31
0.0
  0
LINE
  5
5EF0B53E
330
5EF092C1
100
AcDbEntity
  8
JISSEN
100
AcDbLine
 10
585.0919530155898
 20
300.8986297955276
 30
0.0
 11
583.0919530155897
 21
298.8986297955276
 31
0.0
  0
LINE
  5
5EF0B540
330
5EF092C1
100
AcDbEntity
  8
JISSEN
100
AcDbLine
 10
517.0919530155896
 20
254.8986297955276
 30
0.0
 11
517.0919530155896
 21
238.8986297955276
 31
0.0
  0
ARC
  5
5EF0B542
330
5EF092C1
100
AcDbEntity
  8
JISSEN
100
AcDbCircle
 10
673.5919530155897
 20
226.8986297955275
 30
0.0
 40
10.0
100
AcDbArc
 50
89.9999999999992
 51
179.9999999999999
  0
LINE
  5
5EF0B543
330
5EF092C1
100
AcDbEntity
  8
JISSEN
100
AcDbLine
 10
681.0919530155898
 20
254.8986297955284
 30
0.0
 11
681.0919530155898
 21
238.8986297955276
 31
0.0
  0
LINE
  5
5EF0B544
330
5EF092C1
100
AcDbEntity
  8
JISSEN
100
AcDbLine
 10
679.0919530155897
 20
236.8986297955276
 30
0.0
 11
623.591953015587
 21
236.898629795528
 31
0.0
  0
ARC
  5
5EF0B545
330
5EF092C1
100
AcDbEntity
  8
JISSEN
100
AcDbCircle
 10
679.0919530155897
 20
238.8986297955276
 30
0.0
 40
2.0
100
AcDbArc
 50
269.9999999999989
 51
0.0
  0
LINE
  5
5EF0B547
330
5EF092C1
100
AcDbEntity
  8
JISSEN
100
AcDbLine
 10
599.0919530155897
 20
254.8986297955276
 30
0.0
 11
681.0919530155898
 21
254.8986297955284
 31
0.0
  0
LINE
  5
5EF0B548
330
5EF092C1
100
AcDbEntity
  8
JISSEN
100
AcDbLine
 10
517.0919530155896
 20
254.8986297955276
 30
0.0
 11
599.0919530155897
 21
254.8986297955284
 31
0.0
  0
LINE
  5
5EF0B620
330
5EF092C1
100
AcDbEntity
  8
JISSEN
100
AcDbLine
 10
143.005889769586
 20
98.39792078553779
 30
0.0
 11
143.0058897695878
 21
75.66862979552546
 31
0.0
  0
LINE
  5
5EF0B62F
330
5EF092C1
100
AcDbEntity
  8
JISSEN
100
AcDbLine
 10
364.0058897695861
 20
441.8028848776939
 30
0.0
 11
364.0058897695826
 21
356.3028848776939
 31
0.0
  0
LINE
  5
5EF0B630
330
5EF092C1
100
AcDbEntity
  8
JISSEN
100
AcDbLine
 10
364.0058897695861
 20
441.8028848776939
 30
0.0
 11
364.0058897695898
 21
527.3028848776931
 31
0.0
  0
ARC
  5
5EF0B661
330
5EF092C1
100
AcDbEntity
  8
JISSEN
100
AcDbCircle
 10
340.0058897695862
 20
507.8028848777004
 30
0.0
 40
5.0
100
AcDbArc
 50
270.0
 51
0.0
  0
CIRCLE
  5
5EF0B697
330
5EF092C1
100
AcDbEntity
  8
JISSEN
100
AcDbCircle
 10
648.5894276986437
 20
103.4011551124691
 30
0.0
 40
9.5
  0
CIRCLE
  5
5EF0B699
330
5EF092C1
100
AcDbEntity
  8
JISSEN
100
AcDbCircle
 10
648.5894276986437
 20
202.3961044785861
 30
0.0
 40
9.5
  0
LINE
  5
5EF0B6B7
330
5EF092C1
100
AcDbEntity
  8
JISSEN
100
AcDbLine
 10
315.0058897695916
 20
502.8028848777004
 30
0.0
 11
340.0058897695862
 21
502.8028848777004
 31
0.0
  0
ARC
  5
5EF0B6B8
330
5EF092C1
100
AcDbEntity
  8
JISSEN
100
AcDbCircle
 10
293.6624773588237
 20
503.3035938876911
 30
0.0
 40
12.0
100
AcDbArc
 50
233.6644866171111
 51
270.0000000000021
  0
ARC
  5
5EF0B6B9
330
5EF092C1
100
AcDbEntity
  8
JISSEN
100
AcDbCircle
 10
219.0058897695862
 20
401.8028848777013
 30
0.0
 40
114.0
100
AcDbArc
 50
53.6644866171114
 51
59.67302190324726
  0
LINE
  5
5EF0B6BC
330
5EF092C1
100
AcDbEntity
  8
JISSEN
100
AcDbLine
 10
364.0058897695861
 20
356.3028848777013
 30
0.0
 11
362.0058897695861
 21
354.3028848777003
 31
0.0
  0
LINE
  5
5EF0B6BD
330
5EF092C1
100
AcDbEntity
  8
JISSEN
100
AcDbLine
 10
362.0058897695861
 20
529.3028848777002
 30
0.0
 11
364.0058897695861
 21
527.3028848777003
 31
0.0
  0
ARC
  5
5EF0B6BE
330
5EF092C1
100
AcDbEntity
  8
JISSEN
100
AcDbCircle
 10
347.0058897695861
 20
356.3028848777003
 30
0.0
 40
2.0
100
AcDbArc
 50
180.0
 51
270.0000000000009
  0
ARC
  5
5EF0B6BF
330
5EF092C1
100
AcDbEntity
  8
JISSEN
100
AcDbCircle
 10
347.0058897695861
 20
527.3028848777003
 30
0.0
 40
2.0
100
AcDbArc
 50
89.99999999999905
 51
179.9999999999995
  0
LINE
  5
5EF0B6C2
330
5EF092C1
100
AcDbEntity
  8
JISSEN
100
AcDbLine
 10
345.0058897695861
 20
441.8028848777006
 30
0.0
 11
345.0058897695861
 21
527.3028848777003
 31
0.0
  0
LINE
  5
5EF0B6C3
330
5EF092C1
100
AcDbEntity
  8
JISSEN
100
AcDbLine
 10
345.0058897695861
 20
441.8028848777006
 30
0.0
 11
345.0058897695861
 21
356.3028848777003
 31
0.0
  0
ARC
  5
5EF0B6C6
330
5EF092C1
100
AcDbEntity
  8
JISSEN
100
AcDbCircle
 10
293.6624773588237
 20
380.3021758677106
 30
0.0
 40
12.0
100
AcDbArc
 50
89.99999999999785
 51
126.3355133828891
  0
LINE
  5
5EF0B6C7
330
5EF092C1
100
AcDbEntity
  8
JISSEN
100
AcDbLine
 10
293.6624773588237
 20
491.3035938876911
 30
0.0
 11
308.0058897695916
 21
491.3035938876911
 31
0.0
  0
LINE
  5
5EF0B6C9
330
5EF092C1
100
AcDbEntity
  8
JISSEN
100
AcDbLine
 10
362.0058897695861
 20
529.3028848777002
 30
0.0
 11
347.0058897695861
 21
529.3028848777002
 31
0.0
  0
LINE
  5
5EF0B6CC
330
5EF092C1
100
AcDbEntity
  8
JISSEN
100
AcDbLine
 10
362.0058897695861
 20
354.3028848777003
 30
0.0
 11
347.0058897695861
 21
354.3028848777003
 31
0.0
  0
ARC
  5
5EF0B6CD
330
5EF092C1
100
AcDbEntity
  8
JISSEN
100
AcDbCircle
 10
219.0058897695862
 20
481.8028848777003
 30
0.0
 40
114.0
100
AcDbArc
 50
300.3269780967523
 51
306.3355133828888
  0
ARC
  5
5EF0B6D6
330
5EF092C1
100
AcDbEntity
  8
JISSEN
100
AcDbCircle
 10
308.0058897695916
 20
496.3035938876863
 30
0.0
 40
5.0
100
AcDbArc
 50
269.999999999999
 51
359.9999999999963
  0
LINE
  5
5EF0B6D7
330
5EF092C1
100
AcDbEntity
  8
JISSEN
100
AcDbLine
 10
313.0058897695916
 20
496.3035938876855
 30
0.0
 11
313.0058897695916
 21
500.8028848776958
 31
0.0
  0
ARC
  5
5EF0B6D8
330
5EF092C1
100
AcDbEntity
  8
JISSEN
100
AcDbCircle
 10
315.0058897695916
 20
500.802884877695
 30
0.0
 40
2.0
100
AcDbArc
 50
89.9999999999974
 51
179.9999999999964
  0
LINE
  5
5EF0B6D9
330
5EF092C1
100
AcDbEntity
  8
JISSEN
100
AcDbLine
 10
98.00588976958623
 20
172.8986297955284
 30
0.0
 11
98.00588976958623
 21
132.8986297955285
 31
0.0
  0
LINE
  5
5EF0B6DA
330
5EF092C1
100
AcDbEntity
  8
JISSEN
100
AcDbLine
 10
364.0058897695861
 20
152.8986297955276
 30
0.0
 11
364.0058897695861
 21
238.3986297955276
 31
0.0
  0
LINE
  5
5EF0B6DB
330
5EF092C1
100
AcDbEntity
  8
JISSEN
100
AcDbLine
 10
364.0058897695861
 20
152.8986297955276
 30
0.0
 11
364.0058897695861
 21
67.39862979552857
 31
0.0
  0
LINE
  5
5EF0B6DC
330
5EF092C1
100
AcDbEntity
  8
JISSEN
100
AcDbLine
 10
74.00588976958625
 20
152.8986297955284
 30
0.0
 11
74.00588976958625
 21
67.39862979552857
 31
0.0
  0
LINE
  5
5EF0B6DD
330
5EF092C1
100
AcDbEntity
  8
JISSEN
100
AcDbLine
 10
74.00588976958625
 20
152.8986297955284
 30
0.0
 11
74.00588976958625
 21
238.3986297955276
 31
0.0
  0
LINE
  5
5EF0B6DE
330
5EF092C1
100
AcDbEntity
  8
JISSEN
100
AcDbLine
 10
137.005889769586
 20
254.8986297955276
 30
0.0
 11
219.0058897695862
 21
254.8986297955284
 31
0.0
  0
LINE
  5
5EF0B6DF
330
5EF092C1
100
AcDbEntity
  8
JISSEN
100
AcDbLine
 10
219.0058897695862
 20
254.8986297955276
 30
0.0
 11
301.0058897695861
 21
254.8986297955284
 31
0.0
  0
LINE
  5
5EF0B73B
330
5EF092C1
100
AcDbEntity
  8
JISSEN
100
AcDbLine
 10
76.00588976958625
 20
240.3986297955276
 30
0.0
 11
74.00588976958625
 21
238.3986297955276
 31
0.0
  0
LINE
  5
5EF0B73C
330
5EF092C1
100
AcDbEntity
  8
JISSEN
100
AcDbLine
 10
76.00588976958625
 20
65.39862979552765
 30
0.0
 11
74.00588976958625
 21
67.39862979552857
 31
0.0
  0
LINE
  5
5EF0B73D
330
5EF092C1
100
AcDbEntity
  8
JISSEN
100
AcDbLine
 10
364.0058897695861
 20
67.39862979552857
 30
0.0
 11
362.0058897695861
 21
65.39862979552856
 31
0.0
  0
LINE
  5
5EF0B73E
330
5EF092C1
100
AcDbEntity
  8
JISSEN
100
AcDbLine
 10
362.0058897695861
 20
240.3986297955276
 30
0.0
 11
364.0058897695861
 21
238.3986297955276
 31
0.0
  0
ARC
  5
5EF0B73F
330
5EF092C1
100
AcDbEntity
  8
JISSEN
100
AcDbCircle
 10
340.0058897695862
 20
207.3993388055201
 30
0.0
 40
5.0
100
AcDbArc
 50
270.000000000002
 51
359.9999999999996
  0
ARC
  5
5EF0B740
330
5EF092C1
100
AcDbEntity
  8
JISSEN
100
AcDbCircle
 10
340.0058897695862
 20
98.39792078553688
 30
0.0
 40
5.0
100
AcDbArc
 50
0.0
 51
89.99999999999777
  0
ARC
  5
5EF0B741
330
5EF092C1
100
AcDbEntity
  8
JISSEN
100
AcDbCircle
 10
98.00588976958623
 20
98.397920785536
 30
0.0
 40
5.0
100
AcDbArc
 50
90.00000000000218
 51
180.0000000000004
  0
ARC
  5
5EF0B742
330
5EF092C1
100
AcDbEntity
  8
JISSEN
100
AcDbCircle
 10
98.00588976958623
 20
207.3993388055201
 30
0.0
 40
5.0
100
AcDbArc
 50
180.0
 51
269.9999999999976
  0
ARC
  5
5EF0B743
330
5EF092C1
100
AcDbEntity
  8
JISSEN
100
AcDbCircle
 10
347.0058897695861
 20
67.39862979552765
 30
0.0
 40
2.0
100
AcDbArc
 50
180.0
 51
270.0000000000009
  0
ARC
  5
5EF0B744
330
5EF092C1
100
AcDbEntity
  8
JISSEN
100
AcDbCircle
 10
347.0058897695861
 20
238.3986297955276
 30
0.0
 40
2.0
100
AcDbArc
 50
89.99999999999905
 51
179.9999999999995
  0
ARC
  5
5EF0B745
330
5EF092C1
100
AcDbEntity
  8
JISSEN
100
AcDbCircle
 10
91.00588976958624
 20
67.39862979552857
 30
0.0
 40
2.0
100
AcDbArc
 50
270.0000000000004
 51
0.0000000000006488
  0
ARC
  5
5EF0B746
330
5EF092C1
100
AcDbEntity
  8
JISSEN
100
AcDbCircle
 10
91.00588976958624
 20
238.3986297955276
 30
0.0
 40
2.0
100
AcDbArc
 50
359.9999999999998
 51
90.00000000000046
  0
LINE
  5
5EF0B747
330
5EF092C1
100
AcDbEntity
  8
JISSEN
100
AcDbLine
 10
345.0058897695861
 20
152.8986297955276
 30
0.0
 11
345.0058897695861
 21
238.3986297955276
 31
0.0
  0
LINE
  5
5EF0B748
330
5EF092C1
100
AcDbEntity
  8
JISSEN
100
AcDbLine
 10
345.0058897695861
 20
152.8986297955276
 30
0.0
 11
345.0058897695861
 21
67.39862979552765
 31
0.0
  0
LINE
  5
5EF0B749
330
5EF092C1
100
AcDbEntity
  8
JISSEN
100
AcDbLine
 10
93.00588976958623
 20
152.8986297955284
 30
0.0
 11
93.00588976958623
 21
67.39862979552857
 31
0.0
  0
LINE
  5
5EF0B74A
330
5EF092C1
100
AcDbEntity
  8
JISSEN
100
AcDbLine
 10
93.00588976958623
 20
152.8986297955284
 30
0.0
 11
93.00588976958623
 21
238.3986297955276
 31
0.0
  0
ARC
  5
5EF0B74B
330
5EF092C1
100
AcDbEntity
  8
JISSEN
100
AcDbCircle
 10
139.005889769586
 20
238.8986297955276
 30
0.0
 40
2.0
100
AcDbArc
 50
180.0
 51
270.0000000000008
  0
ARC
  5
5EF0B74C
330
5EF092C1
100
AcDbEntity
  8
JISSEN
100
AcDbCircle
 10
299.0058897695861
 20
238.8986297955276
 30
0.0
 40
2.0
100
AcDbArc
 50
269.9999999999989
 51
0.0
  0
ARC
  5
5EF0B74D
330
5EF092C1
100
AcDbEntity
  8
JISSEN
100
AcDbCircle
 10
132.005889769586
 20
207.3993388055173
 30
0.0
 40
5.0
100
AcDbArc
 50
269.999999999998
 51
0.0000000000005784
  0
LINE
  5
5EF0B74E
330
5EF092C1
100
AcDbEntity
  8
JISSEN
100
AcDbLine
 10
137.005889769586
 20
238.8986297955276
 30
0.0
 11
137.005889769586
 21
207.3993388055173
 31
0.0
  0
ARC
  5
5EF0B74F
330
5EF092C1
100
AcDbEntity
  8
JISSEN
100
AcDbCircle
 10
306.0058897695861
 20
207.3993388055183
 30
0.0
 40
5.0
100
AcDbArc
 50
180.0
 51
270.0000000000021
  0
LINE
  5
5EF0B750
330
5EF092C1
100
AcDbEntity
  8
JISSEN
100
AcDbLine
 10
301.0058897695861
 20
238.8986297955276
 30
0.0
 11
301.0058897695861
 21
207.3993388055183
 31
0.0
  0
ARC
  5
5EF0B751
330
5EF092C1
100
AcDbEntity
  8
JISSEN
100
AcDbCircle
 10
149.505889769586
 20
209.49443715796
 30
0.0
 40
5.0
100
AcDbArc
 50
305.7347485340544
 51
0.0
  0
ARC
  5
5EF0B752
330
5EF092C1
100
AcDbEntity
  8
JISSEN
100
AcDbCircle
 10
146.6828920675459
 20
207.3993388055173
 30
0.0
 40
5.0
100
AcDbArc
 50
269.999999999998
 51
307.4274438542138
  0
ARC
  5
5EF0B753
330
5EF092C1
100
AcDbEntity
  8
JISSEN
100
AcDbCircle
 10
288.5058897695861
 20
209.49443715796
 30
0.0
 40
5.0
100
AcDbArc
 50
180.0
 51
234.2652514659456
  0
ARC
  5
5EF0B754
330
5EF092C1
100
AcDbEntity
  8
JISSEN
100
AcDbCircle
 10
291.3288874716263
 20
207.3993388055173
 30
0.0
 40
5.0
100
AcDbArc
 50
232.5725561457864
 51
270.0000000000026
  0
ARC
  5
5EF0B755
330
5EF092C1
100
AcDbEntity
  8
JISSEN
100
AcDbCircle
 10
138.005889769586
 20
98.39792078553779
 30
0.0
 40
5.0
100
AcDbArc
 50
0.0000000000035368
 51
90.00000000000234
  0
ARC
  5
5EF0B756
330
5EF092C1
100
AcDbEntity
  8
JISSEN
100
AcDbCircle
 10
293.6624773588237
 20
91.3979207855378
 30
0.0
 40
12.0
100
AcDbArc
 50
89.99999999999785
 51
126.3355133828891
  0
LINE
  5
5EF0B757
330
5EF092C1
100
AcDbEntity
  8
JISSEN
100
AcDbLine
 10
291.3288874716263
 20
202.3993388055183
 30
0.0
 11
340.0058897695862
 21
202.3993388055201
 31
0.0
  0
LINE
  5
5EF0B758
330
5EF092C1
100
AcDbEntity
  8
JISSEN
100
AcDbLine
 10
293.6624773588237
 20
103.3979207855387
 30
0.0
 11
340.0058897695862
 21
103.3979207855368
 31
0.0
  0
LINE
  5
5EF0B759
330
5EF092C1
100
AcDbEntity
  8
JISSEN
100
AcDbLine
 10
146.6828920675459
 20
202.3993388055173
 30
0.0
 11
98.00588976958623
 21
202.3993388055201
 31
0.0
  0
LINE
  5
5EF0B75A
330
5EF092C1
100
AcDbEntity
  8
JISSEN
100
AcDbLine
 10
362.0058897695861
 20
240.3986297955276
 30
0.0
 11
347.0058897695861
 21
240.3986297955276
 31
0.0
  0
LINE
  5
5EF0B75B
330
5EF092C1
100
AcDbEntity
  8
JISSEN
100
AcDbLine
 10
299.0058897695861
 20
236.8986297955276
 30
0.0
 11
219.0058897695862
 21
236.8986297955284
 31
0.0
  0
LINE
  5
5EF0B75C
330
5EF092C1
100
AcDbEntity
  8
JISSEN
100
AcDbLine
 10
301.0058897695861
 20
254.8986297955284
 30
0.0
 11
301.0058897695861
 21
238.8986297955276
 31
0.0
  0
ARC
  5
5EF0B75D
330
5EF092C1
100
AcDbEntity
  8
JISSEN
100
AcDbCircle
 10
293.5058897695861
 20
226.8986297955275
 30
0.0
 40
10.0
100
AcDbArc
 50
89.9999999999992
 51
179.9999999999999
  0
ARC
  5
5EF0B75E
330
5EF092C1
100
AcDbEntity
  8
JISSEN
100
AcDbCircle
 10
219.0058897695862
 20
112.8986297955285
 30
0.0
 40
114.0
100
AcDbArc
 50
52.57255614578611
 51
54.26525146594564
  0
LINE
  5
5EF0B760
330
5EF092C1
100
AcDbEntity
  8
JISSEN
100
AcDbLine
 10
283.5058897695862
 20
226.8986297955275
 30
0.0
 11
283.5058897695862
 21
209.49443715796
 31
0.0
  0
LINE
  5
5EF0B761
330
5EF092C1
100
AcDbEntity
  8
JISSEN
100
AcDbLine
 10
139.005889769586
 20
236.8986297955276
 30
0.0
 11
219.0058897695862
 21
236.8986297955284
 31
0.0
  0
LINE
  5
5EF0B762
330
5EF092C1
100
AcDbEntity
  8
JISSEN
100
AcDbLine
 10
137.005889769586
 20
254.8986297955276
 30
0.0
 11
137.005889769586
 21
238.8986297955276
 31
0.0
  0
ARC
  5
5EF0B763
330
5EF092C1
100
AcDbEntity
  8
JISSEN
100
AcDbCircle
 10
144.505889769586
 20
226.8986297955275
 30
0.0
 40
10.0
100
AcDbArc
 50
0.0000000000000833
 51
90.00000000000083
  0
LINE
  5
5EF0B764
330
5EF092C1
100
AcDbEntity
  8
JISSEN
100
AcDbLine
 10
76.00588976958625
 20
240.3986297955276
 30
0.0
 11
91.00588976958624
 21
240.3986297955276
 31
0.0
  0
ARC
  5
5EF0B765
330
5EF092C1
100
AcDbEntity
  8
JISSEN
100
AcDbCircle
 10
219.0058897695862
 20
112.8986297955285
 30
0.0
 40
114.0
100
AcDbArc
 50
125.7347485340543
 51
127.4274438542139
  0
LINE
  5
5EF0B766
330
5EF092C1
100
AcDbEntity
  8
JISSEN
100
AcDbLine
 10
154.505889769586
 20
226.8986297955275
 30
0.0
 11
154.505889769586
 21
209.49443715796
 31
0.0
  0
LINE
  5
5EF0B767
330
5EF092C1
100
AcDbEntity
  8
JISSEN
100
AcDbLine
 10
362.0058897695861
 20
65.39862979552856
 30
0.0
 11
347.0058897695861
 21
65.39862979552765
 31
0.0
  0
LINE
  5
5EF0B768
330
5EF092C1
100
AcDbEntity
  8
JISSEN
100
AcDbLine
 10
219.005889769588
 20
78.89862979552852
 30
0.0
 11
194.7784151479104
 21
78.8986297955278
 31
0.0
  0
ARC
  5
5EF0B769
330
5EF092C1
100
AcDbEntity
  8
JISSEN
100
AcDbCircle
 10
219.0058897695862
 20
192.8986297955276
 30
0.0
 40
114.0
100
AcDbArc
 50
270.0
 51
306.3355133828888
  0
LINE
  5
5EF0B76A
330
5EF092C1
100
AcDbEntity
  8
JISSEN
100
AcDbLine
 10
76.00588976958625
 20
65.39862979552765
 30
0.0
 11
91.00588976958624
 21
65.39862979552856
 31
0.0
  0
LINE
  5
5EF0B76B
330
5EF092C1
100
AcDbEntity
  8
JISSEN
100
AcDbLine
 10
362.0058897695861
 20
240.3986297955276
 30
0.0
 11
362.0058897695861
 21
65.39862979552856
 31
0.0
  0
LINE
  5
5EF0B76C
330
5EF092C1
100
AcDbEntity
  8
JISSEN
100
AcDbLine
 10
76.00588976958625
 20
65.39862979552765
 30
0.0
 11
76.00588976958625
 21
240.3986297955276
 31
0.0
  0
ARC
  5
5EF0B76E
330
5EF092C1
100
AcDbEntity
  8
JISSEN
100
AcDbCircle
 10
190.0058897695861
 20
175.8986297955274
 30
0.0
 40
2.0
100
AcDbArc
 50
89.99999999999978
 51
180.0
  0
ARC
  5
5EF0B76F
330
5EF092C1
100
AcDbEntity
  8
JISSEN
100
AcDbCircle
 10
193.0058897695861
 20
172.8986297955274
 30
0.0
 40
2.0
100
AcDbArc
 50
90.00000000000021
 51
180.0
  0
LINE
  5
5EF0B770
330
5EF092C1
100
AcDbEntity
  8
JISSEN
100
AcDbLine
 10
193.0058897695861
 20
174.8986297955274
 30
0.0
 11
245.0058897695861
 21
174.8986297955274
 31
0.0
  0
LINE
  5
5EF0B771
330
5EF092C1
100
AcDbEntity
  8
JISSEN
100
AcDbLine
 10
190.0058897695861
 20
177.8986297955276
 30
0.0
 11
248.0058897695861
 21
177.8986297955276
 31
0.0
  0
LINE
  5
5EF0B772
330
5EF092C1
100
AcDbEntity
  8
JISSEN
100
AcDbLine
 10
191.0058897695861
 20
172.8986297955274
 30
0.0
 11
191.0058897695861
 21
132.8986297955276
 31
0.0
  0
LINE
  5
5EF0B773
330
5EF092C1
100
AcDbEntity
  8
JISSEN
100
AcDbLine
 10
188.005889769586
 20
175.8986297955274
 30
0.0
 11
188.005889769586
 21
129.8986297955273
 31
0.0
  0
ARC
  5
5EF0B774
330
5EF092C1
100
AcDbEntity
  8
JISSEN
100
AcDbCircle
 10
248.0058897695861
 20
175.8986297955274
 30
0.0
 40
2.0
100
AcDbArc
 50
0.0
 51
89.99999999999976
  0
ARC
  5
5EF0B775
330
5EF092C1
100
AcDbEntity
  8
JISSEN
100
AcDbCircle
 10
245.0058897695861
 20
172.8986297955274
 30
0.0
 40
2.0
100
AcDbArc
 50
359.999999999999
 51
90.00000000000019
  0
LINE
  5
5EF0B776
330
5EF092C1
100
AcDbEntity
  8
JISSEN
100
AcDbLine
 10
247.0058897695861
 20
172.8986297955274
 30
0.0
 11
247.0058897695861
 21
132.8986297955285
 31
0.0
  0
LINE
  5
5EF0B777
330
5EF092C1
100
AcDbEntity
  8
JISSEN
100
AcDbLine
 10
250.0058897695861
 20
175.8986297955274
 30
0.0
 11
250.0058897695861
 21
129.8986297955273
 31
0.0
  0
ARC
  5
5EF0B778
330
5EF092C1
100
AcDbEntity
  8
JISSEN
100
AcDbCircle
 10
248.0058897695861
 20
129.8986297955273
 30
0.0
 40
2.0
100
AcDbArc
 50
269.9999999999997
 51
0.0
  0
ARC
  5
5EF0B779
330
5EF092C1
100
AcDbEntity
  8
JISSEN
100
AcDbCircle
 10
245.0058897695861
 20
132.8986297955285
 30
0.0
 40
2.0
100
AcDbArc
 50
270.0
 51
359.9999999999993
  0
LINE
  5
5EF0B77A
330
5EF092C1
100
AcDbEntity
  8
JISSEN
100
AcDbLine
 10
190.0058897695861
 20
127.8986297955275
 30
0.0
 11
248.0058897695861
 21
127.8986297955275
 31
0.0
  0
LINE
  5
5EF0B77B
330
5EF092C1
100
AcDbEntity
  8
JISSEN
100
AcDbLine
 10
193.0058897695861
 20
130.8986297955273
 30
0.0
 11
245.0058897695861
 21
130.8986297955285
 31
0.0
  0
ARC
  5
5EF0B77C
330
5EF092C1
100
AcDbEntity
  8
JISSEN
100
AcDbCircle
 10
193.0058897695861
 20
132.8986297955276
 30
0.0
 40
2.0
100
AcDbArc
 50
180.0
 51
270.0
  0
ARC
  5
5EF0B77D
330
5EF092C1
100
AcDbEntity
  8
JISSEN
100
AcDbCircle
 10
190.0058897695861
 20
129.8986297955273
 30
0.0
 40
2.0
100
AcDbArc
 50
180.0
 51
269.9999999999997
  0
LINE
  5
5EF0B77E
330
5EF092C1
100
AcDbEntity
  8
JISSEN
100
AcDbLine
 10
98.9233140746303
 20
172.8986297955284
 30
0.0
 11
98.00588976958623
 21
172.8986297955284
 31
0.0
  0
LINE
  5
5EF0B77F
330
5EF092C1
100
AcDbEntity
  8
JISSEN
100
AcDbLine
 10
98.9233140746303
 20
132.8986297955285
 30
0.0
 11
98.00588976958623
 21
132.8986297955285
 31
0.0
  0
ARC
  5
5EF0B780
330
5EF092C1
100
AcDbEntity
  8
JISSEN
100
AcDbCircle
 10
98.00588976958623
 20
177.8986297955284
 30
0.0
 40
5.0
100
AcDbArc
 50
180.0
 51
270.0
  0
ARC
  5
5EF0B781
330
5EF092C1
100
AcDbEntity
  8
JISSEN
100
AcDbCircle
 10
98.00588976958623
 20
127.8986297955285
 30
0.0
 40
5.0
100
AcDbArc
 50
89.99999999999976
 51
180.0000000000004
  0
ARC
  5
5EF0B783
330
5EF092C1
100
AcDbEntity
  8
JISSEN
100
AcDbCircle
 10
599.0919530155861
 20
152.8986297955284
 30
0.0
 40
87.5
100
AcDbArc
 50
270.0
 51
90.0
  0
LINE
  5
5EF0B784
330
5EF092C1
100
AcDbEntity
  8
JISSEN
100
AcDbLine
 10
199.0058897695861
 20
201.8986297955275
 30
0.0
 11
219.0058897695862
 21
201.8986297955275
 31
0.0
  0
LINE
  5
5EF0B785
330
5EF092C1
100
AcDbEntity
  8
JISSEN
100
AcDbLine
 10
199.0058897695861
 20
193.8986297955276
 30
0.0
 11
219.0058897695862
 21
193.8986297955276
 31
0.0
  0
LINE
  5
5EF0B786
330
5EF092C1
100
AcDbEntity
  8
JISSEN
100
AcDbLine
 10
232.0058897695862
 20
201.9400816798547
 30
0.0
 11
232.0058897695862
 21
199.8986297955274
 31
0.0
  0
LINE
  5
5EF0B787
330
5EF092C1
100
AcDbEntity
  8
JISSEN
100
AcDbLine
 10
226.4699913847243
 20
199.8986297955274
 30
0.0
 11
232.0058897695862
 21
199.8986297955274
 31
0.0
  0
LINE
  5
5EF0B788
330
5EF092C1
100
AcDbEntity
  8
JISSEN
100
AcDbLine
 10
226.4699913847243
 20
195.8986297955276
 30
0.0
 11
232.0058897695862
 21
195.8986297955276
 31
0.0
  0
LINE
  5
5EF0B789
330
5EF092C1
100
AcDbEntity
  8
JISSEN
100
AcDbLine
 10
232.0058897695862
 20
201.9400816798547
 30
0.0
 11
239.005889769586
 21
197.8986297955274
 31
0.0
  0
LINE
  5
5EF0B78A
330
5EF092C1
100
AcDbEntity
  8
JISSEN
100
AcDbLine
 10
232.0058897695862
 20
193.8571779112004
 30
0.0
 11
239.005889769586
 21
197.8986297955274
 31
0.0
  0
LINE
  5
5EF0B78B
330
5EF092C1
100
AcDbEntity
  8
JISSEN
100
AcDbLine
 10
219.0058897695862
 20
201.8986297955275
 30
0.0
 11
226.4699913847243
 21
199.8986297955274
 31
0.0
  0
LINE
  5
5EF0B78C
330
5EF092C1
100
AcDbEntity
  8
JISSEN
100
AcDbLine
 10
219.0058897695862
 20
193.8986297955276
 30
0.0
 11
226.4699913847243
 21
195.8986297955276
 31
0.0
  0
LINE
  5
5EF0B78D
330
5EF092C1
100
AcDbEntity
  8
JISSEN
100
AcDbLine
 10
232.0058897695862
 20
195.8986297955276
 30
0.0
 11
232.0058897695862
 21
193.8571779112004
 31
0.0
  0
LINE
  5
5EF0B78E
330
5EF092C1
100
AcDbEntity
  8
JISSEN
100
AcDbLine
 10
199.0058897695861
 20
201.8986297955275
 30
0.0
 11
199.0058897695861
 21
193.8986297955276
 31
0.0
  0
LINE
  5
5EF0B78F
330
5EF092C1
100
AcDbEntity
  8
JISSEN
100
AcDbLine
 10
138.005889769586
 20
103.3979207855378
 30
0.0
 11
98.00588976958623
 21
103.397920785536
 31
0.0
  0
LINE
  5
5EF0B818
330
5EF092C1
100
AcDbEntity
  8
JISSEN
100
AcDbLine
 10
137.005889769586
 20
254.8986297955265
 30
0.0
 11
219.0058897695862
 21
254.8986297955265
 31
0.0
  0
LINE
  5
5EF0B81B
330
5EF092C1
100
AcDbEntity
  8
JISSEN
100
AcDbLine
 10
219.0058897695862
 20
254.8986297955276
 30
0.0
 11
301.0058897695861
 21
254.8986297955276
 31
0.0
  0
LINE
  5
5EF0B8E5
330
5EF092C1
100
AcDbEntity
  8
JISSEN
100
AcDbLine
 10
301.0058897695871
 20
424.8028848777008
 30
0.0
 11
301.0058897695871
 21
458.8028848777008
 31
0.0
  0
LINE
  5
5EF0B8E6
330
5EF092C1
100
AcDbEntity
  8
JISSEN
100
AcDbLine
 10
271.0058897695871
 20
458.802884877701
 30
0.0
 11
271.0058897695871
 21
458.8028848777008
 31
0.0
  0
LINE
  5
5EF0B8E7
330
5EF092C1
100
AcDbEntity
  8
JISSEN
100
AcDbLine
 10
273.0058897695871
 20
460.8028848777008
 30
0.0
 11
299.0058897695871
 21
460.8028848777008
 31
0.0
  0
LINE
  5
5EF0B8E8
330
5EF092C1
100
AcDbEntity
  8
JISSEN
100
AcDbLine
 10
273.0058897695871
 20
422.8028848777006
 30
0.0
 11
299.0058897695871
 21
422.8028848777006
 31
0.0
  0
ARC
  5
5EF0B8EB
330
5EF092C1
100
AcDbEntity
  8
JISSEN
100
AcDbCircle
 10
273.0058897695871
 20
458.8028848777008
 30
0.0
 40
2.0
100
AcDbArc
 50
90.0
 51
179.9999999999993
  0
ARC
  5
5EF0B8EC
330
5EF092C1
100
AcDbEntity
  8
JISSEN
100
AcDbCircle
 10
273.0058897695871
 20
424.8028848777008
 30
0.0
 40
2.0
100
AcDbArc
 50
180.0000000000006
 51
270.0
  0
LINE
  5
5EF0B8ED
330
5EF092C1
100
AcDbEntity
  8
JISSEN
100
AcDbLine
 10
271.0058897695871
 20
424.8028848777008
 30
0.0
 11
271.0058897695871
 21
424.8028848777008
 31
0.0
  0
LINE
  5
5EF0B8EE
330
5EF092C1
100
AcDbEntity
  8
JISSEN
100
AcDbLine
 10
224.5736541324166
 20
456.8028848777008
 30
0.0
 11
269.0058897695871
 21
456.802884877701
 31
0.0
  0
LINE
  5
5EF0B8EF
330
5EF092C1
100
AcDbEntity
  8
JISSEN
100
AcDbLine
 10
224.5736541324166
 20
426.8028848777006
 30
0.0
 11
269.0058897695871
 21
426.8028848777006
 31
0.0
  0
ARC
  5
5EF0B8F0
330
5EF092C1
100
AcDbEntity
  8
JISSEN
100
AcDbCircle
 10
269.0058897695871
 20
458.802884877701
 30
0.0
 40
2.0
100
AcDbArc
 50
270.0
 51
359.9999999999984
  0
ARC
  5
5EF0B8F1
330
5EF092C1
100
AcDbEntity
  8
JISSEN
100
AcDbCircle
 10
269.0058897695871
 20
424.8028848777008
 30
0.0
 40
2.0
100
AcDbArc
 50
0.0000000000015267
 51
89.99999999999984
  0
LINE
  5
5EF0B8F2
330
5EF092C1
100
AcDbEntity
  8
JISSEN
100
AcDbLine
 10
271.0058897695871
 20
458.802884877701
 30
0.0
 11
271.0058897695871
 21
424.8028848777008
 31
0.0
  0
ARC
  5
5EF0B8F3
330
5EF092C1
100
AcDbEntity
  8
JISSEN
100
AcDbCircle
 10
299.0058897695871
 20
458.8028848777008
 30
0.0
 40
2.0
100
AcDbArc
 50
0.0
 51
90.00000000000019
  0
ARC
  5
5EF0B8F4
330
5EF092C1
100
AcDbEntity
  8
JISSEN
100
AcDbCircle
 10
299.0058897695871
 20
424.8028848777008
 30
0.0
 40
2.0
100
AcDbArc
 50
269.9999999999997
 51
0.0
  0
LINE
  5
5EF0B8FD
330
5EF092C1
100
AcDbEntity
  8
JISSEN
100
AcDbLine
 39
960.208308198174
 10
131.5058897695853
 20
150.9986297955283
 30
0.0
 11
131.5058897695853
 21
154.798629795528
 31
0.0
  0
LINE
  5
5EF0B8FE
330
5EF092C1
100
AcDbEntity
  8
JISSEN
100
AcDbLine
 10
129.5058897695853
 20
155.2986297955278
 30
0.0
 11
131.0058897695853
 21
155.2986297955278
 31
0.0
  0
ARC
  5
5EF0B8FF
330
5EF092C1
100
AcDbEntity
  8
JISSEN
100
AcDbCircle
 39
960.208308198174
 10
131.0058897695853
 20
154.7986297955278
 30
0.0
 40
0.5
100
AcDbArc
 50
359.9999999999945
 51
89.99999999999998
  0
LINE
  5
5EF0B900
330
5EF092C1
100
AcDbEntity
  8
SCALE
100
AcDbLine
 10
129.0058897695853
 20
155.798629795528
 30
0.0
 11
129.0058897695853
 21
157.3986297955284
 31
0.0
  0
ARC
  5
5EF0B901
330
5EF092C1
100
AcDbEntity
  8
JISSEN
100
AcDbCircle
 10
129.5058897695853
 20
155.7986297955278
 30
0.0
 40
0.5
100
AcDbArc
 50
180.0
 51
270.0
  0
ARC
  5
5EF0B902
330
5EF092C1
100
AcDbEntity
  8
SCALE
100
AcDbCircle
 10
129.5058897695853
 20
157.3986297955279
 30
0.0
 40
0.5
100
AcDbArc
 50
90.00000000000005
 51
180.0
  0
LINE
  5
5EF0B903
330
5EF092C1
100
AcDbEntity
  8
JISSEN
100
AcDbLine
 10
135.505889769586
 20
157.8986297955284
 30
0.0
 11
129.5058897695853
 21
157.8986297955284
 31
0.0
  0
LINE
  5
5EF0B904
330
5EF092C1
100
AcDbEntity
  8
JISSEN
100
AcDbLine
 39
960.208308198174
 10
136.005889769586
 20
157.3986297955284
 30
0.0
 11
136.005889769586
 21
148.3986297955284
 31
0.0
  0
ARC
  5
5EF0B905
330
5EF092C1
100
AcDbEntity
  8
JISSEN
100
AcDbCircle
 10
135.505889769586
 20
157.3986297955279
 30
0.0
 40
0.5
100
AcDbArc
 50
0.0
 51
90.00000000000005
  0
LINE
  5
5EF0B906
330
5EF092C1
100
AcDbEntity
  8
SCALE
100
AcDbLine
 10
135.505889769586
 20
147.8986297955285
 30
0.0
 11
129.505889769586
 21
147.8986297955285
 31
0.0
  0
ARC
  5
5EF0B907
330
5EF092C1
100
AcDbEntity
  8
JISSEN
100
AcDbCircle
 10
135.505889769586
 20
148.3986297955282
 30
0.0
 40
0.5
100
AcDbArc
 50
270.0000000000005
 51
0.0
  0
LINE
  5
5EF0B908
330
5EF092C1
100
AcDbEntity
  8
SCALE
100
AcDbLine
 10
129.0058897695862
 20
149.9986297955279
 30
0.0
 11
129.0058897695862
 21
148.3986297955284
 31
0.0
  0
ARC
  5
5EF0B909
330
5EF092C1
100
AcDbEntity
  8
SCALE
100
AcDbCircle
 10
129.505889769586
 20
148.3986297955282
 30
0.0
 40
0.5
100
AcDbArc
 50
180.0000000000081
 51
270.0000000000006
  0
LINE
  5
5EF0B90A
330
5EF092C1
100
AcDbEntity
  8
JISSEN
100
AcDbLine
 10
129.505889769586
 20
150.4986297955283
 30
0.0
 11
131.0058897695853
 21
150.4986297955283
 31
0.0
  0
ARC
  5
5EF0B90B
330
5EF092C1
100
AcDbEntity
  8
JISSEN
100
AcDbCircle
 10
129.505889769586
 20
149.9986297955279
 30
0.0
 40
0.5
100
AcDbArc
 50
90.0000000000004
 51
180.0000000000081
  0
ARC
  5
5EF0B90C
330
5EF092C1
100
AcDbEntity
  8
JISSEN
100
AcDbCircle
 10
131.0058897695853
 20
150.9986297955279
 30
0.0
 40
0.5
100
AcDbArc
 50
270.0000000000004
 51
359.9999999999945
  0
LINE
  5
5EF0B90D
330
5EF092C1
100
AcDbEntity
  8
JISSEN
100
AcDbLine
 10
110.7558897695853
 20
140.8986297955285
 30
0.0
 11
143.0058897695853
 21
140.8986297955285
 31
0.0
  0
LINE
  5
5EF0B90E
330
5EF092C1
100
AcDbEntity
  8
JISSEN
100
AcDbLine
 39
960.208308198174
 10
140.5058897695853
 20
164.8986297955284
 30
0.0
 11
140.5058897695853
 21
140.8986297955285
 31
0.0
  0
LINE
  5
5EF0B90F
330
5EF092C1
100
AcDbEntity
  8
JISSEN
100
AcDbLine
 39
960.208308198174
 10
143.0058897695853
 20
164.8986297955284
 30
0.0
 11
143.0058897695853
 21
140.8986297955285
 31
0.0
  0
LINE
  5
5EF0B910
330
5EF092C1
100
AcDbEntity
  8
JISSEN
100
AcDbLine
 10
110.7558897695853
 20
164.8986297955283
 30
0.0
 11
143.0058897695853
 21
164.8986297955284
 31
0.0
  0
ARC
  5
5EF0B911
330
5EF092C1
100
AcDbEntity
  8
JISSEN
100
AcDbCircle
 39
960.208308198174
 10
111.0058897695853
 20
152.8986297955279
 30
0.0
 40
11.99999999999863
100
AcDbArc
 50
91.19374843714121
 51
268.8062515628585
  0
ARC
  5
5EF0B913
330
5EF092C1
100
AcDbEntity
  8
JISSEN
 48
0.5
100
AcDbCircle
 10
111.0058897695853
 20
138.8986297955284
 30
0.0
 40
4.000000000000341
100
AcDbArc
 50
142.6168015821195
 51
30.00000000000092
  0
ARC
  5
5EF0B914
330
5EF092C1
100
AcDbEntity
  8
SCALE
100
AcDbCircle
 10
111.0058897695862
 20
166.8986297955284
 30
0.0
 40
3.999999999999886
100
AcDbArc
 50
329.9999999999971
 51
217.383198417886
  0
LINE
  5
5EF0B915
330
5EF092C1
100
AcDbEntity
  8
JISSEN
 48
0.5
100
AcDbLine
 39
960.208308198174
 10
108.5058897695862
 20
175.8986297955284
 30
0.0
 11
103.5058897695862
 21
175.8986297955284
 31
0.0
  0
ARC
  5
5EF0B916
330
5EF092C1
100
AcDbEntity
  8
JISSEN
 48
0.5
100
AcDbCircle
 10
103.5058897695862
 20
170.8986297955284
 30
0.0
 40
5.0
100
AcDbArc
 50
90.0
 51
180.0000000000006
  0
LINE
  5
5EF0B917
330
5EF092C1
100
AcDbEntity
  8
JISSEN
 48
0.5
100
AcDbLine
 10
98.50588976958626
 20
170.8986297955284
 30
0.0
 11
98.50588976958626
 21
134.8986297955282
 31
0.0
  0
LINE
  5
5EF0B918
330
5EF092C1
100
AcDbEntity
  8
JISSEN
 48
0.5
100
AcDbLine
 39
960.208308198174
 10
111.0058897695862
 20
129.8986297955284
 30
0.0
 11
103.5058897695862
 21
129.8986297955279
 31
0.0
  0
ARC
  5
5EF0B919
330
5EF092C1
100
AcDbEntity
  8
JISSEN
 48
0.5
100
AcDbCircle
 10
103.5058897695862
 20
134.8986297955282
 30
0.0
 40
5.0
100
AcDbArc
 50
179.9999999999993
 51
270.0
  0
ARC
  5
5EF0B91A
330
5EF092C1
100
AcDbEntity
  8
JISSEN
 48
0.5
100
AcDbCircle
 10
111.0058897695862
 20
152.8986297955284
 30
0.0
 40
23.0
100
AcDbArc
 50
347.4441422014145
 51
353.7598689017424
  0
LINE
  5
5EF0B91B
330
5EF092C1
100
AcDbEntity
  8
JISSEN
 48
0.5
100
AcDbLine
 10
129.2058897695869
 20
150.3986297955286
 30
0.0
 11
133.8696164999335
 21
150.3986297955284
 31
0.0
  0
LINE
  5
5EF0B9B7
330
5EF092C1
100
AcDbEntity
  8
JISSEN
100
AcDbLine
 10
365.0058897695862
 20
487.3028848777013
 30
0.0
 11
365.0058897695862
 21
441.8028848777013
 31
0.0
  0
LINE
  5
5EF0B9B8
330
5EF092C1
100
AcDbEntity
  8
JISSEN
100
AcDbLine
 10
365.0058897695862
 20
396.3028848777013
 30
0.0
 11
365.0058897695862
 21
441.8028848777013
 31
0.0
  0
LINE
  5
5EF0B9B9
330
5EF092C1
100
AcDbEntity
  8
JISSEN
100
AcDbLine
 10
365.0058897695862
 20
396.3028848777013
 30
0.0
 11
364.0058897695843
 21
395.3028848776992
 31
0.0
  0
LINE
  5
5EF0B9BA
330
5EF092C1
100
AcDbEntity
  8
JISSEN
100
AcDbLine
 10
365.0058897695862
 20
487.3028848777013
 30
0.0
 11
364.0058897695884
 21
488.3028848776992
 31
0.0
  0
LINE
  5
5EF0B9BB
330
5EF092C1
100
AcDbEntity
  8
JISSEN
100
AcDbLine
 10
365.0058897695864
 20
198.3986297955284
 30
0.0
 11
364.0058897695884
 21
199.3986297955265
 31
0.0
  0
LINE
  5
5EF0B9BC
330
5EF092C1
100
AcDbEntity
  8
JISSEN
100
AcDbLine
 10
365.0058897695864
 20
107.3986297955284
 30
0.0
 11
364.0058897695846
 21
106.3986297955267
 31
0.0
  0
LINE
  5
5EF0B9BD
330
5EF092C1
100
AcDbEntity
  8
JISSEN
100
AcDbLine
 10
365.0058897695864
 20
107.3986297955284
 30
0.0
 11
365.0058897695864
 21
152.8986297955284
 31
0.0
  0
LINE
  5
5EF0B9BE
330
5EF092C1
100
AcDbEntity
  8
JISSEN
100
AcDbLine
 10
365.0058897695864
 20
198.3986297955284
 30
0.0
 11
365.0058897695864
 21
152.8986297955284
 31
0.0
  0
LINE
  5
5EF0B9BF
330
5EF092C1
100
AcDbEntity
  8
JISSEN
100
AcDbLine
 10
73.00588976958739
 20
198.398629795526
 30
0.0
 11
73.00588976958829
 21
152.898629795526
 31
0.0
  0
LINE
  5
5EF0B9C0
330
5EF092C1
100
AcDbEntity
  8
JISSEN
100
AcDbLine
 10
73.0058897695892
 20
107.398629795526
 30
0.0
 11
73.00588976958829
 21
152.898629795526
 31
0.0
  0
LINE
  5
5EF0B9C1
330
5EF092C1
100
AcDbEntity
  8
JISSEN
100
AcDbLine
 10
73.0058897695892
 20
107.398629795526
 30
0.0
 11
74.00588976959102
 21
106.3986297955241
 31
0.0
  0
LINE
  5
5EF0B9C2
330
5EF092C1
100
AcDbEntity
  8
JISSEN
100
AcDbLine
 10
73.00588976958739
 20
198.398629795526
 30
0.0
 11
74.00588976958534
 21
199.3986297955237
 31
0.0
  0
CIRCLE
  5
5EF0BB25
330
5EF092C1
100
AcDbEntity
  8
JISSEN
100
AcDbCircle
 10
278.761642630713
 20
476.3028848777008
 30
0.0
 40
9.0
  0
LWPOLYLINE
  5
5EF0BB26
330
5EF092C1
100
AcDbEntity
  8
JISSEN
100
AcDbPolyline
 90
        6
 70
     1
 43
0.0
 10
283.9577950534195
 20
485.3028848777007
 10
273.5654902080063
 20
485.3028848777007
 10
268.3693377852998
 20
476.3028848777008
 10
273.5654902080063
 20
467.3028848777008
 10
283.9577950534195
 20
467.3028848777008
 10
289.1539474761263
 20
476.3028848777008
  0
LWPOLYLINE
  5
5EF0BB31
330
5EF092C1
100
AcDbEntity
  8
JISSEN
100
AcDbPolyline
 90
        6
 70
     1
 43
0.0
 10
213.8097373468799
 20
519.8028848777003
 10
208.6135849241733
 20
510.8028848777003
 10
213.8097373468799
 20
501.8028848777003
 10
224.202042192293
 20
501.8028848777003
 10
229.3981946149999
 20
510.8028848777003
 10
224.202042192293
 20
519.8028848777003
  0
CIRCLE
  5
5EF0BB32
330
5EF092C1
100
AcDbEntity
  8
JISSEN
100
AcDbCircle
 10
219.0058897695866
 20
510.8028848777003
 30
0.0
 40
9.0
  0
LWPOLYLINE
  5
5EF0BB33
330
5EF092C1
100
AcDbEntity
  8
JISSEN
100
AcDbPolyline
 90
        6
 70
     1
 43
0.0
 10
148.8578320630473
 20
476.3028848776998
 10
154.0539844857538
 20
467.3028848776998
 10
164.4462893311669
 20
467.3028848776998
 10
169.6424417538739
 20
476.3028848776998
 10
164.4462893311669
 20
485.3028848776998
 10
154.0539844857538
 20
485.3028848776998
  0
CIRCLE
  5
5EF0BB34
330
5EF092C1
100
AcDbEntity
  8
JISSEN
100
AcDbCircle
 10
159.2501369084606
 20
476.3028848776999
 30
0.0
 40
9.0
  0
LWPOLYLINE
  5
5EF0BB35
330
5EF092C1
100
AcDbEntity
  8
JISSEN
100
AcDbPolyline
 90
        6
 70
     1
 43
0.0
 10
154.0539844857546
 20
398.3028848776999
 10
164.4462893311676
 20
398.3028848776999
 10
169.6424417538744
 20
407.3028848776997
 10
164.4462893311676
 20
416.3028848776999
 10
154.0539844857546
 20
416.3028848776999
 10
148.8578320630479
 20
407.3028848776997
  0
CIRCLE
  5
5EF0BB36
330
5EF092C1
100
AcDbEntity
  8
JISSEN
100
AcDbCircle
 10
159.250136908461
 20
407.3028848776997
 30
0.0
 40
9.0
  0
LWPOLYLINE
  5
5EF0BB37
330
5EF092C1
100
AcDbEntity
  8
JISSEN
100
AcDbPolyline
 90
        6
 70
     1
 43
0.0
 10
224.202042192294
 20
363.8028848777003
 10
229.3981946150008
 20
372.8028848777003
 10
224.202042192294
 20
381.8028848777003
 10
213.8097373468808
 20
381.8028848777003
 10
208.6135849241743
 20
372.8028848777003
 10
213.8097373468808
 20
363.8028848777003
  0
CIRCLE
  5
5EF0BB38
330
5EF092C1
100
AcDbEntity
  8
JISSEN
100
AcDbCircle
 10
219.0058897695875
 20
372.8028848777006
 30
0.0
 40
9.0
  0
LWPOLYLINE
  5
5EF0BB39
330
5EF092C1
100
AcDbEntity
  8
JISSEN
100
AcDbPolyline
 90
        6
 70
     1
 43
0.0
 10
289.1539474761268
 20
407.3028848777008
 10
283.9577950534201
 20
416.3028848777008
 10
273.565490208007
 20
416.3028848777008
 10
268.3693377853003
 20
407.3028848777008
 10
273.565490208007
 20
398.3028848777008
 10
283.9577950534201
 20
398.3028848777008
  0
CIRCLE
  5
5EF0BB3A
330
5EF092C1
100
AcDbEntity
  8
JISSEN
100
AcDbCircle
 10
278.7616426307136
 20
407.3028848777008
 30
0.0
 40
9.0
  0
LINE
  5
5EF0BCF7
330
5EF092C1
100
AcDbEntity
  8
JISSEN
100
AcDbLine
 10
293.6624773588226
 20
392.3021758677096
 30
0.0
 11
308.0058897695871
 21
392.3021758677088
 31
0.0
  0
ARC
  5
5EF0BCF8
330
5EF092C1
100
AcDbEntity
  8
JISSEN
100
AcDbCircle
 10
308.0058897695871
 20
387.3021758677096
 30
0.0
 40
5.0
100
AcDbArc
 50
359.9999999999998
 51
89.9999999999971
  0
LINE
  5
5EF0BCF9
330
5EF092C1
100
AcDbEntity
  8
JISSEN
100
AcDbLine
 10
313.0058897695871
 20
387.3021758677096
 30
0.0
 11
313.0058897695871
 21
382.8028848776995
 31
0.0
  0
ARC
  5
5EF0BD3D
330
5EF092C1
100
AcDbEntity
  8
JISSEN
100
AcDbCircle
 10
340.0058897695851
 20
375.8028848776985
 30
0.0
 40
5.0
100
AcDbArc
 50
359.9999999999991
 51
89.99999999999898
  0
ARC
  5
5EF0BD54
330
5EF092C1
100
AcDbEntity
  8
JISSEN
100
AcDbCircle
 10
98.00588976958806
 20
375.8028848776985
 30
0.0
 40
5.0
100
AcDbArc
 50
90.00000000000101
 51
180.0000000000006
  0
LINE
  5
5EF0BD87
330
5EF092C1
100
AcDbEntity
  8
JISSEN
100
AcDbLine
 10
125.0058897695859
 20
387.3021758677096
 30
0.0
 11
125.0058897695859
 21
382.8028848776995
 31
0.0
  0
ARC
  5
5EF0BD88
330
5EF092C1
100
AcDbEntity
  8
JISSEN
100
AcDbCircle
 10
130.0058897695862
 20
387.3021758677096
 30
0.0
 40
5.0
100
AcDbArc
 50
90.00000000000289
 51
180.0
  0
LINE
  5
5EF0BD89
330
5EF092C1
100
AcDbEntity
  8
JISSEN
100
AcDbLine
 10
144.3493021803504
 20
392.3021758677096
 30
0.0
 11
130.0058897695862
 21
392.3021758677088
 31
0.0
  0
LINE
  5
5EF0BD8A
330
5EF092C1
100
AcDbEntity
  8
JISSEN
100
AcDbLine
 10
73.00588976958716
 20
487.3028848777013
 30
0.0
 11
74.00588976958487
 21
488.3028848776992
 31
0.0
  0
LINE
  5
5EF0BD8B
330
5EF092C1
100
AcDbEntity
  8
JISSEN
100
AcDbLine
 10
73.00588976958716
 20
396.3028848777013
 30
0.0
 11
74.00588976958896
 21
395.3028848776992
 31
0.0
  0
LINE
  5
5EF0BD8C
330
5EF092C1
100
AcDbEntity
  8
JISSEN
100
AcDbLine
 10
73.00588976958716
 20
396.3028848777013
 30
0.0
 11
73.00588976958716
 21
441.8028848777013
 31
0.0
  0
LINE
  5
5EF0BD8D
330
5EF092C1
100
AcDbEntity
  8
JISSEN
100
AcDbLine
 10
73.00588976958716
 20
487.3028848777013
 30
0.0
 11
73.00588976958716
 21
441.8028848777013
 31
0.0
  0
ARC
  5
5EF0BD94
330
5EF092C1
100
AcDbEntity
  8
JISSEN
100
AcDbCircle
 10
123.0058897695817
 20
500.802884877695
 30
0.0
 40
2.0
100
AcDbArc
 50
0.0000000000035692
 51
90.00000000000261
  0
LINE
  5
5EF0BD95
330
5EF092C1
100
AcDbEntity
  8
JISSEN
100
AcDbLine
 10
125.0058897695817
 20
496.3035938876855
 30
0.0
 11
125.0058897695817
 21
500.8028848776958
 31
0.0
  0
ARC
  5
5EF0BD96
330
5EF092C1
100
AcDbEntity
  8
JISSEN
100
AcDbCircle
 10
130.0058897695814
 20
496.3035938876863
 30
0.0
 40
5.0
100
AcDbArc
 50
180.0000000000035
 51
270.0000000000009
  0
LINE
  5
5EF0BD97
330
5EF092C1
100
AcDbEntity
  8
JISSEN
100
AcDbLine
 10
76.00588976958715
 20
354.3028848777003
 30
0.0
 11
91.00588976958716
 21
354.3028848777003
 31
0.0
  0
LINE
  5
5EF0BD98
330
5EF092C1
100
AcDbEntity
  8
JISSEN
100
AcDbLine
 10
76.00588976958715
 20
529.3028848777002
 30
0.0
 11
91.00588976958716
 21
529.3028848777002
 31
0.0
  0
LINE
  5
5EF0BD99
330
5EF092C1
100
AcDbEntity
  8
JISSEN
100
AcDbLine
 10
144.3493021803494
 20
491.3035938876911
 30
0.0
 11
130.0058897695814
 21
491.3035938876911
 31
0.0
  0
LINE
  5
5EF0BD9A
330
5EF092C1
100
AcDbEntity
  8
JISSEN
100
AcDbLine
 10
93.00588976958716
 20
441.8028848777006
 30
0.0
 11
93.00588976958716
 21
356.3028848777003
 31
0.0
  0
LINE
  5
5EF0BD9B
330
5EF092C1
100
AcDbEntity
  8
JISSEN
100
AcDbLine
 10
93.00588976958716
 20
441.8028848777006
 30
0.0
 11
93.00588976958716
 21
527.3028848777003
 31
0.0
  0
ARC
  5
5EF0BD9C
330
5EF092C1
100
AcDbEntity
  8
JISSEN
100
AcDbCircle
 10
91.00588976958716
 20
527.3028848777003
 30
0.0
 40
2.0
100
AcDbArc
 50
0.0000000000004141
 51
90.00000000000094
  0
ARC
  5
5EF0BD9D
330
5EF092C1
100
AcDbEntity
  8
JISSEN
100
AcDbCircle
 10
91.00588976958716
 20
356.3028848777003
 30
0.0
 40
2.0
100
AcDbArc
 50
269.999999999999
 51
0.000000000000007
  0
LINE
  5
5EF0BD9E
330
5EF092C1
100
AcDbEntity
  8
JISSEN
100
AcDbLine
 10
76.00588976958715
 20
529.3028848777002
 30
0.0
 11
74.00588976958715
 21
527.3028848777003
 31
0.0
  0
LINE
  5
5EF0BD9F
330
5EF092C1
100
AcDbEntity
  8
JISSEN
100
AcDbLine
 10
74.00588976958715
 20
356.3028848777013
 30
0.0
 11
76.00588976958715
 21
354.3028848777003
 31
0.0
  0
LINE
  5
5EF0BDA0
330
5EF092C1
100
AcDbEntity
  8
JISSEN
100
AcDbLine
 10
123.0058897695817
 20
502.8028848777004
 30
0.0
 11
98.00588976958716
 21
502.8028848777004
 31
0.0
  0
ARC
  5
5EF0BDA1
330
5EF092C1
100
AcDbEntity
  8
JISSEN
100
AcDbCircle
 10
98.00588976958716
 20
507.8028848777004
 30
0.0
 40
5.0
100
AcDbArc
 50
180.0
 51
270.0
  0
LINE
  5
5EF0BDA2
330
5EF092C1
100
AcDbEntity
  8
JISSEN
100
AcDbLine
 10
74.00588976958715
 20
441.8028848776939
 30
0.0
 11
74.0058897695835
 21
527.3028848776931
 31
0.0
  0
LINE
  5
5EF0BDA3
330
5EF092C1
100
AcDbEntity
  8
JISSEN
100
AcDbLine
 10
74.00588976958715
 20
441.8028848776939
 30
0.0
 11
74.00588976959079
 21
356.3028848776939
 31
0.0
  0
ARC
  5
5EF0BDA4
330
5EF092C1
100
AcDbEntity
  8
JISSEN
100
AcDbCircle
 10
111.005889769587
 20
507.8028848777004
 30
0.0
 40
32.99999999999954
100
AcDbArc
 50
248.6763137365017
 51
291.3236862634981
  0
ARC
  5
5EF0BDA5
330
5EF092C1
100
AcDbEntity
  8
JISSEN
100
AcDbCircle
 10
111.005889769587
 20
375.8028848777021
 30
0.0
 40
32.99999999999954
100
AcDbArc
 50
68.6763137365018
 51
111.3236862634982
  0
ARC
  5
5EF0BDB0
330
5EF092C1
100
AcDbEntity
  8
JISSEN
100
AcDbCircle
 10
219.0058897695871
 20
481.8028848777003
 30
0.0
 40
114.0
100
AcDbArc
 50
233.6644866171111
 51
239.6730219032474
  0
ARC
  5
5EF0BDB1
330
5EF092C1
100
AcDbEntity
  8
JISSEN
100
AcDbCircle
 10
144.3493021803494
 20
380.3021758677106
 30
0.0
 40
12.0
100
AcDbArc
 50
53.66448661711069
 51
90.00000000000216
  0
ARC
  5
5EF0BDB2
330
5EF092C1
100
AcDbEntity
  8
JISSEN
100
AcDbCircle
 10
144.3493021803494
 20
503.3035938876911
 30
0.0
 40
12.0
100
AcDbArc
 50
269.9999999999978
 51
306.3355133828888
  0
ARC
  5
5EF0BDB3
330
5EF092C1
100
AcDbEntity
  8
JISSEN
100
AcDbCircle
 10
219.0058897695871
 20
401.8028848777013
 30
0.0
 40
114.0
100
AcDbArc
 50
120.3269780967527
 51
126.3355133828886
  0
ARC
  5
5EF0BE09
330
5EF092C1
100
AcDbEntity
  8
JISSEN
100
AcDbCircle
 10
599.0919530155931
 20
152.8986297955284
 30
0.0
 40
87.5
100
AcDbArc
 50
90.0
 51
270.0
  0
CIRCLE
  5
5EF0BE0A
330
5EF092C1
100
AcDbEntity
  8
JISSEN
100
AcDbCircle
 10
549.5944783325353
 20
202.3961044785861
 30
0.0
 40
9.5
  0
CIRCLE
  5
5EF0BE0B
330
5EF092C1
100
AcDbEntity
  8
JISSEN
100
AcDbCircle
 10
549.5944783325353
 20
103.4011551124691
 30
0.0
 40
9.5
  0
ARC
  5
5EF0BE0C
330
5EF092C1
100
AcDbEntity
  8
JISSEN
100
AcDbCircle
 10
519.0919530155895
 20
238.8986297955276
 30
0.0
 40
2.0
100
AcDbArc
 50
180.0
 51
270.0000000000009
  0
LINE
  5
5EF0BE0D
330
5EF092C1
100
AcDbEntity
  8
JISSEN
100
AcDbLine
 10
519.0919530155895
 20
236.8986297955276
 30
0.0
 11
574.5919530155922
 21
236.898629795528
 31
0.0
  0
ARC
  5
5EF0BE0E
330
5EF092C1
100
AcDbEntity
  8
JISSEN
100
AcDbCircle
 10
524.5919530155894
 20
226.8986297955275
 30
0.0
 40
10.0
100
AcDbArc
 50
0.0000000000000833
 51
90.00000000000083
  0
LINE
  5
5EF0BE0F
330
5EF092C1
100
AcDbEntity
  8
JISSEN
100
AcDbLine
 10
534.5919530155895
 20
226.8986297955275
 30
0.0
 11
534.5919530155895
 21
212.0256117919026
 31
0.0
  0
ARC
  5
5EF0BE10
330
5EF092C1
100
AcDbEntity
  8
JISSEN
100
AcDbCircle
 10
599.0919530155931
 20
152.8986297955284
 30
0.0
 40
47.5
100
AcDbArc
 50
89.99999999999962
 51
270.0
  0
ARC
  5
5EF0BE11
330
5EF092C1
100
AcDbEntity
  8
JISSEN
100
AcDbCircle
 10
599.0919530155931
 20
152.8986297955284
 30
0.0
 40
45.49999999999999
100
AcDbArc
 50
89.99999999999962
 51
270.0
  0
ARC
  5
5EF0BE12
330
5EF092C1
100
AcDbEntity
  8
JISSEN
100
AcDbCircle
 10
599.0919530155931
 20
152.8986297955284
 30
0.0
 40
35.0
100
AcDbArc
 50
89.99999999999962
 51
270.0
  0
ARC
  5
5EF0BE13
330
5EF092C1
100
AcDbEntity
  8
SCALE
100
AcDbCircle
 10
592.2624064428505
 20
155.39862979598
 30
0.0
 40
27.0
100
AcDbArc
 50
159.7035791392449
 51
168.0960064229074
  0
ARC
  5
5EF0BE14
330
5EF092C1
100
AcDbEntity
  8
JISSEN
100
AcDbCircle
 10
568.7836926791027
 20
143.3986297959808
 30
0.0
 40
3.0
100
AcDbArc
 50
232.0511659956169
 51
265.4781854995125
  0
ARC
  5
5EF0BE15
330
5EF092C1
100
AcDbEntity
  8
SCALE
100
AcDbCircle
 10
592.2624064428505
 20
150.3986297959803
 30
0.0
 40
27.0
100
AcDbArc
 50
191.9039935786444
 51
200.2964208607543
  0
LINE
  5
5EF0BE16
330
5EF092C1
100
AcDbEntity
  8
SCALE
100
AcDbLine
 10
565.843051971073
 20
144.8292753186134
 30
0.0
 11
565.8430519708542
 21
160.96798427231
 31
0.0
  0
ARC
  5
5EF0BE17
330
5EF092C1
100
AcDbEntity
  8
JISSEN
100
AcDbCircle
 10
568.7836926791027
 20
162.3986297959801
 30
0.0
 40
3.0
100
AcDbArc
 50
94.52181449317148
 51
127.9488340043815
  0
ARC
  5
5EF0BE18
330
5EF092C1
100
AcDbEntity
  8
JISSEN
100
AcDbCircle
 10
599.0919530155931
 20
152.8986297955284
 30
0.0
 40
33.0
100
AcDbArc
 50
89.99999999999962
 51
164.9999999999998
  0
ARC
  5
5EF0BE19
330
5EF092C1
100
AcDbEntity
  8
JISSEN
100
AcDbCircle
 10
600.5882725111209
 20
152.9486297950094
 30
0.0
 40
34.39999999999999
100
AcDbArc
 50
164.7978559070506
 51
170.6439447617204
  0
LINE
  5
5EF0BE1A
330
5EF092C1
100
AcDbEntity
  8
JISSEN
100
AcDbLine
 10
566.6458909195949
 20
158.5410113892164
 30
0.0
 11
566.6458909195737
 21
147.35624820093
 31
0.0
  0
ARC
  5
5EF0BE1B
330
5EF092C1
100
AcDbEntity
  8
JISSEN
100
AcDbCircle
 10
600.5882725111209
 20
152.9486297950094
 30
0.0
 40
34.39999999999999
100
AcDbArc
 50
189.356055238064
 51
195.2021440903983
  0
ARC
  5
5EF0BE1C
330
5EF092C1
100
AcDbEntity
  8
JISSEN
 48
0.5
100
AcDbCircle
 10
584.8660065322953
 20
143.8672725809954
 30
0.0
 40
5.0
100
AcDbArc
 50
83.31208629568541
 51
149.9999999999998
  0
ARC
  5
5EF0BE1D
330
5EF092C1
100
AcDbEntity
  8
JISSEN
 48
0.5
100
AcDbCircle
 10
584.8660065322953
 20
162.0299870100601
 30
0.0
 40
5.0
100
AcDbArc
 50
209.9999999999995
 51
276.6879137043134
  0
LINE
  5
5EF0BE1E
330
5EF092C1
100
AcDbEntity
  8
JISSEN
100
AcDbLine
 10
597.0919530155932
 20
156.4486297938093
 30
0.0
 11
595.6844752742926
 21
157.8561075351103
 31
0.0
  0
ARC
  5
5EF0BE1F
330
5EF092C1
100
AcDbEntity
  8
JISSEN
 48
0.5
100
AcDbCircle
 10
575.6753738349721
 20
147.9486297955283
 30
0.0
 40
5.0
100
AcDbArc
 50
270.0
 51
330.0
  0
ARC
  5
5EF0BE20
330
5EF092C1
100
AcDbEntity
  8
JISSEN
 48
0.5
100
AcDbCircle
 10
575.6753738349721
 20
157.9486297955277
 30
0.0
 40
5.0
100
AcDbArc
 50
29.99999999999996
 51
89.99999999999969
  0
LINE
  5
5EF0BE21
330
5EF092C1
100
AcDbEntity
  8
ASSIST
100
AcDbLine
 10
580.5358795133733
 20
159.52998701006
 30
0.0
 11
580.0055008538943
 21
160.4486297955275
 31
0.0
  0
LINE
  5
5EF0BE22
330
5EF092C1
100
AcDbEntity
  8
ASSIST
100
AcDbLine
 10
580.0055008538943
 20
145.4486297955279
 30
0.0
 11
580.5358795133725
 21
146.3672725809954
 31
0.0
  0
LINE
  5
5EF0BE23
330
5EF092C1
100
AcDbEntity
  8
JISSEN
 48
0.5
100
AcDbLine
 10
575.6753738349721
 20
162.9486297955274
 30
0.0
 11
569.6095587473729
 21
162.9486297955274
 31
0.0
  0
LINE
  5
5EF0BE24
330
5EF092C1
100
AcDbEntity
  8
JISSEN
100
AcDbLine
 10
601.0919530155932
 20
156.4486297938093
 30
0.0
 11
597.0919530155932
 21
156.4486297938093
 31
0.0
  0
LINE
  5
5EF0BE25
330
5EF092C1
100
AcDbEntity
  8
JISSEN
100
AcDbLine
 10
596.5424690448521
 20
149.4542675591875
 30
0.0
 11
596.5424690448521
 21
148.0116009149489
 31
0.0
  0
ARC
  5
5EF0BE27
330
5EF092C1
100
AcDbEntity
  8
JISSEN
100
AcDbCircle
 10
569.6095587473729
 20
145.9486297955279
 30
0.0
 40
3.0
100
AcDbArc
 50
222.3390665910951
 51
269.9999999999989
  0
LINE
  5
5EF0BE28
330
5EF092C1
100
AcDbEntity
  8
JISSEN
 48
0.5
100
AcDbLine
 10
575.6753738349721
 20
142.9486297955279
 30
0.0
 11
569.6095587473729
 21
142.9486297955279
 31
0.0
  0
ARC
  5
5EF0BE29
330
5EF092C1
100
AcDbEntity
  8
JISSEN
100
AcDbCircle
 10
569.6095587473729
 20
159.9486297955275
 30
0.0
 40
3.0
100
AcDbArc
 50
89.99999999999976
 51
137.6609333975181
  0
ARC
  5
5EF0BE2A
330
5EF092C1
100
AcDbEntity
  8
JISSEN
100
AcDbCircle
 10
599.0919530155931
 20
152.8986297955284
 30
0.0
 40
33.0
100
AcDbArc
 50
195.0
 51
270.0000000000004
  0
LINE
  5
5EF0BE2B
330
5EF092C1
100
AcDbEntity
  8
JISSEN
100
AcDbLine
 10
599.0919530155931
 20
151.8986297955285
 30
0.0
 11
569.6458909195762
 21
151.8986297955284
 31
0.0
  0
LINE
  5
5EF0BE2C
330
5EF092C1
100
AcDbEntity
  8
JISSEN
100
AcDbLine
 10
599.0919530155931
 20
153.8986297955284
 30
0.0
 11
569.6458909195918
 21
153.8986297955284
 31
0.0
  0
ARC
  5
5EF0BE2D
330
5EF092C1
100
AcDbEntity
  8
JISSEN
100
AcDbCircle
 10
569.6458909195918
 20
156.8986297955284
 30
0.0
 40
3.0
100
AcDbArc
 50
179.9999999998922
 51
270.0
  0
ARC
  5
5EF0BE2E
330
5EF092C1
100
AcDbEntity
  8
JISSEN
100
AcDbCircle
 10
569.6458909195762
 20
148.8986297955285
 30
0.0
 40
3.0
100
AcDbArc
 50
90.0000000000001
 51
179.9999999998922
  0
LINE
  5
5EF0BE2F
330
5EF092C1
100
AcDbEntity
  8
SAISEN
100
AcDbLine
 39
960.208308198174
 10
597.255030503376
 20
65.41791354512219
 30
0.0
 11
585.6569241730501
 21
55.05862979552751
 31
0.0
  0
LINE
  5
5EF0BE30
330
5EF092C1
100
AcDbEntity
  8
SAISEN
100
AcDbLine
 39
960.208308198174
 10
586.4949092457982
 20
66.31015199240585
 30
0.0
 11
599.0919530155931
 21
55.05862979552751
 31
0.0
  0
LINE
  5
5EF0BE31
330
5EF092C1
100
AcDbEntity
  8
JISSEN
100
AcDbLine
 39
960.208308198174
 10
585.6569241730501
 20
55.05862979552751
 30
0.0
 11
585.6569241730535
 21
66.4362102133764
 31
0.0
  0
ARC
  5
5EF0BE33
330
5EF092C1
100
AcDbEntity
  8
JISSEN
 48
0.5
100
AcDbCircle
 10
600.5882725111137
 20
27.94862979552771
 30
0.0
 40
130.0
100
AcDbArc
 50
90.65949757723506
 51
101.7603054125745
  0
ARC
  5
5EF0BE34
330
5EF092C1
100
AcDbEntity
  8
JISSEN
 48
0.5
100
AcDbCircle
 10
600.5882725111145
 20
277.9486297955276
 30
0.0
 40
130.0
100
AcDbArc
 50
258.239694587425
 51
269.3405024227645
  0
LINE
  5
5EF0BE35
330
5EF092C1
100
AcDbEntity
  8
SCALE
100
AcDbLine
 10
601.6414369863269
 20
149.4542675591875
 30
0.0
 11
596.5424690448521
 21
149.4542675591875
 31
0.0
  0
LINE
  5
5EF0BE38
330
5EF092C1
100
AcDbEntity
  8
SCALE
100
AcDbLine
 10
599.0919530155931
 20
55.05862979552751
 30
0.0
 11
599.0919530155933
 21
65.39862979552856
 31
0.0
  0
ARC
  5
5EF0BE74
330
5EF092C1
100
AcDbEntity
  8
JISSEN
100
AcDbCircle
 39
960.208308198174
 10
312.3776355025263
 20
379.1028848776986
 30
480.104154099087
 40
0.5
100
AcDbArc
 50
90.0
 51
270.0
  0
ARC
  5
5EF0BE75
330
5EF092C1
100
AcDbEntity
  8
JISSEN
100
AcDbCircle
 39
960.208308198174
 10
305.7892095290325
 20
379.1028848776986
 30
480.104154099087
 40
0.5
100
AcDbArc
 50
90.0
 51
270.0
  0
ARC
  5
5EF0BE76
330
5EF092C1
100
AcDbEntity
  8
JISSEN
100
AcDbCircle
 39
960.208308198174
 10
311.1550414872453
 20
379.1028848776986
 30
480.104154099087
 40
0.5
100
AcDbArc
 50
270.0
 51
90.0
  0
ARC
  5
5EF0BE77
330
5EF092C1
100
AcDbEntity
  8
JISSEN
100
AcDbCircle
 39
960.208308198174
 10
338.2558897655822
 20
379.1028848776986
 30
480.104154099087
 40
0.5
100
AcDbArc
 50
270.0
 51
90.0
  0
LINE
  5
5EF0BE78
330
5EF092C1
100
AcDbEntity
  8
JISSEN
100
AcDbLine
 10
322.2558897695865
 20
375.1028848776988
 30
0.0
 11
322.2558897695865
 21
374.9028848776985
 31
0.0
  0
LINE
  5
5EF0BE79
330
5EF092C1
100
AcDbEntity
  8
JISSEN
100
AcDbLine
 10
331.755889769587
 20
375.1028848776984
 30
0.0
 11
331.7558897695874
 21
374.902884877698
 31
0.0
  0
LINE
  5
5EF0BE7A
330
5EF092C1
100
AcDbEntity
  8
JISSEN
100
AcDbLine
 39
960.208308198174
 10
319.3664695853279
 20
374.9028848776985
 30
480.104154099087
 11
333.2558897695901
 21
374.9028848776978
 31
480.104154099087
  0
LINE
  5
5EF0BE7B
330
5EF092C1
100
AcDbEntity
  8
JISSEN
100
AcDbLine
 39
960.208308198174
 10
330.0058897695897
 20
365.8028848818261
 30
480.104154099087
 11
332.0058897655822
 21
365.8028848776975
 31
480.104154099087
  0
LINE
  5
5EF0BE7C
330
5EF092C1
100
AcDbEntity
  8
JISSEN
100
AcDbLine
 39
960.208308198174
 10
324.0058897793705
 20
365.8028848776982
 30
480.104154099087
 11
322.005889773596
 21
365.8028848776982
 31
480.104154099087
  0
LINE
  5
5EF0BE7D
330
5EF092C1
100
AcDbEntity
  8
JISSEN
100
AcDbLine
 39
960.208308198174
 10
307.2944500564125
 20
379.6028848776996
 30
0.0
 11
307.294450056412
 21
382.8028848776992
 31
0.0
  0
LINE
  5
5EF0BE7E
330
5EF092C1
100
AcDbEntity
  8
JISSEN
100
AcDbLine
 39
960.208308198174
 10
339.5058897695901
 20
379.6028848776982
 30
480.104154099087
 11
339.5058897695901
 21
382.8028848776982
 31
480.104154099087
  0
LINE
  5
5EF0BE7F
330
5EF092C1
100
AcDbEntity
  8
JISSEN
100
AcDbLine
 39
960.208308198174
 10
304.0058897695868
 20
379.6028848776991
 30
0.0
 11
304.0058897695868
 21
382.8028848776996
 31
0.0
  0
LINE
  5
5EF0BE80
330
5EF092C1
100
AcDbEntity
  8
JISSEN
100
AcDbLine
 39
960.208308198174
 10
306.5058897695866
 20
379.6028848776996
 30
0.0
 11
306.5058897695861
 21
381.6028848776998
 31
0.0
  0
LINE
  5
5EF0BE81
330
5EF092C1
100
AcDbEntity
  8
JISSEN
100
AcDbLine
 10
307.2944500564116
 20
381.6028848776998
 30
0.0
 11
306.5058897695861
 21
381.6028848776998
 31
0.0
  0
LINE
  5
5EF0BE82
330
5EF092C1
100
AcDbEntity
  8
JISSEN
100
AcDbLine
 10
323.0058897735961
 20
364.8028848776982
 30
480.104154099087
 11
331.0058897655823
 21
364.8028848776978
 31
480.104154099087
  0
LINE
  5
5EF0BE83
330
5EF092C1
100
AcDbEntity
  8
JISSEN
100
AcDbLine
 10
322.005889773596
 20
365.8028848776982
 30
480.104154099087
 11
322.0058897735956
 21
373.9028848776982
 31
480.104154099087
  0
LINE
  5
5EF0BE84
330
5EF092C1
100
AcDbEntity
  8
JISSEN
100
AcDbLine
 10
332.0058897655822
 20
365.8028848776975
 30
480.104154099087
 11
332.005889765583
 21
373.9028848776985
 31
480.104154099087
  0
LINE
  5
5EF0BE85
330
5EF092C1
100
AcDbEntity
  8
JISSEN
100
AcDbLine
 10
319.3664695853279
 20
373.9028848776982
 30
480.104154099087
 11
333.2558897695907
 21
373.9028848776985
 31
480.104154099087
  0
LINE
  5
5EF0BE86
330
5EF092C1
100
AcDbEntity
  8
JISSEN
100
AcDbLine
 10
330.0058897695888
 20
373.9028848776982
 30
480.104154099087
 11
330.0058897695897
 21
365.8028848776979
 31
480.104154099087
  0
LINE
  5
5EF0BE87
330
5EF092C1
100
AcDbEntity
  8
JISSEN
100
AcDbLine
 10
324.0058897695897
 20
373.9028848776985
 30
480.104154099087
 11
324.0058897695897
 21
365.8028848776982
 31
480.104154099087
  0
LINE
  5
5EF0BE88
330
5EF092C1
100
AcDbEntity
  8
JISSEN
100
AcDbLine
 10
331.0058897655823
 20
364.8028848776978
 30
480.104154099087
 11
332.0058897655822
 21
365.8028848776975
 31
480.104154099087
  0
LINE
  5
5EF0BE89
330
5EF092C1
100
AcDbEntity
  8
JISSEN
100
AcDbLine
 10
323.0058897735961
 20
364.8028848776982
 30
480.104154099087
 11
322.005889773596
 21
365.8028848776982
 31
480.104154099087
  0
LINE
  5
5EF0BE8A
330
5EF092C1
100
AcDbEntity
  8
JISSEN
100
AcDbLine
 10
330.0058897598081
 20
365.8028848776979
 30
480.104154099087
 11
327.6363657802346
 21
364.8028848776981
 31
480.104154099087
  0
LINE
  5
5EF0BE8B
330
5EF092C1
100
AcDbEntity
  8
JISSEN
100
AcDbLine
 10
326.3754137589438
 20
364.8028848776981
 30
480.104154099087
 11
324.0058897793705
 21
365.8028848776982
 31
480.104154099087
  0
LINE
  5
5EF0BE8C
330
5EF092C1
100
AcDbEntity
  8
HATCH
100
AcDbLine
 10
327.477318340272
 20
373.9028848776982
 30
480.104154099087
 11
324.0058897695897
 21
365.8028848818263
 31
480.104154099087
  0
LINE
  5
5EF0BE8D
330
5EF092C1
100
AcDbEntity
  8
HATCH
100
AcDbLine
 10
330.0058897695897
 20
365.8028848818259
 30
480.104154099087
 11
326.5344611989061
 21
373.9028848776982
 31
480.104154099087
  0
LINE
  5
5EF0BE8E
330
5EF092C1
100
AcDbEntity
  8
JISSEN
100
AcDbLine
 10
333.2558897695901
 20
374.9028848776978
 30
480.104154099087
 11
333.2558897695901
 21
373.9028848776982
 31
480.104154099087
  0
LINE
  5
5EF0BE8F
330
5EF092C1
100
AcDbEntity
  8
JISSEN
100
AcDbLine
 10
319.3664695853279
 20
374.9028848776985
 30
480.104154099087
 11
319.3664695853279
 21
373.9028848776988
 31
480.104154099087
  0
LINE
  5
5EF0BE90
330
5EF092C1
100
AcDbEntity
  8
JISSEN
100
AcDbLine
 39
960.208308198174
 10
339.5058897695901
 20
379.6028848776986
 30
480.104154099087
 11
307.294450056412
 21
379.6028848776996
 31
480.104154099087
  0
LINE
  5
5EF0BE91
330
5EF092C1
100
AcDbEntity
  8
JISSEN
100
AcDbLine
 10
338.0058897695882
 20
375.1028848776988
 30
480.104154099087
 11
316.0058897695893
 21
375.1028848776992
 31
480.104154099087
  0
LINE
  5
5EF0BE92
330
5EF092C1
100
AcDbEntity
  8
JISSEN
100
AcDbLine
 10
339.0058897695863
 20
378.6028848776986
 30
0.0
 11
339.0058897695883
 21
376.1028848776986
 31
0.0
  0
LINE
  5
5EF0BE93
330
5EF092C1
100
AcDbEntity
  8
JISSEN
100
AcDbLine
 10
295.0058897695861
 20
376.6028848777001
 30
0.0
 11
295.0058897695866
 21
368.6028848776998
 31
0.0
  0
LINE
  5
5EF0BE94
330
5EF092C1
100
AcDbEntity
  8
JISSEN
100
AcDbLine
 10
297.5058897695861
 20
376.1028848777001
 30
0.0
 11
297.5058897695856
 21
368.6028848776998
 31
0.0
  0
LINE
  5
5EF0BE95
330
5EF092C1
100
AcDbEntity
  8
JISSEN
100
AcDbLine
 10
297.5058897695856
 20
368.6028848776998
 30
0.0
 11
295.0058897695873
 21
368.6028848776998
 31
0.0
  0
ARC
  5
5EF0BE96
330
5EF092C1
100
AcDbEntity
  8
JISSEN
100
AcDbCircle
 10
297.0058897695861
 20
376.6028848777001
 30
0.0
 40
2.0
100
AcDbArc
 50
90.0
 51
179.9999999999988
  0
LINE
  5
5EF0BE97
330
5EF092C1
100
AcDbEntity
  8
JISSEN
100
AcDbLine
 39
960.208308198174
 10
339.0058897695863
 20
378.6028848776993
 30
480.104154099087
 11
315.7558897655825
 21
378.6028848776993
 31
480.104154099087
  0
LINE
  5
5EF0BE98
330
5EF092C1
100
AcDbEntity
  8
JISSEN
100
AcDbLine
 39
960.208308198174
 10
307.294450056412
 20
379.6028848776996
 30
480.104154099087
 11
304.0058897695863
 21
379.6028848776996
 31
480.104154099087
  0
LINE
  5
5EF0BE99
330
5EF092C1
100
AcDbEntity
  8
JISSEN
100
AcDbLine
 10
322.005889773596
 20
378.6028848776993
 30
0.0
 11
297.0058897695861
 21
378.6028848776996
 31
0.0
  0
LINE
  5
5EF0BE9A
330
5EF092C1
100
AcDbEntity
  8
JISSEN
100
AcDbLine
 10
339.0058897695883
 20
376.1028848776985
 30
0.0
 11
297.5058897695851
 21
376.1028848777001
 31
0.0
  0
LINE
  5
5EF0BE9B
330
5EF092C1
100
AcDbEntity
  8
JISSEN
100
AcDbLine
 10
322.005889773596
 20
379.6028848776991
 30
0.0
 11
309.0058897695861
 21
379.6028848776991
 31
0.0
  0
LINE
  5
5EF0BE9C
330
5EF092C1
100
AcDbEntity
  8
JISSEN
100
AcDbLine
 10
316.0058897695888
 20
376.1028848776993
 30
0.0
 11
316.0058897695893
 21
375.1028848776992
 31
0.0
  0
LINE
  5
5EF0BE9D
330
5EF092C1
100
AcDbEntity
  8
JISSEN
100
AcDbLine
 10
338.0058897695901
 20
376.1028848776985
 30
0.0
 11
338.0058897695897
 21
375.1028848776988
 31
0.0
  0
LINE
  5
5EF0BE9E
330
5EF092C1
100
AcDbEntity
  8
JISSEN
100
AcDbLine
 39
960.208308198174
 10
339.5058897695901
 20
382.8028848776982
 30
480.104154099087
 11
304.0058897695868
 21
382.8028848776996
 31
480.104154099087
  0
LINE
  5
5EF0BE9F
330
5EF092C1
100
AcDbEntity
  8
JISSEN
100
AcDbLine
 10
339.9353374170745
 20
382.8028848777019
 30
480.104154099087
 11
339.9353374170745
 21
380.8028848777013
 31
480.104154099087
  0
LINE
  5
5EF0BEA0
330
5EF092C1
100
AcDbEntity
  8
JISSEN
100
AcDbLine
 10
339.9353374170745
 20
382.8028848777019
 30
480.104154099087
 11
332.8058897661402
 21
382.8028848777019
 31
480.104154099087
  0
ARC
  5
5EF0BEA1
330
5EF092C1
100
AcDbEntity
  8
JISSEN
100
AcDbCircle
 39
960.208308198174
 10
125.6341440366449
 20
379.1028848776986
 30
480.104154099087
 40
0.5
100
AcDbArc
 50
270.0
 51
90.0
  0
ARC
  5
5EF0BEA2
330
5EF092C1
100
AcDbEntity
  8
JISSEN
100
AcDbCircle
 39
960.208308198174
 10
132.2225700101389
 20
379.1028848776986
 30
480.104154099087
 40
0.5
100
AcDbArc
 50
270.0
 51
90.0
  0
ARC
  5
5EF0BEA3
330
5EF092C1
100
AcDbEntity
  8
JISSEN
100
AcDbCircle
 39
960.208308198174
 10
126.856738051926
 20
379.1028848776986
 30
480.104154099087
 40
0.5
100
AcDbArc
 50
90.0
 51
270.0
  0
ARC
  5
5EF0BEA4
330
5EF092C1
100
AcDbEntity
  8
JISSEN
100
AcDbCircle
 39
960.208308198174
 10
99.75588977358896
 20
379.1028848776986
 30
480.104154099087
 40
0.5
100
AcDbArc
 50
90.0
 51
270.0
  0
LINE
  5
5EF0BEA5
330
5EF092C1
100
AcDbEntity
  8
JISSEN
100
AcDbLine
 10
115.7558897695847
 20
375.1028848776988
 30
0.0
 11
115.7558897695847
 21
374.9028848776985
 31
0.0
  0
LINE
  5
5EF0BEA6
330
5EF092C1
100
AcDbEntity
  8
JISSEN
100
AcDbLine
 10
106.2558897695844
 20
375.1028848776984
 30
0.0
 11
106.2558897695839
 21
374.902884877698
 31
0.0
  0
LINE
  5
5EF0BEA7
330
5EF092C1
100
AcDbEntity
  8
JISSEN
100
AcDbLine
 39
960.208308198174
 10
118.6453099538434
 20
374.9028848776985
 30
480.104154099087
 11
104.7558897695811
 21
374.9028848776978
 31
480.104154099087
  0
LINE
  5
5EF0BEA8
330
5EF092C1
100
AcDbEntity
  8
JISSEN
100
AcDbLine
 39
960.208308198174
 10
108.0058897695815
 20
365.8028848818261
 30
480.104154099087
 11
106.0058897735889
 21
365.8028848776975
 31
480.104154099087
  0
LINE
  5
5EF0BEA9
330
5EF092C1
100
AcDbEntity
  8
JISSEN
100
AcDbLine
 39
960.208308198174
 10
114.0058897598007
 20
365.8028848776982
 30
480.104154099087
 11
116.005889765575
 21
365.8028848776982
 31
480.104154099087
  0
LINE
  5
5EF0BEAA
330
5EF092C1
100
AcDbEntity
  8
JISSEN
100
AcDbLine
 39
960.208308198174
 10
130.7173294827589
 20
379.6028848776996
 30
0.0
 11
130.7173294827594
 21
382.8028848776992
 31
0.0
  0
LINE
  5
5EF0BEAB
330
5EF092C1
100
AcDbEntity
  8
JISSEN
100
AcDbLine
 39
960.208308198174
 10
98.50588976958125
 20
379.6028848776982
 30
480.104154099087
 11
98.50588976958125
 21
382.8028848776982
 31
480.104154099087
  0
LINE
  5
5EF0BEAC
330
5EF092C1
100
AcDbEntity
  8
JISSEN
100
AcDbLine
 39
960.208308198174
 10
134.0058897695844
 20
379.6028848776991
 30
0.0
 11
134.0058897695844
 21
382.8028848776996
 31
0.0
  0
LINE
  5
5EF0BEAD
330
5EF092C1
100
AcDbEntity
  8
JISSEN
100
AcDbLine
 39
960.208308198174
 10
131.5058897695845
 20
379.6028848776996
 30
0.0
 11
131.5058897695853
 21
381.6028848776998
 31
0.0
  0
LINE
  5
5EF0BEAE
330
5EF092C1
100
AcDbEntity
  8
JISSEN
100
AcDbLine
 10
130.7173294827598
 20
381.6028848776998
 30
0.0
 11
131.5058897695853
 21
381.6028848776998
 31
0.0
  0
LINE
  5
5EF0BEAF
330
5EF092C1
100
AcDbEntity
  8
JISSEN
100
AcDbLine
 10
115.005889765575
 20
364.8028848776982
 30
480.104154099087
 11
107.0058897735889
 21
364.8028848776978
 31
480.104154099087
  0
LINE
  5
5EF0BEB0
330
5EF092C1
100
AcDbEntity
  8
JISSEN
100
AcDbLine
 10
116.005889765575
 20
365.8028848776982
 30
480.104154099087
 11
116.0058897655755
 21
373.9028848776982
 31
480.104154099087
  0
LINE
  5
5EF0BEB1
330
5EF092C1
100
AcDbEntity
  8
JISSEN
100
AcDbLine
 10
106.0058897735889
 20
365.8028848776975
 30
480.104154099087
 11
106.0058897735884
 21
373.9028848776985
 31
480.104154099087
  0
LINE
  5
5EF0BEB2
330
5EF092C1
100
AcDbEntity
  8
JISSEN
100
AcDbLine
 10
118.6453099538434
 20
373.9028848776982
 30
480.104154099087
 11
104.7558897695805
 21
373.9028848776985
 31
480.104154099087
  0
LINE
  5
5EF0BEB3
330
5EF092C1
100
AcDbEntity
  8
JISSEN
100
AcDbLine
 10
108.0058897695826
 20
373.9028848776982
 30
480.104154099087
 11
108.0058897695815
 21
365.8028848776979
 31
480.104154099087
  0
LINE
  5
5EF0BEB4
330
5EF092C1
100
AcDbEntity
  8
JISSEN
100
AcDbLine
 10
114.0058897695817
 20
373.9028848776985
 30
480.104154099087
 11
114.0058897695817
 21
365.8028848776982
 31
480.104154099087
  0
LINE
  5
5EF0BEB5
330
5EF092C1
100
AcDbEntity
  8
JISSEN
100
AcDbLine
 10
107.0058897735889
 20
364.8028848776978
 30
480.104154099087
 11
106.0058897735889
 21
365.8028848776975
 31
480.104154099087
  0
LINE
  5
5EF0BEB6
330
5EF092C1
100
AcDbEntity
  8
JISSEN
100
AcDbLine
 10
115.005889765575
 20
364.8028848776982
 30
480.104154099087
 11
116.005889765575
 21
365.8028848776982
 31
480.104154099087
  0
LINE
  5
5EF0BEB7
330
5EF092C1
100
AcDbEntity
  8
JISSEN
100
AcDbLine
 10
108.0058897793632
 20
365.8028848776979
 30
480.104154099087
 11
110.3754137589367
 21
364.8028848776981
 31
480.104154099087
  0
LINE
  5
5EF0BEB8
330
5EF092C1
100
AcDbEntity
  8
JISSEN
100
AcDbLine
 10
111.6363657802275
 20
364.8028848776981
 30
480.104154099087
 11
114.0058897598007
 21
365.8028848776982
 31
480.104154099087
  0
LINE
  5
5EF0BEB9
330
5EF092C1
100
AcDbEntity
  8
HATCH
100
AcDbLine
 10
110.5344611988994
 20
373.9028848776982
 30
480.104154099087
 11
114.0058897695817
 21
365.8028848818263
 31
480.104154099087
  0
LINE
  5
5EF0BEBA
330
5EF092C1
100
AcDbEntity
  8
HATCH
100
AcDbLine
 10
108.0058897695815
 20
365.8028848818259
 30
480.104154099087
 11
111.4773183402653
 21
373.9028848776982
 31
480.104154099087
  0
LINE
  5
5EF0BEBB
330
5EF092C1
100
AcDbEntity
  8
JISSEN
100
AcDbLine
 10
104.7558897695811
 20
374.9028848776978
 30
480.104154099087
 11
104.7558897695811
 21
373.9028848776982
 31
480.104154099087
  0
LINE
  5
5EF0BEBC
330
5EF092C1
100
AcDbEntity
  8
JISSEN
100
AcDbLine
 10
118.6453099538434
 20
374.9028848776985
 30
480.104154099087
 11
118.6453099538434
 21
373.9028848776988
 31
480.104154099087
  0
LINE
  5
5EF0BEBD
330
5EF092C1
100
AcDbEntity
  8
JISSEN
100
AcDbLine
 39
960.208308198174
 10
98.50588976958125
 20
379.6028848776986
 30
480.104154099087
 11
130.7173294827594
 21
379.6028848776996
 31
480.104154099087
  0
LINE
  5
5EF0BEBE
330
5EF092C1
100
AcDbEntity
  8
JISSEN
100
AcDbLine
 10
100.005889769583
 20
375.1028848776988
 30
480.104154099087
 11
122.0058897695821
 21
375.1028848776992
 31
480.104154099087
  0
LINE
  5
5EF0BEBF
330
5EF092C1
100
AcDbEntity
  8
JISSEN
100
AcDbLine
 10
99.00588976958488
 20
378.6028848776986
 30
0.0
 11
99.00588976958308
 21
376.1028848776986
 31
0.0
  0
LINE
  5
5EF0BEC0
330
5EF092C1
100
AcDbEntity
  8
JISSEN
100
AcDbLine
 10
143.0058897695853
 20
376.6028848777001
 30
0.0
 11
143.0058897695845
 21
368.6028848776998
 31
0.0
  0
LINE
  5
5EF0BEC1
330
5EF092C1
100
AcDbEntity
  8
JISSEN
100
AcDbLine
 10
140.5058897695853
 20
376.1028848777001
 30
0.0
 11
140.5058897695858
 21
368.6028848776998
 31
0.0
  0
LINE
  5
5EF0BEC2
330
5EF092C1
100
AcDbEntity
  8
JISSEN
100
AcDbLine
 10
140.5058897695858
 20
368.6028848776998
 30
0.0
 11
143.0058897695839
 21
368.6028848776998
 31
0.0
  0
ARC
  5
5EF0BEC3
330
5EF092C1
100
AcDbEntity
  8
JISSEN
100
AcDbCircle
 10
141.0058897695853
 20
376.6028848777001
 30
0.0
 40
2.0
100
AcDbArc
 50
0.0000000000010248
 51
90.00000000000184
  0
LINE
  5
5EF0BEC4
330
5EF092C1
100
AcDbEntity
  8
JISSEN
100
AcDbLine
 39
960.208308198174
 10
99.00588976958488
 20
378.6028848776993
 30
480.104154099087
 11
122.2558897735887
 21
378.6028848776993
 31
480.104154099087
  0
LINE
  5
5EF0BEC5
330
5EF092C1
100
AcDbEntity
  8
JISSEN
100
AcDbLine
 39
960.208308198174
 10
130.7173294827594
 20
379.6028848776996
 30
480.104154099087
 11
134.0058897695846
 21
379.6028848776996
 31
480.104154099087
  0
LINE
  5
5EF0BEC6
330
5EF092C1
100
AcDbEntity
  8
JISSEN
100
AcDbLine
 10
116.005889765575
 20
378.6028848776993
 30
0.0
 11
141.0058897695853
 21
378.6028848776996
 31
0.0
  0
LINE
  5
5EF0BEC7
330
5EF092C1
100
AcDbEntity
  8
JISSEN
100
AcDbLine
 10
99.00588976958308
 20
376.1028848776985
 30
0.0
 11
140.5058897695862
 21
376.1028848777001
 31
0.0
  0
LINE
  5
5EF0BEC8
330
5EF092C1
100
AcDbEntity
  8
JISSEN
100
AcDbLine
 10
116.005889765575
 20
379.6028848776991
 30
0.0
 11
129.0058897695853
 21
379.6028848776991
 31
0.0
  0
LINE
  5
5EF0BEC9
330
5EF092C1
100
AcDbEntity
  8
JISSEN
100
AcDbLine
 10
122.0058897695824
 20
376.1028848776993
 30
0.0
 11
122.0058897695821
 21
375.1028848776992
 31
0.0
  0
LINE
  5
5EF0BECA
330
5EF092C1
100
AcDbEntity
  8
JISSEN
100
AcDbLine
 10
100.0058897695809
 20
376.1028848776985
 30
0.0
 11
100.0058897695815
 21
375.1028848776988
 31
0.0
  0
LINE
  5
5EF0BECB
330
5EF092C1
100
AcDbEntity
  8
JISSEN
100
AcDbLine
 39
960.208308198174
 10
98.50588976958125
 20
382.8028848776982
 30
480.104154099087
 11
134.0058897695844
 21
382.8028848776996
 31
480.104154099087
  0
LINE
  5
5EF0BECC
330
5EF092C1
100
AcDbEntity
  8
JISSEN
100
AcDbLine
 10
98.07644212209698
 20
382.8028848777019
 30
480.104154099087
 11
98.07644212209698
 21
380.8028848777013
 31
480.104154099087
  0
LINE
  5
5EF0BECD
330
5EF092C1
100
AcDbEntity
  8
JISSEN
100
AcDbLine
 10
98.07644212209698
 20
382.8028848777019
 30
480.104154099087
 11
105.2058897730312
 21
382.8028848777019
 31
480.104154099087
  0
LINE
  5
5EF0BED5
330
5EF092C1
100
AcDbEntity
  8
ITTEN
 48
5.0
100
AcDbLine
 10
63.00588976958716
 20
441.8028848777013
 30
0.0
 11
375.0058897695861
 21
441.8028848777013
 31
0.0
  0
LINE
  5
5EF0BED7
330
5EF092C1
100
AcDbEntity
  8
ITTEN
 48
5.0
100
AcDbLine
 10
219.0058897695862
 20
533.8028848777006
 30
0.0
 11
219.0058897695862
 21
349.8028848777008
 31
0.0
  0
LINE
  5
5EF0BED9
330
5EF092C1
100
AcDbEntity
  8
ITTEN
 48
5.0
100
AcDbLine
 10
63.00588976958716
 20
152.8986297955283
 30
0.0
 11
375.0058897695861
 21
152.8986297955279
 31
0.0
  0
LINE
  5
5EF0BEDA
330
5EF092C1
100
AcDbEntity
  8
ITTEN
 48
5.0
100
AcDbLine
 10
599.0919530155931
 20
45.05862979552751
 30
0.0
 11
599.091953015593
 21
355.8986297955283
 31
0.0
  0
LINE
  5
5EF0BEDC
330
5EF092C1
100
AcDbEntity
  8
ITTEN
 48
5.0
100
AcDbLine
 10
501.591953015593
 20
152.8986297955283
 30
0.0
 11
696.5919530155859
 21
152.8986297955283
 31
0.0
  0
LINE
  5
5EF0BEF2
330
5EF092C1
100
AcDbEntity
  8
NITEN
100
AcDbLine
 10
594.0919530155896
 20
333.8986297955281
 30
0.0
 11
594.0919530155896
 21
333.8986297955281
 31
0.0
  0
LINE
  5
5EF0BEF3
330
5EF092C1
100
AcDbEntity
  8
NITEN
100
AcDbLine
 10
592.8419530155912
 20
331.7335662860671
 30
0.0
 11
605.3419530155878
 21
331.7335662860671
 31
0.0
  0
LINE
  5
5EF0BEF4
330
5EF092C1
100
AcDbEntity
  8
NITEN
100
AcDbLine
 10
592.8419530155897
 20
331.7335662860671
 30
0.0
 11
592.8419530156016
 21
300.8986297955277
 31
0.0
  0
LINE
  5
5EF0BEF5
330
5EF092C1
100
AcDbEntity
  8
NITEN
100
AcDbLine
 10
605.3419530155912
 20
331.7335662860661
 30
0.0
 11
605.3419530155912
 21
300.8986297955276
 31
0.0
  0
LINE
  5
5EF0BEF6
330
5EF092C1
100
AcDbEntity
  8
NITEN
100
AcDbLine
 10
604.0919530155896
 20
333.8986297955281
 30
0.0
 11
604.0919530155896
 21
333.8986297955281
 31
0.0
  0
LINE
  5
5EF0BEF7
330
5EF092C1
100
AcDbEntity
  8
NITEN
100
AcDbLine
 10
604.0919530155896
 20
345.3986297955284
 30
0.0
 11
604.0919530155896
 21
333.8986297955281
 31
0.0
  0
LINE
  5
5EF0BEF8
330
5EF092C1
100
AcDbEntity
  8
NITEN
100
AcDbLine
 10
594.0919530155896
 20
333.8986297955281
 30
0.0
 11
594.0919530155896
 21
345.3986297955281
 31
0.0
  0
LINE
  5
5EF0BEF9
330
5EF092C1
100
AcDbEntity
  8
NITEN
100
AcDbLine
 10
594.5919530155896
 20
345.8986297955283
 30
0.0
 11
603.5919530155896
 21
345.8986297955283
 31
0.0
  0
LINE
  5
5EF0BEFA
330
5EF092C1
100
AcDbEntity
  8
NITEN
100
AcDbLine
 10
594.0919530155896
 20
333.8986297955281
 30
0.0
 11
604.0919530155896
 21
333.8986297955281
 31
0.0
  0
LINE
  5
5EF0BEFB
330
5EF092C1
100
AcDbEntity
  8
NITEN
100
AcDbLine
 10
594.0919530155896
 20
345.3986297955283
 30
0.0
 11
594.5919530155896
 21
345.8986297955283
 31
0.0
  0
LINE
  5
5EF0BEFC
330
5EF092C1
100
AcDbEntity
  8
NITEN
100
AcDbLine
 10
604.0919530155896
 20
345.3986297955283
 30
0.0
 11
603.5919530155896
 21
345.8986297955283
 31
0.0
  0
LINE
  5
5EF0BEFD
330
5EF092C1
100
AcDbEntity
  8
NITEN
100
AcDbLine
 10
594.0919530155896
 20
345.3986297955283
 30
0.0
 11
604.0919530155896
 21
345.3986297955283
 31
0.0
  0
LINE
  5
5EF0BEFE
330
5EF092C1
100
AcDbEntity
  8
NITEN
100
AcDbLine
 10
604.0919530155896
 20
333.8986297955281
 30
0.0
 11
605.3419530155912
 21
331.7335662860653
 31
0.0
  0
LINE
  5
5EF0BEFF
330
5EF092C1
100
AcDbEntity
  8
NITEN
100
AcDbLine
 10
594.0919530155896
 20
333.8986297955281
 30
0.0
 11
592.8419530155912
 21
331.7335662860696
 31
0.0
  0
LINE
  5
5EF0BF05
330
5EF092C1
100
AcDbEntity
  8
SUNPOU
100
AcDbLine
 10
345.0058897695861
 20
65.89862979552766
 30
0.0
 11
345.0058897695861
 21
41.31126491952636
 31
0.0
  0
LINE
  5
5EF0BF07
330
5EF092C1
100
AcDbEntity
  8
SUNPOU
100
AcDbLine
 10
345.0058897695861
 20
43.31126491952637
 30
0.0
 11
364.0058897695861
 21
43.31126491952637
 31
0.0
  0
INSERT
  5
5EF0BF08
330
5EF092C1
100
AcDbEntity
  8
SUNPOU
100
AcDbBlockReference
  2
ARROWANG
 10
345.0058897695861
 20
43.31126491952637
 30
0.0
 41
3.0
 42
3.0
 43
3.0
 50
180.0
  0
INSERT
  5
5EF0BF09
330
5EF092C1
100
AcDbEntity
  8
SUNPOU
100
AcDbBlockReference
  2
ARROWANG
 10
364.0058897695861
 20
43.31126491952637
 30
0.0
 41
3.0
 42
3.0
 43
3.0
  0
MTEXT
  5
5EF0BF0A
330
5EF092C1
100
AcDbEntity
  8
SUNPOU
100
AcDbMText
 10
354.5058897695862
 20
48.31126491952637
 30
0.0
 40
6.0
 41
0.0
 71
     5
 72
     1
  1
\A1;19
  7
K
1001
ACAD
1000
MTEXTBEGIN
1070
    73
1070
     1
1070
    44
1040
1.0
1070
    74
1070
     0
1000
MTEXTEND
  0
LINE
  5
5EF0BF0B
330
5EF092C1
100
AcDbEntity
  8
ITTEN
 48
5.0
100
AcDbLine
 10
219.0058897695862
 20
68.89862979552765
 30
0.0
 11
219.0058897695859
 21
327.3986297955248
 31
0.0
  0
LINE
  5
5EF0BF10
330
5EF092C1
100
AcDbEntity
  8
ITTEN
 48
2.0
100
AcDbLine
 10
164.00588976959
 20
83.66862979552749
 30
0.0
 11
164.00588976959
 21
45.05862979552739
 31
0.0
  0
LINE
  5
5EF0BF11
330
5EF092C1
100
AcDbEntity
  8
SUNPOU
100
AcDbLine
 10
164.00588976959
 20
43.55862979552739
 30
0.0
 11
164.00588976959
 21
41.31126491952636
 31
0.0
  0
LINE
  5
5EF0BF12
330
5EF092C1
100
AcDbEntity
  8
SUNPOU
100
AcDbLine
 10
219.0058897695862
 20
67.39862979552765
 30
0.0
 11
219.0058897695862
 21
41.31126491952636
 31
0.0
  0
LINE
  5
5EF0BF13
330
5EF092C1
100
AcDbEntity
  8
SUNPOU
100
AcDbLine
 10
164.00588976959
 20
43.31126491952637
 30
0.0
 11
219.0058897695862
 21
43.31126491952637
 31
0.0
  0
INSERT
  5
5EF0BF14
330
5EF092C1
100
AcDbEntity
  8
SUNPOU
100
AcDbBlockReference
  2
ARROWANG
 10
164.00588976959
 20
43.31126491952637
 30
0.0
 41
6.0
 42
6.0
 43
6.0
 50
180.0
  0
INSERT
  5
5EF0BF15
330
5EF092C1
100
AcDbEntity
  8
SUNPOU
100
AcDbBlockReference
  2
ARROWANG
 10
219.0058897695862
 20
43.31126491952637
 30
0.0
 41
6.0
 42
6.0
 43
6.0
  0
MTEXT
  5
5EF0BF16
330
5EF092C1
100
AcDbEntity
  8
SUNPOU
100
AcDbMText
 10
194.005889769588
 20
48.31126491952637
 30
0.0
 40
6.0
 41
0.0
 71
     5
 72
     1
  1
55
  7
K
1001
ACAD
1000
MTEXTBEGIN
1070
    73
1070
     1
1070
    44
1040
1.0
1070
    74
1070
     0
1000
MTEXTEND
  0
LINE
  5
5EF0BF18
330
5EF092C1
100
AcDbEntity
  8
SUNPOU
100
AcDbLine
 10
74.00588976958625
 20
65.89862979552856
 30
0.0
 11
74.00588976958625
 21
26.31126491952636
 31
0.0
  0
LINE
  5
5EF0BF19
330
5EF092C1
100
AcDbEntity
  8
SUNPOU
100
AcDbLine
 10
364.0058897695861
 20
65.89862979552856
 30
0.0
 11
364.0058897695861
 21
26.31126491952636
 31
0.0
  0
INSERT
  5
5EF0BF1B
330
5EF092C1
100
AcDbEntity
  8
SUNPOU
100
AcDbBlockReference
  2
ARROWANG
 10
74.00588976958625
 20
28.31126491952636
 30
0.0
 41
6.0
 42
6.0
 43
6.0
 50
180.0
  0
INSERT
  5
5EF0BF1C
330
5EF092C1
100
AcDbEntity
  8
SUNPOU
100
AcDbBlockReference
  2
ARROWANG
 10
364.0058897695861
 20
28.31126491952636
 30
0.0
 41
6.0
 42
6.0
 43
6.0
  0
MTEXT
  5
5EF0BF1D
330
5EF092C1
100
AcDbEntity
  8
SUNPOU
100
AcDbMText
 10
219.0058897695862
 20
33.31126491952636
 30
0.0
 40
6.0
 41
0.0
 71
     5
 72
     1
  1
\A1;290
  7
K
1001
ACAD
1000
MTEXTBEGIN
1070
    73
1070
     1
1070
    44
1040
1.0
1070
    74
1070
     0
1000
MTEXTEND
  0
LINE
  5
5EF0BF1E
330
5EF092C1
100
AcDbEntity
  8
SUNPOU
100
AcDbLine
 10
364.0058897695861
 20
28.31126491952636
 30
0.0
 11
74.00588976958625
 21
28.31126491952636
 31
0.0
  0
LINE
  5
5EF0BF1F
330
5EF092C1
100
AcDbEntity
  8
ITTEN
 48
2.0
100
AcDbLine
 10
335.0058897695861
 20
222.8986297955275
 30
0.0
 11
375.0058897695861
 21
222.8986297955283
 31
0.0
  0
LINE
  5
5EF0BF20
330
5EF092C1
100
AcDbEntity
  8
ITTEN
 48
2.0
100
AcDbLine
 10
335.0058897695861
 20
82.89862979552902
 30
0.0
 11
375.0058897695861
 21
82.89862979552822
 31
0.0
  0
LINE
  5
5EF0BF21
330
5EF092C1
100
AcDbEntity
  8
ITTEN
 48
2.0
100
AcDbLine
 10
103.0058897695862
 20
82.89862979552902
 30
0.0
 11
63.00588976958625
 21
82.89862979552822
 31
0.0
  0
LINE
  5
5EF0BF22
330
5EF092C1
100
AcDbEntity
  8
ITTEN
 48
2.0
100
AcDbLine
 10
103.0058897695862
 20
222.8986297955275
 30
0.0
 11
63.00588976958625
 21
222.8986297955283
 31
0.0
  0
LINE
  5
5EF0BF23
330
5EF092C1
100
AcDbEntity
  8
SUNPOU
100
AcDbLine
 10
376.5058897695861
 20
222.8986297955283
 30
0.0
 11
394.4931854571668
 21
222.8986297955283
 31
0.0
  0
LINE
  5
5EF0BF24
330
5EF092C1
100
AcDbEntity
  8
SUNPOU
100
AcDbLine
 10
376.5058897695861
 20
82.89862979552822
 30
0.0
 11
394.4931854571668
 21
82.89862979552822
 31
0.0
  0
LINE
  5
5EF0BF25
330
5EF092C1
100
AcDbEntity
  8
SUNPOU
100
AcDbLine
 10
392.4931854571669
 20
222.8986297955283
 30
0.0
 11
392.4931854571669
 21
82.89862979552822
 31
0.0
  0
INSERT
  5
5EF0BF26
330
5EF092C1
100
AcDbEntity
  8
SUNPOU
100
AcDbBlockReference
  2
ARROWANG
 10
392.4931854571669
 20
222.8986297955283
 30
0.0
 41
6.0
 42
6.0
 43
6.0
 50
90.0
  0
INSERT
  5
5EF0BF27
330
5EF092C1
100
AcDbEntity
  8
SUNPOU
100
AcDbBlockReference
  2
ARROWANG
 10
392.4931854571669
 20
82.89862979552822
 30
0.0
 41
6.0
 42
6.0
 43
6.0
 50
270.0
  0
MTEXT
  5
5EF0BF28
330
5EF092C1
100
AcDbEntity
  8
SUNPOU
100
AcDbMText
 10
387.4931854571668
 20
152.8986297955279
 30
0.0
 40
6.0
 41
0.0
 71
     5
 72
     1
  1
\A1;\U+2205140
  7
K
 11
0.0000000000000001
 21
1.0
 31
0.0
1001
ACAD
1000
MTEXTBEGIN
1070
    73
1070
     1
1070
    44
1040
1.0
1070
    74
1070
     0
1000
MTEXTEND
  0
LINE
  5
5EF0BF2A
330
5EF092C1
100
AcDbEntity
  8
SUNPOU
100
AcDbLine
 10
363.5058897695861
 20
240.3986297955276
 30
0.0
 11
409.4931854571668
 21
240.3986297955276
 31
0.0
  0
LINE
  5
5EF0BF2B
330
5EF092C1
100
AcDbEntity
  8
SUNPOU
100
AcDbLine
 10
363.5058897695861
 20
65.39862979552856
 30
0.0
 11
409.4931854571668
 21
65.39862979552856
 31
0.0
  0
INSERT
  5
5EF0BF2D
330
5EF092C1
100
AcDbEntity
  8
SUNPOU
100
AcDbBlockReference
  2
ARROWANG
 10
407.4931854571666
 20
240.3986297955276
 30
0.0
 41
6.0
 42
6.0
 43
6.0
 50
90.0
  0
INSERT
  5
5EF0BF2E
330
5EF092C1
100
AcDbEntity
  8
SUNPOU
100
AcDbBlockReference
  2
ARROWANG
 10
407.4931854571666
 20
65.39862979552856
 30
0.0
 41
6.0
 42
6.0
 43
6.0
 50
270.0
  0
MTEXT
  5
5EF0BF2F
330
5EF092C1
100
AcDbEntity
  8
SUNPOU
100
AcDbMText
 10
402.4931854571669
 20
152.8986297955279
 30
0.0
 40
6.0
 41
0.0
 71
     5
 72
     1
  1
\A1;\U+2205175
  7
K
 11
0.0000000000000001
 21
1.0
 31
0.0
1001
ACAD
1000
MTEXTBEGIN
1070
    73
1070
     1
1070
    44
1040
1.0
1070
    74
1070
     0
1000
MTEXTEND
  0
LINE
  5
5EF0BF30
330
5EF092C1
100
AcDbEntity
  8
SUNPOU
100
AcDbLine
 10
407.4931854571666
 20
240.3986297955276
 30
0.0
 11
407.4931854571666
 21
65.39862979552856
 31
0.0
  0
LINE
  5
5EF0BF31
330
5EF092C1
100
AcDbEntity
  8
ITTEN
 48
3.0
100
AcDbLine
 10
578.1769530155862
 20
272.8986297955285
 30
0.0
 11
620.0069530155857
 21
272.8986297955285
 31
0.0
  0
LINE
  5
5EF0BF33
330
5EF092C1
100
AcDbEntity
  8
SUNPOU
100
AcDbLine
 10
576.676953015586
 20
272.8986297955285
 30
0.0
 11
487.8242479699776
 21
272.8986297955285
 31
0.0
  0
LINE
  5
5EF0BF35
330
5EF092C1
100
AcDbEntity
  8
SUNPOU
100
AcDbLine
 10
489.8242479699779
 20
272.8986297955285
 30
0.0
 11
489.8242479699779
 21
152.8986297955283
 31
0.0
  0
INSERT
  5
5EF0BF36
330
5EF092C1
100
AcDbEntity
  8
SUNPOU
100
AcDbBlockReference
  2
ARROWANG
 10
489.8242479699779
 20
272.8986297955285
 30
0.0
 41
6.0
 42
6.0
 43
6.0
 50
90.0
  0
INSERT
  5
5EF0BF37
330
5EF092C1
100
AcDbEntity
  8
SUNPOU
100
AcDbBlockReference
  2
ARROWANG
 10
489.8242479699779
 20
152.8986297955283
 30
0.0
 41
6.0
 42
6.0
 43
6.0
 50
270.0
  0
MTEXT
  5
5EF0BF38
330
5EF092C1
100
AcDbEntity
  8
SUNPOU
100
AcDbMText
 10
484.8242479699778
 20
212.8986297955284
 30
0.0
 40
6.0
 41
0.0
 71
     5
 72
     1
  1
120
  7
K
 11
0.0000000000000001
 21
1.0
 31
0.0
1001
ACAD
1000
MTEXTBEGIN
1070
    73
1070
     1
1070
    44
1040
1.0
1070
    74
1070
     0
1000
MTEXTEND
  0
LINE
  5
5EF0BF3A
330
5EF092C1
100
AcDbEntity
  8
SUNPOU
100
AcDbLine
 10
593.0919530155896
 20
345.8986297955283
 30
0.0
 11
472.8242479699779
 21
345.8986297955283
 31
0.0
  0
LINE
  5
5EF0BF3B
330
5EF092C1
100
AcDbEntity
  8
SUNPOU
100
AcDbLine
 10
500.0919530155932
 20
152.8986297955283
 30
0.0
 11
472.8242479699779
 21
152.8986297955283
 31
0.0
  0
INSERT
  5
5EF0BF3D
330
5EF092C1
100
AcDbEntity
  8
SUNPOU
100
AcDbBlockReference
  2
ARROWANG
 10
474.8242479699777
 20
345.8986297955283
 30
0.0
 41
6.0
 42
6.0
 43
6.0
 50
90.0
  0
INSERT
  5
5EF0BF3E
330
5EF092C1
100
AcDbEntity
  8
SUNPOU
100
AcDbBlockReference
  2
ARROWANG
 10
474.8242479699777
 20
152.8986297955283
 30
0.0
 41
6.0
 42
6.0
 43
6.0
 50
270.0
  0
MTEXT
  5
5EF0BF3F
330
5EF092C1
100
AcDbEntity
  8
SUNPOU
100
AcDbMText
 10
469.8242479699779
 20
249.398629795528
 30
0.0
 40
6.0
 41
0.0
 71
     5
 72
     1
  1
193（全開時）
  7
K
 11
0.0000000000000001
 21
1.0
 31
0.0
1001
ACAD
1000
MTEXTBEGIN
1070
    73
1070
     1
1070
    44
1040
1.0
1070
    74
1070
     0
1000
MTEXTEND
  0
LINE
  5
5EF0BF40
330
5EF092C1
100
AcDbEntity
  8
SUNPOU
100
AcDbLine
 10
474.8242479699777
 20
345.8986297955283
 30
0.0
 11
474.8242479699777
 21
152.8986297955283
 31
0.0
  0
CIRCLE
  5
5EF0BF42
330
5EF092C1
100
AcDbEntity
  8
ITTEN
 48
5.0
100
AcDbCircle
 10
599.0919530155896
 20
152.8986297955283
 30
0.0
 40
69.99999999999662
  0
LINE
  5
5EF0BFFD
330
5EF092C1
100
AcDbEntity
  8
SUNPOU
100
AcDbLine
 10
640.8691630484343
 20
314.6758398283702
 30
0.0
 11
606.8100235322441
 21
280.6167003121797
 31
0.0
  0
INSERT
  5
5EF0BFFE
330
5EF092C1
100
AcDbEntity
  8
SUNPOU
100
AcDbBlockReference
  2
ARROWANG
 10
606.8100235322441
 20
280.6167003121797
 30
0.0
 41
6.0
 42
6.0
 43
6.0
 50
225.0
  0
MTEXT
  5
5EF0BFFF
330
5EF092C1
100
AcDbEntity
  8
SUNPOU
100
AcDbMText
 10
661.9714499526215
 20
319.9074624709087
 30
0.0
 40
6.0
 41
0.0
 71
     5
 72
     1
  1
Rc 1/2
  7
K
1001
ACAD
1000
MTEXTBEGIN
1070
    73
1070
     1
1070
    44
1040
1.0
1070
    74
1070
     0
1000
MTEXTEND
  0
LINE
  5
5EF0C000
330
5EF092C1
100
AcDbEntity
  8
SUNPOU
100
AcDbLine
 10
640.8691630484343
 20
314.6758398283702
 30
0.0
 11
679.2000213811928
 21
314.6758398283703
 31
0.0
  0
LINE
  5
5EF0C00C
330
5EF092C1
100
AcDbEntity
  8
SUNPOU
100
AcDbLine
 10
562.2314144100064
 20
116.0380911899399
 30
0.0
 11
521.2781558800952
 21
75.08483266002878
 31
0.0
  0
LINE
  5
5EF0C00D
330
5EF092C1
100
AcDbEntity
  8
SUNPOU
100
AcDbLine
 10
560.7751203720868
 20
114.5817971520203
 30
0.0
 11
565.0177610592061
 21
118.8244378391395
 31
0.0
  0
INSERT
  5
5EF0C00E
330
5EF092C1
100
AcDbEntity
  8
SUNPOU
100
AcDbBlockReference
  2
ARROWANG
 10
556.3119927538081
 20
110.1186695337414
 30
0.0
 41
6.0
 42
6.0
 43
6.0
 50
225.0
  0
INSERT
  5
5EF0C00F
330
5EF092C1
100
AcDbEntity
  8
SUNPOU
100
AcDbBlockReference
  2
ARROWANG
 10
543.0974508424227
 20
96.9041276223567
 30
0.0
 41
6.0
 42
6.0
 43
6.0
 50
45.0
  0
LINE
  5
5EF0C010
330
5EF092C1
100
AcDbEntity
  8
SUNPOU
100
AcDbLine
 10
521.2781558800952
 20
75.08483266002878
 30
0.0
 11
488.2215472112338
 21
75.08483266002878
 31
0.0
  0
TEXT
  5
5EF0C011
330
5EF092C1
100
AcDbEntity
  8
SUNPOU
100
AcDbText
 10
488.8646021010562
 20
75.88994497406378
 30
0.0
 40
6.0
  1
4-%%c19
  7
K
100
AcDbText
  0
TEXT
  5
5EF0C102
330
5EF092C1
100
AcDbEntity
  8
SUNPOU
100
AcDbText
 10
672.0313147675292
 20
7.168086073851554
 30
0.0
 40
6.0
  1
A3 用紙、印刷尺度：1/2
  7
K
100
AcDbText
  0
TEXT
  5
5EF0C103
330
5EF092C1
100
AcDbEntity
  8
SUNPOU
100
AcDbText
 10
672.0313147675292
 20
18.16808607385155
 30
0.0
 40
6.0
  1
一斉開放弁 NDVW65 外観図
  7
K
100
AcDbText
  0
LINE
  5
5EF0C12F
330
5EF092C1
100
AcDbEntity
  8
SUNPOU
100
AcDbLine
 10
213.0058897695826
 20
317.3986297955248
 30
0.0
 11
40.09636106046808
 21
317.3986297955248
 31
0.0
  0
LINE
  5
5EF0C130
330
5EF092C1
100
AcDbEntity
  8
SUNPOU
100
AcDbLine
 10
61.50588976958714
 20
152.8986297955283
 30
0.0
 11
40.09636106046804
 21
152.8986297955283
 31
0.0
  0
LINE
  5
5EF0C131
330
5EF092C1
100
AcDbEntity
  8
SUNPOU
100
AcDbLine
 10
42.09636106046809
 20
317.3986297955248
 30
0.0
 11
42.09636106046804
 21
152.8986297955283
 31
0.0
  0
INSERT
  5
5EF0C132
330
5EF092C1
100
AcDbEntity
  8
SUNPOU
100
AcDbBlockReference
  2
ARROWANG
 10
42.09636106046809
 20
317.3986297955248
 30
0.0
 41
6.0
 42
6.0
 43
6.0
 50
90.0
  0
INSERT
  5
5EF0C133
330
5EF092C1
100
AcDbEntity
  8
SUNPOU
100
AcDbBlockReference
  2
ARROWANG
 10
42.09636106046804
 20
152.8986297955283
 30
0.0
 41
6.0
 42
6.0
 43
6.0
 50
270.0
  0
MTEXT
  5
5EF0C135
330
5EF092C1
100
AcDbEntity
  8
SUNPOU
100
AcDbMText
 10
37.09636106046815
 20
235.1486297955263
 30
0.0
 40
6.0
 41
0.0
 71
     5
 72
     1
  1
165（全閉時）
  7
K
 11
0.0000000000000001
 21
1.0
 31
0.0
1001
ACAD
1000
MTEXTBEGIN
1070
    73
1070
     1
1070
    44
1040
1.0
1070
    74
1070
     0
1000
MTEXTEND
  0
ARC
  5
5EF0D2FC
330
5EF092C1
100
AcDbEntity
  8
JISSEN
100
AcDbCircle
 10
219.0058897695867
 20
441.8028848777003
 30
0.0
 40
82.0
100
AcDbArc
 50
13.39760950170247
 51
180.0
  0
ARC
  5
5EF0D304
330
5EF092C1
100
AcDbEntity
  8
JISSEN
100
AcDbCircle
 10
286.2580750508773
 20
393.1598630257326
 30
0.0
 40
1.0
100
AcDbArc
 50
60.00000000000652
 51
144.1220548455039
  0
LINE
  5
5EF0D306
330
5EF092C1
100
AcDbEntity
  8
JISSEN
100
AcDbLine
 10
299.5058897695895
 20
292.8986297955285
 30
0.0
 11
273.5058897695895
 21
292.8986297955285
 31
0.0
  0
LINE
  5
5EF0D309
330
5EF092C1
100
AcDbEntity
  8
JISSEN
100
AcDbLine
 10
287.7616426307105
 20
280.3986297955252
 30
0.0
 11
289.1539474761235
 21
279.5947822182315
 31
0.0
  0
ARC
  5
5EF0D314
330
5EF092C1
100
AcDbEntity
  8
JISSEN
100
AcDbCircle
 10
219.0058897695867
 20
441.8028848777003
 30
0.0
 40
82.0
100
AcDbArc
 50
180.0
 51
346.6023904982975
  0
LINE
  5
5EF0D329
330
5EF092C1
100
AcDbEntity
  8
JISSEN
100
AcDbLine
 10
137.0058897695895
 20
271.3986297955289
 30
0.0
 11
137.0058897695895
 21
254.8986297955289
 31
0.0
  0
ARC
  5
5EF0D32D
330
5EF092C1
100
AcDbEntity
  8
JISSEN
100
AcDbCircle
 10
138.5058897695895
 20
271.3986297955289
 30
0.0
 40
1.5
100
AcDbArc
 50
90.0
 51
180.0
  0
LINE
  5
5EF0D32E
330
5EF092C1
100
AcDbEntity
  8
JISSEN
100
AcDbLine
 10
148.8578320630523
 20
279.5947822182351
 30
0.0
 11
148.8578320630523
 21
272.8986297955279
 31
0.0
  0
LINE
  5
5EF0D32F
330
5EF092C1
100
AcDbEntity
  8
JISSEN
100
AcDbLine
 10
154.053984485759
 20
279.5947822182351
 30
0.0
 11
154.053984485759
 21
272.8986297955279
 31
0.0
  0
LINE
  5
5EF0D330
330
5EF092C1
100
AcDbEntity
  8
JISSEN
100
AcDbLine
 10
164.4462893311721
 20
279.5947822182351
 30
0.0
 11
164.4462893311721
 21
272.8986297955279
 31
0.0
  0
LINE
  5
5EF0D331
330
5EF092C1
100
AcDbEntity
  8
JISSEN
100
AcDbLine
 10
169.6424417538788
 20
279.5947822182351
 30
0.0
 11
169.6424417538788
 21
272.8986297955279
 31
0.0
  0
LINE
  5
5EF0D332
330
5EF092C1
100
AcDbEntity
  8
JISSEN
100
AcDbLine
 10
150.2501369084653
 20
280.398629795528
 30
0.0
 11
168.2501369084653
 21
280.398629795528
 31
0.0
  0
ARC
  5
5EF0D333
330
5EF092C1
100
AcDbEntity
  8
JISSEN
100
AcDbCircle
 10
159.2501369084653
 20
263.2024773728226
 30
0.0
 40
17.19615242270538
100
AcDbArc
 50
72.41204622601562
 51
107.5879537739843
  0
LINE
  5
5EF0D334
330
5EF092C1
100
AcDbEntity
  8
JISSEN
100
AcDbLine
 10
150.2501369084653
 20
280.398629795528
 30
0.0
 11
148.8578320630523
 21
279.5947822182351
 31
0.0
  0
ARC
  5
5EF0D335
330
5EF092C1
100
AcDbEntity
  8
JISSEN
100
AcDbCircle
 10
148.8578320630523
 20
263.2024773728226
 30
0.0
 40
17.19615242270538
100
AcDbArc
 50
72.41204622601562
 51
85.64351788228224
  0
ARC
  5
5EF0D336
330
5EF092C1
100
AcDbEntity
  8
JISSEN
100
AcDbCircle
 10
169.6424417538788
 20
263.2024773728226
 30
0.0
 40
17.19615242270538
100
AcDbArc
 50
94.35648211771775
 51
107.5879537739843
  0
LINE
  5
5EF0D337
330
5EF092C1
100
AcDbEntity
  8
JISSEN
100
AcDbLine
 10
168.2501369084653
 20
280.398629795528
 30
0.0
 11
169.6424417538788
 21
279.5947822182351
 31
0.0
  0
LINE
  5
5EF0D34B
330
5EF092C1
100
AcDbEntity
  8
JISSEN
100
AcDbLine
 10
203.0058897695895
 20
298.8986297955341
 30
0.0
 11
203.0058897695895
 21
274.3986297955288
 31
0.0
  0
LINE
  5
5EF0D34C
330
5EF092C1
100
AcDbEntity
  8
JISSEN
100
AcDbLine
 10
235.0058897695895
 20
298.8986297955217
 30
0.0
 11
235.0058897695895
 21
288.3986297955285
 31
0.0
  0
LINE
  5
5EF0D34D
330
5EF092C1
100
AcDbEntity
  8
JISSEN
100
AcDbLine
 10
272.0058897695895
 20
291.3986297955285
 30
0.0
 11
272.0058897695895
 21
288.3986297955285
 31
0.0
  0
ARC
  5
5EF0D34E
330
5EF092C1
100
AcDbEntity
  8
JISSEN
100
AcDbCircle
 10
201.5058897695895
 20
274.3986297955288
 30
0.0
 40
1.5
100
AcDbArc
 50
270.0
 51
0.0
  0
LINE
  5
5EF0D34F
330
5EF092C1
100
AcDbEntity
  8
JISSEN
100
AcDbLine
 10
224.2020421922962
 20
279.5947822182356
 30
0.0
 11
224.2020421922962
 21
272.8986297955289
 31
0.0
  0
LINE
  5
5EF0D350
330
5EF092C1
100
AcDbEntity
  8
JISSEN
100
AcDbLine
 10
213.8097373468827
 20
279.5947822182356
 30
0.0
 11
213.8097373468827
 21
272.8986297955289
 31
0.0
  0
LINE
  5
5EF0D351
330
5EF092C1
100
AcDbEntity
  8
JISSEN
100
AcDbLine
 10
208.613584924176
 20
279.5947822182356
 30
0.0
 11
208.613584924176
 21
272.8986297955289
 31
0.0
  0
LINE
  5
5EF0D352
330
5EF092C1
100
AcDbEntity
  8
JISSEN
100
AcDbLine
 10
229.3981946150025
 20
279.5947822182356
 30
0.0
 11
229.3981946150025
 21
272.8986297955289
 31
0.0
  0
LINE
  5
5EF0D353
330
5EF092C1
100
AcDbEntity
  8
JISSEN
100
AcDbLine
 10
210.0058897695895
 20
280.3986297955288
 30
0.0
 11
228.0058897695895
 21
280.3986297955288
 31
0.0
  0
ARC
  5
5EF0D354
330
5EF092C1
100
AcDbEntity
  8
JISSEN
100
AcDbCircle
 10
219.0058897695895
 20
263.2024773728235
 30
0.0
 40
17.19615242270538
100
AcDbArc
 50
72.41204622601562
 51
107.5879537739843
  0
ARC
  5
5EF0D355
330
5EF092C1
100
AcDbEntity
  8
JISSEN
100
AcDbCircle
 10
208.613584924176
 20
263.2024773728235
 30
0.0
 40
17.19615242270538
100
AcDbArc
 50
72.41204622601562
 51
85.64351788228224
  0
LINE
  5
5EF0D356
330
5EF092C1
100
AcDbEntity
  8
JISSEN
100
AcDbLine
 10
210.0058897695895
 20
280.3986297955288
 30
0.0
 11
208.613584924176
 21
279.5947822182356
 31
0.0
  0
ARC
  5
5EF0D357
330
5EF092C1
100
AcDbEntity
  8
JISSEN
100
AcDbCircle
 10
229.3981946150025
 20
263.2024773728235
 30
0.0
 40
17.19615242270538
100
AcDbArc
 50
94.35648211771775
 51
107.5879537739843
  0
LINE
  5
5EF0D358
330
5EF092C1
100
AcDbEntity
  8
JISSEN
100
AcDbLine
 10
228.0058897695895
 20
280.3986297955288
 30
0.0
 11
229.3981946150025
 21
279.5947822182356
 31
0.0
  0
LINE
  5
5EF0D359
330
5EF092C1
100
AcDbEntity
  8
SCALE
100
AcDbLine
 10
286.0491216243553
 20
254.8986297955293
 30
0.0
 11
286.0491216243553
 21
236.8986297955302
 31
0.0
  0
LINE
  5
5EF0D35A
330
5EF092C1
100
AcDbEntity
  8
JISSEN
100
AcDbLine
 10
270.5058897695895
 20
286.8986297955284
 30
0.0
 11
236.5058897695895
 21
286.8986297955284
 31
0.0
  0
ARC
  5
5EF0D35B
330
5EF092C1
100
AcDbEntity
  8
JISSEN
100
AcDbCircle
 10
236.5058897695895
 20
288.3986297955285
 30
0.0
 40
1.5
100
AcDbArc
 50
180.0
 51
270.0
  0
LINE
  5
5EF0D35C
330
5EF092C1
100
AcDbEntity
  8
JISSEN
100
AcDbLine
 10
283.9577950534168
 20
279.5947822182315
 30
0.0
 11
283.9577950534168
 21
272.8986297955252
 31
0.0
  0
LINE
  5
5EF0D35D
330
5EF092C1
100
AcDbEntity
  8
JISSEN
100
AcDbLine
 10
268.369337785297
 20
279.5947822182324
 30
0.0
 11
268.369337785297
 21
272.8986297955257
 31
0.0
  0
LINE
  5
5EF0D35E
330
5EF092C1
100
AcDbEntity
  8
JISSEN
100
AcDbLine
 10
273.5654902080038
 20
279.5947822182324
 30
0.0
 11
273.5654902080033
 21
272.8986297955252
 31
0.0
  0
ARC
  5
5EF0D35F
330
5EF092C1
100
AcDbEntity
  8
JISSEN
100
AcDbCircle
 10
268.3693377852961
 20
263.2024773728208
 30
0.0
 40
17.19615242270538
100
AcDbArc
 50
72.41204622601562
 51
85.64351788228224
  0
LINE
  5
5EF0D360
330
5EF092C1
100
AcDbEntity
  8
JISSEN
100
AcDbLine
 10
287.7616426307105
 20
280.3986297955252
 30
0.0
 11
269.7616426307105
 21
280.3986297955261
 31
0.0
  0
LINE
  5
5EF0D361
330
5EF092C1
100
AcDbEntity
  8
JISSEN
100
AcDbLine
 10
269.7616426307105
 20
280.3986297955261
 30
0.0
 11
268.369337785297
 21
279.5947822182324
 31
0.0
  0
ARC
  5
5EF0D362
330
5EF092C1
100
AcDbEntity
  8
JISSEN
100
AcDbCircle
 10
270.5058897695895
 20
288.3986297955285
 30
0.0
 40
1.5
100
AcDbArc
 50
270.0
 51
0.0
  0
ARC
  5
5EF0D364
330
5EF092C1
100
AcDbEntity
  8
JISSEN
100
AcDbCircle
 10
289.1539474761231
 20
263.2024773728194
 30
0.0
 40
17.19615242270538
100
AcDbArc
 50
94.35648211769162
 51
107.5879537739843
  0
ARC
  5
5EF0D365
330
5EF092C1
100
AcDbEntity
  8
JISSEN
100
AcDbCircle
 10
278.7616426307096
 20
263.2024773728198
 30
0.0
 40
17.19615242270538
100
AcDbArc
 50
72.41204622601562
 51
107.5879537739843
  0
LINE
  5
5EF0D367
330
5EF092C1
100
AcDbEntity
  8
JISSEN
100
AcDbLine
 10
222.0058897695859
 20
316.8986297955261
 30
0.0
 11
222.0058897695859
 21
305.3986297955261
 31
0.0
  0
LINE
  5
5EF0D368
330
5EF092C1
100
AcDbEntity
  8
JISSEN
100
AcDbLine
 10
216.0058897695859
 20
316.8986297955261
 30
0.0
 11
216.0058897695859
 21
305.3986297955261
 31
0.0
  0
LINE
  5
5EF0D369
330
5EF092C1
100
AcDbEntity
  8
JISSEN
100
AcDbLine
 10
214.0058897695859
 20
305.3986297955261
 30
0.0
 11
214.0058897695859
 21
316.8986297955261
 31
0.0
  0
LINE
  5
5EF0D36A
330
5EF092C1
100
AcDbEntity
  8
JISSEN
100
AcDbLine
 10
224.0058897695859
 20
316.8986297955261
 30
0.0
 11
224.0058897695859
 21
305.3986297955261
 31
0.0
  0
LINE
  5
5EF0D36B
330
5EF092C1
100
AcDbEntity
  8
SAISEN
100
AcDbLine
 10
222.0058897695859
 20
316.8986297955261
 30
0.0
 11
216.0058897695859
 21
305.3986297955261
 31
0.0
  0
LINE
  5
5EF0D36C
330
5EF092C1
100
AcDbEntity
  8
SAISEN
100
AcDbLine
 10
216.0058897695859
 20
316.8986297955261
 30
0.0
 11
222.0058897695859
 21
305.3986297955261
 31
0.0
  0
LINE
  5
5EF0D36E
330
5EF092C1
100
AcDbEntity
  8
JISSEN
100
AcDbLine
 10
212.7558897695877
 20
303.233566286065
 30
0.0
 11
225.255889769584
 21
303.233566286065
 31
0.0
  0
LINE
  5
5EF0D36F
330
5EF092C1
100
AcDbEntity
  8
JISSEN
100
AcDbLine
 10
214.0058897695859
 20
305.3986297955261
 30
0.0
 11
224.0058897695859
 21
305.3986297955261
 31
0.0
  0
LINE
  5
5EF0D372
330
5EF092C1
100
AcDbEntity
  8
JISSEN
100
AcDbLine
 10
212.7558897695859
 20
303.233566286065
 30
0.0
 11
212.7558897695867
 21
300.8986297955272
 31
0.0
  0
LINE
  5
5EF0D373
330
5EF092C1
100
AcDbEntity
  8
JISSEN
100
AcDbLine
 10
214.0058897695859
 20
305.3986297955261
 30
0.0
 11
212.7558897695877
 21
303.2335662860678
 31
0.0
  0
LINE
  5
5EF0D375
330
5EF092C1
100
AcDbEntity
  8
JISSEN
100
AcDbLine
 10
225.2558897695877
 20
303.2335662860641
 30
0.0
 11
225.2558897695876
 21
300.8986297955272
 31
0.0
  0
LINE
  5
5EF0D376
330
5EF092C1
100
AcDbEntity
  8
JISSEN
100
AcDbLine
 10
224.0058897695859
 20
305.3986297955261
 30
0.0
 11
225.2558897695877
 21
303.2335662860632
 31
0.0
  0
LINE
  5
5EF0D377
330
5EF092C1
100
AcDbEntity
  8
JISSEN
100
AcDbLine
 10
214.0058897695859
 20
316.8986297955261
 30
0.0
 11
216.0058897695859
 21
316.8986297955261
 31
0.0
  0
LINE
  5
5EF0D378
330
5EF092C1
100
AcDbEntity
  8
JISSEN
100
AcDbLine
 10
214.5058897695859
 20
317.3986297955261
 30
0.0
 11
223.5058897695858
 21
317.3986297955261
 31
0.0
  0
LINE
  5
5EF0D379
330
5EF092C1
100
AcDbEntity
  8
JISSEN
100
AcDbLine
 10
214.0058897695859
 20
316.8986297955261
 30
0.0
 11
214.5058897695859
 21
317.3986297955261
 31
0.0
  0
LINE
  5
5EF0D37A
330
5EF092C1
100
AcDbEntity
  8
JISSEN
100
AcDbLine
 10
221.067442582395
 20
317.3986297955261
 30
0.0
 11
222.0058897695859
 21
316.8986297955261
 31
0.0
  0
LINE
  5
5EF0D37B
330
5EF092C1
100
AcDbEntity
  8
JISSEN
100
AcDbLine
 10
216.9443369567767
 20
317.3986297955261
 30
0.0
 11
216.0058897695859
 21
316.8986297955261
 31
0.0
  0
LINE
  5
5EF0D37C
330
5EF092C1
100
AcDbEntity
  8
JISSEN
100
AcDbLine
 10
222.0058897695859
 20
316.8986297955261
 30
0.0
 11
224.0058897695859
 21
316.8986297955261
 31
0.0
  0
LINE
  5
5EF0D37D
330
5EF092C1
100
AcDbEntity
  8
JISSEN
100
AcDbLine
 10
224.0058897695859
 20
316.8986297955261
 30
0.0
 11
223.5058897695858
 21
317.3986297955261
 31
0.0
  0
ARC
  5
5EF0D37F
330
5EF092C1
100
AcDbEntity
  8
JISSEN
100
AcDbCircle
 10
273.5058897695895
 20
291.3986297955285
 30
0.0
 40
1.5
100
AcDbArc
 50
90.0
 51
180.0
  0
CIRCLE
  5
5EF0D481
330
5EF092C1
100
AcDbEntity
  8
JISSEN
100
AcDbCircle
 10
219.0058897695876
 20
441.8028848777009
 30
0.0
 40
16.0
  0
CIRCLE
  5
5EF0D489
330
5EF092C1
100
AcDbEntity
  8
JISSEN
100
AcDbCircle
 10
219.0058897695867
 20
441.8028848777013
 30
0.0
 40
10.25
  0
CIRCLE
  5
5EF0D48D
330
5EF092C1
100
AcDbEntity
  8
JISSEN
100
AcDbCircle
 10
219.0058897695876
 20
441.8028848777009
 30
0.0
 40
14.0
  0
CIRCLE
  5
5EF0D48E
330
5EF092C1
100
AcDbEntity
  8
JISSEN
100
AcDbCircle
 10
219.0058897695867
 20
441.8028848777013
 30
0.0
 40
13.25
  0
CIRCLE
  5
5EF0D490
330
5EF092C1
100
AcDbEntity
  8
JISSEN
100
AcDbCircle
 10
219.0058897695867
 20
441.8028848777013
 30
0.0
 40
11.75
  0
CIRCLE
  5
5EF0D491
330
5EF092C1
100
AcDbEntity
  8
JISSEN
100
AcDbCircle
 10
219.0058897695876
 20
441.8028848777009
 30
0.0
 40
6.75
  0
CIRCLE
  5
5EF0D492
330
5EF092C1
100
AcDbEntity
  8
JISSEN
100
AcDbCircle
 10
219.0058897695876
 20
441.8028848777009
 30
0.0
 40
6.25
  0
CIRCLE
  5
5EF0D493
330
5EF092C1
100
AcDbEntity
  8
JISSEN
100
AcDbCircle
 10
219.0058897695867
 20
441.8028848777013
 30
0.0
 40
8.75
  0
CIRCLE
  5
5EF0D494
330
5EF092C1
100
AcDbEntity
  8
JISSEN
100
AcDbCircle
 10
219.0058897695867
 20
441.8028848777013
 30
0.0
 40
5.826252683718848
  0
LINE
  5
5EF0D495
330
5EF092C1
100
AcDbEntity
  8
JISSEN
100
AcDbLine
 10
214.7230495513972
 20
437.852884877701
 30
0.0
 11
223.2887299877761
 21
437.8528848777015
 31
0.0
  0
LINE
  5
5EF0D496
330
5EF092C1
100
AcDbEntity
  8
JISSEN
100
AcDbLine
 10
223.2887299877761
 20
437.8528848777015
 30
0.0
 11
214.7230495513972
 21
437.8528848777015
 31
0.0
  0
LINE
  5
5EF0D497
330
5EF092C1
100
AcDbEntity
  8
JISSEN
100
AcDbLine
 10
214.7230495513972
 20
445.7528848777011
 30
0.0
 11
223.2887299877761
 21
445.7528848777011
 31
0.0
  0
LINE
  5
5EF0D498
330
5EF092C1
100
AcDbEntity
  8
JISSEN
100
AcDbLine
 10
223.2887299877761
 20
445.7528848777011
 30
0.0
 11
214.7230495513972
 21
445.7528848777011
 31
0.0
  0
LINE
  5
5EF0D4A7
330
5EF092C1
100
AcDbEntity
  8
JISSEN
100
AcDbLine
 10
301.0058897695895
 20
254.8986297955289
 30
0.0
 11
301.0058897695895
 21
291.3986297955285
 31
0.0
  0
LINE
  5
5EF0D4AC
330
5EF092C1
100
AcDbEntity
  8
SCALE
100
AcDbLine
 10
288.8680490912506
 20
254.8986297955293
 30
0.0
 11
288.8680490912506
 21
236.8986297955302
 31
0.0
  0
LINE
  5
5EF0D4AD
330
5EF092C1
100
AcDbEntity
  8
JISSEN
100
AcDbLine
 10
288.8680490912638
 20
254.8986297955302
 30
0.0
 11
288.8680490912638
 21
236.8986297955293
 31
0.0
  0
LINE
  5
5EF0D4B2
330
5EF092C1
100
AcDbEntity
  8
JISSEN
100
AcDbLine
 10
289.1539474761235
 20
279.5947822182315
 30
0.0
 11
289.1539474761231
 21
272.8986297955248
 31
0.0
  0
ARC
  5
5EF0D4B3
330
5EF092C1
100
AcDbEntity
  8
JISSEN
100
AcDbCircle
 10
299.5058897695895
 20
271.3986297955289
 30
0.0
 40
1.5
100
AcDbArc
 50
0.0
 51
90.0
  0
ARC
  5
5EF0D4B7
330
5EF092C1
100
AcDbEntity
  8
JISSEN
100
AcDbCircle
 10
299.5058897695895
 20
291.3986297955285
 30
0.0
 40
1.5
100
AcDbArc
 50
0.0
 51
90.0
  0
LINE
  5
5EF0D4DF
330
5EF092C1
100
AcDbEntity
  8
JISSEN
100
AcDbLine
 10
301.0058897695857
 20
441.8028848776999
 30
0.0
 11
301.0058897695857
 21
413.8310510983479
 31
0.0
  0
LINE
  5
5EF0D504
330
5EF092C1
100
AcDbEntity
  8
JISSEN
100
AcDbLine
 10
301.0058897695857
 20
413.8310510983488
 30
0.0
 11
288.8680490912634
 21
392.8076943493175
 31
0.0
  0
LINE
  5
5EF0D506
330
5EF092C1
100
AcDbEntity
  8
JISSEN
100
AcDbLine
 10
286.7580750508773
 20
394.0258884295177
 30
0.0
 11
288.8680490912634
 21
392.8076943493175
 31
0.0
  0
LINE
  5
5EF0D5DF
330
5EF092C1
100
AcDbEntity
  8
JISSEN
100
AcDbLine
 10
331.6263913232915
 20
506.0528848776859
 30
0.0
 11
327.0041903693972
 21
507.3028848776858
 31
0.0
  0
LINE
  5
5EF0D5E0
330
5EF092C1
100
AcDbEntity
  8
JISSEN
100
AcDbLine
 10
319.9316495718249
 20
507.3009225793732
 30
0.0
 11
334.0801299673476
 21
507.3028848776858
 31
0.0
  0
LINE
  5
5EF0D5E2
330
5EF092C1
100
AcDbEntity
  8
JISSEN
100
AcDbLine
 10
322.388787016258
 20
506.0528848776859
 30
0.0
 11
327.0041903693972
 21
507.3028848776858
 31
0.0
  0
LINE
  5
5EF0D5E3
330
5EF092C1
100
AcDbEntity
  8
JISSEN
100
AcDbLine
 10
319.9316495718249
 20
507.3009225793732
 30
0.0
 11
322.388787016258
 21
506.0528848776859
 31
0.0
  0
LINE
  5
5EF0D5E4
330
5EF092C1
100
AcDbEntity
  8
JISSEN
100
AcDbLine
 10
317.7665860623637
 20
506.0509225793731
 30
0.0
 11
319.9316495718249
 21
507.3009225793732
 31
0.0
  0
LINE
  5
5EF0D5E5
330
5EF092C1
100
AcDbEntity
  8
JISSEN
100
AcDbLine
 10
317.7665860623637
 20
506.0509225793731
 30
0.0
 11
317.7665860623637
 21
502.8028848776954
 31
0.0
  0
LINE
  5
5EF0D5E6
330
5EF092C1
100
AcDbEntity
  8
JISSEN
100
AcDbLine
 10
322.388787016258
 20
506.0528848776859
 30
0.0
 11
322.3887870162575
 21
502.8028848776854
 31
0.0
  0
LINE
  5
5EF0D5E8
330
5EF092C1
100
AcDbEntity
  8
JISSEN
100
AcDbLine
 10
331.6263913232915
 20
506.0528848776859
 30
0.0
 11
331.6263913232919
 21
502.802884877684
 31
0.0
  0
LINE
  5
5EF0D5E9
330
5EF092C1
100
AcDbEntity
  8
JISSEN
100
AcDbLine
 10
336.2451934768087
 20
506.0528848776859
 30
0.0
 11
336.2451934768087
 21
502.8028848776836
 31
0.0
  0
LINE
  5
5EF0D5EA
330
5EF092C1
100
AcDbEntity
  8
JISSEN
100
AcDbLine
 10
336.2451934768087
 20
506.0528848776859
 30
0.0
 11
334.0801299673476
 21
507.3028848776858
 31
0.0
  0
LINE
  5
5EF0D5EB
330
5EF092C1
100
AcDbEntity
  8
JISSEN
100
AcDbLine
 10
334.0801299673476
 20
507.3028848776858
 30
0.0
 11
331.6263913232915
 21
506.0528848776859
 31
0.0
  0
CIRCLE
  5
5EF0D8AA
330
5EF092C1
100
AcDbEntity
  8
JISSEN
100
AcDbCircle
 10
599.091953015593
 20
272.8986297955285
 30
0.0
 40
9.314999999999999
  0
CIRCLE
  5
5EF0D8B0
330
5EF092C1
100
AcDbEntity
  8
JISSEN
100
AcDbCircle
 10
599.091953015593
 20
272.8986297955285
 30
0.0
 40
5.0
  0
CIRCLE
  5
5EF0DC8F
330
5EF092C1
100
AcDbEntity
  8
SCALE
100
AcDbCircle
 10
327.0058897695875
 20
152.8986297955284
 30
0.0
 40
3.949999999999846
  0
CIRCLE
  5
5EF0DC90
330
5EF092C1
100
AcDbEntity
  8
SCALE
100
AcDbCircle
 10
111.0058897695862
 20
152.8986297955284
 30
0.0
 40
3.949999999999846
  0
LINE
  5
5EF0DD07
330
5EF092C1
100
AcDbEntity
  8
JISSEN
100
AcDbLine
 10
276.505889769586
 20
268.8986297955277
 30
0.0
 11
161.5058897695859
 21
268.8986297955277
 31
0.0
  0
LINE
  5
5EF0DD08
330
5EF092C1
100
AcDbEntity
  8
JISSEN
100
AcDbLine
 10
276.505889769586
 20
258.8986297955277
 30
0.0
 11
161.5058897695859
 21
258.8986297955277
 31
0.0
  0
LINE
  5
5EF0DD09
330
5EF092C1
100
AcDbEntity
  8
JISSEN
100
AcDbLine
 10
275.505889769586
 20
267.8986297955276
 30
0.0
 11
162.5058897695859
 21
267.8986297955276
 31
0.0
  0
LINE
  5
5EF0DD0A
330
5EF092C1
100
AcDbEntity
  8
JISSEN
100
AcDbLine
 10
275.505889769586
 20
259.8986297955277
 30
0.0
 11
162.5058897695859
 21
259.8986297955277
 31
0.0
  0
LINE
  5
5EF0DD0B
330
5EF092C1
100
AcDbEntity
  8
JISSEN
100
AcDbLine
 10
162.5058897695859
 20
267.8986297955276
 30
0.0
 11
162.5058897695859
 21
259.8986297955277
 31
0.0
  0
LINE
  5
5EF0DD0C
330
5EF092C1
100
AcDbEntity
  8
JISSEN
100
AcDbLine
 10
161.5058897695859
 20
268.8986297955275
 30
0.0
 11
161.5058897695859
 21
258.8986297955277
 31
0.0
  0
LINE
  5
5EF0DD0D
330
5EF092C1
100
AcDbEntity
  8
JISSEN
100
AcDbLine
 10
276.505889769586
 20
268.8986297955277
 30
0.0
 11
276.505889769586
 21
258.8986297955277
 31
0.0
  0
LINE
  5
5EF0DD0E
330
5EF092C1
100
AcDbEntity
  8
JISSEN
100
AcDbLine
 10
275.505889769586
 20
267.8986297955276
 30
0.0
 11
275.505889769586
 21
259.8986297955277
 31
0.0
  0
LINE
  5
5EF0DD79
330
5EF092C1
100
AcDbEntity
  8
SCALE
100
AcDbLine
 10
138.5058897695895
 20
272.8986297955289
 30
0.0
 11
299.5058897695895
 21
272.8986297955289
 31
0.0
  0
CIRCLE
  5
5EF0DD7C
330
5EF092C1
100
AcDbEntity
  8
SAISEN
100
AcDbCircle
 10
599.091953015593
 20
272.8986297955285
 30
0.0
 40
10.91500000000001
  0
LINE
  5
5EF0DD7D
330
5EF092C1
100
AcDbEntity
  8
JISSEN
100
AcDbLine
 10
103.9389020842054
 20
507.3028838718115
 30
0.0
 11
106.3926407282615
 21
506.0528838718115
 31
0.0
  0
LINE
  5
5EF0DD7E
330
5EF092C1
100
AcDbEntity
  8
JISSEN
100
AcDbLine
 10
101.7738385747443
 20
506.0528838718115
 30
0.0
 11
103.9389020842054
 21
507.3028838718115
 31
0.0
  0
LINE
  5
5EF0DD7F
330
5EF092C1
100
AcDbEntity
  8
JISSEN
100
AcDbLine
 10
101.7738385747443
 20
506.0528838718115
 30
0.0
 11
101.7738385747443
 21
502.8028838718093
 31
0.0
  0
LINE
  5
5EF0DD80
330
5EF092C1
100
AcDbEntity
  8
JISSEN
100
AcDbLine
 10
106.3926407282615
 20
506.0528838718115
 30
0.0
 11
106.392640728261
 21
502.8028838718097
 31
0.0
  0
LINE
  5
5EF0DD81
330
5EF092C1
100
AcDbEntity
  8
JISSEN
100
AcDbLine
 10
115.630245035295
 20
506.0528838718115
 30
0.0
 11
115.6302450352955
 21
502.802883871811
 31
0.0
  0
LINE
  5
5EF0DD82
330
5EF092C1
100
AcDbEntity
  8
JISSEN
100
AcDbLine
 10
120.2524459891892
 20
506.0509215734988
 30
0.0
 11
120.2524459891892
 21
502.8028838718211
 31
0.0
  0
LINE
  5
5EF0DD83
330
5EF092C1
100
AcDbEntity
  8
JISSEN
100
AcDbLine
 10
120.2524459891892
 20
506.0509215734988
 30
0.0
 11
118.0873824797281
 21
507.3009215734988
 31
0.0
  0
LINE
  5
5EF0DD84
330
5EF092C1
100
AcDbEntity
  8
JISSEN
100
AcDbLine
 10
118.0873824797281
 20
507.3009215734988
 30
0.0
 11
115.630245035295
 21
506.0528838718115
 31
0.0
  0
LINE
  5
5EF0DD85
330
5EF092C1
100
AcDbEntity
  8
JISSEN
100
AcDbLine
 10
115.630245035295
 20
506.0528838718115
 30
0.0
 11
111.0148416821557
 21
507.3028838718115
 31
0.0
  0
LINE
  5
5EF0DD86
330
5EF092C1
100
AcDbEntity
  8
JISSEN
100
AcDbLine
 10
118.0873824797281
 20
507.3009215734988
 30
0.0
 11
103.9389020842054
 21
507.3028838718115
 31
0.0
  0
LINE
  5
5EF0DD87
330
5EF092C1
100
AcDbEntity
  8
JISSEN
100
AcDbLine
 10
106.3926407282615
 20
506.0528838718115
 30
0.0
 11
111.0148416821557
 21
507.3028838718115
 31
0.0
  0
LINE
  5
5EF0DD94
330
5EF092C1
100
AcDbEntity
  8
JISSEN
100
AcDbLine
 10
205.0058897695826
 20
300.8986297955272
 30
0.0
 11
203.0058897695826
 21
298.8986297955272
 31
0.0
  0
LINE
  5
5EF0DD95
330
5EF092C1
100
AcDbEntity
  8
JISSEN
100
AcDbLine
 10
233.0058897695845
 20
300.8986297955272
 30
0.0
 11
235.005889769584
 21
298.8986297955272
 31
0.0
  0
LINE
  5
5EF0DD96
330
5EF092C1
100
AcDbEntity
  8
JISSEN
100
AcDbLine
 10
205.0058897695826
 20
300.8986297955272
 30
0.0
 11
233.0058897695845
 21
300.8986297955272
 31
0.0
  0
LINE
  5
5EF0DD97
330
5EF092C1
100
AcDbEntity
  8
JISSEN
100
AcDbLine
 10
203.0058897695826
 20
298.8986297955272
 30
0.0
 11
235.005889769584
 21
298.8986297955272
 31
0.0
  0
ENDSEC
  0
SECTION
  2
OBJECTS
  0
DICTIONARY
  5
5EF092B5
330
0
100
AcDbDictionary
  3
ACAD_GROUP
350
5EF092B6
  3
ACAD_LAYOUT
350
5EF0C0C8
  3
ACAD_MLINESTYLE
350
5EF092B7
  3
ACAD_PLOTSETTINGS
350
5EF0C0C9
  3
ACAD_PLOTSTYLENAME
350
5EF0C0C6
  3
ACDBHEADERROUNDTRIPXREC
350
5EF0DD9D
  3
ACDBVARIABLEDICTIONARY
350
5EF095CB
  0
DICTIONARY
  5
5EF0C241
330
5EF092AB
100
AcDbDictionary
280
     1
  3
ACAD_LAYERSTATES
360
5EF0C242
  0
DICTIONARY
  5
5EF0C0F3
330
5EF092C1
100
AcDbDictionary
280
     1
  3
ACAD_LAYOUTSELFREF
360
5EF0DDBF
  0
DICTIONARY
  5
5EF0C0F1
330
5EF092BE
100
AcDbDictionary
280
     1
  3
ACAD_LAYOUTSELFREF
360
5EF0DDBE
  0
DICTIONARY
  5
5EF092B6
102
{ACAD_REACTORS
330
5EF092B5
102
}
330
5EF092B5
100
AcDbDictionary
  0
DICTIONARY
  5
5EF0C0C8
102
{ACAD_REACTORS
330
5EF092B5
102
}
330
5EF092B5
100
AcDbDictionary
  0
DICTIONARY
  5
5EF092B7
102
{ACAD_REACTORS
330
5EF092B5
102
}
330
5EF092B5
100
AcDbDictionary
  3
STANDARD
350
5EF092C4
  0
DICTIONARY
  5
5EF0C0C9
102
{ACAD_REACTORS
330
5EF092B5
102
}
330
5EF092B5
100
AcDbDictionary
  0
ACDBDICTIONARYWDFLT
  5
5EF0C0C6
102
{ACAD_REACTORS
330
5EF092B5
102
}
330
5EF092B5
100
AcDbDictionary
281
     1
  3
Normal
350
5EF0C0C7
100
AcDbDictionaryWithDefault
340
5EF0C0C7
  0
DICTIONARY
  5
5EF0DD9D
102
{ACAD_REACTORS
330
5EF092B5
102
}
330
5EF092B5
100
AcDbDictionary
  3
CEPSNTYPE
350
5EF0DDA7
  3
DIMSTYLEDATA
350
5EF0DDAB
  3
FINGERPRINTGUID
350
5EF0DDA8
  3
HYPERLINKBASE
350
5EF0DDA0
  3
INSUNITS
350
5EF0DDA6
  3
LAYOUTDICT
350
5EF0DDA2
  3
LWETCUNION
350
5EF0DDA5
  3
PLOTSETDICT
350
5EF0DDA3
  3
PLOTSTYLNAMDICT
350
5EF0DDA4
  3
PSVPSCALE
350
5EF0DDAA
  3
PUCSBASE
350
5EF0DDAE
  3
PUCSORGBACK
350
5EF0DDB4
  3
PUCSORGBOTTOM
350
5EF0DDB0
  3
PUCSORGFRONT
350
5EF0DDB3
  3
PUCSORGLEFT
350
5EF0DDB1
  3
PUCSORGRIGHT
350
5EF0DDB2
  3
PUCSORGTOP
350
5EF0DDAF
  3
PUCSORTHOREF
350
5EF0DDAC
  3
PUCSORTHOVIEW
350
5EF0DDAD
  3
STYLESHEET
350
5EF0DDA1
  3
TSTACKALIGN
350
5EF0DD9E
  3
TSTACKSIZE
350
5EF0DD9F
  3
UCSBASE
350
5EF0DDB7
  3
UCSORGBACK
350
5EF0DDBD
  3
UCSORGBOTTOM
350
5EF0DDB9
  3
UCSORGFRONT
350
5EF0DDBC
  3
UCSORGLEFT
350
5EF0DDBA
  3
UCSORGRIGHT
350
5EF0DDBB
  3
UCSORGTOP
350
5EF0DDB8
  3
UCSORTHOREF
350
5EF0DDB5
  3
UCSORTHOVIEW
350
5EF0DDB6
  3
VERSIONGUID
350
5EF0DDA9
  0
DICTIONARY
  5
5EF095CB
102
{ACAD_REACTORS
330
5EF092B5
102
}
330
5EF092B5
100
AcDbDictionary
  3
DIMASSOC
350
5EF0C217
  3
SORTENTS
350
5EF095CC
  0
DICTIONARY
  5
5EF0C242
102
{ACAD_REACTORS
330
5EF0C241
102
}
330
5EF0C241
100
AcDbDictionary
  0
XRECORD
  5
5EF0DDBF
102
{ACAD_REACTORS
330
5EF0C0F3
102
}
330
5EF0C0F3
100
AcDbXrecord
340
5EF092C1
  0
XRECORD
  5
5EF0DDBE
102
{ACAD_REACTORS
330
5EF0C0F1
102
}
330
5EF0C0F1
100
AcDbXrecord
340
5EF092BE
  0
MLINESTYLE
  5
5EF092C4
102
{ACAD_REACTORS
330
5EF092B7
102
}
330
5EF092B7
100
AcDbMlineStyle
  2
STANDARD
 70
     0
  3

 62
     0
 51
90.0
 52
90.0
 71
     2
 49
0.5
 62
   256
  6
BYLAYER
 49
-0.5
 62
   256
  6
BYLAYER
  0
ACDBPLACEHOLDER
  5
5EF0C0C7
102
{ACAD_REACTORS
330
5EF0C0C6
102
}
330
5EF0C0C6
100
AcDbPlaceHolder
280
     0
  0
XRECORD
  5
5EF0DDA7
102
{ACAD_REACTORS
330
5EF0DD9D
102
}
330
5EF0DD9D
100
AcDbXrecord
 90
        0
  0
XRECORD
  5
5EF0DDAB
102
{ACAD_REACTORS
330
5EF0DD9D
102
}
330
5EF0DD9D
100
AcDbXrecord
1000
DSTYLE
1002
{
1070
   341
340
5EF092CB
1070
   342
340
5EF092CB
1070
   343
340
5EF092CB
1070
   344
340
5EF092CB
1002
}
  0
XRECORD
  5
5EF0DDA8
102
{ACAD_REACTORS
330
5EF0DD9D
102
}
330
5EF0DD9D
100
AcDbXrecord
  1
{F1A9DA6A-6873-4B86-9431-D1559869C896}
  0
XRECORD
  5
5EF0DDA0
102
{ACAD_REACTORS
330
5EF0DD9D
102
}
330
5EF0DD9D
100
AcDbXrecord
  1

  0
XRECORD
  5
5EF0DDA6
102
{ACAD_REACTORS
330
5EF0DD9D
102
}
330
5EF0DD9D
100
AcDbXrecord
 90
        0
  0
XRECORD
  5
5EF0DDA2
102
{ACAD_REACTORS
330
5EF0DD9D
102
}
330
5EF0DD9D
100
AcDbXrecord
340
5EF0C0C8
  0
XRECORD
  5
5EF0DDA5
102
{ACAD_REACTORS
330
5EF0DD9D
102
}
330
5EF0DD9D
100
AcDbXrecord
 90
    14877
  0
XRECORD
  5
5EF0DDA3
102
{ACAD_REACTORS
330
5EF0DD9D
102
}
330
5EF0DD9D
100
AcDbXrecord
340
5EF0C0C9
  0
XRECORD
  5
5EF0DDA4
102
{ACAD_REACTORS
330
5EF0DD9D
102
}
330
5EF0DD9D
100
AcDbXrecord
340
5EF0C0C6
  0
XRECORD
  5
5EF0DDAA
102
{ACAD_REACTORS
330
5EF0DD9D
102
}
330
5EF0DD9D
100
AcDbXrecord
 40
0.0
  0
XRECORD
  5
5EF0DDAE
102
{ACAD_REACTORS
330
5EF0DD9D
102
}
330
5EF0DD9D
100
AcDbXrecord
340
0
  0
XRECORD
  5
5EF0DDB4
102
{ACAD_REACTORS
330
5EF0DD9D
102
}
330
5EF0DD9D
100
AcDbXrecord
 10
0.0
 20
0.0
 30
0.0
  0
XRECORD
  5
5EF0DDB0
102
{ACAD_REACTORS
330
5EF0DD9D
102
}
330
5EF0DD9D
100
AcDbXrecord
 10
0.0
 20
0.0
 30
0.0
  0
XRECORD
  5
5EF0DDB3
102
{ACAD_REACTORS
330
5EF0DD9D
102
}
330
5EF0DD9D
100
AcDbXrecord
 10
0.0
 20
0.0
 30
0.0
  0
XRECORD
  5
5EF0DDB1
102
{ACAD_REACTORS
330
5EF0DD9D
102
}
330
5EF0DD9D
100
AcDbXrecord
 10
0.0
 20
0.0
 30
0.0
  0
XRECORD
  5
5EF0DDB2
102
{ACAD_REACTORS
330
5EF0DD9D
102
}
330
5EF0DD9D
100
AcDbXrecord
 10
0.0
 20
0.0
 30
0.0
  0
XRECORD
  5
5EF0DDAF
102
{ACAD_REACTORS
330
5EF0DD9D
102
}
330
5EF0DD9D
100
AcDbXrecord
 10
0.0
 20
0.0
 30
0.0
  0
XRECORD
  5
5EF0DDAC
102
{ACAD_REACTORS
330
5EF0DD9D
102
}
330
5EF0DD9D
100
AcDbXrecord
340
0
  0
XRECORD
  5
5EF0DDAD
102
{ACAD_REACTORS
330
5EF0DD9D
102
}
330
5EF0DD9D
100
AcDbXrecord
 70
     0
  0
XRECORD
  5
5EF0DDA1
102
{ACAD_REACTORS
330
5EF0DD9D
102
}
330
5EF0DD9D
100
AcDbXrecord
  1

  0
XRECORD
  5
5EF0DD9E
102
{ACAD_REACTORS
330
5EF0DD9D
102
}
330
5EF0DD9D
100
AcDbXrecord
 90
        1
  0
XRECORD
  5
5EF0DD9F
102
{ACAD_REACTORS
330
5EF0DD9D
102
}
330
5EF0DD9D
100
AcDbXrecord
 90
       70
  0
XRECORD
  5
5EF0DDB7
102
{ACAD_REACTORS
330
5EF0DD9D
102
}
330
5EF0DD9D
100
AcDbXrecord
340
0
  0
XRECORD
  5
5EF0DDBD
102
{ACAD_REACTORS
330
5EF0DD9D
102
}
330
5EF0DD9D
100
AcDbXrecord
 10
0.0
 20
0.0
 30
0.0
  0
XRECORD
  5
5EF0DDB9
102
{ACAD_REACTORS
330
5EF0DD9D
102
}
330
5EF0DD9D
100
AcDbXrecord
 10
0.0
 20
0.0
 30
0.0
  0
XRECORD
  5
5EF0DDBC
102
{ACAD_REACTORS
330
5EF0DD9D
102
}
330
5EF0DD9D
100
AcDbXrecord
 10
0.0
 20
0.0
 30
0.0
  0
XRECORD
  5
5EF0DDBA
102
{ACAD_REACTORS
330
5EF0DD9D
102
}
330
5EF0DD9D
100
AcDbXrecord
 10
0.0
 20
0.0
 30
0.0
  0
XRECORD
  5
5EF0DDBB
102
{ACAD_REACTORS
330
5EF0DD9D
102
}
330
5EF0DD9D
100
AcDbXrecord
 10
0.0
 20
0.0
 30
0.0
  0
XRECORD
  5
5EF0DDB8
102
{ACAD_REACTORS
330
5EF0DD9D
102
}
330
5EF0DD9D
100
AcDbXrecord
 10
0.0
 20
0.0
 30
0.0
  0
XRECORD
  5
5EF0DDB5
102
{ACAD_REACTORS
330
5EF0DD9D
102
}
330
5EF0DD9D
100
AcDbXrecord
340
0
  0
XRECORD
  5
5EF0DDB6
102
{ACAD_REACTORS
330
5EF0DD9D
102
}
330
5EF0DD9D
100
AcDbXrecord
 70
     0
  0
XRECORD
  5
5EF0DDA9
102
{ACAD_REACTORS
330
5EF0DD9D
102
}
330
5EF0DD9D
100
AcDbXrecord
  1
{5B5EC6CA-504C-4F77-B9CC-A0E524501731}
  0
DICTIONARYVAR
  5
5EF0C217
102
{ACAD_REACTORS
330
5EF095CB
102
}
330
5EF095CB
100
DictionaryVariables
280
     0
  1
0
  0
DICTIONARYVAR
  5
5EF095CC
102
{ACAD_REACTORS
330
5EF095CB
102
}
330
5EF095CB
100
DictionaryVariables
280
     0
  1
96
  0
ENDSEC
  0
EOF
