  0
SECTION
  2
HEADER
  9
$ACADVER
  1
AC1014
  9
$ACADMAINTVER
 70
     9
  9
$DWGCODEPAGE
  3
ANSI_932
  9
$INSBASE
 10
0.0
 20
0.0
 30
0.0
  9
$EXTMIN
 10
-0.0653723248301503
 20
-0.0476390424535112
 30
-0.0000000000000136
  9
$EXTMAX
 10
1170.039426586027
 20
819.0270079973297
 30
0.0000000000000016
  9
$LIMMIN
 10
0.0
 20
0.0
  9
$LIMMAX
 10
1170.0
 20
819.0
  9
$ORTHOMODE
 70
     1
  9
$REGENMODE
 70
     1
  9
$FILLMODE
 70
     1
  9
$QTEXTMODE
 70
     0
  9
$MIRRTEXT
 70
     0
  9
$DRAGMODE
 70
     2
  9
$LTSCALE
 40
5.0
  9
$OSMODE
 70
   167
  9
$ATTMODE
 70
     1
  9
$TEXTSIZE
 40
1.0
  9
$TRACEWID
 40
0.05
  9
$TEXTSTYLE
  7
K
  9
$CLAYER
  8
SCALE
  9
$CELTYPE
  6
BYLAYER
  9
$CECOLOR
 62
   256
  9
$CELTSCALE
 40
1.0
  9
$DELOBJ
 70
     1
  9
$DISPSILH
 70
     0
  9
$DIMSCALE
 40
3.0
  9
$DIMASZ
 40
1.5
  9
$DIMEXO
 40
0.75
  9
$DIMDLI
 40
6.0
  9
$DIMRND
 40
0.0
  9
$DIMDLE
 40
0.0
  9
$DIMEXE
 40
1.0
  9
$DIMTP
 40
495.0
  9
$DIMTM
 40
0.0
  9
$DIMTXT
 40
3.0
  9
$DIMCEN
 40
0.0
  9
$DIMTSZ
 40
0.0
  9
$DIMTOL
 70
     0
  9
$DIMLIM
 70
     0
  9
$DIMTIH
 70
     0
  9
$DIMTOH
 70
     0
  9
$DIMSE1
 70
     0
  9
$DIMSE2
 70
     0
  9
$DIMTAD
 70
     3
  9
$DIMZIN
 70
     8
  9
$DIMBLK
  1

  9
$DIMASO
 70
     0
  9
$DIMSHO
 70
     0
  9
$DIMPOST
  1

  9
$DIMAPOST
  1

  9
$DIMALT
 70
     0
  9
$DIMALTD
 70
     2
  9
$DIMALTF
 40
25.4
  9
$DIMLFAC
 40
1.0
  9
$DIMTOFL
 70
     1
  9
$DIMTVP
 40
0.0
  9
$DIMTIX
 70
     1
  9
$DIMSOXD
 70
     0
  9
$DIMSAH
 70
     1
  9
$DIMBLK1
  1
ARROWANG
  9
$DIMBLK2
  1
ARROWANG
  9
$DIMSTYLE
  2
IMAO
  9
$DIMCLRD
 70
   256
  9
$DIMCLRE
 70
   256
  9
$DIMCLRT
 70
   256
  9
$DIMTFAC
 40
1.0
  9
$DIMGAP
 40
1.0
  9
$DIMJUST
 70
     0
  9
$DIMSD1
 70
     0
  9
$DIMSD2
 70
     0
  9
$DIMTOLJ
 70
     1
  9
$DIMTZIN
 70
     0
  9
$DIMALTZ
 70
     0
  9
$DIMALTTZ
 70
     0
  9
$DIMFIT
 70
     3
  9
$DIMUPT
 70
     0
  9
$DIMUNIT
 70
     2
  9
$DIMDEC
 70
     2
  9
$DIMTDEC
 70
     2
  9
$DIMALTU
 70
     2
  9
$DIMALTTD
 70
     2
  9
$DIMTXSTY
  7
K
  9
$DIMAUNIT
 70
     0
  9
$LUNITS
 70
     2
  9
$LUPREC
 70
     2
  9
$SKETCHINC
 40
0.1
  9
$FILLETRAD
 40
3.0
  9
$AUNITS
 70
     0
  9
$AUPREC
 70
     2
  9
$MENU
  1
STDR12J
  9
$ELEVATION
 40
0.0
  9
$PELEVATION
 40
0.0
  9
$THICKNESS
 40
0.0
  9
$LIMCHECK
 70
     0
  9
$BLIPMODE
 70
     0
  9
$CHAMFERA
 40
0.0
  9
$CHAMFERB
 40
0.0
  9
$CHAMFERC
 40
0.0
  9
$CHAMFERD
 40
0.0
  9
$SKPOLY
 70
     0
  9
$TDCREATE
 40
2450694.736564815
  9
$TDUPDATE
 40
2453382.393935335
  9
$TDINDWG
 40
0.1811592824
  9
$TDUSRTIMER
 40
0.1811592824
  9
$USRTIMER
 70
     1
  9
$ANGBASE
 50
0.0
  9
$ANGDIR
 70
     0
  9
$PDMODE
 70
     0
  9
$PDSIZE
 40
0.0
  9
$PLINEWID
 40
0.0
  9
$COORDS
 70
     2
  9
$SPLFRAME
 70
     0
  9
$SPLINETYPE
 70
     6
  9
$SPLINESEGS
 70
     8
  9
$ATTDIA
 70
     0
  9
$ATTREQ
 70
     1
  9
$HANDLING
 70
 22529
  9
$HANDSEED
  5
5EF0C0BF
  9
$SURFTAB1
 70
     6
  9
$SURFTAB2
 70
     6
  9
$SURFTYPE
 70
     6
  9
$SURFU
 70
     6
  9
$SURFV
 70
     6
  9
$UCSNAME
  2

  9
$UCSORG
 10
0.0
 20
0.0
 30
0.0
  9
$UCSXDIR
 10
1.0
 20
0.0
 30
0.0
  9
$UCSYDIR
 10
0.0
 20
1.0
 30
0.0
  9
$PUCSNAME
  2

  9
$PUCSORG
 10
0.0
 20
0.0
 30
0.0
  9
$PUCSXDIR
 10
1.0
 20
0.0
 30
0.0
  9
$PUCSYDIR
 10
0.0
 20
1.0
 30
0.0
  9
$USERI1
 70
     3
  9
$USERI2
 70
     1
  9
$USERI3
 70
     1
  9
$USERI4
 70
     1
  9
$USERI5
 70
     1
  9
$USERR1
 40
1.0
  9
$USERR2
 40
3.0
  9
$USERR3
 40
3.0
  9
$USERR4
 40
1.5
  9
$USERR5
 40
10.0
  9
$WORLDVIEW
 70
     1
  9
$SHADEDGE
 70
     3
  9
$SHADEDIF
 70
    70
  9
$TILEMODE
 70
     1
  9
$MAXACTVP
 70
    16
  9
$PINSBASE
 10
0.0
 20
0.0
 30
0.0
  9
$PLIMCHECK
 70
     0
  9
$PEXTMIN
 10
1.000000000000000E+20
 20
1.000000000000000E+20
 30
1.000000000000000E+20
  9
$PEXTMAX
 10
-1.000000000000000E+20
 20
-1.000000000000000E+20
 30
-1.000000000000000E+20
  9
$PLIMMIN
 10
0.0
 20
0.0
  9
$PLIMMAX
 10
12.0
 20
9.0
  9
$UNITMODE
 70
     0
  9
$VISRETAIN
 70
     0
  9
$PLINEGEN
 70
     0
  9
$PSLTSCALE
 70
     0
  9
$TREEDEPTH
 70
     0
  9
$PICKSTYLE
 70
     1
  9
$CMLSTYLE
  2
STANDARD
  9
$CMLJUST
 70
     0
  9
$CMLSCALE
 40
1.0
  9
$PROXYGRAPHICS
 70
     1
  9
$MEASUREMENT
 70
     0
  0
ENDSEC
  0
SECTION
  2
CLASSES
  0
CLASS
  1
LWPOLYLINE
  2
AcDbPolyline
  3
AutoCAD 2000
 90
        0
280
     0
281
     1
  0
CLASS
  1
HATCH
  2
AcDbHatch
  3
AutoCAD 2000
 90
        0
280
     0
281
     1
  0
CLASS
  1
DICTIONARYVAR
  2
AcDbDictionaryVar
  3
AutoCAD 2000
 90
        0
280
     0
281
     0
  0
CLASS
  1
ACDBDICTIONARYWDFLT
  2
AcDbDictionaryWithDefault
  3
AutoCAD 2000
 90
        0
280
     0
281
     0
  0
CLASS
  1
ACDBPLACEHOLDER
  2
AcDbPlaceHolder
  3
AutoCAD 2000
 90
        0
280
     0
281
     0
  0
CLASS
  1
LAYOUT
  2
AcDbLayout
  3
AutoCAD 2000
 90
        0
280
     0
281
     0
  0
CLASS
  1
LONG_TRANSACTION
  2
AcDbLongTransaction
  3
AutoCAD 2000
 90
        0
280
     0
281
     0
  0
CLASS
  1
LWPOLYLINE
  2
AcDbPolyline
  3
AutoCAD 2000
 90
        0
280
     0
281
     1
  0
CLASS
  1
HATCH
  2
AcDbHatch
  3
AutoCAD 2000
 90
        0
280
     0
281
     1
  0
CLASS
  1
XRECORD
  2
AcDbXrecord
  3
AutoCAD 2000
 90
        0
280
     0
281
     0
  0
CLASS
  1
LONG_TRANSACTION
  2
AcDbLongTransaction
  3
AutoCAD 2000
 90
        0
280
     0
281
     0
  0
CLASS
  1
LWPOLYLINE
  2
AcDbPolyline
  3
AutoCAD 2000
 90
        0
280
     0
281
     1
  0
CLASS
  1
HATCH
  2
AcDbHatch
  3
AutoCAD 2000
 90
        0
280
     0
281
     1
  0
CLASS
  1
XRECORD
  2
AcDbXrecord
  3
AutoCAD 2000
 90
        0
280
     0
281
     0
  0
CLASS
  1
LONG_TRANSACTION
  2
AcDbLongTransaction
  3
AutoCAD 2000
 90
        0
280
     0
281
     0
  0
CLASS
  1
LWPOLYLINE
  2
AcDbPolyline
  3
AutoCAD 2000
 90
        0
280
     0
281
     1
  0
CLASS
  1
HATCH
  2
AcDbHatch
  3
AutoCAD 2000
 90
        0
280
     0
281
     1
  0
CLASS
  1
XRECORD
  2
AcDbXrecord
  3
AutoCAD 2000
 90
        0
280
     0
281
     0
  0
CLASS
  1
LONG_TRANSACTION
  2
AcDbLongTransaction
  3
AutoCAD 2000
 90
        0
280
     0
281
     0
  0
CLASS
  1
LWPOLYLINE
  2
AcDbPolyline
  3
AutoCAD 2000
 90
        0
280
     0
281
     1
  0
CLASS
  1
HATCH
  2
AcDbHatch
  3
AutoCAD 2000
 90
        0
280
     0
281
     1
  0
CLASS
  1
XRECORD
  2
AcDbXrecord
  3
AutoCAD 2000
 90
        0
280
     0
281
     0
  0
CLASS
  1
LONG_TRANSACTION
  2
AcDbLongTransaction
  3
AutoCAD 2000
 90
        0
280
     0
281
     0
  0
CLASS
  1
LWPOLYLINE
  2
AcDbPolyline
  3
AutoCAD 2000
 90
        0
280
     0
281
     1
  0
CLASS
  1
HATCH
  2
AcDbHatch
  3
AutoCAD 2000
 90
        0
280
     0
281
     1
  0
CLASS
  1
XRECORD
  2
AcDbXrecord
  3
AutoCAD 2000
 90
        0
280
     0
281
     0
  0
CLASS
  1
LONG_TRANSACTION
  2
AcDbLongTransaction
  3
AutoCAD 2000
 90
        0
280
     0
281
     0
  0
CLASS
  1
LWPOLYLINE
  2
AcDbPolyline
  3
AutoCAD 2000
 90
        0
280
     0
281
     1
  0
CLASS
  1
HATCH
  2
AcDbHatch
  3
AutoCAD 2000
 90
        0
280
     0
281
     1
  0
CLASS
  1
XRECORD
  2
AcDbXrecord
  3
AutoCAD 2000
 90
        0
280
     0
281
     0
  0
CLASS
  1
LONG_TRANSACTION
  2
AcDbLongTransaction
  3
AutoCAD 2000
 90
        0
280
     0
281
     0
  0
CLASS
  1
LWPOLYLINE
  2
AcDbPolyline
  3
AutoCAD 2000
 90
        0
280
     0
281
     1
  0
CLASS
  1
HATCH
  2
AcDbHatch
  3
AutoCAD 2000
 90
        0
280
     0
281
     1
  0
CLASS
  1
XRECORD
  2
AcDbXrecord
  3
AutoCAD 2000
 90
        0
280
     0
281
     0
  0
ENDSEC
  0
SECTION
  2
TABLES
  0
TABLE
  2
VPORT
  5
5EF092B1
330
0
100
AcDbSymbolTable
 70
    11
  0
VPORT
  5
5EF092D4
330
5EF092B1
100
AcDbSymbolTableRecord
100
AcDbViewportTableRecord
  2
2
 70
     0
 10
0.5
 20
0.0
 11
1.0
 21
1.0
 12
0.9240312421264802
 22
1.052650975462766
 13
0.0
 23
0.0
 14
1.0
 24
1.0
 15
10.0
 25
10.0
 16
0.0
 26
0.0
 36
1.0
 17
0.0
 27
0.0
 37
0.0
 40
2.105301950925533
 41
0.8778135048231511
 42
50.0
 43
0.0
 44
0.0
 50
0.0
 51
0.0
 71
     0
 72
   500
 73
     1
 74
     1
 75
     0
 76
     0
 77
     0
 78
     0
  0
VPORT
  5
5EF092D5
330
5EF092B1
100
AcDbSymbolTableRecord
100
AcDbViewportTableRecord
  2
2
 70
     0
 10
0.0
 20
0.0
 11
0.5
 21
1.0
 12
0.9240312421264802
 22
1.052650975462766
 13
0.0
 23
0.0
 14
1.0
 24
1.0
 15
10.0
 25
10.0
 16
0.0
 26
0.0
 36
1.0
 17
0.0
 27
0.0
 37
0.0
 40
2.105301950925533
 41
0.8778135048231511
 42
50.0
 43
0.0
 44
0.0
 50
0.0
 51
0.0
 71
     0
 72
   500
 73
     1
 74
     1
 75
     0
 76
     0
 77
     0
 78
     0
  0
VPORT
  5
5EF092D6
330
5EF092B1
100
AcDbSymbolTableRecord
100
AcDbViewportTableRecord
  2
3
 70
     0
 10
0.0
 20
0.5
 11
1.0
 21
1.0
 12
2.832169994473273
 22
1.052650975462766
 13
0.0
 23
0.0
 14
1.0
 24
1.0
 15
10.0
 25
10.0
 16
0.0
 26
0.0
 36
1.0
 17
0.0
 27
0.0
 37
0.0
 40
2.105301950925533
 41
3.571428571428571
 42
50.0
 43
0.0
 44
0.0
 50
0.0
 51
0.0
 71
     0
 72
   500
 73
     1
 74
     1
 75
     0
 76
     0
 77
     0
 78
     0
  0
VPORT
  5
5EF092D7
330
5EF092B1
100
AcDbSymbolTableRecord
100
AcDbViewportTableRecord
  2
3
 70
     0
 10
0.0
 20
0.0
 11
1.0
 21
0.5
 12
2.856741679241311
 22
1.052650975462766
 13
0.0
 23
0.0
 14
1.0
 24
1.0
 15
10.0
 25
10.0
 16
0.0
 26
0.0
 36
1.0
 17
0.0
 27
0.0
 37
0.0
 40
2.105301950925533
 41
3.594771241830065
 42
50.0
 43
0.0
 44
0.0
 50
0.0
 51
0.0
 71
     0
 72
   500
 73
     1
 74
     1
 75
     0
 76
     0
 77
     0
 78
     0
  0
VPORT
  5
5EF092D8
330
5EF092B1
100
AcDbSymbolTableRecord
100
AcDbViewportTableRecord
  2
4
 70
     0
 10
0.5
 20
0.0
 11
1.0
 21
0.5
 12
2.886857516709719
 22
1.052650975462766
 13
0.0
 23
0.0
 14
1.0
 24
1.0
 15
10.0
 25
10.0
 16
0.0
 26
0.0
 36
1.0
 17
0.0
 27
0.0
 37
0.0
 40
4.27520703030907
 41
1.784313725490195
 42
50.0
 43
0.0
 44
0.0
 50
0.0
 51
0.0
 71
     0
 72
   500
 73
     1
 74
     1
 75
     0
 76
     0
 77
     0
 78
     0
  0
VPORT
  5
5EF092D9
330
5EF092B1
100
AcDbSymbolTableRecord
100
AcDbViewportTableRecord
  2
4
 70
     0
 10
0.5
 20
0.5
 11
1.0
 21
1.0
 12
2.862090274555523
 22
1.052650975462766
 13
0.0
 23
0.0
 14
1.0
 24
1.0
 15
10.0
 25
10.0
 16
0.0
 26
0.0
 36
1.0
 17
0.0
 27
0.0
 37
0.0
 40
4.27520703030907
 41
1.772727272727272
 42
50.0
 43
0.0
 44
0.0
 50
0.0
 51
0.0
 71
     0
 72
   500
 73
     1
 74
     1
 75
     0
 76
     0
 77
     0
 78
     0
  0
VPORT
  5
5EF092DA
330
5EF092B1
100
AcDbSymbolTableRecord
100
AcDbViewportTableRecord
  2
4
 70
     0
 10
0.0
 20
0.5
 11
0.5
 21
1.0
 12
2.862090274555523
 22
1.052650975462766
 13
0.0
 23
0.0
 14
1.0
 24
1.0
 15
10.0
 25
10.0
 16
0.0
 26
0.0
 36
1.0
 17
0.0
 27
0.0
 37
0.0
 40
4.27520703030907
 41
1.772727272727272
 42
50.0
 43
0.0
 44
0.0
 50
0.0
 51
0.0
 71
     0
 72
   500
 73
     1
 74
     1
 75
     0
 76
     0
 77
     0
 78
     0
  0
VPORT
  5
5EF092DB
330
5EF092B1
100
AcDbSymbolTableRecord
100
AcDbViewportTableRecord
  2
4
 70
     0
 10
0.0
 20
0.0
 11
0.5
 21
0.5
 12
2.886857516709719
 22
1.052650975462766
 13
0.0
 23
0.0
 14
1.0
 24
1.0
 15
10.0
 25
10.0
 16
0.0
 26
0.0
 36
1.0
 17
0.0
 27
0.0
 37
0.0
 40
4.27520703030907
 41
1.784313725490195
 42
50.0
 43
0.0
 44
0.0
 50
0.0
 51
0.0
 71
     0
 72
   500
 73
     1
 74
     1
 75
     0
 76
     0
 77
     0
 78
     0
  0
VPORT
  5
5EF0C09B
330
5EF092B1
100
AcDbSymbolTableRecord
100
AcDbViewportTableRecord
  2
*ACTIVE
 70
     0
 10
0.0
 20
0.0
 11
1.0
 21
1.0
 12
584.9870271305989
 22
409.489684477438
 13
0.0
 23
0.0
 14
1.0
 24
1.0
 15
10.0
 25
10.0
 16
0.0
 26
0.0
 36
1.0
 17
0.0
 27
0.0
 37
0.0
 40
828.2433930887359
 41
1.771962616822429
 42
50.0
 43
0.0
 44
0.0
 50
0.0
 51
0.0
 71
     0
 72
   500
 73
     1
 74
     0
 75
     0
 76
     0
 77
     0
 78
     0
  0
ENDTAB
  0
TABLE
  2
LTYPE
  5
5EF092AE
330
0
100
AcDbSymbolTable
 70
     3
  0
LTYPE
  5
5EF092BB
330
5EF092AE
100
AcDbSymbolTableRecord
100
AcDbLinetypeTableRecord
  2
BYBLOCK
 70
     0
  3

 72
    65
 73
     0
 40
0.0
  0
LTYPE
  5
5EF092BC
330
5EF092AE
100
AcDbSymbolTableRecord
100
AcDbLinetypeTableRecord
  2
BYLAYER
 70
     0
  3

 72
    65
 73
     0
 40
0.0
  0
LTYPE
  5
5EF092BD
330
5EF092AE
100
AcDbSymbolTableRecord
100
AcDbLinetypeTableRecord
  2
CONTINUOUS
 70
     0
  3
実線
 72
    65
 73
     0
 40
0.0
  0
LTYPE
  5
5EF092D1
330
5EF092AE
100
AcDbSymbolTableRecord
100
AcDbLinetypeTableRecord
  2
CENTER
 70
     0
  3
____ _ ____ _ ____ _ ____ _ ____ _ ____ _ ____
 72
    65
 73
     4
 40
2.0
 49
1.25
 74
     0
 49
-0.25
 74
     0
 49
0.25
 74
     0
 49
-0.25
 74
     0
  0
LTYPE
  5
5EF0AC91
330
5EF092AE
100
AcDbSymbolTableRecord
100
AcDbLinetypeTableRecord
  2
PHANTOM
 70
     0
  3
_____ _ _ _____ _ _ _____ _ _ _____ _ _ ____
 72
    65
 73
     6
 40
2.5
 49
1.25
 74
     0
 49
-0.25
 74
     0
 49
0.25
 74
     0
 49
-0.25
 74
     0
 49
0.25
 74
     0
 49
-0.25
 74
     0
  0
ENDTAB
  0
TABLE
  2
LAYER
  5
5EF092AB
330
0
100
AcDbSymbolTable
 70
     8
  0
LAYER
  5
5EF092B8
330
5EF092AB
100
AcDbSymbolTableRecord
100
AcDbLayerTableRecord
  2
0
 70
     0
 62
     7
  6
CONTINUOUS
  0
LAYER
  5
5EF092E0
330
5EF092AB
100
AcDbSymbolTableRecord
100
AcDbLayerTableRecord
  2
ITTEN
 70
     0
 62
     1
  6
CENTER
  0
LAYER
  5
5EF092E3
330
5EF092AB
100
AcDbSymbolTableRecord
100
AcDbLayerTableRecord
  2
SUNPOU
 70
     0
 62
     3
  6
CONTINUOUS
  0
LAYER
  5
5EF092E5
330
5EF092AB
100
AcDbSymbolTableRecord
100
AcDbLayerTableRecord
  2
SAISEN
 70
     0
 62
     4
  6
CONTINUOUS
  0
LAYER
  5
5EF092E6
330
5EF092AB
100
AcDbSymbolTableRecord
100
AcDbLayerTableRecord
  2
JISSEN
 70
     0
 62
     7
  6
CONTINUOUS
  0
LAYER
  5
5EF092EA
330
5EF092AB
100
AcDbSymbolTableRecord
100
AcDbLayerTableRecord
  2
WAKU
 70
     0
 62
     5
  6
CONTINUOUS
  0
LAYER
  5
5EF092FD
330
5EF092AB
100
AcDbSymbolTableRecord
100
AcDbLayerTableRecord
  2
SCALE
 70
     0
 62
     7
  6
CONTINUOUS
  0
LAYER
  5
5EF0AC92
330
5EF092AB
100
AcDbSymbolTableRecord
100
AcDbLayerTableRecord
  2
NITEN
 70
     0
 62
     2
  6
PHANTOM
  0
ENDTAB
  0
TABLE
  2
STYLE
  5
5EF092AC
330
0
100
AcDbSymbolTable
 70
     2
  0
STYLE
  5
5EF092B9
330
5EF092AC
100
AcDbSymbolTableRecord
100
AcDbTextStyleTableRecord
  2
STANDARD
 70
     0
 40
0.0
 41
1.0
 50
0.0
 71
     0
 42
0.2
  3
ROMANS
  4
EXTFONT
  0
STYLE
  5
5EF092CF
330
5EF092AC
100
AcDbSymbolTableRecord
100
AcDbTextStyleTableRecord
  2
K
 70
     0
 40
0.0
 41
1.0
 50
0.0
 71
     0
 42
1.0
  3
ROMANS
  4
EXTFONT
  0
ENDTAB
  0
TABLE
  2
VIEW
  5
5EF092AF
330
0
100
AcDbSymbolTable
 70
     0
  0
ENDTAB
  0
TABLE
  2
UCS
  5
5EF092B0
330
0
100
AcDbSymbolTable
 70
     0
  0
ENDTAB
  0
TABLE
  2
APPID
  5
5EF092B2
330
0
100
AcDbSymbolTable
 70
     1
  0
APPID
  5
5EF092BA
330
5EF092B2
100
AcDbSymbolTableRecord
100
AcDbRegAppTableRecord
  2
ACAD
 70
     0
  0
ENDTAB
  0
TABLE
  2
DIMSTYLE
  5
5EF092B3
330
0
100
AcDbSymbolTable
 70
     2
  0
DIMSTYLE
105
5EF092DE
330
5EF092B3
100
AcDbSymbolTableRecord
100
AcDbDimStyleTableRecord
  2
IMAO
 70
     0
  3

  4

  5
ARROWANG
  6
ARROWANG
  7
ARROWANG
 40
1.0
 41
1.5
 42
0.75
 43
6.0
 44
1.0
 45
0.0
 46
0.0
 47
495.0
 48
0.0
140
3.0
141
0.0
142
0.0
143
25.4
144
1.0
145
0.0
146
1.0
147
1.0
 71
     0
 72
     0
 73
     0
 74
     0
 75
     0
 76
     0
 77
     3
 78
     8
170
     0
171
     2
172
     1
173
     1
174
     1
175
     0
176
   256
177
   256
178
   256
270
     2
271
     2
272
     2
273
     2
274
     2
340
5EF092CF
275
     0
280
     0
281
     0
282
     0
283
     1
284
     0
285
     0
286
     0
287
     3
288
     0
  0
DIMSTYLE
105
5EF0AC97
330
5EF092B3
100
AcDbSymbolTableRecord
100
AcDbDimStyleTableRecord
  2
STANDARD
 70
     0
  3

  4

  5

  6

  7

 40
1.0
 41
0.18
 42
0.0625
 43
0.38
 44
0.18
 45
0.0
 46
0.0
 47
0.0
 48
0.0
140
0.18
141
0.09
142
0.0
143
25.4
144
1.0
145
0.0
146
1.0
147
0.09
 71
     0
 72
     0
 73
     1
 74
     1
 75
     0
 76
     0
 77
     0
 78
     0
170
     0
171
     2
172
     0
173
     0
174
     0
175
     0
176
     0
177
     0
178
     0
270
     2
271
     2
272
     2
273
     2
274
     2
340
5EF092B9
275
     0
280
     0
281
     0
282
     0
283
     1
284
     0
285
     0
286
     0
287
     5
288
     0
  0
ENDTAB
  0
TABLE
  2
BLOCK_RECORD
  5
5EF092AA
330
0
100
AcDbSymbolTable
 70
     1
  0
BLOCK_RECORD
  5
5EF092C1
102
{ACAD_XDICTIONARY
360
5EF0A64E
102
}
330
5EF092AA
100
AcDbSymbolTableRecord
100
AcDbBlockTableRecord
  2
*MODEL_SPACE
  0
BLOCK_RECORD
  5
5EF092BE
102
{ACAD_XDICTIONARY
360
5EF0A64C
102
}
330
5EF092AA
100
AcDbSymbolTableRecord
100
AcDbBlockTableRecord
  2
*PAPER_SPACE
  0
BLOCK_RECORD
  5
5EF092CB
330
5EF092AA
100
AcDbSymbolTableRecord
100
AcDbBlockTableRecord
  2
ARROWANG
  0
ENDTAB
  0
ENDSEC
  0
SECTION
  2
BLOCKS
  0
BLOCK
  5
5EF092EF
330
5EF092C1
100
AcDbEntity
  8
0
100
AcDbBlockBegin
  2
*MODEL_SPACE
 70
     0
 10
0.0
 20
0.0
 30
0.0
  3
*MODEL_SPACE
  1

  0
ENDBLK
  5
5EF092F0
330
5EF092C1
100
AcDbEntity
  8
0
100
AcDbBlockEnd
  0
BLOCK
  5
5EF092ED
330
5EF092BE
100
AcDbEntity
 67
     1
  8
0
100
AcDbBlockBegin
  2
*PAPER_SPACE
 70
     0
 10
0.0
 20
0.0
 30
0.0
  3
*PAPER_SPACE
  1

  0
ENDBLK
  5
5EF092EE
330
5EF092BE
100
AcDbEntity
 67
     1
  8
0
100
AcDbBlockEnd
  0
BLOCK
  5
1D
330
5EF092CB
100
AcDbEntity
  8
0
100
AcDbBlockBegin
  2
ARROWANG
 70
     0
 10
0.0
 20
0.0
 30
0.0
  3
ARROWANG
  1

  0
LINE
  5
1E
330
5EF092CB
100
AcDbEntity
  8
SUNPOU
100
AcDbLine
 10
0.0
 20
0.0
 30
0.0
 11
-1.499999999999957
 21
0.4019237886467409
 31
0.0
  0
LINE
  5
1F
330
5EF092CB
100
AcDbEntity
  8
SUNPOU
100
AcDbLine
 10
0.0
 20
0.0
 30
0.0
 11
-1.500000000000028
 21
-0.4019237886467124
 31
0.0
  0
ENDBLK
  5
20
330
5EF092CB
100
AcDbEntity
  8
0
100
AcDbBlockEnd
  0
ENDSEC
  0
SECTION
  2
ENTITIES
  0
TEXT
  5
2D6D6C92
330
5EF092C1
100
AcDbEntity
  8
JISSEN
100
AcDbText
 10
349.9540407660656
 20
1.542807100332489
 30
0.0
 40
3.5
  1

  7
K
100
AcDbText
  0
LWPOLYLINE
  5
5EF0A024
330
5EF092C1
100
AcDbEntity
  8
WAKU
100
AcDbPolyline
 90
        4
 70
     1
 43
0.0
 10
0.0
 20
0.0
 10
1170.0
 20
0.0
 10
1170.0
 20
819.0
 10
0.0
 20
819.0
  0
CIRCLE
  5
5EF0B495
330
5EF092C1
100
AcDbEntity
  8
JISSEN
100
AcDbCircle
 10
802.9679931500472
 20
297.5757624816667
 30
0.0
 40
9.5
  0
ARC
  5
5EF0B497
330
5EF092C1
100
AcDbEntity
  8
JISSEN
100
AcDbCircle
 10
836.4527934819925
 20
216.7363033869292
 30
0.0
 40
105.0
100
AcDbArc
 50
90.0
 51
270.0
  0
LINE
  5
5EF0B499
330
5EF092C1
100
AcDbEntity
  8
JISSEN
100
AcDbLine
 10
743.4527934819925
 20
338.486930983551
 30
0.0
 11
743.4527934819925
 21
265.4805338147455
 31
0.0
  0
LINE
  5
5EF0B4B5
330
5EF092C1
100
AcDbEntity
  8
JISSEN
100
AcDbLine
 10
836.4527934819925
 20
104.2363033869291
 30
0.0
 11
816.4527934819926
 21
104.2363033869291
 31
0.0
  0
LINE
  5
5EF0B4B6
330
5EF092C1
100
AcDbEntity
  8
SAISEN
100
AcDbLine
 10
836.4527934819925
 20
94.6263033869293
 30
0.0
 11
823.0177646394482
 21
82.62630338692929
 31
0.0
  0
LINE
  5
5EF0B4B7
330
5EF092C1
100
AcDbEntity
  8
SAISEN
100
AcDbLine
 10
823.0177646394482
 20
94.6263033869293
 30
0.0
 11
836.4527934819925
 21
82.62630338692929
 31
0.0
  0
LINE
  5
5EF0B4BA
330
5EF092C1
100
AcDbEntity
  8
JISSEN
100
AcDbLine
 10
823.0177646394482
 20
82.62630338692929
 30
0.0
 11
823.0177646394482
 21
94.6263033869293
 31
0.0
  0
ARC
  5
5EF0B4BB
330
5EF092C1
100
AcDbEntity
  8
JISSEN
100
AcDbCircle
 10
816.4527934819926
 20
109.2363033869292
 30
0.0
 40
5.0
100
AcDbArc
 50
180.0
 51
270.0
  0
LINE
  5
5EF0B4BC
330
5EF092C1
100
AcDbEntity
  8
JISSEN
100
AcDbLine
 10
811.4527934819925
 20
114.7559131150735
 30
0.0
 11
811.4527934819925
 21
109.2363033869292
 31
0.0
  0
LINE
  5
5EF0B4BD
330
5EF092C1
100
AcDbEntity
  8
SAISEN
100
AcDbLine
 10
821.3072934819907
 20
104.2363033869291
 30
0.0
 11
821.0069659740142
 21
94.6263033869293
 31
0.0
  0
LINE
  5
5EF0B4BE
330
5EF092C1
100
AcDbEntity
  8
JISSEN
100
AcDbLine
 10
819.527965974014
 20
94.6263033869293
 30
0.0
 11
819.8282934819909
 21
104.2363033869291
 31
0.0
  0
CIRCLE
  5
5EF0B4CE
330
5EF092C1
100
AcDbEntity
  8
JISSEN
100
AcDbCircle
 10
755.6133343872552
 20
183.2515030549839
 30
0.0
 40
9.5
  0
CIRCLE
  5
5EF0B4D5
330
5EF092C1
100
AcDbEntity
  8
JISSEN
100
AcDbCircle
 10
755.6133343872552
 20
250.2211037188747
 30
0.0
 40
9.5
  0
LINE
  5
5EF0B4D6
330
5EF092C1
100
AcDbEntity
  8
SCALE
100
AcDbLine
 10
787.754886057497
 20
207.7363033869519
 30
0.0
 11
787.754886057497
 21
204.3999101123797
 31
0.0
  0
LINE
  5
5EF0B4D7
330
5EF092C1
100
AcDbEntity
  8
SCALE
100
AcDbLine
 10
790.6304007586123
 20
207.7363033869519
 30
0.0
 11
790.6304007586123
 21
195.7285967441296
 31
0.0
  0
LINE
  5
5EF0B4D8
330
5EF092C1
100
AcDbEntity
  8
SCALE
100
AcDbLine
 10
808.414529698277
 20
207.7363033869519
 30
0.0
 11
808.414529698277
 21
174.3375622950218
 31
0.0
  0
LINE
  5
5EF0B4DC
330
5EF092C1
100
AcDbEntity
  8
SCALE
100
AcDbLine
 10
824.0150361314345
 20
207.7363033869519
 30
0.0
 11
824.0150361314345
 21
168.7363033869289
 31
0.0
  0
ARC
  5
5EF0B4DD
330
5EF092C1
100
AcDbEntity
  8
JISSEN
100
AcDbCircle
 10
836.4527934819925
 20
216.7363033869292
 30
0.0
 40
51.5
100
AcDbArc
 50
90.0
 51
270.0
  0
ARC
  5
5EF0B4DE
330
5EF092C1
100
AcDbEntity
  8
JISSEN
100
AcDbCircle
 10
836.4527934819925
 20
216.7363033869292
 30
0.0
 40
50.0
100
AcDbArc
 50
90.0
 51
270.0
  0
CIRCLE
  5
5EF0B4DF
330
5EF092C1
100
AcDbEntity
  8
JISSEN
100
AcDbCircle
 10
802.9679931500472
 20
135.8968442921918
 30
0.0
 40
9.5
  0
ARC
  5
5EF0B4E2
330
5EF092C1
100
AcDbEntity
  8
SCALE
100
AcDbCircle
 10
827.0150361314344
 20
168.7363033869289
 30
0.0
 40
3.0
100
AcDbArc
 50
180.0
 51
210.7711795939643
  0
LINE
  5
5EF0B4E4
330
5EF092C1
100
AcDbEntity
  8
SCALE
100
AcDbLine
 10
836.5150361314345
 20
165.7363033869289
 30
0.0
 11
836.4527934819925
 21
165.7363033869289
 31
0.0
  0
LINE
  5
5EF0B4E9
330
5EF092C1
100
AcDbEntity
  8
SCALE
100
AcDbLine
 10
787.0969427649765
 20
207.7363033869519
 30
0.0
 11
836.4527934819925
 21
207.7363033869519
 31
0.0
  0
LINE
  5
5EF0B56A
330
5EF092C1
100
AcDbEntity
  8
JISSEN
100
AcDbLine
 10
718.9527934819925
 20
372.7363033869294
 30
0.0
 11
836.4527934819925
 21
372.7363033869294
 31
0.0
  0
ARC
  5
5EF0B56B
330
5EF092C1
100
AcDbEntity
  8
JISSEN
100
AcDbCircle
 10
779.4527934819925
 20
381.7363033869294
 30
0.0
 40
28.0
100
AcDbArc
 50
90.0
 51
148.927049027847
  0
LINE
  5
5EF0B56C
330
5EF092C1
100
AcDbEntity
  8
JISSEN
100
AcDbLine
 10
815.5961398673785
 20
394.7363033869294
 30
0.0
 11
718.9527934819925
 21
394.7363033869294
 31
0.0
  0
LINE
  5
5EF0B56D
330
5EF092C1
100
AcDbEntity
  8
JISSEN
100
AcDbLine
 10
718.9527934819925
 20
350.7363033869294
 30
0.0
 11
836.4527934819925
 21
350.7363033869294
 31
0.0
  0
LINE
  5
5EF0B56F
330
5EF092C1
100
AcDbEntity
  8
JISSEN
100
AcDbLine
 10
718.9527934819925
 20
394.7363033869294
 30
0.0
 11
718.9527934819925
 21
372.7363033869294
 31
0.0
  0
ARC
  5
5EF0B574
330
5EF092C1
100
AcDbEntity
  8
JISSEN
100
AcDbCircle
 10
736.616158542105
 20
345.7363033869294
 30
0.0
 40
5.0
100
AcDbArc
 50
15.00000000000116
 51
90.0
  0
LINE
  5
5EF0B575
330
5EF092C1
100
AcDbEntity
  8
JISSEN
100
AcDbLine
 10
714.9527934819925
 20
371.7363033869294
 30
0.0
 11
714.9527934819925
 21
351.7363033869294
 31
0.0
  0
LINE
  5
5EF0B576
330
5EF092C1
100
AcDbEntity
  8
JISSEN
100
AcDbLine
 10
718.9527934819925
 20
350.7363033869294
 30
0.0
 11
718.9527934819925
 21
372.7363033869294
 31
0.0
  0
ARC
  5
5EF0B577
330
5EF092C1
100
AcDbEntity
  8
JISSEN
100
AcDbCircle
 10
715.9527934819926
 20
351.7363033869294
 30
0.0
 40
1.0
100
AcDbArc
 50
180.0
 51
270.0
  0
LINE
  5
5EF0B578
330
5EF092C1
100
AcDbEntity
  8
JISSEN
100
AcDbLine
 10
718.9527934819925
 20
350.7363033869294
 30
0.0
 11
715.9527934819926
 21
350.7363033869294
 31
0.0
  0
ARC
  5
5EF0B579
330
5EF092C1
100
AcDbEntity
  8
JISSEN
100
AcDbCircle
 10
715.9527934819926
 20
371.7363033869294
 30
0.0
 40
1.0
100
AcDbArc
 50
90.0
 51
180.0
  0
LINE
  5
5EF0B57A
330
5EF092C1
100
AcDbEntity
  8
JISSEN
100
AcDbLine
 10
718.9527934819925
 20
372.7363033869294
 30
0.0
 11
715.9527934819926
 21
372.7363033869294
 31
0.0
  0
ARC
  5
5EF0B57B
330
5EF092C1
100
AcDbEntity
  8
JISSEN
100
AcDbCircle
 10
735.4527934819925
 20
338.486930983551
 30
0.0
 40
8.0
100
AcDbArc
 50
0.0
 51
15.00000000000116
  0
LINE
  5
5EF0B57C
330
5EF092C1
100
AcDbEntity
  8
JISSEN
100
AcDbLine
 10
741.4457876735505
 20
347.030398612442
 30
0.0
 11
743.1802000923052
 21
340.5574833443708
 31
0.0
  0
ARC
  5
5EF0B583
330
5EF092C1
100
AcDbEntity
  8
JISSEN
100
AcDbCircle
 10
752.900957387289
 20
397.7363033869294
 30
0.0
 40
3.0
100
AcDbArc
 50
270.0
 51
328.927049027847
  0
LINE
  5
5EF0B588
330
5EF092C1
100
AcDbEntity
  8
JISSEN
100
AcDbLine
 10
817.4527934819925
 20
390.7363033869294
 30
0.0
 11
817.4527934819925
 21
372.7363033869294
 31
0.0
  0
LINE
  5
5EF0B5A5
330
5EF092C1
100
AcDbEntity
  8
JISSEN
100
AcDbLine
 10
828.9527934819926
 20
425.7363033869523
 30
0.0
 11
835.3921333102121
 21
443.7363033869523
 31
0.0
  0
LINE
  5
5EF0B5A6
330
5EF092C1
100
AcDbEntity
  8
JISSEN
100
AcDbLine
 10
828.9527934819926
 20
443.7363033869523
 30
0.0
 11
835.3921333102121
 21
425.7363033869523
 31
0.0
  0
ARC
  5
5EF0B5AA
330
5EF092C1
100
AcDbEntity
  8
JISSEN
100
AcDbCircle
 10
836.4527934819925
 20
390.7363033869294
 30
0.0
 40
19.0
100
AcDbArc
 50
90.0
 51
180.0
  0
LINE
  5
5EF0B5AB
330
5EF092C1
100
AcDbEntity
  8
JISSEN
100
AcDbLine
 10
820.4527934819925
 20
425.7363033869294
 30
0.0
 11
836.4527934819925
 21
425.7363033869294
 31
0.0
  0
LINE
  5
5EF0B5AC
330
5EF092C1
100
AcDbEntity
  8
JISSEN
100
AcDbLine
 10
836.4527934819925
 20
409.7363033869294
 30
0.0
 11
779.4527934819925
 21
409.7363033869294
 31
0.0
  0
ARC
  5
5EF0B5AD
330
5EF092C1
100
AcDbEntity
  8
JISSEN
100
AcDbCircle
 10
820.4527934819925
 20
422.7363033869294
 30
0.0
 40
3.0
100
AcDbArc
 50
90.0
 51
180.0
  0
ARC
  5
5EF0B5AE
330
5EF092C1
100
AcDbEntity
  8
JISSEN
100
AcDbCircle
 10
815.5961398673785
 20
397.7363033869294
 30
0.0
 40
3.0
100
AcDbArc
 50
270.0
 51
341.4469954649764
  0
LINE
  5
5EF0B5AF
330
5EF092C1
100
AcDbEntity
  8
JISSEN
100
AcDbLine
 10
817.4527934819925
 20
412.7363033869293
 30
0.0
 11
817.4527934819925
 21
422.7363033869294
 31
0.0
  0
ARC
  5
5EF0B5B0
330
5EF092C1
100
AcDbEntity
  8
JISSEN
100
AcDbCircle
 10
814.4527934819926
 20
412.7363033869293
 30
0.0
 40
3.0
100
AcDbArc
 50
270.0
 51
0.0
  0
LINE
  5
5EF0B5B2
330
5EF092C1
100
AcDbEntity
  8
JISSEN
100
AcDbLine
 10
828.9527934819926
 20
425.7363033869523
 30
0.0
 11
828.9527934819926
 21
443.7363033869523
 31
0.0
  0
LINE
  5
5EF0B5B3
330
5EF092C1
100
AcDbEntity
  8
JISSEN
100
AcDbLine
 10
828.9527934819926
 20
443.7363033869523
 30
0.0
 11
828.9527934819926
 21
443.7363033869523
 31
0.0
  0
LINE
  5
5EF0B5C2
330
5EF092C1
100
AcDbEntity
  8
JISSEN
100
AcDbLine
 10
835.3921333102121
 20
443.7363033869523
 30
0.0
 11
835.3921333102121
 21
425.7363033869523
 31
0.0
  0
LINE
  5
5EF0BA04
330
5EF092C1
100
AcDbEntity
  8
JISSEN
100
AcDbLine
 10
485.9473525743217
 20
321.7363033869292
 30
0.0
 11
487.4473525743217
 21
320.2363033869291
 31
0.0
  0
ARC
  5
5EF0BA0B
330
5EF092C1
100
AcDbEntity
  8
JISSEN
100
AcDbCircle
 10
453.9473525743217
 20
371.7363033869292
 30
0.0
 40
1.0
100
AcDbArc
 50
0.0
 51
90.0
  0
ARC
  5
5EF0BA11
330
5EF092C1
100
AcDbEntity
  8
JISSEN
100
AcDbCircle
 10
453.9473525743217
 20
351.7363033869291
 30
0.0
 40
1.0
100
AcDbArc
 50
270.0
 51
0.0
  0
LINE
  5
5EF0BA12
330
5EF092C1
100
AcDbEntity
  8
JISSEN
100
AcDbLine
 10
432.4543583827638
 20
347.0303986124418
 30
0.0
 11
430.7199459640091
 21
340.5574833443708
 31
0.0
  0
ARC
  5
5EF0BA13
330
5EF092C1
100
AcDbEntity
  8
JISSEN
100
AcDbCircle
 10
438.4473525743216
 20
338.4869309835508
 30
0.0
 40
8.0
100
AcDbArc
 50
164.9999999999992
 51
180.0
  0
ARC
  5
5EF0BA14
330
5EF092C1
100
AcDbEntity
  8
JISSEN
100
AcDbCircle
 10
437.283987514209
 20
345.7363033869292
 30
0.0
 40
5.0
100
AcDbArc
 50
90.0
 51
164.9999999999992
  0
ARC
  5
5EF0BA15
330
5EF092C1
100
AcDbEntity
  8
JISSEN
100
AcDbCircle
 10
464.4473525743217
 20
320.7363033869292
 30
0.0
 40
1.0
100
AcDbArc
 50
90.0
 51
180.0
  0
ARC
  5
5EF0BA16
330
5EF092C1
100
AcDbEntity
  8
JISSEN
100
AcDbCircle
 10
438.4473525743216
 20
293.6990651295193
 30
0.0
 40
8.0
100
AcDbArc
 50
180.0
 51
238.4450495865786
  0
LINE
  5
5EF0BA17
330
5EF092C1
100
AcDbEntity
  8
JISSEN
100
AcDbLine
 10
430.4473525743217
 20
338.4869309835508
 30
0.0
 11
430.4473525743217
 21
293.6990651295193
 31
0.0
  0
LINE
  5
5EF0BA1B
330
5EF092C1
100
AcDbEntity
  8
JISSEN
100
AcDbLine
 10
454.9473525743216
 20
371.7363033869292
 30
0.0
 11
454.9473525743216
 21
351.7363033869291
 31
0.0
  0
LINE
  5
5EF0BA1C
330
5EF092C1
100
AcDbEntity
  8
0
100
AcDbLine
 10
348.4473525743217
 20
350.7363033869292
 30
0.0
 11
348.4473525743217
 21
372.7363033869291
 31
0.0
  0
LINE
  5
5EF0BA1E
330
5EF092C1
100
AcDbEntity
  8
JISSEN
100
AcDbLine
 10
485.9473525743217
 20
321.7363033869292
 30
0.0
 11
464.4473525743217
 21
321.7363033869292
 31
0.0
  0
ARC
  5
5EF0BA21
330
5EF092C1
100
AcDbEntity
  8
JISSEN
100
AcDbCircle
 10
220.9473525743216
 20
371.7363033869292
 30
0.0
 40
1.0
100
AcDbArc
 50
90.0
 51
180.0
  0
ARC
  5
5EF0BA2C
330
5EF092C1
100
AcDbEntity
  8
JISSEN
100
AcDbCircle
 10
236.4473525743217
 20
338.4869309835508
 30
0.0
 40
8.0
100
AcDbArc
 50
0.0
 51
15.00000000000074
  0
LINE
  5
5EF0BA2D
330
5EF092C1
100
AcDbEntity
  8
JISSEN
100
AcDbLine
 10
242.4403467658796
 20
347.0303986124418
 30
0.0
 11
244.1747591846344
 21
340.5574833443708
 31
0.0
  0
ARC
  5
5EF0BA2E
330
5EF092C1
100
AcDbEntity
  8
JISSEN
100
AcDbCircle
 10
237.6107176344344
 20
345.7363033869292
 30
0.0
 40
5.0
100
AcDbArc
 50
15.00000000000074
 51
90.0
  0
ARC
  5
5EF0BA2F
330
5EF092C1
100
AcDbEntity
  8
JISSEN
100
AcDbCircle
 10
220.9473525743216
 20
351.7363033869291
 30
0.0
 40
1.0
100
AcDbArc
 50
180.0
 51
270.0
  0
ARC
  5
5EF0BA30
330
5EF092C1
100
AcDbEntity
  8
JISSEN
100
AcDbCircle
 10
236.4473525743217
 20
293.6990651295191
 30
0.0
 40
8.0
100
AcDbArc
 50
301.5549504134213
 51
0.0
  0
ARC
  5
5EF0BA31
330
5EF092C1
100
AcDbEntity
  8
JISSEN
100
AcDbCircle
 10
210.4473525743216
 20
320.7363033869292
 30
0.0
 40
1.0
100
AcDbArc
 50
0.0
 51
90.0
  0
LINE
  5
5EF0BA32
330
5EF092C1
100
AcDbEntity
  8
JISSEN
100
AcDbLine
 10
244.4473525743217
 20
338.4869309835508
 30
0.0
 11
244.4473525743217
 21
293.6990651295191
 31
0.0
  0
LINE
  5
5EF0BA33
330
5EF092C1
100
AcDbEntity
  8
JISSEN
100
AcDbLine
 10
219.9473525743217
 20
351.7363033869291
 30
0.0
 11
219.9473525743217
 21
371.7363033869292
 31
0.0
  0
LINE
  5
5EF0BA34
330
5EF092C1
100
AcDbEntity
  8
0
100
AcDbLine
 10
326.4473525743217
 20
372.7363033869291
 30
0.0
 11
326.4473525743217
 21
350.7363033869292
 31
0.0
  0
LINE
  5
5EF0BA35
330
5EF092C1
100
AcDbEntity
  8
JISSEN
100
AcDbLine
 10
187.4473525743217
 20
320.2363033869291
 30
0.0
 11
188.9473525743217
 21
321.7363033869292
 31
0.0
  0
LINE
  5
5EF0BA36
330
5EF092C1
100
AcDbEntity
  8
JISSEN
100
AcDbLine
 10
188.9473525743217
 20
321.7363033869292
 30
0.0
 11
210.4473525743216
 21
321.7363033869292
 31
0.0
  0
LINE
  5
5EF0BA37
330
5EF092C1
100
AcDbEntity
  8
JISSEN
100
AcDbLine
 10
220.9473525743216
 20
372.7363033869291
 30
0.0
 11
453.9473525743217
 21
372.7363033869291
 31
0.0
  0
LINE
  5
5EF0BA38
330
5EF092C1
100
AcDbEntity
  8
JISSEN
100
AcDbLine
 10
220.9473525743216
 20
350.7363033869292
 30
0.0
 11
453.9473525743217
 21
350.7363033869292
 31
0.0
  0
LWPOLYLINE
  5
5EF0BA39
330
5EF092C1
100
AcDbEntity
  8
JISSEN
100
AcDbPolyline
 90
       12
 70
     0
 43
0.0
 10
377.4473525743217
 20
306.7363033869198
 10
368.7870985364613
 20
311.7363033869291
 10
368.7870985364613
 20
309.2363033869292
 10
348.1172255553317
 20
309.2363033869589
 10
338.7870985365209
 20
311.7363033869289
 10
297.4473525743217
 20
311.7363033869291
 10
297.4473525743217
 20
301.7363033869291
 10
338.7870985365209
 20
301.7363033869291
 10
348.1172255553317
 20
304.2363033868991
 10
368.7870985364613
 20
304.2363033869292
 10
368.7870985364613
 20
301.7363033869246
 10
377.4473525743217
 20
306.7363033869383
  0
LINE
  5
5EF0BA59
330
5EF092C1
100
AcDbEntity
  8
JISSEN
100
AcDbLine
 10
487.4473525743217
 20
113.2363033869292
 30
0.0
 11
485.9473525743217
 21
111.7363033869291
 31
0.0
  0
ARC
  5
5EF0BA5D
330
5EF092C1
100
AcDbEntity
  8
JISSEN
100
AcDbCircle
 10
451.7659862260584
 20
284.7363033869291
 30
0.0
 40
8.0
100
AcDbArc
 50
233.6778622329009
 51
285.8481835759258
  0
LINE
  5
5EF0BA5E
330
5EF092C1
100
AcDbEntity
  8
JISSEN
100
AcDbLine
 10
459.8127992717033
 20
278.7045264174976
 30
0.0
 11
453.9507009418692
 21
277.0403939792945
 31
0.0
  0
ARC
  5
5EF0BA65
330
5EF092C1
100
AcDbEntity
  8
JISSEN
100
AcDbCircle
 10
381.1973525743217
 20
272.9863033869292
 30
0.0
 40
4.249999999999985
100
AcDbArc
 50
0.0
 51
180.0
  0
ARC
  5
5EF0BA66
330
5EF092C1
100
AcDbEntity
  8
JISSEN
100
AcDbCircle
 10
381.1973525743217
 20
272.9863033869292
 30
0.0
 40
6.249999999999985
100
AcDbArc
 50
0.0
 51
180.0
  0
ARC
  5
5EF0BA68
330
5EF092C1
100
AcDbEntity
  8
JISSEN
100
AcDbCircle
 10
381.1973525743217
 20
260.4863033869292
 30
0.0
 40
4.249999999999985
100
AcDbArc
 50
180.0
 51
0.0
  0
ARC
  5
5EF0BA69
330
5EF092C1
100
AcDbEntity
  8
JISSEN
100
AcDbCircle
 10
381.1973525743217
 20
260.4863033869292
 30
0.0
 40
6.249999999999985
100
AcDbArc
 50
180.0
 51
0.0
  0
LINE
  5
5EF0BA6B
330
5EF092C1
100
AcDbEntity
  8
JISSEN
100
AcDbLine
 10
376.9473525743217
 20
272.9863033869292
 30
0.0
 11
376.9473525743217
 21
260.4863033869292
 31
0.0
  0
LINE
  5
5EF0BA6C
330
5EF092C1
100
AcDbEntity
  8
JISSEN
100
AcDbLine
 10
385.4473525743216
 20
272.9863033869292
 30
0.0
 11
385.4473525743216
 21
260.4863033869292
 31
0.0
  0
LINE
  5
5EF0BA6D
330
5EF092C1
100
AcDbEntity
  8
JISSEN
100
AcDbLine
 10
387.4473525743217
 20
272.9863033869292
 30
0.0
 11
387.4473525743217
 21
260.4863033869292
 31
0.0
  0
LINE
  5
5EF0BA6E
330
5EF092C1
100
AcDbEntity
  8
JISSEN
100
AcDbLine
 10
374.9473525743217
 20
272.9863033869292
 30
0.0
 11
374.9473525743217
 21
260.4863033869292
 31
0.0
  0
ARC
  5
5EF0BA6F
330
5EF092C1
100
AcDbEntity
  8
JISSEN
100
AcDbCircle
 10
363.0973525743218
 20
272.9863033869292
 30
0.0
 40
6.249999999999985
100
AcDbArc
 50
0.0
 51
180.0
  0
ARC
  5
5EF0BA70
330
5EF092C1
100
AcDbEntity
  8
JISSEN
100
AcDbCircle
 10
363.0973525743218
 20
272.9863033869292
 30
0.0
 40
4.249999999999985
100
AcDbArc
 50
0.0
 51
180.0
  0
ARC
  5
5EF0BA71
330
5EF092C1
100
AcDbEntity
  8
JISSEN
100
AcDbCircle
 10
350.2473525743216
 20
278.2363033869291
 30
0.0
 40
1.0
100
AcDbArc
 50
0.0
 51
180.0
  0
ARC
  5
5EF0BA72
330
5EF092C1
100
AcDbEntity
  8
JISSEN
100
AcDbCircle
 10
342.6473525743199
 20
266.7363033869292
 30
0.0
 40
1.0
100
AcDbArc
 50
270.0
 51
90.0
  0
ARC
  5
5EF0BA73
330
5EF092C1
100
AcDbEntity
  8
JISSEN
100
AcDbCircle
 10
363.0973525743218
 20
260.4863033869292
 30
0.0
 40
6.249999999999985
100
AcDbArc
 50
180.0
 51
0.0
  0
ARC
  5
5EF0BA74
330
5EF092C1
100
AcDbEntity
  8
JISSEN
100
AcDbCircle
 10
363.0973525743218
 20
260.4863033869292
 30
0.0
 40
4.249999999999985
100
AcDbArc
 50
180.0
 51
0.0
  0
ARC
  5
5EF0BA75
330
5EF092C1
100
AcDbEntity
  8
JISSEN
100
AcDbCircle
 10
350.2473525743216
 20
255.2363033869291
 30
0.0
 40
1.0
100
AcDbArc
 50
180.0
 51
0.0
  0
LINE
  5
5EF0BA76
330
5EF092C1
100
AcDbEntity
  8
JISSEN
100
AcDbLine
 10
351.2473525743216
 20
278.2363033869291
 30
0.0
 11
351.2473525743216
 21
255.2363033869291
 31
0.0
  0
LINE
  5
5EF0BA77
330
5EF092C1
100
AcDbEntity
  8
JISSEN
100
AcDbLine
 10
349.2473525743216
 20
255.2363033869291
 30
0.0
 11
349.2473525743216
 21
278.2363033869291
 31
0.0
  0
LINE
  5
5EF0BA78
330
5EF092C1
100
AcDbEntity
  8
JISSEN
100
AcDbLine
 10
356.8473525743218
 20
272.9863033869292
 30
0.0
 11
356.8473525743218
 21
260.4863033869292
 31
0.0
  0
LINE
  5
5EF0BA79
330
5EF092C1
100
AcDbEntity
  8
JISSEN
100
AcDbLine
 10
369.3473525743218
 20
272.9863033869292
 30
0.0
 11
369.3473525743218
 21
260.4863033869292
 31
0.0
  0
LINE
  5
5EF0BA7A
330
5EF092C1
100
AcDbEntity
  8
JISSEN
100
AcDbLine
 10
367.3473525743218
 20
272.9863033869292
 30
0.0
 11
367.3473525743218
 21
260.4863033869292
 31
0.0
  0
LINE
  5
5EF0BA7B
330
5EF092C1
100
AcDbEntity
  8
JISSEN
100
AcDbLine
 10
358.8473525743218
 20
272.9863033869292
 30
0.0
 11
358.8473525743218
 21
260.4863033869292
 31
0.0
  0
CIRCLE
  5
5EF0BA7C
330
5EF092C1
100
AcDbEntity
  8
JISSEN
100
AcDbCircle
 10
382.4473525743217
 20
234.2363033869292
 30
0.0
 40
0.8
  0
CIRCLE
  5
5EF0BA7E
330
5EF092C1
100
AcDbEntity
  8
JISSEN
100
AcDbCircle
 10
382.4473525743217
 20
199.2363033869292
 30
0.0
 40
0.8
  0
ARC
  5
5EF0BA86
330
5EF092C1
100
AcDbEntity
  8
JISSEN
100
AcDbCircle
 10
451.7659862260584
 20
148.7363033869289
 30
0.0
 40
8.0
100
AcDbArc
 50
74.1518164240742
 51
126.322137767099
  0
LINE
  5
5EF0BA87
330
5EF092C1
100
AcDbEntity
  8
JISSEN
100
AcDbLine
 10
459.8127992717033
 20
154.7680803563605
 30
0.0
 11
453.9507009418692
 21
156.4322127945638
 31
0.0
  0
ARC
  5
5EF0BA88
330
5EF092C1
100
AcDbEntity
  8
JISSEN
100
AcDbCircle
 10
464.4473525743217
 20
112.7363033869291
 30
0.0
 40
1.0
100
AcDbArc
 50
180.0
 51
270.0
  0
ARC
  5
5EF0BA89
330
5EF092C1
100
AcDbEntity
  8
JISSEN
100
AcDbCircle
 10
458.4473525743216
 20
149.9581369765887
 30
0.0
 40
5.0
100
AcDbArc
 50
0.0
 51
74.1518164240742
  0
LINE
  5
5EF0BA8F
330
5EF092C1
100
AcDbEntity
  8
JISSEN
100
AcDbLine
 10
362.4473525743217
 20
116.619672993992
 30
0.0
 11
362.4473525743217
 21
109.2363033869292
 31
0.0
  0
ARC
  5
5EF0BA90
330
5EF092C1
100
AcDbEntity
  8
JISSEN
100
AcDbCircle
 10
367.4473525743217
 20
116.619672993992
 30
0.0
 40
5.0
100
AcDbArc
 50
99.08472028739002
 51
180.0
  0
LINE
  5
5EF0BA95
330
5EF092C1
100
AcDbEntity
  8
JISSEN
100
AcDbLine
 10
485.9473525743217
 20
111.7363033869291
 30
0.0
 11
464.4473525743217
 21
111.7363033869291
 31
0.0
  0
ARC
  5
5EF0BA9A
330
5EF092C1
100
AcDbEntity
  8
JISSEN
100
AcDbCircle
 10
357.4473525743217
 20
109.2363033869292
 30
0.0
 40
5.0
100
AcDbArc
 50
270.0
 51
0.0
  0
ARC
  5
5EF0BA9D
330
5EF092C1
100
AcDbEntity
  8
JISSEN
100
AcDbCircle
 10
324.6473525743217
 20
278.2363033869291
 30
0.0
 40
1.0
100
AcDbArc
 50
324.2843328931413
 51
144.2843328931361
  0
ARC
  5
5EF0BA9E
330
5EF092C1
100
AcDbEntity
  8
JISSEN
100
AcDbCircle
 10
332.2473525743234
 20
266.7363033869292
 30
0.0
 40
1.0
100
AcDbArc
 50
90.0
 51
270.0
  0
LINE
  5
5EF0BA9F
330
5EF092C1
100
AcDbEntity
  8
JISSEN
100
AcDbLine
 10
318.9218711012069
 20
268.5600254625656
 30
0.0
 11
325.45927650583
 21
277.6525401391613
 31
0.0
  0
ARC
  5
5EF0BAA0
330
5EF092C1
100
AcDbEntity
  8
JISSEN
100
AcDbCircle
 10
314.1473525743217
 20
278.2363033869291
 30
0.0
 40
1.0
100
AcDbArc
 50
0.0
 51
180.0
  0
LINE
  5
5EF0BAA1
330
5EF092C1
100
AcDbEntity
  8
JISSEN
100
AcDbLine
 10
315.1473525743217
 20
263.3102569414768
 30
0.0
 11
317.6106375230545
 21
266.7363033869292
 31
0.0
  0
LINE
  5
5EF0BAA2
330
5EF092C1
100
AcDbEntity
  8
JISSEN
100
AcDbLine
 10
315.1473525743217
 20
278.2363033869291
 30
0.0
 11
315.1473525743217
 21
266.7363033869292
 31
0.0
  0
LINE
  5
5EF0BAA3
330
5EF092C1
100
AcDbEntity
  8
JISSEN
100
AcDbLine
 10
315.1473525743217
 20
266.7363033869292
 30
0.0
 11
323.8354286428136
 21
278.8200666346968
 31
0.0
  0
ARC
  5
5EF0BAA4
330
5EF092C1
100
AcDbEntity
  8
JISSEN
100
AcDbCircle
 10
324.6473525743217
 20
255.2363033869291
 30
0.0
 40
1.0
100
AcDbArc
 50
207.2082819755712
 51
27.20828197556541
  0
ARC
  5
5EF0BAA5
330
5EF092C1
100
AcDbEntity
  8
JISSEN
100
AcDbCircle
 10
314.1473525743217
 20
255.2363033869291
 30
0.0
 40
1.0
100
AcDbArc
 50
180.0
 51
0.0
  0
LINE
  5
5EF0BAA6
330
5EF092C1
100
AcDbEntity
  8
JISSEN
100
AcDbLine
 10
305.5473525743218
 20
272.9863033869292
 30
0.0
 11
305.5473525743218
 21
260.4863033869292
 31
0.0
  0
LINE
  5
5EF0BAA7
330
5EF092C1
100
AcDbEntity
  8
JISSEN
100
AcDbLine
 10
307.5473525743218
 20
272.9863033869292
 30
0.0
 11
307.5473525743218
 21
260.4863033869292
 31
0.0
  0
LINE
  5
5EF0BAA8
330
5EF092C1
100
AcDbEntity
  8
JISSEN
100
AcDbLine
 10
313.1473525743217
 20
255.2363033869291
 30
0.0
 11
313.1473525743217
 21
278.2363033869291
 31
0.0
  0
LINE
  5
5EF0BAA9
330
5EF092C1
100
AcDbEntity
  8
JISSEN
100
AcDbLine
 10
317.6106375230545
 20
266.7363033869292
 30
0.0
 11
323.7580022827953
 21
254.7790769015175
 31
0.0
  0
LINE
  5
5EF0BAAA
330
5EF092C1
100
AcDbEntity
  8
JISSEN
100
AcDbLine
 10
318.9218711012069
 20
268.5600254625656
 30
0.0
 11
325.5367028658481
 21
255.6935298723406
 31
0.0
  0
LINE
  5
5EF0BAAB
330
5EF092C1
100
AcDbEntity
  8
JISSEN
100
AcDbLine
 10
315.1473525743217
 20
263.3102569414768
 30
0.0
 11
315.1473525743217
 21
255.2363033869291
 31
0.0
  0
ARC
  5
5EF0BAAC
330
5EF092C1
100
AcDbEntity
  8
JISSEN
100
AcDbCircle
 10
288.4473525743217
 20
278.2363033869291
 30
0.0
 40
1.0
100
AcDbArc
 50
0.0
 51
180.0
  0
ARC
  5
5EF0BAAD
330
5EF092C1
100
AcDbEntity
  8
JISSEN
100
AcDbCircle
 10
288.4473525743217
 20
255.2363033869291
 30
0.0
 40
1.0
100
AcDbArc
 50
180.0
 51
0.0
  0
LINE
  5
5EF0BAB0
330
5EF092C1
100
AcDbEntity
  8
JISSEN
100
AcDbLine
 10
297.0473525743218
 20
272.9863033869292
 30
0.0
 11
297.0473525743218
 21
260.4863033869292
 31
0.0
  0
LINE
  5
5EF0BAB1
330
5EF092C1
100
AcDbEntity
  8
JISSEN
100
AcDbLine
 10
295.0473525743218
 20
272.9863033869292
 30
0.0
 11
295.0473525743218
 21
260.4863033869292
 31
0.0
  0
LINE
  5
5EF0BAB2
330
5EF092C1
100
AcDbEntity
  8
JISSEN
100
AcDbLine
 10
287.4473525743217
 20
255.2363033869291
 30
0.0
 11
287.4473525743217
 21
278.2363033869291
 31
0.0
  0
LINE
  5
5EF0BAB3
330
5EF092C1
100
AcDbEntity
  8
JISSEN
100
AcDbLine
 10
289.4473525743217
 20
278.2363033869291
 30
0.0
 11
289.4473525743217
 21
255.2363033869291
 31
0.0
  0
ARC
  5
5EF0BAB4
330
5EF092C1
100
AcDbEntity
  8
JISSEN
100
AcDbCircle
 10
301.2973525743218
 20
260.4863033869292
 30
0.0
 40
4.249999999999985
100
AcDbArc
 50
180.0
 51
0.0
  0
ARC
  5
5EF0BAB5
330
5EF092C1
100
AcDbEntity
  8
JISSEN
100
AcDbCircle
 10
301.2973525743218
 20
272.9863033869292
 30
0.0
 40
4.249999999999985
100
AcDbArc
 50
0.0
 51
180.0
  0
ARC
  5
5EF0BAB6
330
5EF092C1
100
AcDbEntity
  8
JISSEN
100
AcDbCircle
 10
301.2973525743218
 20
260.4863033869292
 30
0.0
 40
6.249999999999985
100
AcDbArc
 50
180.0
 51
0.0
  0
ARC
  5
5EF0BAB7
330
5EF092C1
100
AcDbEntity
  8
JISSEN
100
AcDbCircle
 10
301.2973525743218
 20
272.9863033869292
 30
0.0
 40
6.249999999999985
100
AcDbArc
 50
0.0
 51
180.0
  0
CIRCLE
  5
5EF0BAB8
330
5EF092C1
100
AcDbEntity
  8
JISSEN
100
AcDbCircle
 10
292.4473525743217
 20
234.2363033869292
 30
0.0
 40
0.8
  0
CIRCLE
  5
5EF0BABE
330
5EF092C1
100
AcDbEntity
  8
JISSEN
100
AcDbCircle
 10
292.4473525743217
 20
199.2363033869292
 30
0.0
 40
0.8
  0
LINE
  5
5EF0BAC3
330
5EF092C1
100
AcDbEntity
  8
JISSEN
100
AcDbLine
 10
215.08190587694
 20
278.7045264174976
 30
0.0
 11
220.9440042067746
 21
277.0403939792945
 31
0.0
  0
ARC
  5
5EF0BAC4
330
5EF092C1
100
AcDbEntity
  8
JISSEN
100
AcDbCircle
 10
223.1287189225852
 20
284.7363033869291
 30
0.0
 40
8.0
100
AcDbArc
 50
254.1518164240741
 51
306.322137767099
  0
LINE
  5
5EF0BACF
330
5EF092C1
100
AcDbEntity
  8
JISSEN
100
AcDbLine
 10
312.4473525743217
 20
109.2363033869292
 30
0.0
 11
312.4473525743217
 21
116.619672993992
 31
0.0
  0
ARC
  5
5EF0BAD0
330
5EF092C1
100
AcDbEntity
  8
JISSEN
100
AcDbCircle
 10
307.4473525743219
 20
116.619672993992
 30
0.0
 40
5.0
100
AcDbArc
 50
0.0
 51
80.91527971260999
  0
LINE
  5
5EF0BAD3
330
5EF092C1
100
AcDbEntity
  8
JISSEN
100
AcDbLine
 10
215.08190587694
 20
154.7680803563605
 30
0.0
 11
220.9440042067746
 21
156.4322127945638
 31
0.0
  0
ARC
  5
5EF0BAD4
330
5EF092C1
100
AcDbEntity
  8
JISSEN
100
AcDbCircle
 10
223.1287189225852
 20
148.7363033869289
 30
0.0
 40
8.0
100
AcDbArc
 50
53.67786223290094
 51
105.8481835759258
  0
ARC
  5
5EF0BAD5
330
5EF092C1
100
AcDbEntity
  8
JISSEN
100
AcDbCircle
 10
210.4473525743216
 20
112.7363033869291
 30
0.0
 40
1.0
100
AcDbArc
 50
270.0
 51
0.0
  0
ARC
  5
5EF0BAD6
330
5EF092C1
100
AcDbEntity
  8
JISSEN
100
AcDbCircle
 10
216.4473525743217
 20
149.9581369765887
 30
0.0
 40
5.0
100
AcDbArc
 50
105.8481835759258
 51
180.0
  0
LINE
  5
5EF0BADD
330
5EF092C1
100
AcDbEntity
  8
JISSEN
100
AcDbLine
 10
188.9473525743217
 20
111.7363033869291
 30
0.0
 11
187.4473525743217
 21
113.2363033869292
 31
0.0
  0
LINE
  5
5EF0BADE
330
5EF092C1
100
AcDbEntity
  8
JISSEN
100
AcDbLine
 10
188.9473525743217
 20
111.7363033869291
 30
0.0
 11
210.4473525743216
 21
111.7363033869291
 31
0.0
  0
ARC
  5
5EF0BADF
330
5EF092C1
100
AcDbEntity
  8
JISSEN
100
AcDbCircle
 10
317.4473525743217
 20
109.2363033869292
 30
0.0
 40
5.0
100
AcDbArc
 50
180.0
 51
270.0
  0
LINE
  5
5EF0BAE0
330
5EF092C1
100
AcDbEntity
  8
JISSEN
100
AcDbLine
 10
357.4473525743217
 20
104.2363033869291
 30
0.0
 11
317.4473525743217
 21
104.2363033869291
 31
0.0
  0
ARC
  5
5EF0BAE2
330
5EF092C1
100
AcDbEntity
  8
JISSEN
100
AcDbCircle
 10
337.4473525743217
 20
304.2363033869292
 30
0.0
 40
185.0
100
AcDbArc
 50
233.6778622329009
 51
306.322137767099
  0
LWPOLYLINE
  5
5EF0BAE3
330
5EF092C1
100
AcDbEntity
  8
JISSEN
100
AcDbPolyline
 90
        8
 70
     1
 43
0.0
 10
288.9473525743217
 20
238.7363033869291
 10
385.9473525743217
 20
238.7363033869291
 42
-0.4142135623730951
 10
386.9473525743217
 20
237.7363033869292
 10
386.9473525743217
 20
195.7363033869292
 42
-0.4142135623730953
 10
385.9473525743217
 20
194.7363033869292
 10
288.9473525743217
 20
194.7363033869292
 42
-0.4142135623730951
 10
287.9473525743217
 20
195.7363033869292
 10
287.9473525743217
 20
237.7363033869292
 42
-0.4142135623730951
  0
LWPOLYLINE
  5
5EF0BAE4
330
5EF092C1
100
AcDbEntity
  8
JISSEN
100
AcDbPolyline
 90
        4
 70
     1
 43
0.0
 10
384.9473525743217
 20
196.7363033869292
 10
289.9473525743217
 20
196.7363033869292
 10
289.9473525743217
 20
236.7363033869291
 10
384.9473525743217
 20
236.7363033869291
  0
LINE
  5
5EF0BAE5
330
5EF092C1
100
AcDbEntity
  8
JISSEN
100
AcDbLine
 10
332.2473525743234
 20
267.7363033869291
 30
0.0
 11
342.6473525743199
 21
267.7363033869291
 31
0.0
  0
LINE
  5
5EF0BAE6
330
5EF092C1
100
AcDbEntity
  8
JISSEN
100
AcDbLine
 10
342.6473525743199
 20
265.7363033869291
 30
0.0
 11
332.2473525743234
 21
265.7363033869291
 31
0.0
  0
LINE
  5
5EF0BAF0
330
5EF092C1
100
AcDbEntity
  8
JISSEN
100
AcDbLine
 10
187.4473525743217
 20
320.2363033869291
 30
0.0
 11
187.4473525743217
 21
113.2363033869292
 31
0.0
  0
LINE
  5
5EF0BAF1
330
5EF092C1
100
AcDbEntity
  8
JISSEN
100
AcDbLine
 10
487.4473525743217
 20
320.2363033869291
 30
0.0
 11
487.4473525743217
 21
113.2363033869292
 31
0.0
  0
LINE
  5
5EF0BAF2
330
5EF092C1
100
AcDbEntity
  8
JISSEN
100
AcDbLine
 10
463.4473525743216
 20
112.7363033869291
 30
0.0
 11
463.4473525743216
 21
320.7363033869292
 31
0.0
  0
LINE
  5
5EF0BAF3
330
5EF092C1
100
AcDbEntity
  8
JISSEN
100
AcDbLine
 10
211.4473525743219
 20
112.7363033869291
 30
0.0
 11
211.4473525743217
 21
320.7363033869292
 31
0.0
  0
ARC
  5
5EF0BAF4
330
5EF092C1
100
AcDbEntity
  8
JISSEN
100
AcDbCircle
 10
337.4473525743219
 20
129.2363033869291
 30
0.0
 40
185.0
100
AcDbArc
 50
53.67786223290094
 51
58.44504958657861
  0
ARC
  5
5EF0BAF5
330
5EF092C1
100
AcDbEntity
  8
JISSEN
100
AcDbCircle
 10
216.4473525743217
 20
283.5144697972694
 30
0.0
 40
5.0
100
AcDbArc
 50
180.0
 51
254.1518164240741
  0
ARC
  5
5EF0BAF6
330
5EF092C1
100
AcDbEntity
  8
JISSEN
100
AcDbCircle
 10
458.4473525743216
 20
283.5144697972694
 30
0.0
 40
5.0
100
AcDbArc
 50
285.8481835759258
 51
0.0
  0
ARC
  5
5EF0BAF7
330
5EF092C1
100
AcDbEntity
  8
JISSEN
100
AcDbCircle
 10
337.4473525743219
 20
129.2363033869291
 30
0.0
 40
185.0
100
AcDbArc
 50
121.5549504134213
 51
126.322137767099
  0
LINE
  5
5EF0BC91
330
5EF092C1
100
AcDbEntity
  8
JISSEN
100
AcDbLine
 10
454.9473525743216
 20
400.051803386922
 30
0.0
 11
454.9473525743216
 21
401.2138033869221
 31
0.0
  0
ARC
  5
5EF0BCA1
330
5EF092C1
100
AcDbEntity
  8
JISSEN
100
AcDbCircle
 10
451.9473525743217
 20
406.7363033869291
 30
0.0
 40
3.0
100
AcDbArc
 50
0.0
 51
90.0
  0
LINE
  5
5EF0BCAF
330
5EF092C1
100
AcDbEntity
  8
JISSEN
100
AcDbLine
 10
454.9473525743216
 20
372.7363033869291
 30
0.0
 11
219.9473525743219
 21
372.7363033869291
 31
0.0
  0
LINE
  5
5EF0BCB0
330
5EF092C1
100
AcDbEntity
  8
JISSEN
100
AcDbLine
 10
454.9473525743216
 20
406.7363033869291
 30
0.0
 11
454.9473525743216
 21
372.7363033869291
 31
0.0
  0
LINE
  5
5EF0BCB2
330
5EF092C1
100
AcDbEntity
  8
JISSEN
100
AcDbLine
 10
454.9473525743216
 20
381.4208033869361
 30
0.0
 11
454.9473525743216
 21
380.258803386936
 31
0.0
  0
LINE
  5
5EF0BCB4
330
5EF092C1
100
AcDbEntity
  8
JISSEN
100
AcDbLine
 10
336.3866924025412
 20
443.7363033869523
 30
0.0
 11
336.3866924025412
 21
425.7363033869523
 31
0.0
  0
LINE
  5
5EF0BCB5
330
5EF092C1
100
AcDbEntity
  8
JISSEN
100
AcDbLine
 10
338.5080127461014
 20
443.7363033869523
 30
0.0
 11
338.5080127461014
 21
425.7363033869523
 31
0.0
  0
LINE
  5
5EF0BCB6
330
5EF092C1
100
AcDbEntity
  8
JISSEN
100
AcDbLine
 10
338.5080127461014
 20
425.7363033869523
 30
0.0
 11
344.9473525743217
 21
443.7363033869523
 31
0.0
  0
LINE
  5
5EF0BCB7
330
5EF092C1
100
AcDbEntity
  8
JISSEN
100
AcDbLine
 10
338.5080127461014
 20
443.7363033869523
 30
0.0
 11
344.9473525743217
 21
425.7363033869523
 31
0.0
  0
LINE
  5
5EF0BCB8
330
5EF092C1
100
AcDbEntity
  8
JISSEN
100
AcDbLine
 10
344.9473525743217
 20
443.7363033869523
 30
0.0
 11
344.9473525743217
 21
425.7363033869523
 31
0.0
  0
ARC
  5
5EF0BCBC
330
5EF092C1
100
AcDbEntity
  8
JISSEN
100
AcDbCircle
 10
359.4473525743217
 20
412.7363033869292
 30
0.0
 40
3.0
100
AcDbArc
 50
180.0
 51
270.0
  0
LINE
  5
5EF0BCBD
330
5EF092C1
100
AcDbEntity
  8
JISSEN
100
AcDbLine
 10
356.4473525743217
 20
422.736303386929
 30
0.0
 11
356.4473525743217
 21
412.7363033869292
 31
0.0
  0
ARC
  5
5EF0BCC5
330
5EF092C1
100
AcDbEntity
  8
JISSEN
100
AcDbCircle
 10
353.4473525743217
 20
422.736303386929
 30
0.0
 40
3.0
100
AcDbArc
 50
0.0
 51
90.0
  0
LINE
  5
5EF0BCC6
330
5EF092C1
100
AcDbEntity
  8
JISSEN
100
AcDbLine
 10
329.9473525743217
 20
443.7363033869523
 30
0.0
 11
329.9473525743217
 21
443.7363033869523
 31
0.0
  0
LINE
  5
5EF0BCC8
330
5EF092C1
100
AcDbEntity
  8
JISSEN
100
AcDbLine
 10
329.9473525743217
 20
425.7363033869523
 30
0.0
 11
329.9473525743217
 21
443.7363033869523
 31
0.0
  0
ARC
  5
5EF0BCD0
330
5EF092C1
100
AcDbEntity
  8
JISSEN
100
AcDbCircle
 10
315.4473525743217
 20
412.7363033869292
 30
0.0
 40
3.0
100
AcDbArc
 50
270.0
 51
0.0
  0
LINE
  5
5EF0BCD1
330
5EF092C1
100
AcDbEntity
  8
JISSEN
100
AcDbLine
 10
318.4473525743217
 20
412.7363033869292
 30
0.0
 11
318.4473525743217
 21
422.7363033869291
 31
0.0
  0
LINE
  5
5EF0BCD2
330
5EF092C1
100
AcDbEntity
  8
JISSEN
100
AcDbLine
 10
315.4473525743217
 20
409.7363033869291
 30
0.0
 11
280.4473525743214
 21
409.7363033869291
 31
0.0
  0
ARC
  5
5EF0BCD4
330
5EF092C1
100
AcDbEntity
  8
JISSEN
100
AcDbCircle
 10
321.4473525743217
 20
422.7363033869291
 30
0.0
 40
3.0
100
AcDbArc
 50
90.0
 51
180.0
  0
LINE
  5
5EF0BCD5
330
5EF092C1
100
AcDbEntity
  8
JISSEN
100
AcDbLine
 10
321.4473525743217
 20
425.7363033869292
 30
0.0
 11
353.4473525743217
 21
425.7363033869289
 31
0.0
  0
LINE
  5
5EF0BCD6
330
5EF092C1
100
AcDbEntity
  8
JISSEN
100
AcDbLine
 10
329.9473525743217
 20
425.7363033869523
 30
0.0
 11
336.3866924025412
 21
443.7363033869523
 31
0.0
  0
LINE
  5
5EF0BCD7
330
5EF092C1
100
AcDbEntity
  8
JISSEN
100
AcDbLine
 10
329.9473525743217
 20
443.7363033869523
 30
0.0
 11
336.3866924025412
 21
425.7363033869523
 31
0.0
  0
LINE
  5
5EF0BCD8
330
5EF092C1
100
AcDbEntity
  8
JISSEN
100
AcDbLine
 10
329.9473525743217
 20
443.7363033869523
 30
0.0
 11
344.9473525743217
 21
443.7363033869523
 31
0.0
  0
LINE
  5
5EF0BCD9
330
5EF092C1
100
AcDbEntity
  8
JISSEN
100
AcDbLine
 10
329.9473525743217
 20
425.7363033869523
 30
0.0
 11
344.9473525743217
 21
425.7363033869523
 31
0.0
  0
LINE
  5
5EF0BCFC
330
5EF092C1
100
AcDbEntity
  8
JISSEN
100
AcDbLine
 10
359.4473525743217
 20
409.7363033869291
 30
0.0
 11
451.9473525743217
 21
409.7363033869291
 31
0.0
  0
ARC
  5
5EF0BD02
330
5EF092C1
100
AcDbEntity
  8
JISSEN
100
AcDbCircle
 10
247.8396574197349
 20
402.6458330293815
 30
0.0
 40
5.090470357547469
100
AcDbArc
 50
72.88328840511777
 51
132.883288405147
  0
LINE
  5
5EF0BD03
330
5EF092C1
100
AcDbEntity
  8
JISSEN
100
AcDbLine
 10
248.9473525743183
 20
407.7363033869289
 30
0.0
 11
251.3037590348726
 21
406.3758314826077
 31
0.0
  0
ARC
  5
5EF0BD04
330
5EF092C1
100
AcDbEntity
  8
JISSEN
100
AcDbCircle
 10
253.8955164796182
 20
397.7363033869292
 30
0.0
 40
3.0
100
AcDbArc
 50
270.0
 51
328.927049027847
  0
LINE
  5
5EF0BD06
330
5EF092C1
100
AcDbEntity
  8
JISSEN
100
AcDbLine
 10
251.3037590348726
 20
406.3758314826077
 30
0.0
 11
251.3037590348726
 21
394.7363033869289
 31
0.0
  0
LINE
  5
5EF0BD07
330
5EF092C1
100
AcDbEntity
  8
JISSEN
100
AcDbLine
 10
244.3755558045972
 20
406.3758314826075
 30
0.0
 11
244.3755558045972
 21
394.7363033869289
 31
0.0
  0
LINE
  5
5EF0BD08
330
5EF092C1
100
AcDbEntity
  8
JISSEN
100
AcDbLine
 10
225.9473525743251
 20
407.7363033869289
 30
0.0
 11
223.5909461137707
 21
406.3758314826077
 31
0.0
  0
ARC
  5
5EF0BD09
330
5EF092C1
100
AcDbEntity
  8
JISSEN
100
AcDbCircle
 10
227.0550477289084
 20
402.6458330293815
 30
0.0
 40
5.090470357547469
100
AcDbArc
 50
47.11671159485297
 51
107.1167115948822
  0
LINE
  5
5EF0BD0B
330
5EF092C1
100
AcDbEntity
  8
JISSEN
100
AcDbLine
 10
223.5909461137707
 20
394.7363033869289
 30
0.0
 11
223.5909461137707
 21
406.3758314826077
 31
0.0
  0
LINE
  5
5EF0BD0C
330
5EF092C1
100
AcDbEntity
  8
JISSEN
100
AcDbLine
 10
230.5191493440461
 20
394.7363033869289
 30
0.0
 11
230.5191493440461
 21
406.3758314826077
 31
0.0
  0
ARC
  5
5EF0BD0E
330
5EF092C1
100
AcDbEntity
  8
JISSEN
100
AcDbCircle
 10
237.4473525743217
 20
389.4151298132212
 30
0.0
 40
18.32117357370777
100
AcDbArc
 50
67.78068982943908
 51
112.2193101705609
  0
LINE
  5
5EF0BD0F
330
5EF092C1
100
AcDbEntity
  8
JISSEN
100
AcDbLine
 10
248.9473525743217
 20
407.7363033869289
 30
0.0
 11
225.9473525743251
 21
407.7363033869289
 31
0.0
  0
LINE
  5
5EF0BD2F
330
5EF092C1
100
AcDbEntity
  8
JISSEN
100
AcDbLine
 10
219.9473525743217
 20
394.7363033869292
 30
0.0
 11
219.9473525743217
 21
372.7363033869291
 31
0.0
  0
ARC
  5
5EF0BD35
330
5EF092C1
100
AcDbEntity
  8
JISSEN
100
AcDbCircle
 10
280.4473525743214
 20
381.7363033869292
 30
0.0
 40
28.0
100
AcDbArc
 50
90.0
 51
148.927049027847
  0
LINE
  5
5EF0BD3B
330
5EF092C1
100
AcDbEntity
  8
JISSEN
100
AcDbLine
 10
454.9473525743216
 20
394.7363033869292
 30
0.0
 11
219.9473525743219
 21
394.7363033869292
 31
0.0
  0
LINE
  5
5EF0BD3C
330
5EF092C1
100
AcDbEntity
  8
JISSEN
100
AcDbLine
 10
220.9473525743216
 20
394.7363033869292
 30
0.0
 11
453.9473525743217
 21
394.7363033869292
 31
0.0
  0
LINE
  5
5EF0BD3D
330
5EF092C1
100
AcDbEntity
  8
JISSEN
100
AcDbLine
 10
354.3721800823
 20
94.62630338692907
 30
0.0
 11
354.0718525743234
 21
104.2363033869291
 31
0.0
  0
LINE
  5
5EF0BD3E
330
5EF092C1
100
AcDbEntity
  8
JISSEN
100
AcDbLine
 10
350.882381416866
 20
94.62630338692907
 30
0.0
 11
350.882381416866
 21
82.62630338692906
 31
0.0
  0
LINE
  5
5EF0BD3F
330
5EF092C1
100
AcDbEntity
  8
JISSEN
100
AcDbLine
 10
350.882381416866
 20
82.62630338692906
 30
0.0
 11
324.0123237317773
 21
82.62630338692906
 31
0.0
  0
LINE
  5
5EF0BD40
330
5EF092C1
100
AcDbEntity
  8
SAISEN
100
AcDbLine
 10
350.882381416866
 20
94.62630338692907
 30
0.0
 11
337.4473525743217
 21
82.62630338692906
 31
0.0
  0
LINE
  5
5EF0BD41
330
5EF092C1
100
AcDbEntity
  8
SAISEN
100
AcDbLine
 10
337.4473525743217
 20
94.62630338692907
 30
0.0
 11
350.882381416866
 21
82.62630338692906
 31
0.0
  0
LINE
  5
5EF0BD42
330
5EF092C1
100
AcDbEntity
  8
JISSEN
100
AcDbLine
 10
354.3721800823
 20
94.62630338692907
 30
0.0
 11
320.5225250663431
 21
94.62630338692907
 31
0.0
  0
LINE
  5
5EF0BD43
330
5EF092C1
100
AcDbEntity
  8
SAISEN
100
AcDbLine
 10
337.4473525743217
 20
94.62630338692907
 30
0.0
 11
324.0123237317773
 21
82.62630338692906
 31
0.0
  0
LINE
  5
5EF0BD44
330
5EF092C1
100
AcDbEntity
  8
SAISEN
100
AcDbLine
 10
324.0123237317773
 20
94.62630338692907
 30
0.0
 11
337.4473525743217
 21
82.62630338692906
 31
0.0
  0
LINE
  5
5EF0BD45
330
5EF092C1
100
AcDbEntity
  8
JISSEN
100
AcDbLine
 10
324.0123237317773
 20
82.62630338692906
 30
0.0
 11
324.0123237317773
 21
94.62630338692907
 31
0.0
  0
LINE
  5
5EF0BD46
330
5EF092C1
100
AcDbEntity
  8
JISSEN
100
AcDbLine
 10
320.5225250663431
 20
94.62630338692907
 30
0.0
 11
320.82285257432
 21
104.2363033869291
 31
0.0
  0
LINE
  5
5EF0BD47
330
5EF092C1
100
AcDbEntity
  8
SCALE
100
AcDbLine
 10
337.4473525743217
 20
94.62630338692907
 30
0.0
 11
337.4473525743217
 21
82.62630338692906
 31
0.0
  0
LINE
  5
5EF0BD48
330
5EF092C1
100
AcDbEntity
  8
SCALE
100
AcDbLine
 10
819.527965974014
 20
94.6263033869293
 30
0.0
 11
836.4527934819925
 21
94.6263033869293
 31
0.0
  0
LINE
  5
5EF0BD49
330
5EF092C1
100
AcDbEntity
  8
SCALE
100
AcDbLine
 10
823.0177646394482
 20
82.62630338692929
 30
0.0
 11
836.4527934819925
 21
82.62630338692929
 31
0.0
  0
LINE
  5
5EF0BD4A
330
5EF092C1
100
AcDbEntity
  8
SCALE
100
AcDbLine
 10
828.9527934819926
 20
443.7363033869523
 30
0.0
 11
836.4527934819925
 21
443.7363033869523
 31
0.0
  0
LINE
  5
5EF0BD4B
330
5EF092C1
100
AcDbEntity
  8
SCALE
100
AcDbLine
 10
843.9527934819926
 20
443.7363033869523
 30
0.0
 11
836.4527934819925
 21
443.7363033869523
 31
0.0
  0
LINE
  5
5EF0BD4C
330
5EF092C1
100
AcDbEntity
  8
SCALE
100
AcDbLine
 10
849.887822324537
 20
82.62630338692929
 30
0.0
 11
836.4527934819925
 21
82.62630338692929
 31
0.0
  0
LINE
  5
5EF0BD4D
330
5EF092C1
100
AcDbEntity
  8
SCALE
100
AcDbLine
 10
853.3776209899711
 20
94.6263033869293
 30
0.0
 11
836.4527934819925
 21
94.6263033869293
 31
0.0
  0
LINE
  5
5EF0BD4E
330
5EF092C1
100
AcDbEntity
  8
JISSEN
100
AcDbLine
 10
837.513453653773
 20
443.7363033869523
 30
0.0
 11
837.513453653773
 21
425.7363033869523
 31
0.0
  0
LINE
  5
5EF0BD4F
330
5EF092C1
100
AcDbEntity
  8
JISSEN
100
AcDbLine
 10
843.9527934819926
 20
443.7363033869523
 30
0.0
 11
843.9527934819926
 21
443.7363033869523
 31
0.0
  0
LINE
  5
5EF0BD50
330
5EF092C1
100
AcDbEntity
  8
JISSEN
100
AcDbLine
 10
843.9527934819926
 20
425.7363033869523
 30
0.0
 11
843.9527934819926
 21
443.7363033869523
 31
0.0
  0
ARC
  5
5EF0BD51
330
5EF092C1
100
AcDbEntity
  8
JISSEN
100
AcDbCircle
 10
858.4527934819925
 20
412.7363033869293
 30
0.0
 40
3.0
100
AcDbArc
 50
180.0
 51
270.0
  0
LINE
  5
5EF0BD52
330
5EF092C1
100
AcDbEntity
  8
JISSEN
100
AcDbLine
 10
855.4527934819926
 20
412.7363033869293
 30
0.0
 11
855.4527934819926
 21
422.7363033869294
 31
0.0
  0
ARC
  5
5EF0BD53
330
5EF092C1
100
AcDbEntity
  8
JISSEN
100
AcDbCircle
 10
857.3094470966067
 20
397.7363033869294
 30
0.0
 40
3.0
100
AcDbArc
 50
198.5530045350234
 51
270.0
  0
ARC
  5
5EF0BD54
330
5EF092C1
100
AcDbEntity
  8
JISSEN
100
AcDbCircle
 10
852.4527934819925
 20
422.7363033869294
 30
0.0
 40
3.0
100
AcDbArc
 50
0.000000000000007
 51
90.0
  0
LINE
  5
5EF0BD55
330
5EF092C1
100
AcDbEntity
  8
JISSEN
100
AcDbLine
 10
836.4527934819925
 20
409.7363033869294
 30
0.0
 11
893.4527934819925
 21
409.7363033869294
 31
0.0
  0
LINE
  5
5EF0BD56
330
5EF092C1
100
AcDbEntity
  8
JISSEN
100
AcDbLine
 10
852.4527934819925
 20
425.7363033869294
 30
0.0
 11
836.4527934819925
 21
425.7363033869294
 31
0.0
  0
ARC
  5
5EF0BD57
330
5EF092C1
100
AcDbEntity
  8
JISSEN
100
AcDbCircle
 10
836.4527934819925
 20
390.7363033869294
 30
0.0
 40
19.0
100
AcDbArc
 50
0.000000000000007
 51
90.0
  0
LINE
  5
5EF0BD59
330
5EF092C1
100
AcDbEntity
  8
JISSEN
100
AcDbLine
 10
843.9527934819926
 20
443.7363033869523
 30
0.0
 11
837.513453653773
 21
425.7363033869523
 31
0.0
  0
LINE
  5
5EF0BD5A
330
5EF092C1
100
AcDbEntity
  8
JISSEN
100
AcDbLine
 10
843.9527934819926
 20
425.7363033869523
 30
0.0
 11
837.513453653773
 21
443.7363033869523
 31
0.0
  0
LINE
  5
5EF0BD5C
330
5EF092C1
100
AcDbEntity
  8
JISSEN
100
AcDbLine
 10
855.4527934819926
 20
390.7363033869294
 30
0.0
 11
855.4527934819926
 21
372.7363033869294
 31
0.0
  0
ARC
  5
5EF0BD5D
330
5EF092C1
100
AcDbEntity
  8
JISSEN
100
AcDbCircle
 10
920.0046295766961
 20
397.7363033869294
 30
0.0
 40
3.0
100
AcDbArc
 50
211.0729509721529
 51
270.0
  0
LINE
  5
5EF0BD5E
330
5EF092C1
100
AcDbEntity
  8
JISSEN
100
AcDbLine
 10
931.4597992904346
 20
347.030398612442
 30
0.0
 11
929.7253868716797
 21
340.5574833443708
 31
0.0
  0
ARC
  5
5EF0BD5F
330
5EF092C1
100
AcDbEntity
  8
JISSEN
100
AcDbCircle
 10
937.4527934819925
 20
338.486930983551
 30
0.0
 40
8.0
100
AcDbArc
 50
164.9999999999988
 51
180.0
  0
LINE
  5
5EF0BD60
330
5EF092C1
100
AcDbEntity
  8
JISSEN
100
AcDbLine
 10
953.9527934819926
 20
372.7363033869294
 30
0.0
 11
956.9527934819925
 21
372.7363033869294
 31
0.0
  0
ARC
  5
5EF0BD61
330
5EF092C1
100
AcDbEntity
  8
JISSEN
100
AcDbCircle
 10
956.9527934819925
 20
371.7363033869294
 30
0.0
 40
1.0
100
AcDbArc
 50
0.000000000000007
 51
90.0
  0
LINE
  5
5EF0BD62
330
5EF092C1
100
AcDbEntity
  8
JISSEN
100
AcDbLine
 10
953.9527934819926
 20
350.7363033869294
 30
0.0
 11
956.9527934819925
 21
350.7363033869294
 31
0.0
  0
ARC
  5
5EF0BD63
330
5EF092C1
100
AcDbEntity
  8
JISSEN
100
AcDbCircle
 10
956.9527934819925
 20
351.7363033869294
 30
0.0
 40
1.0
100
AcDbArc
 50
270.0
 51
0.000000000000007
  0
LINE
  5
5EF0BD64
330
5EF092C1
100
AcDbEntity
  8
JISSEN
100
AcDbLine
 10
953.9527934819926
 20
350.7363033869294
 30
0.0
 11
953.9527934819926
 21
372.7363033869294
 31
0.0
  0
LINE
  5
5EF0BD65
330
5EF092C1
100
AcDbEntity
  8
JISSEN
100
AcDbLine
 10
957.9527934819925
 20
371.7363033869294
 30
0.0
 11
957.9527934819925
 21
351.7363033869294
 31
0.0
  0
ARC
  5
5EF0BD66
330
5EF092C1
100
AcDbEntity
  8
JISSEN
100
AcDbCircle
 10
936.28942842188
 20
345.7363033869294
 30
0.0
 40
5.0
100
AcDbArc
 50
90.0
 51
164.9999999999988
  0
LINE
  5
5EF0BD67
330
5EF092C1
100
AcDbEntity
  8
JISSEN
100
AcDbLine
 10
953.9527934819926
 20
394.7363033869294
 30
0.0
 11
953.9527934819926
 21
372.7363033869294
 31
0.0
  0
LINE
  5
5EF0BD68
330
5EF092C1
100
AcDbEntity
  8
JISSEN
100
AcDbLine
 10
953.9527934819926
 20
350.7363033869294
 30
0.0
 11
836.4527934819925
 21
350.7363033869294
 31
0.0
  0
LINE
  5
5EF0BD69
330
5EF092C1
100
AcDbEntity
  8
JISSEN
100
AcDbLine
 10
857.3094470966067
 20
394.7363033869294
 30
0.0
 11
953.9527934819926
 21
394.7363033869294
 31
0.0
  0
ARC
  5
5EF0BD6A
330
5EF092C1
100
AcDbEntity
  8
JISSEN
100
AcDbCircle
 10
893.4527934819925
 20
381.7363033869294
 30
0.0
 40
28.0
100
AcDbArc
 50
31.07295097215296
 51
90.0
  0
LINE
  5
5EF0BD6B
330
5EF092C1
100
AcDbEntity
  8
JISSEN
100
AcDbLine
 10
953.9527934819926
 20
372.7363033869294
 30
0.0
 11
836.4527934819925
 21
372.7363033869294
 31
0.0
  0
LINE
  5
5EF0BD6C
330
5EF092C1
100
AcDbEntity
  8
SCALE
100
AcDbLine
 10
885.8086441990085
 20
207.7363033869519
 30
0.0
 11
836.4527934819925
 21
207.7363033869519
 31
0.0
  0
LINE
  5
5EF0BD6D
330
5EF092C1
100
AcDbEntity
  8
SCALE
100
AcDbLine
 10
836.3905508325506
 20
165.7363033869289
 30
0.0
 11
836.4527934819925
 21
165.7363033869289
 31
0.0
  0
ARC
  5
5EF0BD6E
330
5EF092C1
100
AcDbEntity
  8
SCALE
100
AcDbCircle
 10
845.8905508325505
 20
168.7363033869289
 30
0.0
 40
3.0
100
AcDbArc
 50
329.2288204060355
 51
0.000000000000007
  0
CIRCLE
  5
5EF0BD6F
330
5EF092C1
100
AcDbEntity
  8
JISSEN
100
AcDbCircle
 10
869.9375938139379
 20
135.8968442921918
 30
0.0
 40
9.5
  0
ARC
  5
5EF0BD70
330
5EF092C1
100
AcDbEntity
  8
JISSEN
100
AcDbCircle
 10
836.4527934819925
 20
216.7363033869292
 30
0.0
 40
50.0
100
AcDbArc
 50
270.0
 51
90.0
  0
ARC
  5
5EF0BD71
330
5EF092C1
100
AcDbEntity
  8
JISSEN
100
AcDbCircle
 10
836.4527934819925
 20
216.7363033869292
 30
0.0
 40
51.5
100
AcDbArc
 50
270.0
 51
90.0
  0
LINE
  5
5EF0BD72
330
5EF092C1
100
AcDbEntity
  8
SCALE
100
AcDbLine
 10
848.8905508325506
 20
207.7363033869519
 30
0.0
 11
848.8905508325506
 21
168.7363033869289
 31
0.0
  0
LINE
  5
5EF0BD73
330
5EF092C1
100
AcDbEntity
  8
SCALE
100
AcDbLine
 10
864.4910572657082
 20
207.7363033869519
 30
0.0
 11
864.4910572657082
 21
174.3375622950218
 31
0.0
  0
LINE
  5
5EF0BD74
330
5EF092C1
100
AcDbEntity
  8
SCALE
100
AcDbLine
 10
882.2751862053728
 20
207.7363033869519
 30
0.0
 11
882.2751862053728
 21
195.7285967441296
 31
0.0
  0
LINE
  5
5EF0BD75
330
5EF092C1
100
AcDbEntity
  8
SCALE
100
AcDbLine
 10
885.150700906488
 20
207.7363033869519
 30
0.0
 11
885.150700906488
 21
204.3999101123797
 31
0.0
  0
CIRCLE
  5
5EF0BD76
330
5EF092C1
100
AcDbEntity
  8
JISSEN
100
AcDbCircle
 10
917.2922525767299
 20
250.2211037188747
 30
0.0
 40
9.5
  0
CIRCLE
  5
5EF0BD77
330
5EF092C1
100
AcDbEntity
  8
JISSEN
100
AcDbCircle
 10
917.2922525767299
 20
183.2515030549839
 30
0.0
 40
9.5
  0
LINE
  5
5EF0BD78
330
5EF092C1
100
AcDbEntity
  8
JISSEN
100
AcDbLine
 10
853.3776209899711
 20
94.6263033869293
 30
0.0
 11
853.0772934819943
 21
104.2363033869291
 31
0.0
  0
LINE
  5
5EF0BD79
330
5EF092C1
100
AcDbEntity
  8
SAISEN
100
AcDbLine
 10
851.5982934819945
 20
104.2363033869291
 30
0.0
 11
851.8986209899708
 21
94.6263033869293
 31
0.0
  0
LINE
  5
5EF0BD7A
330
5EF092C1
100
AcDbEntity
  8
JISSEN
100
AcDbLine
 10
861.4527934819925
 20
114.7559131150735
 30
0.0
 11
861.4527934819925
 21
109.2363033869292
 31
0.0
  0
ARC
  5
5EF0BD7B
330
5EF092C1
100
AcDbEntity
  8
JISSEN
100
AcDbCircle
 10
856.4527934819926
 20
109.2363033869292
 30
0.0
 40
5.0
100
AcDbArc
 50
270.0
 51
0.000000000000007
  0
LINE
  5
5EF0BD7C
330
5EF092C1
100
AcDbEntity
  8
JISSEN
100
AcDbLine
 10
849.887822324537
 20
82.62630338692929
 30
0.0
 11
849.887822324537
 21
94.6263033869293
 31
0.0
  0
LINE
  5
5EF0BD7D
330
5EF092C1
100
AcDbEntity
  8
SAISEN
100
AcDbLine
 10
849.887822324537
 20
94.6263033869293
 30
0.0
 11
836.4527934819925
 21
82.62630338692929
 31
0.0
  0
LINE
  5
5EF0BD7E
330
5EF092C1
100
AcDbEntity
  8
SAISEN
100
AcDbLine
 10
836.4527934819925
 20
94.6263033869293
 30
0.0
 11
849.887822324537
 21
82.62630338692929
 31
0.0
  0
LINE
  5
5EF0BD7F
330
5EF092C1
100
AcDbEntity
  8
JISSEN
100
AcDbLine
 10
836.4527934819925
 20
104.2363033869291
 30
0.0
 11
856.4527934819926
 21
104.2363033869291
 31
0.0
  0
LINE
  5
5EF0BD80
330
5EF092C1
100
AcDbEntity
  8
JISSEN
100
AcDbLine
 10
929.4527934819925
 20
338.486930983551
 30
0.0
 11
929.4527934819925
 21
265.4805338147455
 31
0.0
  0
ARC
  5
5EF0BD82
330
5EF092C1
100
AcDbEntity
  8
JISSEN
100
AcDbCircle
 10
836.4527934819925
 20
216.7363033869292
 30
0.0
 40
105.0
100
AcDbArc
 50
270.0
 51
90.0
  0
CIRCLE
  5
5EF0BD83
330
5EF092C1
100
AcDbEntity
  8
JISSEN
100
AcDbCircle
 10
869.9375938139379
 20
297.5757624816667
 30
0.0
 40
9.5
  0
LINE
  5
5EF0BD85
330
5EF092C1
100
AcDbEntity
  8
ITTEN
 48
3.0
100
AcDbLine
 10
836.4527934819925
 20
77.62630338692929
 30
0.0
 11
836.4527934819925
 21
448.7363033869524
 31
0.0
  0
LINE
  5
5EF0BD89
330
5EF092C1
100
AcDbEntity
  8
ITTEN
 48
3.0
100
AcDbLine
 10
946.4527934819924
 20
216.7363033869292
 30
0.0
 11
726.4527934819925
 21
216.7363033869292
 31
0.0
  0
CIRCLE
  5
5EF0BD8A
330
5EF092C1
100
AcDbEntity
  8
ITTEN
 48
3.0
100
AcDbCircle
 10
836.4527934819925
 20
216.7363033869292
 30
0.0
 40
87.49999999999992
  0
LINE
  5
5EF0BD8D
330
5EF092C1
100
AcDbEntity
  8
ITTEN
 48
1.5
100
AcDbLine
 10
864.3886840446439
 20
284.179509260253
 30
0.0
 11
875.4865035832317
 21
310.9720157030803
 31
0.0
  0
LINE
  5
5EF0BD8E
330
5EF092C1
100
AcDbEntity
  8
ITTEN
 48
1.5
100
AcDbLine
 10
808.5169029193412
 20
284.1795092602528
 30
0.0
 11
797.4190833807534
 21
310.9720157030806
 31
0.0
  0
LINE
  5
5EF0BD8F
330
5EF092C1
100
AcDbEntity
  8
ITTEN
 48
1.5
100
AcDbLine
 10
769.0095876086688
 20
244.6721939495807
 30
0.0
 11
742.2170811658416
 21
255.7700134881684
 31
0.0
  0
LINE
  5
5EF0BD90
330
5EF092C1
100
AcDbEntity
  8
ITTEN
 48
1.5
100
AcDbLine
 10
769.0095876086688
 20
188.8004128242775
 30
0.0
 11
742.2170811658416
 21
177.70259328569
 31
0.0
  0
LINE
  5
5EF0BD91
330
5EF092C1
100
AcDbEntity
  8
ITTEN
 48
1.5
100
AcDbLine
 10
808.5169029193412
 20
149.2930975136055
 30
0.0
 11
797.4190833807538
 21
122.5005910707782
 31
0.0
  0
LINE
  5
5EF0BD92
330
5EF092C1
100
AcDbEntity
  8
ITTEN
 48
1.5
100
AcDbLine
 10
864.3886840446439
 20
149.2930975136055
 30
0.0
 11
875.4865035832317
 21
122.5005910707782
 31
0.0
  0
LINE
  5
5EF0BD93
330
5EF092C1
100
AcDbEntity
  8
ITTEN
 48
1.5
100
AcDbLine
 10
903.8959993553161
 20
188.8004128242778
 30
0.0
 11
930.6885057981435
 21
177.7025932856902
 31
0.0
  0
LINE
  5
5EF0BD94
330
5EF092C1
100
AcDbEntity
  8
ITTEN
 48
1.5
100
AcDbLine
 10
903.8959993553161
 20
244.6721939495805
 30
0.0
 11
930.6885057981435
 21
255.7700134881684
 31
0.0
  0
LINE
  5
5EF0BD95
330
5EF092C1
100
AcDbEntity
  8
SUNPOU
100
AcDbLine
 10
815.3844422963594
 20
148.3132934385034
 30
0.0
 11
774.4311837664481
 21
107.3600349085922
 31
0.0
  0
LINE
  5
5EF0BD96
330
5EF092C1
100
AcDbEntity
  8
SUNPOU
100
AcDbLine
 10
813.9281482584397
 20
146.8569994005836
 30
0.0
 11
818.1707889455593
 21
151.0996400877029
 31
0.0
  0
INSERT
  5
5EF0BD97
330
5EF092C1
100
AcDbEntity
  8
SUNPOU
100
AcDbBlockReference
  2
ARROWANG
 10
809.6855075713206
 20
142.6143587134645
 30
0.0
 41
6.000000000000028
 42
6.0
 43
6.0
 50
224.9999999999998
  0
LINE
  5
5EF0BD98
330
5EF092C1
100
AcDbEntity
  8
ITTEN
  6
CENTER
 48
2.0
100
AcDbLine
 10
813.2210414772529
 20
146.1498926193969
 30
0.0
 11
792.7149448228428
 21
125.6437959649872
 31
0.0
  0
LINE
  5
5EF0BD99
330
5EF092C1
100
AcDbEntity
  8
SUNPOU
100
AcDbLine
 10
774.4311837664481
 20
107.3600349085922
 30
0.0
 11
723.2336340201686
 21
107.3600349085922
 31
0.0
  0
TEXT
  5
5EF0BD9A
330
5EF092C1
100
AcDbEntity
  8
SUNPOU
100
AcDbText
 10
724.1982163549027
 20
109.1651472226271
 30
0.0
 40
9.0
  1
8-%%c19
  7
K
100
AcDbText
  0
INSERT
  5
5EF0BD9B
330
5EF092C1
100
AcDbEntity
  8
SUNPOU
100
AcDbBlockReference
  2
ARROWANG
 10
796.2504787287762
 20
129.1793298709201
 30
0.0
 41
6.000000000000028
 42
6.0
 43
6.0
 50
44.99999999999981
  0
LINE
  5
5EF0BD9D
330
5EF092C1
100
AcDbEntity
  8
SUNPOU
100
AcDbLine
 10
878.3394595917961
 20
432.4024825655739
 30
0.0
 11
843.9709279769603
 21
398.0339509507382
 31
0.0
  0
MTEXT
  5
5EF0BD9E
330
5EF092C1
100
AcDbEntity
  8
SUNPOU
100
AcDbMText
 10
908.6800079528666
 20
438.6341052081127
 30
0.0
 40
9.0
 41
0.0
 71
     5
 72
     1
  1
Rc 1/2
  7
K
1001
ACAD
1000
MTEXTBEGIN
1070
    73
1070
     1
1070
    44
1040
1.0
1070
    74
1070
     0
1000
MTEXTEND
  0
LINE
  5
5EF0BD9F
330
5EF092C1
100
AcDbEntity
  8
SUNPOU
100
AcDbLine
 10
878.3394595917961
 20
432.4024825655739
 30
0.0
 11
934.5228650957237
 21
432.4024825655742
 31
0.0
  0
CIRCLE
  5
5EF0BDA0
330
5EF092C1
100
AcDbEntity
  8
SCALE
100
AcDbCircle
 10
836.4527934819925
 20
390.7363033869291
 30
0.0
 40
5.000000000000056
  0
CIRCLE
  5
5EF0BDA1
330
5EF092C1
100
AcDbEntity
  8
SCALE
100
AcDbCircle
 10
836.4527934819925
 20
390.7363033869291
 30
0.0
 40
9.315499999999929
  0
CIRCLE
  5
5EF0BDA2
330
5EF092C1
100
AcDbEntity
  8
SAISEN
100
AcDbCircle
 10
836.4527934819925
 20
390.7363033869291
 30
0.0
 40
10.47749999999985
  0
INSERT
  5
5EF0BDA3
330
5EF092C1
100
AcDbEntity
  8
SUNPOU
100
AcDbBlockReference
  2
ARROWANG
 10
843.9709279769603
 20
398.0339509507382
 30
0.0
 41
6.000000000000028
 42
6.0
 43
6.0
 50
224.9999999999998
  0
LINE
  5
5EF0BDA5
330
5EF092C1
100
AcDbEntity
  8
ITTEN
 48
3.0
100
AcDbLine
 10
859.952793481993
 20
390.7363033869291
 30
0.0
 11
812.952793481992
 21
390.7363033869291
 31
0.0
  0
LINE
  5
5EF0BDA6
330
5EF092C1
100
AcDbEntity
  8
SUNPOU
100
AcDbLine
 10
810.7027934819921
 20
390.7363033869291
 30
0.0
 11
682.450762477687
 21
390.7363033869291
 31
0.0
  0
LINE
  5
5EF0BDA8
330
5EF092C1
100
AcDbEntity
  8
SUNPOU
100
AcDbLine
 10
685.4507624776872
 20
390.7363033869291
 30
0.0
 11
685.4507624776872
 21
216.7363033869292
 31
0.0
  0
INSERT
  5
5EF0BDA9
330
5EF092C1
100
AcDbEntity
  8
SUNPOU
100
AcDbBlockReference
  2
ARROWANG
 10
685.450762477687
 20
390.7363033869291
 30
0.0
 41
4.5
 42
4.5
 43
4.5
 50
90.0
  0
INSERT
  5
5EF0BDAA
330
5EF092C1
100
AcDbEntity
  8
SUNPOU
100
AcDbBlockReference
  2
ARROWANG
 10
685.450762477687
 20
216.7363033869292
 30
0.0
 41
4.5
 42
4.5
 43
4.5
 50
270.0
  0
MTEXT
  5
5EF0BDAB
330
5EF092C1
100
AcDbEntity
  8
SUNPOU
100
AcDbMText
 10
677.9507624776868
 20
303.7363033869295
 30
0.0
 40
9.0
 41
0.0
 71
     5
 72
     1
  1
\A1;174
  7
K
 11
0.0000000000000001
 21
1.0
 31
0.0
1001
ACAD
1000
MTEXTBEGIN
1070
    73
1070
     1
1070
    44
1040
1.0
1070
    74
1070
     0
1000
MTEXTEND
  0
LINE
  5
5EF0BDAD
330
5EF092C1
100
AcDbEntity
  8
NITEN
 48
0.5
100
AcDbLine
 10
843.9527934819926
 20
469.7363033869524
 30
0.0
 11
837.513453653773
 21
487.7363033869523
 31
0.0
  0
LINE
  5
5EF0BDAE
330
5EF092C1
100
AcDbEntity
  8
NITEN
 48
0.5
100
AcDbLine
 10
843.9527934819926
 20
487.7363033869523
 30
0.0
 11
837.513453653773
 21
469.7363033869524
 31
0.0
  0
LINE
  5
5EF0BDAF
330
5EF092C1
100
AcDbEntity
  8
NITEN
 48
0.5
100
AcDbLine
 10
843.9527934819926
 20
469.7363033869524
 30
0.0
 11
843.9527934819926
 21
487.7363033869523
 31
0.0
  0
LINE
  5
5EF0BDB0
330
5EF092C1
100
AcDbEntity
  8
NITEN
 48
0.5
100
AcDbLine
 10
843.9527934819926
 20
487.7363033869523
 30
0.0
 11
843.9527934819926
 21
487.7363033869523
 31
0.0
  0
LINE
  5
5EF0BDB1
330
5EF092C1
100
AcDbEntity
  8
NITEN
 48
0.5
100
AcDbLine
 10
837.513453653773
 20
487.7363033869523
 30
0.0
 11
837.513453653773
 21
469.7363033869524
 31
0.0
  0
LINE
  5
5EF0BDB2
330
5EF092C1
100
AcDbEntity
  8
NITEN
 48
0.5
100
AcDbLine
 10
843.9527934819926
 20
487.7363033869523
 30
0.0
 11
836.4527934819925
 21
487.7363033869523
 31
0.0
  0
LINE
  5
5EF0BDB3
330
5EF092C1
100
AcDbEntity
  8
NITEN
 48
0.5
100
AcDbLine
 10
828.9527934819926
 20
487.7363033869523
 30
0.0
 11
836.4527934819925
 21
487.7363033869523
 31
0.0
  0
LINE
  5
5EF0BDB4
330
5EF092C1
100
AcDbEntity
  8
NITEN
 48
0.5
100
AcDbLine
 10
835.3921333102121
 20
487.7363033869523
 30
0.0
 11
835.3921333102121
 21
469.7363033869524
 31
0.0
  0
LINE
  5
5EF0BDB5
330
5EF092C1
100
AcDbEntity
  8
NITEN
 48
0.5
100
AcDbLine
 10
828.9527934819926
 20
487.7363033869523
 30
0.0
 11
828.9527934819926
 21
487.7363033869523
 31
0.0
  0
LINE
  5
5EF0BDB6
330
5EF092C1
100
AcDbEntity
  8
NITEN
 48
0.5
100
AcDbLine
 10
828.9527934819926
 20
469.7363033869524
 30
0.0
 11
828.9527934819926
 21
487.7363033869523
 31
0.0
  0
LINE
  5
5EF0BDB7
330
5EF092C1
100
AcDbEntity
  8
NITEN
 48
0.5
100
AcDbLine
 10
828.9527934819926
 20
487.7363033869523
 30
0.0
 11
835.3921333102121
 21
469.7363033869524
 31
0.0
  0
LINE
  5
5EF0BDB8
330
5EF092C1
100
AcDbEntity
  8
NITEN
 48
0.5
100
AcDbLine
 10
828.9527934819926
 20
469.7363033869524
 30
0.0
 11
835.3921333102121
 21
487.7363033869523
 31
0.0
  0
LINE
  5
5EF0BDB9
330
5EF092C1
100
AcDbEntity
  8
NITEN
 48
0.5
100
AcDbLine
 10
828.4527934819925
 20
468.8702779831678
 30
0.0
 11
828.4527934819925
 21
425.7363033869292
 31
0.0
  0
LINE
  5
5EF0BDBA
330
5EF092C1
100
AcDbEntity
  8
NITEN
 48
0.5
100
AcDbLine
 10
844.4527934819925
 20
468.8702779831678
 30
0.0
 11
844.4527934819925
 21
425.7363033869292
 31
0.0
  0
LINE
  5
5EF0BDBB
330
5EF092C1
100
AcDbEntity
  8
NITEN
 48
0.5
100
AcDbLine
 10
844.4527934819925
 20
468.8702779831678
 30
0.0
 11
828.4527934819925
 21
468.8702779831678
 31
0.0
  0
LINE
  5
5EF0BDBC
330
5EF092C1
100
AcDbEntity
  8
NITEN
 48
0.5
100
AcDbLine
 10
828.9527934819926
 20
469.7363033869524
 30
0.0
 11
828.4527934819925
 21
468.8702779831681
 31
0.0
  0
LINE
  5
5EF0BDBD
330
5EF092C1
100
AcDbEntity
  8
NITEN
 48
0.5
100
AcDbLine
 10
843.9527934819926
 20
469.7363033869524
 30
0.0
 11
844.4527934819925
 21
468.8702779831678
 31
0.0
  0
LINE
  5
5EF0BDBE
330
5EF092C1
100
AcDbEntity
  8
NITEN
 48
0.5
100
AcDbLine
 10
843.9527934819926
 20
469.7363033869524
 30
0.0
 11
828.9527934819926
 21
469.7363033869524
 31
0.0
  0
LINE
  5
5EF0BDBF
330
5EF092C1
100
AcDbEntity
  8
SUNPOU
100
AcDbLine
 10
826.7027934819925
 20
487.7363033869523
 30
0.0
 11
658.2050997475589
 21
487.7363033869523
 31
0.0
  0
LINE
  5
5EF0BDC0
330
5EF092C1
100
AcDbEntity
  8
SUNPOU
100
AcDbLine
 10
724.2027934819925
 20
216.7363033869292
 30
0.0
 11
658.2050997475589
 21
216.7363033869292
 31
0.0
  0
LINE
  5
5EF0BDC1
330
5EF092C1
100
AcDbEntity
  8
SUNPOU
100
AcDbLine
 10
661.2050997475587
 20
487.7363033869523
 30
0.0
 11
661.2050997475591
 21
216.7363033869292
 31
0.0
  0
INSERT
  5
5EF0BDC2
330
5EF092C1
100
AcDbEntity
  8
SUNPOU
100
AcDbBlockReference
  2
ARROWANG
 10
661.205099747559
 20
487.7363033869523
 30
0.0
 41
4.5
 42
4.5
 43
4.5
 50
90.0
  0
INSERT
  5
5EF0BDC3
330
5EF092C1
100
AcDbEntity
  8
SUNPOU
100
AcDbBlockReference
  2
ARROWANG
 10
661.205099747559
 20
216.7363033869292
 30
0.0
 41
4.5
 42
4.5
 43
4.5
 50
270.0
  0
MTEXT
  5
5EF0BDC4
330
5EF092C1
100
AcDbEntity
  8
SUNPOU
100
AcDbMText
 10
653.7050997475587
 20
352.2363033869411
 30
0.0
 40
9.0
 41
0.0
 71
     5
 72
     1
  1
271(全開時)
  7
K
 11
0.0000000000000001
 21
1.0
 31
0.0
1001
ACAD
1000
MTEXTBEGIN
1070
    73
1070
     1
1070
    44
1040
1.0
1070
    74
1070
     0
1000
MTEXTEND
  0
LINE
  5
5EF0BDC6
330
5EF092C1
100
AcDbEntity
  8
ITTEN
 48
3.0
100
AcDbLine
 10
492.4473525743216
 20
129.2363033869293
 30
0.0
 11
458.4473525743216
 21
129.2363033869294
 31
0.0
  0
LINE
  5
5EF0BDC7
330
5EF092C1
100
AcDbEntity
  8
ITTEN
 48
3.0
100
AcDbLine
 10
492.4473525743216
 20
304.2363033869292
 30
0.0
 11
458.4473525743216
 21
304.2363033869292
 31
0.0
  0
LINE
  5
5EF0BDCA
330
5EF092C1
100
AcDbEntity
  8
ITTEN
 48
3.0
100
AcDbLine
 10
182.4473525743217
 20
304.2363033869292
 30
0.0
 11
216.4473525743219
 21
304.2363033869292
 31
0.0
  0
LINE
  5
5EF0BDCB
330
5EF092C1
100
AcDbEntity
  8
ITTEN
 48
3.0
100
AcDbLine
 10
182.4473525743217
 20
129.2363033869293
 30
0.0
 11
216.4473525743219
 21
129.2363033869294
 31
0.0
  0
MTEXT
  5
5EF0BDCE
330
5EF092C1
100
AcDbEntity
  8
SUNPOU
100
AcDbMText
 10
475.4473525743216
 20
67.7780172439285
 30
0.0
 40
9.0
 41
0.0
 71
     5
 72
     1
  1
24
  7
K
1001
ACAD
1000
MTEXTBEGIN
1070
    73
1070
     1
1070
    44
1040
1.0
1070
    74
1070
     0
1000
MTEXTEND
  0
INSERT
  5
5EF0BDCF
330
5EF092C1
100
AcDbEntity
  8
SUNPOU
100
AcDbBlockReference
  2
ARROWANG
 10
463.4473525743216
 20
60.2780172439285
 30
0.0
 41
4.5
 42
4.5
 43
4.5
 50
180.0
  0
INSERT
  5
5EF0BDD0
330
5EF092C1
100
AcDbEntity
  8
SUNPOU
100
AcDbBlockReference
  2
ARROWANG
 10
487.4473525743217
 20
60.2780172439285
 30
0.0
 41
4.5
 42
4.5
 43
4.5
  0
LINE
  5
5EF0BDD1
330
5EF092C1
100
AcDbEntity
  8
SUNPOU
100
AcDbLine
 10
487.4473525743221
 20
60.27801724392862
 30
0.0
 11
464.1616382886074
 21
60.2780172439285
 31
0.0
  0
LINE
  5
5EF0BDD2
330
5EF092C1
100
AcDbEntity
  8
SUNPOU
100
AcDbLine
 10
463.4473525743216
 20
110.9863033869291
 30
0.0
 11
463.4473525743216
 21
57.2780172439285
 31
0.0
  0
MTEXT
  5
5EF0BDD3
330
5EF092C1
100
AcDbEntity
  8
SUNPOU
100
AcDbMText
 10
337.4473525743217
 20
46.54921947510376
 30
0.0
 40
9.0
 41
0.0
 71
     5
 72
     1
  1
300
  7
K
1001
ACAD
1000
MTEXTBEGIN
1070
    73
1070
     1
1070
    44
1040
1.0
1070
    74
1070
     0
1000
MTEXTEND
  0
INSERT
  5
5EF0BDD4
330
5EF092C1
100
AcDbEntity
  8
SUNPOU
100
AcDbBlockReference
  2
ARROWANG
 10
487.4473525743217
 20
39.04921947510377
 30
0.0
 41
4.5
 42
4.5
 43
4.5
  0
INSERT
  5
5EF0BDD5
330
5EF092C1
100
AcDbEntity
  8
SUNPOU
100
AcDbBlockReference
  2
ARROWANG
 10
187.4473525743217
 20
39.04921947510377
 30
0.0
 41
4.5
 42
4.5
 43
4.5
 50
180.0
  0
LINE
  5
5EF0BDD6
330
5EF092C1
100
AcDbEntity
  8
SUNPOU
100
AcDbLine
 10
187.4473525743214
 20
39.04921947510377
 30
0.0
 11
487.4473525743217
 21
39.04921947510377
 31
0.0
  0
LINE
  5
5EF0BDD7
330
5EF092C1
100
AcDbEntity
  8
SUNPOU
100
AcDbLine
 10
487.4473525743217
 20
110.9863033869291
 30
0.0
 11
487.4473525743217
 21
36.04921947510376
 31
0.0
  0
LINE
  5
5EF0BDD8
330
5EF092C1
100
AcDbEntity
  8
SUNPOU
100
AcDbLine
 10
187.4473525743217
 20
110.9863033869291
 30
0.0
 11
187.4473525743217
 21
36.04921947510376
 31
0.0
  0
LINE
  5
5EF0BDD9
330
5EF092C1
100
AcDbEntity
  8
ITTEN
 48
3.0
100
AcDbLine
 10
497.4473525743217
 20
216.7363033869292
 30
0.0
 11
177.4473525743214
 21
216.7363033869292
 31
0.0
  0
MTEXT
  5
5EF0BDDB
330
5EF092C1
100
AcDbEntity
  8
SUNPOU
100
AcDbMText
 10
139.7440537993079
 20
330.2363033869291
 30
0.0
 40
9.0
 41
0.0
 71
     5
 72
     1
  1
227 (全閉時)
  7
K
 11
0.0000000000000001
 21
1.0
 31
0.0
1001
ACAD
1000
MTEXTBEGIN
1070
    73
1070
     1
1070
    44
1040
1.0
1070
    74
1070
     0
1000
MTEXTEND
  0
INSERT
  5
5EF0BDDC
330
5EF092C1
100
AcDbEntity
  8
SUNPOU
100
AcDbBlockReference
  2
ARROWANG
 10
147.2440537993079
 20
216.7363033869292
 30
0.0
 41
4.5
 42
4.5
 43
4.5
 50
270.0
  0
INSERT
  5
5EF0BDDD
330
5EF092C1
100
AcDbEntity
  8
SUNPOU
100
AcDbBlockReference
  2
ARROWANG
 10
147.2440537993079
 20
443.7363033869523
 30
0.0
 41
4.5
 42
4.5
 43
4.5
 50
90.0
  0
LINE
  5
5EF0BDDE
330
5EF092C1
100
AcDbEntity
  8
SUNPOU
100
AcDbLine
 10
147.2440537993079
 20
443.7363033869542
 30
0.0
 11
147.2440537993079
 21
216.7363033869292
 31
0.0
  0
LINE
  5
5EF0BDDF
330
5EF092C1
100
AcDbEntity
  8
SUNPOU
100
AcDbLine
 10
175.1973525743214
 20
216.7363033869292
 30
0.0
 11
144.2440537993079
 21
216.7363033869292
 31
0.0
  0
LINE
  5
5EF0BDE0
330
5EF092C1
100
AcDbEntity
  8
SUNPOU
100
AcDbLine
 10
329.9473525743219
 20
443.7363033869523
 30
0.0
 11
144.2440537993079
 21
443.7363033869523
 31
0.0
  0
LINE
  5
5EF0BDE2
330
5EF092C1
100
AcDbEntity
  8
ITTEN
 48
3.0
100
AcDbLine
 10
337.4473525743217
 20
448.7363033869526
 30
0.0
 11
337.4473525743217
 21
76.62630338692884
 31
0.0
  0
MTEXT
  5
5EF0BDF1
330
5EF092C1
100
AcDbEntity
  8
SUNPOU
100
AcDbMText
 10
550.6056567007365
 20
216.7363033869293
 30
0.0
 40
9.0
 41
0.0
 71
     5
 72
     1
  1
%%c210
  7
K
 11
0.0000000000000001
 21
1.0
 31
0.0
1001
ACAD
1000
MTEXTBEGIN
1070
    73
1070
     1
1070
    44
1040
1.0
1070
    74
1070
     0
1000
MTEXTEND
  0
INSERT
  5
5EF0BDF2
330
5EF092C1
100
AcDbEntity
  8
SUNPOU
100
AcDbBlockReference
  2
ARROWANG
 10
558.1056567007364
 20
111.7363033869291
 30
0.0
 41
4.5
 42
4.5
 43
4.5
 50
270.0
  0
INSERT
  5
5EF0BDF3
330
5EF092C1
100
AcDbEntity
  8
SUNPOU
100
AcDbBlockReference
  2
ARROWANG
 10
558.1056567007364
 20
321.7363033869292
 30
0.0
 41
4.5
 42
4.5
 43
4.5
 50
90.0
  0
LINE
  5
5EF0BDF4
330
5EF092C1
100
AcDbEntity
  8
SUNPOU
100
AcDbLine
 10
558.1056567007363
 20
321.7363033869292
 30
0.0
 11
558.1056567007364
 21
111.7363033869285
 31
0.0
  0
LINE
  5
5EF0BDF5
330
5EF092C1
100
AcDbEntity
  8
SUNPOU
100
AcDbLine
 10
488.6973525743217
 20
111.7363033869291
 30
0.0
 11
561.1056567007365
 21
111.7363033869291
 31
0.0
  0
LINE
  5
5EF0BDF6
330
5EF092C1
100
AcDbEntity
  8
SUNPOU
100
AcDbLine
 10
488.6973525743217
 20
321.7363033869292
 30
0.0
 11
561.1056567007365
 21
321.7363033869292
 31
0.0
  0
MTEXT
  5
5EF0BDF7
330
5EF092C1
100
AcDbEntity
  8
SUNPOU
100
AcDbMText
 10
521.1936640436262
 20
216.7363033869293
 30
0.0
 40
9.0
 41
0.0
 71
     5
 72
     1
  1
%%c175
  7
K
 11
0.0000000000000001
 21
1.0
 31
0.0
1001
ACAD
1000
MTEXTBEGIN
1070
    73
1070
     1
1070
    44
1040
1.0
1070
    74
1070
     0
1000
MTEXTEND
  0
INSERT
  5
5EF0BDF8
330
5EF092C1
100
AcDbEntity
  8
SUNPOU
100
AcDbBlockReference
  2
ARROWANG
 10
528.6936640436262
 20
129.2363033869293
 30
0.0
 41
4.5
 42
4.5
 43
4.5
 50
270.0
  0
INSERT
  5
5EF0BDF9
330
5EF092C1
100
AcDbEntity
  8
SUNPOU
100
AcDbBlockReference
  2
ARROWANG
 10
528.6936640436262
 20
304.2363033869292
 30
0.0
 41
4.5
 42
4.5
 43
4.5
 50
90.0
  0
LINE
  5
5EF0BDFA
330
5EF092C1
100
AcDbEntity
  8
SUNPOU
100
AcDbLine
 10
528.6936640436265
 20
304.2363033869282
 30
0.0
 11
528.6936640436262
 21
129.236303386929
 31
0.0
  0
LINE
  5
5EF0BDFB
330
5EF092C1
100
AcDbEntity
  8
SUNPOU
100
AcDbLine
 10
494.6973525743216
 20
129.2363033869293
 30
0.0
 11
531.6936640436263
 21
129.2363033869293
 31
0.0
  0
LINE
  5
5EF0BDFC
330
5EF092C1
100
AcDbEntity
  8
SUNPOU
100
AcDbLine
 10
494.6973525743216
 20
304.2363033869292
 30
0.0
 11
531.6936640436263
 21
304.2363033869292
 31
0.0
  0
LINE
  5
5EF0BE9A
330
5EF092C1
100
AcDbEntity
  8
JISSEN
100
AcDbLine
 10
463.4473525743215
 20
650.8675769913022
 30
0.0
 11
463.4473525743215
 21
754.8675769913025
 31
0.0
  0
CIRCLE
  5
5EF0BE9B
330
5EF092C1
100
AcDbEntity
  8
SAISEN
100
AcDbCircle
 10
375.7156958108307
 20
743.2555302424309
 30
0.0
 40
12.10354752696178
  0
LWPOLYLINE
  5
5EF0BE9C
330
5EF092C1
100
AcDbEntity
  8
JISSEN
100
AcDbPolyline
 90
        6
 70
     1
 43
0.0
 10
375.7156958108305
 20
729.39912378188
 10
387.7156958108306
 20
736.3273270121553
 10
387.7156958108307
 20
750.1837334727065
 10
375.7156958108307
 20
757.1119367029821
 10
363.7156958108306
 20
750.1837334727065
 10
363.7156958108305
 20
736.3273270121555
  0
LINE
  5
5EF0BE9D
330
5EF092C1
100
AcDbEntity
  8
ITTEN
 48
3.0
100
AcDbLine
 10
381.6472890124896
 20
757.5756629963559
 30
0.0
 11
369.7841026091718
 21
728.935397488506
 31
0.0
  0
CIRCLE
  5
5EF0BE9E
330
5EF092C1
100
AcDbEntity
  8
SAISEN
100
AcDbCircle
 10
299.1790093378126
 20
743.2555302424311
 30
0.0
 40
12.10354752696178
  0
LWPOLYLINE
  5
5EF0BE9F
330
5EF092C1
100
AcDbEntity
  8
JISSEN
100
AcDbPolyline
 90
        6
 70
     1
 43
0.0
 10
308.9769683089453
 20
733.4575712712982
 10
312.5632701976176
 20
746.8418321311031
 10
302.7653112264849
 20
756.6397911022359
 10
289.38105036668
 20
753.0534892135638
 10
285.7947484780077
 20
739.6692283537588
 10
295.5927074491403
 20
729.8712693826261
  0
LINE
  5
5EF0BEA0
330
5EF092C1
100
AcDbEntity
  8
ITTEN
 48
3.0
100
AcDbLine
 10
293.2474161361538
 20
757.5756629963559
 30
0.0
 11
305.1106025394715
 21
728.9353974885061
 31
0.0
  0
LINE
  5
5EF0BEA2
330
5EF092C1
100
AcDbEntity
  8
JISSEN
100
AcDbLine
 10
487.4473525743216
 20
754.3675769913025
 30
0.0
 11
487.4473525743216
 21
547.3675769913024
 31
0.0
  0
LINE
  5
5EF0BEA3
330
5EF092C1
100
AcDbEntity
  8
JISSEN
100
AcDbLine
 10
211.4473525743217
 20
650.8675769913022
 30
0.0
 11
211.4473525743215
 21
754.8675769913025
 31
0.0
  0
LINE
  5
5EF0BEA4
330
5EF092C1
100
AcDbEntity
  8
JISSEN
100
AcDbLine
 10
187.4473525743214
 20
754.3675769913025
 30
0.0
 11
187.4473525743214
 21
547.3675769913024
 31
0.0
  0
ARC
  5
5EF0BEA5
330
5EF092C1
100
AcDbEntity
  8
JISSEN
100
AcDbCircle
 10
337.4473525743217
 20
650.8675769913022
 30
0.0
 40
117.5
100
AcDbArc
 50
9.101195814421213
 51
180.0
  0
ARC
  5
5EF0BEA6
330
5EF092C1
100
AcDbEntity
  8
JISSEN
100
AcDbCircle
 10
337.4473525743217
 20
650.8675769913022
 30
0.0
 40
81.79919353527447
100
AcDbArc
 50
15.03662450528482
 51
180.0
  0
ARC
  5
5EF0BEA8
330
5EF092C1
100
AcDbEntity
  8
JISSEN
100
AcDbCircle
 10
337.4473525743217
 20
650.8675769913022
 30
0.0
 40
19.0
100
AcDbArc
 50
0.0
 51
180.0
  0
ARC
  5
5EF0BEA9
330
5EF092C1
100
AcDbEntity
  8
JISSEN
100
AcDbCircle
 10
337.4473525743217
 20
650.8675769913022
 30
0.0
 40
19.0
100
AcDbArc
 50
180.0
 51
0.0
  0
ARC
  5
5EF0BEAB
330
5EF092C1
100
AcDbEntity
  8
JISSEN
100
AcDbCircle
 10
337.4473525743217
 20
650.8675769913022
 30
0.0
 40
117.5
100
AcDbArc
 50
180.0
 51
270.0
  0
ARC
  5
5EF0BEAC
330
5EF092C1
100
AcDbEntity
  8
JISSEN
100
AcDbCircle
 10
337.4473525743217
 20
650.8675769913022
 30
0.0
 40
81.79919353527447
100
AcDbArc
 50
180.0
 51
344.9633754947151
  0
LINE
  5
5EF0BEAE
330
5EF092C1
100
AcDbEntity
  8
JISSEN
100
AcDbLine
 10
211.4473525743215
 20
650.8675769913024
 30
0.0
 11
211.4473525743215
 21
546.8675769913024
 31
0.0
  0
CIRCLE
  5
5EF0BEAF
330
5EF092C1
100
AcDbEntity
  8
SAISEN
100
AcDbCircle
 10
245.059399323193
 20
612.5992337547931
 30
0.0
 40
12.10354752696178
  0
LWPOLYLINE
  5
5EF0BEB0
330
5EF092C1
100
AcDbEntity
  8
JISSEN
100
AcDbPolyline
 90
        6
 70
     1
 43
0.0
 10
254.8573582943258
 20
622.3971927259259
 10
241.4730974345209
 20
625.9834946145981
 10
231.675138463388
 20
616.1855356434655
 10
235.2614403520601
 20
602.8012747836605
 10
248.6457012118651
 20
599.2149728949883
 10
258.4436601829979
 20
609.012931866121
  0
LINE
  5
5EF0BEB1
330
5EF092C1
100
AcDbEntity
  8
ITTEN
 48
3.0
100
AcDbLine
 10
230.7392665692682
 20
606.6676405531343
 30
0.0
 11
259.3795320771178
 21
618.5308269564521
 31
0.0
  0
ARC
  5
5EF0BEB2
330
5EF092C1
100
AcDbEntity
  8
JISSEN
100
AcDbCircle
 10
337.4473525743217
 20
738.3675769913025
 30
0.0
 40
185.0
100
AcDbArc
 50
233.6778622329009
 51
240.1327415566852
  0
LINE
  5
5EF0BEB3
330
5EF092C1
100
AcDbEntity
  8
JISSEN
100
AcDbLine
 10
188.9473525743214
 20
545.8675769913025
 30
0.0
 11
210.4473525743214
 21
545.8675769913023
 31
0.0
  0
LINE
  5
5EF0BEB4
330
5EF092C1
100
AcDbEntity
  8
JISSEN
100
AcDbLine
 10
188.9473525743214
 20
545.8675769913025
 30
0.0
 11
187.4473525743214
 21
547.3675769913024
 31
0.0
  0
ARC
  5
5EF0BEB5
330
5EF092C1
100
AcDbEntity
  8
JISSEN
100
AcDbCircle
 10
210.4473525743214
 20
546.8675769913024
 30
0.0
 40
1.0
100
AcDbArc
 50
270.0
 51
0.0
  0
ARC
  5
5EF0BEB6
330
5EF092C1
100
AcDbEntity
  8
JISSEN
100
AcDbCircle
 10
223.1287189225852
 20
582.8675769913022
 30
0.0
 40
8.0
100
AcDbArc
 50
53.67786223290094
 51
105.8481835759195
  0
LINE
  5
5EF0BEB7
330
5EF092C1
100
AcDbEntity
  8
JISSEN
100
AcDbLine
 10
215.08190587694
 20
588.8993539607337
 30
0.0
 11
220.9440042067744
 21
590.5634863989368
 31
0.0
  0
ARC
  5
5EF0BEB8
330
5EF092C1
100
AcDbEntity
  8
JISSEN
100
AcDbCircle
 10
216.4473525743214
 20
584.0894105809621
 30
0.0
 40
5.0
100
AcDbArc
 50
105.8481835759195
 51
180.0
  0
CIRCLE
  5
5EF0BEB9
330
5EF092C1
100
AcDbEntity
  8
SAISEN
100
AcDbCircle
 10
299.1790093378126
 20
558.4796237401735
 30
0.0
 40
12.10354752696178
  0
LWPOLYLINE
  5
5EF0BEBA
330
5EF092C1
100
AcDbEntity
  8
JISSEN
100
AcDbPolyline
 90
        6
 70
     1
 43
0.0
 10
299.1790093378127
 20
572.3360302007246
 10
287.1790093378127
 20
565.4078269704491
 10
287.1790093378126
 20
551.551420509898
 10
299.1790093378126
 20
544.6232172796225
 10
311.1790093378127
 20
551.551420509898
 10
311.1790093378127
 20
565.407826970449
  0
LINE
  5
5EF0BEBB
330
5EF092C1
100
AcDbEntity
  8
ITTEN
 48
3.0
100
AcDbLine
 10
293.2474161361538
 20
544.1594909862486
 30
0.0
 11
305.1106025394715
 21
572.7997564940985
 31
0.0
  0
LINE
  5
5EF0BEBC
330
5EF092C1
100
AcDbEntity
  8
ITTEN
 48
3.0
100
AcDbLine
 10
230.739266569268
 20
695.0675134294701
 30
0.0
 11
259.3795320771178
 21
683.2043270261523
 31
0.0
  0
LWPOLYLINE
  5
5EF0BEBD
330
5EF092C1
100
AcDbEntity
  8
JISSEN
100
AcDbPolyline
 90
        6
 70
     1
 43
0.0
 10
258.9158057837439
 20
689.1359202278111
 10
251.9876025534685
 20
701.1359202278112
 10
238.1311960929174
 20
701.1359202278113
 10
231.2029928626418
 20
689.1359202278112
 10
238.1311960929173
 20
677.1359202278111
 10
251.9876025534683
 20
677.1359202278111
  0
CIRCLE
  5
5EF0BEBE
330
5EF092C1
100
AcDbEntity
  8
SAISEN
100
AcDbCircle
 10
245.0593993231927
 20
689.1359202278112
 30
0.0
 40
12.10354752696178
  0
ARC
  5
5EF0BEBF
330
5EF092C1
100
AcDbEntity
  8
JISSEN
100
AcDbCircle
 10
223.1287189225852
 20
718.8675769913023
 30
0.0
 40
8.0
100
AcDbArc
 50
254.1518164240804
 51
306.322137767099
  0
ARC
  5
5EF0BEC0
330
5EF092C1
100
AcDbEntity
  8
JISSEN
100
AcDbCircle
 10
337.4473525743217
 20
563.3675769913021
 30
0.0
 40
185.0
100
AcDbArc
 50
119.8672584433148
 51
126.322137767099
  0
LINE
  5
5EF0BEC1
330
5EF092C1
100
AcDbEntity
  8
JISSEN
100
AcDbLine
 10
215.08190587694
 20
712.8358000218709
 30
0.0
 11
220.9440042067744
 21
711.1716675836675
 31
0.0
  0
ARC
  5
5EF0BEC2
330
5EF092C1
100
AcDbEntity
  8
JISSEN
100
AcDbCircle
 10
216.4473525743214
 20
717.6457434016425
 30
0.0
 40
5.0
100
AcDbArc
 50
180.0
 51
254.1518164240804
  0
ARC
  5
5EF0BEC4
330
5EF092C1
100
AcDbEntity
  8
JISSEN
100
AcDbCircle
 10
337.4473525743217
 20
650.8675769913022
 30
0.0
 40
117.5
100
AcDbArc
 50
270.0
 51
350.8988041855788
  0
LINE
  5
5EF0BEC5
330
5EF092C1
100
AcDbEntity
  8
JISSEN
100
AcDbLine
 10
348.4473525743215
 20
532.3675769913022
 30
0.0
 11
348.4473525743217
 21
533.9744182730081
 31
0.0
  0
LINE
  5
5EF0BEC6
330
5EF092C1
100
AcDbEntity
  8
JISSEN
100
AcDbLine
 10
326.4473525743217
 20
532.3675769913022
 30
0.0
 11
326.4473525743217
 21
533.9744182730081
 31
0.0
  0
LINE
  5
5EF0BEC7
330
5EF092C1
100
AcDbEntity
  8
JISSEN
100
AcDbLine
 10
329.4473525743217
 20
529.3675769913022
 30
0.0
 11
345.4473525743217
 21
529.3675769913022
 31
0.0
  0
ARC
  5
5EF0BEC8
330
5EF092C1
100
AcDbEntity
  8
JISSEN
100
AcDbCircle
 10
329.4473525743217
 20
532.3675769913022
 30
0.0
 40
3.0
100
AcDbArc
 50
180.0
 51
270.0
  0
ARC
  5
5EF0BEC9
330
5EF092C1
100
AcDbEntity
  8
JISSEN
100
AcDbCircle
 10
345.4473525743217
 20
532.3675769913022
 30
0.0
 40
3.0
100
AcDbArc
 50
270.0
 51
0.0
  0
ARC
  5
5EF0BECA
330
5EF092C1
100
AcDbEntity
  8
JISSEN
100
AcDbCircle
 10
464.4473525743215
 20
546.8675769913025
 30
0.0
 40
1.0
100
AcDbArc
 50
180.0
 51
270.0
  0
LINE
  5
5EF0BECB
330
5EF092C1
100
AcDbEntity
  8
JISSEN
100
AcDbLine
 10
485.9473525743213
 20
600.8675769913024
 30
0.0
 11
451.7659862260584
 21
600.8675769913024
 31
0.0
  0
ARC
  5
5EF0BECC
330
5EF092C1
100
AcDbEntity
  8
JISSEN
100
AcDbCircle
 10
451.9473525743215
 20
634.8675769913024
 30
0.0
 40
3.0
100
AcDbArc
 50
270.0
 51
0.0
  0
LINE
  5
5EF0BECD
330
5EF092C1
100
AcDbEntity
  8
JISSEN
100
AcDbLine
 10
463.4473525743215
 20
650.8675769913024
 30
0.0
 11
463.4473525743215
 21
546.8675769913025
 31
0.0
  0
CIRCLE
  5
5EF0BECE
330
5EF092C1
100
AcDbEntity
  8
SAISEN
100
AcDbCircle
 10
375.7156958108307
 20
558.4796237401735
 30
0.0
 40
12.10354752696178
  0
LWPOLYLINE
  5
5EF0BECF
330
5EF092C1
100
AcDbEntity
  8
JISSEN
100
AcDbPolyline
 90
        6
 70
     1
 43
0.0
 10
365.917736839698
 20
568.2775827113064
 10
362.3314349510258
 20
554.8933218515014
 10
372.1293939221584
 20
545.0953628803687
 10
385.5136547819633
 20
548.6816647690409
 10
389.0999566706357
 20
562.0659256288458
 10
379.3019976995029
 20
571.8638845999786
  0
LINE
  5
5EF0BED0
330
5EF092C1
100
AcDbEntity
  8
ITTEN
 48
3.0
100
AcDbLine
 10
381.6472890124896
 20
544.1594909862487
 30
0.0
 11
369.7841026091718
 21
572.7997564940985
 31
0.0
  0
ARC
  5
5EF0BED1
330
5EF092C1
100
AcDbEntity
  8
JISSEN
100
AcDbCircle
 10
337.4473525743217
 20
738.3675769913025
 30
0.0
 40
185.0
100
AcDbArc
 50
299.8672584433147
 51
306.322137767099
  0
LINE
  5
5EF0BED2
330
5EF092C1
100
AcDbEntity
  8
JISSEN
100
AcDbLine
 10
419.3430375902791
 20
631.8675769913022
 30
0.0
 11
451.9473525743215
 21
631.8675769913023
 31
0.0
  0
CIRCLE
  5
5EF0BED3
330
5EF092C1
100
AcDbEntity
  8
SAISEN
100
AcDbCircle
 10
429.8353058254503
 20
612.5992337547933
 30
0.0
 40
12.10354752696178
  0
LWPOLYLINE
  5
5EF0BED4
330
5EF092C1
100
AcDbEntity
  8
JISSEN
100
AcDbPolyline
 90
        6
 70
     1
 43
0.0
 10
415.9788993648993
 20
612.5992337547934
 10
422.9071025951748
 20
600.5992337547934
 10
436.7635090557258
 20
600.5992337547933
 10
443.6917122860014
 20
612.5992337547933
 10
436.763509055726
 20
624.5992337547934
 10
422.9071025951748
 20
624.5992337547934
  0
LINE
  5
5EF0BED5
330
5EF092C1
100
AcDbEntity
  8
ITTEN
 48
3.0
100
AcDbLine
 10
444.1554385793753
 20
606.6676405531344
 30
0.0
 11
415.5151730715253
 21
618.5308269564522
 31
0.0
  0
ARC
  5
5EF0BED6
330
5EF092C1
100
AcDbEntity
  8
JISSEN
100
AcDbCircle
 10
419.3430375902791
 20
628.8675769913022
 30
0.0
 40
3.0
100
AcDbArc
 50
90.0
 51
164.9633754947152
  0
ARC
  5
5EF0BED7
330
5EF092C1
100
AcDbEntity
  8
JISSEN
100
AcDbCircle
 10
451.7659862260584
 20
582.8675769913025
 30
0.0
 40
18.0
100
AcDbArc
 50
90.0
 51
126.322137767099
  0
LINE
  5
5EF0BED8
330
5EF092C1
100
AcDbEntity
  8
JISSEN
100
AcDbLine
 10
459.8127992717032
 20
588.8993539607338
 30
0.0
 11
453.9507009418689
 21
590.5634863989368
 31
0.0
  0
ARC
  5
5EF0BED9
330
5EF092C1
100
AcDbEntity
  8
JISSEN
100
AcDbCircle
 10
451.7659862260583
 20
582.8675769913022
 30
0.0
 40
8.0
100
AcDbArc
 50
74.15181642408047
 51
126.322137767099
  0
ARC
  5
5EF0BEDA
330
5EF092C1
100
AcDbEntity
  8
JISSEN
100
AcDbCircle
 10
458.4473525743216
 20
584.0894105809621
 30
0.0
 40
5.0
100
AcDbArc
 50
0.0
 51
74.15181642408047
  0
ARC
  5
5EF0BEDB
330
5EF092C1
100
AcDbEntity
  8
JISSEN
100
AcDbCircle
 10
337.4473525743217
 20
650.8675769913022
 30
0.0
 40
8.0
100
AcDbArc
 50
24.63586519368437
 51
65.36413480631509
  0
ARC
  5
5EF0BEDC
330
5EF092C1
100
AcDbEntity
  8
JISSEN
100
AcDbCircle
 10
337.4473525743217
 20
650.8675769913022
 30
0.0
 40
8.0
100
AcDbArc
 50
204.6358651936817
 51
245.3641348063169
  0
CIRCLE
  5
5EF0BEDD
330
5EF092C1
100
AcDbEntity
  8
SAISEN
100
AcDbCircle
 10
429.8353058254503
 20
689.1359202278112
 30
0.0
 40
12.10354752696178
  0
LWPOLYLINE
  5
5EF0BEDE
330
5EF092C1
100
AcDbEntity
  8
JISSEN
100
AcDbPolyline
 90
        6
 70
     1
 43
0.0
 10
420.0373468543175
 20
679.3379612566787
 10
433.4216077141225
 20
675.7516593680064
 10
443.2195666852552
 20
685.5496183391391
 10
439.633264796583
 20
698.933879198944
 10
426.249003936778
 20
702.5201810876163
 10
416.4510449656453
 20
692.7222221164836
  0
LINE
  5
5EF0BEDF
330
5EF092C1
100
AcDbEntity
  8
JISSEN
100
AcDbLine
 10
419.3430375902791
 20
669.8675769913022
 30
0.0
 11
451.9473525743215
 21
669.8675769913021
 31
0.0
  0
ARC
  5
5EF0BEE0
330
5EF092C1
100
AcDbEntity
  8
JISSEN
100
AcDbCircle
 10
419.3430375902791
 20
672.8675769913023
 30
0.0
 40
3.0
100
AcDbArc
 50
195.0366245052848
 51
270.0
  0
LINE
  5
5EF0BEE1
330
5EF092C1
100
AcDbEntity
  8
JISSEN
100
AcDbLine
 10
454.9473525743215
 20
666.8675769913021
 30
0.0
 11
454.9473525743216
 21
650.8675769913022
 31
0.0
  0
LINE
  5
5EF0BEE2
330
5EF092C1
100
AcDbEntity
  8
JISSEN
100
AcDbLine
 10
454.9473525743215
 20
634.8675769913024
 30
0.0
 11
454.9473525743216
 21
650.8675769913022
 31
0.0
  0
ARC
  5
5EF0BEE3
330
5EF092C1
100
AcDbEntity
  8
JISSEN
100
AcDbCircle
 10
451.9473525743215
 20
666.8675769913021
 30
0.0
 40
3.0
100
AcDbArc
 50
0.0
 51
90.0
  0
LINE
  5
5EF0BEE4
330
5EF092C1
100
AcDbEntity
  8
ITTEN
 48
3.0
100
AcDbLine
 10
444.1554385793751
 20
695.0675134294701
 30
0.0
 11
415.5151730715253
 21
683.2043270261524
 31
0.0
  0
ARC
  5
5EF0BEE5
330
5EF092C1
100
AcDbEntity
  8
JISSEN
100
AcDbCircle
 10
337.4473525743217
 20
563.3675769913021
 30
0.0
 40
185.0
100
AcDbArc
 50
53.67786223290094
 51
60.13274155668518
  0
LINE
  5
5EF0BEE6
330
5EF092C1
100
AcDbEntity
  8
JISSEN
100
AcDbLine
 10
459.8127992717032
 20
712.8358000218708
 30
0.0
 11
453.9507009418689
 21
711.1716675836675
 31
0.0
  0
ARC
  5
5EF0BEE7
330
5EF092C1
100
AcDbEntity
  8
JISSEN
100
AcDbCircle
 10
451.7659862260583
 20
718.8675769913023
 30
0.0
 40
8.0
100
AcDbArc
 50
233.6778622329009
 51
285.8481835759194
  0
ARC
  5
5EF0BEE8
330
5EF092C1
100
AcDbEntity
  8
JISSEN
100
AcDbCircle
 10
458.4473525743216
 20
717.6457434016424
 30
0.0
 40
5.0
100
AcDbArc
 50
285.8481835759194
 51
0.0
  0
LINE
  5
5EF0BEE9
330
5EF092C1
100
AcDbEntity
  8
JISSEN
100
AcDbLine
 10
485.9473525743216
 20
545.8675769913025
 30
0.0
 11
464.4473525743215
 21
545.8675769913025
 31
0.0
  0
LINE
  5
5EF0BEEA
330
5EF092C1
100
AcDbEntity
  8
JISSEN
100
AcDbLine
 10
487.4473525743216
 20
547.3675769913024
 30
0.0
 11
485.9473525743216
 21
545.8675769913025
 31
0.0
  0
LINE
  5
5EF0BEEB
330
5EF092C1
100
AcDbEntity
  8
JISSEN
100
AcDbLine
 10
485.9473525743216
 20
600.8675769913022
 30
0.0
 11
487.4473525743216
 21
599.3675769913022
 31
0.0
  0
LINE
  5
5EF0BEEC
330
5EF092C1
100
AcDbEntity
  8
JISSEN
100
AcDbLine
 10
188.9473525743214
 20
755.8675769913024
 30
0.0
 11
210.4473525743214
 21
755.8675769913024
 31
0.0
  0
LINE
  5
5EF0BEED
330
5EF092C1
100
AcDbEntity
  8
JISSEN
100
AcDbLine
 10
187.4473525743214
 20
754.3675769913025
 30
0.0
 11
188.9473525743214
 21
755.8675769913024
 31
0.0
  0
ARC
  5
5EF0BEEE
330
5EF092C1
100
AcDbEntity
  8
JISSEN
100
AcDbCircle
 10
210.4473525743214
 20
754.8675769913025
 30
0.0
 40
1.0
100
AcDbArc
 50
0.0
 51
90.0
  0
ARC
  5
5EF0BEEF
330
5EF092C1
100
AcDbEntity
  8
JISSEN
100
AcDbCircle
 10
464.4473525743215
 20
754.8675769913025
 30
0.0
 40
1.0
100
AcDbArc
 50
90.0
 51
180.0
  0
LINE
  5
5EF0BEF0
330
5EF092C1
100
AcDbEntity
  8
JISSEN
100
AcDbLine
 10
485.9473525743216
 20
755.8675769913024
 30
0.0
 11
464.4473525743215
 21
755.8675769913024
 31
0.0
  0
LINE
  5
5EF0BEF1
330
5EF092C1
100
AcDbEntity
  8
JISSEN
100
AcDbLine
 10
485.9473525743216
 20
755.8675769913024
 30
0.0
 11
487.4473525743216
 21
754.3675769913025
 31
0.0
  0
CIRCLE
  5
5EF0BEF2
330
5EF092C1
100
AcDbEntity
  8
ITTEN
 48
3.0
100
AcDbCircle
 10
337.4473525743217
 20
650.8675769913022
 30
0.0
 40
100.0
  0
LINE
  5
5EF0BEF5
330
5EF092C1
100
AcDbEntity
  8
ITTEN
 48
3.0
100
AcDbLine
 10
492.4473525743215
 20
650.8675769913025
 30
0.0
 11
182.4473525743215
 21
650.8675769913024
 31
0.0
  0
LINE
  5
5EF0BF54
330
5EF092C1
100
AcDbEntity
  8
ITTEN
 48
3.0
100
AcDbLine
 10
337.4473525743217
 20
524.3675769913022
 30
0.0
 11
337.4473525743217
 21
773.3675769913022
 31
0.0
  0
LINE
  5
5EF0BF55
330
5EF092C1
100
AcDbEntity
  8
ITTEN
 48
3.0
100
AcDbLine
 10
492.4473525743215
 20
563.3675769913025
 30
0.0
 11
458.4473525743216
 21
563.3675769913026
 31
0.0
  0
LINE
  5
5EF0BF56
330
5EF092C1
100
AcDbEntity
  8
ITTEN
 48
3.0
100
AcDbLine
 10
492.4473525743215
 20
738.3675769913025
 30
0.0
 11
458.4473525743216
 21
738.3675769913025
 31
0.0
  0
LINE
  5
5EF0BF57
330
5EF092C1
100
AcDbEntity
  8
ITTEN
 48
3.0
100
AcDbLine
 10
182.4473525743219
 20
738.3675769913025
 30
0.0
 11
216.4473525743219
 21
738.3675769913025
 31
0.0
  0
LINE
  5
5EF0BF58
330
5EF092C1
100
AcDbEntity
  8
ITTEN
 48
3.0
100
AcDbLine
 10
182.4473525743219
 20
563.3675769913025
 30
0.0
 11
216.4473525743219
 21
563.3675769913026
 31
0.0
  0
TEXT
  5
5EF0BF63
330
5EF092C1
100
AcDbEntity
  8
SUNPOU
100
AcDbText
 10
1011.633140172992
 20
23.75873663639544
 30
0.0
 40
9.0
  1
一斉開放弁 DV  100 外観図
  7
K
100
AcDbText
  0
LINE
  5
5EF0BF64
330
5EF092C1
100
AcDbEntity
  8
SUNPOU
100
AcDbLine
 10
1090.812278918404
 20
32.75810811426305
 30
0.0
 11
1096.812278918404
 21
32.75810811426305
 31
0.0
  0
LINE
  5
5EF0BF65
330
5EF092C1
100
AcDbEntity
  8
SUNPOU
100
AcDbLine
 10
1090.812278918404
 20
23.75810811426305
 30
0.0
 11
1096.812278918404
 21
23.75810811426305
 31
0.0
  0
LINE
  5
5EF0BF66
330
5EF092C1
100
AcDbEntity
  8
SUNPOU
100
AcDbLine
 10
1092.312278918404
 20
32.75810811426305
 30
0.0
 11
1092.312278918404
 21
23.75810811426305
 31
0.0
  0
LINE
  5
5EF0BF67
330
5EF092C1
100
AcDbEntity
  8
SUNPOU
100
AcDbLine
 10
1095.312278918404
 20
32.75810811426305
 30
0.0
 11
1095.312278918404
 21
23.75810811426305
 31
0.0
  0
TEXT
  5
5EF0BF68
330
5EF092C1
100
AcDbEntity
  8
SUNPOU
100
AcDbText
 10
1011.633140172992
 20
8.75873663639544
 30
0.0
 40
9.0
  1
A3 用紙、印刷尺度：1/3
  7
K
100
AcDbText
  0
LINE
  5
5EF0C02C
330
5EF092C1
100
AcDbEntity
  8
JISSEN
100
AcDbLine
 10
310.6790093378109
 20
407.7363033869289
 30
0.0
 11
287.6790093378143
 21
407.7363033869289
 31
0.0
  0
ARC
  5
5EF0C02D
330
5EF092C1
100
AcDbEntity
  8
JISSEN
100
AcDbCircle
 10
299.1790093378109
 20
389.4151298132212
 30
0.0
 40
18.32117357370777
100
AcDbArc
 50
67.78068982943908
 51
112.2193101705609
  0
LINE
  5
5EF0C02E
330
5EF092C1
100
AcDbEntity
  8
JISSEN
100
AcDbLine
 10
292.2508061075353
 20
394.7363033869289
 30
0.0
 11
292.2508061075353
 21
406.3758314826077
 31
0.0
  0
LINE
  5
5EF0C02F
330
5EF092C1
100
AcDbEntity
  8
JISSEN
100
AcDbLine
 10
285.32260287726
 20
394.7363033869289
 30
0.0
 11
285.32260287726
 21
406.3758314826077
 31
0.0
  0
ARC
  5
5EF0C030
330
5EF092C1
100
AcDbEntity
  8
JISSEN
100
AcDbCircle
 10
288.7867044923977
 20
402.6458330293815
 30
0.0
 40
5.090470357547469
100
AcDbArc
 50
47.11671159485297
 51
107.1167115948822
  0
LINE
  5
5EF0C031
330
5EF092C1
100
AcDbEntity
  8
JISSEN
100
AcDbLine
 10
287.6790093378143
 20
407.7363033869289
 30
0.0
 11
285.32260287726
 21
406.3758314826077
 31
0.0
  0
LINE
  5
5EF0C032
330
5EF092C1
100
AcDbEntity
  8
JISSEN
100
AcDbLine
 10
306.1072125680865
 20
406.3758314826075
 30
0.0
 11
306.1072125680865
 21
394.7363033869289
 31
0.0
  0
LINE
  5
5EF0C033
330
5EF092C1
100
AcDbEntity
  8
JISSEN
100
AcDbLine
 10
313.0354157983619
 20
406.3758314826077
 30
0.0
 11
313.0354157983619
 21
394.7363033869289
 31
0.0
  0
LINE
  5
5EF0C034
330
5EF092C1
100
AcDbEntity
  8
JISSEN
100
AcDbLine
 10
310.6790093378075
 20
407.7363033869289
 30
0.0
 11
313.0354157983619
 21
406.3758314826077
 31
0.0
  0
ARC
  5
5EF0C035
330
5EF092C1
100
AcDbEntity
  8
JISSEN
100
AcDbCircle
 10
309.5713141832242
 20
402.6458330293815
 30
0.0
 40
5.090470357547469
100
AcDbArc
 50
72.88328840511777
 51
132.883288405147
  0
ARC
  5
5EF0C036
330
5EF092C1
100
AcDbEntity
  8
JISSEN
100
AcDbCircle
 10
365.3233909654192
 20
402.6458330293815
 30
0.0
 40
5.090470357547469
100
AcDbArc
 50
47.11671159485298
 51
107.1167115948822
  0
LINE
  5
5EF0C037
330
5EF092C1
100
AcDbEntity
  8
JISSEN
100
AcDbLine
 10
364.2156958108358
 20
407.7363033869289
 30
0.0
 11
361.8592893502815
 21
406.3758314826077
 31
0.0
  0
LINE
  5
5EF0C038
330
5EF092C1
100
AcDbEntity
  8
JISSEN
100
AcDbLine
 10
361.8592893502815
 20
406.3758314826077
 30
0.0
 11
361.8592893502815
 21
394.7363033869289
 31
0.0
  0
LINE
  5
5EF0C039
330
5EF092C1
100
AcDbEntity
  8
JISSEN
100
AcDbLine
 10
368.7874925805568
 20
406.3758314826075
 30
0.0
 11
368.7874925805568
 21
394.7363033869289
 31
0.0
  0
LINE
  5
5EF0C03A
330
5EF092C1
100
AcDbEntity
  8
JISSEN
100
AcDbLine
 10
387.215695810829
 20
407.7363033869289
 30
0.0
 11
389.5721022713834
 21
406.3758314826077
 31
0.0
  0
ARC
  5
5EF0C03B
330
5EF092C1
100
AcDbEntity
  8
JISSEN
100
AcDbCircle
 10
386.1080006562457
 20
402.6458330293815
 30
0.0
 40
5.090470357547469
100
AcDbArc
 50
72.88328840511777
 51
132.883288405147
  0
LINE
  5
5EF0C03C
330
5EF092C1
100
AcDbEntity
  8
JISSEN
100
AcDbLine
 10
389.5721022713834
 20
394.7363033869289
 30
0.0
 11
389.5721022713834
 21
406.3758314826077
 31
0.0
  0
LINE
  5
5EF0C03D
330
5EF092C1
100
AcDbEntity
  8
JISSEN
100
AcDbLine
 10
382.643899041108
 20
394.7363033869289
 30
0.0
 11
382.643899041108
 21
406.3758314826077
 31
0.0
  0
ARC
  5
5EF0C03E
330
5EF092C1
100
AcDbEntity
  8
JISSEN
100
AcDbCircle
 10
375.7156958108324
 20
389.4151298132212
 30
0.0
 40
18.32117357370777
100
AcDbArc
 50
67.7806898294391
 51
112.2193101705609
  0
LINE
  5
5EF0C03F
330
5EF092C1
100
AcDbEntity
  8
JISSEN
100
AcDbLine
 10
364.2156958108324
 20
407.7363033869289
 30
0.0
 11
387.215695810829
 21
407.7363033869289
 31
0.0
  0
LINE
  5
5EF0C040
330
5EF092C1
100
AcDbEntity
  8
JISSEN
100
AcDbLine
 10
425.9473525743216
 20
407.7363033869289
 30
0.0
 11
448.9473525743183
 21
407.7363033869289
 31
0.0
  0
ARC
  5
5EF0C041
330
5EF092C1
100
AcDbEntity
  8
JISSEN
100
AcDbCircle
 10
437.4473525743217
 20
389.4151298132212
 30
0.0
 40
18.32117357370777
100
AcDbArc
 50
67.7806898294391
 51
112.2193101705609
  0
LINE
  5
5EF0C042
330
5EF092C1
100
AcDbEntity
  8
JISSEN
100
AcDbLine
 10
444.3755558045973
 20
394.7363033869289
 30
0.0
 11
444.3755558045973
 21
406.3758314826077
 31
0.0
  0
LINE
  5
5EF0C043
330
5EF092C1
100
AcDbEntity
  8
JISSEN
100
AcDbLine
 10
451.3037590348726
 20
394.7363033869289
 30
0.0
 11
451.3037590348726
 21
406.3758314826077
 31
0.0
  0
ARC
  5
5EF0C044
330
5EF092C1
100
AcDbEntity
  8
JISSEN
100
AcDbCircle
 10
447.839657419735
 20
402.6458330293815
 30
0.0
 40
5.090470357547469
100
AcDbArc
 50
72.88328840511777
 51
132.883288405147
  0
LINE
  5
5EF0C045
330
5EF092C1
100
AcDbEntity
  8
JISSEN
100
AcDbLine
 10
448.9473525743183
 20
407.7363033869289
 30
0.0
 11
451.3037590348726
 21
406.3758314826077
 31
0.0
  0
LINE
  5
5EF0C046
330
5EF092C1
100
AcDbEntity
  8
JISSEN
100
AcDbLine
 10
430.5191493440461
 20
406.3758314826075
 30
0.0
 11
430.5191493440461
 21
394.7363033869289
 31
0.0
  0
LINE
  5
5EF0C047
330
5EF092C1
100
AcDbEntity
  8
JISSEN
100
AcDbLine
 10
423.5909461137707
 20
406.3758314826077
 30
0.0
 11
423.5909461137707
 21
394.7363033869289
 31
0.0
  0
LINE
  5
5EF0C048
330
5EF092C1
100
AcDbEntity
  8
JISSEN
100
AcDbLine
 10
425.9473525743251
 20
407.7363033869289
 30
0.0
 11
423.5909461137707
 21
406.3758314826077
 31
0.0
  0
ARC
  5
5EF0C049
330
5EF092C1
100
AcDbEntity
  8
JISSEN
100
AcDbCircle
 10
427.0550477289084
 20
402.6458330293815
 30
0.0
 40
5.090470357547469
100
AcDbArc
 50
47.11671159485298
 51
107.1167115948822
  0
ARC
  5
5EF0C04A
330
5EF092C1
100
AcDbEntity
  8
JISSEN
100
AcDbCircle
 10
926.0604886365793
 20
402.6458330293812
 30
0.0
 40
5.090470357547469
100
AcDbArc
 50
47.11671159485298
 51
107.1167115948822
  0
LINE
  5
5EF0C04B
330
5EF092C1
100
AcDbEntity
  8
JISSEN
100
AcDbLine
 10
924.952793481996
 20
407.7363033869287
 30
0.0
 11
922.5963870214416
 21
406.3758314826075
 31
0.0
  0
LINE
  5
5EF0C04C
330
5EF092C1
100
AcDbEntity
  8
JISSEN
100
AcDbLine
 10
922.5963870214416
 20
406.3758314826075
 30
0.0
 11
922.5963870214416
 21
394.7363033869287
 31
0.0
  0
LINE
  5
5EF0C04D
330
5EF092C1
100
AcDbEntity
  8
JISSEN
100
AcDbLine
 10
929.5245902517169
 20
406.3758314826072
 30
0.0
 11
929.5245902517169
 21
394.7363033869287
 31
0.0
  0
LINE
  5
5EF0C04E
330
5EF092C1
100
AcDbEntity
  8
JISSEN
100
AcDbLine
 10
947.9527934819891
 20
407.7363033869287
 30
0.0
 11
950.3091999425434
 21
406.3758314826075
 31
0.0
  0
ARC
  5
5EF0C04F
330
5EF092C1
100
AcDbEntity
  8
JISSEN
100
AcDbCircle
 10
946.8450983274058
 20
402.6458330293812
 30
0.0
 40
5.090470357547469
100
AcDbArc
 50
72.88328840511777
 51
132.883288405147
  0
LINE
  5
5EF0C050
330
5EF092C1
100
AcDbEntity
  8
JISSEN
100
AcDbLine
 10
950.3091999425434
 20
394.7363033869287
 30
0.0
 11
950.3091999425434
 21
406.3758314826075
 31
0.0
  0
LINE
  5
5EF0C051
330
5EF092C1
100
AcDbEntity
  8
JISSEN
100
AcDbLine
 10
943.3809967122682
 20
394.7363033869287
 30
0.0
 11
943.3809967122682
 21
406.3758314826075
 31
0.0
  0
ARC
  5
5EF0C052
330
5EF092C1
100
AcDbEntity
  8
JISSEN
100
AcDbCircle
 10
936.4527934819925
 20
389.415129813221
 30
0.0
 40
18.32117357370777
100
AcDbArc
 50
67.7806898294391
 51
112.2193101705609
  0
LINE
  5
5EF0C053
330
5EF092C1
100
AcDbEntity
  8
JISSEN
100
AcDbLine
 10
924.9527934819925
 20
407.7363033869287
 30
0.0
 11
947.9527934819891
 21
407.7363033869287
 31
0.0
  0
LINE
  5
5EF0C054
330
5EF092C1
100
AcDbEntity
  8
JISSEN
100
AcDbLine
 10
863.2211367185034
 20
407.7363033869287
 30
0.0
 11
886.2211367184999
 21
407.7363033869287
 31
0.0
  0
ARC
  5
5EF0C055
330
5EF092C1
100
AcDbEntity
  8
JISSEN
100
AcDbCircle
 10
874.7211367185032
 20
389.415129813221
 30
0.0
 40
18.32117357370777
100
AcDbArc
 50
67.7806898294391
 51
112.2193101705609
  0
LINE
  5
5EF0C056
330
5EF092C1
100
AcDbEntity
  8
JISSEN
100
AcDbLine
 10
881.6493399487789
 20
394.7363033869287
 30
0.0
 11
881.6493399487789
 21
406.3758314826075
 31
0.0
  0
LINE
  5
5EF0C057
330
5EF092C1
100
AcDbEntity
  8
JISSEN
100
AcDbLine
 10
888.5775431790543
 20
394.7363033869287
 30
0.0
 11
888.5775431790543
 21
406.3758314826075
 31
0.0
  0
ARC
  5
5EF0C058
330
5EF092C1
100
AcDbEntity
  8
JISSEN
100
AcDbCircle
 10
885.1134415639165
 20
402.6458330293812
 30
0.0
 40
5.090470357547469
100
AcDbArc
 50
72.88328840511777
 51
132.883288405147
  0
LINE
  5
5EF0C059
330
5EF092C1
100
AcDbEntity
  8
JISSEN
100
AcDbLine
 10
886.2211367184999
 20
407.7363033869287
 30
0.0
 11
888.5775431790543
 21
406.3758314826075
 31
0.0
  0
LINE
  5
5EF0C05A
330
5EF092C1
100
AcDbEntity
  8
JISSEN
100
AcDbLine
 10
867.7929334882277
 20
406.3758314826072
 30
0.0
 11
867.7929334882277
 21
394.7363033869287
 31
0.0
  0
LINE
  5
5EF0C05B
330
5EF092C1
100
AcDbEntity
  8
JISSEN
100
AcDbLine
 10
860.8647302579523
 20
406.3758314826075
 30
0.0
 11
860.8647302579523
 21
394.7363033869287
 31
0.0
  0
LINE
  5
5EF0C05C
330
5EF092C1
100
AcDbEntity
  8
JISSEN
100
AcDbLine
 10
863.2211367185067
 20
407.7363033869287
 30
0.0
 11
860.8647302579523
 21
406.3758314826075
 31
0.0
  0
ARC
  5
5EF0C05D
330
5EF092C1
100
AcDbEntity
  8
JISSEN
100
AcDbCircle
 10
864.3288318730901
 20
402.6458330293812
 30
0.0
 40
5.090470357547469
100
AcDbArc
 50
47.11671159485298
 51
107.1167115948822
  0
ARC
  5
5EF0C05E
330
5EF092C1
100
AcDbEntity
  8
JISSEN
100
AcDbCircle
 10
808.5767550908951
 20
402.6458330293812
 30
0.0
 40
5.090470357547469
100
AcDbArc
 50
72.88328840511777
 51
132.883288405147
  0
LINE
  5
5EF0C05F
330
5EF092C1
100
AcDbEntity
  8
JISSEN
100
AcDbLine
 10
809.6844502454784
 20
407.7363033869287
 30
0.0
 11
812.0408567060326
 21
406.3758314826075
 31
0.0
  0
LINE
  5
5EF0C060
330
5EF092C1
100
AcDbEntity
  8
JISSEN
100
AcDbLine
 10
812.0408567060326
 20
406.3758314826075
 30
0.0
 11
812.0408567060326
 21
394.7363033869287
 31
0.0
  0
LINE
  5
5EF0C061
330
5EF092C1
100
AcDbEntity
  8
JISSEN
100
AcDbLine
 10
805.1126534757573
 20
406.3758314826072
 30
0.0
 11
805.1126534757573
 21
394.7363033869287
 31
0.0
  0
LINE
  5
5EF0C062
330
5EF092C1
100
AcDbEntity
  8
JISSEN
100
AcDbLine
 10
786.6844502454852
 20
407.7363033869287
 30
0.0
 11
784.3280437849308
 21
406.3758314826075
 31
0.0
  0
ARC
  5
5EF0C063
330
5EF092C1
100
AcDbEntity
  8
JISSEN
100
AcDbCircle
 10
787.7921454000685
 20
402.6458330293812
 30
0.0
 40
5.090470357547469
100
AcDbArc
 50
47.11671159485297
 51
107.1167115948822
  0
LINE
  5
5EF0C064
330
5EF092C1
100
AcDbEntity
  8
JISSEN
100
AcDbLine
 10
784.3280437849308
 20
394.7363033869287
 30
0.0
 11
784.3280437849308
 21
406.3758314826075
 31
0.0
  0
LINE
  5
5EF0C065
330
5EF092C1
100
AcDbEntity
  8
JISSEN
100
AcDbLine
 10
791.2562470152062
 20
394.7363033869287
 30
0.0
 11
791.2562470152062
 21
406.3758314826075
 31
0.0
  0
ARC
  5
5EF0C066
330
5EF092C1
100
AcDbEntity
  8
JISSEN
100
AcDbCircle
 10
798.1844502454817
 20
389.415129813221
 30
0.0
 40
18.32117357370777
100
AcDbArc
 50
67.78068982943908
 51
112.2193101705609
  0
LINE
  5
5EF0C067
330
5EF092C1
100
AcDbEntity
  8
JISSEN
100
AcDbLine
 10
809.6844502454818
 20
407.7363033869287
 30
0.0
 11
786.6844502454852
 21
407.7363033869287
 31
0.0
  0
LINE
  5
5EF0C068
330
5EF092C1
100
AcDbEntity
  8
JISSEN
100
AcDbLine
 10
747.9527934819925
 20
407.7363033869287
 30
0.0
 11
724.9527934819959
 21
407.7363033869287
 31
0.0
  0
ARC
  5
5EF0C069
330
5EF092C1
100
AcDbEntity
  8
JISSEN
100
AcDbCircle
 10
736.4527934819925
 20
389.415129813221
 30
0.0
 40
18.32117357370777
100
AcDbArc
 50
67.78068982943908
 51
112.2193101705609
  0
LINE
  5
5EF0C06A
330
5EF092C1
100
AcDbEntity
  8
JISSEN
100
AcDbLine
 10
729.5245902517169
 20
394.7363033869287
 30
0.0
 11
729.5245902517169
 21
406.3758314826075
 31
0.0
  0
LINE
  5
5EF0C06B
330
5EF092C1
100
AcDbEntity
  8
JISSEN
100
AcDbLine
 10
722.5963870214416
 20
394.7363033869287
 30
0.0
 11
722.5963870214416
 21
406.3758314826075
 31
0.0
  0
ARC
  5
5EF0C06C
330
5EF092C1
100
AcDbEntity
  8
JISSEN
100
AcDbCircle
 10
726.0604886365793
 20
402.6458330293812
 30
0.0
 40
5.090470357547469
100
AcDbArc
 50
47.11671159485297
 51
107.1167115948822
  0
LINE
  5
5EF0C06D
330
5EF092C1
100
AcDbEntity
  8
JISSEN
100
AcDbLine
 10
724.9527934819959
 20
407.7363033869287
 30
0.0
 11
722.5963870214416
 21
406.3758314826075
 31
0.0
  0
LINE
  5
5EF0C06E
330
5EF092C1
100
AcDbEntity
  8
JISSEN
100
AcDbLine
 10
743.3809967122681
 20
406.3758314826072
 30
0.0
 11
743.3809967122681
 21
394.7363033869287
 31
0.0
  0
LINE
  5
5EF0C06F
330
5EF092C1
100
AcDbEntity
  8
JISSEN
100
AcDbLine
 10
750.3091999425435
 20
406.3758314826075
 30
0.0
 11
750.3091999425435
 21
394.7363033869287
 31
0.0
  0
LINE
  5
5EF0C070
330
5EF092C1
100
AcDbEntity
  8
JISSEN
100
AcDbLine
 10
747.9527934819891
 20
407.7363033869287
 30
0.0
 11
750.3091999425435
 21
406.3758314826075
 31
0.0
  0
ARC
  5
5EF0C071
330
5EF092C1
100
AcDbEntity
  8
JISSEN
100
AcDbCircle
 10
746.8450983274058
 20
402.6458330293812
 30
0.0
 40
5.090470357547469
100
AcDbArc
 50
72.88328840511777
 51
132.883288405147
  0
ARC
  5
5EF0C08C
330
5EF092C1
100
AcDbEntity
  8
SCALE
100
AcDbCircle
 10
337.4473525743217
 20
650.8675769913024
 30
0.0
 40
10.0
100
AcDbArc
 50
176.4096221092695
 51
183.5903778907291
  0
ARC
  5
5EF0C091
330
5EF092C1
100
AcDbEntity
  8
SCALE
100
AcDbCircle
 10
337.4473525743217
 20
650.8675769913024
 30
0.0
 40
10.0
100
AcDbArc
 50
86.40962210927055
 51
93.59037789073139
  0
ARC
  5
5EF0C092
330
5EF092C1
100
AcDbEntity
  8
SCALE
100
AcDbCircle
 10
337.4473525743217
 20
650.8675769913024
 30
0.0
 40
10.0
100
AcDbArc
 50
356.4096221092721
 51
3.590377890729139
  0
ARC
  5
5EF0C093
330
5EF092C1
100
AcDbEntity
  8
SCALE
100
AcDbCircle
 10
337.4473525743217
 20
650.8675769913024
 30
0.0
 40
10.0
100
AcDbArc
 50
266.4096221092702
 51
273.5903778907285
  0
LINE
  5
5EF0C094
330
5EF092C1
100
AcDbEntity
  8
SCALE
100
AcDbLine
 10
338.0735816997534
 20
660.8479495836689
 30
0.0
 11
347.4277251666882
 21
651.493806116734
 31
0.0
  0
LINE
  5
5EF0C095
330
5EF092C1
100
AcDbEntity
  8
SCALE
100
AcDbLine
 10
347.4277251666882
 20
650.2413478658709
 30
0.0
 11
338.0735816997532
 21
640.8872043989358
 31
0.0
  0
LINE
  5
5EF0C096
330
5EF092C1
100
AcDbEntity
  8
SCALE
100
AcDbLine
 10
336.8211234488899
 20
640.8872043989358
 30
0.0
 11
327.4669799819552
 21
650.2413478658707
 31
0.0
  0
LINE
  5
5EF0C097
330
5EF092C1
100
AcDbEntity
  8
SCALE
100
AcDbLine
 10
327.4669799819552
 20
651.4938061167343
 30
0.0
 11
336.8211234488896
 21
660.8479495836689
 31
0.0
  0
ARC
  5
5EF0C098
330
5EF092C1
100
AcDbEntity
  8
JISSEN
100
AcDbCircle
 10
337.4473525743217
 20
650.8675769913022
 30
0.0
 40
8.0
100
AcDbArc
 50
294.6358651936784
 51
335.364134806322
  0
ARC
  5
5EF0C099
330
5EF092C1
100
AcDbEntity
  8
JISSEN
100
AcDbCircle
 10
337.4473525743217
 20
650.8675769913022
 30
0.0
 40
8.0
100
AcDbArc
 50
114.6358651936871
 51
155.3641348063138
  0
ENDSEC
  0
SECTION
  2
OBJECTS
  0
DICTIONARY
  5
5EF092B5
330
0
100
AcDbDictionary
  3
ACAD_GROUP
350
5EF092B6
  3
ACAD_LAYOUT
350
5EF0A02F
  3
ACAD_MLINESTYLE
350
5EF092B7
  3
ACAD_PLOTSETTINGS
350
5EF0A030
  3
ACAD_PLOTSTYLENAME
350
5EF0A02D
  3
ACDBHEADERROUNDTRIPXREC
350
5EF0C09C
  3
ACDBVARIABLEDICTIONARY
350
5EF095CB
  0
DICTIONARY
  5
5EF0A64E
330
5EF092C1
100
AcDbDictionary
280
     1
  3
ACAD_LAYOUTSELFREF
360
5EF0C0BE
  0
DICTIONARY
  5
5EF0A64C
330
5EF092BE
100
AcDbDictionary
280
     1
  3
ACAD_LAYOUTSELFREF
360
5EF0C0BD
  0
DICTIONARY
  5
5EF092B6
102
{ACAD_REACTORS
330
5EF092B5
102
}
330
5EF092B5
100
AcDbDictionary
  0
DICTIONARY
  5
5EF0A02F
102
{ACAD_REACTORS
330
5EF092B5
102
}
330
5EF092B5
100
AcDbDictionary
  0
DICTIONARY
  5
5EF092B7
102
{ACAD_REACTORS
330
5EF092B5
102
}
330
5EF092B5
100
AcDbDictionary
  3
STANDARD
350
5EF092C4
  0
DICTIONARY
  5
5EF0A030
102
{ACAD_REACTORS
330
5EF092B5
102
}
330
5EF092B5
100
AcDbDictionary
  0
ACDBDICTIONARYWDFLT
  5
5EF0A02D
102
{ACAD_REACTORS
330
5EF092B5
102
}
330
5EF092B5
100
AcDbDictionary
281
     1
  3
Normal
350
5EF0A02E
100
AcDbDictionaryWithDefault
340
5EF0A02E
  0
DICTIONARY
  5
5EF0C09C
102
{ACAD_REACTORS
330
5EF092B5
102
}
330
5EF092B5
100
AcDbDictionary
  3
CEPSNTYPE
350
5EF0C0A6
  3
DIMSTYLEDATA
350
5EF0C0AA
  3
FINGERPRINTGUID
350
5EF0C0A7
  3
HYPERLINKBASE
350
5EF0C09F
  3
INSUNITS
350
5EF0C0A5
  3
LAYOUTDICT
350
5EF0C0A1
  3
LWETCUNION
350
5EF0C0A4
  3
PLOTSETDICT
350
5EF0C0A2
  3
PLOTSTYLNAMDICT
350
5EF0C0A3
  3
PSVPSCALE
350
5EF0C0A9
  3
PUCSBASE
350
5EF0C0AD
  3
PUCSORGBACK
350
5EF0C0B3
  3
PUCSORGBOTTOM
350
5EF0C0AF
  3
PUCSORGFRONT
350
5EF0C0B2
  3
PUCSORGLEFT
350
5EF0C0B0
  3
PUCSORGRIGHT
350
5EF0C0B1
  3
PUCSORGTOP
350
5EF0C0AE
  3
PUCSORTHOREF
350
5EF0C0AB
  3
PUCSORTHOVIEW
350
5EF0C0AC
  3
STYLESHEET
350
5EF0C0A0
  3
TSTACKALIGN
350
5EF0C09D
  3
TSTACKSIZE
350
5EF0C09E
  3
UCSBASE
350
5EF0C0B6
  3
UCSORGBACK
350
5EF0C0BC
  3
UCSORGBOTTOM
350
5EF0C0B8
  3
UCSORGFRONT
350
5EF0C0BB
  3
UCSORGLEFT
350
5EF0C0B9
  3
UCSORGRIGHT
350
5EF0C0BA
  3
UCSORGTOP
350
5EF0C0B7
  3
UCSORTHOREF
350
5EF0C0B4
  3
UCSORTHOVIEW
350
5EF0C0B5
  3
VERSIONGUID
350
5EF0C0A8
  0
DICTIONARY
  5
5EF095CB
102
{ACAD_REACTORS
330
5EF092B5
102
}
330
5EF092B5
100
AcDbDictionary
  3
DIMASSOC
350
5EF0C026
  3
SORTENTS
350
5EF095CC
  0
XRECORD
  5
5EF0C0BE
102
{ACAD_REACTORS
330
5EF0A64E
102
}
330
5EF0A64E
100
AcDbXrecord
340
5EF092C1
  0
XRECORD
  5
5EF0C0BD
102
{ACAD_REACTORS
330
5EF0A64C
102
}
330
5EF0A64C
100
AcDbXrecord
340
5EF092BE
  0
MLINESTYLE
  5
5EF092C4
102
{ACAD_REACTORS
330
5EF092B7
102
}
330
5EF092B7
100
AcDbMlineStyle
  2
STANDARD
 70
     0
  3

 62
     0
 51
90.0
 52
90.0
 71
     2
 49
0.5
 62
   256
  6
BYLAYER
 49
-0.5
 62
   256
  6
BYLAYER
  0
ACDBPLACEHOLDER
  5
5EF0A02E
102
{ACAD_REACTORS
330
5EF0A02D
102
}
330
5EF0A02D
100
AcDbPlaceHolder
280
     0
  0
XRECORD
  5
5EF0C0A6
102
{ACAD_REACTORS
330
5EF0C09C
102
}
330
5EF0C09C
100
AcDbXrecord
 90
        0
  0
XRECORD
  5
5EF0C0AA
102
{ACAD_REACTORS
330
5EF0C09C
102
}
330
5EF0C09C
100
AcDbXrecord
1000
DSTYLE
1002
{
1070
   341
340
5EF092CB
1070
   343
340
5EF092CB
1070
   344
340
5EF092CB
1002
}
  0
XRECORD
  5
5EF0C0A7
102
{ACAD_REACTORS
330
5EF0C09C
102
}
330
5EF0C09C
100
AcDbXrecord
  1
{A070B581-E1B8-4670-814B-80E553C34829}
  0
XRECORD
  5
5EF0C09F
102
{ACAD_REACTORS
330
5EF0C09C
102
}
330
5EF0C09C
100
AcDbXrecord
  1

  0
XRECORD
  5
5EF0C0A5
102
{ACAD_REACTORS
330
5EF0C09C
102
}
330
5EF0C09C
100
AcDbXrecord
 90
        0
  0
XRECORD
  5
5EF0C0A1
102
{ACAD_REACTORS
330
5EF0C09C
102
}
330
5EF0C09C
100
AcDbXrecord
340
5EF0A02F
  0
XRECORD
  5
5EF0C0A4
102
{ACAD_REACTORS
330
5EF0C09C
102
}
330
5EF0C09C
100
AcDbXrecord
 90
    14877
  0
XRECORD
  5
5EF0C0A2
102
{ACAD_REACTORS
330
5EF0C09C
102
}
330
5EF0C09C
100
AcDbXrecord
340
5EF0A030
  0
XRECORD
  5
5EF0C0A3
102
{ACAD_REACTORS
330
5EF0C09C
102
}
330
5EF0C09C
100
AcDbXrecord
340
5EF0A02D
  0
XRECORD
  5
5EF0C0A9
102
{ACAD_REACTORS
330
5EF0C09C
102
}
330
5EF0C09C
100
AcDbXrecord
 40
0.0
  0
XRECORD
  5
5EF0C0AD
102
{ACAD_REACTORS
330
5EF0C09C
102
}
330
5EF0C09C
100
AcDbXrecord
340
0
  0
XRECORD
  5
5EF0C0B3
102
{ACAD_REACTORS
330
5EF0C09C
102
}
330
5EF0C09C
100
AcDbXrecord
 10
0.0
 20
0.0
 30
0.0
  0
XRECORD
  5
5EF0C0AF
102
{ACAD_REACTORS
330
5EF0C09C
102
}
330
5EF0C09C
100
AcDbXrecord
 10
0.0
 20
0.0
 30
0.0
  0
XRECORD
  5
5EF0C0B2
102
{ACAD_REACTORS
330
5EF0C09C
102
}
330
5EF0C09C
100
AcDbXrecord
 10
0.0
 20
0.0
 30
0.0
  0
XRECORD
  5
5EF0C0B0
102
{ACAD_REACTORS
330
5EF0C09C
102
}
330
5EF0C09C
100
AcDbXrecord
 10
0.0
 20
0.0
 30
0.0
  0
XRECORD
  5
5EF0C0B1
102
{ACAD_REACTORS
330
5EF0C09C
102
}
330
5EF0C09C
100
AcDbXrecord
 10
0.0
 20
0.0
 30
0.0
  0
XRECORD
  5
5EF0C0AE
102
{ACAD_REACTORS
330
5EF0C09C
102
}
330
5EF0C09C
100
AcDbXrecord
 10
0.0
 20
0.0
 30
0.0
  0
XRECORD
  5
5EF0C0AB
102
{ACAD_REACTORS
330
5EF0C09C
102
}
330
5EF0C09C
100
AcDbXrecord
340
0
  0
XRECORD
  5
5EF0C0AC
102
{ACAD_REACTORS
330
5EF0C09C
102
}
330
5EF0C09C
100
AcDbXrecord
 70
     0
  0
XRECORD
  5
5EF0C0A0
102
{ACAD_REACTORS
330
5EF0C09C
102
}
330
5EF0C09C
100
AcDbXrecord
  1

  0
XRECORD
  5
5EF0C09D
102
{ACAD_REACTORS
330
5EF0C09C
102
}
330
5EF0C09C
100
AcDbXrecord
 90
        1
  0
XRECORD
  5
5EF0C09E
102
{ACAD_REACTORS
330
5EF0C09C
102
}
330
5EF0C09C
100
AcDbXrecord
 90
       70
  0
XRECORD
  5
5EF0C0B6
102
{ACAD_REACTORS
330
5EF0C09C
102
}
330
5EF0C09C
100
AcDbXrecord
340
0
  0
XRECORD
  5
5EF0C0BC
102
{ACAD_REACTORS
330
5EF0C09C
102
}
330
5EF0C09C
100
AcDbXrecord
 10
0.0
 20
0.0
 30
0.0
  0
XRECORD
  5
5EF0C0B8
102
{ACAD_REACTORS
330
5EF0C09C
102
}
330
5EF0C09C
100
AcDbXrecord
 10
0.0
 20
0.0
 30
0.0
  0
XRECORD
  5
5EF0C0BB
102
{ACAD_REACTORS
330
5EF0C09C
102
}
330
5EF0C09C
100
AcDbXrecord
 10
0.0
 20
0.0
 30
0.0
  0
XRECORD
  5
5EF0C0B9
102
{ACAD_REACTORS
330
5EF0C09C
102
}
330
5EF0C09C
100
AcDbXrecord
 10
0.0
 20
0.0
 30
0.0
  0
XRECORD
  5
5EF0C0BA
102
{ACAD_REACTORS
330
5EF0C09C
102
}
330
5EF0C09C
100
AcDbXrecord
 10
0.0
 20
0.0
 30
0.0
  0
XRECORD
  5
5EF0C0B7
102
{ACAD_REACTORS
330
5EF0C09C
102
}
330
5EF0C09C
100
AcDbXrecord
 10
0.0
 20
0.0
 30
0.0
  0
XRECORD
  5
5EF0C0B4
102
{ACAD_REACTORS
330
5EF0C09C
102
}
330
5EF0C09C
100
AcDbXrecord
340
0
  0
XRECORD
  5
5EF0C0B5
102
{ACAD_REACTORS
330
5EF0C09C
102
}
330
5EF0C09C
100
AcDbXrecord
 70
     0
  0
XRECORD
  5
5EF0C0A8
102
{ACAD_REACTORS
330
5EF0C09C
102
}
330
5EF0C09C
100
AcDbXrecord
  1
{6123CCB7-45A9-4537-B834-8C21C817A33F}
  0
DICTIONARYVAR
  5
5EF0C026
102
{ACAD_REACTORS
330
5EF095CB
102
}
330
5EF095CB
100
DictionaryVariables
280
     0
  1
0
  0
DICTIONARYVAR
  5
5EF095CC
102
{ACAD_REACTORS
330
5EF095CB
102
}
330
5EF095CB
100
DictionaryVariables
280
     0
  1
96
  0
ENDSEC
  0
EOF
