  0
SECTION
  2
HEADER
  9
$ACADVER
  1
AC1014
  9
$ACADMAINTVER
 70
     9
  9
$DWGCODEPAGE
  3
ANSI_932
  9
$INSBASE
 10
0.0
 20
0.0
 30
0.0
  9
$EXTMIN
 10
0.0
 20
0.0
 30
0.0
  9
$EXTMAX
 10
1170.0
 20
819.0
 30
0.0
  9
$LIMMIN
 10
0.0
 20
0.0
  9
$LIMMAX
 10
1170.0
 20
819.0
  9
$ORTHOMODE
 70
     1
  9
$REGENMODE
 70
     1
  9
$FILLMODE
 70
     1
  9
$QTEXTMODE
 70
     0
  9
$MIRRTEXT
 70
     0
  9
$DRAGMODE
 70
     2
  9
$LTSCALE
 40
5.0
  9
$OSMODE
 70
   167
  9
$ATTMODE
 70
     1
  9
$TEXTSIZE
 40
1.0
  9
$TRACEWID
 40
0.05
  9
$TEXTSTYLE
  7
K
  9
$CLAYER
  8
SCALE
  9
$CELTYPE
  6
BYLAYER
  9
$CECOLOR
 62
   256
  9
$CELTSCALE
 40
1.0
  9
$DELOBJ
 70
     1
  9
$DISPSILH
 70
     0
  9
$DIMSCALE
 40
3.0
  9
$DIMASZ
 40
1.5
  9
$DIMEXO
 40
0.75
  9
$DIMDLI
 40
6.0
  9
$DIMRND
 40
0.0
  9
$DIMDLE
 40
0.0
  9
$DIMEXE
 40
1.0
  9
$DIMTP
 40
495.0
  9
$DIMTM
 40
0.0
  9
$DIMTXT
 40
3.0
  9
$DIMCEN
 40
0.0
  9
$DIMTSZ
 40
0.0
  9
$DIMTOL
 70
     0
  9
$DIMLIM
 70
     0
  9
$DIMTIH
 70
     0
  9
$DIMTOH
 70
     0
  9
$DIMSE1
 70
     0
  9
$DIMSE2
 70
     0
  9
$DIMTAD
 70
     3
  9
$DIMZIN
 70
     8
  9
$DIMBLK
  1

  9
$DIMASO
 70
     0
  9
$DIMSHO
 70
     0
  9
$DIMPOST
  1

  9
$DIMAPOST
  1

  9
$DIMALT
 70
     0
  9
$DIMALTD
 70
     2
  9
$DIMALTF
 40
25.4
  9
$DIMLFAC
 40
1.0
  9
$DIMTOFL
 70
     1
  9
$DIMTVP
 40
0.0
  9
$DIMTIX
 70
     1
  9
$DIMSOXD
 70
     0
  9
$DIMSAH
 70
     1
  9
$DIMBLK1
  1
ARROWANG
  9
$DIMBLK2
  1
ARROWANG
  9
$DIMSTYLE
  2
IMAO
  9
$DIMCLRD
 70
   256
  9
$DIMCLRE
 70
   256
  9
$DIMCLRT
 70
   256
  9
$DIMTFAC
 40
1.0
  9
$DIMGAP
 40
1.0
  9
$DIMJUST
 70
     0
  9
$DIMSD1
 70
     0
  9
$DIMSD2
 70
     0
  9
$DIMTOLJ
 70
     1
  9
$DIMTZIN
 70
     0
  9
$DIMALTZ
 70
     0
  9
$DIMALTTZ
 70
     0
  9
$DIMFIT
 70
     3
  9
$DIMUPT
 70
     0
  9
$DIMUNIT
 70
     2
  9
$DIMDEC
 70
     2
  9
$DIMTDEC
 70
     2
  9
$DIMALTU
 70
     2
  9
$DIMALTTD
 70
     2
  9
$DIMTXSTY
  7
K
  9
$DIMAUNIT
 70
     0
  9
$LUNITS
 70
     2
  9
$LUPREC
 70
     2
  9
$SKETCHINC
 40
0.1
  9
$FILLETRAD
 40
3.0
  9
$AUNITS
 70
     0
  9
$AUPREC
 70
     2
  9
$MENU
  1
STDR12J
  9
$ELEVATION
 40
0.0
  9
$PELEVATION
 40
0.0
  9
$THICKNESS
 40
0.0
  9
$LIMCHECK
 70
     0
  9
$BLIPMODE
 70
     0
  9
$CHAMFERA
 40
0.0
  9
$CHAMFERB
 40
0.0
  9
$CHAMFERC
 40
0.0
  9
$CHAMFERD
 40
0.0
  9
$SKPOLY
 70
     0
  9
$TDCREATE
 40
2450694.736564815
  9
$TDUPDATE
 40
2453334.717319212
  9
$TDINDWG
 40
0.1300376042
  9
$TDUSRTIMER
 40
0.1300376042
  9
$USRTIMER
 70
     1
  9
$ANGBASE
 50
0.0
  9
$ANGDIR
 70
     0
  9
$PDMODE
 70
     0
  9
$PDSIZE
 40
0.0
  9
$PLINEWID
 40
0.0
  9
$COORDS
 70
     2
  9
$SPLFRAME
 70
     0
  9
$SPLINETYPE
 70
     6
  9
$SPLINESEGS
 70
     8
  9
$ATTDIA
 70
     0
  9
$ATTREQ
 70
     1
  9
$HANDLING
 70
 22529
  9
$HANDSEED
  5
5EF0AD9E
  9
$SURFTAB1
 70
     6
  9
$SURFTAB2
 70
     6
  9
$SURFTYPE
 70
     6
  9
$SURFU
 70
     6
  9
$SURFV
 70
     6
  9
$UCSNAME
  2

  9
$UCSORG
 10
0.0
 20
0.0
 30
0.0
  9
$UCSXDIR
 10
1.0
 20
0.0
 30
0.0
  9
$UCSYDIR
 10
0.0
 20
1.0
 30
0.0
  9
$PUCSNAME
  2

  9
$PUCSORG
 10
0.0
 20
0.0
 30
0.0
  9
$PUCSXDIR
 10
1.0
 20
0.0
 30
0.0
  9
$PUCSYDIR
 10
0.0
 20
1.0
 30
0.0
  9
$USERI1
 70
     3
  9
$USERI2
 70
     1
  9
$USERI3
 70
     1
  9
$USERI4
 70
     1
  9
$USERI5
 70
     1
  9
$USERR1
 40
1.0
  9
$USERR2
 40
3.0
  9
$USERR3
 40
3.0
  9
$USERR4
 40
1.5
  9
$USERR5
 40
10.0
  9
$WORLDVIEW
 70
     1
  9
$SHADEDGE
 70
     3
  9
$SHADEDIF
 70
    70
  9
$TILEMODE
 70
     1
  9
$MAXACTVP
 70
    16
  9
$PINSBASE
 10
0.0
 20
0.0
 30
0.0
  9
$PLIMCHECK
 70
     0
  9
$PEXTMIN
 10
1.000000000000000E+20
 20
1.000000000000000E+20
 30
1.000000000000000E+20
  9
$PEXTMAX
 10
-1.000000000000000E+20
 20
-1.000000000000000E+20
 30
-1.000000000000000E+20
  9
$PLIMMIN
 10
0.0
 20
0.0
  9
$PLIMMAX
 10
12.0
 20
9.0
  9
$UNITMODE
 70
     0
  9
$VISRETAIN
 70
     0
  9
$PLINEGEN
 70
     0
  9
$PSLTSCALE
 70
     0
  9
$TREEDEPTH
 70
     0
  9
$PICKSTYLE
 70
     1
  9
$CMLSTYLE
  2
STANDARD
  9
$CMLJUST
 70
     0
  9
$CMLSCALE
 40
1.0
  9
$PROXYGRAPHICS
 70
     1
  9
$MEASUREMENT
 70
     0
  0
ENDSEC
  0
SECTION
  2
CLASSES
  0
CLASS
  1
LWPOLYLINE
  2
AcDbPolyline
  3
AutoCAD 2000
 90
        0
280
     0
281
     1
  0
CLASS
  1
HATCH
  2
AcDbHatch
  3
AutoCAD 2000
 90
        0
280
     0
281
     1
  0
CLASS
  1
DICTIONARYVAR
  2
AcDbDictionaryVar
  3
AutoCAD 2000
 90
        0
280
     0
281
     0
  0
CLASS
  1
ACDBDICTIONARYWDFLT
  2
AcDbDictionaryWithDefault
  3
AutoCAD 2000
 90
        0
280
     0
281
     0
  0
CLASS
  1
ACDBPLACEHOLDER
  2
AcDbPlaceHolder
  3
AutoCAD 2000
 90
        0
280
     0
281
     0
  0
CLASS
  1
LAYOUT
  2
AcDbLayout
  3
AutoCAD 2000
 90
        0
280
     0
281
     0
  0
CLASS
  1
LONG_TRANSACTION
  2
AcDbLongTransaction
  3
AutoCAD 2000
 90
        0
280
     0
281
     0
  0
CLASS
  1
LWPOLYLINE
  2
AcDbPolyline
  3
AutoCAD 2000
 90
        0
280
     0
281
     1
  0
CLASS
  1
HATCH
  2
AcDbHatch
  3
AutoCAD 2000
 90
        0
280
     0
281
     1
  0
CLASS
  1
XRECORD
  2
AcDbXrecord
  3
AutoCAD 2000
 90
        0
280
     0
281
     0
  0
CLASS
  1
LONG_TRANSACTION
  2
AcDbLongTransaction
  3
AutoCAD 2000
 90
        0
280
     0
281
     0
  0
CLASS
  1
LWPOLYLINE
  2
AcDbPolyline
  3
AutoCAD 2000
 90
        0
280
     0
281
     1
  0
CLASS
  1
HATCH
  2
AcDbHatch
  3
AutoCAD 2000
 90
        0
280
     0
281
     1
  0
CLASS
  1
XRECORD
  2
AcDbXrecord
  3
AutoCAD 2000
 90
        0
280
     0
281
     0
  0
CLASS
  1
LONG_TRANSACTION
  2
AcDbLongTransaction
  3
AutoCAD 2000
 90
        0
280
     0
281
     0
  0
CLASS
  1
LWPOLYLINE
  2
AcDbPolyline
  3
AutoCAD 2000
 90
        0
280
     0
281
     1
  0
CLASS
  1
HATCH
  2
AcDbHatch
  3
AutoCAD 2000
 90
        0
280
     0
281
     1
  0
CLASS
  1
XRECORD
  2
AcDbXrecord
  3
AutoCAD 2000
 90
        0
280
     0
281
     0
  0
CLASS
  1
LONG_TRANSACTION
  2
AcDbLongTransaction
  3
AutoCAD 2000
 90
        0
280
     0
281
     0
  0
CLASS
  1
LWPOLYLINE
  2
AcDbPolyline
  3
AutoCAD 2000
 90
        0
280
     0
281
     1
  0
CLASS
  1
HATCH
  2
AcDbHatch
  3
AutoCAD 2000
 90
        0
280
     0
281
     1
  0
CLASS
  1
XRECORD
  2
AcDbXrecord
  3
AutoCAD 2000
 90
        0
280
     0
281
     0
  0
CLASS
  1
LONG_TRANSACTION
  2
AcDbLongTransaction
  3
AutoCAD 2000
 90
        0
280
     0
281
     0
  0
CLASS
  1
LWPOLYLINE
  2
AcDbPolyline
  3
AutoCAD 2000
 90
        0
280
     0
281
     1
  0
CLASS
  1
HATCH
  2
AcDbHatch
  3
AutoCAD 2000
 90
        0
280
     0
281
     1
  0
CLASS
  1
XRECORD
  2
AcDbXrecord
  3
AutoCAD 2000
 90
        0
280
     0
281
     0
  0
CLASS
  1
LONG_TRANSACTION
  2
AcDbLongTransaction
  3
AutoCAD 2000
 90
        0
280
     0
281
     0
  0
CLASS
  1
LWPOLYLINE
  2
AcDbPolyline
  3
AutoCAD 2000
 90
        0
280
     0
281
     1
  0
CLASS
  1
HATCH
  2
AcDbHatch
  3
AutoCAD 2000
 90
        0
280
     0
281
     1
  0
CLASS
  1
XRECORD
  2
AcDbXrecord
  3
AutoCAD 2000
 90
        0
280
     0
281
     0
  0
CLASS
  1
LONG_TRANSACTION
  2
AcDbLongTransaction
  3
AutoCAD 2000
 90
        0
280
     0
281
     0
  0
CLASS
  1
LWPOLYLINE
  2
AcDbPolyline
  3
AutoCAD 2000
 90
        0
280
     0
281
     1
  0
CLASS
  1
HATCH
  2
AcDbHatch
  3
AutoCAD 2000
 90
        0
280
     0
281
     1
  0
CLASS
  1
XRECORD
  2
AcDbXrecord
  3
AutoCAD 2000
 90
        0
280
     0
281
     0
  0
ENDSEC
  0
SECTION
  2
TABLES
  0
TABLE
  2
VPORT
  5
5EF092B1
330
0
100
AcDbSymbolTable
 70
    11
  0
VPORT
  5
5EF092D4
330
5EF092B1
100
AcDbSymbolTableRecord
100
AcDbViewportTableRecord
  2
2
 70
     0
 10
0.5
 20
0.0
 11
1.0
 21
1.0
 12
0.9240312421264802
 22
1.052650975462766
 13
0.0
 23
0.0
 14
1.0
 24
1.0
 15
10.0
 25
10.0
 16
0.0
 26
0.0
 36
1.0
 17
0.0
 27
0.0
 37
0.0
 40
2.105301950925533
 41
0.8778135048231511
 42
50.0
 43
0.0
 44
0.0
 50
0.0
 51
0.0
 71
     0
 72
   500
 73
     1
 74
     1
 75
     0
 76
     0
 77
     0
 78
     0
  0
VPORT
  5
5EF092D5
330
5EF092B1
100
AcDbSymbolTableRecord
100
AcDbViewportTableRecord
  2
2
 70
     0
 10
0.0
 20
0.0
 11
0.5
 21
1.0
 12
0.9240312421264802
 22
1.052650975462766
 13
0.0
 23
0.0
 14
1.0
 24
1.0
 15
10.0
 25
10.0
 16
0.0
 26
0.0
 36
1.0
 17
0.0
 27
0.0
 37
0.0
 40
2.105301950925533
 41
0.8778135048231511
 42
50.0
 43
0.0
 44
0.0
 50
0.0
 51
0.0
 71
     0
 72
   500
 73
     1
 74
     1
 75
     0
 76
     0
 77
     0
 78
     0
  0
VPORT
  5
5EF092D6
330
5EF092B1
100
AcDbSymbolTableRecord
100
AcDbViewportTableRecord
  2
3
 70
     0
 10
0.0
 20
0.5
 11
1.0
 21
1.0
 12
2.832169994473273
 22
1.052650975462766
 13
0.0
 23
0.0
 14
1.0
 24
1.0
 15
10.0
 25
10.0
 16
0.0
 26
0.0
 36
1.0
 17
0.0
 27
0.0
 37
0.0
 40
2.105301950925533
 41
3.571428571428571
 42
50.0
 43
0.0
 44
0.0
 50
0.0
 51
0.0
 71
     0
 72
   500
 73
     1
 74
     1
 75
     0
 76
     0
 77
     0
 78
     0
  0
VPORT
  5
5EF092D7
330
5EF092B1
100
AcDbSymbolTableRecord
100
AcDbViewportTableRecord
  2
3
 70
     0
 10
0.0
 20
0.0
 11
1.0
 21
0.5
 12
2.856741679241311
 22
1.052650975462766
 13
0.0
 23
0.0
 14
1.0
 24
1.0
 15
10.0
 25
10.0
 16
0.0
 26
0.0
 36
1.0
 17
0.0
 27
0.0
 37
0.0
 40
2.105301950925533
 41
3.594771241830065
 42
50.0
 43
0.0
 44
0.0
 50
0.0
 51
0.0
 71
     0
 72
   500
 73
     1
 74
     1
 75
     0
 76
     0
 77
     0
 78
     0
  0
VPORT
  5
5EF092D8
330
5EF092B1
100
AcDbSymbolTableRecord
100
AcDbViewportTableRecord
  2
4
 70
     0
 10
0.5
 20
0.0
 11
1.0
 21
0.5
 12
2.886857516709719
 22
1.052650975462766
 13
0.0
 23
0.0
 14
1.0
 24
1.0
 15
10.0
 25
10.0
 16
0.0
 26
0.0
 36
1.0
 17
0.0
 27
0.0
 37
0.0
 40
4.27520703030907
 41
1.784313725490195
 42
50.0
 43
0.0
 44
0.0
 50
0.0
 51
0.0
 71
     0
 72
   500
 73
     1
 74
     1
 75
     0
 76
     0
 77
     0
 78
     0
  0
VPORT
  5
5EF092D9
330
5EF092B1
100
AcDbSymbolTableRecord
100
AcDbViewportTableRecord
  2
4
 70
     0
 10
0.5
 20
0.5
 11
1.0
 21
1.0
 12
2.862090274555523
 22
1.052650975462766
 13
0.0
 23
0.0
 14
1.0
 24
1.0
 15
10.0
 25
10.0
 16
0.0
 26
0.0
 36
1.0
 17
0.0
 27
0.0
 37
0.0
 40
4.27520703030907
 41
1.772727272727272
 42
50.0
 43
0.0
 44
0.0
 50
0.0
 51
0.0
 71
     0
 72
   500
 73
     1
 74
     1
 75
     0
 76
     0
 77
     0
 78
     0
  0
VPORT
  5
5EF092DA
330
5EF092B1
100
AcDbSymbolTableRecord
100
AcDbViewportTableRecord
  2
4
 70
     0
 10
0.0
 20
0.5
 11
0.5
 21
1.0
 12
2.862090274555523
 22
1.052650975462766
 13
0.0
 23
0.0
 14
1.0
 24
1.0
 15
10.0
 25
10.0
 16
0.0
 26
0.0
 36
1.0
 17
0.0
 27
0.0
 37
0.0
 40
4.27520703030907
 41
1.772727272727272
 42
50.0
 43
0.0
 44
0.0
 50
0.0
 51
0.0
 71
     0
 72
   500
 73
     1
 74
     1
 75
     0
 76
     0
 77
     0
 78
     0
  0
VPORT
  5
5EF092DB
330
5EF092B1
100
AcDbSymbolTableRecord
100
AcDbViewportTableRecord
  2
4
 70
     0
 10
0.0
 20
0.0
 11
0.5
 21
0.5
 12
2.886857516709719
 22
1.052650975462766
 13
0.0
 23
0.0
 14
1.0
 24
1.0
 15
10.0
 25
10.0
 16
0.0
 26
0.0
 36
1.0
 17
0.0
 27
0.0
 37
0.0
 40
4.27520703030907
 41
1.784313725490195
 42
50.0
 43
0.0
 44
0.0
 50
0.0
 51
0.0
 71
     0
 72
   500
 73
     1
 74
     1
 75
     0
 76
     0
 77
     0
 78
     0
  0
VPORT
  5
5EF0AD7A
330
5EF092B1
100
AcDbSymbolTableRecord
100
AcDbViewportTableRecord
  2
*ACTIVE
 70
     0
 10
0.0
 20
0.0
 11
1.0
 21
1.0
 12
1058.799837438404
 22
409.5000038138825
 13
0.0
 23
0.0
 14
1.0
 24
1.0
 15
10.0
 25
10.0
 16
0.0
 26
0.0
 36
1.0
 17
0.0
 27
0.0
 37
0.0
 40
828.6951230470595
 41
1.771962616822429
 42
50.0
 43
0.0
 44
0.0
 50
0.0
 51
0.0
 71
     0
 72
   500
 73
     1
 74
     0
 75
     0
 76
     0
 77
     0
 78
     1
  0
ENDTAB
  0
TABLE
  2
LTYPE
  5
5EF092AE
330
0
100
AcDbSymbolTable
 70
     3
  0
LTYPE
  5
5EF092BB
330
5EF092AE
100
AcDbSymbolTableRecord
100
AcDbLinetypeTableRecord
  2
BYBLOCK
 70
     0
  3

 72
    65
 73
     0
 40
0.0
  0
LTYPE
  5
5EF092BC
330
5EF092AE
100
AcDbSymbolTableRecord
100
AcDbLinetypeTableRecord
  2
BYLAYER
 70
     0
  3

 72
    65
 73
     0
 40
0.0
  0
LTYPE
  5
5EF092BD
330
5EF092AE
100
AcDbSymbolTableRecord
100
AcDbLinetypeTableRecord
  2
CONTINUOUS
 70
     0
  3
実線
 72
    65
 73
     0
 40
0.0
  0
LTYPE
  5
5EF092D1
330
5EF092AE
100
AcDbSymbolTableRecord
100
AcDbLinetypeTableRecord
  2
CENTER
 70
     0
  3
____ _ ____ _ ____ _ ____ _ ____ _ ____ _ ____
 72
    65
 73
     4
 40
2.0
 49
1.25
 74
     0
 49
-0.25
 74
     0
 49
0.25
 74
     0
 49
-0.25
 74
     0
  0
LTYPE
  5
5EF092D3
330
5EF092AE
100
AcDbSymbolTableRecord
100
AcDbLinetypeTableRecord
  2
HIDDEN
 70
     0
  3
_ _ _ _ _ _ _ _ _ _ _ _ _ _ _ _ _ _ _ _ _ _ _
 72
    65
 73
     2
 40
0.375
 49
0.25
 74
     0
 49
-0.125
 74
     0
  0
ENDTAB
  0
TABLE
  2
LAYER
  5
5EF092AB
330
0
100
AcDbSymbolTable
 70
     8
  0
LAYER
  5
5EF092B8
330
5EF092AB
100
AcDbSymbolTableRecord
100
AcDbLayerTableRecord
  2
0
 70
     0
 62
     7
  6
CONTINUOUS
  0
LAYER
  5
5EF092E0
330
5EF092AB
100
AcDbSymbolTableRecord
100
AcDbLayerTableRecord
  2
ITTEN
 70
     0
 62
     1
  6
CENTER
  0
LAYER
  5
5EF092E3
330
5EF092AB
100
AcDbSymbolTableRecord
100
AcDbLayerTableRecord
  2
SUNPOU
 70
     0
 62
     3
  6
CONTINUOUS
  0
LAYER
  5
5EF092E5
330
5EF092AB
100
AcDbSymbolTableRecord
100
AcDbLayerTableRecord
  2
SAISEN
 70
     0
 62
     4
  6
CONTINUOUS
  0
LAYER
  5
5EF092E6
330
5EF092AB
100
AcDbSymbolTableRecord
100
AcDbLayerTableRecord
  2
JISSEN
 70
     0
 62
     7
  6
CONTINUOUS
  0
LAYER
  5
5EF092E8
330
5EF092AB
100
AcDbSymbolTableRecord
100
AcDbLayerTableRecord
  2
TENSEN
 70
     0
 62
     2
  6
HIDDEN
  0
LAYER
  5
5EF092EA
330
5EF092AB
100
AcDbSymbolTableRecord
100
AcDbLayerTableRecord
  2
WAKU
 70
     0
 62
     5
  6
CONTINUOUS
  0
LAYER
  5
5EF092FD
330
5EF092AB
100
AcDbSymbolTableRecord
100
AcDbLayerTableRecord
  2
SCALE
 70
     0
 62
     7
  6
CONTINUOUS
  0
ENDTAB
  0
TABLE
  2
STYLE
  5
5EF092AC
330
0
100
AcDbSymbolTable
 70
     2
  0
STYLE
  5
5EF092B9
330
5EF092AC
100
AcDbSymbolTableRecord
100
AcDbTextStyleTableRecord
  2
STANDARD
 70
     0
 40
0.0
 41
1.0
 50
0.0
 71
     0
 42
0.2
  3
ROMANS
  4
EXTFONT
  0
STYLE
  5
5EF092CF
330
5EF092AC
100
AcDbSymbolTableRecord
100
AcDbTextStyleTableRecord
  2
K
 70
     0
 40
0.0
 41
1.0
 50
0.0
 71
     0
 42
1.0
  3
ROMANS
  4
EXTFONT
  0
ENDTAB
  0
TABLE
  2
VIEW
  5
5EF092AF
330
0
100
AcDbSymbolTable
 70
     0
  0
ENDTAB
  0
TABLE
  2
UCS
  5
5EF092B0
330
0
100
AcDbSymbolTable
 70
     0
  0
ENDTAB
  0
TABLE
  2
APPID
  5
5EF092B2
330
0
100
AcDbSymbolTable
 70
     1
  0
APPID
  5
5EF092BA
330
5EF092B2
100
AcDbSymbolTableRecord
100
AcDbRegAppTableRecord
  2
ACAD
 70
     0
  0
ENDTAB
  0
TABLE
  2
DIMSTYLE
  5
5EF092B3
330
0
100
AcDbSymbolTable
 70
     1
  0
DIMSTYLE
105
5EF092DE
330
5EF092B3
100
AcDbSymbolTableRecord
100
AcDbDimStyleTableRecord
  2
IMAO
 70
     0
  3

  4

  5
ARROWANG
  6
ARROWANG
  7
ARROWANG
 40
1.0
 41
1.5
 42
0.75
 43
6.0
 44
1.0
 45
0.0
 46
0.0
 47
495.0
 48
0.0
140
3.0
141
0.0
142
0.0
143
25.4
144
1.0
145
0.0
146
1.0
147
1.0
 71
     0
 72
     0
 73
     0
 74
     0
 75
     0
 76
     0
 77
     3
 78
     8
170
     0
171
     2
172
     1
173
     1
174
     1
175
     0
176
   256
177
   256
178
   256
270
     2
271
     2
272
     2
273
     2
274
     2
340
5EF092CF
275
     0
280
     0
281
     0
282
     0
283
     1
284
     0
285
     0
286
     0
287
     3
288
     0
  0
ENDTAB
  0
TABLE
  2
BLOCK_RECORD
  5
5EF092AA
330
0
100
AcDbSymbolTable
 70
     1
  0
BLOCK_RECORD
  5
5EF092C1
102
{ACAD_XDICTIONARY
360
5EF0A64E
102
}
330
5EF092AA
100
AcDbSymbolTableRecord
100
AcDbBlockTableRecord
  2
*MODEL_SPACE
  0
BLOCK_RECORD
  5
5EF092BE
102
{ACAD_XDICTIONARY
360
5EF0A64C
102
}
330
5EF092AA
100
AcDbSymbolTableRecord
100
AcDbBlockTableRecord
  2
*PAPER_SPACE
  0
BLOCK_RECORD
  5
5EF092CB
330
5EF092AA
100
AcDbSymbolTableRecord
100
AcDbBlockTableRecord
  2
ARROWANG
  0
ENDTAB
  0
ENDSEC
  0
SECTION
  2
BLOCKS
  0
BLOCK
  5
5EF092EF
330
5EF092C1
100
AcDbEntity
  8
0
100
AcDbBlockBegin
  2
*MODEL_SPACE
 70
     0
 10
0.0
 20
0.0
 30
0.0
  3
*MODEL_SPACE
  1

  0
ENDBLK
  5
5EF092F0
330
5EF092C1
100
AcDbEntity
  8
0
100
AcDbBlockEnd
  0
BLOCK
  5
5EF092ED
330
5EF092BE
100
AcDbEntity
 67
     1
  8
0
100
AcDbBlockBegin
  2
*PAPER_SPACE
 70
     0
 10
0.0
 20
0.0
 30
0.0
  3
*PAPER_SPACE
  1

  0
ENDBLK
  5
5EF092EE
330
5EF092BE
100
AcDbEntity
 67
     1
  8
0
100
AcDbBlockEnd
  0
BLOCK
  5
1D
330
5EF092CB
100
AcDbEntity
  8
0
100
AcDbBlockBegin
  2
ARROWANG
 70
     0
 10
0.0
 20
0.0
 30
0.0
  3
ARROWANG
  1

  0
LINE
  5
1E
330
5EF092CB
100
AcDbEntity
  8
SUNPOU
100
AcDbLine
 10
0.0
 20
0.0
 30
0.0
 11
-1.499999999999957
 21
0.4019237886467409
 31
0.0
  0
LINE
  5
1F
330
5EF092CB
100
AcDbEntity
  8
SUNPOU
100
AcDbLine
 10
0.0
 20
0.0
 30
0.0
 11
-1.500000000000028
 21
-0.4019237886467124
 31
0.0
  0
ENDBLK
  5
20
330
5EF092CB
100
AcDbEntity
  8
0
100
AcDbBlockEnd
  0
ENDSEC
  0
SECTION
  2
ENTITIES
  0
TEXT
  5
2D6D6C92
330
5EF092C1
100
AcDbEntity
  8
JISSEN
100
AcDbText
 10
349.9540407660656
 20
1.542807100332489
 30
0.0
 40
3.5
  1

  7
K
100
AcDbText
  0
LWPOLYLINE
  5
5EF0A024
330
5EF092C1
100
AcDbEntity
  8
WAKU
100
AcDbPolyline
 90
        4
 70
     1
 43
0.0
 10
0.0
 20
0.0
 10
1170.0
 20
0.0
 10
1170.0
 20
819.0
 10
0.0
 20
819.0
  0
LINE
  5
5EF0A47E
330
5EF092C1
100
AcDbEntity
  8
ITTEN
  6
CENTER
 48
2.0
100
AcDbLine
 10
854.4605180355675
 20
183.76845937667
 30
0.0
 11
833.9544213811574
 21
163.2623627222603
 31
0.0
  0
INSERT
  5
5EF0A4EC
330
5EF092C1
100
AcDbEntity
  8
SUNPOU
100
AcDbBlockReference
  2
ARROWANG
 10
880.4268616307123
 20
402.1040235516204
 30
0.0
 41
6.000000000000028
 42
6.0
 43
6.0
 50
224.9999999999998
  0
LINE
  5
5EF0A4ED
330
5EF092C1
100
AcDbEntity
  8
SUNPOU
100
AcDbLine
 10
914.7953932455479
 20
436.4725551664562
 30
0.0
 11
970.9787987494753
 21
436.4725551664565
 31
0.0
  0
MTEXT
  5
5EF0A4EE
330
5EF092C1
100
AcDbEntity
  8
SUNPOU
100
AcDbMText
 10
945.1359416066184
 20
442.7041778089949
 30
0.0
 40
9.0
 41
0.0
 71
     5
 72
     1
  1
Rc 1/2
  7
K
1001
ACAD
1000
MTEXTBEGIN
1070
    73
1070
     1
1070
    44
1040
1.0
1070
    74
1070
     0
1000
MTEXTEND
  0
LINE
  5
5EF0A4EF
330
5EF092C1
100
AcDbEntity
  8
SUNPOU
100
AcDbLine
 10
914.7953932455479
 20
436.4725551664562
 30
0.0
 11
880.4268616307123
 21
402.1040235516204
 31
0.0
  0
TEXT
  5
5EF0A4F0
330
5EF092C1
100
AcDbEntity
  8
SUNPOU
100
AcDbText
 10
765.4376929132171
 20
146.7837139799002
 30
0.0
 40
9.0
  1
8-%%c19
  7
K
100
AcDbText
  0
LINE
  5
5EF0A4F1
330
5EF092C1
100
AcDbEntity
  8
SUNPOU
100
AcDbLine
 10
815.6706603247624
 20
144.9786016658653
 30
0.0
 11
764.4731105784832
 21
144.9786016658653
 31
0.0
  0
INSERT
  5
5EF0A4F2
330
5EF092C1
100
AcDbEntity
  8
SUNPOU
100
AcDbBlockReference
  2
ARROWANG
 10
837.4899552870905
 20
166.7978966281931
 30
0.0
 41
6.000000000000028
 42
6.0
 43
6.0
 50
44.99999999999981
  0
INSERT
  5
5EF0A4F3
330
5EF092C1
100
AcDbEntity
  8
SUNPOU
100
AcDbBlockReference
  2
ARROWANG
 10
850.9249841296348
 20
180.2329254707375
 30
0.0
 41
6.000000000000028
 42
6.0
 43
6.0
 50
224.9999999999998
  0
LINE
  5
5EF0A4F4
330
5EF092C1
100
AcDbEntity
  8
SUNPOU
100
AcDbLine
 10
855.167624816754
 20
184.4755661578567
 30
0.0
 11
859.4102655038735
 21
188.718206844976
 31
0.0
  0
LINE
  5
5EF0A4F5
330
5EF092C1
100
AcDbEntity
  8
SUNPOU
100
AcDbLine
 10
856.6239188546736
 20
185.9318601957765
 30
0.0
 11
815.6706603247624
 21
144.9786016658653
 31
0.0
  0
LINE
  5
5EF0A829
330
5EF092C1
100
AcDbEntity
  8
ITTEN
 48
3.0
100
AcDbLine
 10
342.46684199021
 20
451.8063759878114
 30
0.0
 11
342.46684199021
 21
120.1963759878111
 31
0.0
  0
LINE
  5
5EF0A82A
330
5EF092C1
100
AcDbEntity
  8
JISSEN
100
AcDbLine
 10
442.46684199021
 20
374.8063759878115
 30
0.0
 11
442.46684199021
 21
413.8063759878114
 31
0.0
  0
LINE
  5
5EF0A82B
330
5EF092C1
100
AcDbEntity
  8
JISSEN
100
AcDbLine
 10
242.46684199021
 20
394.8063759878115
 30
0.0
 11
242.46684199021
 21
374.8063759878115
 31
0.0
  0
LINE
  5
5EF0A82C
330
5EF092C1
100
AcDbEntity
  8
JISSEN
100
AcDbLine
 10
442.46684199021
 20
394.8063759878115
 30
0.0
 11
442.46684199021
 21
374.8063759878115
 31
0.0
  0
LINE
  5
5EF0A82E
330
5EF092C1
100
AcDbEntity
  8
ITTEN
 48
3.0
100
AcDbLine
 10
482.46684199021
 20
242.8063759878115
 30
0.0
 11
202.46684199021
 21
242.8063759878114
 31
0.0
  0
LINE
  5
5EF0A830
330
5EF092C1
100
AcDbEntity
  8
JISSEN
100
AcDbLine
 10
323.2168419902095
 20
288.8063759878114
 30
0.0
 11
331.4927040591749
 21
297.4960311602252
 31
0.0
  0
LINE
  5
5EF0A831
330
5EF092C1
100
AcDbEntity
  8
JISSEN
100
AcDbLine
 10
326.4405709225475
 20
289.2912913667665
 30
0.0
 11
333.0493494233114
 21
279.3603898629353
 31
0.0
  0
LINE
  5
5EF0A832
330
5EF092C1
100
AcDbEntity
  8
JISSEN
100
AcDbLine
 10
325.0263657997334
 20
287.8063759878115
 30
0.0
 11
331.3843345571072
 21
278.2523621126876
 31
0.0
  0
LINE
  5
5EF0A833
330
5EF092C1
100
AcDbEntity
  8
JISSEN
100
AcDbLine
 10
326.4405709225475
 20
289.2912913667665
 30
0.0
 11
332.9409799212439
 21
296.1167208153976
 31
0.0
  0
LWPOLYLINE
  5
5EF0A834
330
5EF092C1
100
AcDbEntity
  8
JISSEN
100
AcDbPolyline
 90
       12
 70
     0
 43
0.0
 10
377.46684199021
 20
322.8063759878021
 10
368.8065879523656
 20
317.806375987802
 10
368.8065879523656
 20
320.3063759878115
 10
352.4668419901936
 20
320.3063759878113
 10
343.1367149712714
 20
317.8063759878114
 10
307.46684199021
 20
317.8063759878115
 10
307.46684199021
 20
327.8063759878115
 10
343.1367149712714
 20
327.8063759878114
 10
352.4668419901936
 20
325.3063759878114
 10
368.8065879523656
 20
325.3063759878115
 10
368.8065879523656
 20
327.8063759878115
 10
377.46684199021
 20
322.8063759878021
  0
LINE
  5
5EF0A835
330
5EF092C1
100
AcDbEntity
  8
JISSEN
100
AcDbLine
 10
389.96684199021
 20
262.8063759878115
 30
0.0
 11
294.96684199021
 21
262.8063759878115
 31
0.0
  0
LINE
  5
5EF0A836
330
5EF092C1
100
AcDbEntity
  8
JISSEN
100
AcDbLine
 10
294.96684199021
 20
222.8063759878115
 30
0.0
 11
389.96684199021
 21
222.8063759878115
 31
0.0
  0
LINE
  5
5EF0A837
330
5EF092C1
100
AcDbEntity
  8
JISSEN
100
AcDbLine
 10
390.96684199021
 20
264.8063759878115
 30
0.0
 11
293.96684199021
 21
264.8063759878115
 31
0.0
  0
LINE
  5
5EF0A838
330
5EF092C1
100
AcDbEntity
  8
JISSEN
100
AcDbLine
 10
293.96684199021
 20
220.8063759878115
 30
0.0
 11
390.96684199021
 21
220.8063759878115
 31
0.0
  0
ARC
  5
5EF0A839
330
5EF092C1
100
AcDbEntity
  8
JISSEN
100
AcDbCircle
 10
342.46684199021
 20
317.8063759878115
 30
0.0
 40
158.0
100
AcDbArc
 50
231.8675438866455
 51
270.0
  0
LINE
  5
5EF0A83A
330
5EF092C1
100
AcDbEntity
  8
JISSEN
100
AcDbLine
 10
319.96684199021
 20
147.8063759878115
 30
0.0
 11
364.96684199021
 21
147.8063759878115
 31
0.0
  0
LINE
  5
5EF0A83B
330
5EF092C1
100
AcDbEntity
  8
JISSEN
100
AcDbLine
 10
243.46684199021
 20
374.8063759878115
 30
0.0
 11
441.46684199021
 21
374.8063759878115
 31
0.0
  0
LINE
  5
5EF0A83C
330
5EF092C1
100
AcDbEntity
  8
JISSEN
100
AcDbLine
 10
441.46684199021
 20
352.8063759878115
 30
0.0
 11
243.46684199021
 21
352.8063759878115
 31
0.0
  0
LINE
  5
5EF0A83D
330
5EF092C1
100
AcDbEntity
  8
JISSEN
100
AcDbLine
 10
359.3916694981883
 20
138.1963759878114
 30
0.0
 11
325.5420144822315
 21
138.1963759878114
 31
0.0
  0
LINE
  5
5EF0A83E
330
5EF092C1
100
AcDbEntity
  8
JISSEN
100
AcDbLine
 10
234.46684199021
 20
151.3063759878115
 30
0.0
 11
234.46684199021
 21
334.3063759878115
 31
0.0
  0
LINE
  5
5EF0A83F
330
5EF092C1
100
AcDbEntity
  8
JISSEN
100
AcDbLine
 10
212.4668419902099
 20
334.3063759878115
 30
0.0
 11
212.4668419902099
 21
151.3063759878115
 31
0.0
  0
LINE
  5
5EF0A849
330
5EF092C1
100
AcDbEntity
  8
ITTEN
 48
3.0
100
AcDbLine
 10
207.46684199021
 20
167.8063759878116
 30
0.0
 11
239.4668419902099
 21
167.8063759878116
 31
0.0
  0
LINE
  5
5EF0A84A
330
5EF092C1
100
AcDbEntity
  8
JISSEN
100
AcDbLine
 10
213.46684199021
 20
150.3063759878115
 30
0.0
 11
233.46684199021
 21
150.3063759878115
 31
0.0
  0
ARC
  5
5EF0A84B
330
5EF092C1
100
AcDbEntity
  8
JISSEN
100
AcDbCircle
 10
213.46684199021
 20
151.3063759878115
 30
0.0
 40
1.0
100
AcDbArc
 50
180.0
 51
270.0
  0
ARC
  5
5EF0A84C
330
5EF092C1
100
AcDbEntity
  8
JISSEN
100
AcDbCircle
 10
233.46684199021
 20
151.3063759878115
 30
0.0
 40
1.0
100
AcDbArc
 50
270.0
 51
0.0
  0
ARC
  5
5EF0A84D
330
5EF092C1
100
AcDbEntity
  8
JISSEN
100
AcDbCircle
 10
241.1998681043474
 20
188.8063759878115
 30
0.0
 40
6.0
100
AcDbArc
 50
51.86754388664557
 51
137.8767155822772
  0
ARC
  5
5EF0A84E
330
5EF092C1
100
AcDbEntity
  8
JISSEN
100
AcDbCircle
 10
240.46684199021
 20
187.9957823800643
 30
0.0
 40
6.0
100
AcDbArc
 50
137.8767155822772
 51
180.0
  0
LINE
  5
5EF0A84F
330
5EF092C1
100
AcDbEntity
  8
JISSEN
100
AcDbLine
 10
236.0166220389803
 20
192.0201509498747
 30
0.0
 11
236.7496481531179
 21
192.8307445576218
 31
0.0
  0
LINE
  5
5EF0A850
330
5EF092C1
100
AcDbEntity
  8
JISSEN
100
AcDbLine
 10
316.96684199021
 20
156.8599563320764
 30
0.0
 11
316.96684199021
 21
150.8063759878115
 31
0.0
  0
ARC
  5
5EF0A851
330
5EF092C1
100
AcDbEntity
  8
JISSEN
100
AcDbCircle
 10
319.96684199021
 20
150.8063759878115
 30
0.0
 40
3.0
100
AcDbArc
 50
180.0
 51
270.0
  0
LINE
  5
5EF0A852
330
5EF092C1
100
AcDbEntity
  8
JISSEN
100
AcDbLine
 10
325.5420144822315
 20
138.1963759878114
 30
0.0
 11
325.8423419902082
 21
147.8063759878115
 31
0.0
  0
ARC
  5
5EF0A853
330
5EF092C1
100
AcDbEntity
  8
JISSEN
100
AcDbCircle
 10
310.96684199021
 20
156.8599563320764
 30
0.0
 40
6.0
100
AcDbArc
 50
0.0
 51
78.92620314323067
  0
ARC
  5
5EF0A854
330
5EF092C1
100
AcDbEntity
  8
JISSEN
100
AcDbCircle
 10
342.46684199021
 20
167.8063759878115
 30
0.0
 40
158.0
100
AcDbArc
 50
119.7984984616967
 51
128.1324561133544
  0
ARC
  5
5EF0A855
330
5EF092C1
100
AcDbEntity
  8
JISSEN
100
AcDbCircle
 10
240.46684199021
 20
297.6169695955586
 30
0.0
 40
6.0
100
AcDbArc
 50
180.0
 51
222.1232844177227
  0
ARC
  5
5EF0A856
330
5EF092C1
100
AcDbEntity
  8
JISSEN
100
AcDbCircle
 10
241.1998681043474
 20
296.8063759878115
 30
0.0
 40
6.0
100
AcDbArc
 50
222.1232844177227
 51
308.1324561133544
  0
LINE
  5
5EF0A857
330
5EF092C1
100
AcDbEntity
  8
JISSEN
100
AcDbLine
 10
236.0166220389803
 20
293.5926010257481
 30
0.0
 11
236.7496481531179
 21
292.782007418001
 31
0.0
  0
LINE
  5
5EF0A858
330
5EF092C1
100
AcDbEntity
  8
ITTEN
 48
3.0
100
AcDbLine
 10
207.46684199021
 20
317.8063759878114
 30
0.0
 11
239.4668419902099
 21
317.8063759878114
 31
0.0
  0
LINE
  5
5EF0A859
330
5EF092C1
100
AcDbEntity
  8
JISSEN
100
AcDbLine
 10
233.46684199021
 20
335.3063759878115
 30
0.0
 11
213.46684199021
 21
335.3063759878115
 31
0.0
  0
ARC
  5
5EF0A85A
330
5EF092C1
100
AcDbEntity
  8
JISSEN
100
AcDbCircle
 10
213.46684199021
 20
334.3063759878115
 30
0.0
 40
1.0
100
AcDbArc
 50
90.0
 51
180.0
  0
ARC
  5
5EF0A85B
330
5EF092C1
100
AcDbEntity
  8
JISSEN
100
AcDbCircle
 10
233.46684199021
 20
334.3063759878115
 30
0.0
 40
1.0
100
AcDbArc
 50
0.0
 51
90.0
  0
LINE
  5
5EF0A85C
330
5EF092C1
100
AcDbEntity
  8
JISSEN
100
AcDbLine
 10
242.46684199021
 20
373.8063759878115
 30
0.0
 11
242.46684199021
 21
353.8063759878115
 31
0.0
  0
LINE
  5
5EF0A85D
330
5EF092C1
100
AcDbEntity
  8
JISSEN
100
AcDbLine
 10
242.46684199021
 20
353.8063759878115
 30
0.0
 11
242.46684199021
 21
374.8063759878115
 31
0.0
  0
ARC
  5
5EF0A85E
330
5EF092C1
100
AcDbEntity
  8
JISSEN
100
AcDbCircle
 10
243.46684199021
 20
353.8063759878115
 30
0.0
 40
1.0
100
AcDbArc
 50
180.0
 51
270.0
  0
ARC
  5
5EF0A85F
330
5EF092C1
100
AcDbEntity
  8
JISSEN
100
AcDbCircle
 10
243.46684199021
 20
353.8063759878115
 30
0.0
 40
1.0
100
AcDbArc
 50
180.0
 51
270.0
  0
ARC
  5
5EF0A860
330
5EF092C1
100
AcDbEntity
  8
JISSEN
100
AcDbCircle
 10
243.46684199021
 20
353.8063759878115
 30
0.0
 40
1.0
100
AcDbArc
 50
180.0
 51
270.0
  0
ARC
  5
5EF0A861
330
5EF092C1
100
AcDbEntity
  8
JISSEN
100
AcDbCircle
 10
243.46684199021
 20
353.8063759878115
 30
0.0
 40
1.0
100
AcDbArc
 50
180.0
 51
270.0
  0
ARC
  5
5EF0A862
330
5EF092C1
100
AcDbEntity
  8
JISSEN
100
AcDbCircle
 10
243.46684199021
 20
373.8063759878115
 30
0.0
 40
1.0
100
AcDbArc
 50
90.0
 51
180.0
  0
ARC
  5
5EF0A863
330
5EF092C1
100
AcDbEntity
  8
JISSEN
100
AcDbCircle
 10
308.9668419902095
 20
291.8063759878114
 30
0.0
 40
4.000000000000369
100
AcDbArc
 50
0.0
 51
180.0000000000065
  0
ARC
  5
5EF0A864
330
5EF092C1
100
AcDbEntity
  8
JISSEN
100
AcDbCircle
 10
308.9668419902095
 20
291.8063759878114
 30
0.0
 40
6.000000000000369
100
AcDbArc
 50
0.0
 51
180.0
  0
LINE
  5
5EF0A865
330
5EF092C1
100
AcDbEntity
  8
JISSEN
100
AcDbLine
 10
299.4668419902099
 20
278.8063759878151
 30
0.0
 11
299.4668419902099
 21
296.8063759878079
 31
0.0
  0
LINE
  5
5EF0A866
330
5EF092C1
100
AcDbEntity
  8
JISSEN
100
AcDbLine
 10
297.46684199021
 20
296.8063759878079
 30
0.0
 11
297.46684199021
 21
278.8063759878151
 31
0.0
  0
LINE
  5
5EF0A867
330
5EF092C1
100
AcDbEntity
  8
JISSEN
100
AcDbLine
 10
321.2168419902095
 20
296.8063759878079
 30
0.0
 11
321.2168419902095
 21
278.8063759878151
 31
0.0
  0
LINE
  5
5EF0A868
330
5EF092C1
100
AcDbEntity
  8
JISSEN
100
AcDbLine
 10
323.2168419902095
 20
288.8063759878114
 30
0.0
 11
323.2168419902095
 21
296.8063759878079
 31
0.0
  0
LINE
  5
5EF0A869
330
5EF092C1
100
AcDbEntity
  8
JISSEN
100
AcDbLine
 10
294.96684199021
 20
262.8063759878115
 30
0.0
 11
294.96684199021
 21
222.8063759878115
 31
0.0
  0
LINE
  5
5EF0A86A
330
5EF092C1
100
AcDbEntity
  8
JISSEN
100
AcDbLine
 10
292.96684199021
 20
263.8063759878115
 30
0.0
 11
292.96684199021
 21
221.8063759878115
 31
0.0
  0
CIRCLE
  5
5EF0A86B
330
5EF092C1
100
AcDbEntity
  8
JISSEN
100
AcDbCircle
 10
297.46684199021
 20
225.3063759878115
 30
0.0
 40
0.8
  0
ARC
  5
5EF0A86C
330
5EF092C1
100
AcDbEntity
  8
JISSEN
100
AcDbCircle
 10
293.96684199021
 20
221.8063759878115
 30
0.0
 40
1.0
100
AcDbArc
 50
180.0
 51
270.0
  0
ARC
  5
5EF0A86D
330
5EF092C1
100
AcDbEntity
  8
JISSEN
100
AcDbCircle
 10
308.9668419902095
 20
283.8063759878106
 30
0.0
 40
6.000000000000369
100
AcDbArc
 50
180.0
 51
0.0
  0
ARC
  5
5EF0A86E
330
5EF092C1
100
AcDbEntity
  8
JISSEN
100
AcDbCircle
 10
308.9668419902095
 20
283.8063759878106
 30
0.0
 40
4.000000000000369
100
AcDbArc
 50
180.0000000000065
 51
0.0
  0
ARC
  5
5EF0A86F
330
5EF092C1
100
AcDbEntity
  8
JISSEN
100
AcDbCircle
 10
293.96684199021
 20
263.8063759878115
 30
0.0
 40
1.0
100
AcDbArc
 50
90.0
 51
180.0
  0
CIRCLE
  5
5EF0A870
330
5EF092C1
100
AcDbEntity
  8
JISSEN
100
AcDbCircle
 10
297.46684199021
 20
260.3063759878115
 30
0.0
 40
0.8
  0
ARC
  5
5EF0A871
330
5EF092C1
100
AcDbEntity
  8
JISSEN
100
AcDbCircle
 10
298.46684199021
 20
278.8063759878151
 30
0.0
 40
1.0
100
AcDbArc
 50
180.0
 51
0.0
  0
LINE
  5
5EF0A872
330
5EF092C1
100
AcDbEntity
  8
JISSEN
100
AcDbLine
 10
302.9668419902095
 20
291.8063759878114
 30
0.0
 11
302.9668419902095
 21
283.8063759878106
 31
0.0
  0
LINE
  5
5EF0A873
330
5EF092C1
100
AcDbEntity
  8
JISSEN
100
AcDbLine
 10
304.96684199021
 20
283.8063759878106
 30
0.0
 11
304.9668419902093
 21
291.8063759878114
 31
0.0
  0
LINE
  5
5EF0A874
330
5EF092C1
100
AcDbEntity
  8
JISSEN
100
AcDbLine
 10
312.966841990209
 20
283.8063759878106
 30
0.0
 11
312.96684199021
 21
291.8063759878114
 31
0.0
  0
LINE
  5
5EF0A875
330
5EF092C1
100
AcDbEntity
  8
JISSEN
100
AcDbLine
 10
314.9668419902095
 20
291.8063759878114
 30
0.0
 11
314.9668419902095
 21
283.8063759878106
 31
0.0
  0
LINE
  5
5EF0A876
330
5EF092C1
100
AcDbEntity
  8
JISSEN
100
AcDbLine
 10
323.2168419902095
 20
285.9063759878114
 30
0.0
 11
325.0263657997334
 21
287.8063759878115
 31
0.0
  0
ARC
  5
5EF0A877
330
5EF092C1
100
AcDbEntity
  8
JISSEN
100
AcDbCircle
 10
322.2168419902095
 20
278.8063759878151
 30
0.0
 40
1.0
100
AcDbArc
 50
180.0
 51
0.0
  0
LINE
  5
5EF0A878
330
5EF092C1
100
AcDbEntity
  8
JISSEN
100
AcDbLine
 10
323.2168419902095
 20
278.8063759878151
 30
0.0
 11
323.2168419902095
 21
285.9063759878114
 31
0.0
  0
LINE
  5
5EF0A879
330
5EF092C1
100
AcDbEntity
  8
JISSEN
100
AcDbLine
 10
264.8410907211978
 20
347.8482650538129
 30
0.0
 11
266.7845350263565
 21
336.8264446985267
 31
0.0
  0
LINE
  5
5EF0A87A
330
5EF092C1
100
AcDbEntity
  8
JISSEN
100
AcDbLine
 10
266.96684199021
 20
310.1220462423551
 30
0.0
 11
266.96684199021
 21
334.7426665665235
 31
0.0
  0
ARC
  5
5EF0A87B
330
5EF092C1
100
AcDbEntity
  8
JISSEN
100
AcDbCircle
 10
260.96684199021
 20
310.1220462423551
 30
0.0
 40
6.0
100
AcDbArc
 50
299.7984984616967
 51
0.0
  0
ARC
  5
5EF0A87C
330
5EF092C1
100
AcDbEntity
  8
JISSEN
100
AcDbCircle
 10
254.96684199021
 20
334.7426665665235
 30
0.0
 40
12.0
100
AcDbArc
 50
0.0
 51
9.999999999997477
  0
ARC
  5
5EF0A87D
330
5EF092C1
100
AcDbEntity
  8
JISSEN
100
AcDbCircle
 10
258.9322442031245
 20
346.8063759878114
 30
0.0
 40
6.0
100
AcDbArc
 50
9.999999999997477
 51
90.0
  0
ARC
  5
5EF0A87E
330
5EF092C1
100
AcDbEntity
  8
JISSEN
100
AcDbCircle
 10
298.46684199021
 20
296.8063759878079
 30
0.0
 40
1.0
100
AcDbArc
 50
0.0
 51
180.0
  0
ARC
  5
5EF0A87F
330
5EF092C1
100
AcDbEntity
  8
JISSEN
100
AcDbCircle
 10
322.2168419902095
 20
296.8063759878079
 30
0.0
 40
1.0
100
AcDbArc
 50
0.0
 51
180.0
  0
LINE
  5
5EF0A880
330
5EF092C1
100
AcDbEntity
  8
ITTEN
 48
3.0
100
AcDbLine
 10
477.4668419902099
 20
167.8063759878116
 30
0.0
 11
445.46684199021
 21
167.8063759878116
 31
0.0
  0
LINE
  5
5EF0A881
330
5EF092C1
100
AcDbEntity
  8
ITTEN
 48
3.0
100
AcDbLine
 10
477.4668419902099
 20
317.8063759878114
 30
0.0
 11
445.46684199021
 21
317.8063759878114
 31
0.0
  0
LINE
  5
5EF0A887
330
5EF092C1
100
AcDbEntity
  8
JISSEN
100
AcDbLine
 10
471.46684199021
 20
150.3063759878115
 30
0.0
 11
451.46684199021
 21
150.3063759878115
 31
0.0
  0
LINE
  5
5EF0A888
330
5EF092C1
100
AcDbEntity
  8
JISSEN
100
AcDbLine
 10
451.46684199021
 20
335.3063759878115
 30
0.0
 11
471.46684199021
 21
335.3063759878115
 31
0.0
  0
LINE
  5
5EF0A889
330
5EF092C1
100
AcDbEntity
  8
JISSEN
100
AcDbLine
 10
450.46684199021
 20
151.3063759878115
 30
0.0
 11
450.46684199021
 21
334.3063759878115
 31
0.0
  0
ARC
  5
5EF0A88B
330
5EF092C1
100
AcDbEntity
  8
JISSEN
100
AcDbCircle
 10
342.46684199021
 20
317.8063759878115
 30
0.0
 40
158.0
100
AcDbArc
 50
270.0
 51
308.1324561133544
  0
LINE
  5
5EF0A88F
330
5EF092C1
100
AcDbEntity
  8
SAISEN
100
AcDbLine
 10
342.46684199021
 20
138.1963759878114
 30
0.0
 11
355.9018708327544
 21
126.1963759878113
 31
0.0
  0
LINE
  5
5EF0A890
330
5EF092C1
100
AcDbEntity
  8
SAISEN
100
AcDbLine
 10
355.9018708327544
 20
138.1963759878114
 30
0.0
 11
342.46684199021
 21
126.1963759878113
 31
0.0
  0
LINE
  5
5EF0A891
330
5EF092C1
100
AcDbEntity
  8
JISSEN
100
AcDbLine
 10
355.9018708327544
 20
126.1963759878113
 30
0.0
 11
329.0318131476656
 21
126.1963759878113
 31
0.0
  0
LINE
  5
5EF0A892
330
5EF092C1
100
AcDbEntity
  8
JISSEN
100
AcDbLine
 10
329.0318131476656
 20
126.1963759878113
 30
0.0
 11
329.0318131476656
 21
138.1963759878114
 31
0.0
  0
LINE
  5
5EF0A893
330
5EF092C1
100
AcDbEntity
  8
SAISEN
100
AcDbLine
 10
329.0318131476656
 20
138.1963759878114
 30
0.0
 11
342.46684199021
 21
126.1963759878113
 31
0.0
  0
LINE
  5
5EF0A894
330
5EF092C1
100
AcDbEntity
  8
SAISEN
100
AcDbLine
 10
342.46684199021
 20
138.1963759878114
 30
0.0
 11
329.0318131476656
 21
126.1963759878113
 31
0.0
  0
LINE
  5
5EF0A895
330
5EF092C1
100
AcDbEntity
  8
JISSEN
100
AcDbLine
 10
355.9018708327544
 20
138.1963759878114
 30
0.0
 11
355.9018708327544
 21
126.1963759878113
 31
0.0
  0
LINE
  5
5EF0A896
330
5EF092C1
100
AcDbEntity
  8
JISSEN
100
AcDbLine
 10
359.3916694981883
 20
138.1963759878114
 30
0.0
 11
359.0913419902117
 21
147.8063759878115
 31
0.0
  0
LINE
  5
5EF0A897
330
5EF092C1
100
AcDbEntity
  8
JISSEN
100
AcDbLine
 10
367.96684199021
 20
150.8063759878115
 30
0.0
 11
367.96684199021
 21
156.8599563320764
 31
0.0
  0
ARC
  5
5EF0A898
330
5EF092C1
100
AcDbEntity
  8
JISSEN
100
AcDbCircle
 10
364.96684199021
 20
150.8063759878115
 30
0.0
 40
3.0
100
AcDbArc
 50
270.0
 51
0.0
  0
ARC
  5
5EF0A899
330
5EF092C1
100
AcDbEntity
  8
JISSEN
100
AcDbCircle
 10
373.96684199021
 20
156.8599563320764
 30
0.0
 40
6.0
100
AcDbArc
 50
101.0737968567693
 51
180.0
  0
ARC
  5
5EF0A89C
330
5EF092C1
100
AcDbEntity
  8
JISSEN
100
AcDbCircle
 10
451.46684199021
 20
151.3063759878115
 30
0.0
 40
1.0
100
AcDbArc
 50
180.0
 51
270.0
  0
ARC
  5
5EF0A89D
330
5EF092C1
100
AcDbEntity
  8
JISSEN
100
AcDbCircle
 10
443.7338158760726
 20
188.8063759878115
 30
0.0
 40
6.0
100
AcDbArc
 50
42.12328441772275
 51
128.1324561133544
  0
ARC
  5
5EF0A89E
330
5EF092C1
100
AcDbEntity
  8
JISSEN
100
AcDbCircle
 10
444.4668419902099
 20
187.9957823800643
 30
0.0
 40
6.0
100
AcDbArc
 50
0.0
 51
42.12328441772275
  0
LINE
  5
5EF0A89F
330
5EF092C1
100
AcDbEntity
  8
JISSEN
100
AcDbLine
 10
448.9170619414394
 20
192.0201509498747
 30
0.0
 11
448.1840358273021
 21
192.8307445576218
 31
0.0
  0
LINE
  5
5EF0A8A4
330
5EF092C1
100
AcDbEntity
  8
JISSEN
100
AcDbLine
 10
350.466841990215
 20
286.8063759878115
 30
0.0
 11
340.4668419902113
 21
286.8063759878115
 31
0.0
  0
LINE
  5
5EF0A8A5
330
5EF092C1
100
AcDbEntity
  8
JISSEN
100
AcDbLine
 10
340.4668419902113
 20
288.8063759878115
 30
0.0
 11
350.466841990215
 21
288.8063759878115
 31
0.0
  0
ARC
  5
5EF0A8A6
330
5EF092C1
100
AcDbEntity
  8
JISSEN
100
AcDbCircle
 10
332.2168419902095
 20
278.8063759878115
 30
0.0
 40
1.0
100
AcDbArc
 50
213.6428197800792
 51
33.64281978007925
  0
ARC
  5
5EF0A8A7
330
5EF092C1
100
AcDbEntity
  8
JISSEN
100
AcDbCircle
 10
340.4668419902113
 20
287.8063759878115
 30
0.0
 40
1.0
100
AcDbArc
 50
90.0
 51
270.0
  0
ARC
  5
5EF0A8A8
330
5EF092C1
100
AcDbEntity
  8
JISSEN
100
AcDbCircle
 10
350.466841990215
 20
287.8063759878115
 30
0.0
 40
1.0
100
AcDbArc
 50
270.0
 51
90.0
  0
LINE
  5
5EF0A8A9
330
5EF092C1
100
AcDbEntity
  8
JISSEN
100
AcDbLine
 10
389.96684199021
 20
222.8063759878115
 30
0.0
 11
389.96684199021
 21
262.8063759878115
 31
0.0
  0
LINE
  5
5EF0A8AA
330
5EF092C1
100
AcDbEntity
  8
JISSEN
100
AcDbLine
 10
391.96684199021
 20
221.8063759878115
 30
0.0
 11
391.96684199021
 21
263.8063759878115
 31
0.0
  0
CIRCLE
  5
5EF0A8AB
330
5EF092C1
100
AcDbEntity
  8
JISSEN
100
AcDbCircle
 10
387.46684199021
 20
225.3063759878115
 30
0.0
 40
0.8
  0
ARC
  5
5EF0A8AC
330
5EF092C1
100
AcDbEntity
  8
JISSEN
100
AcDbCircle
 10
390.96684199021
 20
221.8063759878115
 30
0.0
 40
1.0
100
AcDbArc
 50
270.0
 51
0.0
  0
CIRCLE
  5
5EF0A8AD
330
5EF092C1
100
AcDbEntity
  8
JISSEN
100
AcDbCircle
 10
387.46684199021
 20
260.3063759878115
 30
0.0
 40
0.8
  0
ARC
  5
5EF0A8AE
330
5EF092C1
100
AcDbEntity
  8
JISSEN
100
AcDbCircle
 10
390.96684199021
 20
263.8063759878115
 30
0.0
 40
1.0
100
AcDbArc
 50
0.0
 51
90.0
  0
ARC
  5
5EF0A8B0
330
5EF092C1
100
AcDbEntity
  8
JISSEN
100
AcDbCircle
 10
332.2168419902095
 20
296.8063759878115
 30
0.0
 40
1.0
100
AcDbArc
 50
316.3971810272944
 51
136.3971810272944
  0
LINE
  5
5EF0A8B1
330
5EF092C1
100
AcDbEntity
  8
0
100
AcDbLine
 10
331.46684199021
 20
374.8063759878115
 30
0.0
 11
331.46684199021
 21
352.8063759878115
 31
0.0
  0
LINE
  5
5EF0A8B2
330
5EF092C1
100
AcDbEntity
  8
0
100
AcDbLine
 10
353.46684199021
 20
352.8063759878115
 30
0.0
 11
353.46684199021
 21
374.8063759878115
 31
0.0
  0
ARC
  5
5EF0A8B5
330
5EF092C1
100
AcDbEntity
  8
JISSEN
100
AcDbCircle
 10
342.46684199021
 20
167.8063759878115
 30
0.0
 40
158.0
100
AcDbArc
 50
51.86754388664557
 51
60.20150153830329
  0
ARC
  5
5EF0A8B6
330
5EF092C1
100
AcDbEntity
  8
JISSEN
100
AcDbCircle
 10
444.4668419902099
 20
297.6169695955586
 30
0.0
 40
6.0
100
AcDbArc
 50
317.8767155822772
 51
0.0
  0
ARC
  5
5EF0A8B7
330
5EF092C1
100
AcDbEntity
  8
JISSEN
100
AcDbCircle
 10
443.7338158760731
 20
296.8063759878115
 30
0.0
 40
6.0
100
AcDbArc
 50
231.8675438866455
 51
317.8767155822772
  0
LINE
  5
5EF0A8B8
330
5EF092C1
100
AcDbEntity
  8
JISSEN
100
AcDbLine
 10
448.9170619414394
 20
293.5926010257481
 30
0.0
 11
448.1840358273021
 21
292.782007418001
 31
0.0
  0
LINE
  5
5EF0A8B9
330
5EF092C1
100
AcDbEntity
  8
JISSEN
100
AcDbLine
 10
420.0925932592221
 20
347.8482650538129
 30
0.0
 11
418.1491489540635
 21
336.8264446985267
 31
0.0
  0
LINE
  5
5EF0A8BA
330
5EF092C1
100
AcDbEntity
  8
JISSEN
100
AcDbLine
 10
417.96684199021
 20
334.7426665665235
 30
0.0
 11
417.96684199021
 21
310.1220462423551
 31
0.0
  0
ARC
  5
5EF0A8BB
330
5EF092C1
100
AcDbEntity
  8
JISSEN
100
AcDbCircle
 10
423.96684199021
 20
310.1220462423551
 30
0.0
 40
6.0
100
AcDbArc
 50
180.0
 51
240.2015015383032
  0
ARC
  5
5EF0A8BC
330
5EF092C1
100
AcDbEntity
  8
JISSEN
100
AcDbCircle
 10
429.96684199021
 20
334.7426665665235
 30
0.0
 40
12.0
100
AcDbArc
 50
170.0000000000025
 51
180.0
  0
ARC
  5
5EF0A8BD
330
5EF092C1
100
AcDbEntity
  8
JISSEN
100
AcDbCircle
 10
426.0014397772954
 20
346.8063759878114
 30
0.0
 40
6.0
100
AcDbArc
 50
90.0
 51
170.0000000000025
  0
ARC
  5
5EF0A8BE
330
5EF092C1
100
AcDbEntity
  8
JISSEN
100
AcDbCircle
 10
451.46684199021
 20
334.3063759878115
 30
0.0
 40
1.0
100
AcDbArc
 50
90.0
 51
180.0
  0
LINE
  5
5EF0A8C1
330
5EF092C1
100
AcDbEntity
  8
JISSEN
100
AcDbLine
 10
442.46684199021
 20
373.8063759878115
 30
0.0
 11
442.46684199021
 21
353.8063759878115
 31
0.0
  0
ARC
  5
5EF0A8C2
330
5EF092C1
100
AcDbEntity
  8
JISSEN
100
AcDbCircle
 10
441.46684199021
 20
353.8063759878115
 30
0.0
 40
1.0
100
AcDbArc
 50
270.0
 51
0.0
  0
ARC
  5
5EF0A8C3
330
5EF092C1
100
AcDbEntity
  8
JISSEN
100
AcDbCircle
 10
441.46684199021
 20
353.8063759878115
 30
0.0
 40
1.0
100
AcDbArc
 50
270.0
 51
0.0
  0
ARC
  5
5EF0A8C4
330
5EF092C1
100
AcDbEntity
  8
JISSEN
100
AcDbCircle
 10
441.46684199021
 20
373.8063759878115
 30
0.0
 40
1.0
100
AcDbArc
 50
0.0
 51
90.0
  0
LINE
  5
5EF0A8C6
330
5EF092C1
100
AcDbEntity
  8
JISSEN
100
AcDbLine
 10
472.46684199021
 20
334.3063759878115
 30
0.0
 11
472.46684199021
 21
151.3063759878115
 31
0.0
  0
ARC
  5
5EF0A8C9
330
5EF092C1
100
AcDbEntity
  8
JISSEN
100
AcDbCircle
 10
471.46684199021
 20
151.3063759878115
 30
0.0
 40
1.0
100
AcDbArc
 50
270.0
 51
0.0
  0
ARC
  5
5EF0A8CF
330
5EF092C1
100
AcDbEntity
  8
JISSEN
100
AcDbCircle
 10
471.46684199021
 20
334.3063759878115
 30
0.0
 40
1.0
100
AcDbArc
 50
0.0
 51
90.0
  0
LINE
  5
5EF0A8D9
330
5EF092C1
100
AcDbEntity
  8
JISSEN
100
AcDbLine
 10
326.46684199021
 20
424.8063759878115
 30
0.0
 11
358.46684199021
 21
424.8063759878115
 31
0.0
  0
LINE
  5
5EF0A8DA
330
5EF092C1
100
AcDbEntity
  8
JISSEN
100
AcDbLine
 10
440.46684199021
 20
396.8063759878115
 30
0.0
 11
244.46684199021
 21
396.8063759878115
 31
0.0
  0
ARC
  5
5EF0A8DD
330
5EF092C1
100
AcDbEntity
  8
JISSEN
100
AcDbCircle
 10
259.96684199021
 20
391.4852024141038
 30
0.0
 40
18.32117357370777
100
AcDbArc
 50
67.78068982943634
 51
112.2193101705636
  0
LINE
  5
5EF0A8DE
330
5EF092C1
100
AcDbEntity
  8
JISSEN
100
AcDbLine
 10
271.46684199021
 20
409.8063759878114
 30
0.0
 11
248.4668419902136
 21
409.8063759878114
 31
0.0
  0
LINE
  5
5EF0A8E1
330
5EF092C1
100
AcDbEntity
  8
JISSEN
100
AcDbLine
 10
248.4668419902136
 20
409.8063759878114
 30
0.0
 11
246.1104355296588
 21
408.4459040834903
 31
0.0
  0
ARC
  5
5EF0A8E3
330
5EF092C1
100
AcDbEntity
  8
JISSEN
100
AcDbCircle
 10
244.46684199021
 20
394.8063759878115
 30
0.0
 40
2.0
100
AcDbArc
 50
90.0
 51
180.0
  0
LINE
  5
5EF0A8E4
330
5EF092C1
100
AcDbEntity
  8
JISSEN
100
AcDbLine
 10
246.1104355296588
 20
396.8063759878115
 30
0.0
 11
246.1104355296588
 21
408.4459040834903
 31
0.0
  0
ARC
  5
5EF0A8E5
330
5EF092C1
100
AcDbEntity
  8
JISSEN
100
AcDbCircle
 10
249.5745371447967
 20
404.715905630264
 30
0.0
 40
5.090470357547469
100
AcDbArc
 50
47.11671159485535
 51
107.1167115948791
  0
LINE
  5
5EF0A8E6
330
5EF092C1
100
AcDbEntity
  8
JISSEN
100
AcDbLine
 10
253.0386387599346
 20
396.8063759878115
 30
0.0
 11
253.0386387599346
 21
408.4459040834901
 31
0.0
  0
LINE
  5
5EF0A8EC
330
5EF092C1
100
AcDbEntity
  8
JISSEN
100
AcDbLine
 10
266.8950452204853
 20
408.44590408349
 30
0.0
 11
266.8950452204853
 21
396.8063759878115
 31
0.0
  0
ARC
  5
5EF0A8ED
330
5EF092C1
100
AcDbEntity
  8
JISSEN
100
AcDbCircle
 10
270.3591468356232
 20
404.715905630264
 30
0.0
 40
5.090470357547469
100
AcDbArc
 50
72.88328840512088
 51
132.8832884051446
  0
LINE
  5
5EF0A8EE
330
5EF092C1
100
AcDbEntity
  8
JISSEN
100
AcDbLine
 10
271.4668419902063
 20
409.8063759878114
 30
0.0
 11
273.8232484507611
 21
408.4459040834903
 31
0.0
  0
LINE
  5
5EF0A8EF
330
5EF092C1
100
AcDbEntity
  8
JISSEN
100
AcDbLine
 10
273.8232484507611
 20
408.4459040834903
 30
0.0
 11
273.8232484507611
 21
396.8063759878115
 31
0.0
  0
LINE
  5
5EF0A8F0
330
5EF092C1
100
AcDbEntity
  8
JISSEN
100
AcDbLine
 10
324.46684199021
 20
422.8063759878115
 30
0.0
 11
324.46684199021
 21
398.8063759878115
 31
0.0
  0
ARC
  5
5EF0A8F1
330
5EF092C1
100
AcDbEntity
  8
JISSEN
100
AcDbCircle
 10
322.46684199021
 20
398.8063759878115
 30
0.0
 40
2.0
100
AcDbArc
 50
270.0
 51
0.0
  0
ARC
  5
5EF0A8F2
330
5EF092C1
100
AcDbEntity
  8
JISSEN
100
AcDbCircle
 10
326.46684199021
 20
422.8063759878115
 30
0.0
 40
2.0
100
AcDbArc
 50
90.0
 51
180.0
  0
LINE
  5
5EF0A8F5
330
5EF092C1
100
AcDbEntity
  8
JISSEN
100
AcDbLine
 10
385.46684199021
 20
407.8063759878115
 30
0.0
 11
411.1104355296588
 21
407.8063759878115
 31
0.0
  0
LINE
  5
5EF0A8F6
330
5EF092C1
100
AcDbEntity
  8
SCALE
 48
2.0
100
AcDbLine
 10
334.96684199021
 20
429.9403505840277
 30
0.0
 11
334.96684199021
 21
424.8063759878115
 31
0.0
  0
LINE
  5
5EF0A8F7
330
5EF092C1
100
AcDbEntity
  8
SCALE
 48
2.0
100
AcDbLine
 10
349.96684199021
 20
429.9403505840278
 30
0.0
 11
349.96684199021
 21
424.8063759878115
 31
0.0
  0
LINE
  5
5EF0A8F8
330
5EF092C1
100
AcDbEntity
  8
JISSEN
100
AcDbLine
 10
353.96684199021
 20
409.8063759878114
 30
0.0
 11
330.9668419902136
 21
409.8063759878114
 31
0.0
  0
ARC
  5
5EF0A8F9
330
5EF092C1
100
AcDbEntity
  8
JISSEN
100
AcDbCircle
 10
342.46684199021
 20
391.4852024141038
 30
0.0
 40
18.32117357370777
100
AcDbArc
 50
67.78068982943634
 51
112.2193101705636
  0
LINE
  5
5EF0A8FA
330
5EF092C1
100
AcDbEntity
  8
JISSEN
100
AcDbLine
 10
330.9668419902136
 20
409.8063759878114
 30
0.0
 11
328.6104355296588
 21
408.4459040834903
 31
0.0
  0
LINE
  5
5EF0A8FB
330
5EF092C1
100
AcDbEntity
  8
JISSEN
100
AcDbLine
 10
328.6104355296588
 20
396.8063759878115
 30
0.0
 11
328.6104355296588
 21
408.4459040834903
 31
0.0
  0
LINE
  5
5EF0A8FC
330
5EF092C1
100
AcDbEntity
  8
JISSEN
100
AcDbLine
 10
335.5386387599346
 20
396.8063759878115
 30
0.0
 11
335.5386387599346
 21
408.4459040834901
 31
0.0
  0
ARC
  5
5EF0A8FD
330
5EF092C1
100
AcDbEntity
  8
JISSEN
100
AcDbCircle
 10
332.0745371447967
 20
404.715905630264
 30
0.0
 40
5.090470357547469
100
AcDbArc
 50
47.11671159485535
 51
107.1167115948791
  0
LINE
  5
5EF0A8FE
330
5EF092C1
100
AcDbEntity
  8
JISSEN
100
AcDbLine
 10
360.46684199021
 20
422.8063759878115
 30
0.0
 11
360.46684199021
 21
398.8063759878115
 31
0.0
  0
ARC
  5
5EF0A8FF
330
5EF092C1
100
AcDbEntity
  8
JISSEN
100
AcDbCircle
 10
352.8591468356232
 20
404.715905630264
 30
0.0
 40
5.090470357547469
100
AcDbArc
 50
72.88328840512088
 51
132.8832884051446
  0
LINE
  5
5EF0A900
330
5EF092C1
100
AcDbEntity
  8
JISSEN
100
AcDbLine
 10
349.3950452204853
 20
408.44590408349
 30
0.0
 11
349.3950452204853
 21
396.8063759878115
 31
0.0
  0
LINE
  5
5EF0A901
330
5EF092C1
100
AcDbEntity
  8
JISSEN
100
AcDbLine
 10
356.3232484507611
 20
408.4459040834903
 30
0.0
 11
356.3232484507611
 21
396.8063759878115
 31
0.0
  0
LINE
  5
5EF0A902
330
5EF092C1
100
AcDbEntity
  8
JISSEN
100
AcDbLine
 10
353.9668419902064
 20
409.8063759878114
 30
0.0
 11
356.3232484507611
 21
408.4459040834903
 31
0.0
  0
ARC
  5
5EF0A903
330
5EF092C1
100
AcDbEntity
  8
JISSEN
100
AcDbCircle
 10
362.46684199021
 20
398.8063759878115
 30
0.0
 40
2.0
100
AcDbArc
 50
180.0
 51
270.0
  0
LINE
  5
5EF0A904
330
5EF092C1
100
AcDbEntity
  8
JISSEN
100
AcDbLine
 10
349.96684199021
 20
424.8063759878115
 30
0.0
 11
358.46684199021
 21
424.8063759878115
 31
0.0
  0
ARC
  5
5EF0A905
330
5EF092C1
100
AcDbEntity
  8
JISSEN
100
AcDbCircle
 10
358.46684199021
 20
422.8063759878115
 30
0.0
 40
2.0
100
AcDbArc
 50
0.0
 51
90.0
  0
LINE
  5
5EF0A906
330
5EF092C1
100
AcDbEntity
  8
SCALE
 48
2.0
100
AcDbLine
 10
343.2940671082569
 20
446.8063759878114
 30
0.0
 11
349.4668419902104
 21
430.8063759878113
 31
0.0
  0
LINE
  5
5EF0A907
330
5EF092C1
100
AcDbEntity
  8
SCALE
 48
2.0
100
AcDbLine
 10
343.2940671082569
 20
430.8063759878113
 30
0.0
 11
349.4668419902104
 21
446.8063759878114
 31
0.0
  0
LINE
  5
5EF0A908
330
5EF092C1
100
AcDbEntity
  8
SCALE
 48
2.0
100
AcDbLine
 10
335.4668419902095
 20
430.8063759878113
 30
0.0
 11
349.4668419902104
 21
430.8063759878113
 31
0.0
  0
LINE
  5
5EF0A909
330
5EF092C1
100
AcDbEntity
  8
SCALE
 48
2.0
100
AcDbLine
 10
335.4668419902095
 20
446.8063759878114
 30
0.0
 11
349.4668419902104
 21
446.8063759878114
 31
0.0
  0
LINE
  5
5EF0A90A
330
5EF092C1
100
AcDbEntity
  8
SCALE
 48
2.0
100
AcDbLine
 10
349.96684199021
 20
429.9403505840278
 30
0.0
 11
334.96684199021
 21
429.9403505840277
 31
0.0
  0
LINE
  5
5EF0A90B
330
5EF092C1
100
AcDbEntity
  8
SCALE
 48
2.0
100
AcDbLine
 10
335.4668419902095
 20
430.8063759878113
 30
0.0
 11
349.4668419902104
 21
430.8063759878113
 31
0.0
  0
LINE
  5
5EF0A90D
330
5EF092C1
100
AcDbEntity
  8
SCALE
 48
2.0
100
AcDbLine
 10
335.4668419902095
 20
430.8063759878113
 30
0.0
 11
341.6396168721653
 21
446.8063759878114
 31
0.0
  0
LINE
  5
5EF0A90E
330
5EF092C1
100
AcDbEntity
  8
SCALE
 48
2.0
100
AcDbLine
 10
335.4668419902095
 20
446.8063759878114
 30
0.0
 11
341.6396168721653
 21
430.8063759878113
 31
0.0
  0
LINE
  5
5EF0A90F
330
5EF092C1
100
AcDbEntity
  8
SCALE
 48
2.0
100
AcDbLine
 10
335.4668419902095
 20
430.8063759878113
 30
0.0
 11
334.96684199021
 21
429.9403505840277
 31
0.0
  0
LINE
  5
5EF0A910
330
5EF092C1
100
AcDbEntity
  8
SCALE
 48
2.0
100
AcDbLine
 10
335.4668419902095
 20
430.8063759878113
 30
0.0
 11
335.4668419902095
 21
446.8063759878114
 31
0.0
  0
LINE
  5
5EF0A911
330
5EF092C1
100
AcDbEntity
  8
SCALE
 48
2.0
100
AcDbLine
 10
343.2940671082569
 20
430.8063759878113
 30
0.0
 11
343.2940671082569
 21
446.8063759878114
 31
0.0
  0
LINE
  5
5EF0A912
330
5EF092C1
100
AcDbEntity
  8
SCALE
 48
2.0
100
AcDbLine
 10
341.6396168721653
 20
430.8063759878113
 30
0.0
 11
341.6396168721653
 21
446.8063759878114
 31
0.0
  0
LINE
  5
5EF0A913
330
5EF092C1
100
AcDbEntity
  8
SCALE
 48
2.0
100
AcDbLine
 10
349.4668419902104
 20
430.8063759878113
 30
0.0
 11
349.96684199021
 21
429.9403505840278
 31
0.0
  0
LINE
  5
5EF0A914
330
5EF092C1
100
AcDbEntity
  8
SCALE
 48
2.0
100
AcDbLine
 10
349.4668419902104
 20
446.8063759878114
 30
0.0
 11
349.4668419902104
 21
430.8063759878113
 31
0.0
  0
ARC
  5
5EF0A915
330
5EF092C1
100
AcDbEntity
  8
JISSEN
100
AcDbCircle
 10
385.46684199021
 20
394.8063759878115
 30
0.0
 40
13.0
100
AcDbArc
 50
90.0
 51
164.5339900465814
  0
ARC
  5
5EF0A916
330
5EF092C1
100
AcDbEntity
  8
JISSEN
100
AcDbCircle
 10
371.0100096954088
 20
398.8063759878115
 30
0.0
 40
2.0
100
AcDbArc
 50
270.0
 51
344.5339900465814
  0
ARC
  5
5EF0A917
330
5EF092C1
100
AcDbEntity
  8
JISSEN
100
AcDbCircle
 10
435.3591468356232
 20
404.715905630264
 30
0.0
 40
5.090470357547469
100
AcDbArc
 50
72.88328840512088
 51
132.8832884051446
  0
LINE
  5
5EF0A918
330
5EF092C1
100
AcDbEntity
  8
JISSEN
100
AcDbLine
 10
413.46684199021
 20
409.8063759878114
 30
0.0
 11
436.4668419902064
 21
409.8063759878114
 31
0.0
  0
LINE
  5
5EF0A919
330
5EF092C1
100
AcDbEntity
  8
JISSEN
100
AcDbLine
 10
442.46684199021
 20
413.8063759878114
 30
0.0
 11
415.4668419902099
 21
413.8063759878114
 31
0.0
  0
ARC
  5
5EF0A91A
330
5EF092C1
100
AcDbEntity
  8
JISSEN
100
AcDbCircle
 10
414.5745371447967
 20
404.715905630264
 30
0.0
 40
5.090470357547469
100
AcDbArc
 50
47.11671159485535
 51
107.1167115948791
  0
ARC
  5
5EF0A91B
330
5EF092C1
100
AcDbEntity
  8
JISSEN
100
AcDbCircle
 10
415.4668419902099
 20
411.8063759878115
 30
0.0
 40
2.0
100
AcDbArc
 50
90.0
 51
180.0
  0
LINE
  5
5EF0A91C
330
5EF092C1
100
AcDbEntity
  8
JISSEN
100
AcDbLine
 10
411.1104355296588
 20
408.4459040834903
 30
0.0
 11
411.1104355296588
 21
396.8063759878115
 31
0.0
  0
LINE
  5
5EF0A91D
330
5EF092C1
100
AcDbEntity
  8
JISSEN
100
AcDbLine
 10
413.4668419902136
 20
409.8063759878114
 30
0.0
 11
411.1104355296588
 21
408.4459040834903
 31
0.0
  0
LINE
  5
5EF0A91E
330
5EF092C1
100
AcDbEntity
  8
JISSEN
100
AcDbLine
 10
413.46684199021
 20
411.8063759878115
 30
0.0
 11
413.46684199021
 21
409.8063759878094
 31
0.0
  0
ARC
  5
5EF0A91F
330
5EF092C1
100
AcDbEntity
  8
JISSEN
100
AcDbCircle
 10
411.46684199021
 20
409.8063759878114
 30
0.0
 40
2.0
100
AcDbArc
 50
359.9999999999413
 51
0.0
  0
ARC
  5
5EF0A920
330
5EF092C1
100
AcDbEntity
  8
JISSEN
100
AcDbCircle
 10
424.96684199021
 20
391.4852024141038
 30
0.0
 40
18.32117357370777
100
AcDbArc
 50
67.78068982943634
 51
112.2193101705636
  0
LINE
  5
5EF0A921
330
5EF092C1
100
AcDbEntity
  8
JISSEN
100
AcDbLine
 10
418.0386387599346
 20
408.44590408349
 30
0.0
 11
418.0386387599346
 21
396.8063759878115
 31
0.0
  0
LINE
  5
5EF0A922
330
5EF092C1
100
AcDbEntity
  8
JISSEN
100
AcDbLine
 10
431.8950452204854
 20
396.8063759878115
 30
0.0
 11
431.8950452204854
 21
408.4459040834901
 31
0.0
  0
ARC
  5
5EF0A923
330
5EF092C1
100
AcDbEntity
  8
JISSEN
100
AcDbCircle
 10
440.46684199021
 20
394.8063759878115
 30
0.0
 40
2.0
100
AcDbArc
 50
0.0
 51
90.0
  0
LINE
  5
5EF0A924
330
5EF092C1
100
AcDbEntity
  8
JISSEN
100
AcDbLine
 10
436.4668419902064
 20
409.8063759878114
 30
0.0
 11
438.8232484507612
 21
408.4459040834903
 31
0.0
  0
LINE
  5
5EF0A925
330
5EF092C1
100
AcDbEntity
  8
JISSEN
100
AcDbLine
 10
438.8232484507612
 20
396.8063759878115
 30
0.0
 11
438.8232484507612
 21
408.4459040834903
 31
0.0
  0
CIRCLE
  5
5EF0A92F
330
5EF092C1
100
AcDbEntity
  8
SAISEN
100
AcDbCircle
 10
872.9087271357443
 20
394.8063759878115
 30
0.0
 40
10.47749999999985
  0
CIRCLE
  5
5EF0A930
330
5EF092C1
100
AcDbEntity
  8
SCALE
100
AcDbCircle
 10
872.9087271357443
 20
394.8063759878115
 30
0.0
 40
9.315499999999929
  0
LINE
  5
5EF0A931
330
5EF092C1
100
AcDbEntity
  8
JISSEN
100
AcDbLine
 10
891.9087271357447
 20
394.8063759878115
 30
0.0
 11
891.9087271357447
 21
374.8063759878115
 31
0.0
  0
LINE
  5
5EF0A932
330
5EF092C1
100
AcDbEntity
  8
JISSEN
100
AcDbLine
 10
972.9087271357443
 20
394.8063759878113
 30
0.0
 11
972.9087271357443
 21
374.8063759878111
 31
0.0
  0
LINE
  5
5EF0A933
330
5EF092C1
100
AcDbEntity
  8
JISSEN
100
AcDbLine
 10
853.9087271357439
 20
394.8063759878115
 30
0.0
 11
853.9087271357439
 21
374.8063759878115
 31
0.0
  0
LINE
  5
5EF0A935
330
5EF092C1
100
AcDbEntity
  8
JISSEN
100
AcDbLine
 10
772.9087271357443
 20
394.8063759878115
 30
0.0
 11
772.9087271357443
 21
374.8063759878115
 31
0.0
  0
LINE
  5
5EF0A936
330
5EF092C1
100
AcDbEntity
  8
ITTEN
 48
3.0
100
AcDbLine
 10
872.9087271357443
 20
487.8063759878114
 30
0.0
 11
872.9087271357443
 21
120.1963759878113
 31
0.0
  0
CIRCLE
  5
5EF0A938
330
5EF092C1
100
AcDbEntity
  8
JISSEN
100
AcDbCircle
 10
942.1996920740912
 20
214.1051185604299
 30
0.0
 40
9.5
  0
LINE
  5
5EF0A939
330
5EF092C1
100
AcDbEntity
  8
ITTEN
 48
3.0
100
AcDbLine
 10
956.5198248280152
 20
208.1735253587711
 30
0.0
 11
927.8795593201666
 21
220.0367117620883
 31
0.0
  0
CIRCLE
  5
5EF0A93A
330
5EF092C1
100
AcDbEntity
  8
JISSEN
100
AcDbCircle
 10
942.1996920740907
 20
271.5076334151933
 30
0.0
 40
9.5
  0
LINE
  5
5EF0A93B
330
5EF092C1
100
AcDbEntity
  8
ITTEN
 48
3.0
100
AcDbLine
 10
956.5198248280152
 20
277.4392266168518
 30
0.0
 11
927.8795593201666
 21
265.5760402135346
 31
0.0
  0
CIRCLE
  5
5EF0A93C
330
5EF092C1
100
AcDbEntity
  8
ITTEN
 48
3.0
100
AcDbCircle
 10
872.9087271357443
 20
242.8063759878115
 30
0.0
 40
74.99999999999989
  0
CIRCLE
  5
5EF0A93D
330
5EF092C1
100
AcDbEntity
  8
SCALE
100
AcDbCircle
 10
872.9087271357443
 20
242.8063759878115
 30
0.0
 40
92.5
  0
LINE
  5
5EF0A93E
330
5EF092C1
100
AcDbEntity
  8
JISSEN
100
AcDbLine
 10
773.9087271357443
 20
352.8063759878116
 30
0.0
 11
971.9087271357443
 21
352.8063759878117
 31
0.0
  0
LINE
  5
5EF0A93F
330
5EF092C1
100
AcDbEntity
  8
JISSEN
100
AcDbLine
 10
772.9087271357443
 20
374.8063759878115
 30
0.0
 11
972.9087271357439
 21
374.8063759878114
 31
0.0
  0
LINE
  5
5EF0A940
330
5EF092C1
100
AcDbEntity
  8
ITTEN
 48
3.0
100
AcDbLine
 10
774.4087271357439
 20
242.8063759878115
 30
0.0
 11
971.4087271357444
 21
242.8063759878115
 31
0.0
  0
LINE
  5
5EF0A941
330
5EF092C1
100
AcDbEntity
  8
ITTEN
 48
3.0
100
AcDbLine
 10
789.2976294434734
 20
277.4392266168518
 30
0.0
 11
817.9378949513219
 21
265.5760402135346
 31
0.0
  0
CIRCLE
  5
5EF0A942
330
5EF092C1
100
AcDbEntity
  8
JISSEN
100
AcDbCircle
 10
803.617762197398
 20
271.5076334151933
 30
0.0
 40
9.5
  0
LINE
  5
5EF0A943
330
5EF092C1
100
AcDbEntity
  8
ITTEN
 48
3.0
100
AcDbLine
 10
789.2976294434734
 20
208.1735253587711
 30
0.0
 11
817.9378949513219
 21
220.0367117620883
 31
0.0
  0
CIRCLE
  5
5EF0A944
330
5EF092C1
100
AcDbEntity
  8
JISSEN
100
AcDbCircle
 10
803.6177621973974
 20
214.1051185604299
 30
0.0
 40
9.5
  0
LINE
  5
5EF0A950
330
5EF092C1
100
AcDbEntity
  8
JISSEN
100
AcDbLine
 10
795.2829758667321
 20
347.848265053813
 30
0.0
 11
797.2264201718908
 21
336.8264446985267
 31
0.0
  0
LINE
  5
5EF0A951
330
5EF092C1
100
AcDbEntity
  8
JISSEN
100
AcDbLine
 10
797.4087271357443
 20
334.7426665665236
 30
0.0
 11
797.4087271357443
 21
296.2479328513616
 31
0.0
  0
ARC
  5
5EF0A952
330
5EF092C1
100
AcDbEntity
  8
JISSEN
100
AcDbCircle
 10
785.4087271357443
 20
334.7426665665236
 30
0.0
 40
12.0
100
AcDbArc
 50
0.0
 51
9.999999999997477
  0
LINE
  5
5EF0A953
330
5EF092C1
100
AcDbEntity
  8
JISSEN
100
AcDbLine
 10
772.9087271357443
 20
374.8063759878116
 30
0.0
 11
772.9087271357443
 21
353.8063759878116
 31
0.0
  0
LINE
  5
5EF0A954
330
5EF092C1
100
AcDbEntity
  8
JISSEN
100
AcDbLine
 10
768.9087271357443
 20
373.8063759878116
 30
0.0
 11
768.9087271357443
 21
353.8063759878116
 31
0.0
  0
LINE
  5
5EF0A955
330
5EF092C1
100
AcDbEntity
  8
JISSEN
100
AcDbLine
 10
773.9087271357443
 20
352.8063759878116
 30
0.0
 11
769.9087271357443
 21
352.8063759878116
 31
0.0
  0
ARC
  5
5EF0A956
330
5EF092C1
100
AcDbEntity
  8
JISSEN
100
AcDbCircle
 10
773.9087271357443
 20
353.8063759878116
 30
0.0
 40
1.0
100
AcDbArc
 50
180.0
 51
270.0
  0
ARC
  5
5EF0A957
330
5EF092C1
100
AcDbEntity
  8
JISSEN
100
AcDbCircle
 10
769.9087271357443
 20
353.8063759878116
 30
0.0
 40
1.0
100
AcDbArc
 50
180.0
 51
270.0
  0
LINE
  5
5EF0A958
330
5EF092C1
100
AcDbEntity
  8
JISSEN
100
AcDbLine
 10
772.9087271357443
 20
374.8063759878116
 30
0.0
 11
769.9087271357443
 21
374.8063759878116
 31
0.0
  0
ARC
  5
5EF0A959
330
5EF092C1
100
AcDbEntity
  8
JISSEN
100
AcDbCircle
 10
769.9087271357443
 20
373.8063759878116
 30
0.0
 40
1.0
100
AcDbArc
 50
90.0
 51
180.0
  0
ARC
  5
5EF0A95A
330
5EF092C1
100
AcDbEntity
  8
JISSEN
100
AcDbCircle
 10
789.3741293486587
 20
346.8063759878115
 30
0.0
 40
6.0
100
AcDbArc
 50
9.999999999997477
 51
90.0
  0
CIRCLE
  5
5EF0A95B
330
5EF092C1
100
AcDbEntity
  8
SCALE
100
AcDbCircle
 10
872.9087271357443
 20
242.8063759878115
 30
0.0
 40
41.5
  0
LINE
  5
5EF0A95C
330
5EF092C1
100
AcDbEntity
  8
JISSEN
100
AcDbLine
 10
850.4087271357443
 20
147.8063759878116
 30
0.0
 11
895.4087271357444
 21
147.8063759878115
 31
0.0
  0
LINE
  5
5EF0A95D
330
5EF092C1
100
AcDbEntity
  8
JISSEN
100
AcDbLine
 10
889.8335546437223
 20
138.1963759878115
 30
0.0
 11
855.9838996277658
 21
138.1963759878115
 31
0.0
  0
LINE
  5
5EF0A95E
330
5EF092C1
100
AcDbEntity
  8
JISSEN
100
AcDbLine
 10
886.3437559782887
 20
126.1963759878115
 30
0.0
 11
859.4736982931999
 21
126.1963759878115
 31
0.0
  0
LINE
  5
5EF0A95F
330
5EF092C1
100
AcDbEntity
  8
SAISEN
100
AcDbLine
 10
872.9087271357443
 20
138.1963759878115
 30
0.0
 11
886.3437559782887
 21
126.1963759878115
 31
0.0
  0
LINE
  5
5EF0A960
330
5EF092C1
100
AcDbEntity
  8
SAISEN
100
AcDbLine
 10
886.3437559782887
 20
138.1963759878115
 30
0.0
 11
872.9087271357443
 21
126.1963759878115
 31
0.0
  0
LINE
  5
5EF0A961
330
5EF092C1
100
AcDbEntity
  8
ITTEN
 48
3.0
100
AcDbLine
 10
838.2758765067038
 20
159.1952782955406
 30
0.0
 11
850.139062910021
 21
187.8355438033892
 31
0.0
  0
CIRCLE
  5
5EF0A962
330
5EF092C1
100
AcDbEntity
  8
JISSEN
100
AcDbCircle
 10
844.2074697083622
 20
173.5154110494649
 30
0.0
 40
9.5
  0
ARC
  5
5EF0A963
330
5EF092C1
100
AcDbEntity
  8
JISSEN
100
AcDbCircle
 10
850.4087271357443
 20
150.8063759878115
 30
0.0
 40
3.0
100
AcDbArc
 50
180.0
 51
270.0
  0
LINE
  5
5EF0A964
330
5EF092C1
100
AcDbEntity
  8
JISSEN
100
AcDbLine
 10
847.4087271357443
 20
150.8063759878115
 30
0.0
 11
847.4087271357443
 21
153.8906855839237
 31
0.0
  0
LINE
  5
5EF0A965
330
5EF092C1
100
AcDbEntity
  8
JISSEN
100
AcDbLine
 10
855.9838996277658
 20
138.1963759878115
 30
0.0
 11
856.2842271357427
 21
147.8063759878116
 31
0.0
  0
LINE
  5
5EF0A966
330
5EF092C1
100
AcDbEntity
  8
JISSEN
100
AcDbLine
 10
859.4736982931999
 20
126.1963759878115
 30
0.0
 11
859.4736982931999
 21
138.1963759878115
 31
0.0
  0
LINE
  5
5EF0A967
330
5EF092C1
100
AcDbEntity
  8
SAISEN
100
AcDbLine
 10
859.4736982931999
 20
138.1963759878115
 30
0.0
 11
872.9087271357443
 21
126.1963759878115
 31
0.0
  0
LINE
  5
5EF0A968
330
5EF092C1
100
AcDbEntity
  8
SAISEN
100
AcDbLine
 10
872.9087271357443
 20
138.1963759878115
 30
0.0
 11
859.4736982931999
 21
126.1963759878115
 31
0.0
  0
LINE
  5
5EF0A969
330
5EF092C1
100
AcDbEntity
  8
SAISEN
100
AcDbLine
 10
857.7632271357424
 20
147.8063759878116
 30
0.0
 11
857.4628996277658
 21
138.1963759878115
 31
0.0
  0
CIRCLE
  5
5EF0A96A
330
5EF092C1
100
AcDbEntity
  8
JISSEN
100
AcDbCircle
 10
901.6099845631265
 20
173.5154110494649
 30
0.0
 40
9.5
  0
LINE
  5
5EF0A96B
330
5EF092C1
100
AcDbEntity
  8
JISSEN
100
AcDbLine
 10
886.3437559782887
 20
138.1963759878115
 30
0.0
 11
886.3437559782887
 21
126.1963759878115
 31
0.0
  0
LINE
  5
5EF0A96C
330
5EF092C1
100
AcDbEntity
  8
SAISEN
100
AcDbLine
 10
888.0542271357462
 20
147.8063759878115
 30
0.0
 11
888.3545546437225
 21
138.1963759878115
 31
0.0
  0
LINE
  5
5EF0A96D
330
5EF092C1
100
AcDbEntity
  8
JISSEN
100
AcDbLine
 10
889.8335546437223
 20
138.1963759878115
 30
0.0
 11
889.533227135746
 21
147.8063759878115
 31
0.0
  0
LINE
  5
5EF0A96E
330
5EF092C1
100
AcDbEntity
  8
JISSEN
100
AcDbLine
 10
898.4087271357443
 20
150.8063759878115
 30
0.0
 11
898.4087271357443
 21
153.8906855839237
 31
0.0
  0
ARC
  5
5EF0A96F
330
5EF092C1
100
AcDbEntity
  8
JISSEN
100
AcDbCircle
 10
895.4087271357444
 20
150.8063759878115
 30
0.0
 40
3.0
100
AcDbArc
 50
270.0
 51
0.0
  0
LINE
  5
5EF0A970
330
5EF092C1
100
AcDbEntity
  8
ITTEN
 48
3.0
100
AcDbLine
 10
907.5415777647849
 20
159.1952782955406
 30
0.0
 11
895.6783913614676
 21
187.8355438033892
 31
0.0
  0
CIRCLE
  5
5EF0A971
330
5EF092C1
100
AcDbEntity
  8
SCALE
100
AcDbCircle
 10
872.9087271357443
 20
242.8063759878115
 30
0.0
 40
40.0
  0
LINE
  5
5EF0A972
330
5EF092C1
100
AcDbEntity
  8
SCALE
100
AcDbLine
 10
912.1005630202754
 20
234.8063759878113
 30
0.0
 11
833.7168912512133
 21
234.8063759878113
 31
0.0
  0
LINE
  5
5EF0A973
330
5EF092C1
100
AcDbEntity
  8
SCALE
100
AcDbLine
 10
834.6910116512017
 20
234.8063759878113
 30
0.0
 11
834.6910116512017
 21
230.9993347351288
 31
0.0
  0
LINE
  5
5EF0A974
330
5EF092C1
100
AcDbEntity
  8
SCALE
100
AcDbLine
 10
836.1910116512017
 20
234.8063759878113
 30
0.0
 11
836.1910116512017
 21
226.9378735507135
 31
0.0
  0
LINE
  5
5EF0A975
330
5EF092C1
100
AcDbEntity
  8
SCALE
100
AcDbLine
 10
847.1932281979109
 20
234.8063759878113
 30
0.0
 11
847.193228197911
 21
212.1679505325388
 31
0.0
  0
LINE
  5
5EF0A976
330
5EF092C1
100
AcDbEntity
  8
SCALE
100
AcDbLine
 10
862.9087271357441
 20
234.8063759878113
 30
0.0
 11
862.9087271357441
 21
204.0765425257372
 31
0.0
  0
CIRCLE
  5
5EF0A977
330
5EF092C1
100
AcDbEntity
  8
JISSEN
100
AcDbCircle
 10
844.2074697083626
 20
312.097340926158
 30
0.0
 40
9.5
  0
LINE
  5
5EF0A978
330
5EF092C1
100
AcDbEntity
  8
ITTEN
 48
3.0
100
AcDbLine
 10
838.2758765067038
 20
326.4174736800822
 30
0.0
 11
850.139062910021
 21
297.7772081722337
 31
0.0
  0
LINE
  5
5EF0A97A
330
5EF092C1
100
AcDbEntity
  8
SCALE
100
AcDbLine
 10
882.9087271357446
 20
234.8063759878113
 30
0.0
 11
882.9087271357446
 21
204.0765425257372
 31
0.0
  0
LINE
  5
5EF0A97C
330
5EF092C1
100
AcDbEntity
  8
SCALE
100
AcDbLine
 10
898.6242260735778
 20
234.8063759878113
 30
0.0
 11
898.6242260735776
 21
212.1679505325388
 31
0.0
  0
LINE
  5
5EF0A97D
330
5EF092C1
100
AcDbEntity
  8
SCALE
100
AcDbLine
 10
909.626442620287
 20
234.8063759878113
 30
0.0
 11
909.626442620287
 21
226.9378735507135
 31
0.0
  0
LINE
  5
5EF0A97E
330
5EF092C1
100
AcDbEntity
  8
SCALE
100
AcDbLine
 10
911.126442620287
 20
234.8063759878113
 30
0.0
 11
911.126442620287
 21
230.9993347351288
 31
0.0
  0
CIRCLE
  5
5EF0A97F
330
5EF092C1
100
AcDbEntity
  8
JISSEN
100
AcDbCircle
 10
901.6099845631261
 20
312.097340926158
 30
0.0
 40
9.5
  0
LINE
  5
5EF0A980
330
5EF092C1
100
AcDbEntity
  8
ITTEN
 48
3.0
100
AcDbLine
 10
907.5415777647849
 20
326.4174736800822
 30
0.0
 11
895.6783913614676
 21
297.7772081722337
 31
0.0
  0
LINE
  5
5EF0A983
330
5EF092C1
100
AcDbEntity
  8
JISSEN
100
AcDbLine
 10
950.5344784047565
 20
347.848265053813
 30
0.0
 11
948.5910340995978
 21
336.8264446985267
 31
0.0
  0
LINE
  5
5EF0A984
330
5EF092C1
100
AcDbEntity
  8
JISSEN
100
AcDbLine
 10
948.4087271357443
 20
334.7426665665236
 30
0.0
 11
948.4087271357443
 21
296.2479328513611
 31
0.0
  0
ARC
  5
5EF0A985
330
5EF092C1
100
AcDbEntity
  8
JISSEN
100
AcDbCircle
 10
960.4087271357443
 20
334.7426665665236
 30
0.0
 40
12.0
100
AcDbArc
 50
170.0000000000025
 51
180.0
  0
ARC
  5
5EF0A986
330
5EF092C1
100
AcDbEntity
  8
JISSEN
100
AcDbCircle
 10
956.4433249228295
 20
346.8063759878115
 30
0.0
 40
6.0
100
AcDbArc
 50
90.0
 51
170.0000000000025
  0
LINE
  5
5EF0A987
330
5EF092C1
100
AcDbEntity
  8
JISSEN
100
AcDbLine
 10
972.9087271357443
 20
374.8063759878116
 30
0.0
 11
972.9087271357443
 21
353.8063759878116
 31
0.0
  0
ARC
  5
5EF0A988
330
5EF092C1
100
AcDbEntity
  8
JISSEN
100
AcDbCircle
 10
971.9087271357443
 20
353.8063759878116
 30
0.0
 40
1.0
100
AcDbArc
 50
270.0
 51
0.0
  0
LINE
  5
5EF0A989
330
5EF092C1
100
AcDbEntity
  8
JISSEN
100
AcDbLine
 10
943.9087271357443
 20
409.8063759878114
 30
0.0
 11
966.9087271357406
 21
409.8063759878114
 31
0.0
  0
ARC
  5
5EF0A98A
330
5EF092C1
100
AcDbEntity
  8
JISSEN
100
AcDbCircle
 10
945.0164222903312
 20
404.715905630264
 30
0.0
 40
5.090470357547469
100
AcDbArc
 50
47.11671159485535
 51
107.1167115948791
  0
LINE
  5
5EF0A98B
330
5EF092C1
100
AcDbEntity
  8
JISSEN
100
AcDbLine
 10
892.9087271357444
 20
396.8063759878115
 30
0.0
 11
970.9087271357443
 21
396.8063759878113
 31
0.0
  0
LINE
  5
5EF0A98E
330
5EF092C1
100
AcDbEntity
  8
JISSEN
100
AcDbLine
 10
801.9087271357406
 20
409.8063759878114
 30
0.0
 11
804.2651335962954
 21
408.4459040834903
 31
0.0
  0
LINE
  5
5EF0A98F
330
5EF092C1
100
AcDbEntity
  8
JISSEN
100
AcDbLine
 10
852.9087271357443
 20
396.8063759878115
 30
0.0
 11
774.9087271357443
 21
396.8063759878115
 31
0.0
  0
LINE
  5
5EF0A991
330
5EF092C1
100
AcDbEntity
  8
JISSEN
100
AcDbLine
 10
801.9087271357443
 20
409.8063759878114
 30
0.0
 11
778.9087271357479
 21
409.8063759878114
 31
0.0
  0
ARC
  5
5EF0A992
330
5EF092C1
100
AcDbEntity
  8
JISSEN
100
AcDbCircle
 10
790.4087271357443
 20
391.4852024141038
 30
0.0
 40
18.32117357370777
100
AcDbArc
 50
67.78068982943634
 51
112.2193101705636
  0
LINE
  5
5EF0A993
330
5EF092C1
100
AcDbEntity
  8
JISSEN
100
AcDbLine
 10
778.9087271357479
 20
409.8063759878114
 30
0.0
 11
776.5523206751931
 21
408.4459040834903
 31
0.0
  0
LINE
  5
5EF0A994
330
5EF092C1
100
AcDbEntity
  8
JISSEN
100
AcDbLine
 10
776.5523206751931
 20
396.8063759878115
 30
0.0
 11
776.5523206751931
 21
408.4459040834903
 31
0.0
  0
ARC
  5
5EF0A995
330
5EF092C1
100
AcDbEntity
  8
JISSEN
100
AcDbCircle
 10
774.9087271357443
 20
394.8063759878115
 30
0.0
 40
2.0
100
AcDbArc
 50
90.0
 51
180.0
  0
LINE
  5
5EF0A996
330
5EF092C1
100
AcDbEntity
  8
JISSEN
100
AcDbLine
 10
783.480523905469
 20
396.8063759878115
 30
0.0
 11
783.480523905469
 21
408.4459040834901
 31
0.0
  0
ARC
  5
5EF0A997
330
5EF092C1
100
AcDbEntity
  8
JISSEN
100
AcDbCircle
 10
780.0164222903311
 20
404.715905630264
 30
0.0
 40
5.090470357547469
100
AcDbArc
 50
47.11671159485535
 51
107.1167115948791
  0
LINE
  5
5EF0A998
330
5EF092C1
100
AcDbEntity
  8
JISSEN
100
AcDbLine
 10
797.3369303660197
 20
408.44590408349
 30
0.0
 11
797.3369303660197
 21
396.8063759878115
 31
0.0
  0
ARC
  5
5EF0A999
330
5EF092C1
100
AcDbEntity
  8
JISSEN
100
AcDbCircle
 10
800.8010319811576
 20
404.715905630264
 30
0.0
 40
5.090470357547469
100
AcDbArc
 50
72.88328840512088
 51
132.8832884051446
  0
LINE
  5
5EF0A99C
330
5EF092C1
100
AcDbEntity
  8
TENSEN
 48
2.0
100
AcDbLine
 10
865.9087271357439
 20
466.8063759878114
 30
0.0
 11
879.9087271357448
 21
466.8063759878114
 31
0.0
  0
LINE
  5
5EF0A99D
330
5EF092C1
100
AcDbEntity
  8
TENSEN
 48
2.0
100
AcDbLine
 10
880.4087271357444
 20
465.9403505840279
 30
0.0
 11
865.4087271357443
 21
465.9403505840276
 31
0.0
  0
LINE
  5
5EF0A99E
330
5EF092C1
100
AcDbEntity
  8
TENSEN
 48
2.0
100
AcDbLine
 10
865.9087271357439
 20
482.8063759878114
 30
0.0
 11
879.9087271357448
 21
482.8063759878114
 31
0.0
  0
LINE
  5
5EF0A99F
330
5EF092C1
100
AcDbEntity
  8
TENSEN
 48
2.0
100
AcDbLine
 10
865.9087271357439
 20
466.8063759878114
 30
0.0
 11
879.9087271357448
 21
466.8063759878114
 31
0.0
  0
LINE
  5
5EF0A9A0
330
5EF092C1
100
AcDbEntity
  8
TENSEN
 48
2.0
100
AcDbLine
 10
873.7359522537913
 20
466.8063759878114
 30
0.0
 11
879.9087271357448
 21
482.8063759878114
 31
0.0
  0
LINE
  5
5EF0A9A1
330
5EF092C1
100
AcDbEntity
  8
TENSEN
 48
2.0
100
AcDbLine
 10
873.7359522537913
 20
482.8063759878114
 30
0.0
 11
879.9087271357448
 21
466.8063759878114
 31
0.0
  0
LINE
  5
5EF0A9A2
330
5EF092C1
100
AcDbEntity
  8
JISSEN
100
AcDbLine
 10
856.9087271357444
 20
424.8063759878115
 30
0.0
 11
888.9087271357443
 21
424.8063759878115
 31
0.0
  0
ARC
  5
5EF0A9A3
330
5EF092C1
100
AcDbEntity
  8
JISSEN
100
AcDbCircle
 10
872.9087271357443
 20
394.8063759878115
 30
0.0
 40
19.0
100
AcDbArc
 50
0.0
 51
180.0
  0
LINE
  5
5EF0A9A4
330
5EF092C1
100
AcDbEntity
  8
ITTEN
 48
3.0
100
AcDbLine
 10
896.4087271357447
 20
394.8063759878116
 30
0.0
 11
849.408727135744
 21
394.8063759878115
 31
0.0
  0
LINE
  5
5EF0A9A5
330
5EF092C1
100
AcDbEntity
  8
JISSEN
100
AcDbLine
 10
843.1587271357443
 20
409.8063759878114
 30
0.0
 11
820.158727135748
 21
409.8063759878114
 31
0.0
  0
ARC
  5
5EF0A9A6
330
5EF092C1
100
AcDbEntity
  8
JISSEN
100
AcDbCircle
 10
842.0510319811576
 20
404.715905630264
 30
0.0
 40
5.090470357547469
100
AcDbArc
 50
72.88328840512088
 51
132.8832884051446
  0
ARC
  5
5EF0A9A7
330
5EF092C1
100
AcDbEntity
  8
JISSEN
100
AcDbCircle
 10
821.266422290331
 20
404.715905630264
 30
0.0
 40
5.090470357547469
100
AcDbArc
 50
47.11671159485535
 51
107.1167115948791
  0
LINE
  5
5EF0A9A8
330
5EF092C1
100
AcDbEntity
  8
JISSEN
100
AcDbLine
 10
804.2651335962954
 20
408.4459040834903
 30
0.0
 11
804.2651335962954
 21
396.8063759878115
 31
0.0
  0
LINE
  5
5EF0A9A9
330
5EF092C1
100
AcDbEntity
  8
JISSEN
100
AcDbLine
 10
820.158727135748
 20
409.8063759878114
 30
0.0
 11
817.8023206751932
 21
408.4459040834903
 31
0.0
  0
LINE
  5
5EF0A9AA
330
5EF092C1
100
AcDbEntity
  8
JISSEN
100
AcDbLine
 10
817.8023206751932
 20
396.8063759878115
 30
0.0
 11
817.8023206751932
 21
408.4459040834903
 31
0.0
  0
ARC
  5
5EF0A9AB
330
5EF092C1
100
AcDbEntity
  8
JISSEN
100
AcDbCircle
 10
831.6587271357443
 20
391.4852024141038
 30
0.0
 40
18.32117357370777
100
AcDbArc
 50
67.78068982943634
 51
112.2193101705636
  0
LINE
  5
5EF0A9AC
330
5EF092C1
100
AcDbEntity
  8
JISSEN
100
AcDbLine
 10
824.7305239054689
 20
396.8063759878115
 30
0.0
 11
824.7305239054689
 21
408.4459040834901
 31
0.0
  0
LINE
  5
5EF0A9AD
330
5EF092C1
100
AcDbEntity
  8
JISSEN
100
AcDbLine
 10
838.5869303660197
 20
408.44590408349
 30
0.0
 11
838.5869303660197
 21
396.8063759878115
 31
0.0
  0
LINE
  5
5EF0A9AE
330
5EF092C1
100
AcDbEntity
  8
SCALE
 48
2.0
100
AcDbLine
 10
865.4087271357441
 20
429.9403505840275
 30
0.0
 11
865.4087271357443
 21
424.8063759878115
 31
0.0
  0
ARC
  5
5EF0A9AF
330
5EF092C1
100
AcDbEntity
  8
JISSEN
100
AcDbCircle
 10
856.9087271357444
 20
422.8063759878115
 30
0.0
 40
2.0
100
AcDbArc
 50
90.0
 51
180.0
  0
LINE
  5
5EF0A9B0
330
5EF092C1
100
AcDbEntity
  8
JISSEN
100
AcDbLine
 10
854.9087271357443
 20
422.8063759878115
 30
0.0
 11
854.9087271357443
 21
400.8891385181073
 31
0.0
  0
LINE
  5
5EF0A9B1
330
5EF092C1
100
AcDbEntity
  8
JISSEN
100
AcDbLine
 10
845.5151335962955
 20
408.4459040834903
 30
0.0
 11
845.5151335962955
 21
396.8063759878115
 31
0.0
  0
LINE
  5
5EF0A9B2
330
5EF092C1
100
AcDbEntity
  8
JISSEN
100
AcDbLine
 10
843.1587271357408
 20
409.8063759878114
 30
0.0
 11
845.5151335962955
 21
408.4459040834903
 31
0.0
  0
ARC
  5
5EF0A9B3
330
5EF092C1
100
AcDbEntity
  8
JISSEN
100
AcDbCircle
 10
852.9087271357443
 20
398.8063759878115
 30
0.0
 40
2.0
100
AcDbArc
 50
270.0
 51
305.0075773244538
  0
LINE
  5
5EF0A9B4
330
5EF092C1
100
AcDbEntity
  8
TENSEN
 48
2.0
100
AcDbLine
 10
865.9087271357439
 20
466.8063759878114
 30
0.0
 11
865.4087271357443
 21
465.9403505840276
 31
0.0
  0
LINE
  5
5EF0A9B5
330
5EF092C1
100
AcDbEntity
  8
TENSEN
 48
2.0
100
AcDbLine
 10
865.9087271357439
 20
482.8063759878114
 30
0.0
 11
872.0815020176997
 21
466.8063759878114
 31
0.0
  0
LINE
  5
5EF0A9B6
330
5EF092C1
100
AcDbEntity
  8
TENSEN
 48
2.0
100
AcDbLine
 10
865.9087271357439
 20
466.8063759878114
 30
0.0
 11
872.0815020176997
 21
482.8063759878114
 31
0.0
  0
LINE
  5
5EF0A9B7
330
5EF092C1
100
AcDbEntity
  8
TENSEN
 48
2.0
100
AcDbLine
 10
872.0815020176997
 20
466.8063759878114
 30
0.0
 11
872.0815020176997
 21
482.8063759878114
 31
0.0
  0
LINE
  5
5EF0A9B8
330
5EF092C1
100
AcDbEntity
  8
TENSEN
 48
2.0
100
AcDbLine
 10
865.9087271357439
 20
466.8063759878114
 30
0.0
 11
865.9087271357439
 21
482.8063759878114
 31
0.0
  0
LINE
  5
5EF0A9B9
330
5EF092C1
100
AcDbEntity
  8
TENSEN
 48
2.0
100
AcDbLine
 10
873.7359522537913
 20
466.8063759878114
 30
0.0
 11
873.7359522537913
 21
482.8063759878114
 31
0.0
  0
ARC
  5
5EF0A9BB
330
5EF092C1
100
AcDbEntity
  8
JISSEN
100
AcDbCircle
 10
914.1587271357444
 20
391.4852024141038
 30
0.0
 40
18.32117357370777
100
AcDbArc
 50
67.78068982943634
 51
112.2193101705636
  0
LINE
  5
5EF0A9BC
330
5EF092C1
100
AcDbEntity
  8
JISSEN
100
AcDbLine
 10
902.6587271357444
 20
409.8063759878114
 30
0.0
 11
925.6587271357407
 21
409.8063759878114
 31
0.0
  0
LINE
  5
5EF0A9BD
330
5EF092C1
100
AcDbEntity
  8
SCALE
 48
2.0
100
AcDbLine
 10
880.4087271357442
 20
429.940350584028
 30
0.0
 11
880.4087271357444
 21
424.8063759878115
 31
0.0
  0
ARC
  5
5EF0A9BE
330
5EF092C1
100
AcDbEntity
  8
JISSEN
100
AcDbCircle
 10
892.9087271357444
 20
398.8063759878115
 30
0.0
 40
2.0
100
AcDbArc
 50
234.9924226755461
 51
270.0
  0
LINE
  5
5EF0A9C0
330
5EF092C1
100
AcDbEntity
  8
JISSEN
100
AcDbLine
 10
890.9087271357444
 20
422.8063759878115
 30
0.0
 11
890.9087271357444
 21
400.8891385181097
 31
0.0
  0
ARC
  5
5EF0A9C1
330
5EF092C1
100
AcDbEntity
  8
JISSEN
100
AcDbCircle
 10
888.9087271357443
 20
422.8063759878115
 30
0.0
 40
2.0
100
AcDbArc
 50
0.0
 51
90.0
  0
LINE
  5
5EF0A9C2
330
5EF092C1
100
AcDbEntity
  8
JISSEN
100
AcDbLine
 10
902.6587271357479
 20
409.8063759878114
 30
0.0
 11
900.3023206751931
 21
408.4459040834903
 31
0.0
  0
LINE
  5
5EF0A9C3
330
5EF092C1
100
AcDbEntity
  8
JISSEN
100
AcDbLine
 10
901.4518948409431
 20
396.8063759878115
 30
0.0
 11
892.9087271357444
 21
396.8063759878115
 31
0.0
  0
LINE
  5
5EF0A9C4
330
5EF092C1
100
AcDbEntity
  8
JISSEN
100
AcDbLine
 10
900.3023206751931
 20
408.4459040834903
 30
0.0
 11
900.3023206751931
 21
396.8063759878115
 31
0.0
  0
LINE
  5
5EF0A9C5
330
5EF092C1
100
AcDbEntity
  8
JISSEN
100
AcDbLine
 10
907.230523905469
 20
408.44590408349
 30
0.0
 11
907.230523905469
 21
396.8063759878115
 31
0.0
  0
ARC
  5
5EF0A9C6
330
5EF092C1
100
AcDbEntity
  8
JISSEN
100
AcDbCircle
 10
903.7664222903311
 20
404.715905630264
 30
0.0
 40
5.090470357547469
100
AcDbArc
 50
47.11671159485535
 51
107.1167115948791
  0
LINE
  5
5EF0A9C7
330
5EF092C1
100
AcDbEntity
  8
TENSEN
 48
2.0
100
AcDbLine
 10
879.9087271357448
 20
466.8063759878114
 30
0.0
 11
880.4087271357444
 21
465.9403505840279
 31
0.0
  0
LINE
  5
5EF0A9C8
330
5EF092C1
100
AcDbEntity
  8
TENSEN
 48
2.0
100
AcDbLine
 10
879.9087271357448
 20
482.8063759878114
 30
0.0
 11
879.9087271357448
 21
466.8063759878114
 31
0.0
  0
LINE
  5
5EF0A9C9
330
5EF092C1
100
AcDbEntity
  8
JISSEN
100
AcDbLine
 10
925.6587271357407
 20
409.8063759878114
 30
0.0
 11
928.0151335962955
 21
408.4459040834903
 31
0.0
  0
LINE
  5
5EF0A9CA
330
5EF092C1
100
AcDbEntity
  8
JISSEN
100
AcDbLine
 10
921.0869303660198
 20
396.8063759878115
 30
0.0
 11
921.0869303660198
 21
408.4459040834901
 31
0.0
  0
ARC
  5
5EF0A9CB
330
5EF092C1
100
AcDbEntity
  8
JISSEN
100
AcDbCircle
 10
924.5510319811574
 20
404.715905630264
 30
0.0
 40
5.090470357547469
100
AcDbArc
 50
72.88328840512088
 51
132.8832884051446
  0
LINE
  5
5EF0A9CC
330
5EF092C1
100
AcDbEntity
  8
JISSEN
100
AcDbLine
 10
928.0151335962955
 20
396.8063759878115
 30
0.0
 11
928.0151335962955
 21
408.4459040834903
 31
0.0
  0
LINE
  5
5EF0A9CD
330
5EF092C1
100
AcDbEntity
  8
JISSEN
100
AcDbLine
 10
941.5523206751931
 20
408.4459040834903
 30
0.0
 11
941.5523206751931
 21
396.8063759878115
 31
0.0
  0
LINE
  5
5EF0A9CE
330
5EF092C1
100
AcDbEntity
  8
JISSEN
100
AcDbLine
 10
943.9087271357479
 20
409.8063759878114
 30
0.0
 11
941.5523206751931
 21
408.4459040834903
 31
0.0
  0
ARC
  5
5EF0A9CF
330
5EF092C1
100
AcDbEntity
  8
JISSEN
100
AcDbCircle
 10
965.8010319811573
 20
404.715905630264
 30
0.0
 40
5.090470357547469
100
AcDbArc
 50
72.88328840512088
 51
132.8832884051446
  0
ARC
  5
5EF0A9D0
330
5EF092C1
100
AcDbEntity
  8
JISSEN
100
AcDbCircle
 10
955.4087271357444
 20
391.4852024141038
 30
0.0
 40
18.32117357370777
100
AcDbArc
 50
67.78068982943634
 51
112.2193101705636
  0
LINE
  5
5EF0A9D1
330
5EF092C1
100
AcDbEntity
  8
JISSEN
100
AcDbLine
 10
948.480523905469
 20
408.44590408349
 30
0.0
 11
948.480523905469
 21
396.8063759878115
 31
0.0
  0
LINE
  5
5EF0A9D2
330
5EF092C1
100
AcDbEntity
  8
JISSEN
100
AcDbLine
 10
962.3369303660197
 20
396.8063759878115
 30
0.0
 11
962.3369303660197
 21
408.4459040834901
 31
0.0
  0
ARC
  5
5EF0A9D3
330
5EF092C1
100
AcDbEntity
  8
JISSEN
100
AcDbCircle
 10
970.9087271357443
 20
394.8063759878111
 30
0.0
 40
2.0
100
AcDbArc
 50
0.0
 51
90.0
  0
LINE
  5
5EF0A9D4
330
5EF092C1
100
AcDbEntity
  8
JISSEN
100
AcDbLine
 10
966.9087271357406
 20
409.8063759878114
 30
0.0
 11
969.2651335962954
 21
408.4459040834903
 31
0.0
  0
LINE
  5
5EF0A9D5
330
5EF092C1
100
AcDbEntity
  8
JISSEN
100
AcDbLine
 10
969.2651335962954
 20
396.8063759878115
 30
0.0
 11
969.2651335962954
 21
408.4459040834903
 31
0.0
  0
LINE
  5
5EF0AA1A
330
5EF092C1
100
AcDbEntity
  8
SUNPOU
100
AcDbLine
 10
479.7168419902099
 20
317.8063759878114
 30
0.0
 11
516.7131534595147
 21
317.8063759878114
 31
0.0
  0
LINE
  5
5EF0AA1B
330
5EF092C1
100
AcDbEntity
  8
SUNPOU
100
AcDbLine
 10
479.7168419902099
 20
167.8063759878116
 30
0.0
 11
516.7131534595146
 21
167.8063759878116
 31
0.0
  0
LINE
  5
5EF0AA1C
330
5EF092C1
100
AcDbEntity
  8
SUNPOU
100
AcDbLine
 10
513.7131534595148
 20
317.8063759878114
 30
0.0
 11
513.7131534595146
 21
167.8063759878116
 31
0.0
  0
INSERT
  5
5EF0AA1D
330
5EF092C1
100
AcDbEntity
  8
SUNPOU
100
AcDbBlockReference
  2
ARROWANG
 10
513.7131534595147
 20
317.8063759878114
 30
0.0
 41
4.5
 42
4.5
 43
4.5
 50
90.0
  0
INSERT
  5
5EF0AA1E
330
5EF092C1
100
AcDbEntity
  8
SUNPOU
100
AcDbBlockReference
  2
ARROWANG
 10
513.7131534595146
 20
167.8063759878116
 30
0.0
 41
4.5
 42
4.5
 43
4.5
 50
270.0
  0
MTEXT
  5
5EF0AA1F
330
5EF092C1
100
AcDbEntity
  8
SUNPOU
100
AcDbMText
 10
506.2131534595145
 20
242.8063759878116
 30
0.0
 40
9.0
 41
0.0
 71
     5
 72
     1
  1
\A1;%%c150
  7
K
 11
0.0000000000000001
 21
1.0
 31
0.0
1001
ACAD
1000
MTEXTBEGIN
1070
    73
1070
     1
1070
    44
1040
1.0
1070
    74
1070
     0
1000
MTEXTEND
  0
LINE
  5
5EF0AA20
330
5EF092C1
100
AcDbEntity
  8
SUNPOU
100
AcDbLine
 10
473.71684199021
 20
335.3063759878115
 30
0.0
 11
546.1251461166249
 21
335.3063759878115
 31
0.0
  0
LINE
  5
5EF0AA21
330
5EF092C1
100
AcDbEntity
  8
SUNPOU
100
AcDbLine
 10
473.71684199021
 20
150.3063759878115
 30
0.0
 11
546.1251461166248
 21
150.3063759878115
 31
0.0
  0
LINE
  5
5EF0AA22
330
5EF092C1
100
AcDbEntity
  8
SUNPOU
100
AcDbLine
 10
543.1251461166247
 20
335.3063759878115
 30
0.0
 11
543.1251461166247
 21
150.3063759878114
 31
0.0
  0
INSERT
  5
5EF0AA23
330
5EF092C1
100
AcDbEntity
  8
SUNPOU
100
AcDbBlockReference
  2
ARROWANG
 10
543.1251461166249
 20
335.3063759878115
 30
0.0
 41
4.5
 42
4.5
 43
4.5
 50
90.0
  0
INSERT
  5
5EF0AA24
330
5EF092C1
100
AcDbEntity
  8
SUNPOU
100
AcDbBlockReference
  2
ARROWANG
 10
543.1251461166247
 20
150.3063759878115
 30
0.0
 41
4.5
 42
4.5
 43
4.5
 50
270.0
  0
MTEXT
  5
5EF0AA25
330
5EF092C1
100
AcDbEntity
  8
SUNPOU
100
AcDbMText
 10
535.6251461166248
 20
242.8063759878116
 30
0.0
 40
9.0
 41
0.0
 71
     5
 72
     1
  1
\A1;%%c185
  7
K
 11
0.0000000000000001
 21
1.0
 31
0.0
1001
ACAD
1000
MTEXTBEGIN
1070
    73
1070
     1
1070
    44
1040
1.0
1070
    74
1070
     0
1000
MTEXTEND
  0
LINE
  5
5EF0AA26
330
5EF092C1
100
AcDbEntity
  8
SCALE
100
AcDbLine
 10
342.46684199021
 20
138.1963759878114
 30
0.0
 11
342.46684199021
 21
126.1963759878113
 31
0.0
  0
LINE
  5
5EF0AA28
330
5EF092C1
100
AcDbEntity
  8
SUNPOU
100
AcDbLine
 10
450.46684199021
 20
149.0563759878115
 30
0.0
 11
450.46684199021
 21
95.34808984481083
 31
0.0
  0
LINE
  5
5EF0AA29
330
5EF092C1
100
AcDbEntity
  8
SUNPOU
100
AcDbLine
 10
471.7525562759242
 20
98.34808984481083
 30
0.0
 11
451.1811277044958
 21
98.34808984481083
 31
0.0
  0
INSERT
  5
5EF0AA2A
330
5EF092C1
100
AcDbEntity
  8
SUNPOU
100
AcDbBlockReference
  2
ARROWANG
 10
472.46684199021
 20
98.34808984481083
 30
0.0
 41
4.5
 42
4.5
 43
4.5
  0
INSERT
  5
5EF0AA2B
330
5EF092C1
100
AcDbEntity
  8
SUNPOU
100
AcDbBlockReference
  2
ARROWANG
 10
450.46684199021
 20
98.34808984481083
 30
0.0
 41
4.5
 42
4.5
 43
4.5
 50
180.0
  0
MTEXT
  5
5EF0AA2C
330
5EF092C1
100
AcDbEntity
  8
SUNPOU
100
AcDbMText
 10
461.46684199021
 20
105.8480898448108
 30
0.0
 40
9.0
 41
0.0
 71
     5
 72
     1
  1
\A1;22
  7
K
1001
ACAD
1000
MTEXTBEGIN
1070
    73
1070
     1
1070
    44
1040
1.0
1070
    74
1070
     0
1000
MTEXTEND
  0
LINE
  5
5EF0AA2D
330
5EF092C1
100
AcDbEntity
  8
SUNPOU
100
AcDbLine
 10
212.4668419902099
 20
149.0563759878115
 30
0.0
 11
212.4668419902099
 21
74.1192920759861
 31
0.0
  0
LINE
  5
5EF0AA2E
330
5EF092C1
100
AcDbEntity
  8
SUNPOU
100
AcDbLine
 10
472.46684199021
 20
149.0563759878115
 30
0.0
 11
472.46684199021
 21
74.1192920759861
 31
0.0
  0
LINE
  5
5EF0AA2F
330
5EF092C1
100
AcDbEntity
  8
SUNPOU
100
AcDbLine
 10
212.4668419902099
 20
77.11929207598609
 30
0.0
 11
472.46684199021
 21
77.11929207598609
 31
0.0
  0
INSERT
  5
5EF0AA30
330
5EF092C1
100
AcDbEntity
  8
SUNPOU
100
AcDbBlockReference
  2
ARROWANG
 10
212.4668419902099
 20
77.11929207598609
 30
0.0
 41
4.5
 42
4.5
 43
4.5
 50
180.0
  0
INSERT
  5
5EF0AA31
330
5EF092C1
100
AcDbEntity
  8
SUNPOU
100
AcDbBlockReference
  2
ARROWANG
 10
472.46684199021
 20
77.11929207598609
 30
0.0
 41
4.5
 42
4.5
 43
4.5
  0
MTEXT
  5
5EF0AA32
330
5EF092C1
100
AcDbEntity
  8
SUNPOU
100
AcDbMText
 10
342.46684199021
 20
84.61929207598609
 30
0.0
 40
9.0
 41
0.0
 71
     5
 72
     1
  1
\A1;260
  7
K
1001
ACAD
1000
MTEXTBEGIN
1070
    73
1070
     1
1070
    44
1040
1.0
1070
    74
1070
     0
1000
MTEXTEND
  0
LINE
  5
5EF0AA33
330
5EF092C1
100
AcDbEntity
  8
SUNPOU
100
AcDbLine
 10
333.2168419902095
 20
446.8063759878114
 30
0.0
 11
169.2635432151964
 21
446.8063759878114
 31
0.0
  0
LINE
  5
5EF0AA34
330
5EF092C1
100
AcDbEntity
  8
SUNPOU
100
AcDbLine
 10
200.21684199021
 20
242.8063759878114
 30
0.0
 11
169.2635432151964
 21
242.8063759878114
 31
0.0
  0
LINE
  5
5EF0AA35
330
5EF092C1
100
AcDbEntity
  8
SUNPOU
100
AcDbLine
 10
172.2635432151964
 20
446.8063759878114
 30
0.0
 11
172.2635432151964
 21
242.8063759878114
 31
0.0
  0
INSERT
  5
5EF0AA36
330
5EF092C1
100
AcDbEntity
  8
SUNPOU
100
AcDbBlockReference
  2
ARROWANG
 10
172.2635432151964
 20
446.8063759878114
 30
0.0
 41
4.5
 42
4.5
 43
4.5
 50
90.0
  0
INSERT
  5
5EF0AA37
330
5EF092C1
100
AcDbEntity
  8
SUNPOU
100
AcDbBlockReference
  2
ARROWANG
 10
172.2635432151964
 20
242.8063759878114
 30
0.0
 41
4.5
 42
4.5
 43
4.5
 50
270.0
  0
MTEXT
  5
5EF0AA38
330
5EF092C1
100
AcDbEntity
  8
SUNPOU
100
AcDbMText
 10
164.7635432151964
 20
344.8063759878114
 30
0.0
 40
9.0
 41
0.0
 71
     5
 72
     1
  1
204 (全閉時)
  7
K
 11
0.0000000000000001
 21
1.0
 31
0.0
1001
ACAD
1000
MTEXTBEGIN
1070
    73
1070
     1
1070
    44
1040
1.0
1070
    74
1070
     0
1000
MTEXTEND
  0
CIRCLE
  5
5EF0AA39
330
5EF092C1
100
AcDbEntity
  8
SCALE
100
AcDbCircle
 10
872.9087271357443
 20
394.8063759878115
 30
0.0
 40
5.000000000000056
  0
LINE
  5
5EF0AA3A
330
5EF092C1
100
AcDbEntity
  8
SUNPOU
100
AcDbLine
 10
847.1587271357439
 20
394.8063759878115
 30
0.0
 11
732.2305437246442
 21
394.8063759878115
 31
0.0
  0
LINE
  5
5EF0AA3C
330
5EF092C1
100
AcDbEntity
  8
SUNPOU
100
AcDbLine
 10
735.2305437246442
 20
394.8063759878115
 30
0.0
 11
735.2305437246441
 21
242.8063759878115
 31
0.0
  0
INSERT
  5
5EF0AA3D
330
5EF092C1
100
AcDbEntity
  8
SUNPOU
100
AcDbBlockReference
  2
ARROWANG
 10
735.2305437246442
 20
394.8063759878115
 30
0.0
 41
4.5
 42
4.5
 43
4.5
 50
90.0
  0
INSERT
  5
5EF0AA3E
330
5EF092C1
100
AcDbEntity
  8
SUNPOU
100
AcDbBlockReference
  2
ARROWANG
 10
735.2305437246441
 20
242.8063759878115
 30
0.0
 41
4.5
 42
4.5
 43
4.5
 50
270.0
  0
MTEXT
  5
5EF0AA3F
330
5EF092C1
100
AcDbEntity
  8
SUNPOU
100
AcDbMText
 10
727.730543724644
 20
318.8063759878116
 30
0.0
 40
9.0
 41
0.0
 71
     5
 72
     1
  1
\A1;152
  7
K
 11
0.0000000000000001
 21
1.0
 31
0.0
1001
ACAD
1000
MTEXTBEGIN
1070
    73
1070
     1
1070
    44
1040
1.0
1070
    74
1070
     0
1000
MTEXTEND
  0
LINE
  5
5EF0AA40
330
5EF092C1
100
AcDbEntity
  8
SUNPOU
100
AcDbLine
 10
772.1587271357439
 20
242.8063759878115
 30
0.0
 11
703.1746150206572
 21
242.8063759878115
 31
0.0
  0
LINE
  5
5EF0AA41
330
5EF092C1
100
AcDbEntity
  8
SUNPOU
100
AcDbLine
 10
863.658727135744
 20
482.8063759878114
 30
0.0
 11
703.1746150206573
 21
482.8063759878114
 31
0.0
  0
LINE
  5
5EF0AA42
330
5EF092C1
100
AcDbEntity
  8
SUNPOU
100
AcDbLine
 10
706.1746150206572
 20
242.8063759878115
 30
0.0
 11
706.1746150206572
 21
482.8063759878114
 31
0.0
  0
INSERT
  5
5EF0AA43
330
5EF092C1
100
AcDbEntity
  8
SUNPOU
100
AcDbBlockReference
  2
ARROWANG
 10
706.1746150206572
 20
242.8063759878115
 30
0.0
 41
4.5
 42
4.5
 43
4.5
 50
270.0
  0
INSERT
  5
5EF0AA44
330
5EF092C1
100
AcDbEntity
  8
SUNPOU
100
AcDbBlockReference
  2
ARROWANG
 10
706.1746150206573
 20
482.8063759878114
 30
0.0
 41
4.5
 42
4.5
 43
4.5
 50
90.0
  0
MTEXT
  5
5EF0AA45
330
5EF092C1
100
AcDbEntity
  8
SUNPOU
100
AcDbMText
 10
698.6746150206572
 20
362.8063759878116
 30
0.0
 40
9.0
 41
0.0
 71
     5
 72
     1
  1
240 (全開時)
  7
K
 11
0.0000000000000001
 21
1.0
 31
0.0
1001
ACAD
1000
MTEXTBEGIN
1070
    73
1070
     1
1070
    44
1040
1.0
1070
    74
1070
     0
1000
MTEXTEND
  0
LINE
  5
5EF0AA81
330
5EF092C1
100
AcDbEntity
  8
SCALE
 48
2.0
100
AcDbLine
 10
879.9087271357448
 20
446.8063759878114
 30
0.0
 11
879.9087271357448
 21
430.8063759878113
 31
0.0
  0
LINE
  5
5EF0AA82
330
5EF092C1
100
AcDbEntity
  8
SCALE
 48
2.0
100
AcDbLine
 10
879.9087271357448
 20
430.8063759878113
 30
0.0
 11
880.4087271357444
 21
429.9403505840278
 31
0.0
  0
LINE
  5
5EF0AA83
330
5EF092C1
100
AcDbEntity
  8
SCALE
 48
2.0
100
AcDbLine
 10
873.7359522537913
 20
430.8063759878113
 30
0.0
 11
873.7359522537913
 21
446.8063759878114
 31
0.0
  0
LINE
  5
5EF0AA84
330
5EF092C1
100
AcDbEntity
  8
SCALE
 48
2.0
100
AcDbLine
 10
865.9087271357439
 20
430.8063759878113
 30
0.0
 11
865.9087271357439
 21
446.8063759878114
 31
0.0
  0
LINE
  5
5EF0AA85
330
5EF092C1
100
AcDbEntity
  8
SCALE
 48
2.0
100
AcDbLine
 10
872.0815020176997
 20
430.8063759878113
 30
0.0
 11
872.0815020176997
 21
446.8063759878114
 31
0.0
  0
LINE
  5
5EF0AA86
330
5EF092C1
100
AcDbEntity
  8
SCALE
 48
2.0
100
AcDbLine
 10
865.9087271357439
 20
430.8063759878113
 30
0.0
 11
872.0815020176997
 21
446.8063759878114
 31
0.0
  0
LINE
  5
5EF0AA87
330
5EF092C1
100
AcDbEntity
  8
SCALE
 48
2.0
100
AcDbLine
 10
865.9087271357439
 20
446.8063759878114
 30
0.0
 11
872.0815020176997
 21
430.8063759878113
 31
0.0
  0
LINE
  5
5EF0AA88
330
5EF092C1
100
AcDbEntity
  8
SCALE
 48
2.0
100
AcDbLine
 10
865.9087271357439
 20
430.8063759878113
 30
0.0
 11
865.4087271357443
 21
429.9403505840277
 31
0.0
  0
LINE
  5
5EF0AA89
330
5EF092C1
100
AcDbEntity
  8
SCALE
 48
2.0
100
AcDbLine
 10
873.7359522537913
 20
446.8063759878114
 30
0.0
 11
879.9087271357448
 21
430.8063759878113
 31
0.0
  0
LINE
  5
5EF0AA8A
330
5EF092C1
100
AcDbEntity
  8
SCALE
 48
2.0
100
AcDbLine
 10
873.7359522537913
 20
430.8063759878113
 30
0.0
 11
879.9087271357448
 21
446.8063759878114
 31
0.0
  0
LINE
  5
5EF0AA8B
330
5EF092C1
100
AcDbEntity
  8
SCALE
 48
2.0
100
AcDbLine
 10
865.9087271357439
 20
430.8063759878113
 30
0.0
 11
879.9087271357448
 21
430.8063759878113
 31
0.0
  0
LINE
  5
5EF0AA8C
330
5EF092C1
100
AcDbEntity
  8
SCALE
 48
2.0
100
AcDbLine
 10
865.9087271357439
 20
446.8063759878114
 30
0.0
 11
879.9087271357448
 21
446.8063759878114
 31
0.0
  0
LINE
  5
5EF0AA8D
330
5EF092C1
100
AcDbEntity
  8
SCALE
 48
2.0
100
AcDbLine
 10
880.4087271357444
 20
429.9403505840278
 30
0.0
 11
865.4087271357443
 21
429.9403505840277
 31
0.0
  0
LINE
  5
5EF0AA8E
330
5EF092C1
100
AcDbEntity
  8
SCALE
 48
2.0
100
AcDbLine
 10
865.9087271357439
 20
430.8063759878113
 30
0.0
 11
879.9087271357448
 21
430.8063759878113
 31
0.0
  0
LINE
  5
5EF0AA8F
330
5EF092C1
100
AcDbEntity
  8
TENSEN
100
AcDbLine
 10
880.4087271357444
 20
465.9403505840279
 30
0.0
 11
880.4087271357449
 21
429.9403505840279
 31
0.0
  0
LINE
  5
5EF0AA90
330
5EF092C1
100
AcDbEntity
  8
TENSEN
100
AcDbLine
 10
865.4087271357443
 20
465.9403505840276
 30
0.0
 11
865.4087271357441
 21
429.9403505840275
 31
0.0
  0
ARC
  5
5EF0AAF2
330
5EF092C1
100
AcDbEntity
  8
SCALE
100
AcDbCircle
 10
364.7168419902168
 20
291.8063759878119
 30
0.0
 40
6.0
100
AcDbArc
 50
318.1896851042096
 51
221.8103148957903
  0
CIRCLE
  5
5EF0AAF3
330
5EF092C1
100
AcDbEntity
  8
SCALE
100
AcDbCircle
 10
364.7168419902168
 20
291.8063759878119
 30
0.0
 40
4.000000000000341
  0
CIRCLE
  5
5EF0AAF4
330
5EF092C1
100
AcDbEntity
  8
SCALE
100
AcDbCircle
 10
364.7168419902168
 20
283.80637598781
 30
0.0
 40
4.000000000000341
  0
ARC
  5
5EF0AAF5
330
5EF092C1
100
AcDbEntity
  8
SCALE
100
AcDbCircle
 10
364.7168419902168
 20
283.80637598781
 30
0.0
 40
6.0
100
AcDbArc
 50
138.1896851042096
 51
41.81031489579036
  0
LINE
  5
5EF0AAF6
330
5EF092C1
100
AcDbEntity
  8
JISSEN
100
AcDbLine
 10
386.2055996106588
 20
292.1735028917466
 30
0.0
 11
386.2055996106588
 21
284.1735028917458
 31
0.0
  0
LINE
  5
5EF0AAF7
330
5EF092C1
100
AcDbEntity
  8
JISSEN
100
AcDbLine
 10
384.2055996106583
 20
284.1735028917458
 30
0.0
 11
384.2055996106592
 21
292.1735028917466
 31
0.0
  0
LINE
  5
5EF0AAF8
330
5EF092C1
100
AcDbEntity
  8
JISSEN
100
AcDbLine
 10
376.2055996106592
 20
284.1735028917458
 30
0.0
 11
376.2055996106585
 21
292.1735028917466
 31
0.0
  0
LINE
  5
5EF0AAF9
330
5EF092C1
100
AcDbEntity
  8
JISSEN
100
AcDbLine
 10
374.2055996106588
 20
292.1735028917466
 30
0.0
 11
374.2055996106588
 21
284.1735028917458
 31
0.0
  0
ARC
  5
5EF0AAFA
330
5EF092C1
100
AcDbEntity
  8
JISSEN
100
AcDbCircle
 10
380.2055996106588
 20
284.1735028917458
 30
0.0
 40
4.000000000000369
100
AcDbArc
 50
180.0000000000065
 51
0.0
  0
ARC
  5
5EF0AAFB
330
5EF092C1
100
AcDbEntity
  8
JISSEN
100
AcDbCircle
 10
380.2055996106588
 20
284.1735028917458
 30
0.0
 40
6.000000000000369
100
AcDbArc
 50
180.0
 51
0.0
  0
ARC
  5
5EF0AAFC
330
5EF092C1
100
AcDbEntity
  8
JISSEN
100
AcDbCircle
 10
380.2055996106588
 20
292.1735028917466
 30
0.0
 40
6.000000000000369
100
AcDbArc
 50
0.0
 51
180.0
  0
ARC
  5
5EF0AAFD
330
5EF092C1
100
AcDbEntity
  8
JISSEN
100
AcDbCircle
 10
380.2055996106588
 20
292.1735028917466
 30
0.0
 40
4.000000000000369
100
AcDbArc
 50
0.0
 51
180.0000000000065
  0
LINE
  5
5EF0ABA1
330
5EF092C1
100
AcDbEntity
  8
JISSEN
100
AcDbLine
 10
334.96684199021
 20
656.9910706692203
 30
0.0
 11
342.46684199021
 21
649.4910706692204
 31
0.0
  0
LINE
  5
5EF0ABA2
330
5EF092C1
100
AcDbEntity
  8
JISSEN
100
AcDbLine
 10
342.46684199021
 20
664.4910706692204
 30
0.0
 11
334.96684199021
 21
656.9910706692203
 31
0.0
  0
ARC
  5
5EF0ABA3
330
5EF092C1
100
AcDbEntity
  8
JISSEN
100
AcDbCircle
 10
342.46684199021
 20
656.9910706692204
 30
0.0
 40
7.5
100
AcDbArc
 50
180.0
 51
0.0
  0
ARC
  5
5EF0ABA4
330
5EF092C1
100
AcDbEntity
  8
JISSEN
100
AcDbCircle
 10
342.46684199021
 20
656.9910706692204
 30
0.0
 40
18.0
100
AcDbArc
 50
180.0
 51
0.0
  0
ARC
  5
5EF0ABA5
330
5EF092C1
100
AcDbEntity
  8
JISSEN
100
AcDbCircle
 10
342.46684199021
 20
656.9910706692204
 30
0.0
 40
18.0
100
AcDbArc
 50
0.0
 51
180.0
  0
ARC
  5
5EF0ABA6
330
5EF092C1
100
AcDbEntity
  8
JISSEN
100
AcDbCircle
 10
342.46684199021
 20
656.9910706692204
 30
0.0
 40
7.5
100
AcDbArc
 50
0.0
 51
180.0
  0
LINE
  5
5EF0ABA7
330
5EF092C1
100
AcDbEntity
  8
JISSEN
100
AcDbLine
 10
334.46684199021
 20
552.9910706692204
 30
0.0
 11
350.46684199021
 21
552.9910706692203
 31
0.0
  0
CIRCLE
  5
5EF0ABA8
330
5EF092C1
100
AcDbEntity
  8
SAISEN
100
AcDbCircle
 10
342.4668419902098
 20
574.4910706692203
 30
0.0
 40
12.00000000000004
  0
LWPOLYLINE
  5
5EF0ABA9
330
5EF092C1
100
AcDbEntity
  8
JISSEN
100
AcDbPolyline
 90
        6
 70
     1
 43
0.0
 10
349.3950452204852
 20
586.4910706692204
 10
335.5386387599342
 20
586.4910706692203
 10
328.6104355296586
 20
574.4910706692203
 10
335.5386387599342
 20
562.4910706692203
 10
349.3950452204852
 20
562.4910706692203
 10
356.3232484507607
 20
574.4910706692203
  0
ARC
  5
5EF0ABAE
330
5EF092C1
100
AcDbEntity
  8
JISSEN
100
AcDbCircle
 10
342.46684199021
 20
656.9910706692204
 30
0.0
 40
100.0
100
AcDbArc
 50
180.0
 51
270.0
  0
ARC
  5
5EF0ABAF
330
5EF092C1
100
AcDbEntity
  8
JISSEN
100
AcDbCircle
 10
342.46684199021
 20
656.9910706692204
 30
0.0
 40
100.0
100
AcDbArc
 50
10.95278419889429
 51
180.0
  0
CIRCLE
  5
5EF0ABB0
330
5EF092C1
100
AcDbEntity
  8
SAISEN
100
AcDbCircle
 10
342.4668419902102
 20
739.4910706692201
 30
0.0
 40
12.00000000000004
  0
LWPOLYLINE
  5
5EF0ABB1
330
5EF092C1
100
AcDbEntity
  8
JISSEN
100
AcDbPolyline
 90
        6
 70
     1
 43
0.0
 10
335.5386387599346
 20
727.4910706692202
 10
349.3950452204857
 20
727.4910706692202
 10
356.3232484507611
 20
739.4910706692203
 10
349.3950452204858
 20
751.4910706692203
 10
335.5386387599346
 20
751.4910706692203
 10
328.610435529659
 20
739.4910706692203
  0
LINE
  5
5EF0ABB2
330
5EF092C1
100
AcDbEntity
  8
JISSEN
100
AcDbLine
 10
234.46684199021
 20
565.4910706692203
 30
0.0
 11
234.46684199021
 21
656.9910706692204
 31
0.0
  0
LINE
  5
5EF0ABB3
330
5EF092C1
100
AcDbEntity
  8
JISSEN
100
AcDbLine
 10
212.4668419902099
 20
747.9910706692204
 30
0.0
 11
212.4668419902099
 21
565.9910706692203
 31
0.0
  0
LWPOLYLINE
  5
5EF0ABB5
330
5EF092C1
100
AcDbEntity
  8
JISSEN
100
AcDbPolyline
 90
        6
 70
     1
 43
0.0
 10
284.8761526385446
 20
615.7410706692205
 10
277.9479494082692
 20
627.7410706692205
 10
264.0915429477181
 20
627.7410706692205
 10
257.1633397174425
 20
615.7410706692205
 10
264.0915429477181
 20
603.7410706692205
 10
277.9479494082692
 20
603.7410706692205
  0
CIRCLE
  5
5EF0ABB6
330
5EF092C1
100
AcDbEntity
  8
SAISEN
100
AcDbCircle
 10
271.0197461779937
 20
615.7410706692205
 30
0.0
 40
12.00000000000004
  0
ARC
  5
5EF0ABB7
330
5EF092C1
100
AcDbEntity
  8
JISSEN
100
AcDbCircle
 10
342.46684199021
 20
731.9910706692204
 30
0.0
 40
158.0
100
AcDbArc
 50
231.8675438866476
 51
240.311874275401
  0
LINE
  5
5EF0ABB9
330
5EF092C1
100
AcDbEntity
  8
JISSEN
100
AcDbLine
 10
213.96684199021
 20
564.4910706692203
 30
0.0
 11
233.46684199021
 21
564.4910706692203
 31
0.0
  0
LINE
  5
5EF0ABBA
330
5EF092C1
100
AcDbEntity
  8
JISSEN
100
AcDbLine
 10
213.96684199021
 20
564.4910706692203
 30
0.0
 11
212.4668419902099
 21
565.9910706692203
 31
0.0
  0
ARC
  5
5EF0ABBB
330
5EF092C1
100
AcDbEntity
  8
JISSEN
100
AcDbCircle
 10
233.46684199021
 20
565.4910706692204
 30
0.0
 40
1.0
100
AcDbArc
 50
270.0
 51
0.0
  0
ARC
  5
5EF0ABBC
330
5EF092C1
100
AcDbEntity
  8
JISSEN
100
AcDbCircle
 10
241.1998681043474
 20
602.9910706692204
 30
0.0
 40
6.0
100
AcDbArc
 50
51.86754388664759
 51
137.8767155822774
  0
LINE
  5
5EF0ABBD
330
5EF092C1
100
AcDbEntity
  8
JISSEN
100
AcDbLine
 10
236.0166220389803
 20
606.2048456312837
 30
0.0
 11
236.7496481531177
 21
607.0154392390309
 31
0.0
  0
ARC
  5
5EF0ABBE
330
5EF092C1
100
AcDbEntity
  8
JISSEN
100
AcDbCircle
 10
240.46684199021
 20
602.1804770614733
 30
0.0
 40
6.0
100
AcDbArc
 50
137.8767155822774
 51
180.0
  0
ARC
  5
5EF0ABBF
330
5EF092C1
100
AcDbEntity
  8
JISSEN
100
AcDbCircle
 10
334.46684199021
 20
555.9910706692204
 30
0.0
 40
3.0
100
AcDbArc
 50
180.0
 51
270.0
  0
LINE
  5
5EF0ABC0
330
5EF092C1
100
AcDbEntity
  8
JISSEN
100
AcDbLine
 10
331.46684199021
 20
555.9910706692204
 30
0.0
 11
331.46684199021
 21
557.5979119509263
 31
0.0
  0
LINE
  5
5EF0ABC1
330
5EF092C1
100
AcDbEntity
  8
JISSEN
100
AcDbLine
 10
234.4668419902098
 20
656.9910706692203
 30
0.0
 11
234.46684199021
 21
748.4910706692204
 31
0.0
  0
CIRCLE
  5
5EF0ABC2
330
5EF092C1
100
AcDbEntity
  8
SAISEN
100
AcDbCircle
 10
271.0197461779938
 20
698.2410706692205
 30
0.0
 40
12.00000000000004
  0
LWPOLYLINE
  5
5EF0ABC3
330
5EF092C1
100
AcDbEntity
  8
JISSEN
100
AcDbPolyline
 90
        6
 70
     1
 43
0.0
 10
277.9479494082695
 20
686.2410706692205
 10
284.8761526385449
 20
698.2410706692205
 10
277.9479494082695
 20
710.2410706692205
 10
264.0915429477183
 20
710.2410706692205
 10
257.1633397174427
 20
698.2410706692205
 10
264.0915429477183
 20
686.2410706692205
  0
ARC
  5
5EF0ABC6
330
5EF092C1
100
AcDbEntity
  8
JISSEN
100
AcDbCircle
 10
342.466841990209
 20
581.9910706692192
 30
0.0
 40
158.0
100
AcDbArc
 50
119.6881257245989
 51
128.1324561133524
  0
ARC
  5
5EF0ABC7
330
5EF092C1
100
AcDbEntity
  8
JISSEN
100
AcDbCircle
 10
240.4668419902106
 20
711.8016642769675
 30
0.0
 40
6.0
100
AcDbArc
 50
180.0
 51
222.1232844177225
  0
ARC
  5
5EF0ABC8
330
5EF092C1
100
AcDbEntity
  8
JISSEN
100
AcDbCircle
 10
241.199868104348
 20
710.9910706692205
 30
0.0
 40
6.0
100
AcDbArc
 50
222.1232844177225
 51
308.1324561133523
  0
LINE
  5
5EF0ABC9
330
5EF092C1
100
AcDbEntity
  8
JISSEN
100
AcDbLine
 10
236.0166220389809
 20
707.7772957071572
 30
0.0
 11
236.7496481531184
 21
706.9667020994102
 31
0.0
  0
LINE
  5
5EF0ABCA
330
5EF092C1
100
AcDbEntity
  8
JISSEN
100
AcDbLine
 10
233.46684199021
 20
749.4910706692204
 30
0.0
 11
213.96684199021
 21
749.4910706692204
 31
0.0
  0
LINE
  5
5EF0ABCB
330
5EF092C1
100
AcDbEntity
  8
JISSEN
100
AcDbLine
 10
212.4668419902099
 20
747.9910706692204
 30
0.0
 11
213.96684199021
 21
749.4910706692204
 31
0.0
  0
ARC
  5
5EF0ABCC
330
5EF092C1
100
AcDbEntity
  8
JISSEN
100
AcDbCircle
 10
233.46684199021
 20
748.4910706692204
 30
0.0
 40
1.0
100
AcDbArc
 50
0.0
 51
90.0
  0
LINE
  5
5EF0ABCD
330
5EF092C1
100
AcDbEntity
  8
JISSEN
100
AcDbLine
 10
442.46684199021
 20
656.9910706692204
 30
0.0
 11
442.46684199021
 21
638.9910706692205
 31
0.0
  0
LINE
  5
5EF0ABCE
330
5EF092C1
100
AcDbEntity
  8
JISSEN
100
AcDbLine
 10
413.4668419902097
 20
639.9910706692205
 30
0.0
 11
413.46684199021
 21
656.9910706692204
 31
0.0
  0
ARC
  5
5EF0ABCF
330
5EF092C1
100
AcDbEntity
  8
JISSEN
100
AcDbCircle
 10
385.6216094115445
 20
656.9910706692204
 30
0.0
 40
13.0
100
AcDbArc
 50
180.0
 51
270.0
  0
LINE
  5
5EF0ABD1
330
5EF092C1
100
AcDbEntity
  8
JISSEN
100
AcDbLine
 10
450.46684199021
 20
565.4910706692203
 30
0.0
 11
450.46684199021
 21
656.9910706692204
 31
0.0
  0
LINE
  5
5EF0ABD2
330
5EF092C1
100
AcDbEntity
  8
JISSEN
100
AcDbLine
 10
472.46684199021
 20
747.9910706692204
 30
0.0
 11
472.46684199021
 21
565.9910706692203
 31
0.0
  0
ARC
  5
5EF0ABD3
330
5EF092C1
100
AcDbEntity
  8
JISSEN
100
AcDbCircle
 10
342.46684199021
 20
656.9910706692204
 30
0.0
 40
100.0
100
AcDbArc
 50
270.0
 51
349.0472158011057
  0
ARC
  5
5EF0ABD4
330
5EF092C1
100
AcDbEntity
  8
JISSEN
100
AcDbCircle
 10
411.4668419902097
 20
641.9910706692205
 30
0.0
 40
2.0
100
AcDbArc
 50
0.0
 51
90.0
  0
ARC
  5
5EF0ABD5
330
5EF092C1
100
AcDbEntity
  8
JISSEN
100
AcDbCircle
 10
415.4668419902098
 20
639.9910706692205
 30
0.0
 40
2.0
100
AcDbArc
 50
180.0
 51
270.0
  0
CIRCLE
  5
5EF0ABD6
330
5EF092C1
100
AcDbEntity
  8
SAISEN
100
AcDbCircle
 10
413.9139378024259
 20
615.7410706692201
 30
0.0
 40
12.00000000000004
  0
LWPOLYLINE
  5
5EF0ABD7
330
5EF092C1
100
AcDbEntity
  8
JISSEN
100
AcDbPolyline
 90
        6
 70
     1
 43
0.0
 10
406.9857345721503
 20
627.7410706692201
 10
400.0575313418749
 20
615.7410706692201
 10
406.9857345721503
 20
603.7410706692201
 10
420.8421410327014
 20
603.7410706692201
 10
427.7703442629769
 20
615.7410706692201
 10
420.8421410327014
 20
627.7410706692201
  0
ARC
  5
5EF0ABDA
330
5EF092C1
100
AcDbEntity
  8
JISSEN
100
AcDbCircle
 10
350.46684199021
 20
555.9910706692203
 30
0.0
 40
3.0
100
AcDbArc
 50
270.0
 51
0.0
  0
LINE
  5
5EF0ABDB
330
5EF092C1
100
AcDbEntity
  8
JISSEN
100
AcDbLine
 10
353.4668419902099
 20
555.9910706692203
 30
0.0
 11
353.46684199021
 21
557.5979119509263
 31
0.0
  0
LINE
  5
5EF0ABDC
330
5EF092C1
100
AcDbEntity
  8
JISSEN
100
AcDbLine
 10
385.6216094115445
 20
643.9910706692205
 30
0.0
 11
411.4668419902097
 21
643.9910706692205
 31
0.0
  0
ARC
  5
5EF0ABDD
330
5EF092C1
100
AcDbEntity
  8
JISSEN
100
AcDbCircle
 10
342.46684199021
 20
731.9910706692204
 30
0.0
 40
158.0
100
AcDbArc
 50
299.6881257245989
 51
308.1324561133523
  0
LINE
  5
5EF0ABDF
330
5EF092C1
100
AcDbEntity
  8
JISSEN
100
AcDbLine
 10
470.96684199021
 20
564.4910706692203
 30
0.0
 11
451.46684199021
 21
564.4910706692203
 31
0.0
  0
ARC
  5
5EF0ABE0
330
5EF092C1
100
AcDbEntity
  8
JISSEN
100
AcDbCircle
 10
451.46684199021
 20
565.4910706692204
 30
0.0
 40
1.0
100
AcDbArc
 50
180.0
 51
270.0
  0
LINE
  5
5EF0ABE1
330
5EF092C1
100
AcDbEntity
  8
JISSEN
100
AcDbLine
 10
472.46684199021
 20
565.9910706692203
 30
0.0
 11
470.96684199021
 21
564.4910706692203
 31
0.0
  0
ARC
  5
5EF0ABE2
330
5EF092C1
100
AcDbEntity
  8
JISSEN
100
AcDbCircle
 10
444.4668419902099
 20
602.1804770614733
 30
0.0
 40
6.0
100
AcDbArc
 50
0.0
 51
42.12328441772252
  0
ARC
  5
5EF0ABE3
330
5EF092C1
100
AcDbEntity
  8
JISSEN
100
AcDbCircle
 10
443.7338158760726
 20
602.9910706692204
 30
0.0
 40
6.0
100
AcDbArc
 50
42.12328441772252
 51
128.1324561133524
  0
LINE
  5
5EF0ABE4
330
5EF092C1
100
AcDbEntity
  8
JISSEN
100
AcDbLine
 10
448.9170619414396
 20
606.2048456312837
 30
0.0
 11
448.1840358273021
 21
607.0154392390309
 31
0.0
  0
LINE
  5
5EF0ABE5
330
5EF092C1
100
AcDbEntity
  8
JISSEN
100
AcDbLine
 10
441.46684199021
 20
637.9910706692205
 30
0.0
 11
415.4668419902098
 21
637.9910706692205
 31
0.0
  0
ARC
  5
5EF0ABE6
330
5EF092C1
100
AcDbEntity
  8
JISSEN
100
AcDbCircle
 10
441.46684199021
 20
638.9910706692205
 30
0.0
 40
1.0
100
AcDbArc
 50
270.0
 51
0.0
  0
LINE
  5
5EF0ABE9
330
5EF092C1
100
AcDbEntity
  8
JISSEN
100
AcDbLine
 10
450.4668419902099
 20
656.9910706692203
 30
0.0
 11
450.46684199021
 21
748.4910706692204
 31
0.0
  0
ARC
  5
5EF0ABEA
330
5EF092C1
100
AcDbEntity
  8
JISSEN
100
AcDbCircle
 10
415.4668419902098
 20
673.9910706692203
 30
0.0
 40
2.0
100
AcDbArc
 50
90.0
 51
180.0
  0
ARC
  5
5EF0ABEB
330
5EF092C1
100
AcDbEntity
  8
JISSEN
100
AcDbCircle
 10
411.4668419902097
 20
671.9910706692203
 30
0.0
 40
2.0
100
AcDbArc
 50
270.0
 51
0.0
  0
CIRCLE
  5
5EF0ABEC
330
5EF092C1
100
AcDbEntity
  8
SAISEN
100
AcDbCircle
 10
413.9139378024262
 20
698.2410706692201
 30
0.0
 40
12.00000000000004
  0
LWPOLYLINE
  5
5EF0ABED
330
5EF092C1
100
AcDbEntity
  8
JISSEN
100
AcDbPolyline
 90
        6
 70
     1
 43
0.0
 10
400.057531341875
 20
698.2410706692201
 10
406.9857345721507
 20
686.2410706692201
 10
420.8421410327018
 20
686.2410706692201
 10
427.7703442629772
 20
698.2410706692201
 10
420.8421410327018
 20
710.2410706692201
 10
406.9857345721507
 20
710.2410706692201
  0
ARC
  5
5EF0ABEF
330
5EF092C1
100
AcDbEntity
  8
JISSEN
100
AcDbCircle
 10
385.6216094115445
 20
656.9910706692204
 30
0.0
 40
13.0
100
AcDbArc
 50
90.0
 51
180.0
  0
LINE
  5
5EF0ABF0
330
5EF092C1
100
AcDbEntity
  8
JISSEN
100
AcDbLine
 10
349.96684199021
 20
656.9910706692203
 30
0.0
 11
342.46684199021
 21
664.4910706692204
 31
0.0
  0
LINE
  5
5EF0ABF1
330
5EF092C1
100
AcDbEntity
  8
JISSEN
100
AcDbLine
 10
342.46684199021
 20
649.4910706692204
 30
0.0
 11
349.9668419902099
 21
656.9910706692204
 31
0.0
  0
LINE
  5
5EF0ABF2
330
5EF092C1
100
AcDbEntity
  8
JISSEN
100
AcDbLine
 10
385.6216094115445
 20
669.9910706692203
 30
0.0
 11
411.4668419902097
 21
669.9910706692203
 31
0.0
  0
LINE
  5
5EF0ABF3
330
5EF092C1
100
AcDbEntity
  8
JISSEN
100
AcDbLine
 10
413.4668419902097
 20
673.9910706692203
 30
0.0
 11
413.46684199021
 21
656.9910706692204
 31
0.0
  0
LINE
  5
5EF0ABF4
330
5EF092C1
100
AcDbEntity
  8
JISSEN
100
AcDbLine
 10
442.46684199021
 20
656.9910706692204
 30
0.0
 11
442.46684199021
 21
674.9910706692203
 31
0.0
  0
LINE
  5
5EF0ABF5
330
5EF092C1
100
AcDbEntity
  8
JISSEN
100
AcDbLine
 10
441.46684199021
 20
675.9910706692203
 30
0.0
 11
415.4668419902098
 21
675.9910706692203
 31
0.0
  0
ARC
  5
5EF0ABF6
330
5EF092C1
100
AcDbEntity
  8
JISSEN
100
AcDbCircle
 10
441.46684199021
 20
674.9910706692203
 30
0.0
 40
1.0
100
AcDbArc
 50
0.0
 51
90.0
  0
ARC
  5
5EF0ABF7
330
5EF092C1
100
AcDbEntity
  8
JISSEN
100
AcDbCircle
 10
444.4668419902106
 20
711.8016642769649
 30
0.0
 40
6.0
100
AcDbArc
 50
317.8767155822774
 51
0.0
  0
ARC
  5
5EF0ABF9
330
5EF092C1
100
AcDbEntity
  8
JISSEN
100
AcDbCircle
 10
342.466841990209
 20
581.9910706692192
 30
0.0
 40
158.0
100
AcDbArc
 50
51.86754388663844
 51
60.31187427540106
  0
ARC
  5
5EF0ABFA
330
5EF092C1
100
AcDbEntity
  8
JISSEN
100
AcDbCircle
 10
443.7338158760733
 20
710.9910706692178
 30
0.0
 40
6.0
100
AcDbArc
 50
231.8675438866476
 51
317.8767155822774
  0
LINE
  5
5EF0ABFB
330
5EF092C1
100
AcDbEntity
  8
JISSEN
100
AcDbLine
 10
448.9170619414402
 20
707.7772957071545
 30
0.0
 11
448.1840358273026
 21
706.9667020994073
 31
0.0
  0
LINE
  5
5EF0ABFC
330
5EF092C1
100
AcDbEntity
  8
JISSEN
100
AcDbLine
 10
451.46684199021
 20
749.4910706692204
 30
0.0
 11
470.96684199021
 21
749.4910706692204
 31
0.0
  0
ARC
  5
5EF0ABFD
330
5EF092C1
100
AcDbEntity
  8
JISSEN
100
AcDbCircle
 10
451.46684199021
 20
748.4910706692204
 30
0.0
 40
1.0
100
AcDbArc
 50
90.0
 51
180.0
  0
LINE
  5
5EF0ABFE
330
5EF092C1
100
AcDbEntity
  8
JISSEN
100
AcDbLine
 10
472.46684199021
 20
747.9910706692204
 30
0.0
 11
470.96684199021
 21
749.4910706692204
 31
0.0
  0
TEXT
  5
5EF0ACAA
330
5EF092C1
100
AcDbEntity
  8
SUNPOU
100
AcDbText
 10
1014.627707813778
 20
11.49919982717886
 30
0.0
 40
9.0
  1
A3 用紙、印刷尺度：1/3
  7
K
100
AcDbText
  0
LINE
  5
5EF0ACAB
330
5EF092C1
100
AcDbEntity
  8
SUNPOU
100
AcDbLine
 10
1097.625570941313
 20
35.49857130504648
 30
0.0
 11
1097.625570941313
 21
26.49857130504648
 31
0.0
  0
LINE
  5
5EF0ACAC
330
5EF092C1
100
AcDbEntity
  8
SUNPOU
100
AcDbLine
 10
1094.625570941313
 20
35.49857130504648
 30
0.0
 11
1094.625570941313
 21
26.49857130504648
 31
0.0
  0
LINE
  5
5EF0ACAD
330
5EF092C1
100
AcDbEntity
  8
SUNPOU
100
AcDbLine
 10
1093.125570941313
 20
26.49857130504648
 30
0.0
 11
1099.125570941313
 21
26.49857130504648
 31
0.0
  0
LINE
  5
5EF0ACAE
330
5EF092C1
100
AcDbEntity
  8
SUNPOU
100
AcDbLine
 10
1093.125570941313
 20
35.49857130504648
 30
0.0
 11
1099.125570941313
 21
35.49857130504648
 31
0.0
  0
TEXT
  5
5EF0ACAF
330
5EF092C1
100
AcDbEntity
  8
SUNPOU
100
AcDbText
 10
1014.627707813778
 20
26.49919982717887
 30
0.0
 40
9.0
  1
一斉開放弁 DV  80 外観図
  7
K
100
AcDbText
  0
LINE
  5
5EF0ACB1
330
5EF092C1
100
AcDbEntity
  8
ITTEN
 48
3.0
100
AcDbLine
 10
477.4668419902099
 20
731.9910706692202
 30
0.0
 11
445.46684199021
 21
731.9910706692202
 31
0.0
  0
LINE
  5
5EF0ACB2
330
5EF092C1
100
AcDbEntity
  8
ITTEN
 48
3.0
100
AcDbLine
 10
477.4668419902099
 20
581.9910706692204
 30
0.0
 11
445.46684199021
 21
581.9910706692204
 31
0.0
  0
LINE
  5
5EF0ACB3
330
5EF092C1
100
AcDbEntity
  8
ITTEN
 48
3.0
100
AcDbLine
 10
482.46684199021
 20
656.9910706692203
 30
0.0
 11
202.46684199021
 21
656.9910706692202
 31
0.0
  0
LINE
  5
5EF0ACB4
330
5EF092C1
100
AcDbEntity
  8
ITTEN
 48
3.0
100
AcDbLine
 10
207.46684199021
 20
731.9910706692202
 30
0.0
 11
239.4668419902099
 21
731.9910706692202
 31
0.0
  0
LINE
  5
5EF0ACB5
330
5EF092C1
100
AcDbEntity
  8
ITTEN
 48
3.0
100
AcDbLine
 10
207.46684199021
 20
581.9910706692204
 30
0.0
 11
239.4668419902099
 21
581.9910706692204
 31
0.0
  0
LINE
  5
5EF0ACB9
330
5EF092C1
100
AcDbEntity
  8
ITTEN
 48
3.0
100
AcDbLine
 10
342.46684199021
 20
547.9910706692203
 30
0.0
 11
342.46684199021
 21
761.9910706692204
 31
0.0
  0
LINE
  5
5EF0ACBD
330
5EF092C1
100
AcDbEntity
  8
ITTEN
 48
3.0
100
AcDbLine
 10
399.1915059380907
 20
689.7410706692201
 30
0.0
 11
428.6363696667618
 21
706.7410706692201
 31
0.0
  0
LINE
  5
5EF0ACBE
330
5EF092C1
100
AcDbEntity
  8
ITTEN
 48
3.0
100
AcDbLine
 10
399.1915059380907
 20
624.2410706692205
 30
0.0
 11
428.6363696667618
 21
607.2410706692205
 31
0.0
  0
LINE
  5
5EF0ACBF
330
5EF092C1
100
AcDbEntity
  8
ITTEN
 48
3.0
100
AcDbLine
 10
285.7421780423294
 20
624.2410706692205
 30
0.0
 11
256.2973143136583
 21
607.2410706692205
 31
0.0
  0
LINE
  5
5EF0ACC0
330
5EF092C1
100
AcDbEntity
  8
ITTEN
 48
3.0
100
AcDbLine
 10
285.7421780423294
 20
689.7410706692201
 30
0.0
 11
256.2973143136583
 21
706.7410706692201
 31
0.0
  0
CIRCLE
  5
5EF0ACC1
330
5EF092C1
100
AcDbEntity
  8
ITTEN
 48
3.0
100
AcDbCircle
 10
342.4668419902101
 20
656.9910706692202
 30
0.0
 40
82.50000000000003
  0
ENDSEC
  0
SECTION
  2
OBJECTS
  0
DICTIONARY
  5
5EF092B5
330
0
100
AcDbDictionary
  3
ACAD_GROUP
350
5EF092B6
  3
ACAD_LAYOUT
350
5EF0A02F
  3
ACAD_MLINESTYLE
350
5EF092B7
  3
ACAD_PLOTSETTINGS
350
5EF0A030
  3
ACAD_PLOTSTYLENAME
350
5EF0A02D
  3
ACDBHEADERROUNDTRIPXREC
350
5EF0AD7B
  3
ACDBVARIABLEDICTIONARY
350
5EF095CB
  0
DICTIONARY
  5
5EF0A64E
330
5EF092C1
100
AcDbDictionary
280
     1
  3
ACAD_LAYOUTSELFREF
360
5EF0AD9D
  0
DICTIONARY
  5
5EF0A64C
330
5EF092BE
100
AcDbDictionary
280
     1
  3
ACAD_LAYOUTSELFREF
360
5EF0AD9C
  0
DICTIONARY
  5
5EF092B6
102
{ACAD_REACTORS
330
5EF092B5
102
}
330
5EF092B5
100
AcDbDictionary
  0
DICTIONARY
  5
5EF0A02F
102
{ACAD_REACTORS
330
5EF092B5
102
}
330
5EF092B5
100
AcDbDictionary
  0
DICTIONARY
  5
5EF092B7
102
{ACAD_REACTORS
330
5EF092B5
102
}
330
5EF092B5
100
AcDbDictionary
  3
STANDARD
350
5EF092C4
  0
DICTIONARY
  5
5EF0A030
102
{ACAD_REACTORS
330
5EF092B5
102
}
330
5EF092B5
100
AcDbDictionary
  0
ACDBDICTIONARYWDFLT
  5
5EF0A02D
102
{ACAD_REACTORS
330
5EF092B5
102
}
330
5EF092B5
100
AcDbDictionary
281
     1
  3
Normal
350
5EF0A02E
100
AcDbDictionaryWithDefault
340
5EF0A02E
  0
DICTIONARY
  5
5EF0AD7B
102
{ACAD_REACTORS
330
5EF092B5
102
}
330
5EF092B5
100
AcDbDictionary
  3
CEPSNTYPE
350
5EF0AD85
  3
DIMSTYLEDATA
350
5EF0AD89
  3
FINGERPRINTGUID
350
5EF0AD86
  3
HYPERLINKBASE
350
5EF0AD7E
  3
INSUNITS
350
5EF0AD84
  3
LAYOUTDICT
350
5EF0AD80
  3
LWETCUNION
350
5EF0AD83
  3
PLOTSETDICT
350
5EF0AD81
  3
PLOTSTYLNAMDICT
350
5EF0AD82
  3
PSVPSCALE
350
5EF0AD88
  3
PUCSBASE
350
5EF0AD8C
  3
PUCSORGBACK
350
5EF0AD92
  3
PUCSORGBOTTOM
350
5EF0AD8E
  3
PUCSORGFRONT
350
5EF0AD91
  3
PUCSORGLEFT
350
5EF0AD8F
  3
PUCSORGRIGHT
350
5EF0AD90
  3
PUCSORGTOP
350
5EF0AD8D
  3
PUCSORTHOREF
350
5EF0AD8A
  3
PUCSORTHOVIEW
350
5EF0AD8B
  3
STYLESHEET
350
5EF0AD7F
  3
TSTACKALIGN
350
5EF0AD7C
  3
TSTACKSIZE
350
5EF0AD7D
  3
UCSBASE
350
5EF0AD95
  3
UCSORGBACK
350
5EF0AD9B
  3
UCSORGBOTTOM
350
5EF0AD97
  3
UCSORGFRONT
350
5EF0AD9A
  3
UCSORGLEFT
350
5EF0AD98
  3
UCSORGRIGHT
350
5EF0AD99
  3
UCSORGTOP
350
5EF0AD96
  3
UCSORTHOREF
350
5EF0AD93
  3
UCSORTHOVIEW
350
5EF0AD94
  3
VERSIONGUID
350
5EF0AD87
  0
DICTIONARY
  5
5EF095CB
102
{ACAD_REACTORS
330
5EF092B5
102
}
330
5EF092B5
100
AcDbDictionary
  3
DIMASSOC
350
5EF0AD79
  3
SORTENTS
350
5EF095CC
  0
XRECORD
  5
5EF0AD9D
102
{ACAD_REACTORS
330
5EF0A64E
102
}
330
5EF0A64E
100
AcDbXrecord
340
5EF092C1
  0
XRECORD
  5
5EF0AD9C
102
{ACAD_REACTORS
330
5EF0A64C
102
}
330
5EF0A64C
100
AcDbXrecord
340
5EF092BE
  0
MLINESTYLE
  5
5EF092C4
102
{ACAD_REACTORS
330
5EF092B7
102
}
330
5EF092B7
100
AcDbMlineStyle
  2
STANDARD
 70
     0
  3

 62
     0
 51
90.0
 52
90.0
 71
     2
 49
0.5
 62
   256
  6
BYLAYER
 49
-0.5
 62
   256
  6
BYLAYER
  0
ACDBPLACEHOLDER
  5
5EF0A02E
102
{ACAD_REACTORS
330
5EF0A02D
102
}
330
5EF0A02D
100
AcDbPlaceHolder
280
     0
  0
XRECORD
  5
5EF0AD85
102
{ACAD_REACTORS
330
5EF0AD7B
102
}
330
5EF0AD7B
100
AcDbXrecord
 90
        0
  0
XRECORD
  5
5EF0AD89
102
{ACAD_REACTORS
330
5EF0AD7B
102
}
330
5EF0AD7B
100
AcDbXrecord
1000
DSTYLE
1002
{
1070
   341
340
5EF092CB
1070
   343
340
5EF092CB
1070
   344
340
5EF092CB
1002
}
  0
XRECORD
  5
5EF0AD86
102
{ACAD_REACTORS
330
5EF0AD7B
102
}
330
5EF0AD7B
100
AcDbXrecord
  1
{A070B581-E1B8-4670-814B-80E553C34829}
  0
XRECORD
  5
5EF0AD7E
102
{ACAD_REACTORS
330
5EF0AD7B
102
}
330
5EF0AD7B
100
AcDbXrecord
  1

  0
XRECORD
  5
5EF0AD84
102
{ACAD_REACTORS
330
5EF0AD7B
102
}
330
5EF0AD7B
100
AcDbXrecord
 90
        0
  0
XRECORD
  5
5EF0AD80
102
{ACAD_REACTORS
330
5EF0AD7B
102
}
330
5EF0AD7B
100
AcDbXrecord
340
5EF0A02F
  0
XRECORD
  5
5EF0AD83
102
{ACAD_REACTORS
330
5EF0AD7B
102
}
330
5EF0AD7B
100
AcDbXrecord
 90
    14877
  0
XRECORD
  5
5EF0AD81
102
{ACAD_REACTORS
330
5EF0AD7B
102
}
330
5EF0AD7B
100
AcDbXrecord
340
5EF0A030
  0
XRECORD
  5
5EF0AD82
102
{ACAD_REACTORS
330
5EF0AD7B
102
}
330
5EF0AD7B
100
AcDbXrecord
340
5EF0A02D
  0
XRECORD
  5
5EF0AD88
102
{ACAD_REACTORS
330
5EF0AD7B
102
}
330
5EF0AD7B
100
AcDbXrecord
 40
0.0
  0
XRECORD
  5
5EF0AD8C
102
{ACAD_REACTORS
330
5EF0AD7B
102
}
330
5EF0AD7B
100
AcDbXrecord
340
0
  0
XRECORD
  5
5EF0AD92
102
{ACAD_REACTORS
330
5EF0AD7B
102
}
330
5EF0AD7B
100
AcDbXrecord
 10
0.0
 20
0.0
 30
0.0
  0
XRECORD
  5
5EF0AD8E
102
{ACAD_REACTORS
330
5EF0AD7B
102
}
330
5EF0AD7B
100
AcDbXrecord
 10
0.0
 20
0.0
 30
0.0
  0
XRECORD
  5
5EF0AD91
102
{ACAD_REACTORS
330
5EF0AD7B
102
}
330
5EF0AD7B
100
AcDbXrecord
 10
0.0
 20
0.0
 30
0.0
  0
XRECORD
  5
5EF0AD8F
102
{ACAD_REACTORS
330
5EF0AD7B
102
}
330
5EF0AD7B
100
AcDbXrecord
 10
0.0
 20
0.0
 30
0.0
  0
XRECORD
  5
5EF0AD90
102
{ACAD_REACTORS
330
5EF0AD7B
102
}
330
5EF0AD7B
100
AcDbXrecord
 10
0.0
 20
0.0
 30
0.0
  0
XRECORD
  5
5EF0AD8D
102
{ACAD_REACTORS
330
5EF0AD7B
102
}
330
5EF0AD7B
100
AcDbXrecord
 10
0.0
 20
0.0
 30
0.0
  0
XRECORD
  5
5EF0AD8A
102
{ACAD_REACTORS
330
5EF0AD7B
102
}
330
5EF0AD7B
100
AcDbXrecord
340
0
  0
XRECORD
  5
5EF0AD8B
102
{ACAD_REACTORS
330
5EF0AD7B
102
}
330
5EF0AD7B
100
AcDbXrecord
 70
     0
  0
XRECORD
  5
5EF0AD7F
102
{ACAD_REACTORS
330
5EF0AD7B
102
}
330
5EF0AD7B
100
AcDbXrecord
  1

  0
XRECORD
  5
5EF0AD7C
102
{ACAD_REACTORS
330
5EF0AD7B
102
}
330
5EF0AD7B
100
AcDbXrecord
 90
        1
  0
XRECORD
  5
5EF0AD7D
102
{ACAD_REACTORS
330
5EF0AD7B
102
}
330
5EF0AD7B
100
AcDbXrecord
 90
       70
  0
XRECORD
  5
5EF0AD95
102
{ACAD_REACTORS
330
5EF0AD7B
102
}
330
5EF0AD7B
100
AcDbXrecord
340
0
  0
XRECORD
  5
5EF0AD9B
102
{ACAD_REACTORS
330
5EF0AD7B
102
}
330
5EF0AD7B
100
AcDbXrecord
 10
0.0
 20
0.0
 30
0.0
  0
XRECORD
  5
5EF0AD97
102
{ACAD_REACTORS
330
5EF0AD7B
102
}
330
5EF0AD7B
100
AcDbXrecord
 10
0.0
 20
0.0
 30
0.0
  0
XRECORD
  5
5EF0AD9A
102
{ACAD_REACTORS
330
5EF0AD7B
102
}
330
5EF0AD7B
100
AcDbXrecord
 10
0.0
 20
0.0
 30
0.0
  0
XRECORD
  5
5EF0AD98
102
{ACAD_REACTORS
330
5EF0AD7B
102
}
330
5EF0AD7B
100
AcDbXrecord
 10
0.0
 20
0.0
 30
0.0
  0
XRECORD
  5
5EF0AD99
102
{ACAD_REACTORS
330
5EF0AD7B
102
}
330
5EF0AD7B
100
AcDbXrecord
 10
0.0
 20
0.0
 30
0.0
  0
XRECORD
  5
5EF0AD96
102
{ACAD_REACTORS
330
5EF0AD7B
102
}
330
5EF0AD7B
100
AcDbXrecord
 10
0.0
 20
0.0
 30
0.0
  0
XRECORD
  5
5EF0AD93
102
{ACAD_REACTORS
330
5EF0AD7B
102
}
330
5EF0AD7B
100
AcDbXrecord
340
0
  0
XRECORD
  5
5EF0AD94
102
{ACAD_REACTORS
330
5EF0AD7B
102
}
330
5EF0AD7B
100
AcDbXrecord
 70
     0
  0
XRECORD
  5
5EF0AD87
102
{ACAD_REACTORS
330
5EF0AD7B
102
}
330
5EF0AD7B
100
AcDbXrecord
  1
{CFE67E6D-776E-4940-8044-772A31AFB593}
  0
DICTIONARYVAR
  5
5EF0AD79
102
{ACAD_REACTORS
330
5EF095CB
102
}
330
5EF095CB
100
DictionaryVariables
280
     0
  1
0
  0
DICTIONARYVAR
  5
5EF095CC
102
{ACAD_REACTORS
330
5EF095CB
102
}
330
5EF095CB
100
DictionaryVariables
280
     0
  1
96
  0
ENDSEC
  0
EOF
