  0
SECTION
  2
HEADER
  9
$ACADVER
  1
AC1014
  9
$ACADMAINTVER
 70
     9
  9
$DWGCODEPAGE
  3
ANSI_932
  9
$INSBASE
 10
0.0
 20
0.0
 30
0.0
  9
$EXTMIN
 10
-0.0014569581444448
 20
-0.0042980733272771
 30
-0.0000000000000129
  9
$EXTMAX
 10
181.0027811585977
 20
283.0043270675293
 30
0.0000000000000023
  9
$LIMMIN
 10
0.0
 20
0.0
  9
$LIMMAX
 10
181.0
 20
283.0
  9
$ORTHOMODE
 70
     1
  9
$REGENMODE
 70
     1
  9
$FILLMODE
 70
     1
  9
$QTEXTMODE
 70
     0
  9
$MIRRTEXT
 70
     0
  9
$DRAGMODE
 70
     2
  9
$LTSCALE
 40
5.0
  9
$OSMODE
 70
   167
  9
$ATTMODE
 70
     1
  9
$TEXTSIZE
 40
3.0
  9
$TRACEWID
 40
0.05
  9
$TEXTSTYLE
  7
BIGFONT
  9
$CLAYER
  8
JISSEN
  9
$CELTYPE
  6
BYLAYER
  9
$CECOLOR
 62
   256
  9
$CELTSCALE
 40
1.0
  9
$DELOBJ
 70
     1
  9
$DISPSILH
 70
     0
  9
$DIMSCALE
 40
1.0
  9
$DIMASZ
 40
1.5
  9
$DIMEXO
 40
1.0
  9
$DIMDLI
 40
6.0
  9
$DIMRND
 40
0.0
  9
$DIMDLE
 40
0.0
  9
$DIMEXE
 40
1.0
  9
$DIMTP
 40
0.0
  9
$DIMTM
 40
0.0
  9
$DIMTXT
 40
3.0
  9
$DIMCEN
 40
1.0
  9
$DIMTSZ
 40
0.0
  9
$DIMTOL
 70
     0
  9
$DIMLIM
 70
     0
  9
$DIMTIH
 70
     0
  9
$DIMTOH
 70
     0
  9
$DIMSE1
 70
     0
  9
$DIMSE2
 70
     0
  9
$DIMTAD
 70
     0
  9
$DIMZIN
 70
     8
  9
$DIMBLK
  1
ARROW
  9
$DIMASO
 70
     0
  9
$DIMSHO
 70
     0
  9
$DIMPOST
  1

  9
$DIMAPOST
  1

  9
$DIMALT
 70
     0
  9
$DIMALTD
 70
     2
  9
$DIMALTF
 40
25.4
  9
$DIMLFAC
 40
1.0
  9
$DIMTOFL
 70
     1
  9
$DIMTVP
 40
0.0
  9
$DIMTIX
 70
     0
  9
$DIMSOXD
 70
     0
  9
$DIMSAH
 70
     0
  9
$DIMBLK1
  1
ARROWANG
  9
$DIMBLK2
  1
ARROWANG
  9
$DIMSTYLE
  2
IMAO
  9
$DIMCLRD
 70
     0
  9
$DIMCLRE
 70
     0
  9
$DIMCLRT
 70
     0
  9
$DIMTFAC
 40
1.0
  9
$DIMGAP
 40
0.09
  9
$DIMJUST
 70
     0
  9
$DIMSD1
 70
     0
  9
$DIMSD2
 70
     0
  9
$DIMTOLJ
 70
     1
  9
$DIMTZIN
 70
     8
  9
$DIMALTZ
 70
     8
  9
$DIMALTTZ
 70
     8
  9
$DIMFIT
 70
     5
  9
$DIMUPT
 70
     0
  9
$DIMUNIT
 70
     2
  9
$DIMDEC
 70
     2
  9
$DIMTDEC
 70
     2
  9
$DIMALTU
 70
     2
  9
$DIMALTTD
 70
     2
  9
$DIMTXSTY
  7
BIGFONT
  9
$DIMAUNIT
 70
     0
  9
$LUNITS
 70
     2
  9
$LUPREC
 70
     2
  9
$SKETCHINC
 40
0.1
  9
$FILLETRAD
 40
1.5
  9
$AUNITS
 70
     0
  9
$AUPREC
 70
     2
  9
$MENU
  1
stdr12j
  9
$ELEVATION
 40
0.0
  9
$PELEVATION
 40
0.0
  9
$THICKNESS
 40
0.0
  9
$LIMCHECK
 70
     0
  9
$BLIPMODE
 70
     0
  9
$CHAMFERA
 40
0.0
  9
$CHAMFERB
 40
0.0
  9
$CHAMFERC
 40
0.0
  9
$CHAMFERD
 40
0.0
  9
$SKPOLY
 70
     0
  9
$TDCREATE
 40
2450617.453041203
  9
$TDUPDATE
 40
2453377.486681990
  9
$TDINDWG
 40
0.2129243403
  9
$TDUSRTIMER
 40
0.2129243403
  9
$USRTIMER
 70
     1
  9
$ANGBASE
 50
0.0
  9
$ANGDIR
 70
     0
  9
$PDMODE
 70
     0
  9
$PDSIZE
 40
0.0
  9
$PLINEWID
 40
0.0
  9
$COORDS
 70
     2
  9
$SPLFRAME
 70
     0
  9
$SPLINETYPE
 70
     6
  9
$SPLINESEGS
 70
     8
  9
$ATTDIA
 70
     0
  9
$ATTREQ
 70
     1
  9
$HANDLING
 70
 22529
  9
$HANDSEED
  5
EF7C8AD29
  9
$SURFTAB1
 70
     6
  9
$SURFTAB2
 70
     6
  9
$SURFTYPE
 70
     6
  9
$SURFU
 70
     6
  9
$SURFV
 70
     6
  9
$UCSNAME
  2

  9
$UCSORG
 10
0.0
 20
0.0
 30
0.0
  9
$UCSXDIR
 10
1.0
 20
0.0
 30
0.0
  9
$UCSYDIR
 10
0.0
 20
1.0
 30
0.0
  9
$PUCSNAME
  2

  9
$PUCSORG
 10
0.0
 20
0.0
 30
0.0
  9
$PUCSXDIR
 10
1.0
 20
0.0
 30
0.0
  9
$PUCSYDIR
 10
0.0
 20
1.0
 30
0.0
  9
$USERI1
 70
     0
  9
$USERI2
 70
     1
  9
$USERI3
 70
     1
  9
$USERI4
 70
     3
  9
$USERI5
 70
     0
  9
$USERR1
 40
1.0
  9
$USERR2
 40
3.0
  9
$USERR3
 40
3.0
  9
$USERR4
 40
1.5
  9
$USERR5
 40
8.0
  9
$WORLDVIEW
 70
     1
  9
$SHADEDGE
 70
     3
  9
$SHADEDIF
 70
    70
  9
$TILEMODE
 70
     1
  9
$MAXACTVP
 70
    16
  9
$PINSBASE
 10
0.0
 20
0.0
 30
0.0
  9
$PLIMCHECK
 70
     0
  9
$PEXTMIN
 10
1.000000000000000E+20
 20
1.000000000000000E+20
 30
1.000000000000000E+20
  9
$PEXTMAX
 10
-1.000000000000000E+20
 20
-1.000000000000000E+20
 30
-1.000000000000000E+20
  9
$PLIMMIN
 10
0.0
 20
0.0
  9
$PLIMMAX
 10
12.0
 20
9.0
  9
$UNITMODE
 70
     0
  9
$VISRETAIN
 70
     0
  9
$PLINEGEN
 70
     0
  9
$PSLTSCALE
 70
     0
  9
$TREEDEPTH
 70
  3020
  9
$PICKSTYLE
 70
     1
  9
$CMLSTYLE
  2
STANDARD
  9
$CMLJUST
 70
     0
  9
$CMLSCALE
 40
1.0
  9
$PROXYGRAPHICS
 70
     1
  9
$MEASUREMENT
 70
     0
  0
ENDSEC
  0
SECTION
  2
CLASSES
  0
CLASS
  1
LWPOLYLINE
  2
AcDbPolyline
  3
AutoCAD 2000
 90
        0
280
     0
281
     1
  0
CLASS
  1
HATCH
  2
AcDbHatch
  3
AutoCAD 2000
 90
        0
280
     0
281
     1
  0
CLASS
  1
ACDBDICTIONARYWDFLT
  2
AcDbDictionaryWithDefault
  3
AutoCAD 2000
 90
        0
280
     0
281
     0
  0
CLASS
  1
ACDBPLACEHOLDER
  2
AcDbPlaceHolder
  3
AutoCAD 2000
 90
        0
280
     0
281
     0
  0
CLASS
  1
LAYOUT
  2
AcDbLayout
  3
AutoCAD 2000
 90
        0
280
     0
281
     0
  0
CLASS
  1
LONG_TRANSACTION
  2
AcDbLongTransaction
  3
AutoCAD 2000
 90
        0
280
     0
281
     0
  0
CLASS
  1
LWPOLYLINE
  2
AcDbPolyline
  3
AutoCAD 2000
 90
        0
280
     0
281
     1
  0
CLASS
  1
HATCH
  2
AcDbHatch
  3
AutoCAD 2000
 90
        0
280
     0
281
     1
  0
CLASS
  1
XRECORD
  2
AcDbXrecord
  3
AutoCAD 2000
 90
        0
280
     0
281
     0
  0
CLASS
  1
DICTIONARYVAR
  2
AcDbDictionaryVar
  3
AutoCAD 2000
 90
        0
280
     0
281
     0
  0
CLASS
  1
LONG_TRANSACTION
  2
AcDbLongTransaction
  3
AutoCAD 2000
 90
        0
280
     0
281
     0
  0
CLASS
  1
LWPOLYLINE
  2
AcDbPolyline
  3
AutoCAD 2000
 90
        0
280
     0
281
     1
  0
CLASS
  1
HATCH
  2
AcDbHatch
  3
AutoCAD 2000
 90
        0
280
     0
281
     1
  0
CLASS
  1
XRECORD
  2
AcDbXrecord
  3
AutoCAD 2000
 90
        0
280
     0
281
     0
  0
CLASS
  1
LONG_TRANSACTION
  2
AcDbLongTransaction
  3
AutoCAD 2000
 90
        0
280
     0
281
     0
  0
CLASS
  1
LWPOLYLINE
  2
AcDbPolyline
  3
AutoCAD 2000
 90
        0
280
     0
281
     1
  0
CLASS
  1
HATCH
  2
AcDbHatch
  3
AutoCAD 2000
 90
        0
280
     0
281
     1
  0
CLASS
  1
XRECORD
  2
AcDbXrecord
  3
AutoCAD 2000
 90
        0
280
     0
281
     0
  0
CLASS
  1
LONG_TRANSACTION
  2
AcDbLongTransaction
  3
AutoCAD 2000
 90
        0
280
     0
281
     0
  0
CLASS
  1
LWPOLYLINE
  2
AcDbPolyline
  3
AutoCAD 2000
 90
        0
280
     0
281
     1
  0
CLASS
  1
HATCH
  2
AcDbHatch
  3
AutoCAD 2000
 90
        0
280
     0
281
     1
  0
CLASS
  1
XRECORD
  2
AcDbXrecord
  3
AutoCAD 2000
 90
        0
280
     0
281
     0
  0
CLASS
  1
LONG_TRANSACTION
  2
AcDbLongTransaction
  3
AutoCAD 2000
 90
        0
280
     0
281
     0
  0
CLASS
  1
LWPOLYLINE
  2
AcDbPolyline
  3
AutoCAD 2000
 90
        0
280
     0
281
     1
  0
CLASS
  1
HATCH
  2
AcDbHatch
  3
AutoCAD 2000
 90
        0
280
     0
281
     1
  0
CLASS
  1
XRECORD
  2
AcDbXrecord
  3
AutoCAD 2000
 90
        0
280
     0
281
     0
  0
CLASS
  1
LONG_TRANSACTION
  2
AcDbLongTransaction
  3
AutoCAD 2000
 90
        0
280
     0
281
     0
  0
CLASS
  1
LWPOLYLINE
  2
AcDbPolyline
  3
AutoCAD 2000
 90
        0
280
     0
281
     1
  0
CLASS
  1
HATCH
  2
AcDbHatch
  3
AutoCAD 2000
 90
        0
280
     0
281
     1
  0
CLASS
  1
XRECORD
  2
AcDbXrecord
  3
AutoCAD 2000
 90
        0
280
     0
281
     0
  0
CLASS
  1
LONG_TRANSACTION
  2
AcDbLongTransaction
  3
AutoCAD 2000
 90
        0
280
     0
281
     0
  0
CLASS
  1
LWPOLYLINE
  2
AcDbPolyline
  3
AutoCAD 2000
 90
        0
280
     0
281
     1
  0
CLASS
  1
HATCH
  2
AcDbHatch
  3
AutoCAD 2000
 90
        0
280
     0
281
     1
  0
CLASS
  1
XRECORD
  2
AcDbXrecord
  3
AutoCAD 2000
 90
        0
280
     0
281
     0
  0
CLASS
  1
LONG_TRANSACTION
  2
AcDbLongTransaction
  3
AutoCAD 2000
 90
        0
280
     0
281
     0
  0
CLASS
  1
LWPOLYLINE
  2
AcDbPolyline
  3
AutoCAD 2000
 90
        0
280
     0
281
     1
  0
CLASS
  1
HATCH
  2
AcDbHatch
  3
AutoCAD 2000
 90
        0
280
     0
281
     1
  0
CLASS
  1
XRECORD
  2
AcDbXrecord
  3
AutoCAD 2000
 90
        0
280
     0
281
     0
  0
CLASS
  1
LONG_TRANSACTION
  2
AcDbLongTransaction
  3
AutoCAD 2000
 90
        0
280
     0
281
     0
  0
CLASS
  1
LWPOLYLINE
  2
AcDbPolyline
  3
AutoCAD 2000
 90
        0
280
     0
281
     1
  0
CLASS
  1
HATCH
  2
AcDbHatch
  3
AutoCAD 2000
 90
        0
280
     0
281
     1
  0
CLASS
  1
XRECORD
  2
AcDbXrecord
  3
AutoCAD 2000
 90
        0
280
     0
281
     0
  0
CLASS
  1
LONG_TRANSACTION
  2
AcDbLongTransaction
  3
AutoCAD 2000
 90
        0
280
     0
281
     0
  0
CLASS
  1
LWPOLYLINE
  2
AcDbPolyline
  3
AutoCAD 2000
 90
        0
280
     0
281
     1
  0
CLASS
  1
HATCH
  2
AcDbHatch
  3
AutoCAD 2000
 90
        0
280
     0
281
     1
  0
CLASS
  1
XRECORD
  2
AcDbXrecord
  3
AutoCAD 2000
 90
        0
280
     0
281
     0
  0
CLASS
  1
LONG_TRANSACTION
  2
AcDbLongTransaction
  3
AutoCAD 2000
 90
        0
280
     0
281
     0
  0
CLASS
  1
LWPOLYLINE
  2
AcDbPolyline
  3
AutoCAD 2000
 90
        0
280
     0
281
     1
  0
CLASS
  1
HATCH
  2
AcDbHatch
  3
AutoCAD 2000
 90
        0
280
     0
281
     1
  0
CLASS
  1
XRECORD
  2
AcDbXrecord
  3
AutoCAD 2000
 90
        0
280
     0
281
     0
  0
CLASS
  1
LONG_TRANSACTION
  2
AcDbLongTransaction
  3
AutoCAD 2000
 90
        0
280
     0
281
     0
  0
CLASS
  1
LWPOLYLINE
  2
AcDbPolyline
  3
AutoCAD 2000
 90
        0
280
     0
281
     1
  0
CLASS
  1
HATCH
  2
AcDbHatch
  3
AutoCAD 2000
 90
        0
280
     0
281
     1
  0
CLASS
  1
XRECORD
  2
AcDbXrecord
  3
AutoCAD 2000
 90
        0
280
     0
281
     0
  0
CLASS
  1
LONG_TRANSACTION
  2
AcDbLongTransaction
  3
AutoCAD 2000
 90
        0
280
     0
281
     0
  0
CLASS
  1
LWPOLYLINE
  2
AcDbPolyline
  3
AutoCAD 2000
 90
        0
280
     0
281
     1
  0
CLASS
  1
HATCH
  2
AcDbHatch
  3
AutoCAD 2000
 90
        0
280
     0
281
     1
  0
CLASS
  1
XRECORD
  2
AcDbXrecord
  3
AutoCAD 2000
 90
        0
280
     0
281
     0
  0
CLASS
  1
LONG_TRANSACTION
  2
AcDbLongTransaction
  3
AutoCAD 2000
 90
        0
280
     0
281
     0
  0
CLASS
  1
LWPOLYLINE
  2
AcDbPolyline
  3
AutoCAD 2000
 90
        0
280
     0
281
     1
  0
CLASS
  1
HATCH
  2
AcDbHatch
  3
AutoCAD 2000
 90
        0
280
     0
281
     1
  0
CLASS
  1
XRECORD
  2
AcDbXrecord
  3
AutoCAD 2000
 90
        0
280
     0
281
     0
  0
CLASS
  1
LONG_TRANSACTION
  2
AcDbLongTransaction
  3
AutoCAD 2000
 90
        0
280
     0
281
     0
  0
CLASS
  1
LWPOLYLINE
  2
AcDbPolyline
  3
AutoCAD 2000
 90
        0
280
     0
281
     1
  0
CLASS
  1
HATCH
  2
AcDbHatch
  3
AutoCAD 2000
 90
        0
280
     0
281
     1
  0
CLASS
  1
XRECORD
  2
AcDbXrecord
  3
AutoCAD 2000
 90
        0
280
     0
281
     0
  0
CLASS
  1
LONG_TRANSACTION
  2
AcDbLongTransaction
  3
AutoCAD 2000
 90
        0
280
     0
281
     0
  0
CLASS
  1
LWPOLYLINE
  2
AcDbPolyline
  3
AutoCAD 2000
 90
        0
280
     0
281
     1
  0
CLASS
  1
HATCH
  2
AcDbHatch
  3
AutoCAD 2000
 90
        0
280
     0
281
     1
  0
CLASS
  1
XRECORD
  2
AcDbXrecord
  3
AutoCAD 2000
 90
        0
280
     0
281
     0
  0
CLASS
  1
LONG_TRANSACTION
  2
AcDbLongTransaction
  3
AutoCAD 2000
 90
        0
280
     0
281
     0
  0
CLASS
  1
LWPOLYLINE
  2
AcDbPolyline
  3
AutoCAD 2000
 90
        0
280
     0
281
     1
  0
CLASS
  1
HATCH
  2
AcDbHatch
  3
AutoCAD 2000
 90
        0
280
     0
281
     1
  0
CLASS
  1
XRECORD
  2
AcDbXrecord
  3
AutoCAD 2000
 90
        0
280
     0
281
     0
  0
CLASS
  1
LONG_TRANSACTION
  2
AcDbLongTransaction
  3
AutoCAD 2000
 90
        0
280
     0
281
     0
  0
CLASS
  1
LWPOLYLINE
  2
AcDbPolyline
  3
AutoCAD 2000
 90
        0
280
     0
281
     1
  0
CLASS
  1
HATCH
  2
AcDbHatch
  3
AutoCAD 2000
 90
        0
280
     0
281
     1
  0
CLASS
  1
XRECORD
  2
AcDbXrecord
  3
AutoCAD 2000
 90
        0
280
     0
281
     0
  0
CLASS
  1
LONG_TRANSACTION
  2
AcDbLongTransaction
  3
AutoCAD 2000
 90
        0
280
     0
281
     0
  0
CLASS
  1
LWPOLYLINE
  2
AcDbPolyline
  3
AutoCAD 2000
 90
        0
280
     0
281
     1
  0
CLASS
  1
HATCH
  2
AcDbHatch
  3
AutoCAD 2000
 90
        0
280
     0
281
     1
  0
CLASS
  1
XRECORD
  2
AcDbXrecord
  3
AutoCAD 2000
 90
        0
280
     0
281
     0
  0
CLASS
  1
LONG_TRANSACTION
  2
AcDbLongTransaction
  3
AutoCAD 2000
 90
        0
280
     0
281
     0
  0
CLASS
  1
LWPOLYLINE
  2
AcDbPolyline
  3
AutoCAD 2000
 90
        0
280
     0
281
     1
  0
CLASS
  1
HATCH
  2
AcDbHatch
  3
AutoCAD 2000
 90
        0
280
     0
281
     1
  0
CLASS
  1
XRECORD
  2
AcDbXrecord
  3
AutoCAD 2000
 90
        0
280
     0
281
     0
  0
CLASS
  1
LONG_TRANSACTION
  2
AcDbLongTransaction
  3
AutoCAD 2000
 90
        0
280
     0
281
     0
  0
CLASS
  1
LWPOLYLINE
  2
AcDbPolyline
  3
AutoCAD 2000
 90
        0
280
     0
281
     1
  0
CLASS
  1
HATCH
  2
AcDbHatch
  3
AutoCAD 2000
 90
        0
280
     0
281
     1
  0
CLASS
  1
XRECORD
  2
AcDbXrecord
  3
AutoCAD 2000
 90
        0
280
     0
281
     0
  0
CLASS
  1
LONG_TRANSACTION
  2
AcDbLongTransaction
  3
AutoCAD 2000
 90
        0
280
     0
281
     0
  0
CLASS
  1
LWPOLYLINE
  2
AcDbPolyline
  3
AutoCAD 2000
 90
        0
280
     0
281
     1
  0
CLASS
  1
HATCH
  2
AcDbHatch
  3
AutoCAD 2000
 90
        0
280
     0
281
     1
  0
CLASS
  1
XRECORD
  2
AcDbXrecord
  3
AutoCAD 2000
 90
        0
280
     0
281
     0
  0
ENDSEC
  0
SECTION
  2
TABLES
  0
TABLE
  2
VPORT
  5
EF7C85523
330
0
100
AcDbSymbolTable
 70
    11
  0
VPORT
  5
EF7C85567
330
EF7C85523
100
AcDbSymbolTableRecord
100
AcDbViewportTableRecord
  2
2
 70
     0
 10
0.5
 20
0.0
 11
1.0
 21
1.0
 12
0.9240312421264802
 22
1.052650975462766
 13
0.0
 23
0.0
 14
1.0
 24
1.0
 15
10.0
 25
10.0
 16
0.0
 26
0.0
 36
1.0
 17
0.0
 27
0.0
 37
0.0
 40
2.105301950925533
 41
0.8778135048231511
 42
50.0
 43
0.0
 44
0.0
 50
0.0
 51
0.0
 71
     0
 72
   500
 73
     1
 74
     1
 75
     0
 76
     0
 77
     0
 78
     0
  0
VPORT
  5
EF7C85568
330
EF7C85523
100
AcDbSymbolTableRecord
100
AcDbViewportTableRecord
  2
2
 70
     0
 10
0.0
 20
0.0
 11
0.5
 21
1.0
 12
0.9240312421264802
 22
1.052650975462766
 13
0.0
 23
0.0
 14
1.0
 24
1.0
 15
10.0
 25
10.0
 16
0.0
 26
0.0
 36
1.0
 17
0.0
 27
0.0
 37
0.0
 40
2.105301950925533
 41
0.8778135048231511
 42
50.0
 43
0.0
 44
0.0
 50
0.0
 51
0.0
 71
     0
 72
   500
 73
     1
 74
     1
 75
     0
 76
     0
 77
     0
 78
     0
  0
VPORT
  5
EF7C85569
330
EF7C85523
100
AcDbSymbolTableRecord
100
AcDbViewportTableRecord
  2
3
 70
     0
 10
0.0
 20
0.5
 11
1.0
 21
1.0
 12
2.832169994473273
 22
1.052650975462766
 13
0.0
 23
0.0
 14
1.0
 24
1.0
 15
10.0
 25
10.0
 16
0.0
 26
0.0
 36
1.0
 17
0.0
 27
0.0
 37
0.0
 40
2.105301950925533
 41
3.571428571428571
 42
50.0
 43
0.0
 44
0.0
 50
0.0
 51
0.0
 71
     0
 72
   500
 73
     1
 74
     1
 75
     0
 76
     0
 77
     0
 78
     0
  0
VPORT
  5
EF7C8556A
330
EF7C85523
100
AcDbSymbolTableRecord
100
AcDbViewportTableRecord
  2
3
 70
     0
 10
0.0
 20
0.0
 11
1.0
 21
0.5
 12
2.856741679241311
 22
1.052650975462766
 13
0.0
 23
0.0
 14
1.0
 24
1.0
 15
10.0
 25
10.0
 16
0.0
 26
0.0
 36
1.0
 17
0.0
 27
0.0
 37
0.0
 40
2.105301950925533
 41
3.594771241830065
 42
50.0
 43
0.0
 44
0.0
 50
0.0
 51
0.0
 71
     0
 72
   500
 73
     1
 74
     1
 75
     0
 76
     0
 77
     0
 78
     0
  0
VPORT
  5
EF7C8556B
330
EF7C85523
100
AcDbSymbolTableRecord
100
AcDbViewportTableRecord
  2
4
 70
     0
 10
0.5
 20
0.0
 11
1.0
 21
0.5
 12
2.886857516709719
 22
1.052650975462766
 13
0.0
 23
0.0
 14
1.0
 24
1.0
 15
10.0
 25
10.0
 16
0.0
 26
0.0
 36
1.0
 17
0.0
 27
0.0
 37
0.0
 40
4.27520703030907
 41
1.784313725490195
 42
50.0
 43
0.0
 44
0.0
 50
0.0
 51
0.0
 71
     0
 72
   500
 73
     1
 74
     1
 75
     0
 76
     0
 77
     0
 78
     0
  0
VPORT
  5
EF7C8556C
330
EF7C85523
100
AcDbSymbolTableRecord
100
AcDbViewportTableRecord
  2
4
 70
     0
 10
0.5
 20
0.5
 11
1.0
 21
1.0
 12
2.862090274555523
 22
1.052650975462766
 13
0.0
 23
0.0
 14
1.0
 24
1.0
 15
10.0
 25
10.0
 16
0.0
 26
0.0
 36
1.0
 17
0.0
 27
0.0
 37
0.0
 40
4.27520703030907
 41
1.772727272727272
 42
50.0
 43
0.0
 44
0.0
 50
0.0
 51
0.0
 71
     0
 72
   500
 73
     1
 74
     1
 75
     0
 76
     0
 77
     0
 78
     0
  0
VPORT
  5
EF7C8556D
330
EF7C85523
100
AcDbSymbolTableRecord
100
AcDbViewportTableRecord
  2
4
 70
     0
 10
0.0
 20
0.5
 11
0.5
 21
1.0
 12
2.862090274555523
 22
1.052650975462766
 13
0.0
 23
0.0
 14
1.0
 24
1.0
 15
10.0
 25
10.0
 16
0.0
 26
0.0
 36
1.0
 17
0.0
 27
0.0
 37
0.0
 40
4.27520703030907
 41
1.772727272727272
 42
50.0
 43
0.0
 44
0.0
 50
0.0
 51
0.0
 71
     0
 72
   500
 73
     1
 74
     1
 75
     0
 76
     0
 77
     0
 78
     0
  0
VPORT
  5
EF7C8556E
330
EF7C85523
100
AcDbSymbolTableRecord
100
AcDbViewportTableRecord
  2
4
 70
     0
 10
0.0
 20
0.0
 11
0.5
 21
0.5
 12
2.886857516709719
 22
1.052650975462766
 13
0.0
 23
0.0
 14
1.0
 24
1.0
 15
10.0
 25
10.0
 16
0.0
 26
0.0
 36
1.0
 17
0.0
 27
0.0
 37
0.0
 40
4.27520703030907
 41
1.784313725490195
 42
50.0
 43
0.0
 44
0.0
 50
0.0
 51
0.0
 71
     0
 72
   500
 73
     1
 74
     1
 75
     0
 76
     0
 77
     0
 78
     0
  0
VPORT
  5
EF7C8AD05
330
EF7C85523
100
AcDbSymbolTableRecord
100
AcDbViewportTableRecord
  2
*ACTIVE
 70
     0
 10
0.0
 20
0.0
 11
1.0
 21
1.0
 12
90.50066210022663
 22
141.500014497101
 13
0.0
 23
0.0
 14
1.0
 24
1.0
 15
10.0
 25
10.0
 16
0.0
 26
0.0
 36
1.0
 17
0.0
 27
0.0
 37
0.0
 40
286.176632138702
 41
1.771962616822429
 42
50.0
 43
0.0
 44
0.0
 50
0.0
 51
0.0
 71
     0
 72
   500
 73
     1
 74
     0
 75
     0
 76
     0
 77
     0
 78
     0
  0
ENDTAB
  0
TABLE
  2
LTYPE
  5
EF7C85520
330
0
100
AcDbSymbolTable
 70
     2
  0
LTYPE
  5
EF7C8552C
330
EF7C85520
100
AcDbSymbolTableRecord
100
AcDbLinetypeTableRecord
  2
BYBLOCK
 70
     0
  3

 72
    65
 73
     0
 40
0.0
  0
LTYPE
  5
EF7C8552D
330
EF7C85520
100
AcDbSymbolTableRecord
100
AcDbLinetypeTableRecord
  2
BYLAYER
 70
     0
  3

 72
    65
 73
     0
 40
0.0
  0
LTYPE
  5
EF7C8552E
330
EF7C85520
100
AcDbSymbolTableRecord
100
AcDbLinetypeTableRecord
  2
CONTINUOUS
 70
     0
  3
実線
 72
    65
 73
     0
 40
0.0
  0
LTYPE
  5
EF7C85565
330
EF7C85520
100
AcDbSymbolTableRecord
100
AcDbLinetypeTableRecord
  2
PHANTOM
 70
     0
  3
_____ _ _ _____ _ _ _____ _ _ _____ _ _ ____
 72
    65
 73
     6
 40
2.5
 49
1.25
 74
     0
 49
-0.25
 74
     0
 49
0.25
 74
     0
 49
-0.25
 74
     0
 49
0.25
 74
     0
 49
-0.25
 74
     0
  0
ENDTAB
  0
TABLE
  2
LAYER
  5
EF7C8551D
330
0
100
AcDbSymbolTable
 70
     8
  0
LAYER
  5
EF7C85529
330
EF7C8551D
100
AcDbSymbolTableRecord
100
AcDbLayerTableRecord
  2
0
 70
     0
 62
     6
  6
CONTINUOUS
  0
LAYER
  5
EF7C85574
330
EF7C8551D
100
AcDbSymbolTableRecord
100
AcDbLayerTableRecord
  2
NITEN
 70
     0
 62
     2
  6
PHANTOM
  0
LAYER
  5
EF7C85575
330
EF7C8551D
100
AcDbSymbolTableRecord
100
AcDbLayerTableRecord
  2
HATCH
 70
     0
 62
     4
  6
CONTINUOUS
  0
LAYER
  5
EF7C85576
330
EF7C8551D
100
AcDbSymbolTableRecord
100
AcDbLayerTableRecord
  2
SUNPOU
 70
     0
 62
     3
  6
CONTINUOUS
  0
LAYER
  5
EF7C85577
330
EF7C8551D
100
AcDbSymbolTableRecord
100
AcDbLayerTableRecord
  2
TEXT
 70
     0
 62
     3
  6
CONTINUOUS
  0
LAYER
  5
EF7C85578
330
EF7C8551D
100
AcDbSymbolTableRecord
100
AcDbLayerTableRecord
  2
SAISEN
 70
     0
 62
     4
  6
CONTINUOUS
  0
LAYER
  5
EF7C85579
330
EF7C8551D
100
AcDbSymbolTableRecord
100
AcDbLayerTableRecord
  2
JISSEN
 70
     0
 62
     7
  6
CONTINUOUS
  0
LAYER
  5
EF7C8557D
330
EF7C8551D
100
AcDbSymbolTableRecord
100
AcDbLayerTableRecord
  2
WAKU
 70
     0
 62
     5
  6
CONTINUOUS
  0
ENDTAB
  0
TABLE
  2
STYLE
  5
EF7C8551E
330
0
100
AcDbSymbolTable
 70
     3
  0
STYLE
  5
EF7C8552A
330
EF7C8551E
100
AcDbSymbolTableRecord
100
AcDbTextStyleTableRecord
  2
STANDARD
 70
     0
 40
0.0
 41
1.0
 50
0.0
 71
     0
 42
1.5
  3
SIMPLEX
  4

  0
STYLE
  5
EF7C85558
330
EF7C8551E
100
AcDbSymbolTableRecord
100
AcDbTextStyleTableRecord
  2
K
 70
     0
 40
0.0
 41
1.0
 50
0.0
 71
     0
 42
3.0
  3
ROMANS
  4
BIGFONT
  0
STYLE
  5
EF7C8555B
330
EF7C8551E
100
AcDbSymbolTableRecord
100
AcDbTextStyleTableRecord
  2
BIGFONT
 70
     0
 40
0.0
 41
1.0
 50
0.0
 71
     0
 42
3.0
  3
txt.shx
  4
bigfont
  0
ENDTAB
  0
TABLE
  2
VIEW
  5
EF7C85521
330
0
100
AcDbSymbolTable
 70
     0
  0
ENDTAB
  0
TABLE
  2
UCS
  5
EF7C85522
330
0
100
AcDbSymbolTable
 70
     0
  0
ENDTAB
  0
TABLE
  2
APPID
  5
EF7C85524
330
0
100
AcDbSymbolTable
 70
     1
  0
APPID
  5
EF7C8552B
330
EF7C85524
100
AcDbSymbolTableRecord
100
AcDbRegAppTableRecord
  2
ACAD
 70
     0
  0
ENDTAB
  0
TABLE
  2
DIMSTYLE
  5
EF7C85525
330
0
100
AcDbSymbolTable
 70
     2
  0
DIMSTYLE
105
EF7C85571
330
EF7C85525
100
AcDbSymbolTableRecord
100
AcDbDimStyleTableRecord
  2
IMAO
 70
     0
  3

  4

  5
ARROWANG
  6
ARROWANG
  7
ARROWANG
 40
1.0
 41
1.5
 42
1.0
 43
6.0
 44
1.0
 45
0.0
 46
0.0
 47
495.0
 48
0.0
140
3.0
141
0.0
142
0.0
143
25.4
144
1.0
145
0.0
146
1.0
147
0.09
 71
     0
 72
     0
 73
     0
 74
     0
 75
     0
 76
     0
 77
     1
 78
     8
170
     0
171
     2
172
     1
173
     0
174
     1
175
     0
176
     0
177
     0
178
     0
270
     2
271
     2
272
     2
273
     2
274
     2
340
EF7C8555B
275
     0
280
     0
281
     0
282
     0
283
     1
284
     8
285
     8
286
     8
287
     5
288
     0
  0
DIMSTYLE
105
EF7C87CA1
330
EF7C85525
100
AcDbSymbolTableRecord
100
AcDbDimStyleTableRecord
  2
STANDARD
 70
     0
  3

  4

  5

  6

  7

 40
1.0
 41
0.18
 42
0.0625
 43
0.38
 44
0.18
 45
0.0
 46
0.0
 47
0.0
 48
0.0
140
0.18
141
0.09
142
0.0
143
25.4
144
1.0
145
0.0
146
1.0
147
0.09
 71
     0
 72
     0
 73
     1
 74
     1
 75
     0
 76
     0
 77
     0
 78
     0
170
     0
171
     2
172
     0
173
     0
174
     0
175
     0
176
     0
177
     0
178
     0
270
     2
271
     4
272
     4
273
     2
274
     2
340
EF7C8552A
275
     0
280
     0
281
     0
282
     0
283
     1
284
     0
285
     0
286
     0
287
     3
288
     0
  0
ENDTAB
  0
TABLE
  2
BLOCK_RECORD
  5
EF7C8551C
330
0
100
AcDbSymbolTable
 70
    10
  0
BLOCK_RECORD
  5
EF7C85532
102
{ACAD_XDICTIONARY
360
EF7C85D9A
102
}
330
EF7C8551C
100
AcDbSymbolTableRecord
100
AcDbBlockTableRecord
  2
*MODEL_SPACE
  0
BLOCK_RECORD
  5
EF7C8552F
102
{ACAD_XDICTIONARY
360
EF7C85D98
102
}
330
EF7C8551C
100
AcDbSymbolTableRecord
100
AcDbBlockTableRecord
  2
*PAPER_SPACE
  0
BLOCK_RECORD
  5
EF7C85537
330
EF7C8551C
100
AcDbSymbolTableRecord
100
AcDbBlockTableRecord
  2
ARROW
  0
BLOCK_RECORD
  5
EF7C8553B
330
EF7C8551C
100
AcDbSymbolTableRecord
100
AcDbBlockTableRecord
  2
WAKU
  0
BLOCK_RECORD
  5
EF7C8553D
330
EF7C8551C
100
AcDbSymbolTableRecord
100
AcDbBlockTableRecord
  2
*X2
  0
BLOCK_RECORD
  5
EF7C8553E
330
EF7C8551C
100
AcDbSymbolTableRecord
100
AcDbBlockTableRecord
  2
STDGX5
  0
BLOCK_RECORD
  5
EF7C8553F
330
EF7C8551C
100
AcDbSymbolTableRecord
100
AcDbBlockTableRecord
  2
*X4
  0
BLOCK_RECORD
  5
EF7C85540
330
EF7C8551C
100
AcDbSymbolTableRecord
100
AcDbBlockTableRecord
  2
*X5
  0
BLOCK_RECORD
  5
EF7C85541
330
EF7C8551C
100
AcDbSymbolTableRecord
100
AcDbBlockTableRecord
  2
*X6
  0
BLOCK_RECORD
  5
EF7C85542
330
EF7C8551C
100
AcDbSymbolTableRecord
100
AcDbBlockTableRecord
  2
*X7
  0
BLOCK_RECORD
  5
EF7C85543
330
EF7C8551C
100
AcDbSymbolTableRecord
100
AcDbBlockTableRecord
  2
ARROWANG
  0
BLOCK_RECORD
  5
EF7C85544
330
EF7C8551C
100
AcDbSymbolTableRecord
100
AcDbBlockTableRecord
  2
STDR12J
  0
ENDTAB
  0
ENDSEC
  0
SECTION
  2
BLOCKS
  0
BLOCK
  5
EF7C85580
330
EF7C85532
100
AcDbEntity
  8
0
100
AcDbBlockBegin
  2
*MODEL_SPACE
 70
     0
 10
0.0
 20
0.0
 30
0.0
  3
*MODEL_SPACE
  1

  0
ENDBLK
  5
EF7C85581
330
EF7C85532
100
AcDbEntity
  8
0
100
AcDbBlockEnd
  0
BLOCK
  5
EF7C8557E
330
EF7C8552F
100
AcDbEntity
 67
     1
  8
0
100
AcDbBlockBegin
  2
*PAPER_SPACE
 70
     0
 10
0.0
 20
0.0
 30
0.0
  3
*PAPER_SPACE
  1

  0
ENDBLK
  5
EF7C8557F
330
EF7C8552F
100
AcDbEntity
 67
     1
  8
0
100
AcDbBlockEnd
  0
BLOCK
  5
499
330
EF7C85537
100
AcDbEntity
  8
0
100
AcDbBlockBegin
  2
ARROW
 70
     0
 10
1.0
 20
0.5
 30
0.0
  3
ARROW
  1

  0
LINE
  5
49A
330
EF7C85537
100
AcDbEntity
  8
0
100
AcDbLine
 10
1.0
 20
0.5
 30
0.0
 11
-0.5000000000000214
 21
0.0980762113533018
 31
0.0
  0
LINE
  5
49B
330
EF7C85537
100
AcDbEntity
  8
0
100
AcDbLine
 10
0.0
 20
0.5
 30
0.0
 11
1.0
 21
0.5
 31
0.0
  0
LINE
  5
49C
330
EF7C85537
100
AcDbEntity
  8
0
100
AcDbLine
 10
1.0
 20
0.5
 30
0.0
 11
-0.4999999999999574
 21
0.9019237886467408
 31
0.0
  0
ENDBLK
  5
49D
330
EF7C85537
100
AcDbEntity
  8
0
100
AcDbBlockEnd
  0
BLOCK
  5
4A7
330
EF7C8553B
100
AcDbEntity
  8
0
100
AcDbBlockBegin
  2
WAKU
 70
     0
 10
0.0
 20
0.0
 30
0.0
  3
WAKU
  1

  0
LINE
  5
4A8
330
EF7C8553B
100
AcDbEntity
  8
WAKU
100
AcDbLine
 10
0.999999996
 20
0.0
 30
0.0
 11
0.999999996
 21
0.9999999999999998
 31
0.0
  0
LINE
  5
4A9
330
EF7C8553B
100
AcDbEntity
  8
WAKU
100
AcDbLine
 10
0.0
 20
0.9999999999999998
 30
0.0
 11
0.999999996
 21
0.9999999999999998
 31
0.0
  0
LINE
  5
4AA
330
EF7C8553B
100
AcDbEntity
  8
WAKU
100
AcDbLine
 10
0.999999996
 20
0.0
 30
0.0
 11
0.0
 21
0.0
 31
0.0
  0
LINE
  5
4AB
330
EF7C8553B
100
AcDbEntity
  8
WAKU
100
AcDbLine
 10
0.0
 20
0.0
 30
0.0
 11
0.0
 21
0.9999999999999998
 31
0.0
  0
ENDBLK
  5
4AC
330
EF7C8553B
100
AcDbEntity
  8
0
100
AcDbBlockEnd
  0
BLOCK
  5
2764
330
EF7C8553D
100
AcDbEntity
  8
0
100
AcDbBlockBegin
  2
*X2
 70
     1
 10
0.0
 20
0.0
 30
0.0
  3
*X2
  1

  0
ENDBLK
  5
2765
330
EF7C8553D
100
AcDbEntity
  8
0
100
AcDbBlockEnd
  0
BLOCK
  5
2766
330
EF7C8553E
100
AcDbEntity
  8
0
100
AcDbBlockBegin
  2
STDGX5
 70
     0
 10
0.0
 20
0.0
 30
0.0
  3
STDGX5
  1

  0
ENDBLK
  5
2767
330
EF7C8553E
100
AcDbEntity
  8
0
100
AcDbBlockEnd
  0
BLOCK
  5
2F5A
330
EF7C8553F
100
AcDbEntity
  8
0
100
AcDbBlockBegin
  2
*X4
 70
     1
 10
0.0
 20
0.0
 30
0.0
  3
*X4
  1

  0
ENDBLK
  5
2F5B
330
EF7C8553F
100
AcDbEntity
  8
0
100
AcDbBlockEnd
  0
BLOCK
  5
32BB
330
EF7C85540
100
AcDbEntity
  8
0
100
AcDbBlockBegin
  2
*X5
 70
     1
 10
0.0
 20
0.0
 30
0.0
  3
*X5
  1

  0
ENDBLK
  5
32BC
330
EF7C85540
100
AcDbEntity
  8
0
100
AcDbBlockEnd
  0
BLOCK
  5
372F
330
EF7C85541
100
AcDbEntity
  8
0
100
AcDbBlockBegin
  2
*X6
 70
     1
 10
0.0
 20
0.0
 30
0.0
  3
*X6
  1

  0
ENDBLK
  5
3730
330
EF7C85541
100
AcDbEntity
  8
0
100
AcDbBlockEnd
  0
BLOCK
  5
3A6D
330
EF7C85542
100
AcDbEntity
  8
0
100
AcDbBlockBegin
  2
*X7
 70
     1
 10
0.0
 20
0.0
 30
0.0
  3
*X7
  1

  0
ENDBLK
  5
3A6E
330
EF7C85542
100
AcDbEntity
  8
0
100
AcDbBlockEnd
  0
BLOCK
  5
4CC9
330
EF7C85543
100
AcDbEntity
  8
0
100
AcDbBlockBegin
  2
ARROWANG
 70
     0
 10
0.0
 20
0.0
 30
0.0
  3
ARROWANG
  1

  0
LINE
  5
4CCA
330
EF7C85543
100
AcDbEntity
  8
SUNPOU
100
AcDbLine
 10
0.0
 20
0.0
 30
0.0
 11
-1.499999999999957
 21
0.4019237886467409
 31
0.0
  0
LINE
  5
4CCB
330
EF7C85543
100
AcDbEntity
  8
SUNPOU
100
AcDbLine
 10
0.0
 20
0.0
 30
0.0
 11
-1.500000000000028
 21
-0.4019237886467124
 31
0.0
  0
ENDBLK
  5
4CCC
330
EF7C85543
100
AcDbEntity
  8
0
100
AcDbBlockEnd
  0
BLOCK
  5
4CCD
330
EF7C85544
100
AcDbEntity
  8
0
100
AcDbBlockBegin
  2
STDR12J
 70
     0
 10
0.0
 20
0.0
 30
0.0
  3
STDR12J
  1

  0
ENDBLK
  5
4CF2
330
EF7C85544
100
AcDbEntity
  8
0
100
AcDbBlockEnd
  0
ENDSEC
  0
SECTION
  2
ENTITIES
  0
TEXT
  5
1
330
EF7C85532
100
AcDbEntity
  8
SUNPOU
100
AcDbText
 10
95.05869565217389
 20
43.7966872748706
 30
0.0
 40
1.5
  1
                          
100
AcDbText
  0
TEXT
  5
2
330
EF7C85532
100
AcDbEntity
  8
SUNPOU
100
AcDbText
 10
332.2793466870868
 20
21.8983436374353
 30
0.0
 40
0.75
  1
                          
100
AcDbText
  0
TEXT
  5
1A
330
EF7C85532
100
AcDbEntity
  8
SUNPOU
100
AcDbText
 10
289.9834441000535
 20
43.7966872748706
 30
0.0
 40
1.5
  1
                          
100
AcDbText
  0
TEXT
  5
1B
330
EF7C85532
100
AcDbEntity
  8
SUNPOU
100
AcDbText
 10
527.2040951349665
 20
21.8983436374353
 30
0.0
 40
0.75
  1
                          
100
AcDbText
  0
TEXT
  5
1C
330
EF7C85532
100
AcDbEntity
  8
SUNPOU
100
AcDbText
 10
490.6272568090836
 20
43.79668727487057
 30
0.0
 40
1.5
  1
                          
100
AcDbText
  0
TEXT
  5
1D
330
EF7C85532
100
AcDbEntity
  8
SUNPOU
100
AcDbText
 10
727.8479078439966
 20
21.89834363743527
 30
0.0
 40
0.75
  1
                          
100
AcDbText
  0
INSERT
  5
1E
330
EF7C85532
100
AcDbEntity
  8
HATCH
100
AcDbBlockReference
  2
*X2
 10
194.9247484478796
 20
0.0
 30
0.0
  0
TEXT
  5
1F
330
EF7C85532
100
AcDbEntity
  8
SUNPOU
100
AcDbText
 10
493.0101992368964
 20
43.7966872748706
 30
0.0
 40
1.5
  1
                          
100
AcDbText
  0
TEXT
  5
20
330
EF7C85532
100
AcDbEntity
  8
SUNPOU
100
AcDbText
 10
730.2308502718094
 20
21.8983436374353
 30
0.0
 40
0.75
  1
                          
100
AcDbText
  0
TEXT
  5
21
330
EF7C85532
100
AcDbEntity
  8
SUNPOU
100
AcDbText
 10
482.0486607753579
 20
43.7966872748706
 30
0.0
 40
1.5
  1
                          
100
AcDbText
  0
TEXT
  5
22
330
EF7C85532
100
AcDbEntity
  8
SUNPOU
100
AcDbText
 10
719.269311810271
 20
21.8983436374353
 30
0.0
 40
0.75
  1
                          
100
AcDbText
  0
INSERT
  5
25
330
EF7C85532
100
AcDbEntity
  8
JISSEN
100
AcDbBlockReference
  2
STDGX5
 10
0.0
 20
0.0
 30
0.0
  0
TEXT
  5
60
330
EF7C85532
100
AcDbEntity
  8
SUNPOU
100
AcDbText
 10
274.0586949361738
 20
43.7966872748706
 30
0.0
 40
1.5
  1
                          
100
AcDbText
  0
TEXT
  5
61
330
EF7C85532
100
AcDbEntity
  8
SUNPOU
100
AcDbText
 10
511.2793459710869
 20
21.8983436374353
 30
0.0
 40
0.75
  1
                          
100
AcDbText
  0
TEXT
  5
62
330
EF7C85532
100
AcDbEntity
  8
SUNPOU
100
AcDbText
 10
474.702507645204
 20
43.79668727487057
 30
0.0
 40
1.5
  1
                          
100
AcDbText
  0
TEXT
  5
63
330
EF7C85532
100
AcDbEntity
  8
SUNPOU
100
AcDbText
 10
711.923158680117
 20
21.89834363743527
 30
0.0
 40
0.75
  1
                          
100
AcDbText
  0
INSERT
  5
64
330
EF7C85532
100
AcDbEntity
  8
HATCH
100
AcDbBlockReference
  2
*X4
 10
178.999999284
 20
0.0
 30
0.0
  0
TEXT
  5
65
330
EF7C85532
100
AcDbEntity
  8
SUNPOU
100
AcDbText
 10
477.0854500730167
 20
43.7966872748706
 30
0.0
 40
1.5
  1
                          
100
AcDbText
  0
TEXT
  5
66
330
EF7C85532
100
AcDbEntity
  8
SUNPOU
100
AcDbText
 10
714.3061011079298
 20
21.8983436374353
 30
0.0
 40
0.75
  1
                          
100
AcDbText
  0
TEXT
  5
67
330
EF7C85532
100
AcDbEntity
  8
SUNPOU
100
AcDbText
 10
466.1239116114783
 20
43.7966872748706
 30
0.0
 40
1.5
  1
                          
100
AcDbText
  0
TEXT
  5
68
330
EF7C85532
100
AcDbEntity
  8
SUNPOU
100
AcDbText
 10
703.3445626463913
 20
21.8983436374353
 30
0.0
 40
0.75
  1
                          
100
AcDbText
  0
INSERT
  5
69
330
EF7C85532
100
AcDbEntity
  8
TEXT
100
AcDbBlockReference
  2
STDGX5
 10
178.999999284
 20
0.0
 30
0.0
  0
TEXT
  5
6A
330
EF7C85532
100
AcDbEntity
  8
SUNPOU
100
AcDbText
 10
453.0586949361739
 20
43.7966872748706
 30
0.0
 40
1.5
  1
                          
100
AcDbText
  0
TEXT
  5
6B
330
EF7C85532
100
AcDbEntity
  8
SUNPOU
100
AcDbText
 10
690.279345971087
 20
21.8983436374353
 30
0.0
 40
0.75
  1
                          
100
AcDbText
  0
TEXT
  5
6C
330
EF7C85532
100
AcDbEntity
  8
SUNPOU
100
AcDbText
 10
647.9834433840535
 20
43.7966872748706
 30
0.0
 40
1.5
  1
                          
100
AcDbText
  0
TEXT
  5
6D
330
EF7C85532
100
AcDbEntity
  8
SUNPOU
100
AcDbText
 10
885.2040944189665
 20
21.8983436374353
 30
0.0
 40
0.75
  1
                          
100
AcDbText
  0
TEXT
  5
6E
330
EF7C85532
100
AcDbEntity
  8
SUNPOU
100
AcDbText
 10
848.6272560930835
 20
43.79668727487057
 30
0.0
 40
1.5
  1
                          
100
AcDbText
  0
TEXT
  5
6F
330
EF7C85532
100
AcDbEntity
  8
SUNPOU
100
AcDbText
 10
1085.847907127996
 20
21.89834363743527
 30
0.0
 40
0.75
  1
                          
100
AcDbText
  0
INSERT
  5
70
330
EF7C85532
100
AcDbEntity
  8
HATCH
100
AcDbBlockReference
  2
*X5
 10
552.9247477318797
 20
0.0
 30
0.0
  0
TEXT
  5
71
330
EF7C85532
100
AcDbEntity
  8
SUNPOU
100
AcDbText
 10
851.0101985208963
 20
43.7966872748706
 30
0.0
 40
1.5
  1
                          
100
AcDbText
  0
TEXT
  5
72
330
EF7C85532
100
AcDbEntity
  8
SUNPOU
100
AcDbText
 10
1088.230849555809
 20
21.8983436374353
 30
0.0
 40
0.75
  1
                          
100
AcDbText
  0
TEXT
  5
73
330
EF7C85532
100
AcDbEntity
  8
SUNPOU
100
AcDbText
 10
840.048660059358
 20
43.7966872748706
 30
0.0
 40
1.5
  1
                          
100
AcDbText
  0
TEXT
  5
74
330
EF7C85532
100
AcDbEntity
  8
SUNPOU
100
AcDbText
 10
1077.269311094271
 20
21.8983436374353
 30
0.0
 40
0.75
  1
                          
100
AcDbText
  0
INSERT
  5
75
330
EF7C85532
100
AcDbEntity
  8
JISSEN
100
AcDbBlockReference
  2
STDGX5
 10
357.999999284
 20
0.0
 30
0.0
  0
TEXT
  5
76
330
EF7C85532
100
AcDbEntity
  8
SUNPOU
100
AcDbText
 10
453.0586949361739
 20
43.7966872748706
 30
0.0
 40
1.5
  1
                          
100
AcDbText
  0
TEXT
  5
77
330
EF7C85532
100
AcDbEntity
  8
SUNPOU
100
AcDbText
 10
690.279345971087
 20
21.8983436374353
 30
0.0
 40
0.75
  1
                          
100
AcDbText
  0
TEXT
  5
78
330
EF7C85532
100
AcDbEntity
  8
SUNPOU
100
AcDbText
 10
647.9834433840535
 20
43.7966872748706
 30
0.0
 40
1.5
  1
                          
100
AcDbText
  0
TEXT
  5
79
330
EF7C85532
100
AcDbEntity
  8
SUNPOU
100
AcDbText
 10
885.2040944189665
 20
21.8983436374353
 30
0.0
 40
0.75
  1
                          
100
AcDbText
  0
TEXT
  5
7A
330
EF7C85532
100
AcDbEntity
  8
SUNPOU
100
AcDbText
 10
848.6272560930835
 20
43.79668727487057
 30
0.0
 40
1.5
  1
                          
100
AcDbText
  0
TEXT
  5
7B
330
EF7C85532
100
AcDbEntity
  8
SUNPOU
100
AcDbText
 10
1085.847907127996
 20
21.89834363743527
 30
0.0
 40
0.75
  1
                          
100
AcDbText
  0
INSERT
  5
7C
330
EF7C85532
100
AcDbEntity
  8
HATCH
100
AcDbBlockReference
  2
*X6
 10
552.9247477318797
 20
0.0
 30
0.0
  0
TEXT
  5
7D
330
EF7C85532
100
AcDbEntity
  8
SUNPOU
100
AcDbText
 10
851.0101985208963
 20
43.7966872748706
 30
0.0
 40
1.5
  1
                          
100
AcDbText
  0
TEXT
  5
7E
330
EF7C85532
100
AcDbEntity
  8
SUNPOU
100
AcDbText
 10
1088.230849555809
 20
21.8983436374353
 30
0.0
 40
0.75
  1
                          
100
AcDbText
  0
TEXT
  5
7F
330
EF7C85532
100
AcDbEntity
  8
SUNPOU
100
AcDbText
 10
840.048660059358
 20
43.7966872748706
 30
0.0
 40
1.5
  1
                          
100
AcDbText
  0
TEXT
  5
80
330
EF7C85532
100
AcDbEntity
  8
SUNPOU
100
AcDbText
 10
1077.269311094271
 20
21.8983436374353
 30
0.0
 40
0.75
  1
                          
100
AcDbText
  0
INSERT
  5
81
330
EF7C85532
100
AcDbEntity
  8
JISSEN
100
AcDbBlockReference
  2
STDGX5
 10
357.999999284
 20
0.0
 30
0.0
  0
TEXT
  5
82
330
EF7C85532
100
AcDbEntity
  8
SUNPOU
100
AcDbText
 10
632.0586942201739
 20
43.7966872748706
 30
0.0
 40
1.5
  1
                          
100
AcDbText
  0
TEXT
  5
83
330
EF7C85532
100
AcDbEntity
  8
SUNPOU
100
AcDbText
 10
869.2793452550871
 20
21.8983436374353
 30
0.0
 40
0.75
  1
                          
100
AcDbText
  0
TEXT
  5
84
330
EF7C85532
100
AcDbEntity
  8
SUNPOU
100
AcDbText
 10
826.9834426680535
 20
43.7966872748706
 30
0.0
 40
1.5
  1
                          
100
AcDbText
  0
TEXT
  5
85
330
EF7C85532
100
AcDbEntity
  8
SUNPOU
100
AcDbText
 10
1064.204093702966
 20
21.8983436374353
 30
0.0
 40
0.75
  1
                          
100
AcDbText
  0
TEXT
  5
86
330
EF7C85532
100
AcDbEntity
  8
SUNPOU
100
AcDbText
 10
1027.627255377083
 20
43.79668727487057
 30
0.0
 40
1.5
  1
                          
100
AcDbText
  0
TEXT
  5
87
330
EF7C85532
100
AcDbEntity
  8
SUNPOU
100
AcDbText
 10
1264.847906411996
 20
21.89834363743527
 30
0.0
 40
0.75
  1
                          
100
AcDbText
  0
INSERT
  5
88
330
EF7C85532
100
AcDbEntity
  8
HATCH
100
AcDbBlockReference
  2
*X7
 10
731.9247470158797
 20
0.0
 30
0.0
  0
TEXT
  5
89
330
EF7C85532
100
AcDbEntity
  8
SUNPOU
100
AcDbText
 10
1030.010197804896
 20
43.7966872748706
 30
0.0
 40
1.5
  1
                          
100
AcDbText
  0
TEXT
  5
8A
330
EF7C85532
100
AcDbEntity
  8
SUNPOU
100
AcDbText
 10
1267.230848839809
 20
21.8983436374353
 30
0.0
 40
0.75
  1
                          
100
AcDbText
  0
TEXT
  5
8B
330
EF7C85532
100
AcDbEntity
  8
SUNPOU
100
AcDbText
 10
1019.048659343358
 20
43.7966872748706
 30
0.0
 40
1.5
  1
                          
100
AcDbText
  0
TEXT
  5
8C
330
EF7C85532
100
AcDbEntity
  8
SUNPOU
100
AcDbText
 10
1256.269310378271
 20
21.8983436374353
 30
0.0
 40
0.75
  1
                          
100
AcDbText
  0
INSERT
  5
8D
330
EF7C85532
100
AcDbEntity
  8
JISSEN
100
AcDbBlockReference
  2
STDGX5
 10
536.999998568
 20
0.0
 30
0.0
  0
INSERT
  5
8E
330
EF7C85532
100
AcDbEntity
  8
SUNPOU
100
AcDbBlockReference
  2
STDGX5
 10
739.0804232644236
 20
50.83533235670902
 30
0.0
 41
0.5
 42
0.5
 43
0.5
  0
INSERT
  5
8F
330
EF7C85532
100
AcDbEntity
  8
SUNPOU
100
AcDbBlockReference
  2
STDGX5
 10
726.2208210623692
 20
105.0763138619288
 30
0.0
 41
0.5
 42
0.5
 43
0.5
  0
INSERT
  5
90
330
EF7C85532
100
AcDbEntity
  8
HATCH
100
AcDbBlockReference
  2
STDGX5
 10
852.3985550581901
 20
151.7065097967401
 30
0.0
 41
0.5
 42
0.5
 43
0.5
  0
INSERT
  5
91
330
EF7C85532
100
AcDbEntity
  8
HATCH
100
AcDbBlockReference
  2
STDGX5
 10
866.6806796277285
 20
102.7017487639613
 30
0.0
 41
0.5
 42
0.5
 43
0.5
  0
INSERT
  5
92
330
EF7C85532
100
AcDbEntity
  8
TEXT
100
AcDbBlockReference
  2
STDGX5
 10
970.3434408521969
 20
102.8213468229236
 30
0.0
 41
0.5
 42
0.5
 43
0.5
  0
INSERT
  5
93
330
EF7C85532
100
AcDbEntity
  8
SUNPOU
100
AcDbBlockReference
  2
STDGX5
 10
996.1728907397869
 20
174.5475645486174
 30
0.0
 41
0.5
 42
0.5
 43
0.5
  0
INSERT
  5
94
330
EF7C85532
100
AcDbEntity
  8
TEXT
100
AcDbBlockReference
  2
STDGX5
 10
725.7513886810995
 20
124.5860190441302
 30
0.0
 41
0.5
 42
0.5
 43
0.5
  0
INSERT
  5
95
330
EF7C85532
100
AcDbEntity
  8
HATCH
100
AcDbBlockReference
  2
STDGX5
 10
777.1755722656421
 20
145.5222028932424
 30
0.0
 41
0.5
 42
0.5
 43
0.5
  0
INSERT
  5
96
330
EF7C85532
100
AcDbEntity
  8
SUNPOU
100
AcDbBlockReference
  2
STDGX5
 10
846.1963575359604
 20
112.6957974729892
 30
0.0
 41
0.5
 42
0.5
 43
0.5
  0
INSERT
  5
97
330
EF7C85532
100
AcDbEntity
  8
SUNPOU
100
AcDbBlockReference
  2
STDGX5
 10
916.6681156211122
 20
121.7330617103085
 30
0.0
 41
0.5
 42
0.5
 43
0.5
  0
INSERT
  5
98
330
EF7C85532
100
AcDbEntity
  8
TEXT
100
AcDbBlockReference
  2
STDGX5
 10
983.7969461426769
 20
84.61852224867081
 30
0.0
 41
0.5
 42
0.5
 43
0.5
  0
INSERT
  5
99
330
EF7C85532
100
AcDbEntity
  8
HATCH
100
AcDbBlockReference
  2
STDGX5
 10
974.2802715042099
 20
136.4849386559231
 30
0.0
 41
0.5
 42
0.5
 43
0.5
  0
INSERT
  5
9A
330
EF7C85532
100
AcDbEntity
  8
SUNPOU
100
AcDbBlockReference
  2
STDGX5
 10
749.7834008663489
 20
95.14721172234004
 30
0.0
 41
0.5
 42
0.5
 43
0.5
  0
INSERT
  5
9B
330
EF7C85532
100
AcDbEntity
  8
SUNPOU
100
AcDbBlockReference
  2
STDGX5
 10
736.9237986642947
 20
149.3881932275598
 30
0.0
 41
0.5
 42
0.5
 43
0.5
  0
INSERT
  5
9C
330
EF7C85532
100
AcDbEntity
  8
HATCH
100
AcDbBlockReference
  2
STDGX5
 10
863.1015326601156
 20
196.0183891623711
 30
0.0
 41
0.5
 42
0.5
 43
0.5
  0
INSERT
  5
9D
330
EF7C85532
100
AcDbEntity
  8
HATCH
100
AcDbBlockReference
  2
STDGX5
 10
877.3836572296538
 20
147.0136281295923
 30
0.0
 41
0.5
 42
0.5
 43
0.5
  0
INSERT
  5
9E
330
EF7C85532
100
AcDbEntity
  8
TEXT
100
AcDbBlockReference
  2
STDGX5
 10
981.0464184541224
 20
147.1332261885546
 30
0.0
 41
0.5
 42
0.5
 43
0.5
  0
INSERT
  5
9F
330
EF7C85532
100
AcDbEntity
  8
SUNPOU
100
AcDbBlockReference
  2
STDGX5
 10
1006.875868341712
 20
218.8594439142484
 30
0.0
 41
0.5
 42
0.5
 43
0.5
  0
INSERT
  5
A0
330
EF7C85532
100
AcDbEntity
  8
TEXT
100
AcDbBlockReference
  2
STDGX5
 10
736.4543662830251
 20
168.8978984097612
 30
0.0
 41
0.5
 42
0.5
 43
0.5
  0
INSERT
  5
A1
330
EF7C85532
100
AcDbEntity
  8
HATCH
100
AcDbBlockReference
  2
STDGX5
 10
787.8785498675677
 20
189.8340822588735
 30
0.0
 41
0.5
 42
0.5
 43
0.5
  0
INSERT
  5
A2
330
EF7C85532
100
AcDbEntity
  8
SUNPOU
100
AcDbBlockReference
  2
STDGX5
 10
856.899335137886
 20
157.0076768386202
 30
0.0
 41
0.5
 42
0.5
 43
0.5
  0
INSERT
  5
A3
330
EF7C85532
100
AcDbEntity
  8
SUNPOU
100
AcDbBlockReference
  2
STDGX5
 10
927.3710932230379
 20
166.0449410759395
 30
0.0
 41
0.5
 42
0.5
 43
0.5
  0
INSERT
  5
A4
330
EF7C85532
100
AcDbEntity
  8
TEXT
100
AcDbBlockReference
  2
STDGX5
 10
994.4999237446024
 20
128.9304016143018
 30
0.0
 41
0.5
 42
0.5
 43
0.5
  0
INSERT
  5
A5
330
EF7C85532
100
AcDbEntity
  8
HATCH
100
AcDbBlockReference
  2
STDGX5
 10
984.9832491061354
 20
180.7968180215541
 30
0.0
 41
0.5
 42
0.5
 43
0.5
  0
TEXT
  5
DE
330
EF7C85532
100
AcDbEntity
  8
SUNPOU
100
AcDbText
 10
274.0586949361738
 20
43.7966872748706
 30
0.0
 40
1.5
  1
                          
100
AcDbText
  0
TEXT
  5
145
330
EF7C85532
100
AcDbEntity
  8
SUNPOU
100
AcDbText
 10
511.2793459710869
 20
21.8983436374353
 30
0.0
 40
0.75
  1
                          
100
AcDbText
  0
TEXT
  5
265
330
EF7C85532
100
AcDbEntity
  8
SUNPOU
100
AcDbText
 10
474.702507645204
 20
43.79668727487057
 30
0.0
 40
1.5
  1
                          
100
AcDbText
  0
TEXT
  5
266
330
EF7C85532
100
AcDbEntity
  8
SUNPOU
100
AcDbText
 10
711.923158680117
 20
21.89834363743527
 30
0.0
 40
0.75
  1
                          
100
AcDbText
  0
INSERT
  5
2F7
330
EF7C85532
100
AcDbEntity
  8
HATCH
100
AcDbBlockReference
  2
*X4
 10
178.999999284
 20
0.0
 30
0.0
  0
TEXT
  5
31A
330
EF7C85532
100
AcDbEntity
  8
SUNPOU
100
AcDbText
 10
477.0854500730167
 20
43.7966872748706
 30
0.0
 40
1.5
  1
                          
100
AcDbText
  0
TEXT
  5
31C
330
EF7C85532
100
AcDbEntity
  8
SUNPOU
100
AcDbText
 10
714.3061011079298
 20
21.8983436374353
 30
0.0
 40
0.75
  1
                          
100
AcDbText
  0
TEXT
  5
3A6
330
EF7C85532
100
AcDbEntity
  8
TEXT
100
AcDbText
 10
100.9999992839998
 20
244.9999999999999
 30
0.0
 40
3.0
  1
 
  7
K
100
AcDbText
  0
TEXT
  5
3AB
330
EF7C85532
100
AcDbEntity
  8
SUNPOU
100
AcDbText
 10
466.1239116114783
 20
43.7966872748706
 30
0.0
 40
1.5
  1
                          
100
AcDbText
  0
TEXT
  5
3AC
330
EF7C85532
100
AcDbEntity
  8
SUNPOU
100
AcDbText
 10
703.3445626463913
 20
21.8983436374353
 30
0.0
 40
0.75
  1
                          
100
AcDbText
  0
INSERT
  5
3F6
330
EF7C85532
100
AcDbEntity
  8
TEXT
100
AcDbBlockReference
  2
STDGX5
 10
178.999999284
 20
0.0
 30
0.0
  0
TEXT
  5
3F7
330
EF7C85532
100
AcDbEntity
  8
SUNPOU
100
AcDbText
 10
453.0586949361739
 20
43.7966872748706
 30
0.0
 40
1.5
  1
                          
100
AcDbText
  0
TEXT
  5
3F8
330
EF7C85532
100
AcDbEntity
  8
SUNPOU
100
AcDbText
 10
690.279345971087
 20
21.8983436374353
 30
0.0
 40
0.75
  1
                          
100
AcDbText
  0
TEXT
  5
3F9
330
EF7C85532
100
AcDbEntity
  8
SUNPOU
100
AcDbText
 10
647.9834433840535
 20
43.7966872748706
 30
0.0
 40
1.5
  1
                          
100
AcDbText
  0
TEXT
  5
3FA
330
EF7C85532
100
AcDbEntity
  8
SUNPOU
100
AcDbText
 10
885.2040944189665
 20
21.8983436374353
 30
0.0
 40
0.75
  1
                          
100
AcDbText
  0
TEXT
  5
3FB
330
EF7C85532
100
AcDbEntity
  8
SUNPOU
100
AcDbText
 10
848.6272560930835
 20
43.79668727487057
 30
0.0
 40
1.5
  1
                          
100
AcDbText
  0
TEXT
  5
3FC
330
EF7C85532
100
AcDbEntity
  8
SUNPOU
100
AcDbText
 10
1085.847907127996
 20
21.89834363743527
 30
0.0
 40
0.75
  1
                          
100
AcDbText
  0
INSERT
  5
3FD
330
EF7C85532
100
AcDbEntity
  8
HATCH
100
AcDbBlockReference
  2
*X5
 10
552.9247477318797
 20
0.0
 30
0.0
  0
TEXT
  5
3FE
330
EF7C85532
100
AcDbEntity
  8
SUNPOU
100
AcDbText
 10
851.0101985208963
 20
43.7966872748706
 30
0.0
 40
1.5
  1
                          
100
AcDbText
  0
TEXT
  5
3FF
330
EF7C85532
100
AcDbEntity
  8
SUNPOU
100
AcDbText
 10
1088.230849555809
 20
21.8983436374353
 30
0.0
 40
0.75
  1
                          
100
AcDbText
  0
TEXT
  5
400
330
EF7C85532
100
AcDbEntity
  8
SUNPOU
100
AcDbText
 10
840.048660059358
 20
43.7966872748706
 30
0.0
 40
1.5
  1
                          
100
AcDbText
  0
TEXT
  5
401
330
EF7C85532
100
AcDbEntity
  8
SUNPOU
100
AcDbText
 10
1077.269311094271
 20
21.8983436374353
 30
0.0
 40
0.75
  1
                          
100
AcDbText
  0
INSERT
  5
402
330
EF7C85532
100
AcDbEntity
  8
JISSEN
100
AcDbBlockReference
  2
STDGX5
 10
357.999999284
 20
0.0
 30
0.0
  0
TEXT
  5
409
330
EF7C85532
100
AcDbEntity
  8
SUNPOU
100
AcDbText
 10
453.0586949361739
 20
43.7966872748706
 30
0.0
 40
1.5
  1
                          
100
AcDbText
  0
TEXT
  5
40A
330
EF7C85532
100
AcDbEntity
  8
SUNPOU
100
AcDbText
 10
690.279345971087
 20
21.8983436374353
 30
0.0
 40
0.75
  1
                          
100
AcDbText
  0
TEXT
  5
41B
330
EF7C85532
100
AcDbEntity
  8
SUNPOU
100
AcDbText
 10
647.9834433840535
 20
43.7966872748706
 30
0.0
 40
1.5
  1
                          
100
AcDbText
  0
TEXT
  5
41C
330
EF7C85532
100
AcDbEntity
  8
SUNPOU
100
AcDbText
 10
885.2040944189665
 20
21.8983436374353
 30
0.0
 40
0.75
  1
                          
100
AcDbText
  0
TEXT
  5
41D
330
EF7C85532
100
AcDbEntity
  8
SUNPOU
100
AcDbText
 10
848.6272560930835
 20
43.79668727487057
 30
0.0
 40
1.5
  1
                          
100
AcDbText
  0
TEXT
  5
41E
330
EF7C85532
100
AcDbEntity
  8
SUNPOU
100
AcDbText
 10
1085.847907127996
 20
21.89834363743527
 30
0.0
 40
0.75
  1
                          
100
AcDbText
  0
INSERT
  5
41F
330
EF7C85532
100
AcDbEntity
  8
HATCH
100
AcDbBlockReference
  2
*X6
 10
552.9247477318797
 20
0.0
 30
0.0
  0
TEXT
  5
420
330
EF7C85532
100
AcDbEntity
  8
SUNPOU
100
AcDbText
 10
851.0101985208963
 20
43.7966872748706
 30
0.0
 40
1.5
  1
                          
100
AcDbText
  0
TEXT
  5
421
330
EF7C85532
100
AcDbEntity
  8
SUNPOU
100
AcDbText
 10
1088.230849555809
 20
21.8983436374353
 30
0.0
 40
0.75
  1
                          
100
AcDbText
  0
TEXT
  5
422
330
EF7C85532
100
AcDbEntity
  8
SUNPOU
100
AcDbText
 10
840.048660059358
 20
43.7966872748706
 30
0.0
 40
1.5
  1
                          
100
AcDbText
  0
TEXT
  5
423
330
EF7C85532
100
AcDbEntity
  8
SUNPOU
100
AcDbText
 10
1077.269311094271
 20
21.8983436374353
 30
0.0
 40
0.75
  1
                          
100
AcDbText
  0
INSERT
  5
424
330
EF7C85532
100
AcDbEntity
  8
JISSEN
100
AcDbBlockReference
  2
STDGX5
 10
357.999999284
 20
0.0
 30
0.0
  0
TEXT
  5
425
330
EF7C85532
100
AcDbEntity
  8
SUNPOU
100
AcDbText
 10
632.0586942201739
 20
43.7966872748706
 30
0.0
 40
1.5
  1
                          
100
AcDbText
  0
TEXT
  5
426
330
EF7C85532
100
AcDbEntity
  8
SUNPOU
100
AcDbText
 10
869.2793452550871
 20
21.8983436374353
 30
0.0
 40
0.75
  1
                          
100
AcDbText
  0
TEXT
  5
427
330
EF7C85532
100
AcDbEntity
  8
SUNPOU
100
AcDbText
 10
826.9834426680535
 20
43.7966872748706
 30
0.0
 40
1.5
  1
                          
100
AcDbText
  0
TEXT
  5
428
330
EF7C85532
100
AcDbEntity
  8
SUNPOU
100
AcDbText
 10
1064.204093702966
 20
21.8983436374353
 30
0.0
 40
0.75
  1
                          
100
AcDbText
  0
TEXT
  5
429
330
EF7C85532
100
AcDbEntity
  8
SUNPOU
100
AcDbText
 10
1027.627255377083
 20
43.79668727487057
 30
0.0
 40
1.5
  1
                          
100
AcDbText
  0
TEXT
  5
42A
330
EF7C85532
100
AcDbEntity
  8
SUNPOU
100
AcDbText
 10
1264.847906411996
 20
21.89834363743527
 30
0.0
 40
0.75
  1
                          
100
AcDbText
  0
INSERT
  5
42B
330
EF7C85532
100
AcDbEntity
  8
HATCH
100
AcDbBlockReference
  2
*X7
 10
731.9247470158797
 20
0.0
 30
0.0
  0
TEXT
  5
42C
330
EF7C85532
100
AcDbEntity
  8
SUNPOU
100
AcDbText
 10
1030.010197804896
 20
43.7966872748706
 30
0.0
 40
1.5
  1
                          
100
AcDbText
  0
TEXT
  5
42D
330
EF7C85532
100
AcDbEntity
  8
SUNPOU
100
AcDbText
 10
1267.230848839809
 20
21.8983436374353
 30
0.0
 40
0.75
  1
                          
100
AcDbText
  0
TEXT
  5
42E
330
EF7C85532
100
AcDbEntity
  8
SUNPOU
100
AcDbText
 10
1019.048659343358
 20
43.7966872748706
 30
0.0
 40
1.5
  1
                          
100
AcDbText
  0
TEXT
  5
42F
330
EF7C85532
100
AcDbEntity
  8
SUNPOU
100
AcDbText
 10
1256.269310378271
 20
21.8983436374353
 30
0.0
 40
0.75
  1
                          
100
AcDbText
  0
INSERT
  5
430
330
EF7C85532
100
AcDbEntity
  8
JISSEN
100
AcDbBlockReference
  2
STDGX5
 10
536.999998568
 20
0.0
 30
0.0
  0
INSERT
  5
43B
330
EF7C85532
100
AcDbEntity
  8
SUNPOU
100
AcDbBlockReference
  2
STDGX5
 10
739.0804232644236
 20
50.83533235670902
 30
0.0
 41
0.5
 42
0.5
 43
0.5
  0
INSERT
  5
43C
330
EF7C85532
100
AcDbEntity
  8
SUNPOU
100
AcDbBlockReference
  2
STDGX5
 10
726.2208210623692
 20
105.0763138619288
 30
0.0
 41
0.5
 42
0.5
 43
0.5
  0
INSERT
  5
43D
330
EF7C85532
100
AcDbEntity
  8
HATCH
100
AcDbBlockReference
  2
STDGX5
 10
852.3985550581901
 20
151.7065097967401
 30
0.0
 41
0.5
 42
0.5
 43
0.5
  0
INSERT
  5
43E
330
EF7C85532
100
AcDbEntity
  8
HATCH
100
AcDbBlockReference
  2
STDGX5
 10
866.6806796277285
 20
102.7017487639613
 30
0.0
 41
0.5
 42
0.5
 43
0.5
  0
INSERT
  5
43F
330
EF7C85532
100
AcDbEntity
  8
TEXT
100
AcDbBlockReference
  2
STDGX5
 10
970.3434408521969
 20
102.8213468229236
 30
0.0
 41
0.5
 42
0.5
 43
0.5
  0
INSERT
  5
440
330
EF7C85532
100
AcDbEntity
  8
SUNPOU
100
AcDbBlockReference
  2
STDGX5
 10
996.1728907397869
 20
174.5475645486174
 30
0.0
 41
0.5
 42
0.5
 43
0.5
  0
INSERT
  5
441
330
EF7C85532
100
AcDbEntity
  8
TEXT
100
AcDbBlockReference
  2
STDGX5
 10
725.7513886810995
 20
124.5860190441302
 30
0.0
 41
0.5
 42
0.5
 43
0.5
  0
INSERT
  5
442
330
EF7C85532
100
AcDbEntity
  8
HATCH
100
AcDbBlockReference
  2
STDGX5
 10
777.1755722656421
 20
145.5222028932424
 30
0.0
 41
0.5
 42
0.5
 43
0.5
  0
INSERT
  5
443
330
EF7C85532
100
AcDbEntity
  8
SUNPOU
100
AcDbBlockReference
  2
STDGX5
 10
846.1963575359604
 20
112.6957974729892
 30
0.0
 41
0.5
 42
0.5
 43
0.5
  0
INSERT
  5
444
330
EF7C85532
100
AcDbEntity
  8
SUNPOU
100
AcDbBlockReference
  2
STDGX5
 10
916.6681156211122
 20
121.7330617103085
 30
0.0
 41
0.5
 42
0.5
 43
0.5
  0
INSERT
  5
445
330
EF7C85532
100
AcDbEntity
  8
TEXT
100
AcDbBlockReference
  2
STDGX5
 10
983.7969461426769
 20
84.61852224867081
 30
0.0
 41
0.5
 42
0.5
 43
0.5
  0
INSERT
  5
446
330
EF7C85532
100
AcDbEntity
  8
HATCH
100
AcDbBlockReference
  2
STDGX5
 10
974.2802715042099
 20
136.4849386559231
 30
0.0
 41
0.5
 42
0.5
 43
0.5
  0
INSERT
  5
447
330
EF7C85532
100
AcDbEntity
  8
SUNPOU
100
AcDbBlockReference
  2
STDGX5
 10
749.7834008663489
 20
95.14721172234004
 30
0.0
 41
0.5
 42
0.5
 43
0.5
  0
INSERT
  5
448
330
EF7C85532
100
AcDbEntity
  8
SUNPOU
100
AcDbBlockReference
  2
STDGX5
 10
736.9237986642947
 20
149.3881932275598
 30
0.0
 41
0.5
 42
0.5
 43
0.5
  0
INSERT
  5
449
330
EF7C85532
100
AcDbEntity
  8
HATCH
100
AcDbBlockReference
  2
STDGX5
 10
863.1015326601156
 20
196.0183891623711
 30
0.0
 41
0.5
 42
0.5
 43
0.5
  0
INSERT
  5
44A
330
EF7C85532
100
AcDbEntity
  8
HATCH
100
AcDbBlockReference
  2
STDGX5
 10
877.3836572296538
 20
147.0136281295923
 30
0.0
 41
0.5
 42
0.5
 43
0.5
  0
INSERT
  5
44B
330
EF7C85532
100
AcDbEntity
  8
TEXT
100
AcDbBlockReference
  2
STDGX5
 10
981.0464184541224
 20
147.1332261885546
 30
0.0
 41
0.5
 42
0.5
 43
0.5
  0
INSERT
  5
44C
330
EF7C85532
100
AcDbEntity
  8
SUNPOU
100
AcDbBlockReference
  2
STDGX5
 10
1006.875868341712
 20
218.8594439142484
 30
0.0
 41
0.5
 42
0.5
 43
0.5
  0
INSERT
  5
44D
330
EF7C85532
100
AcDbEntity
  8
TEXT
100
AcDbBlockReference
  2
STDGX5
 10
736.4543662830251
 20
168.8978984097612
 30
0.0
 41
0.5
 42
0.5
 43
0.5
  0
INSERT
  5
44E
330
EF7C85532
100
AcDbEntity
  8
HATCH
100
AcDbBlockReference
  2
STDGX5
 10
787.8785498675677
 20
189.8340822588735
 30
0.0
 41
0.5
 42
0.5
 43
0.5
  0
INSERT
  5
44F
330
EF7C85532
100
AcDbEntity
  8
SUNPOU
100
AcDbBlockReference
  2
STDGX5
 10
856.899335137886
 20
157.0076768386202
 30
0.0
 41
0.5
 42
0.5
 43
0.5
  0
INSERT
  5
450
330
EF7C85532
100
AcDbEntity
  8
SUNPOU
100
AcDbBlockReference
  2
STDGX5
 10
927.3710932230379
 20
166.0449410759395
 30
0.0
 41
0.5
 42
0.5
 43
0.5
  0
INSERT
  5
451
330
EF7C85532
100
AcDbEntity
  8
TEXT
100
AcDbBlockReference
  2
STDGX5
 10
994.4999237446024
 20
128.9304016143018
 30
0.0
 41
0.5
 42
0.5
 43
0.5
  0
INSERT
  5
452
330
EF7C85532
100
AcDbEntity
  8
HATCH
100
AcDbBlockReference
  2
STDGX5
 10
984.9832491061354
 20
180.7968180215541
 30
0.0
 41
0.5
 42
0.5
 43
0.5
  0
INSERT
  5
4CF3
330
EF7C85532
100
AcDbEntity
  8
JISSEN
100
AcDbBlockReference
  2
STDR12J
 10
0.0
 20
0.0
 30
0.0
  0
LWPOLYLINE
  5
1D277
330
EF7C85532
100
AcDbEntity
  8
NITEN
100
AcDbPolyline
 90
        2
 70
     0
 43
0.0
 10
107.0
 20
202.2768603953026
 42
0.5882352941176294
 10
89.99999999999996
 20
202.2768603953029
 42
0.5882352941176294
  0
LWPOLYLINE
  5
1D27B
330
EF7C85532
100
AcDbEntity
  8
NITEN
100
AcDbPolyline
 90
        5
 70
     0
 43
0.0
 10
107.0
 20
181.4391427441568
 10
107.0
 20
202.2768603953026
 42
-0.5882352941176475
 10
90.0
 20
202.2768603953026
 42
0.5882352941176476
 10
73.0
 20
202.2768603953024
 10
73.0
 20
181.4391427441568
  0
LWPOLYLINE
  5
1D282
330
EF7C85532
100
AcDbEntity
  8
NITEN
100
AcDbPolyline
 90
       15
 70
     1
 43
0.0
 10
76.0
 20
140.9391427441568
 42
0.4142135623730927
 10
77.49999999999994
 20
139.4391427441568
 10
100.5940511709964
 20
139.4391427441568
 10
102.4999999999999
 20
139.4391427441568
 42
0.4142135623730925
 10
104.0
 20
140.9391427441568
 10
104.0
 20
151.9851587703747
 42
-0.4142135623730943
 10
108.9999999999999
 20
156.9851587703747
 42
0.4142135623730951
 10
111.0
 20
158.9851587703748
 10
110.9999999999999
 20
179.4391427441568
 42
0.4142135623730948
 10
109.0
 20
181.4391427441568
 10
71.0
 20
181.4391427441568
 42
0.4142135623730951
 10
69.0
 20
179.4391427441568
 10
69.0
 20
158.9851587703748
 42
0.4142135623730951
 10
71.0
 20
156.9851587703747
 42
-0.4142135623730961
 10
76.0
 20
151.9851587703747
  0
LINE
  5
EAFFB3C99
330
EF7C85532
100
AcDbEntity
  8
JISSEN
100
AcDbLine
 10
91.49999927599997
 20
276.9999999999999
 30
0.0
 11
180.999999276
 21
276.9999999999999
 31
0.0
  0
LINE
  5
EAFFB3C9A
330
EF7C85532
100
AcDbEntity
  8
JISSEN
100
AcDbLine
 10
91.49999927599997
 20
270.9999999999999
 30
0.0
 11
180.999999276
 21
270.9999999999999
 31
0.0
  0
TEXT
  5
EAFFB3C9B
330
EF7C85532
100
AcDbEntity
  8
TEXT
100
AcDbText
 10
107.8999992759999
 20
278.4999999999999
 30
0.0
 40
3.0
  1
名      称
  7
K
 72
     4
 11
116.4999992759999
 21
279.9999999999999
 31
0.0
100
AcDbText
  0
TEXT
  5
EAFFB3C9C
330
EF7C85532
100
AcDbEntity
  8
TEXT
100
AcDbText
 10
93.29999927599997
 20
278.4999999999999
 30
0.0
 40
3.0
  1
番号
  7
K
 72
     4
 11
96.49999927599999
 21
279.9999999999999
 31
0.0
100
AcDbText
  0
LINE
  5
EAFFB3C9D
330
EF7C85532
100
AcDbEntity
  8
JISSEN
100
AcDbLine
 10
91.49999927599997
 20
270.9999999999999
 30
0.0
 11
91.49999927599997
 21
282.9999999999999
 31
0.0
  0
TEXT
  5
EAFFB3C9F
330
EF7C85532
100
AcDbEntity
  8
TEXT
100
AcDbText
 10
135.1999992759999
 20
278.4999999999999
 30
0.0
 40
3.0
  1
材    質
  7
K
 72
     4
 11
141.9999992759999
 21
279.9999999999999
 31
0.0
100
AcDbText
  0
TEXT
  5
EAFFB3CA2
330
EF7C85532
100
AcDbEntity
  8
TEXT
100
AcDbText
 10
165.6999992759999
 20
278.4999999999999
 30
0.0
 40
3.0
  1
備    考
  7
K
 72
     4
 11
172.4999992759999
 21
279.9999999999999
 31
0.0
100
AcDbText
  0
TEXT
  5
EAFFB3CA3
330
EF7C85532
100
AcDbEntity
  8
TEXT
100
AcDbText
 10
154.7999992759999
 20
278.4999999999999
 30
0.0
 40
3.0
  1
個数
  7
K
 72
     4
 11
157.9999992759999
 21
279.9999999999999
 31
0.0
100
AcDbText
  0
TEXT
  5
EAFFB3CAC
330
EF7C85532
100
AcDbEntity
  8
TEXT
100
AcDbText
 10
95.28571356171427
 20
272.4999999999999
 30
0.0
 40
3.0
  1
1
  7
K
 72
     4
 11
96.49999927599999
 21
273.9999999999999
 31
0.0
100
AcDbText
  0
TEXT
  5
EAFFB3CC2
330
EF7C85532
100
AcDbEntity
  8
TEXT
100
AcDbText
 10
136.8249992759999
 20
274.2999999999999
 30
0.0
 40
3.0
  1
%%u      
  7
K
 72
     4
 11
141.9999992759999
 21
273.9999999999999
 31
0.0
100
AcDbText
  0
INSERT
  5
EAFFB3CF7
330
EF7C85532
100
AcDbEntity
  8
WAKU
100
AcDbBlockReference
  2
WAKU
 10
0.0
 20
0.0
 30
0.0
 41
181.0
 42
283.0
 43
181.0
  0
TEXT
  5
EF7C85BB1
330
EF7C85532
100
AcDbEntity
  8
TEXT
100
AcDbText
 10
156.6795477624092
 20
272.4999999999999
 30
0.0
 40
3.0
  1
1
  7
K
 72
     4
 11
157.8938334766949
 21
273.9999999999999
 31
0.0
100
AcDbText
  0
TEXT
  5
EF7C85DB5
330
EF7C85532
100
AcDbEntity
  8
TEXT
100
AcDbText
 10
103.8742849902856
 20
272.4999999999999
 30
0.0
 40
3.0
  1
FH001型ヘッド
 41
0.9
  7
K
 72
     4
 11
116.4999992759999
 21
273.9999999999999
 31
0.0
100
AcDbText
  0
LINE
  5
EF7C89637
330
EF7C85532
100
AcDbEntity
  8
JISSEN
100
AcDbLine
 10
91.4999992759999
 20
270.9999999999999
 30
0.0
 11
91.4999992759999
 21
282.9999996778768
 31
0.0
  0
LINE
  5
EF7C89638
330
EF7C85532
100
AcDbEntity
  8
JISSEN
100
AcDbLine
 10
101.4999992759999
 20
282.9999996778768
 30
0.0
 11
101.4999992759999
 21
270.9999999999999
 31
0.0
  0
LINE
  5
EF7C8963A
330
EF7C85532
100
AcDbEntity
  8
JISSEN
100
AcDbLine
 10
131.4999992759998
 20
282.9999996778768
 30
0.0
 11
131.4999992759998
 21
270.9999999999999
 31
0.0
  0
LINE
  5
EF7C8963B
330
EF7C85532
100
AcDbEntity
  8
JISSEN
100
AcDbLine
 10
152.4999992759999
 20
270.9999999999999
 30
0.0
 11
152.4999992759999
 21
282.9999996778768
 31
0.0
  0
LINE
  5
EF7C8963C
330
EF7C85532
100
AcDbEntity
  8
JISSEN
100
AcDbLine
 10
163.4999992759999
 20
282.9999996778768
 30
0.0
 11
163.4999992759999
 21
270.9999999999999
 31
0.0
  0
TEXT
  5
EF7C89640
330
EF7C85532
100
AcDbEntity
  8
SUNPOU
100
AcDbText
 10
145.3333957349371
 20
7.849423898685245
 30
0.0
 40
3.0
  1
FH001 取付状態
  7
K
100
AcDbText
  0
TEXT
  5
EF7C89641
330
EF7C85532
100
AcDbEntity
  8
SUNPOU
100
AcDbText
 10
145.3333957349371
 20
2.849423898685245
 30
0.0
 40
3.0
  1
尺度　1/1
  7
K
100
AcDbText
  0
LWPOLYLINE
  5
EF7C8AB6C
330
EF7C85532
100
AcDbEntity
  8
JISSEN
100
AcDbPolyline
 90
        6
 70
     1
 43
0.0
 10
85.75008343801608
 20
77.33047569705535
 10
85.75008343801608
 20
78.83047569705535
 10
94.25008343801607
 20
78.83047569705535
 10
94.25008343801607
 20
77.33047569705535
 42
-0.4142135623730951
 10
92.75008343801607
 20
75.83047569705534
 10
87.25008343801608
 20
75.83047569705534
 42
-0.4142135623730951
  0
LINE
  5
EF7C8AB6D
330
EF7C85532
100
AcDbEntity
  8
JISSEN
100
AcDbLine
 10
90.00008343801608
 20
84.03047569705536
 30
0.0
 11
92.50008343801601
 21
84.03047569705536
 31
0.0
  0
LINE
  5
EF7C8AB6E
330
EF7C85532
100
AcDbEntity
  8
JISSEN
100
AcDbLine
 10
90.00008343801608
 20
84.83047569705535
 30
0.0
 11
91.70008343801606
 21
84.83047569705535
 31
0.0
  0
LWPOLYLINE
  5
EF7C8AB71
330
EF7C85532
100
AcDbEntity
  8
JISSEN
100
AcDbPolyline
 90
        3
 70
     0
 43
0.0
 10
92.00008343801608
 20
105.6285938384331
 10
92.00008343801608
 20
102.3805177859091
 10
90.00008343801608
 20
102.3805177859091
  0
LINE
  5
EF7C8AB72
330
EF7C85532
100
AcDbEntity
  8
JISSEN
100
AcDbLine
 10
90.00008343801608
 20
99.03051778590922
 30
0.0
 11
96.75008343801607
 21
99.03051778590922
 31
0.0
  0
LINE
  5
EF7C8AB73
330
EF7C85532
100
AcDbEntity
  8
JISSEN
100
AcDbLine
 10
90.00008343801608
 20
99.03051778590922
 30
0.0
 11
94.00008343801607
 21
99.03051778590922
 31
0.0
  0
LINE
  5
EF7C8AB75
330
EF7C85532
100
AcDbEntity
  8
JISSEN
100
AcDbLine
 10
90.00008343801608
 20
88.53051778590922
 30
0.0
 11
91.70008343801606
 21
88.53051778590922
 31
0.0
  0
LINE
  5
EF7C8AB76
330
EF7C85532
100
AcDbEntity
  8
JISSEN
100
AcDbLine
 10
90.00008343801608
 20
89.53051778590923
 30
0.0
 11
91.70008343801606
 21
88.53051778590922
 31
0.0
  0
LINE
  5
EF7C8AB77
330
EF7C85532
100
AcDbEntity
  8
JISSEN
100
AcDbLine
 10
90.00008343801608
 20
99.03051778590922
 30
0.0
 11
95.00008343801608
 21
99.03051778590922
 31
0.0
  0
LINE
  5
EF7C8AB78
330
EF7C85532
100
AcDbEntity
  8
JISSEN
100
AcDbLine
 10
90.00008343801608
 20
87.53051778590922
 30
0.0
 11
92.50008343801608
 21
87.53051778590922
 31
0.0
  0
ARC
  5
EF7C8AB81
330
EF7C85532
100
AcDbEntity
  8
JISSEN
100
AcDbCircle
 10
89.6530453847281
 20
110.8285938384331
 30
0.0
 40
32.0
100
AcDbArc
 50
189.3520350575628
 51
270.6213814240427
  0
LINE
  5
EF7C8AB85
330
EF7C85532
100
AcDbEntity
  8
JISSEN
100
AcDbLine
 10
54.40008343801611
 20
105.6285938384331
 30
0.0
 11
90.00008343801608
 21
105.6285938384331
 31
0.0
  0
LINE
  5
EF7C8AB86
330
EF7C85532
100
AcDbEntity
  8
JISSEN
100
AcDbLine
 10
55.79297665682943
 20
110.3285938384331
 30
0.0
 11
90.00008343801608
 21
110.3285938384331
 31
0.0
  0
LINE
  5
EF7C8AB87
330
EF7C85532
100
AcDbEntity
  8
JISSEN
100
AcDbLine
 10
59.32146003144254
 20
110.3285938384331
 30
0.0
 11
73.83427590070652
 21
121.2647850151131
 31
0.0
  0
LINE
  5
EF7C8AB88
330
EF7C85532
100
AcDbEntity
  8
JISSEN
100
AcDbLine
 10
54.40008343801611
 20
108.9357006196197
 30
0.0
 11
55.79297665682941
 21
110.3285938384331
 31
0.0
  0
LINE
  5
EF7C8AB89
330
EF7C85532
100
AcDbEntity
  8
JISSEN
100
AcDbLine
 10
54.40008343801611
 20
108.9357006196198
 30
0.0
 11
54.40008343801611
 21
105.6285938384331
 31
0.0
  0
LINE
  5
EF7C8AB8D
330
EF7C85532
100
AcDbEntity
  8
JISSEN
100
AcDbLine
 10
81.91717966936128
 20
128.4180549430216
 30
0.0
 11
81.91717966936129
 21
121.2647850151131
 31
0.0
  0
LINE
  5
EF7C8AB8E
330
EF7C85532
100
AcDbEntity
  8
JISSEN
100
AcDbLine
 10
73.83427590070652
 20
121.2647850151131
 30
0.0
 11
73.83427590070652
 21
128.4180549430216
 31
0.0
  0
LWPOLYLINE
  5
EF7C8AB8F
330
EF7C85532
100
AcDbEntity
  8
JISSEN
100
AcDbPolyline
 90
        9
 70
     0
 43
0.0
 10
75.48827473349013
 20
113.3487732658835
 42
-0.0516314136925684
 10
75.86174749884432
 20
114.1955290186331
 42
-0.0796269662402892
 10
76.75314209775152
 20
115.3035209842518
 42
-0.0885781599621572
 10
77.83941314661973
 20
115.9810757985664
 42
-0.1050993166401404
 10
79.06253605919744
 20
116.1930112642172
 42
-0.1207592167151079
 10
80.10499927577802
 20
115.8952613738335
 42
-0.1207592167151063
 10
80.89163526383032
 20
115.1492128650567
 42
-0.1050993166401366
 10
81.33135625858258
 20
113.9883546705958
 42
-0.0207862962843957
 10
81.36491041414172
 20
113.6875602777244
 42
-0.0796269662402926
  0
LINE
  5
EF7C8AB90
330
EF7C85532
100
AcDbEntity
  8
JISSEN
100
AcDbLine
 10
73.83427590070652
 20
121.2647850151131
 30
0.0
 11
90.00008343801608
 21
121.2647850151131
 31
0.0
  0
LWPOLYLINE
  5
EF7C8AB91
330
EF7C85532
100
AcDbEntity
  8
JISSEN
100
AcDbPolyline
 90
       16
 70
     1
 43
0.0
 10
76.74818587185388
 20
111.1410721697746
 42
-0.1207592167151047
 10
75.96154988380158
 20
111.8871206785514
 42
-0.1050993166401404
 10
75.52182888904926
 20
113.0479788730123
 42
-0.0885781599621523
 10
75.55259830425649
 20
114.3278689312197
 42
-0.0796269662402847
 10
76.0530843408144
 20
115.6589377701785
 42
-0.0796269662402892
 10
76.94447893972159
 20
116.7669297357972
 42
-0.0885781599621572
 10
78.03074998858983
 20
117.4444845501118
 42
-0.1050993166401404
 10
79.25387290116759
 20
117.6564200157627
 42
-0.1207592167151079
 10
80.29633611774816
 20
117.358670125379
 42
-0.1207592167151063
 10
81.08297210580046
 20
116.6126216166022
 42
-0.1050993166401366
 10
81.52269310055272
 20
115.4517634221412
 42
-0.0885781599621569
 10
81.49192368534547
 20
114.1718733639339
 42
-0.0796269662402926
 10
80.99143764878759
 20
112.8408045249751
 42
-0.0796269662402909
 10
80.10004304988038
 20
111.7328125593563
 42
-0.0885781599621619
 10
79.01377200101214
 20
111.0552577450417
 42
-0.1050993166401397
 10
77.79064908843446
 20
110.8433222793909
 42
-0.1207592167151047
  0
ARC
  5
EF7C8AB92
330
EF7C85532
100
AcDbEntity
  8
JISSEN
100
AcDbCircle
 10
55.10889414325044
 20
131.0150996782864
 30
0.0
 40
19.96276143261397
100
AcDbArc
 50
289.6662660200663
 51
324.3337339799374
  0
LWPOLYLINE
  5
EF7C8AB94
330
EF7C85532
100
AcDbEntity
  8
JISSEN
100
AcDbPolyline
 90
        9
 70
     0
 43
0.0
 10
90.00008343801608
 20
117.1718733639338
 42
0.0854968845748597
 10
88.63718079511569
 20
116.9371094461757
 42
0.0921264087088368
 10
87.52520970386314
 20
116.2931937074935
 42
0.1033690028891343
 10
86.75748978199141
 20
115.2961238841934
 42
0.1130168661468817
 10
86.50008343801607
 20
114.1718733639338
 42
0.1130168661468847
 10
86.75748978199141
 20
113.0476228436742
 42
0.1033690028891363
 10
87.52520970386314
 20
112.0505530203742
 42
0.0921264087088391
 10
88.63718079511569
 20
111.406637281692
 42
0.0854968845748639
 10
90.00008343801608
 20
111.1718733639338
 42
0.0854968845748575
  0
ARC
  5
EF7C8AB9D
330
EF7C85532
100
AcDbEntity
  8
JISSEN
100
AcDbCircle
 10
77.87572778503392
 20
124.2986500415796
 30
0.0
 40
5.770860427644891
100
AcDbArc
 50
45.54727624382501
 51
134.4527237561749
  0
LINE
  5
EF7C8AB9E
330
EF7C85532
100
AcDbEntity
  8
JISSEN
100
AcDbLine
 10
74.77692962242696
 20
130.1157059224071
 30
0.0
 11
80.73825746409278
 21
133.8285938384331
 31
0.0
  0
ARC
  5
EF7C8ABA3
330
EF7C85532
100
AcDbEntity
  8
JISSEN
100
AcDbCircle
 10
75.83427590070653
 20
128.4180549430216
 30
0.0
 40
1.999999999999992
100
AcDbArc
 50
121.9158479495951
 51
180.0
  0
LWPOLYLINE
  5
EF7C8ABA5
330
EF7C85532
100
AcDbEntity
  8
JISSEN
100
AcDbPolyline
 90
        5
 70
     0
 43
0.0
 10
90.00008343801608
 20
148.8285938384331
 10
81.00008343801608
 20
148.8285938384331
 10
79.71517330815959
 20
146.8285938384331
 10
79.48401118675651
 20
133.5853247727633
 42
-0.254358548650447
 10
79.01283663073991
 20
132.7539516895079
  0
LINE
  5
EF7C8ABA6
330
EF7C85532
100
AcDbEntity
  8
SAISEN
100
AcDbLine
 10
81.00008343801608
 20
148.8285938384331
 30
0.0
 11
80.73825746409278
 21
133.8285938384331
 31
0.0
  0
ARC
  5
EF7C8ABA7
330
EF7C85532
100
AcDbEntity
  8
JISSEN
100
AcDbCircle
 10
90.00008343801608
 20
110.0246056286834
 30
0.0
 40
20.09110029372368
100
AcDbArc
 50
90.0
 51
113.7228331276648
  0
LINE
  5
EF7C8ABA8
330
EF7C85532
100
AcDbEntity
  8
JISSEN
100
AcDbLine
 10
79.48825746409278
 20
133.8285938384331
 30
0.0
 11
90.00008343801608
 21
133.8285938384331
 31
0.0
  0
LINE
  5
EF7C8ABAA
330
EF7C85532
100
AcDbEntity
  8
JISSEN
100
AcDbLine
 10
79.71517330815959
 20
146.8285938384331
 30
0.0
 11
90.00008343801608
 21
146.8285938384331
 31
0.0
  0
ARC
  5
EF7C8ABAB
330
EF7C85532
100
AcDbEntity
  8
JISSEN
100
AcDbCircle
 10
88.35008343801604
 20
148.978593838433
 30
0.0
 40
0.35
100
AcDbArc
 50
90.0
 51
180.0
  0
LINE
  5
EF7C8ABAC
330
EF7C85532
100
AcDbEntity
  8
JISSEN
100
AcDbLine
 10
88.00008343801607
 20
148.978593838433
 30
0.0
 11
88.00008343801607
 21
148.828593838433
 31
0.0
  0
LINE
  5
EF7C8ABAD
330
EF7C85532
100
AcDbEntity
  8
JISSEN
100
AcDbLine
 10
90.00008343801608
 20
149.328593838433
 30
0.0
 11
88.35008343801604
 21
149.328593838433
 31
0.0
  0
LINE
  5
EF7C8ABBA
330
EF7C85532
100
AcDbEntity
  8
JISSEN
100
AcDbLine
 10
96.75008343801607
 20
99.03051778590922
 30
0.0
 11
108.9534684896399
 21
100.098175634568
 31
0.0
  0
LINE
  5
EF7C8ABBB
330
EF7C85532
100
AcDbEntity
  8
JISSEN
100
AcDbLine
 10
96.66292769526842
 20
100.0267124840009
 30
0.0
 11
108.8663127468922
 21
101.0943703326597
 31
0.0
  0
LINE
  5
EF7C8ABBD
330
EF7C85532
100
AcDbEntity
  8
JISSEN
100
AcDbLine
 10
91.50008343801607
 20
102.3805177859091
 30
0.0
 11
91.50008343801607
 21
99.03051778590922
 31
0.0
  0
LINE
  5
EF7C8ABBE
330
EF7C85532
100
AcDbEntity
  8
JISSEN
100
AcDbLine
 10
98.94794363734867
 20
100.7247155561372
 30
0.0
 11
98.99152150872248
 21
100.2266182070914
 31
0.0
  0
LINE
  5
EF7C8ABBF
330
EF7C85532
100
AcDbEntity
  8
JISSEN
100
AcDbLine
 10
94.00008343801607
 20
100.5305177859092
 30
0.0
 11
94.00008343801607
 21
100.0305177859092
 31
0.0
  0
LINE
  5
EF7C8ABC0
330
EF7C85532
100
AcDbEntity
  8
JISSEN
100
AcDbLine
 10
94.00008343801607
 20
98.03051778590923
 30
0.0
 11
94.00008343801607
 21
79.74248972395982
 31
0.0
  0
LINE
  5
EF7C8ABC1
330
EF7C85532
100
AcDbEntity
  8
SAISEN
100
AcDbLine
 10
91.70008343801606
 20
78.83047569705535
 30
0.0
 11
91.70008343801606
 21
84.83047569705535
 31
0.0
  0
LINE
  5
EF7C8ABC2
330
EF7C85532
100
AcDbEntity
  8
JISSEN
100
AcDbLine
 10
92.50008343801608
 20
78.83047569705535
 30
0.0
 11
92.50008343801608
 21
84.03047569705536
 31
0.0
  0
LINE
  5
EF7C8ABC3
330
EF7C85532
100
AcDbEntity
  8
SAISEN
100
AcDbLine
 10
92.50008343801608
 20
87.53051778590922
 30
0.0
 11
92.50008343801608
 21
79.53051778590922
 31
0.0
  0
LINE
  5
EF7C8ABC4
330
EF7C85532
100
AcDbEntity
  8
JISSEN
100
AcDbLine
 10
91.70008343801606
 20
88.53051778590922
 30
0.0
 11
91.70008343801606
 21
79.53051778590922
 31
0.0
  0
LINE
  5
EF7C8ABC5
330
EF7C85532
100
AcDbEntity
  8
JISSEN
100
AcDbLine
 10
92.50008343801658
 20
79.60272707935009
 30
0.0
 11
92.50008343801658
 21
78.90110169050508
 31
0.0
  0
LINE
  5
EF7C8ABC6
330
EF7C85532
100
AcDbEntity
  8
JISSEN
100
AcDbLine
 10
91.70008343801606
 20
84.83047569705535
 30
0.0
 11
92.50008343801608
 21
84.03047569705536
 31
0.0
  0
LINE
  5
EF7C8ABC7
330
EF7C85532
100
AcDbEntity
  8
SAISEN
100
AcDbLine
 10
91.70008343801606
 20
88.53051778590922
 30
0.0
 11
92.50008343801608
 21
87.53051778590922
 31
0.0
  0
LWPOLYLINE
  5
EF7C8ABC9
330
EF7C85532
100
AcDbEntity
  8
JISSEN
100
AcDbPolyline
 90
        2
 70
     0
 43
0.0
 10
96.75008343801607
 20
100.0305177859092
 10
94.00008343801607
 20
100.0305177859092
  0
LINE
  5
EF7C8ABCA
330
EF7C85532
100
AcDbEntity
  8
JISSEN
100
AcDbLine
 10
94.00008343801607
 20
100.0305177859092
 30
0.0
 11
94.00008343801607
 21
99.03051778590922
 31
0.0
  0
LINE
  5
EF7C8ABCB
330
EF7C85532
100
AcDbEntity
  8
JISSEN
100
AcDbLine
 10
94.00008343801607
 20
100.1305177859092
 30
0.0
 11
94.00008343801607
 21
99.03051778590922
 31
0.0
  0
LINE
  5
EF7C8ABCC
330
EF7C85532
100
AcDbEntity
  8
JISSEN
100
AcDbLine
 10
95.00008343801608
 20
99.03051778590922
 30
0.0
 11
95.00008343801608
 21
98.03051778590923
 31
0.0
  0
LINE
  5
EF7C8ABCD
330
EF7C85532
100
AcDbEntity
  8
JISSEN
100
AcDbLine
 10
94.00008343801607
 20
98.03051778590923
 30
0.0
 11
95.00008343801608
 21
98.03051778590923
 31
0.0
  0
LINE
  5
EF7C8ABCE
330
EF7C85532
100
AcDbEntity
  8
JISSEN
100
AcDbLine
 10
97.41007371883723
 20
100.0920792910617
 30
0.0
 11
97.49722946158488
 21
99.09588459296998
 31
0.0
  0
LWPOLYLINE
  5
EF7C8ABCF
330
EF7C85532
100
AcDbEntity
  8
JISSEN
100
AcDbPolyline
 90
        2
 70
     0
 43
0.0
 10
96.70650556664226
 20
100.528615134955
 10
98.94794363734867
 20
100.7247155561372
  0
LINE
  5
EF7C8ABD2
330
EF7C85532
100
AcDbEntity
  8
JISSEN
100
AcDbLine
 10
92.00008343801613
 20
105.6285938384331
 30
0.0
 11
92.00008343801608
 21
103.8305177859092
 31
0.0
  0
LINE
  5
EF7C8ABD5
330
EF7C85532
100
AcDbEntity
  8
SAISEN
100
AcDbLine
 10
91.00008343801608
 20
102.8805177859092
 30
0.0
 11
91.50008343801607
 21
102.3805177859091
 31
0.0
  0
LINE
  5
EF7C8ABD6
330
EF7C85532
100
AcDbEntity
  8
SAISEN
100
AcDbLine
 10
91.50008343801607
 20
105.6285938384331
 30
0.0
 11
91.50008343801607
 21
102.3805177859091
 31
0.0
  0
LWPOLYLINE
  5
EF7C8ABD7
330
EF7C85532
100
AcDbEntity
  8
JISSEN
100
AcDbPolyline
 90
        2
 70
     0
 43
0.0
 10
94.00008343801607
 20
100.5305177859092
 10
96.75008343801607
 20
100.5305177859092
  0
LINE
  5
EF7C8ABDE
330
EF7C85532
100
AcDbEntity
  8
JISSEN
100
AcDbLine
 10
108.8663127468922
 20
101.0943703326597
 30
0.0
 11
108.9534684896399
 21
100.098175634568
 31
0.0
  0
LINE
  5
EF7C8AC14
330
EF7C85532
100
AcDbEntity
  8
SAISEN
100
AcDbLine
 10
91.00008343801608
 20
105.6285938384331
 30
0.0
 11
91.00008343801608
 21
102.3805177859091
 31
0.0
  0
LINE
  5
EF7C8AC15
330
EF7C85532
100
AcDbEntity
  8
JISSEN
100
AcDbLine
 10
95.73075256509918
 20
105.6285938384331
 30
0.0
 11
96.90418267189153
 21
100.545909640703
 31
0.0
  0
LINE
  5
EF7C8AC16
330
EF7C85532
100
AcDbEntity
  8
JISSEN
100
AcDbLine
 10
83.33990743434787
 20
100.0267124840009
 30
0.0
 11
71.13652238272402
 21
101.0943703326597
 31
0.0
  0
LINE
  5
EF7C8AC17
330
EF7C85532
100
AcDbEntity
  8
JISSEN
100
AcDbLine
 10
83.25275169160022
 20
99.03051778590922
 30
0.0
 11
71.04936663997637
 21
100.098175634568
 31
0.0
  0
LINE
  5
EF7C8AC18
330
EF7C85532
100
AcDbEntity
  8
JISSEN
100
AcDbLine
 10
90.00275169160023
 20
99.03051778590922
 30
0.0
 11
85.00275169160023
 21
99.03051778590922
 31
0.0
  0
LINE
  5
EF7C8AC19
330
EF7C85532
100
AcDbEntity
  8
JISSEN
100
AcDbLine
 10
90.00275169160023
 20
99.03051778590922
 30
0.0
 11
86.00275169160022
 21
99.03051778590922
 31
0.0
  0
LINE
  5
EF7C8AC1A
330
EF7C85532
100
AcDbEntity
  8
JISSEN
100
AcDbLine
 10
90.00275169160023
 20
99.03051778590922
 30
0.0
 11
83.25275169160022
 21
99.03051778590922
 31
0.0
  0
LINE
  5
EF7C8AC1B
330
EF7C85532
100
AcDbEntity
  8
JISSEN
100
AcDbLine
 10
90.00275169160023
 20
89.53051778590923
 30
0.0
 11
88.30275169160023
 21
88.53051778590922
 31
0.0
  0
LWPOLYLINE
  5
EF7C8AC1C
330
EF7C85532
100
AcDbEntity
  8
JISSEN
100
AcDbPolyline
 90
        3
 70
     0
 43
0.0
 10
88.00275169160022
 20
105.6285938384331
 10
88.00275169160022
 20
102.3805177859091
 10
90.00275169160023
 20
102.3805177859091
  0
LINE
  5
EF7C8AC1D
330
EF7C85532
100
AcDbEntity
  8
SAISEN
100
AcDbLine
 10
88.50275169160022
 20
105.6285938384331
 30
0.0
 11
88.50275169160022
 21
102.3805177859091
 31
0.0
  0
LINE
  5
EF7C8AC1E
330
EF7C85532
100
AcDbEntity
  8
SAISEN
100
AcDbLine
 10
89.00275169160023
 20
105.6285938384331
 30
0.0
 11
89.00275169160023
 21
102.3805177859091
 31
0.0
  0
LINE
  5
EF7C8AC1F
330
EF7C85532
100
AcDbEntity
  8
SAISEN
100
AcDbLine
 10
89.00275169160023
 20
102.8805177859092
 30
0.0
 11
88.50275169160022
 21
102.3805177859091
 31
0.0
  0
LINE
  5
EF7C8AC20
330
EF7C85532
100
AcDbEntity
  8
JISSEN
100
AcDbLine
 10
88.50275169160022
 20
102.3805177859091
 30
0.0
 11
88.50275169160022
 21
99.03051778590922
 31
0.0
  0
LINE
  5
EF7C8AC21
330
EF7C85532
100
AcDbEntity
  8
JISSEN
100
AcDbLine
 10
88.00275169160016
 20
105.6285938384331
 30
0.0
 11
88.00275169160022
 21
103.8305177859092
 31
0.0
  0
LINE
  5
EF7C8AC22
330
EF7C85532
100
AcDbEntity
  8
JISSEN
100
AcDbLine
 10
86.00275169160022
 20
98.03051778590923
 30
0.0
 11
86.00275169160022
 21
79.74248972395982
 31
0.0
  0
LINE
  5
EF7C8AC23
330
EF7C85532
100
AcDbEntity
  8
JISSEN
100
AcDbLine
 10
84.27208256451711
 20
105.6285938384331
 30
0.0
 11
83.09865245772476
 21
100.545909640703
 31
0.0
  0
LWPOLYLINE
  5
EF7C8AC24
330
EF7C85532
100
AcDbEntity
  8
JISSEN
100
AcDbPolyline
 90
        2
 70
     0
 43
0.0
 10
83.29632956297405
 20
100.528615134955
 10
81.05489149226764
 20
100.7247155561372
  0
LINE
  5
EF7C8AC25
330
EF7C85532
100
AcDbEntity
  8
JISSEN
100
AcDbLine
 10
82.59276141077908
 20
100.0920792910617
 30
0.0
 11
82.50560566803143
 21
99.09588459296998
 31
0.0
  0
LWPOLYLINE
  5
EF7C8AC26
330
EF7C85532
100
AcDbEntity
  8
JISSEN
100
AcDbPolyline
 90
        2
 70
     0
 43
0.0
 10
86.00275169160022
 20
100.5305177859092
 10
83.25275169160022
 20
100.5305177859092
  0
LWPOLYLINE
  5
EF7C8AC27
330
EF7C85532
100
AcDbEntity
  8
JISSEN
100
AcDbPolyline
 90
        2
 70
     0
 43
0.0
 10
83.25275169160022
 20
100.0305177859092
 10
86.00275169160022
 20
100.0305177859092
  0
LINE
  5
EF7C8AC28
330
EF7C85532
100
AcDbEntity
  8
JISSEN
100
AcDbLine
 10
86.00275169160022
 20
98.03051778590923
 30
0.0
 11
85.00275169160023
 21
98.03051778590923
 31
0.0
  0
LINE
  5
EF7C8AC29
330
EF7C85532
100
AcDbEntity
  8
JISSEN
100
AcDbLine
 10
85.00275169160023
 20
99.03051778590922
 30
0.0
 11
85.00275169160023
 21
98.03051778590923
 31
0.0
  0
LINE
  5
EF7C8AC2A
330
EF7C85532
100
AcDbEntity
  8
JISSEN
100
AcDbLine
 10
86.00275169160022
 20
100.1305177859092
 30
0.0
 11
86.00275169160022
 21
99.03051778590922
 31
0.0
  0
LINE
  5
EF7C8AC2B
330
EF7C85532
100
AcDbEntity
  8
JISSEN
100
AcDbLine
 10
86.00275169160022
 20
100.0305177859092
 30
0.0
 11
86.00275169160022
 21
99.03051778590922
 31
0.0
  0
LINE
  5
EF7C8AC2C
330
EF7C85532
100
AcDbEntity
  8
JISSEN
100
AcDbLine
 10
86.00275169160022
 20
100.5305177859092
 30
0.0
 11
86.00275169160022
 21
100.0305177859092
 31
0.0
  0
LINE
  5
EF7C8AC2D
330
EF7C85532
100
AcDbEntity
  8
JISSEN
100
AcDbLine
 10
81.05489149226764
 20
100.7247155561372
 30
0.0
 11
81.01131362089381
 21
100.2266182070914
 31
0.0
  0
LINE
  5
EF7C8AC2E
330
EF7C85532
100
AcDbEntity
  8
JISSEN
100
AcDbLine
 10
71.13652238272402
 20
101.0943703326597
 30
0.0
 11
71.04936663997637
 21
100.098175634568
 31
0.0
  0
LINE
  5
EF7C8AC2F
330
EF7C85532
100
AcDbEntity
  8
JISSEN
100
AcDbLine
 10
88.30275169160023
 20
88.53051778590922
 30
0.0
 11
88.30275169160023
 21
79.53051778590922
 31
0.0
  0
LINE
  5
EF7C8AC30
330
EF7C85532
100
AcDbEntity
  8
SAISEN
100
AcDbLine
 10
87.50275169160023
 20
87.53051778590922
 30
0.0
 11
87.50275169160023
 21
79.53051778590922
 31
0.0
  0
LINE
  5
EF7C8AC31
330
EF7C85532
100
AcDbEntity
  8
JISSEN
100
AcDbLine
 10
87.50275169160023
 20
78.83047569705535
 30
0.0
 11
87.50275169160023
 21
84.03047569705536
 31
0.0
  0
LINE
  5
EF7C8AC32
330
EF7C85532
100
AcDbEntity
  8
SAISEN
100
AcDbLine
 10
88.30275169160023
 20
78.83047569705535
 30
0.0
 11
88.30275169160023
 21
84.83047569705535
 31
0.0
  0
LINE
  5
EF7C8AC33
330
EF7C85532
100
AcDbEntity
  8
JISSEN
100
AcDbLine
 10
90.00275169160023
 20
87.53051778590922
 30
0.0
 11
87.50275169160023
 21
87.53051778590922
 31
0.0
  0
LINE
  5
EF7C8AC34
330
EF7C85532
100
AcDbEntity
  8
JISSEN
100
AcDbLine
 10
90.00275169160023
 20
88.53051778590922
 30
0.0
 11
88.30275169160023
 21
88.53051778590922
 31
0.0
  0
LINE
  5
EF7C8AC35
330
EF7C85532
100
AcDbEntity
  8
JISSEN
100
AcDbLine
 10
90.00275169160023
 20
84.83047569705535
 30
0.0
 11
88.30275169160023
 21
84.83047569705535
 31
0.0
  0
LINE
  5
EF7C8AC36
330
EF7C85532
100
AcDbEntity
  8
JISSEN
100
AcDbLine
 10
90.00275169160023
 20
84.03047569705536
 30
0.0
 11
87.50275169160028
 21
84.03047569705536
 31
0.0
  0
LINE
  5
EF7C8AC37
330
EF7C85532
100
AcDbEntity
  8
JISSEN
100
AcDbLine
 10
88.30275169160023
 20
84.83047569705535
 30
0.0
 11
87.50275169160023
 21
84.03047569705536
 31
0.0
  0
LINE
  5
EF7C8AC38
330
EF7C85532
100
AcDbEntity
  8
SAISEN
100
AcDbLine
 10
88.30275169160023
 20
88.53051778590922
 30
0.0
 11
87.50275169160023
 21
87.53051778590922
 31
0.0
  0
LWPOLYLINE
  5
EF7C8AC39
330
EF7C85532
100
AcDbEntity
  8
JISSEN
100
AcDbPolyline
 90
        9
 70
     0
 43
0.0
 10
90.00008343801608
 20
117.1718733639338
 42
-0.0854968845748597
 10
91.36298608091648
 20
116.9371094461757
 42
-0.0921264087088368
 10
92.47495717216901
 20
116.2931937074935
 42
-0.1033690028891343
 10
93.24267709404074
 20
115.2961238841934
 42
-0.1130168661468817
 10
93.50008343801608
 20
114.1718733639338
 42
-0.1130168661468847
 10
93.24267709404074
 20
113.0476228436742
 42
-0.1033690028891363
 10
92.47495717216901
 20
112.0505530203742
 42
-0.0921264087088391
 10
91.36298608091648
 20
111.406637281692
 42
-0.0854968845748639
 10
90.00008343801608
 20
111.1718733639338
 42
-0.0854968845748575
  0
LWPOLYLINE
  5
EF7C8AC3A
330
EF7C85532
100
AcDbEntity
  8
JISSEN
100
AcDbPolyline
 90
        9
 70
     0
 43
0.0
 10
104.511892142542
 20
113.3487732658835
 42
0.0516314136925684
 10
104.1384193771878
 20
114.1955290186331
 42
0.0796269662402892
 10
103.2470247782806
 20
115.3035209842518
 42
0.0885781599621572
 10
102.1607537294124
 20
115.9810757985664
 42
0.1050993166401404
 10
100.9376308168347
 20
116.1930112642172
 42
0.1207592167151079
 10
99.89516760025413
 20
115.8952613738335
 42
0.1207592167151063
 10
99.10853161220183
 20
115.1492128650567
 42
0.1050993166401366
 10
98.66881061744956
 20
113.9883546705958
 42
0.0207862962843957
 10
98.63525646189044
 20
113.6875602777244
 42
0.0796269662402926
  0
LINE
  5
EF7C8AC3B
330
EF7C85532
100
AcDbEntity
  8
JISSEN
100
AcDbLine
 10
120.6787068445896
 20
110.3285938384331
 30
0.0
 11
106.1658909753256
 21
121.2647850151131
 31
0.0
  0
ARC
  5
EF7C8AC3C
330
EF7C85532
100
AcDbEntity
  8
JISSEN
100
AcDbCircle
 10
124.8912727327817
 20
131.0150996782864
 30
0.0
 40
19.96276143261397
100
AcDbArc
 50
215.6662660200626
 51
250.3337339799336
  0
LWPOLYLINE
  5
EF7C8AC3D
330
EF7C85532
100
AcDbEntity
  8
JISSEN
100
AcDbPolyline
 90
       16
 70
     1
 43
0.0
 10
103.2519810041782
 20
111.1410721697746
 42
0.1207592167151047
 10
104.0386169922305
 20
111.8871206785514
 42
0.1050993166401404
 10
104.4783379869829
 20
113.0479788730123
 42
0.0885781599621523
 10
104.4475685717756
 20
114.3278689312197
 42
0.0796269662402847
 10
103.9470825352177
 20
115.6589377701785
 42
0.0796269662402892
 10
103.0556879363105
 20
116.7669297357972
 42
0.0885781599621572
 10
101.9694168874423
 20
117.4444845501118
 42
0.1050993166401404
 10
100.7462939748645
 20
117.6564200157627
 42
0.1207592167151079
 10
99.70383075828401
 20
117.358670125379
 42
0.1207592167151063
 10
98.91719477023171
 20
116.6126216166022
 42
0.1050993166401366
 10
98.47747377547944
 20
115.4517634221412
 42
0.0885781599621569
 10
98.50824319068667
 20
114.1718733639339
 42
0.0796269662402926
 10
99.00872922724458
 20
112.8408045249751
 42
0.0796269662402909
 10
99.90012382615176
 20
111.7328125593563
 42
0.0885781599621619
 10
100.98639487502
 20
111.0552577450417
 42
0.1050993166401397
 10
102.2095177875976
 20
110.8433222793909
 42
0.1207592167151047
  0
LINE
  5
EF7C8AC3E
330
EF7C85532
100
AcDbEntity
  8
JISSEN
100
AcDbLine
 10
124.2071902192026
 20
110.3285938384331
 30
0.0
 11
90.00008343801608
 21
110.3285938384331
 31
0.0
  0
LINE
  5
EF7C8AC3F
330
EF7C85532
100
AcDbEntity
  8
JISSEN
100
AcDbLine
 10
125.600083438016
 20
105.6285938384331
 30
0.0
 11
90.00008343801608
 21
105.6285938384331
 31
0.0
  0
ARC
  5
EF7C8AC40
330
EF7C85532
100
AcDbEntity
  8
JISSEN
100
AcDbCircle
 10
90.34712149130404
 20
110.8285938384331
 30
0.0
 40
32.0
100
AcDbArc
 50
269.3786185759572
 51
350.6479649424371
  0
LINE
  5
EF7C8AC41
330
EF7C85532
100
AcDbEntity
  8
JISSEN
100
AcDbLine
 10
125.600083438016
 20
108.9357006196197
 30
0.0
 11
124.2071902192027
 21
110.3285938384331
 31
0.0
  0
LINE
  5
EF7C8AC42
330
EF7C85532
100
AcDbEntity
  8
JISSEN
100
AcDbLine
 10
125.600083438016
 20
108.9357006196198
 30
0.0
 11
125.600083438016
 21
105.6285938384331
 31
0.0
  0
LINE
  5
EF7C8AC43
330
EF7C85532
100
AcDbEntity
  8
JISSEN
100
AcDbLine
 10
100.2849935678725
 20
146.8285938384331
 30
0.0
 11
90.00008343801608
 21
146.8285938384331
 31
0.0
  0
LINE
  5
EF7C8AC44
330
EF7C85532
100
AcDbEntity
  8
JISSEN
100
AcDbLine
 10
100.5119094119393
 20
133.8285938384331
 30
0.0
 11
90.00008343801608
 21
133.8285938384331
 31
0.0
  0
LWPOLYLINE
  5
EF7C8AC45
330
EF7C85532
100
AcDbEntity
  8
JISSEN
100
AcDbPolyline
 90
        5
 70
     0
 43
0.0
 10
90.00008343801608
 20
148.8285938384331
 10
99.00008343801609
 20
148.8285938384331
 10
100.2849935678725
 20
146.8285938384331
 10
100.5161556892756
 20
133.5853247727633
 42
0.254358548650447
 10
100.9873302452922
 20
132.7539516895079
  0
LINE
  5
EF7C8AC46
330
EF7C85532
100
AcDbEntity
  8
JISSEN
100
AcDbLine
 10
105.2232372536051
 20
130.1157059224071
 30
0.0
 11
99.26190941193937
 21
133.8285938384331
 31
0.0
  0
ARC
  5
EF7C8AC47
330
EF7C85532
100
AcDbEntity
  8
JISSEN
100
AcDbCircle
 10
102.1244390909982
 20
124.2986500415796
 30
0.0
 40
5.770860427644891
100
AcDbArc
 50
45.54727624382503
 51
134.4527237561749
  0
LINE
  5
EF7C8AC48
330
EF7C85532
100
AcDbEntity
  8
JISSEN
100
AcDbLine
 10
106.1658909753256
 20
121.2647850151131
 30
0.0
 11
90.00008343801608
 21
121.2647850151131
 31
0.0
  0
LINE
  5
EF7C8AC49
330
EF7C85532
100
AcDbEntity
  8
JISSEN
100
AcDbLine
 10
106.1658909753256
 20
121.2647850151131
 30
0.0
 11
106.1658909753256
 21
128.4180549430216
 31
0.0
  0
ARC
  5
EF7C8AC4A
330
EF7C85532
100
AcDbEntity
  8
JISSEN
100
AcDbCircle
 10
104.1658909753256
 20
128.4180549430216
 30
0.0
 40
1.999999999999992
100
AcDbArc
 50
0.000000000000007
 51
58.08415205040484
  0
LINE
  5
EF7C8AC4B
330
EF7C85532
100
AcDbEntity
  8
SAISEN
100
AcDbLine
 10
99.00008343801609
 20
148.8285938384331
 30
0.0
 11
99.26190941193937
 21
133.8285938384331
 31
0.0
  0
ARC
  5
EF7C8AC4C
330
EF7C85532
100
AcDbEntity
  8
JISSEN
100
AcDbCircle
 10
90.00008343801608
 20
110.0246056286834
 30
0.0
 40
20.09110029372368
100
AcDbArc
 50
66.27716687233517
 51
90.0
  0
LINE
  5
EF7C8AC4D
330
EF7C85532
100
AcDbEntity
  8
JISSEN
100
AcDbLine
 10
98.08298720667089
 20
128.4180549430216
 30
0.0
 11
98.08298720667085
 21
121.2647850151131
 31
0.0
  0
LINE
  5
EF7C8AC4E
330
EF7C85532
100
AcDbEntity
  8
JISSEN
100
AcDbLine
 10
90.00008343801608
 20
149.328593838433
 30
0.0
 11
91.65008343801611
 21
149.328593838433
 31
0.0
  0
LINE
  5
EF7C8AC4F
330
EF7C85532
100
AcDbEntity
  8
JISSEN
100
AcDbLine
 10
92.00008343801608
 20
148.978593838433
 30
0.0
 11
92.00008343801608
 21
148.828593838433
 31
0.0
  0
ARC
  5
EF7C8AC50
330
EF7C85532
100
AcDbEntity
  8
JISSEN
100
AcDbCircle
 10
91.65008343801611
 20
148.978593838433
 30
0.0
 40
0.35
100
AcDbArc
 50
0.000000000000007
 51
90.0
  0
HATCH
  5
EF7C8AC5B
330
EF7C85532
100
AcDbEntity
  8
HATCH
100
AcDbHatch
 10
0.0
 20
0.0
 30
0.0
210
0.0
220
0.0
230
1.0
  2
NET
 70
     0
 71
     0
 91
        2
 92
        7
 72
     1
 73
     1
 93
        3
 10
90.00008343801608
 20
105.6285938384331
 42
0.0
 10
58.07837198974272
 20
105.6285938384331
 42
0.3702552548434512
 10
90.00008343801608
 20
78.83047569705533
 42
0.0
 97
        0
 92
        7
 72
     1
 73
     1
 93
        3
 10
121.9217948862894
 20
105.6285938384331
 42
0.0
 10
90.0000834380161
 20
105.6285938384331
 42
0.0
 10
90.00008343801608
 20
78.83047569705531
 42
0.3702552548434513
 97
        0
 75
     0
 76
     1
 52
45.0
 41
10.0
 77
     0
 78
     2
 53
45.0
 43
-152.132797189898
 44
-27.26805197344492
 45
-0.8838834764831842
 46
0.8838834764831844
 79
     0
 53
135.0
 43
-152.132797189898
 44
-27.26805197344492
 45
-0.8838834764831844
 46
-0.8838834764831842
 79
     0
 47
0.2117145408386228
 98
        2
 10
81.29666842731358
 20
93.46750039443135
 10
104.8160978680019
 20
93.67921511055646
  0
ARC
  5
EF7C8ACD5
330
EF7C85532
100
AcDbEntity
  8
SAISEN
100
AcDbCircle
 10
90.51768096296902
 20
115.8319372066892
 30
0.0
 40
0.24996
100
AcDbArc
 50
0.0
 51
180.0
  0
LINE
  5
EF7C8ACD6
330
EF7C85532
100
AcDbEntity
  8
SAISEN
100
AcDbLine
 10
90.26772096296896
 20
115.8319372066892
 30
0.0
 11
90.26772096296893
 21
115.5091559560236
 31
0.0
  0
LINE
  5
EF7C8ACD7
330
EF7C85532
100
AcDbEntity
  8
SAISEN
100
AcDbLine
 10
90.767640962969
 20
115.8319372066892
 30
0.0
 11
90.76764096296903
 21
115.5091559560236
 31
0.0
  0
LINE
  5
EF7C8ACD8
330
EF7C85532
100
AcDbEntity
  8
SAISEN
100
AcDbLine
 10
90.767640962969
 20
115.5091559560236
 30
0.0
 11
91.58307873237728
 21
115.5091559560236
 31
0.0
  0
ARC
  5
EF7C8ACD9
330
EF7C85532
100
AcDbEntity
  8
SAISEN
100
AcDbCircle
 10
91.58307873237728
 20
115.2591959560236
 30
0.0
 40
0.24996
100
AcDbArc
 50
270.0
 51
90.0
  0
LINE
  5
EF7C8ACDA
330
EF7C85532
100
AcDbEntity
  8
SAISEN
100
AcDbLine
 10
91.58307873237728
 20
115.0092359560236
 30
0.0
 11
90.767640962969
 21
115.0092359560236
 31
0.0
  0
LINE
  5
EF7C8ACDB
330
EF7C85532
100
AcDbEntity
  8
SAISEN
100
AcDbLine
 10
90.767640962969
 20
115.0092359560236
 30
0.0
 11
90.767640962969
 21
114.4857743605328
 31
0.0
  0
LINE
  5
EF7C8ACDC
330
EF7C85532
100
AcDbEntity
  8
SAISEN
100
AcDbLine
 10
90.767640962969
 20
114.4857743605328
 30
0.0
 11
91.5435230423952
 21
114.4857743605328
 31
0.0
  0
ARC
  5
EF7C8ACDD
330
EF7C85532
100
AcDbEntity
  8
SAISEN
100
AcDbCircle
 10
91.5435230423952
 20
114.2358143605328
 30
0.0
 40
0.24996
100
AcDbArc
 50
270.0
 51
90.0
  0
LINE
  5
EF7C8ACDE
330
EF7C85532
100
AcDbEntity
  8
SAISEN
100
AcDbLine
 10
91.5435230423952
 20
113.9858543605329
 30
0.0
 11
90.767640962969
 21
113.9858543605329
 31
0.0
  0
LINE
  5
EF7C8ACDF
330
EF7C85532
100
AcDbEntity
  8
SAISEN
100
AcDbLine
 10
90.767640962969
 20
113.9858543605329
 30
0.0
 11
90.767640962969
 21
113.3041700051138
 31
0.0
  0
LINE
  5
EF7C8ACE0
330
EF7C85532
100
AcDbEntity
  8
SAISEN
100
AcDbLine
 10
90.767640962969
 20
113.3041700051138
 30
0.0
 11
91.6542789743449
 21
113.3041700051138
 31
0.0
  0
LINE
  5
EF7C8ACE1
330
EF7C85532
100
AcDbEntity
  8
SAISEN
100
AcDbLine
 10
90.26772096296898
 20
113.9858543605329
 30
0.0
 11
90.26772096296896
 21
113.3041700051138
 31
0.0
  0
LINE
  5
EF7C8ACE2
330
EF7C85532
100
AcDbEntity
  8
SAISEN
100
AcDbLine
 10
90.26772096296896
 20
115.0092359560236
 30
0.0
 11
90.26772096296896
 21
114.4857743605328
 31
0.0
  0
ARC
  5
EF7C8ACE3
330
EF7C85532
100
AcDbEntity
  8
SAISEN
100
AcDbCircle
 10
91.6542789743449
 20
113.0542100051138
 30
0.0
 40
0.24996
100
AcDbArc
 50
270.0
 51
90.0
  0
ARC
  5
EF7C8ACE4
330
EF7C85532
100
AcDbEntity
  8
SAISEN
100
AcDbCircle
 10
88.15825468307272
 20
114.1862367403262
 30
0.0
 40
0.24996
100
AcDbArc
 50
137.1623160997232
 51
312.8385226270775
  0
ARC
  5
EF7C8ACE5
330
EF7C85532
100
AcDbEntity
  8
SAISEN
100
AcDbCircle
 10
85.5123281719636
 20
116.4072406631734
 30
0.0
 40
3.204677491803463
100
AcDbArc
 50
319.8641968748239
 51
350.0531909869035
  0
ARC
  5
EF7C8ACE6
330
EF7C85532
100
AcDbEntity
  8
SAISEN
100
AcDbCircle
 10
85.5123281719636
 20
116.4072406631734
 30
0.0
 40
3.702677491803463
100
AcDbArc
 50
319.5082179684797
 51
322.384494561811
  0
ARC
  5
EF7C8ACE7
330
EF7C85532
100
AcDbEntity
  8
SAISEN
100
AcDbCircle
 10
89.48662716332759
 20
114.2358143605328
 30
0.0
 40
0.24996
100
AcDbArc
 50
90.0
 51
270.0
  0
ARC
  5
EF7C8ACE8
330
EF7C85532
100
AcDbEntity
  8
SAISEN
100
AcDbCircle
 10
89.4470714733455
 20
115.2591959560236
 30
0.0
 40
0.24996
100
AcDbArc
 50
90.0
 51
270.0
  0
ARC
  5
EF7C8ACE9
330
EF7C85532
100
AcDbEntity
  8
SAISEN
100
AcDbCircle
 10
88.91925405516879
 20
115.8317097004769
 30
0.0
 40
0.24996
100
AcDbArc
 50
344.5650853892342
 51
177.3102528734081
  0
ARC
  5
EF7C8ACEA
330
EF7C85532
100
AcDbEntity
  8
SAISEN
100
AcDbCircle
 10
85.39228580921367
 20
116.4390746215494
 30
0.0
 40
3.827701219602701
100
AcDbArc
 50
338.1588260711946
 51
349.859877280192
  0
ARC
  5
EF7C8ACEB
330
EF7C85532
100
AcDbEntity
  8
SAISEN
100
AcDbCircle
 10
88.69526971505441
 20
112.9118095211784
 30
0.0
 40
0.24996
100
AcDbArc
 50
180.0
 51
0.0
  0
ARC
  5
EF7C8ACEC
330
EF7C85532
100
AcDbEntity
  8
SAISEN
100
AcDbCircle
 10
89.37587123137781
 20
113.0542100051138
 30
0.0
 40
0.24996
100
AcDbArc
 50
90.0
 51
270.0
  0
LINE
  5
EF7C8ACED
330
EF7C85532
100
AcDbEntity
  8
SAISEN
100
AcDbLine
 10
88.94522971505441
 20
115.0150359182491
 30
0.0
 11
88.94522971505439
 21
112.8942500051138
 31
0.0
  0
LINE
  5
EF7C8ACEE
330
EF7C85532
100
AcDbEntity
  8
SAISEN
100
AcDbLine
 10
88.44530971505436
 20
114.1472760890712
 30
0.0
 11
88.44530971505436
 21
112.8942500051138
 31
0.0
  0
LINE
  5
EF7C8ACEF
330
EF7C85532
100
AcDbEntity
  8
SAISEN
100
AcDbLine
 10
89.37587123137781
 20
113.3041700051138
 30
0.0
 11
90.26772096296896
 21
113.3041700051138
 31
0.0
  0
LINE
  5
EF7C8ACF0
330
EF7C85532
100
AcDbEntity
  8
SAISEN
100
AcDbLine
 10
90.26772096296896
 20
113.9858543605329
 30
0.0
 11
89.48662716332759
 21
113.9858543605329
 31
0.0
  0
LINE
  5
EF7C8ACF1
330
EF7C85532
100
AcDbEntity
  8
SAISEN
100
AcDbLine
 10
89.48662716332759
 20
114.4857743605328
 30
0.0
 11
90.26772096296896
 21
114.4857743605328
 31
0.0
  0
LINE
  5
EF7C8ACF2
330
EF7C85532
100
AcDbEntity
  8
SAISEN
100
AcDbLine
 10
90.26772096296896
 20
115.0092359560236
 30
0.0
 11
89.4470714733455
 21
115.0092359560236
 31
0.0
  0
LINE
  5
EF7C8ACF3
330
EF7C85532
100
AcDbEntity
  8
SAISEN
100
AcDbLine
 10
89.4470714733455
 20
115.5091559560236
 30
0.0
 11
90.26772096296896
 21
115.5091559560236
 31
0.0
  0
LINE
  5
EF7C8ACF4
330
EF7C85532
100
AcDbEntity
  8
SAISEN
100
AcDbLine
 10
91.6542789743449
 20
112.8042500051138
 30
0.0
 11
89.37587123137781
 21
112.8042500051138
 31
0.0
  0
ENDSEC
  0
SECTION
  2
OBJECTS
  0
DICTIONARY
  5
EF7C85527
330
0
100
AcDbDictionary
  3
ACAD_GROUP
350
EF7C85528
  3
ACAD_LAYOUT
350
EF7C85BB7
  3
ACAD_MLINESTYLE
350
EF7C85535
  3
ACAD_PLOTSETTINGS
350
EF7C85BB8
  3
ACAD_PLOTSTYLENAME
350
EF7C85BB5
  3
ACDBHEADERROUNDTRIPXREC
350
EF7C8AD06
  3
ACDBVARIABLEDICTIONARY
350
EF7C85DB7
  0
DICTIONARY
  5
EF7C85D9A
330
EF7C85532
100
AcDbDictionary
280
     1
  3
ACAD_LAYOUTSELFREF
360
EF7C8AD28
  0
DICTIONARY
  5
EF7C85D98
330
EF7C8552F
100
AcDbDictionary
280
     1
  3
ACAD_LAYOUTSELFREF
360
EF7C8AD27
  0
DICTIONARY
  5
EF7C85528
102
{ACAD_REACTORS
330
EF7C85527
102
}
330
EF7C85527
100
AcDbDictionary
  0
DICTIONARY
  5
EF7C85BB7
102
{ACAD_REACTORS
330
EF7C85527
102
}
330
EF7C85527
100
AcDbDictionary
  0
DICTIONARY
  5
EF7C85535
102
{ACAD_REACTORS
330
EF7C85527
102
}
330
EF7C85527
100
AcDbDictionary
  3
STANDARD
350
EF7C85536
  0
DICTIONARY
  5
EF7C85BB8
102
{ACAD_REACTORS
330
EF7C85527
102
}
330
EF7C85527
100
AcDbDictionary
  0
ACDBDICTIONARYWDFLT
  5
EF7C85BB5
102
{ACAD_REACTORS
330
EF7C85527
102
}
330
EF7C85527
100
AcDbDictionary
281
     1
  3
Normal
350
EF7C85BB6
100
AcDbDictionaryWithDefault
340
EF7C85BB6
  0
DICTIONARY
  5
EF7C8AD06
102
{ACAD_REACTORS
330
EF7C85527
102
}
330
EF7C85527
100
AcDbDictionary
  3
CEPSNTYPE
350
EF7C8AD10
  3
DIMSTYLEDATA
350
EF7C8AD14
  3
FINGERPRINTGUID
350
EF7C8AD11
  3
HYPERLINKBASE
350
EF7C8AD09
  3
INSUNITS
350
EF7C8AD0F
  3
LAYOUTDICT
350
EF7C8AD0B
  3
LWETCUNION
350
EF7C8AD0E
  3
PLOTSETDICT
350
EF7C8AD0C
  3
PLOTSTYLNAMDICT
350
EF7C8AD0D
  3
PSVPSCALE
350
EF7C8AD13
  3
PUCSBASE
350
EF7C8AD17
  3
PUCSORGBACK
350
EF7C8AD1D
  3
PUCSORGBOTTOM
350
EF7C8AD19
  3
PUCSORGFRONT
350
EF7C8AD1C
  3
PUCSORGLEFT
350
EF7C8AD1A
  3
PUCSORGRIGHT
350
EF7C8AD1B
  3
PUCSORGTOP
350
EF7C8AD18
  3
PUCSORTHOREF
350
EF7C8AD15
  3
PUCSORTHOVIEW
350
EF7C8AD16
  3
STYLESHEET
350
EF7C8AD0A
  3
TSTACKALIGN
350
EF7C8AD07
  3
TSTACKSIZE
350
EF7C8AD08
  3
UCSBASE
350
EF7C8AD20
  3
UCSORGBACK
350
EF7C8AD26
  3
UCSORGBOTTOM
350
EF7C8AD22
  3
UCSORGFRONT
350
EF7C8AD25
  3
UCSORGLEFT
350
EF7C8AD23
  3
UCSORGRIGHT
350
EF7C8AD24
  3
UCSORGTOP
350
EF7C8AD21
  3
UCSORTHOREF
350
EF7C8AD1E
  3
UCSORTHOVIEW
350
EF7C8AD1F
  3
VERSIONGUID
350
EF7C8AD12
  0
DICTIONARY
  5
EF7C85DB7
102
{ACAD_REACTORS
330
EF7C85527
102
}
330
EF7C85527
100
AcDbDictionary
  3
DIMASSOC
350
EF7C8ACFE
  3
SORTENTS
350
EF7C85DB8
  0
XRECORD
  5
EF7C8AD28
102
{ACAD_REACTORS
330
EF7C85D9A
102
}
330
EF7C85D9A
100
AcDbXrecord
340
EF7C85532
  0
XRECORD
  5
EF7C8AD27
102
{ACAD_REACTORS
330
EF7C85D98
102
}
330
EF7C85D98
100
AcDbXrecord
340
EF7C8552F
  0
MLINESTYLE
  5
EF7C85536
102
{ACAD_REACTORS
330
EF7C85535
102
}
330
EF7C85535
100
AcDbMlineStyle
  2
STANDARD
 70
     0
  3

 62
   256
 51
90.0
 52
90.0
 71
     2
 49
0.5
 62
   256
  6
BYLAYER
 49
-0.5
 62
   256
  6
BYLAYER
  0
ACDBPLACEHOLDER
  5
EF7C85BB6
102
{ACAD_REACTORS
330
EF7C85BB5
102
}
330
EF7C85BB5
100
AcDbPlaceHolder
280
     0
  0
XRECORD
  5
EF7C8AD10
102
{ACAD_REACTORS
330
EF7C8AD06
102
}
330
EF7C8AD06
100
AcDbXrecord
 90
        0
  0
XRECORD
  5
EF7C8AD14
102
{ACAD_REACTORS
330
EF7C8AD06
102
}
330
EF7C8AD06
100
AcDbXrecord
1000
DSTYLE
1002
{
1070
   279
 70
     2
1070
   341
340
EF7C85537
1070
   342
340
EF7C85537
1070
   343
340
EF7C85543
1070
   344
340
EF7C85543
1002
}
  0
XRECORD
  5
EF7C8AD11
102
{ACAD_REACTORS
330
EF7C8AD06
102
}
330
EF7C8AD06
100
AcDbXrecord
  1
{09AA4C7A-3D6F-4857-A850-771461888CEC}
  0
XRECORD
  5
EF7C8AD09
102
{ACAD_REACTORS
330
EF7C8AD06
102
}
330
EF7C8AD06
100
AcDbXrecord
  1

  0
XRECORD
  5
EF7C8AD0F
102
{ACAD_REACTORS
330
EF7C8AD06
102
}
330
EF7C8AD06
100
AcDbXrecord
 90
        0
  0
XRECORD
  5
EF7C8AD0B
102
{ACAD_REACTORS
330
EF7C8AD06
102
}
330
EF7C8AD06
100
AcDbXrecord
340
EF7C85BB7
  0
XRECORD
  5
EF7C8AD0E
102
{ACAD_REACTORS
330
EF7C8AD06
102
}
330
EF7C8AD06
100
AcDbXrecord
 90
    14877
  0
XRECORD
  5
EF7C8AD0C
102
{ACAD_REACTORS
330
EF7C8AD06
102
}
330
EF7C8AD06
100
AcDbXrecord
340
EF7C85BB8
  0
XRECORD
  5
EF7C8AD0D
102
{ACAD_REACTORS
330
EF7C8AD06
102
}
330
EF7C8AD06
100
AcDbXrecord
340
EF7C85BB5
  0
XRECORD
  5
EF7C8AD13
102
{ACAD_REACTORS
330
EF7C8AD06
102
}
330
EF7C8AD06
100
AcDbXrecord
 40
0.0
  0
XRECORD
  5
EF7C8AD17
102
{ACAD_REACTORS
330
EF7C8AD06
102
}
330
EF7C8AD06
100
AcDbXrecord
340
0
  0
XRECORD
  5
EF7C8AD1D
102
{ACAD_REACTORS
330
EF7C8AD06
102
}
330
EF7C8AD06
100
AcDbXrecord
 10
0.0
 20
0.0
 30
0.0
  0
XRECORD
  5
EF7C8AD19
102
{ACAD_REACTORS
330
EF7C8AD06
102
}
330
EF7C8AD06
100
AcDbXrecord
 10
0.0
 20
0.0
 30
0.0
  0
XRECORD
  5
EF7C8AD1C
102
{ACAD_REACTORS
330
EF7C8AD06
102
}
330
EF7C8AD06
100
AcDbXrecord
 10
0.0
 20
0.0
 30
0.0
  0
XRECORD
  5
EF7C8AD1A
102
{ACAD_REACTORS
330
EF7C8AD06
102
}
330
EF7C8AD06
100
AcDbXrecord
 10
0.0
 20
0.0
 30
0.0
  0
XRECORD
  5
EF7C8AD1B
102
{ACAD_REACTORS
330
EF7C8AD06
102
}
330
EF7C8AD06
100
AcDbXrecord
 10
0.0
 20
0.0
 30
0.0
  0
XRECORD
  5
EF7C8AD18
102
{ACAD_REACTORS
330
EF7C8AD06
102
}
330
EF7C8AD06
100
AcDbXrecord
 10
0.0
 20
0.0
 30
0.0
  0
XRECORD
  5
EF7C8AD15
102
{ACAD_REACTORS
330
EF7C8AD06
102
}
330
EF7C8AD06
100
AcDbXrecord
340
0
  0
XRECORD
  5
EF7C8AD16
102
{ACAD_REACTORS
330
EF7C8AD06
102
}
330
EF7C8AD06
100
AcDbXrecord
 70
     0
  0
XRECORD
  5
EF7C8AD0A
102
{ACAD_REACTORS
330
EF7C8AD06
102
}
330
EF7C8AD06
100
AcDbXrecord
  1
aclt.ctb
  0
XRECORD
  5
EF7C8AD07
102
{ACAD_REACTORS
330
EF7C8AD06
102
}
330
EF7C8AD06
100
AcDbXrecord
 90
        1
  0
XRECORD
  5
EF7C8AD08
102
{ACAD_REACTORS
330
EF7C8AD06
102
}
330
EF7C8AD06
100
AcDbXrecord
 90
       70
  0
XRECORD
  5
EF7C8AD20
102
{ACAD_REACTORS
330
EF7C8AD06
102
}
330
EF7C8AD06
100
AcDbXrecord
340
0
  0
XRECORD
  5
EF7C8AD26
102
{ACAD_REACTORS
330
EF7C8AD06
102
}
330
EF7C8AD06
100
AcDbXrecord
 10
0.0
 20
0.0
 30
0.0
  0
XRECORD
  5
EF7C8AD22
102
{ACAD_REACTORS
330
EF7C8AD06
102
}
330
EF7C8AD06
100
AcDbXrecord
 10
0.0
 20
0.0
 30
0.0
  0
XRECORD
  5
EF7C8AD25
102
{ACAD_REACTORS
330
EF7C8AD06
102
}
330
EF7C8AD06
100
AcDbXrecord
 10
0.0
 20
0.0
 30
0.0
  0
XRECORD
  5
EF7C8AD23
102
{ACAD_REACTORS
330
EF7C8AD06
102
}
330
EF7C8AD06
100
AcDbXrecord
 10
0.0
 20
0.0
 30
0.0
  0
XRECORD
  5
EF7C8AD24
102
{ACAD_REACTORS
330
EF7C8AD06
102
}
330
EF7C8AD06
100
AcDbXrecord
 10
0.0
 20
0.0
 30
0.0
  0
XRECORD
  5
EF7C8AD21
102
{ACAD_REACTORS
330
EF7C8AD06
102
}
330
EF7C8AD06
100
AcDbXrecord
 10
0.0
 20
0.0
 30
0.0
  0
XRECORD
  5
EF7C8AD1E
102
{ACAD_REACTORS
330
EF7C8AD06
102
}
330
EF7C8AD06
100
AcDbXrecord
340
0
  0
XRECORD
  5
EF7C8AD1F
102
{ACAD_REACTORS
330
EF7C8AD06
102
}
330
EF7C8AD06
100
AcDbXrecord
 70
     0
  0
XRECORD
  5
EF7C8AD12
102
{ACAD_REACTORS
330
EF7C8AD06
102
}
330
EF7C8AD06
100
AcDbXrecord
  1
{7B7BF08A-9519-43A5-89A1-487B5F94B6AB}
  0
DICTIONARYVAR
  5
EF7C8ACFE
102
{ACAD_REACTORS
330
EF7C85DB7
102
}
330
EF7C85DB7
100
DictionaryVariables
280
     0
  1
0
  0
DICTIONARYVAR
  5
EF7C85DB8
102
{ACAD_REACTORS
330
EF7C85DB7
102
}
330
EF7C85DB7
100
DictionaryVariables
280
     0
  1
96
  0
ENDSEC
  0
EOF
