  0
SECTION
  2
HEADER
  9
$ACADVER
  1
AC1015
  9
$ACADMAINTVER
 70
    10
  9
$DWGCODEPAGE
  3
ANSI_932
  9
$INSBASE
 10
0.0
 20
0.0
 30
0.0
  9
$EXTMIN
 10
-0.0015020206657823
 20
-0.0101723962856113
 30
-0.0000000000112498
  9
$EXTMAX
 10
181.0057125382404
 20
273.0003314340576
 30
0.0000000000002956
  9
$LIMMIN
 10
0.0
 20
0.0
  9
$LIMMAX
 10
180.9999992799999
 20
272.9999999999999
  9
$ORTHOMODE
 70
     1
  9
$REGENMODE
 70
     1
  9
$FILLMODE
 70
     1
  9
$QTEXTMODE
 70
     0
  9
$MIRRTEXT
 70
     0
  9
$LTSCALE
 40
5.0
  9
$ATTMODE
 70
     1
  9
$TEXTSIZE
 40
3.0
  9
$TRACEWID
 40
0.05
  9
$TEXTSTYLE
  7
K
  9
$CLAYER
  8
JISSEN
  9
$CELTYPE
  6
BYLAYER
  9
$CECOLOR
 62
   256
  9
$CELTSCALE
 40
1.0
  9
$DISPSILH
 70
     0
  9
$DIMSCALE
 40
0.0
  9
$DIMASZ
 40
1.5
  9
$DIMEXO
 40
0.75
  9
$DIMDLI
 40
6.0
  9
$DIMRND
 40
0.0
  9
$DIMDLE
 40
0.0
  9
$DIMEXE
 40
1.0
  9
$DIMTP
 40
495.0
  9
$DIMTM
 40
0.0
  9
$DIMTXT
 40
3.0
  9
$DIMCEN
 40
0.0
  9
$DIMTSZ
 40
0.0
  9
$DIMTOL
 70
     0
  9
$DIMLIM
 70
     0
  9
$DIMTIH
 70
     0
  9
$DIMTOH
 70
     0
  9
$DIMSE1
 70
     0
  9
$DIMSE2
 70
     0
  9
$DIMTAD
 70
     3
  9
$DIMZIN
 70
     8
  9
$DIMBLK
  1
ARROWANG
  9
$DIMASO
 70
     0
  9
$DIMSHO
 70
     0
  9
$DIMPOST
  1

  9
$DIMAPOST
  1

  9
$DIMALT
 70
     0
  9
$DIMALTD
 70
     2
  9
$DIMALTF
 40
25.4
  9
$DIMLFAC
 40
1.0
  9
$DIMTOFL
 70
     1
  9
$DIMTVP
 40
0.0
  9
$DIMTIX
 70
     1
  9
$DIMSOXD
 70
     0
  9
$DIMSAH
 70
     1
  9
$DIMBLK1
  1
ARROWANG
  9
$DIMBLK2
  1
ARROWANG
  9
$DIMSTYLE
  2
IMAO
  9
$DIMCLRD
 70
   256
  9
$DIMCLRE
 70
   256
  9
$DIMCLRT
 70
   256
  9
$DIMTFAC
 40
1.0
  9
$DIMGAP
 40
1.0
  9
$DIMJUST
 70
     0
  9
$DIMSD1
 70
     0
  9
$DIMSD2
 70
     0
  9
$DIMTOLJ
 70
     1
  9
$DIMTZIN
 70
     0
  9
$DIMALTZ
 70
     0
  9
$DIMALTTZ
 70
     0
  9
$DIMUPT
 70
     0
  9
$DIMDEC
 70
     2
  9
$DIMTDEC
 70
     2
  9
$DIMALTU
 70
     2
  9
$DIMALTTD
 70
     2
  9
$DIMTXSTY
  7
K
  9
$DIMAUNIT
 70
     0
  9
$DIMADEC
 70
     0
  9
$DIMALTRND
 40
0.0
  9
$DIMAZIN
 70
     0
  9
$DIMDSEP
 70
    46
  9
$DIMATFIT
 70
     3
  9
$DIMFRAC
 70
     0
  9
$DIMLDRBLK
  1
ARROWANG
  9
$DIMLUNIT
 70
     2
  9
$DIMLWD
 70
    -2
  9
$DIMLWE
 70
    -2
  9
$DIMTMOVE
 70
     0
  9
$LUNITS
 70
     2
  9
$LUPREC
 70
     2
  9
$SKETCHINC
 40
0.1
  9
$FILLETRAD
 40
0.0
  9
$AUNITS
 70
     0
  9
$AUPREC
 70
     2
  9
$MENU
  1
STDR12J
  9
$ELEVATION
 40
0.0
  9
$PELEVATION
 40
0.0
  9
$THICKNESS
 40
0.0
  9
$LIMCHECK
 70
     0
  9
$CHAMFERA
 40
0.0
  9
$CHAMFERB
 40
0.0
  9
$CHAMFERC
 40
0.0
  9
$CHAMFERD
 40
0.0
  9
$SKPOLY
 70
     0
  9
$TDCREATE
 40
2450694.750535185
  9
$TDUCREATE
 40
2450694.375535185
  9
$TDUPDATE
 40
2454756.717136667
  9
$TDUUPDATE
 40
2454756.342136666
  9
$TDINDWG
 40
0.2014983681
  9
$TDUSRTIMER
 40
0.2014983681
  9
$USRTIMER
 70
     1
  9
$ANGBASE
 50
0.0
  9
$ANGDIR
 70
     0
  9
$PDMODE
 70
     0
  9
$PDSIZE
 40
0.0
  9
$PLINEWID
 40
0.0
  9
$SPLFRAME
 70
     0
  9
$SPLINETYPE
 70
     6
  9
$SPLINESEGS
 70
     8
  9
$HANDSEED
  5
3183415F
  9
$SURFTAB1
 70
     6
  9
$SURFTAB2
 70
     6
  9
$SURFTYPE
 70
     6
  9
$SURFU
 70
     6
  9
$SURFV
 70
     6
  9
$UCSBASE
  2

  9
$UCSNAME
  2

  9
$UCSORG
 10
0.0
 20
0.0
 30
0.0
  9
$UCSXDIR
 10
1.0
 20
0.0
 30
0.0
  9
$UCSYDIR
 10
0.0
 20
1.0
 30
0.0
  9
$UCSORTHOREF
  2

  9
$UCSORTHOVIEW
 70
     0
  9
$UCSORGTOP
 10
0.0
 20
0.0
 30
0.0
  9
$UCSORGBOTTOM
 10
0.0
 20
0.0
 30
0.0
  9
$UCSORGLEFT
 10
0.0
 20
0.0
 30
0.0
  9
$UCSORGRIGHT
 10
0.0
 20
0.0
 30
0.0
  9
$UCSORGFRONT
 10
0.0
 20
0.0
 30
0.0
  9
$UCSORGBACK
 10
0.0
 20
0.0
 30
0.0
  9
$PUCSBASE
  2

  9
$PUCSNAME
  2

  9
$PUCSORG
 10
0.0
 20
0.0
 30
0.0
  9
$PUCSXDIR
 10
1.0
 20
0.0
 30
0.0
  9
$PUCSYDIR
 10
0.0
 20
1.0
 30
0.0
  9
$PUCSORTHOREF
  2

  9
$PUCSORTHOVIEW
 70
     0
  9
$PUCSORGTOP
 10
0.0
 20
0.0
 30
0.0
  9
$PUCSORGBOTTOM
 10
0.0
 20
0.0
 30
0.0
  9
$PUCSORGLEFT
 10
0.0
 20
0.0
 30
0.0
  9
$PUCSORGRIGHT
 10
0.0
 20
0.0
 30
0.0
  9
$PUCSORGFRONT
 10
0.0
 20
0.0
 30
0.0
  9
$PUCSORGBACK
 10
0.0
 20
0.0
 30
0.0
  9
$USERI1
 70
     4
  9
$USERI2
 70
     1
  9
$USERI3
 70
     1
  9
$USERI4
 70
     1
  9
$USERI5
 70
     1
  9
$USERR1
 40
1.0
  9
$USERR2
 40
3.0
  9
$USERR3
 40
3.0
  9
$USERR4
 40
1.5
  9
$USERR5
 40
10.0
  9
$WORLDVIEW
 70
     1
  9
$SHADEDGE
 70
     3
  9
$SHADEDIF
 70
    70
  9
$TILEMODE
 70
     1
  9
$MAXACTVP
 70
    16
  9
$PINSBASE
 10
0.0
 20
0.0
 30
0.0
  9
$PLIMCHECK
 70
     0
  9
$PEXTMIN
 10
1.000000000000000E+20
 20
1.000000000000000E+20
 30
1.000000000000000E+20
  9
$PEXTMAX
 10
-1.000000000000000E+20
 20
-1.000000000000000E+20
 30
-1.000000000000000E+20
  9
$PLIMMIN
 10
0.0
 20
0.0
  9
$PLIMMAX
 10
12.0
 20
9.0
  9
$UNITMODE
 70
     0
  9
$VISRETAIN
 70
     0
  9
$PLINEGEN
 70
     0
  9
$PSLTSCALE
 70
     0
  9
$TREEDEPTH
 70
     0
  9
$CMLSTYLE
  2
STANDARD
  9
$CMLJUST
 70
     0
  9
$CMLSCALE
 40
1.0
  9
$PROXYGRAPHICS
 70
     1
  9
$MEASUREMENT
 70
     0
  9
$CELWEIGHT
370
    -1
  9
$ENDCAPS
280
     0
  9
$JOINSTYLE
280
     0
  9
$LWDISPLAY
290
     0
  9
$INSUNITS
 70
     0
  9
$HYPERLINKBASE
  1

  9
$STYLESHEET
  1
aclt.ctb
  9
$XEDIT
290
     1
  9
$CEPSNTYPE
380
     0
  9
$PSTYLEMODE
290
     1
  9
$FINGERPRINTGUID
  2
{9BB264A7-3029-4120-9356-2743A6581397}
  9
$VERSIONGUID
  2
{BEDB4788-9B99-4521-8DC8-C11C9A5F45A9}
  9
$EXTNAMES
290
     1
  9
$PSVPSCALE
 40
0.0
  9
$OLESTARTUP
290
     0
  0
ENDSEC
  0
SECTION
  2
CLASSES
  0
CLASS
  1
LWPOLYLINE
  2
AcDbPolyline
  3
AutoCAD 2000
 90
    32768
280
     0
281
     1
  0
CLASS
  1
ACDBDICTIONARYWDFLT
  2
AcDbDictionaryWithDefault
  3
AutoCAD 2000
 90
        0
280
     0
281
     0
  0
CLASS
  1
ACDBPLACEHOLDER
  2
AcDbPlaceHolder
  3
AutoCAD 2000
 90
        0
280
     0
281
     0
  0
CLASS
  1
LAYOUT
  2
AcDbLayout
  3
AutoCAD 2000
 90
        0
280
     0
281
     0
  0
CLASS
  1
LONG_TRANSACTION
  2
AcDbLongTransaction
  3
AutoCAD 2000
 90
    32768
280
     0
281
     0
  0
CLASS
  1
LWPOLYLINE
  2
AcDbPolyline
  3
AutoCAD 2000
 90
    32768
280
     0
281
     1
  0
CLASS
  1
HATCH
  2
AcDbHatch
  3
AutoCAD 2000
 90
    32768
280
     0
281
     1
  0
CLASS
  1
XRECORD
  2
AcDbXrecord
  3
AutoCAD 2000
 90
    32768
280
     0
281
     0
  0
CLASS
  1
LONG_TRANSACTION
  2
AcDbLongTransaction
  3
AutoCAD 2000
 90
    32768
280
     0
281
     0
  0
CLASS
  1
LWPOLYLINE
  2
AcDbPolyline
  3
AutoCAD 2000
 90
    32768
280
     0
281
     1
  0
CLASS
  1
HATCH
  2
AcDbHatch
  3
AutoCAD 2000
 90
    32768
280
     0
281
     1
  0
CLASS
  1
XRECORD
  2
AcDbXrecord
  3
AutoCAD 2000
 90
    32768
280
     0
281
     0
  0
CLASS
  1
LONG_TRANSACTION
  2
AcDbLongTransaction
  3
AutoCAD 2000
 90
    32768
280
     0
281
     0
  0
CLASS
  1
LWPOLYLINE
  2
AcDbPolyline
  3
AutoCAD 2000
 90
    32768
280
     0
281
     1
  0
CLASS
  1
HATCH
  2
AcDbHatch
  3
AutoCAD 2000
 90
    32768
280
     0
281
     1
  0
CLASS
  1
XRECORD
  2
AcDbXrecord
  3
AutoCAD 2000
 90
    32768
280
     0
281
     0
  0
CLASS
  1
DICTIONARYVAR
  2
AcDbDictionaryVar
  3
AutoCAD 2000
 90
        0
280
     0
281
     0
  0
CLASS
  1
LONG_TRANSACTION
  2
AcDbLongTransaction
  3
AutoCAD 2000
 90
    32768
280
     0
281
     0
  0
CLASS
  1
LWPOLYLINE
  2
AcDbPolyline
  3
AutoCAD 2000
 90
    32768
280
     0
281
     1
  0
CLASS
  1
HATCH
  2
AcDbHatch
  3
AutoCAD 2000
 90
    32768
280
     0
281
     1
  0
CLASS
  1
XRECORD
  2
AcDbXrecord
  3
AutoCAD 2000
 90
    32768
280
     0
281
     0
  0
CLASS
  1
LONG_TRANSACTION
  2
AcDbLongTransaction
  3
AutoCAD 2000
 90
    32768
280
     0
281
     0
  0
CLASS
  1
LWPOLYLINE
  2
AcDbPolyline
  3
AutoCAD 2000
 90
    32768
280
     0
281
     1
  0
CLASS
  1
HATCH
  2
AcDbHatch
  3
AutoCAD 2000
 90
    32768
280
     0
281
     1
  0
CLASS
  1
XRECORD
  2
AcDbXrecord
  3
AutoCAD 2000
 90
    32768
280
     0
281
     0
  0
ENDSEC
  0
SECTION
  2
TABLES
  0
TABLE
  2
VPORT
  5
3183249F
330
0
100
AcDbSymbolTable
 70
    11
  0
VPORT
  5
318324C3
330
3183249F
100
AcDbSymbolTableRecord
100
AcDbViewportTableRecord
  2
2
 70
     0
 10
0.5
 20
0.0
 11
1.0
 21
1.0
 12
0.9240312421264802
 22
1.052650975462766
 13
0.0
 23
0.0
 14
1.0
 24
1.0
 15
10.0
 25
10.0
 16
0.0
 26
0.0
 36
1.0
 17
0.0
 27
0.0
 37
0.0
 40
2.105301950925533
 41
0.8778135048231511
 42
50.0
 43
0.0
 44
0.0
 50
0.0
 51
0.0
 71
     0
 72
   500
 73
     1
 74
     1
 75
     0
 76
     0
 77
     0
 78
     0
281
     0
 65
     1
110
0.0
120
0.0
130
0.0
111
1.0
121
0.0
131
0.0
112
0.0
122
1.0
132
0.0
 79
     0
146
0.0
  0
VPORT
  5
318324C4
330
3183249F
100
AcDbSymbolTableRecord
100
AcDbViewportTableRecord
  2
2
 70
     0
 10
0.0
 20
0.0
 11
0.5
 21
1.0
 12
0.9240312421264802
 22
1.052650975462766
 13
0.0
 23
0.0
 14
1.0
 24
1.0
 15
10.0
 25
10.0
 16
0.0
 26
0.0
 36
1.0
 17
0.0
 27
0.0
 37
0.0
 40
2.105301950925533
 41
0.8778135048231511
 42
50.0
 43
0.0
 44
0.0
 50
0.0
 51
0.0
 71
     0
 72
   500
 73
     1
 74
     1
 75
     0
 76
     0
 77
     0
 78
     0
281
     0
 65
     1
110
0.0
120
0.0
130
0.0
111
1.0
121
0.0
131
0.0
112
0.0
122
1.0
132
0.0
 79
     0
146
0.0
  0
VPORT
  5
318324C5
330
3183249F
100
AcDbSymbolTableRecord
100
AcDbViewportTableRecord
  2
3
 70
     0
 10
0.0
 20
0.5
 11
1.0
 21
1.0
 12
2.832169994473273
 22
1.052650975462766
 13
0.0
 23
0.0
 14
1.0
 24
1.0
 15
10.0
 25
10.0
 16
0.0
 26
0.0
 36
1.0
 17
0.0
 27
0.0
 37
0.0
 40
2.105301950925533
 41
3.571428571428571
 42
50.0
 43
0.0
 44
0.0
 50
0.0
 51
0.0
 71
     0
 72
   500
 73
     1
 74
     1
 75
     0
 76
     0
 77
     0
 78
     0
281
     0
 65
     1
110
0.0
120
0.0
130
0.0
111
1.0
121
0.0
131
0.0
112
0.0
122
1.0
132
0.0
 79
     0
146
0.0
  0
VPORT
  5
318324C6
330
3183249F
100
AcDbSymbolTableRecord
100
AcDbViewportTableRecord
  2
3
 70
     0
 10
0.0
 20
0.0
 11
1.0
 21
0.5
 12
2.856741679241311
 22
1.052650975462766
 13
0.0
 23
0.0
 14
1.0
 24
1.0
 15
10.0
 25
10.0
 16
0.0
 26
0.0
 36
1.0
 17
0.0
 27
0.0
 37
0.0
 40
2.105301950925533
 41
3.594771241830065
 42
50.0
 43
0.0
 44
0.0
 50
0.0
 51
0.0
 71
     0
 72
   500
 73
     1
 74
     1
 75
     0
 76
     0
 77
     0
 78
     0
281
     0
 65
     1
110
0.0
120
0.0
130
0.0
111
1.0
121
0.0
131
0.0
112
0.0
122
1.0
132
0.0
 79
     0
146
0.0
  0
VPORT
  5
318324C7
330
3183249F
100
AcDbSymbolTableRecord
100
AcDbViewportTableRecord
  2
4
 70
     0
 10
0.5
 20
0.0
 11
1.0
 21
0.5
 12
2.886857516709719
 22
1.052650975462766
 13
0.0
 23
0.0
 14
1.0
 24
1.0
 15
10.0
 25
10.0
 16
0.0
 26
0.0
 36
1.0
 17
0.0
 27
0.0
 37
0.0
 40
4.27520703030907
 41
1.784313725490195
 42
50.0
 43
0.0
 44
0.0
 50
0.0
 51
0.0
 71
     0
 72
   500
 73
     1
 74
     1
 75
     0
 76
     0
 77
     0
 78
     0
281
     0
 65
     1
110
0.0
120
0.0
130
0.0
111
1.0
121
0.0
131
0.0
112
0.0
122
1.0
132
0.0
 79
     0
146
0.0
  0
VPORT
  5
318324C8
330
3183249F
100
AcDbSymbolTableRecord
100
AcDbViewportTableRecord
  2
4
 70
     0
 10
0.5
 20
0.5
 11
1.0
 21
1.0
 12
2.862090274555523
 22
1.052650975462766
 13
0.0
 23
0.0
 14
1.0
 24
1.0
 15
10.0
 25
10.0
 16
0.0
 26
0.0
 36
1.0
 17
0.0
 27
0.0
 37
0.0
 40
4.27520703030907
 41
1.772727272727272
 42
50.0
 43
0.0
 44
0.0
 50
0.0
 51
0.0
 71
     0
 72
   500
 73
     1
 74
     1
 75
     0
 76
     0
 77
     0
 78
     0
281
     0
 65
     1
110
0.0
120
0.0
130
0.0
111
1.0
121
0.0
131
0.0
112
0.0
122
1.0
132
0.0
 79
     0
146
0.0
  0
VPORT
  5
318324C9
330
3183249F
100
AcDbSymbolTableRecord
100
AcDbViewportTableRecord
  2
4
 70
     0
 10
0.0
 20
0.5
 11
0.5
 21
1.0
 12
2.862090274555523
 22
1.052650975462766
 13
0.0
 23
0.0
 14
1.0
 24
1.0
 15
10.0
 25
10.0
 16
0.0
 26
0.0
 36
1.0
 17
0.0
 27
0.0
 37
0.0
 40
4.27520703030907
 41
1.772727272727272
 42
50.0
 43
0.0
 44
0.0
 50
0.0
 51
0.0
 71
     0
 72
   500
 73
     1
 74
     1
 75
     0
 76
     0
 77
     0
 78
     0
281
     0
 65
     1
110
0.0
120
0.0
130
0.0
111
1.0
121
0.0
131
0.0
112
0.0
122
1.0
132
0.0
 79
     0
146
0.0
  0
VPORT
  5
318324CA
330
3183249F
100
AcDbSymbolTableRecord
100
AcDbViewportTableRecord
  2
4
 70
     0
 10
0.0
 20
0.0
 11
0.5
 21
0.5
 12
2.886857516709719
 22
1.052650975462766
 13
0.0
 23
0.0
 14
1.0
 24
1.0
 15
10.0
 25
10.0
 16
0.0
 26
0.0
 36
1.0
 17
0.0
 27
0.0
 37
0.0
 40
4.27520703030907
 41
1.784313725490195
 42
50.0
 43
0.0
 44
0.0
 50
0.0
 51
0.0
 71
     0
 72
   500
 73
     1
 74
     1
 75
     0
 76
     0
 77
     0
 78
     0
281
     0
 65
     1
110
0.0
120
0.0
130
0.0
111
1.0
121
0.0
131
0.0
112
0.0
122
1.0
132
0.0
 79
     0
146
0.0
  0
VPORT
  5
3183415E
330
3183249F
100
AcDbSymbolTableRecord
100
AcDbViewportTableRecord
  2
*Active
 70
     0
 10
0.0
 20
0.0
 11
1.0
 21
1.0
 12
90.50210525878734
 22
136.4950795188859
 13
0.0
 23
0.0
 14
1.0
 24
1.0
 15
10.0
 25
10.0
 16
0.0
 26
0.0
 36
1.0
 17
0.0
 27
0.0
 37
0.0
 40
275.0105807814812
 41
1.17481662591687
 42
50.0
 43
0.0
 44
0.0
 50
0.0
 51
0.0
 71
     0
 72
   500
 73
     1
 74
     0
 75
     0
 76
     0
 77
     0
 78
     0
281
     0
 65
     1
110
0.0
120
0.0
130
0.0
111
1.0
121
0.0
131
0.0
112
0.0
122
1.0
132
0.0
 79
     0
146
0.0
  0
ENDTAB
  0
TABLE
  2
LTYPE
  5
3183249C
330
0
100
AcDbSymbolTable
 70
     4
  0
LTYPE
  5
318324A9
330
3183249C
100
AcDbSymbolTableRecord
100
AcDbLinetypeTableRecord
  2
BYBLOCK
 70
     0
  3

 72
    65
 73
     0
 40
0.0
  0
LTYPE
  5
318324AA
330
3183249C
100
AcDbSymbolTableRecord
100
AcDbLinetypeTableRecord
  2
BYLAYER
 70
     0
  3

 72
    65
 73
     0
 40
0.0
  0
LTYPE
  5
318324AB
330
3183249C
100
AcDbSymbolTableRecord
100
AcDbLinetypeTableRecord
  2
CONTINUOUS
 70
     0
  3
実線
 72
    65
 73
     0
 40
0.0
  0
LTYPE
  5
318324C1
330
3183249C
100
AcDbSymbolTableRecord
100
AcDbLinetypeTableRecord
  2
PHANTOM
 70
     0
  3
_____ _ _ _____ _ _ _____ _ _ _____ _ _ ____
 72
    65
 73
     6
 40
2.5
 49
1.25
 74
     0
 49
-0.25
 74
     0
 49
0.25
 74
     0
 49
-0.25
 74
     0
 49
0.25
 74
     0
 49
-0.25
 74
     0
  0
LTYPE
  5
31832DDC
330
3183249C
100
AcDbSymbolTableRecord
100
AcDbLinetypeTableRecord
  2
CENTER
 70
     0
  3
Center ____ _ ____ _ ____ _ ____ _ ____ _ ____
 72
    65
 73
     4
 40
2.0
 49
1.25
 74
     0
 49
-0.25
 74
     0
 49
0.25
 74
     0
 49
-0.25
 74
     0
  0
LTYPE
  5
318340BF
330
3183249C
100
AcDbSymbolTableRecord
100
AcDbLinetypeTableRecord
  2
DASHED
 70
     0
  3
Dashed __ __ __ __ __ __ __ __ __ __ __ __ __ _
 72
    65
 73
     2
 40
0.75
 49
0.5
 74
     0
 49
-0.25
 74
     0
  0
ENDTAB
  0
TABLE
  2
LAYER
  5
31832499
102
{ACAD_XDICTIONARY
360
31832975
102
}
330
0
100
AcDbSymbolTable
 70
    11
  0
LAYER
  5
318324A6
330
31832499
100
AcDbSymbolTableRecord
100
AcDbLayerTableRecord
  2
0
 70
     0
 62
     7
  6
CONTINUOUS
370
    -3
390
318327B4
  0
LAYER
  5
318324D1
330
31832499
100
AcDbSymbolTableRecord
100
AcDbLayerTableRecord
  2
HATCH
 70
     0
 62
     4
  6
CONTINUOUS
370
    -3
390
318327B4
  0
LAYER
  5
318324D2
330
31832499
100
AcDbSymbolTableRecord
100
AcDbLayerTableRecord
  2
SUNPOU
 70
     0
 62
     3
  6
CONTINUOUS
370
    -3
390
318327B4
  0
LAYER
  5
318324D3
330
31832499
100
AcDbSymbolTableRecord
100
AcDbLayerTableRecord
  2
TEXT
 70
     0
 62
     3
  6
CONTINUOUS
370
    -3
390
318327B4
  0
LAYER
  5
318324D4
330
31832499
100
AcDbSymbolTableRecord
100
AcDbLayerTableRecord
  2
SAISEN
 70
     0
 62
     4
  6
CONTINUOUS
370
    -3
390
318327B4
  0
LAYER
  5
318324D5
330
31832499
100
AcDbSymbolTableRecord
100
AcDbLayerTableRecord
  2
JISSEN
 70
     0
 62
     7
  6
CONTINUOUS
370
    -3
390
318327B4
  0
LAYER
  5
318324D9
330
31832499
100
AcDbSymbolTableRecord
100
AcDbLayerTableRecord
  2
WAKU
 70
     0
 62
     5
  6
CONTINUOUS
370
    -3
390
318327B4
  0
LAYER
  5
31832783
330
31832499
100
AcDbSymbolTableRecord
100
AcDbLayerTableRecord
  2
1
 70
     0
 62
     6
  6
CONTINUOUS
370
    -3
390
318327B4
  0
LAYER
  5
31832974
330
31832499
100
AcDbSymbolTableRecord
100
AcDbLayerTableRecord
  2
Defpoints
 70
     0
 62
     7
  6
CONTINUOUS
290
     0
370
    -3
390
318327B4
  0
LAYER
  5
31832DDD
330
31832499
100
AcDbSymbolTableRecord
100
AcDbLayerTableRecord
  2
ITTEN
 70
     0
 62
     1
  6
CENTER
370
    -3
390
318327B4
  0
LAYER
  5
318340C0
330
31832499
100
AcDbSymbolTableRecord
100
AcDbLayerTableRecord
  2
TENSEN
 70
     0
 62
     2
  6
DASHED
370
    -3
390
318327B4
  0
ENDTAB
  0
TABLE
  2
STYLE
  5
3183249A
330
0
100
AcDbSymbolTable
 70
     3
  0
STYLE
  5
318324A7
330
3183249A
100
AcDbSymbolTableRecord
100
AcDbTextStyleTableRecord
  2
STANDARD
 70
     0
 40
0.0
 41
1.0
 50
0.0
 71
     0
 42
0.2
  3
ROMANS
  4
EXTFONT
  0
STYLE
  5
318324BE
330
3183249A
100
AcDbSymbolTableRecord
100
AcDbTextStyleTableRecord
  2
K
 70
     0
 40
0.0
 41
1.0
 50
0.0
 71
     0
 42
3.0
  3
ROMANS.shx
  4
bigfont.shx
  0
STYLE
  5
31832694
330
3183249A
100
AcDbSymbolTableRecord
100
AcDbTextStyleTableRecord
  2
ROMANS
 70
     0
 40
0.0
 41
0.8
 50
0.0
 71
     0
 42
55.0
  3
romans
  4

  0
ENDTAB
  0
TABLE
  2
VIEW
  5
3183249D
330
0
100
AcDbSymbolTable
 70
     0
  0
ENDTAB
  0
TABLE
  2
UCS
  5
3183249E
330
0
100
AcDbSymbolTable
 70
     0
  0
ENDTAB
  0
TABLE
  2
APPID
  5
318324A0
330
0
100
AcDbSymbolTable
 70
     1
  0
APPID
  5
318324A8
330
318324A0
100
AcDbSymbolTableRecord
100
AcDbRegAppTableRecord
  2
ACAD
 70
     0
  0
ENDTAB
  0
TABLE
  2
DIMSTYLE
  5
318324A1
330
0
100
AcDbSymbolTable
 70
     1
100
AcDbDimStyleTable
 71
     0
  0
DIMSTYLE
105
318324CD
330
318324A1
100
AcDbSymbolTableRecord
100
AcDbDimStyleTableRecord
  2
IMAO
 70
     0
 41
1.5
 42
0.75
 43
6.0
 44
1.0
 47
495.0
 73
     0
 74
     0
 77
     3
 78
     8
140
3.0
141
0.0
147
1.0
172
     1
173
     1
174
     1
176
   256
177
   256
178
   256
271
     2
272
     2
340
318324BE
341
318324B9
342
318324B9
343
318324B9
344
318324B9
  0
ENDTAB
  0
TABLE
  2
BLOCK_RECORD
  5
31832498
330
0
100
AcDbSymbolTable
 70
    17
  0
BLOCK_RECORD
  5
318324AF
102
{ACAD_XDICTIONARY
360
31832E93
102
}
330
31832498
100
AcDbSymbolTableRecord
100
AcDbBlockTableRecord
  2
*MODEL_SPACE
340
318327B7
  0
BLOCK_RECORD
  5
318324AC
102
{ACAD_XDICTIONARY
360
31832E91
102
}
330
31832498
100
AcDbSymbolTableRecord
100
AcDbBlockTableRecord
  2
*PAPER_SPACE
340
318327B8
  0
BLOCK_RECORD
  5
318324B9
330
31832498
100
AcDbSymbolTableRecord
100
AcDbBlockTableRecord
  2
ARROWANG
340
0
102
{BLKREFS
331
31832D85
331
31832D86
331
31832D8C
331
31832D8D
331
31832D94
331
31832D95
331
318340C8
331
318340C9
102
}
  0
ENDTAB
  0
ENDSEC
  0
SECTION
  2
BLOCKS
  0
BLOCK
  5
318324DE
330
318324AF
100
AcDbEntity
  8
0
100
AcDbBlockBegin
  2
*MODEL_SPACE
 70
     0
 10
0.0
 20
0.0
 30
0.0
  3
*MODEL_SPACE
  1

  0
ENDBLK
  5
318324DF
330
318324AF
100
AcDbEntity
  8
0
100
AcDbBlockEnd
  0
BLOCK
  5
318324DC
330
318324AC
100
AcDbEntity
 67
     1
  8
0
100
AcDbBlockBegin
  2
*PAPER_SPACE
 70
     0
 10
0.0
 20
0.0
 30
0.0
  3
*PAPER_SPACE
  1

  0
ENDBLK
  5
318324DD
330
318324AC
100
AcDbEntity
 67
     1
  8
0
100
AcDbBlockEnd
  0
BLOCK
  5
1D
330
318324B9
100
AcDbEntity
  8
0
100
AcDbBlockBegin
  2
ARROWANG
 70
     0
 10
0.0
 20
0.0
 30
0.0
  3
ARROWANG
  1

  0
LINE
  5
1E
330
318324B9
100
AcDbEntity
  8
SUNPOU
100
AcDbLine
 10
0.0
 20
0.0
 30
0.0
 11
-1.499999999999957
 21
0.4019237886467409
 31
0.0
  0
LINE
  5
1F
330
318324B9
100
AcDbEntity
  8
SUNPOU
100
AcDbLine
 10
0.0
 20
0.0
 30
0.0
 11
-1.500000000000028
 21
-0.4019237886467124
 31
0.0
  0
ENDBLK
  5
20
330
318324B9
100
AcDbEntity
  8
0
100
AcDbBlockEnd
  0
ENDSEC
  0
SECTION
  2
ENTITIES
  0
LWPOLYLINE
  5
3183277D
330
318324AF
100
AcDbEntity
  8
WAKU
100
AcDbPolyline
 90
        4
 70
     1
 43
0.0
 10
0.0
 20
0.0
 10
180.9999992799999
 20
0.0
 10
180.9999992799999
 20
272.9999999999999
 10
0.0
 20
272.9999999999999
  0
LINE
  5
31832A48
330
318324AF
100
AcDbEntity
  8
JISSEN
 48
5.0
100
AcDbLine
 10
67.04999964000018
 20
172.9383438268733
 30
0.0
 11
67.049999640002
 21
140.9383438268733
 31
0.0
  0
SPLINE
  5
31832A49
330
318324AF
100
AcDbEntity
  8
JISSEN
100
AcDbSpline
210
0.0
220
0.0
230
1.0
 70
     8
 71
     3
 72
    10
 73
     6
 74
     0
 42
0.0000000001
 43
0.0000000001
 40
6.591635727220378
 40
6.591635727220378
 40
6.591635727220378
 40
6.591635727220378
 40
10.68182059408823
 40
18.12569911328844
 40
23.04223793368702
 40
23.04223793368702
 40
23.04223793368702
 40
23.04223793368702
 10
79.2546357884396
 20
155.4551090953449
 30
0.0
 10
78.57850841335426
 20
154.2710595390913
 30
0.0
 10
76.65094105919547
 20
150.9424154165884
 30
0.0
 10
73.7653044378959
 20
146.2620331084104
 30
0.0
 10
72.17267319848645
 20
142.459031742234
 30
0.0
 10
71.55523696838009
 20
140.9383438268706
 30
0.0
  0
SPLINE
  5
31832A4A
330
318324AF
100
AcDbEntity
  8
JISSEN
100
AcDbSpline
210
0.0
220
0.0
230
1.0
 70
     8
 71
     3
 72
    10
 73
     6
 74
     0
 42
0.0000000001
 43
0.0000000001
 40
0.0
 40
0.0
 40
0.0
 40
0.0
 40
10.68182059408823
 40
18.12569911328844
 40
23.02136716397455
 40
23.02136716397455
 40
23.02136716397455
 40
23.02136716397455
 10
82.50000165166694
 20
160.6613576179703
 30
0.0
 10
80.62588352709406
 20
157.6358898785011
 30
0.0
 10
77.44574200257114
 20
152.5020536153334
 30
0.0
 10
73.11367579238527
 20
146.1427383784055
 30
0.0
 10
71.35168780752508
 20
142.4229595319301
 30
0.0
 10
70.66847752510193
 20
140.938343826846
 30
0.0
  0
LINE
  5
31832A4B
330
318324AF
100
AcDbEntity
  8
JISSEN
 48
5.0
100
AcDbLine
 10
55.49999963999977
 20
169.9383438268747
 30
0.0
 11
55.49999964
 21
143.9383438268747
 31
0.0
  0
LINE
  5
31832A4C
330
318324AF
100
AcDbEntity
  8
JISSEN
 48
5.0
100
AcDbLine
 10
125.4999996400004
 20
169.9383438268747
 30
0.0
 11
125.4999996400004
 21
143.9383438268747
 31
0.0
  0
LINE
  5
31832A4D
330
318324AF
100
AcDbEntity
  8
JISSEN
 48
5.0
100
AcDbLine
 10
113.9499996400003
 20
172.9383438268747
 30
0.0
 11
113.9499996400004
 21
140.9383438268747
 31
0.0
  0
LINE
  5
31832A4F
330
318324AF
100
AcDbEntity
  8
JISSEN
 48
5.0
100
AcDbLine
 10
130.49999964
 20
118.5888661003524
 30
0.0
 11
130.4999996400002
 21
182.5888661003524
 31
0.0
  0
LINE
  5
31832A50
330
318324AF
100
AcDbEntity
  8
JISSEN
 48
5.0
100
AcDbLine
 10
50.49999964000022
 20
118.5888661003524
 30
0.0
 11
50.49999964000022
 21
182.5888661003524
 31
0.0
  0
LINE
  5
31832A54
330
318324AF
100
AcDbEntity
  8
JISSEN
  6
Continuous
100
AcDbLine
 10
102.49999964
 20
152.4383438268747
 30
0.0
 11
102.49999964
 21
139.4383438268747
 31
0.0
  0
LINE
  5
31832A55
330
318324AF
100
AcDbEntity
  8
JISSEN
  6
Continuous
100
AcDbLine
 10
90.49998964000002
 20
149.6648028268747
 30
0.0
 11
95.49996964000007
 21
152.5515440268746
 31
0.0
  0
ARC
  5
31832A56
330
318324AF
100
AcDbEntity
  8
JISSEN
  6
Continuous
100
AcDbCircle
 10
90.49999963999999
 20
155.4383438268747
 30
0.0
 40
9.5
100
AcDbArc
 50
147.363079999999
 51
212.636900000001
  0
CIRCLE
  5
31832A57
330
318324AF
100
AcDbEntity
  8
JISSEN
  6
Continuous
100
AcDbCircle
 10
90.49999963999999
 20
155.4383438268747
 30
0.0
 40
6.100000399999999
  0
CIRCLE
  5
31832A58
330
318324AF
100
AcDbEntity
  8
JISSEN
  6
Continuous
100
AcDbCircle
 10
90.49999963999999
 20
155.4383438268747
 30
0.0
 40
4.8999996
  0
LINE
  5
31832A59
330
318324AF
100
AcDbEntity
  8
JISSEN
  6
Continuous
100
AcDbLine
 10
85.50002964000015
 20
152.5516100268747
 30
0.0
 11
90.50001963999994
 21
149.6648682268747
 31
0.0
  0
LINE
  5
31832A5A
330
318324AF
100
AcDbEntity
  8
JISSEN
  6
Continuous
100
AcDbLine
 10
82.49999964
 20
164.9383438268747
 30
0.0
 11
82.49999964
 21
139.4383438268747
 31
0.0
  0
ARC
  5
31832A5B
330
318324AF
100
AcDbEntity
  8
JISSEN
 48
5.0
100
AcDbCircle
 10
53.49999964000023
 20
118.5888661003524
 30
0.0
 40
3.0
100
AcDbArc
 50
180.0
 51
270.0
  0
LINE
  5
31832A5C
330
318324AF
100
AcDbEntity
  8
JISSEN
  6
Continuous
100
AcDbLine
 10
83.79999963999996
 20
134.9959338268746
 30
0.0
 11
83.79999963999996
 21
94.77363442787472
 31
0.0
  0
LINE
  5
31832A5D
330
318324AF
100
AcDbEntity
  8
JISSEN
  6
Continuous
100
AcDbLine
 10
101.19819964
 20
134.9959338268746
 30
0.0
 11
101.19819964
 21
94.77354824987477
 31
0.0
  0
ARC
  5
31832A5E
330
318324AF
100
AcDbEntity
  8
JISSEN
  6
Continuous
100
AcDbCircle
 10
95.77735140999999
 20
72.02949439187486
 30
0.0
 40
3.821099837399999
100
AcDbArc
 50
270.0
 51
355.999998000001
  0
ARC
  5
31832A5F
330
318324AF
100
AcDbEntity
  8
JISSEN
  6
Continuous
100
AcDbCircle
 10
89.22086412999993
 20
72.02949439187486
 30
0.0
 40
3.821099837399999
100
AcDbArc
 50
183.9999999999965
 51
270.0
  0
LINE
  5
31832A60
330
318324AF
100
AcDbEntity
  8
JISSEN
  6
Continuous
100
AcDbLine
 10
95.78170096000013
 20
68.20841065187469
 30
0.0
 11
89.21650645000005
 21
68.20841065187469
 31
0.0
  0
LINE
  5
31832A61
330
318324AF
100
AcDbEntity
  8
JISSEN
  6
Continuous
100
AcDbLine
 10
83.80138987000014
 20
94.75381673987484
 30
0.0
 11
85.40906485000011
 21
71.76296860187503
 31
0.0
  0
LINE
  5
31832A62
330
318324AF
100
AcDbEntity
  8
JISSEN
  6
Continuous
100
AcDbLine
 10
101.19681754
 20
94.75380454487467
 30
0.0
 11
99.58914256000003
 21
71.76296860187503
 31
0.0
  0
LINE
  5
31832A63
330
318324AF
100
AcDbEntity
  8
JISSEN
  6
Continuous
100
AcDbLine
 10
103.22562964
 20
139.3380478268746
 30
0.0
 11
81.77436964000008
 21
139.3380478268746
 31
0.0
  0
LINE
  5
31832A64
330
318324AF
100
AcDbEntity
  8
JISSEN
  6
Continuous
100
AcDbLine
 10
102.49999964
 20
139.4383438268747
 30
0.0
 11
82.49999964
 21
139.4383438268747
 31
0.0
  0
LINE
  5
31832A65
330
318324AF
100
AcDbEntity
  8
JISSEN
  6
Continuous
100
AcDbLine
 10
99.57563964000009
 20
135.1511738268746
 30
0.0
 11
85.03187964
 21
135.1511738268746
 31
0.0
  0
CIRCLE
  5
31832A67
330
318324AF
100
AcDbEntity
  8
JISSEN
 48
5.0
100
AcDbCircle
 10
57.9999996400009
 20
121.5888661003515
 30
0.0
 40
3.0
  0
LINE
  5
31832A68
330
318324AF
100
AcDbEntity
  8
JISSEN
  6
Continuous
100
AcDbLine
 10
72.64999964000009
 20
132.9383438268747
 30
0.0
 11
72.64999964000009
 21
122.9383438268747
 31
0.0
  0
LINE
  5
31832A69
330
318324AF
100
AcDbEntity
  8
JISSEN
 48
5.0
100
AcDbLine
 10
53.49999964000023
 20
115.5888661003524
 30
0.0
 11
83.79999963999996
 21
115.5888661003524
 31
0.0
  0
LINE
  5
31832A6A
330
318324AF
100
AcDbEntity
  8
JISSEN
  6
Continuous
100
AcDbLine
 10
83.79999963999996
 20
122.9383438268747
 30
0.0
 11
72.64999964000009
 21
122.9383438268747
 31
0.0
  0
ARC
  5
31832A6C
330
318324AF
100
AcDbEntity
  8
JISSEN
  6
Continuous
100
AcDbCircle
 10
70.99999964
 20
140.8134088268749
 30
0.0
 40
3.0
100
AcDbArc
 50
359.9999820000007
 51
58.39184845606147
  0
LINE
  5
31832A6D
330
318324AF
100
AcDbEntity
  8
JISSEN
  6
Continuous
100
AcDbLine
 10
82.49999964
 20
143.4383438268747
 30
0.0
 11
72.89999964000009
 21
143.4383438268747
 31
0.0
  0
ARC
  5
31832A6E
330
318324AF
100
AcDbEntity
  8
JISSEN
  6
Continuous
100
AcDbCircle
 10
72.49999964
 20
134.4350478268748
 30
0.0
 40
1.5
100
AcDbArc
 50
280.000048999999
 51
0.0002549999996097
  0
LINE
  5
31832A6F
330
318324AF
100
AcDbEntity
  8
JISSEN
  6
Continuous
100
AcDbLine
 10
83.79999963999996
 20
132.9383438268747
 30
0.0
 11
72.64999964000009
 21
132.9383438268747
 31
0.0
  0
ARC
  5
31832A70
330
318324AF
100
AcDbEntity
  8
JISSEN
 48
5.0
100
AcDbCircle
 10
58.49999963999977
 20
143.9383438268747
 30
0.0
 40
3.0
100
AcDbArc
 50
180.0
 51
270.0
  0
LINE
  5
31832A71
330
318324AF
100
AcDbEntity
  8
JISSEN
 48
5.0
100
AcDbLine
 10
71.55523696836969
 20
140.9383438268749
 30
0.0
 11
58.49999963999977
 21
140.9383438268747
 31
0.0
  0
LINE
  5
31832A72
330
318324AF
100
AcDbEntity
  8
JISSEN
  6
Continuous
100
AcDbLine
 10
72.76047964000014
 20
132.9578308268747
 30
0.0
 11
72.65000964000006
 21
132.9383518268747
 31
0.0
  0
LINE
  5
31832A73
330
318324AF
100
AcDbEntity
  8
JISSEN
  6
Continuous
100
AcDbLine
 10
73.99999964
 20
140.8134088268749
 30
0.0
 11
73.99999964
 21
134.4350478268748
 31
0.0
  0
CIRCLE
  5
31832A75
330
318324AF
100
AcDbEntity
  8
JISSEN
  6
Continuous
100
AcDbCircle
 10
86.99999963999999
 20
145.9383438268747
 30
0.0
 40
2.0
  0
LINE
  5
31832A76
330
318324AF
100
AcDbEntity
  8
JISSEN
  6
Continuous
100
AcDbLine
 10
82.54679964000008
 20
139.3380578268748
 30
0.0
 11
82.49999964
 21
139.4383668268747
 31
0.0
  0
LINE
  5
31832A77
330
318324AF
100
AcDbEntity
  8
JISSEN
  6
Continuous
100
AcDbLine
 10
83.79999963999996
 20
134.9959338268746
 30
0.0
 11
81.77436964000008
 21
139.3380688268747
 31
0.0
  0
CIRCLE
  5
31832A78
330
318324AF
100
AcDbEntity
  8
JISSEN
 48
5.0
100
AcDbCircle
 10
122.9999996400005
 20
121.5888661003521
 30
0.0
 40
3.0
  0
LINE
  5
31832A79
330
318324AF
100
AcDbEntity
  8
JISSEN
  6
Continuous
100
AcDbLine
 10
108.35000964
 20
132.9383438268747
 30
0.0
 11
108.35000964
 21
122.9383438268747
 31
0.0
  0
LINE
  5
31832A7A
330
318324AF
100
AcDbEntity
  8
JISSEN
 48
5.0
100
AcDbLine
 10
101.1981996399998
 20
115.5888661003524
 30
0.0
 11
127.49999964
 21
115.5888661003524
 31
0.0
  0
LINE
  5
31832A7C
330
318324AF
100
AcDbEntity
  8
JISSEN
  6
Continuous
100
AcDbLine
 10
108.35000964
 20
122.9383438268747
 30
0.0
 11
101.1999996400001
 21
122.9383438268747
 31
0.0
  0
ARC
  5
31832A7D
330
318324AF
100
AcDbEntity
  8
JISSEN
 48
5.0
100
AcDbCircle
 10
127.49999964
 20
118.5888661003524
 30
0.0
 40
3.0
100
AcDbArc
 50
270.0
 51
0.0
  0
LINE
  5
31832A7E
330
318324AF
100
AcDbEntity
  8
JISSEN
 48
5.0
100
AcDbLine
 10
122.4999996400005
 20
140.9383438268747
 30
0.0
 11
102.49999964
 21
140.9383438268747
 31
0.0
  0
LINE
  5
31832A7F
330
318324AF
100
AcDbEntity
  8
JISSEN
  6
Continuous
100
AcDbLine
 10
102.45321964
 20
139.3380558268746
 30
0.0
 11
102.49999964
 21
139.4383498268747
 31
0.0
  0
ARC
  5
31832A80
330
318324AF
100
AcDbEntity
  8
JISSEN
  6
Continuous
100
AcDbCircle
 10
109.9999996399999
 20
140.8134088268749
 30
0.0
 40
3.0
100
AcDbArc
 50
177.6132270237414
 51
180.000020000002
  0
ARC
  5
31832A81
330
318324AF
100
AcDbEntity
  8
JISSEN
  6
Continuous
100
AcDbCircle
 10
108.4999996399999
 20
134.4350478268748
 30
0.0
 40
1.5
100
AcDbArc
 50
179.9997399999998
 51
259.9999500000005
  0
LINE
  5
31832A82
330
318324AF
100
AcDbEntity
  8
JISSEN
  6
Continuous
100
AcDbLine
 10
108.35000964
 20
132.9383438268747
 30
0.0
 11
101.1999996400001
 21
132.9383438268747
 31
0.0
  0
LINE
  5
31832A83
330
318324AF
100
AcDbEntity
  8
JISSEN
  6
Continuous
100
AcDbLine
 10
108.2395196400001
 20
132.9578308268747
 30
0.0
 11
108.3499896400001
 21
132.9383498268747
 31
0.0
  0
LINE
  5
31832A84
330
318324AF
100
AcDbEntity
  8
JISSEN
  6
Continuous
100
AcDbLine
 10
101.1999996400001
 20
134.9959188268745
 30
0.0
 11
103.22562964
 21
139.3380538268748
 31
0.0
  0
LINE
  5
31832A85
330
318324AF
100
AcDbEntity
  8
JISSEN
  6
Continuous
100
AcDbLine
 10
106.99999964
 20
140.8134088268749
 30
0.0
 11
106.99999964
 21
134.4350478268748
 31
0.0
  0
ARC
  5
31832A87
330
318324AF
100
AcDbEntity
  8
JISSEN
 48
5.0
100
AcDbCircle
 10
122.4999996400005
 20
143.9383438268747
 30
0.0
 40
3.0
100
AcDbArc
 50
270.0
 51
0.0
  0
ARC
  5
31832A8A
330
318324AF
100
AcDbEntity
  8
JISSEN
 48
5.0
100
AcDbCircle
 10
53.49999964000023
 20
182.5888661003528
 30
0.0
 40
3.0
100
AcDbArc
 50
90.0
 51
180.0
  0
LINE
  5
31832A8D
330
318324AF
100
AcDbEntity
  8
JISSEN
 48
5.0
100
AcDbLine
 10
122.4999996400004
 20
172.9383438268747
 30
0.0
 11
58.49999963999977
 21
172.9383438268747
 31
0.0
  0
ARC
  5
31832A8F
330
318324AF
100
AcDbEntity
  8
JISSEN
 48
5.0
100
AcDbCircle
 10
93.49508822864169
 20
157.9383438268747
 30
0.0
 40
9.0
100
AcDbArc
 50
3.184738536719729
 51
90.0
  0
LINE
  5
31832A90
330
318324AF
100
AcDbEntity
  8
JISSEN
  6
Continuous
100
AcDbLine
 10
108.35000964
 20
187.9383438268747
 30
0.0
 11
72.64999964000009
 21
187.9383438268747
 31
0.0
  0
LINE
  5
31832A91
330
318324AF
100
AcDbEntity
  8
JISSEN
  6
PHANTOM
100
AcDbLine
 10
102.49999964
 20
158.4383438268747
 30
0.0
 11
96.82455964000007
 21
158.4383438268747
 31
0.0
  0
LINE
  5
31832A92
330
318324AF
100
AcDbEntity
  8
JISSEN
  6
Continuous
100
AcDbLine
 10
102.49999964
 20
152.4383438268747
 30
0.0
 11
96.82455964000007
 21
152.4383438268747
 31
0.0
  0
ARC
  5
31832A93
330
318324AF
100
AcDbEntity
  8
JISSEN
  6
Continuous
100
AcDbCircle
 10
90.49999963999999
 20
155.4383438268747
 30
0.0
 40
7.0
100
AcDbArc
 50
334.6230699999974
 51
115.3769299999984
  0
ARC
  5
31832A94
330
318324AF
100
AcDbEntity
  8
JISSEN
  6
Continuous
100
AcDbCircle
 10
90.49999963999999
 20
155.4383438268747
 30
0.0
 40
9.5
100
AcDbArc
 50
18.40848017058314
 51
108.4084700000012
  0
LINE
  5
31832A95
330
318324AF
100
AcDbEntity
  8
JISSEN
  6
Continuous
100
AcDbLine
 10
90.50001963999994
 20
164.0986088268746
 30
0.0
 11
97.99999964000006
 21
159.7684853268748
 31
0.0
  0
LINE
  5
31832A96
330
318324AF
100
AcDbEntity
  8
JISSEN
  6
Continuous
100
AcDbLine
 10
109.2465496400001
 20
176.9383438268747
 30
0.0
 11
71.75347964000008
 21
176.9383438268747
 31
0.0
  0
LINE
  5
31832A97
330
318324AF
100
AcDbEntity
  8
JISSEN
  6
Continuous
100
AcDbLine
 10
110.49999964
 20
173.4383438268747
 30
0.0
 11
70.49999964
 21
173.4383438268747
 31
0.0
  0
CIRCLE
  5
31832A98
330
318324AF
100
AcDbEntity
  8
JISSEN
 48
5.0
100
AcDbCircle
 10
57.99999964000045
 20
179.5888661003519
 30
0.0
 40
3.0
  0
LINE
  5
31832A99
330
318324AF
100
AcDbEntity
  8
JISSEN
  6
Continuous
100
AcDbLine
 10
72.64999964000009
 20
187.9383438268747
 30
0.0
 11
72.64999964000009
 21
177.9383438268747
 31
0.0
  0
LINE
  5
31832A9A
330
318324AF
100
AcDbEntity
  8
JISSEN
  6
Continuous
100
AcDbLine
 10
77.8714496400001
 20
187.9383438268747
 30
0.0
 11
77.8714496400001
 21
176.9383438268747
 31
0.0
  0
CIRCLE
  5
31832A9B
330
318324AF
100
AcDbEntity
  8
SAISEN
100
AcDbCircle
 10
62.49999964000045
 20
157.5888661003524
 30
0.0
 40
2.499999999999971
  0
ARC
  5
31832A9C
330
318324AF
100
AcDbEntity
  8
JISSEN
 48
5.0
100
AcDbCircle
 10
58.49999963999977
 20
169.9383438268747
 30
0.0
 40
3.0
100
AcDbArc
 50
90.0
 51
180.0
  0
CIRCLE
  5
31832A9E
330
318324AF
100
AcDbEntity
  8
JISSEN
100
AcDbCircle
 10
62.49999964000045
 20
157.5888661003524
 30
0.0
 40
2.999999999999971
  0
ARC
  5
31832AA0
330
318324AF
100
AcDbEntity
  8
JISSEN
  6
Continuous
100
AcDbCircle
 10
71.99999963999999
 20
175.9692128268748
 30
0.0
 40
1.0
100
AcDbArc
 50
100.0788299999984
 51
180.000020000002
  0
LINE
  5
31832AA1
330
318324AF
100
AcDbEntity
  8
JISSEN
  6
Continuous
100
AcDbLine
 10
70.49999964
 20
173.4383438268747
 30
0.0
 11
70.49999964
 21
172.9383438268747
 31
0.0
  0
LINE
  5
31832AA2
330
318324AF
100
AcDbEntity
  8
JISSEN
  6
Continuous
100
AcDbLine
 10
70.99999964
 20
175.9692128268748
 30
0.0
 11
70.99999964
 21
173.4383438268747
 31
0.0
  0
ARC
  5
31832AA3
330
318324AF
100
AcDbEntity
  8
JISSEN
  6
Continuous
100
AcDbCircle
 10
71.64999964000009
 20
177.9383438268747
 30
0.0
 40
1.0
100
AcDbArc
 50
280.0788319999999
 51
359.9999820000007
  0
LINE
  5
31832AA4
330
318324AF
100
AcDbEntity
  8
JISSEN
 48
5.0
100
AcDbLine
 10
93.49508822864169
 20
166.9383438268747
 30
0.0
 11
90.84805680186679
 21
166.9383438268749
 31
0.0
  0
ARC
  5
31832AA5
330
318324AF
100
AcDbEntity
  8
JISSEN
 48
5.0
100
AcDbCircle
 10
90.84805680186633
 20
161.9383438268749
 30
0.0
 40
5.0
100
AcDbArc
 50
89.99999999999674
 51
132.0370820487917
  0
LINE
  5
31832AA6
330
318324AF
100
AcDbEntity
  8
JISSEN
  6
Continuous
100
AcDbLine
 10
87.49999964
 20
167.4383438268747
 30
0.0
 11
84.99999964
 21
167.4383438268747
 31
0.0
  0
ARC
  5
31832AA7
330
318324AF
100
AcDbEntity
  8
JISSEN
  6
Continuous
100
AcDbCircle
 10
84.99999964
 20
164.9383438268747
 30
0.0
 40
2.5
100
AcDbArc
 50
89.99995999999923
 51
180.0
  0
LINE
  5
31832AA8
330
318324AF
100
AcDbEntity
  8
JISSEN
  6
Continuous
100
AcDbLine
 10
87.62434964000005
 20
162.4383409268746
 30
0.0
 11
90.50001963999994
 21
164.0986040268745
 31
0.0
  0
LINE
  5
31832AA9
330
318324AF
100
AcDbEntity
  8
JISSEN
  6
Continuous
100
AcDbLine
 10
92.99999963999999
 20
157.0966537268746
 30
0.0
 11
92.99999963999999
 21
153.7800339268747
 31
0.0
  0
LINE
  5
31832AAA
330
318324AF
100
AcDbEntity
  8
JISSEN
  6
Continuous
100
AcDbLine
 10
95.50005964000007
 20
152.5515888268747
 30
0.0
 11
95.50005964000007
 21
158.3250721268746
 31
0.0
  0
LINE
  5
31832AAB
330
318324AF
100
AcDbEntity
  8
JISSEN
  6
Continuous
100
AcDbLine
 10
95.49996964000007
 20
158.3250697268746
 30
0.0
 11
90.49998964000002
 21
161.2118118268746
 31
0.0
  0
LINE
  5
31832AAC
330
318324AF
100
AcDbEntity
  8
JISSEN
  6
Continuous
100
AcDbLine
 10
87.99999963999999
 20
157.0966537268746
 30
0.0
 11
87.99999963999999
 21
153.7800339268747
 31
0.0
  0
LINE
  5
31832AAD
330
318324AF
100
AcDbEntity
  8
JISSEN
  6
Continuous
100
AcDbLine
 10
85.49999963999999
 20
158.3250931268747
 30
0.0
 11
85.49999963999999
 21
152.5515945268747
 31
0.0
  0
CIRCLE
  5
31832AAE
330
318324AF
100
AcDbEntity
  8
JISSEN
  6
Continuous
100
AcDbCircle
 10
90.49999963999999
 20
155.4383438268747
 30
0.0
 40
2.4584999
  0
CIRCLE
  5
31832AAF
330
318324AF
100
AcDbEntity
  8
JISSEN
  6
Continuous
100
AcDbCircle
 10
90.49999963999999
 20
155.4383438268747
 30
0.0
 40
3.0
  0
LINE
  5
31832AB0
330
318324AF
100
AcDbEntity
  8
JISSEN
  6
Continuous
100
AcDbLine
 10
90.49996964000007
 20
161.2117851268745
 30
0.0
 11
85.49998964000002
 21
158.3250440268749
 31
0.0
  0
LINE
  5
31832AB1
330
318324AF
100
AcDbEntity
  8
JISSEN
  6
Continuous
100
AcDbLine
 10
87.49999964
 20
167.4383438268747
 30
0.0
 11
87.49999964
 21
161.7628982268748
 31
0.0
  0
LINE
  5
31832AB3
330
318324AF
100
AcDbEntity
  8
JISSEN
 48
5.0
100
AcDbLine
 10
53.49999964000023
 20
185.5888661003524
 30
0.0
 11
72.64999964000009
 21
185.5888661003524
 31
0.0
  0
CIRCLE
  5
31832AB4
330
318324AF
100
AcDbEntity
  8
JISSEN
 48
5.0
100
AcDbCircle
 10
122.99999964
 20
179.5888661003524
 30
0.0
 40
3.0
  0
LINE
  5
31832AB5
330
318324AF
100
AcDbEntity
  8
JISSEN
  6
Continuous
100
AcDbLine
 10
103.12855964
 20
187.9383438268747
 30
0.0
 11
103.12855964
 21
176.9383438268747
 31
0.0
  0
LINE
  5
31832AB6
330
318324AF
100
AcDbEntity
  8
JISSEN
  6
Continuous
100
AcDbLine
 10
108.35000964
 20
187.9383438268747
 30
0.0
 11
108.35000964
 21
177.9383438268747
 31
0.0
  0
CIRCLE
  5
31832AB7
330
318324AF
100
AcDbEntity
  8
SAISEN
100
AcDbCircle
 10
118.4999996400005
 20
157.5888661003524
 30
0.0
 40
2.499999999999971
  0
CIRCLE
  5
31832AB8
330
318324AF
100
AcDbEntity
  8
JISSEN
100
AcDbCircle
 10
118.49999964
 20
157.5888661003524
 30
0.0
 40
2.999999999999971
  0
LINE
  5
31832ABC
330
318324AF
100
AcDbEntity
  8
JISSEN
  6
Continuous
100
AcDbLine
 10
110.49999964
 20
173.4383438268747
 30
0.0
 11
110.49999964
 21
172.9383438268747
 31
0.0
  0
ARC
  5
31832ABD
330
318324AF
100
AcDbEntity
  8
JISSEN
  6
Continuous
100
AcDbCircle
 10
108.9999996399999
 20
175.9692128268748
 30
0.0
 40
1.0
100
AcDbArc
 50
359.9999820000007
 51
79.92117000000156
  0
LINE
  5
31832ABE
330
318324AF
100
AcDbEntity
  8
JISSEN
  6
Continuous
100
AcDbLine
 10
109.99999964
 20
175.9692128268748
 30
0.0
 11
109.99999964
 21
173.4383438268747
 31
0.0
  0
ARC
  5
31832ABF
330
318324AF
100
AcDbEntity
  8
JISSEN
  6
Continuous
100
AcDbCircle
 10
90.49999963999999
 20
155.4383438268747
 30
0.0
 40
10.0
100
AcDbArc
 50
342.5424010000026
 51
17.45762000000222
  0
LINE
  5
31832AC0
330
318324AF
100
AcDbEntity
  8
JISSEN
  6
Continuous
100
AcDbLine
 10
98.00005964000014
 20
159.7684801268747
 30
0.0
 11
98.00005964000014
 21
152.4383438268747
 31
0.0
  0
LINE
  5
31832AC1
330
318324AF
100
AcDbEntity
  8
JISSEN
  6
Continuous
100
AcDbLine
 10
104.49999964
 20
158.4383438268747
 30
0.0
 11
104.49999964
 21
152.4383438268747
 31
0.0
  0
LINE
  5
31832AC2
330
318324AF
100
AcDbEntity
  8
JISSEN
  6
Continuous
100
AcDbLine
 10
104.5000596400001
 20
158.4383438268747
 30
0.0
 11
99.51397964000012
 21
158.4383438268747
 31
0.0
  0
LINE
  5
31832AC3
330
318324AF
100
AcDbEntity
  8
JISSEN
  6
Continuous
100
AcDbLine
 10
104.5000596400001
 20
152.4383438268747
 30
0.0
 11
97.50005964000013
 21
152.4383438268747
 31
0.0
  0
ARC
  5
31832AC4
330
318324AF
100
AcDbEntity
  8
JISSEN
  6
Continuous
100
AcDbCircle
 10
109.3500096399999
 20
177.9383438268747
 30
0.0
 40
1.0
100
AcDbArc
 50
180.000020000002
 51
259.9211699999982
  0
ARC
  5
31832AC6
330
318324AF
100
AcDbEntity
  8
JISSEN
 48
5.0
100
AcDbCircle
 10
122.4999996400004
 20
169.9383438268747
 30
0.0
 40
3.0
100
AcDbArc
 50
0.0
 51
90.0
  0
LINE
  5
31832AC7
330
318324AF
100
AcDbEntity
  8
JISSEN
 48
5.0
100
AcDbLine
 10
108.3500096399999
 20
185.5888661003524
 30
0.0
 11
127.4999996400002
 21
185.5888661003524
 31
0.0
  0
ARC
  5
31832AC9
330
318324AF
100
AcDbEntity
  8
JISSEN
 48
5.0
100
AcDbCircle
 10
127.4999996400002
 20
182.5888661003528
 30
0.0
 40
3.0
100
AcDbArc
 50
0.0
 51
90.0
  0
LINE
  5
31832DD8
330
318324AF
100
AcDbEntity
  8
ITTEN
 48
3.0
100
AcDbLine
 10
90.49999963999999
 20
190.9383438268747
 30
0.0
 11
90.49999963999999
 21
65.20841065187468
 31
0.0
  0
LINE
  5
31832DDF
330
318324AF
100
AcDbEntity
  8
ITTEN
100
AcDbLine
 10
116.99999964
 20
179.5888661003524
 30
0.0
 11
128.99999964
 21
179.5888661003524
 31
0.0
  0
LINE
  5
31832DE0
330
318324AF
100
AcDbEntity
  8
ITTEN
100
AcDbLine
 10
122.99999964
 20
185.5888661003524
 30
0.0
 11
122.99999964
 21
173.5888661003524
 31
0.0
  0
LINE
  5
31832DE1
330
318324AF
100
AcDbEntity
  8
ITTEN
100
AcDbLine
 10
122.9999996400005
 20
127.5888661003522
 30
0.0
 11
122.9999996400005
 21
115.5888661003521
 31
0.0
  0
LINE
  5
31832DE2
330
318324AF
100
AcDbEntity
  8
ITTEN
100
AcDbLine
 10
116.9999996400005
 20
121.5888661003521
 30
0.0
 11
128.9999996400005
 21
121.5888661003521
 31
0.0
  0
LINE
  5
31832DE3
330
318324AF
100
AcDbEntity
  8
ITTEN
100
AcDbLine
 10
57.99999964000045
 20
185.5888661003519
 30
0.0
 11
57.99999964000045
 21
173.5888661003519
 31
0.0
  0
LINE
  5
31832DE4
330
318324AF
100
AcDbEntity
  8
ITTEN
100
AcDbLine
 10
51.99999964000046
 20
179.5888661003519
 30
0.0
 11
63.99999964000045
 21
179.5888661003519
 31
0.0
  0
LINE
  5
31832DE5
330
318324AF
100
AcDbEntity
  8
ITTEN
100
AcDbLine
 10
57.9999996400009
 20
127.5888661003515
 30
0.0
 11
57.9999996400009
 21
115.5888661003515
 31
0.0
  0
LINE
  5
31832DE6
330
318324AF
100
AcDbEntity
  8
ITTEN
100
AcDbLine
 10
51.99999964000091
 20
121.5888661003515
 30
0.0
 11
63.99999964000091
 21
121.5888661003515
 31
0.0
  0
LINE
  5
31832DE8
330
318324AF
100
AcDbEntity
  8
ITTEN
100
AcDbLine
 10
124.49999964
 20
157.5888661003524
 30
0.0
 11
112.4999996400001
 21
157.5888661003524
 31
0.0
  0
LINE
  5
31832DE9
330
318324AF
100
AcDbEntity
  8
ITTEN
100
AcDbLine
 10
118.4999996400005
 20
151.5888661003524
 30
0.0
 11
118.4999996400005
 21
163.5888661003523
 31
0.0
  0
LINE
  5
31832DEA
330
318324AF
100
AcDbEntity
  8
ITTEN
100
AcDbLine
 10
62.49999964000045
 20
151.5888661003524
 30
0.0
 11
62.49999964000045
 21
163.5888661003523
 31
0.0
  0
LINE
  5
31832DEB
330
318324AF
100
AcDbEntity
  8
ITTEN
100
AcDbLine
 10
68.49999964
 20
157.5888661003524
 30
0.0
 11
56.49999964
 21
157.5888661003524
 31
0.0
  0
LINE
  5
31832DEE
330
318324AF
100
AcDbEntity
  8
ITTEN
100
AcDbLine
 10
79.49999963999999
 20
155.4383438268747
 30
0.0
 11
107.49999964
 21
155.4383438268747
 31
0.0
  0
CIRCLE
  5
318340BB
330
318324AF
100
AcDbEntity
  8
TENSEN
 48
2.0
100
AcDbCircle
 10
90.49999963999999
 20
155.4383438268747
 30
0.0
 40
50.0
  0
TEXT
  5
3183415A
330
318324AF
100
AcDbEntity
  8
SUNPOU
100
AcDbText
 10
109.4143700442456
 20
6.928140700946634
 30
0.0
 40
3.0
  1
住宅用スプリンクラー設備　停止弁　3/4
  7
K
100
AcDbText
  0
TEXT
  5
3183415B
330
318324AF
100
AcDbEntity
  8
SUNPOU
100
AcDbText
 10
109.4143700442456
 20
2.253602446584977
 30
0.0
 40
3.0
  1
A4 用紙、印刷尺度 1/1
  7
K
100
AcDbText
  0
ENDSEC
  0
SECTION
  2
OBJECTS
  0
DICTIONARY
  5
318324A3
330
0
100
AcDbDictionary
281
     1
  3
ACAD_GROUP
350
318324A4
  3
ACAD_LAYOUT
350
318327B5
  3
ACAD_MLINESTYLE
350
318324A5
  3
ACAD_PLOTSETTINGS
350
318327B6
  3
ACAD_PLOTSTYLENAME
350
318327B3
  3
AcDbVariableDictionary
350
318338BB
  3
DWGPROPS
350
3183415D
  0
DICTIONARY
  5
31832975
330
31832499
100
AcDbDictionary
280
     1
281
     1
  3
ACAD_LAYERFILTERS
360
31832DD9
  3
ACAD_LAYERSTATES
360
31832976
  0
DICTIONARY
  5
31832E93
330
318324AF
100
AcDbDictionary
280
     1
281
     1
  3
ACAD_LAYOUTSELFREF
360
3183413A
  0
DICTIONARY
  5
31832E91
330
318324AC
100
AcDbDictionary
280
     1
281
     1
  3
ACAD_LAYOUTSELFREF
360
31834139
  0
DICTIONARY
  5
318324A4
102
{ACAD_REACTORS
330
318324A3
102
}
330
318324A3
100
AcDbDictionary
281
     1
  0
DICTIONARY
  5
318327B5
102
{ACAD_REACTORS
330
318324A3
102
}
330
318324A3
100
AcDbDictionary
281
     1
  3
Model
350
318327B7
  3
ﾚｲｱｳﾄ1
350
318327B8
  0
DICTIONARY
  5
318324A5
102
{ACAD_REACTORS
330
318324A3
102
}
330
318324A3
100
AcDbDictionary
281
     1
  3
STANDARD
350
318324B2
  0
DICTIONARY
  5
318327B6
102
{ACAD_REACTORS
330
318324A3
102
}
330
318324A3
100
AcDbDictionary
281
     1
  0
ACDBDICTIONARYWDFLT
  5
318327B3
102
{ACAD_REACTORS
330
318324A3
102
}
330
318324A3
100
AcDbDictionary
281
     1
  3
Normal
350
318327B4
100
AcDbDictionaryWithDefault
340
318327B4
  0
DICTIONARY
  5
318338BB
102
{ACAD_REACTORS
330
318324A3
102
}
330
318324A3
100
AcDbDictionary
281
     1
  3
SORTENTS
350
318338BC
  0
XRECORD
  5
3183415D
102
{ACAD_REACTORS
330
318324A3
102
}
330
318324A3
100
AcDbXrecord
280
     1
  1
DWGPROPS COOKIE
  2

  3

  4

  6

  7

  8

  9

300
=
301
=
302
=
303
=
304
=
305
=
306
=
307
=
308
=
309
=
 40
0.2014981944444445
 41
2450694.750535185
 42
2454756.717136667
  1

 90
        0
  0
DICTIONARY
  5
31832DD9
102
{ACAD_REACTORS
330
31832975
102
}
330
31832975
100
AcDbDictionary
280
     1
281
     1
  0
DICTIONARY
  5
31832976
102
{ACAD_REACTORS
330
31832975
102
}
330
31832975
100
AcDbDictionary
281
     1
  0
XRECORD
  5
3183413A
102
{ACAD_REACTORS
330
31832E93
102
}
330
31832E93
100
AcDbXrecord
280
     1
340
318324AF
  0
XRECORD
  5
31834139
102
{ACAD_REACTORS
330
31832E91
102
}
330
31832E91
100
AcDbXrecord
280
     1
340
318324AC
  0
LAYOUT
  5
318327B7
102
{ACAD_REACTORS
330
318327B5
102
}
330
318327B5
100
AcDbPlotSettings
  1

  2
\\Nt_honsya\FUJITSU XL-5300-3
  4
A4
  6

 40
5.873749732971191
 41
5.704405784606933
 42
5.789077758789062
 43
5.873748779296875
 44
209.9733276367187
 45
296.9259948730469
 46
0.0
 47
0.0
 48
0.0
 49
0.0
140
0.0
141
0.0
142
1.0
143
1.0
 70
 11952
 72
     0
 73
     1
 74
     0
  7
aclt.ctb
 75
     0
147
1.0
148
-2799.926065183315
149
1704.742679422448
100
AcDbLayout
  1
Model
 70
     1
 71
     0
 10
0.0
 20
0.0
 11
12.0
 21
9.0
 12
0.0
 22
0.0
 32
0.0
 14
0.0
 24
0.0
 34
0.0
 15
0.0
 25
0.0
 35
0.0
146
0.0
 13
0.0
 23
0.0
 33
0.0
 16
1.0
 26
0.0
 36
0.0
 17
0.0
 27
1.0
 37
0.0
 76
     0
330
318324AF
  0
LAYOUT
  5
318327B8
102
{ACAD_REACTORS
330
318327B5
102
}
330
318327B5
100
AcDbPlotSettings
  1

  2
\\Nt_honsya\FUJITSU XL-5300-3
  4

  6

 40
0.0
 41
0.0
 42
0.0
 43
0.0
 44
0.0
 45
0.0
 46
0.0
 47
0.0
 48
0.0
 49
0.0
140
0.0
141
0.0
142
1.0
143
1.0
 70
   688
 72
     0
 73
     0
 74
     5
  7
aclt.ctb
 75
    16
147
1.0
148
0.0
149
0.0
100
AcDbLayout
  1
ﾚｲｱｳﾄ1
 70
     0
 71
     1
 10
0.0
 20
0.0
 11
12.0
 21
9.0
 12
0.0
 22
0.0
 32
0.0
 14
1.000000000000000E+20
 24
1.000000000000000E+20
 34
1.000000000000000E+20
 15
-1.000000000000000E+20
 25
-1.000000000000000E+20
 35
-1.000000000000000E+20
146
0.0
 13
0.0
 23
0.0
 33
0.0
 16
1.0
 26
0.0
 36
0.0
 17
0.0
 27
1.0
 37
0.0
 76
     0
330
318324AC
  0
MLINESTYLE
  5
318324B2
102
{ACAD_REACTORS
330
318324A5
102
}
330
318324A5
100
AcDbMlineStyle
  2
STANDARD
 70
     0
  3

 62
     0
 51
90.0
 52
90.0
 71
     2
 49
0.5
 62
   256
  6
BYLAYER
 49
-0.5
 62
   256
  6
BYLAYER
  0
ACDBPLACEHOLDER
  5
318327B4
102
{ACAD_REACTORS
330
318327B3
102
}
330
318327B3
  0
DICTIONARYVAR
  5
318338BC
102
{ACAD_REACTORS
330
318338BB
102
}
330
318338BB
100
DictionaryVariables
280
     0
  1
96
  0
ENDSEC
  0
EOF
