  0
SECTION
  2
HEADER
  9
$ACADVER
  1
AC1015
  9
$ACADMAINTVER
 70
    10
  9
$DWGCODEPAGE
  3
ANSI_932
  9
$INSBASE
 10
0.0
 20
0.0
 30
0.0
  9
$EXTMIN
 10
0.0000006636191756
 20
0.0000002405596433
 30
0.0
  9
$EXTMAX
 10
361.9999992156189
 20
283.0000002405595
 30
0.0
  9
$LIMMIN
 10
0.0
 20
-0.0000000109013172
  9
$LIMMAX
 10
361.9999984121866
 20
282.9999999890986
  9
$ORTHOMODE
 70
     1
  9
$REGENMODE
 70
     1
  9
$FILLMODE
 70
     1
  9
$QTEXTMODE
 70
     0
  9
$MIRRTEXT
 70
     0
  9
$LTSCALE
 40
5.0
  9
$ATTMODE
 70
     1
  9
$TEXTSIZE
 40
3.0
  9
$TRACEWID
 40
0.05
  9
$TEXTSTYLE
  7
K
  9
$CLAYER
  8
JISSEN
  9
$CELTYPE
  6
BYLAYER
  9
$CECOLOR
 62
   256
  9
$CELTSCALE
 40
1.0
  9
$DISPSILH
 70
     0
  9
$DIMSCALE
 40
1.0
  9
$DIMASZ
 40
1.5
  9
$DIMEXO
 40
1.0
  9
$DIMDLI
 40
6.0
  9
$DIMRND
 40
0.0
  9
$DIMDLE
 40
0.0
  9
$DIMEXE
 40
1.0
  9
$DIMTP
 40
495.0
  9
$DIMTM
 40
0.0
  9
$DIMTXT
 40
3.0
  9
$DIMCEN
 40
0.0
  9
$DIMTSZ
 40
0.0
  9
$DIMTOL
 70
     0
  9
$DIMLIM
 70
     0
  9
$DIMTIH
 70
     0
  9
$DIMTOH
 70
     0
  9
$DIMSE1
 70
     0
  9
$DIMSE2
 70
     0
  9
$DIMTAD
 70
     1
  9
$DIMZIN
 70
     8
  9
$DIMBLK
  1
ARROWANG
  9
$DIMASO
 70
     0
  9
$DIMSHO
 70
     0
  9
$DIMPOST
  1

  9
$DIMAPOST
  1

  9
$DIMALT
 70
     0
  9
$DIMALTD
 70
     2
  9
$DIMALTF
 40
25.4
  9
$DIMLFAC
 40
1.0
  9
$DIMTOFL
 70
     1
  9
$DIMTVP
 40
0.0
  9
$DIMTIX
 70
     1
  9
$DIMSOXD
 70
     0
  9
$DIMSAH
 70
     0
  9
$DIMBLK1
  1
ARROWANG
  9
$DIMBLK2
  1
ARROWANG
  9
$DIMSTYLE
  2
IMAO
  9
$DIMCLRD
 70
     0
  9
$DIMCLRE
 70
     0
  9
$DIMCLRT
 70
     0
  9
$DIMTFAC
 40
1.0
  9
$DIMGAP
 40
0.09
  9
$DIMJUST
 70
     0
  9
$DIMSD1
 70
     0
  9
$DIMSD2
 70
     0
  9
$DIMTOLJ
 70
     1
  9
$DIMTZIN
 70
     0
  9
$DIMALTZ
 70
     0
  9
$DIMALTTZ
 70
     0
  9
$DIMUPT
 70
     0
  9
$DIMDEC
 70
     4
  9
$DIMTDEC
 70
     4
  9
$DIMALTU
 70
     2
  9
$DIMALTTD
 70
     2
  9
$DIMTXSTY
  7
STANDARD
  9
$DIMAUNIT
 70
     0
  9
$DIMADEC
 70
     0
  9
$DIMALTRND
 40
0.0
  9
$DIMAZIN
 70
     0
  9
$DIMDSEP
 70
    46
  9
$DIMATFIT
 70
     3
  9
$DIMFRAC
 70
     0
  9
$DIMLDRBLK
  1
ARROWANG
  9
$DIMLUNIT
 70
     2
  9
$DIMLWD
 70
    -2
  9
$DIMLWE
 70
    -2
  9
$DIMTMOVE
 70
     0
  9
$LUNITS
 70
     2
  9
$LUPREC
 70
     2
  9
$SKETCHINC
 40
0.1
  9
$FILLETRAD
 40
0.5
  9
$AUNITS
 70
     0
  9
$AUPREC
 70
     2
  9
$MENU
  1
STDR12J
  9
$ELEVATION
 40
0.0
  9
$PELEVATION
 40
0.0
  9
$THICKNESS
 40
0.0
  9
$LIMCHECK
 70
     0
  9
$CHAMFERA
 40
0.0
  9
$CHAMFERB
 40
0.0
  9
$CHAMFERC
 40
0.0
  9
$CHAMFERD
 40
0.0
  9
$SKPOLY
 70
     0
  9
$TDCREATE
 40
2450354.415456018
  9
$TDUCREATE
 40
2450354.040456018
  9
$TDUPDATE
 40
2456751.784703866
  9
$TDUUPDATE
 40
2456751.409703865
  9
$TDINDWG
 40
0.1983772917
  9
$TDUSRTIMER
 40
0.1983769444
  9
$USRTIMER
 70
     1
  9
$ANGBASE
 50
0.0
  9
$ANGDIR
 70
     0
  9
$PDMODE
 70
     0
  9
$PDSIZE
 40
0.0
  9
$PLINEWID
 40
0.0
  9
$SPLFRAME
 70
     0
  9
$SPLINETYPE
 70
     6
  9
$SPLINESEGS
 70
     8
  9
$HANDSEED
  5
1D6918885A
  9
$SURFTAB1
 70
     6
  9
$SURFTAB2
 70
     6
  9
$SURFTYPE
 70
     6
  9
$SURFU
 70
     6
  9
$SURFV
 70
     6
  9
$UCSBASE
  2

  9
$UCSNAME
  2

  9
$UCSORG
 10
0.0
 20
0.0
 30
0.0
  9
$UCSXDIR
 10
1.0
 20
0.0
 30
0.0
  9
$UCSYDIR
 10
0.0
 20
1.0
 30
0.0
  9
$UCSORTHOREF
  2

  9
$UCSORTHOVIEW
 70
     0
  9
$UCSORGTOP
 10
0.0
 20
0.0
 30
0.0
  9
$UCSORGBOTTOM
 10
0.0
 20
0.0
 30
0.0
  9
$UCSORGLEFT
 10
0.0
 20
0.0
 30
0.0
  9
$UCSORGRIGHT
 10
0.0
 20
0.0
 30
0.0
  9
$UCSORGFRONT
 10
0.0
 20
0.0
 30
0.0
  9
$UCSORGBACK
 10
0.0
 20
0.0
 30
0.0
  9
$PUCSBASE
  2

  9
$PUCSNAME
  2

  9
$PUCSORG
 10
0.0
 20
0.0
 30
0.0
  9
$PUCSXDIR
 10
1.0
 20
0.0
 30
0.0
  9
$PUCSYDIR
 10
0.0
 20
1.0
 30
0.0
  9
$PUCSORTHOREF
  2

  9
$PUCSORTHOVIEW
 70
     0
  9
$PUCSORGTOP
 10
0.0
 20
0.0
 30
0.0
  9
$PUCSORGBOTTOM
 10
0.0
 20
0.0
 30
0.0
  9
$PUCSORGLEFT
 10
0.0
 20
0.0
 30
0.0
  9
$PUCSORGRIGHT
 10
0.0
 20
0.0
 30
0.0
  9
$PUCSORGFRONT
 10
0.0
 20
0.0
 30
0.0
  9
$PUCSORGBACK
 10
0.0
 20
0.0
 30
0.0
  9
$USERI1
 70
     4
  9
$USERI2
 70
     1
  9
$USERI3
 70
     1
  9
$USERI4
 70
     2
  9
$USERI5
 70
     1
  9
$USERR1
 40
1.0
  9
$USERR2
 40
3.0
  9
$USERR3
 40
3.0
  9
$USERR4
 40
1.5
  9
$USERR5
 40
8.0
  9
$WORLDVIEW
 70
     1
  9
$SHADEDGE
 70
     3
  9
$SHADEDIF
 70
    70
  9
$TILEMODE
 70
     1
  9
$MAXACTVP
 70
    16
  9
$PINSBASE
 10
0.0
 20
0.0
 30
0.0
  9
$PLIMCHECK
 70
     0
  9
$PEXTMIN
 10
1.000000000000000E+20
 20
1.000000000000000E+20
 30
1.000000000000000E+20
  9
$PEXTMAX
 10
-1.000000000000000E+20
 20
-1.000000000000000E+20
 30
-1.000000000000000E+20
  9
$PLIMMIN
 10
0.0
 20
0.0
  9
$PLIMMAX
 10
12.0
 20
9.0
  9
$UNITMODE
 70
     0
  9
$VISRETAIN
 70
     0
  9
$PLINEGEN
 70
     0
  9
$PSLTSCALE
 70
     0
  9
$TREEDEPTH
 70
     0
  9
$CMLSTYLE
  2
STANDARD
  9
$CMLJUST
 70
     0
  9
$CMLSCALE
 40
1.0
  9
$PROXYGRAPHICS
 70
     1
  9
$MEASUREMENT
 70
     0
  9
$CELWEIGHT
370
    -1
  9
$ENDCAPS
280
     0
  9
$JOINSTYLE
280
     0
  9
$LWDISPLAY
290
     0
  9
$INSUNITS
 70
     0
  9
$HYPERLINKBASE
  1

  9
$STYLESHEET
  1

  9
$XEDIT
290
     1
  9
$CEPSNTYPE
380
     0
  9
$PSTYLEMODE
290
     1
  9
$FINGERPRINTGUID
  2
{9E4523D2-8DA8-438B-B789-0D080F5E267A}
  9
$VERSIONGUID
  2
{87268793-0420-4023-BD48-88723801AEC3}
  9
$EXTNAMES
290
     1
  9
$PSVPSCALE
 40
0.0
  9
$OLESTARTUP
290
     0
  0
ENDSEC
  0
SECTION
  2
CLASSES
  0
CLASS
  1
LWPOLYLINE
  2
AcDbPolyline
  3
AutoCAD 2000
 90
    32768
280
     0
281
     1
  0
CLASS
  1
ACDBDICTIONARYWDFLT
  2
AcDbDictionaryWithDefault
  3
AutoCAD 2000
 90
        0
280
     0
281
     0
  0
CLASS
  1
ACDBPLACEHOLDER
  2
AcDbPlaceHolder
  3
AutoCAD 2000
 90
        0
280
     0
281
     0
  0
CLASS
  1
LAYOUT
  2
AcDbLayout
  3
AutoCAD 2000
 90
        0
280
     0
281
     0
  0
CLASS
  1
LONG_TRANSACTION
  2
AcDbLongTransaction
  3
AutoCAD 2000
 90
    32768
280
     0
281
     0
  0
CLASS
  1
LWPOLYLINE
  2
AcDbPolyline
  3
AutoCAD 2000
 90
    32768
280
     0
281
     1
  0
CLASS
  1
HATCH
  2
AcDbHatch
  3
AutoCAD 2000
 90
    32768
280
     0
281
     1
  0
CLASS
  1
XRECORD
  2
AcDbXrecord
  3
AutoCAD 2000
 90
    32768
280
     0
281
     0
  0
CLASS
  1
LONG_TRANSACTION
  2
AcDbLongTransaction
  3
AutoCAD 2000
 90
    32768
280
     0
281
     0
  0
CLASS
  1
LWPOLYLINE
  2
AcDbPolyline
  3
AutoCAD 2000
 90
    32768
280
     0
281
     1
  0
CLASS
  1
HATCH
  2
AcDbHatch
  3
AutoCAD 2000
 90
    32768
280
     0
281
     1
  0
CLASS
  1
XRECORD
  2
AcDbXrecord
  3
AutoCAD 2000
 90
    32768
280
     0
281
     0
  0
CLASS
  1
LONG_TRANSACTION
  2
AcDbLongTransaction
  3
AutoCAD 2000
 90
    32768
280
     0
281
     0
  0
CLASS
  1
LWPOLYLINE
  2
AcDbPolyline
  3
AutoCAD 2000
 90
    32768
280
     0
281
     1
  0
CLASS
  1
HATCH
  2
AcDbHatch
  3
AutoCAD 2000
 90
    32768
280
     0
281
     1
  0
CLASS
  1
XRECORD
  2
AcDbXrecord
  3
AutoCAD 2000
 90
    32768
280
     0
281
     0
  0
CLASS
  1
LONG_TRANSACTION
  2
AcDbLongTransaction
  3
AutoCAD 2000
 90
    32768
280
     0
281
     0
  0
CLASS
  1
LWPOLYLINE
  2
AcDbPolyline
  3
AutoCAD 2000
 90
    32768
280
     0
281
     1
  0
CLASS
  1
HATCH
  2
AcDbHatch
  3
AutoCAD 2000
 90
    32768
280
     0
281
     1
  0
CLASS
  1
XRECORD
  2
AcDbXrecord
  3
AutoCAD 2000
 90
    32768
280
     0
281
     0
  0
CLASS
  1
LONG_TRANSACTION
  2
AcDbLongTransaction
  3
AutoCAD 2000
 90
    32768
280
     0
281
     0
  0
CLASS
  1
LWPOLYLINE
  2
AcDbPolyline
  3
AutoCAD 2000
 90
    32768
280
     0
281
     1
  0
CLASS
  1
HATCH
  2
AcDbHatch
  3
AutoCAD 2000
 90
    32768
280
     0
281
     1
  0
CLASS
  1
XRECORD
  2
AcDbXrecord
  3
AutoCAD 2000
 90
    32768
280
     0
281
     0
  0
CLASS
  1
LONG_TRANSACTION
  2
AcDbLongTransaction
  3
AutoCAD 2000
 90
    32768
280
     0
281
     0
  0
CLASS
  1
LWPOLYLINE
  2
AcDbPolyline
  3
AutoCAD 2000
 90
    32768
280
     0
281
     1
  0
CLASS
  1
HATCH
  2
AcDbHatch
  3
AutoCAD 2000
 90
    32768
280
     0
281
     1
  0
CLASS
  1
XRECORD
  2
AcDbXrecord
  3
AutoCAD 2000
 90
    32768
280
     0
281
     0
  0
CLASS
  1
DICTIONARYVAR
  2
AcDbDictionaryVar
  3
AutoCAD 2000
 90
        0
280
     0
281
     0
  0
CLASS
  1
LONG_TRANSACTION
  2
AcDbLongTransaction
  3
AutoCAD 2000
 90
    32768
280
     0
281
     0
  0
CLASS
  1
LWPOLYLINE
  2
AcDbPolyline
  3
AutoCAD 2000
 90
    32768
280
     0
281
     1
  0
CLASS
  1
HATCH
  2
AcDbHatch
  3
AutoCAD 2000
 90
    32768
280
     0
281
     1
  0
CLASS
  1
XRECORD
  2
AcDbXrecord
  3
AutoCAD 2000
 90
    32768
280
     0
281
     0
  0
CLASS
  1
LONG_TRANSACTION
  2
AcDbLongTransaction
  3
AutoCAD 2000
 90
    32768
280
     0
281
     0
  0
CLASS
  1
LWPOLYLINE
  2
AcDbPolyline
  3
AutoCAD 2000
 90
    32768
280
     0
281
     1
  0
CLASS
  1
HATCH
  2
AcDbHatch
  3
AutoCAD 2000
 90
    32768
280
     0
281
     1
  0
CLASS
  1
XRECORD
  2
AcDbXrecord
  3
AutoCAD 2000
 90
    32768
280
     0
281
     0
  0
CLASS
  1
LONG_TRANSACTION
  2
AcDbLongTransaction
  3
AutoCAD 2000
 90
    32768
280
     0
281
     0
  0
CLASS
  1
LWPOLYLINE
  2
AcDbPolyline
  3
AutoCAD 2000
 90
    32768
280
     0
281
     1
  0
CLASS
  1
HATCH
  2
AcDbHatch
  3
AutoCAD 2000
 90
    32768
280
     0
281
     1
  0
CLASS
  1
XRECORD
  2
AcDbXrecord
  3
AutoCAD 2000
 90
    32768
280
     0
281
     0
  0
ENDSEC
  0
SECTION
  2
TABLES
  0
TABLE
  2
VPORT
  5
1D69183389
330
0
100
AcDbSymbolTable
 70
    10
  0
VPORT
  5
1D691833BC
330
1D69183389
100
AcDbSymbolTableRecord
100
AcDbViewportTableRecord
  2
2
 70
     0
 10
0.5
 20
0.0
 11
1.0
 21
1.0
 12
0.9240309999999999
 22
1.052651
 13
0.0
 23
0.0
 14
1.0
 24
1.0
 15
10.0
 25
10.0
 16
0.0
 26
0.0
 36
1.0
 17
0.0
 27
0.0
 37
0.0
 40
2.105302
 41
0.877814
 42
50.0
 43
0.0
 44
0.0
 50
0.0
 51
0.0
 71
     0
 72
   500
 73
     1
 74
     1
 75
     0
 76
     0
 77
     0
 78
     0
281
     0
 65
     1
110
0.0
120
0.0
130
0.0
111
1.0
121
0.0
131
0.0
112
0.0
122
1.0
132
0.0
 79
     0
146
0.0
  0
VPORT
  5
1D691833BD
330
1D69183389
100
AcDbSymbolTableRecord
100
AcDbViewportTableRecord
  2
2
 70
     0
 10
0.0
 20
0.0
 11
0.5
 21
1.0
 12
0.9240309999999999
 22
1.052651
 13
0.0
 23
0.0
 14
1.0
 24
1.0
 15
10.0
 25
10.0
 16
0.0
 26
0.0
 36
1.0
 17
0.0
 27
0.0
 37
0.0
 40
2.105302
 41
0.877814
 42
50.0
 43
0.0
 44
0.0
 50
0.0
 51
0.0
 71
     0
 72
   500
 73
     1
 74
     1
 75
     0
 76
     0
 77
     0
 78
     0
281
     0
 65
     1
110
0.0
120
0.0
130
0.0
111
1.0
121
0.0
131
0.0
112
0.0
122
1.0
132
0.0
 79
     0
146
0.0
  0
VPORT
  5
1D691833BE
330
1D69183389
100
AcDbSymbolTableRecord
100
AcDbViewportTableRecord
  2
3
 70
     0
 10
0.0
 20
0.5
 11
1.0
 21
1.0
 12
2.832169999999998
 22
1.052651
 13
0.0
 23
0.0
 14
1.0
 24
1.0
 15
10.0
 25
10.0
 16
0.0
 26
0.0
 36
1.0
 17
0.0
 27
0.0
 37
0.0
 40
2.105302
 41
3.571429
 42
50.0
 43
0.0
 44
0.0
 50
0.0
 51
0.0
 71
     0
 72
   500
 73
     1
 74
     1
 75
     0
 76
     0
 77
     0
 78
     0
281
     0
 65
     1
110
0.0
120
0.0
130
0.0
111
1.0
121
0.0
131
0.0
112
0.0
122
1.0
132
0.0
 79
     0
146
0.0
  0
VPORT
  5
1D691833BF
330
1D69183389
100
AcDbSymbolTableRecord
100
AcDbViewportTableRecord
  2
3
 70
     0
 10
0.0
 20
0.0
 11
1.0
 21
0.5
 12
2.856741999999998
 22
1.052651
 13
0.0
 23
0.0
 14
1.0
 24
1.0
 15
10.0
 25
10.0
 16
0.0
 26
0.0
 36
1.0
 17
0.0
 27
0.0
 37
0.0
 40
2.105302
 41
3.594770999999998
 42
50.0
 43
0.0
 44
0.0
 50
0.0
 51
0.0
 71
     0
 72
   500
 73
     1
 74
     1
 75
     0
 76
     0
 77
     0
 78
     0
281
     0
 65
     1
110
0.0
120
0.0
130
0.0
111
1.0
121
0.0
131
0.0
112
0.0
122
1.0
132
0.0
 79
     0
146
0.0
  0
VPORT
  5
1D691833C0
330
1D69183389
100
AcDbSymbolTableRecord
100
AcDbViewportTableRecord
  2
4
 70
     0
 10
0.5
 20
0.0
 11
1.0
 21
0.5
 12
2.886858
 22
1.052651
 13
0.0
 23
0.0
 14
1.0
 24
1.0
 15
10.0
 25
10.0
 16
0.0
 26
0.0
 36
1.0
 17
0.0
 27
0.0
 37
0.0
 40
4.275206999999999
 41
1.784314
 42
50.0
 43
0.0
 44
0.0
 50
0.0
 51
0.0
 71
     0
 72
   500
 73
     1
 74
     1
 75
     0
 76
     0
 77
     0
 78
     0
281
     0
 65
     1
110
0.0
120
0.0
130
0.0
111
1.0
121
0.0
131
0.0
112
0.0
122
1.0
132
0.0
 79
     0
146
0.0
  0
VPORT
  5
1D691833C1
330
1D69183389
100
AcDbSymbolTableRecord
100
AcDbViewportTableRecord
  2
4
 70
     0
 10
0.5
 20
0.5
 11
1.0
 21
1.0
 12
2.86209
 22
1.052651
 13
0.0
 23
0.0
 14
1.0
 24
1.0
 15
10.0
 25
10.0
 16
0.0
 26
0.0
 36
1.0
 17
0.0
 27
0.0
 37
0.0
 40
4.275206999999999
 41
1.772726999999999
 42
50.0
 43
0.0
 44
0.0
 50
0.0
 51
0.0
 71
     0
 72
   500
 73
     1
 74
     1
 75
     0
 76
     0
 77
     0
 78
     0
281
     0
 65
     1
110
0.0
120
0.0
130
0.0
111
1.0
121
0.0
131
0.0
112
0.0
122
1.0
132
0.0
 79
     0
146
0.0
  0
VPORT
  5
1D691833C2
330
1D69183389
100
AcDbSymbolTableRecord
100
AcDbViewportTableRecord
  2
4
 70
     0
 10
0.0
 20
0.5
 11
0.5
 21
1.0
 12
2.86209
 22
1.052651
 13
0.0
 23
0.0
 14
1.0
 24
1.0
 15
10.0
 25
10.0
 16
0.0
 26
0.0
 36
1.0
 17
0.0
 27
0.0
 37
0.0
 40
4.275206999999999
 41
1.772726999999999
 42
50.0
 43
0.0
 44
0.0
 50
0.0
 51
0.0
 71
     0
 72
   500
 73
     1
 74
     1
 75
     0
 76
     0
 77
     0
 78
     0
281
     0
 65
     1
110
0.0
120
0.0
130
0.0
111
1.0
121
0.0
131
0.0
112
0.0
122
1.0
132
0.0
 79
     0
146
0.0
  0
VPORT
  5
1D691833C3
330
1D69183389
100
AcDbSymbolTableRecord
100
AcDbViewportTableRecord
  2
4
 70
     0
 10
0.0
 20
0.0
 11
0.5
 21
0.5
 12
2.886858
 22
1.052651
 13
0.0
 23
0.0
 14
1.0
 24
1.0
 15
10.0
 25
10.0
 16
0.0
 26
0.0
 36
1.0
 17
0.0
 27
0.0
 37
0.0
 40
4.275206999999999
 41
1.784314
 42
50.0
 43
0.0
 44
0.0
 50
0.0
 51
0.0
 71
     0
 72
   500
 73
     1
 74
     1
 75
     0
 76
     0
 77
     0
 78
     0
281
     0
 65
     1
110
0.0
120
0.0
130
0.0
111
1.0
121
0.0
131
0.0
112
0.0
122
1.0
132
0.0
 79
     0
146
0.0
  0
VPORT
  5
1D69188838
330
1D69183389
100
AcDbSymbolTableRecord
100
AcDbViewportTableRecord
  2
*Active
 70
     0
 10
0.0
 20
0.0
 11
1.0
 21
1.0
 12
181.0115968951972
 22
141.5069499316554
 13
0.0
 23
0.0
 14
1.0
 24
1.0
 15
10.0
 25
10.0
 16
0.0
 26
0.0
 36
1.0
 17
0.0
 27
0.0
 37
0.0
 40
284.82828744361
 41
2.007438894792773
 42
50.0
 43
0.0
 44
0.0
 50
0.0
 51
0.0
 71
     0
 72
   500
 73
     1
 74
     0
 75
     0
 76
     0
 77
     0
 78
     0
281
     0
 65
     1
110
0.0
120
0.0
130
0.0
111
1.0
121
0.0
131
0.0
112
0.0
122
1.0
132
0.0
 79
     0
146
0.0
  0
ENDTAB
  0
TABLE
  2
LTYPE
  5
1D69183386
330
0
100
AcDbSymbolTable
 70
    26
  0
LTYPE
  5
1D69183393
330
1D69183386
100
AcDbSymbolTableRecord
100
AcDbLinetypeTableRecord
  2
BYBLOCK
 70
     0
  3

 72
    65
 73
     0
 40
0.0
  0
LTYPE
  5
1D69183394
330
1D69183386
100
AcDbSymbolTableRecord
100
AcDbLinetypeTableRecord
  2
BYLAYER
 70
     0
  3

 72
    65
 73
     0
 40
0.0
  0
LTYPE
  5
1D69183395
330
1D69183386
100
AcDbSymbolTableRecord
100
AcDbLinetypeTableRecord
  2
CONTINUOUS
 70
     0
  3
実線
 72
    65
 73
     0
 40
0.0
  0
LTYPE
  5
1D691833BA
330
1D69183386
100
AcDbSymbolTableRecord
100
AcDbLinetypeTableRecord
  2
PHANTOM
 70
     0
  3
_____ _ _ _____ _ _ _____ _ _ _____ _ _ ____
 72
    65
 73
     6
 40
2.5
 49
1.25
 74
     0
 49
-0.25
 74
     0
 49
0.25
 74
     0
 49
-0.25
 74
     0
 49
0.25
 74
     0
 49
-0.25
 74
     0
  0
LTYPE
  5
1D69185592
330
1D69183386
100
AcDbSymbolTableRecord
100
AcDbLinetypeTableRecord
  2
CENTER
 70
     0
  3
____ _ ____ _ ____ _ ____ _ ____ _ ____ _ ____
 72
    65
 73
     4
 40
2.0
 49
1.25
 74
     0
 49
-0.25
 74
     0
 49
0.25
 74
     0
 49
-0.25
 74
     0
  0
LTYPE
  5
1D69185593
330
1D69183386
100
AcDbSymbolTableRecord
100
AcDbLinetypeTableRecord
  2
HIDDEN
 70
     0
  3
_ _ _ _ _ _ _ _ _ _ _ _ _ _ _ _ _ _ _ _ _ _ _
 72
    65
 73
     2
 40
0.375
 49
0.25
 74
     0
 49
-0.125
 74
     0
  0
LTYPE
  5
1D69185594
330
1D69183386
100
AcDbSymbolTableRecord
100
AcDbLinetypeTableRecord
  2
DASHED
 70
     0
  3
__ __ __ __ __ __ __ __ __ __ __ __ __ __ __
 72
    65
 73
     2
 40
0.75
 49
0.5
 74
     0
 49
-0.25
 74
     0
  0
LTYPE
  5
1D69185595
330
1D69183386
100
AcDbSymbolTableRecord
100
AcDbLinetypeTableRecord
  2
BORDER
 70
     0
  3
Border __ __ . __ __ . __ __ . __ __ . __ __ .
 72
    65
 73
     6
 40
1.75
 49
0.5
 74
     0
 49
-0.25
 74
     0
 49
0.5
 74
     0
 49
-0.25
 74
     0
 49
0.0
 74
     0
 49
-0.25
 74
     0
  0
LTYPE
  5
1D69185596
330
1D69183386
100
AcDbSymbolTableRecord
100
AcDbLinetypeTableRecord
  2
BORDER2
 70
     0
  3
Border (.5x) __.__.__.__.__.__.__.__.__.__.__.
 72
    65
 73
     6
 40
0.875
 49
0.25
 74
     0
 49
-0.125
 74
     0
 49
0.25
 74
     0
 49
-0.125
 74
     0
 49
0.0
 74
     0
 49
-0.125
 74
     0
  0
LTYPE
  5
1D69185597
330
1D69183386
100
AcDbSymbolTableRecord
100
AcDbLinetypeTableRecord
  2
BORDERX2
 70
     0
  3
Border (2x) ____  ____  .  ____  ____  .  ___
 72
    65
 73
     6
 40
3.5
 49
1.0
 74
     0
 49
-0.5
 74
     0
 49
1.0
 74
     0
 49
-0.5
 74
     0
 49
0.0
 74
     0
 49
-0.5
 74
     0
  0
LTYPE
  5
1D69185598
330
1D69183386
100
AcDbSymbolTableRecord
100
AcDbLinetypeTableRecord
  2
CENTER2
 70
     0
  3
Center (.5x) ___ _ ___ _ ___ _ ___ _ ___ _ ___
 72
    65
 73
     4
 40
1.125
 49
0.75
 74
     0
 49
-0.125
 74
     0
 49
0.125
 74
     0
 49
-0.125
 74
     0
  0
LTYPE
  5
1D69185599
330
1D69183386
100
AcDbSymbolTableRecord
100
AcDbLinetypeTableRecord
  2
CENTERX2
 70
     0
  3
Center (2x) ________  __  ________  __  _____
 72
    65
 73
     4
 40
4.0
 49
2.5
 74
     0
 49
-0.5
 74
     0
 49
0.5
 74
     0
 49
-0.5
 74
     0
  0
LTYPE
  5
1D6918559A
330
1D69183386
100
AcDbSymbolTableRecord
100
AcDbLinetypeTableRecord
  2
DASHDOT
 70
     0
  3
Dash dot __ . __ . __ . __ . __ . __ . __ . __
 72
    65
 73
     4
 40
1.0
 49
0.5
 74
     0
 49
-0.25
 74
     0
 49
0.0
 74
     0
 49
-0.25
 74
     0
  0
LTYPE
  5
1D6918559B
330
1D69183386
100
AcDbSymbolTableRecord
100
AcDbLinetypeTableRecord
  2
DASHDOT2
 70
     0
  3
Dash dot (.5x) _._._._._._._._._._._._._._._.
 72
    65
 73
     4
 40
0.5
 49
0.25
 74
     0
 49
-0.125
 74
     0
 49
0.0
 74
     0
 49
-0.125
 74
     0
  0
LTYPE
  5
1D6918559C
330
1D69183386
100
AcDbSymbolTableRecord
100
AcDbLinetypeTableRecord
  2
DASHDOTX2
 70
     0
  3
Dash dot (2x) ____  .  ____  .  ____  .  ___
 72
    65
 73
     4
 40
2.0
 49
1.0
 74
     0
 49
-0.5
 74
     0
 49
0.0
 74
     0
 49
-0.5
 74
     0
  0
LTYPE
  5
1D6918559D
330
1D69183386
100
AcDbSymbolTableRecord
100
AcDbLinetypeTableRecord
  2
DASHED2
 70
     0
  3
Dashed (.5x) _ _ _ _ _ _ _ _ _ _ _ _ _ _ _ _ _
 72
    65
 73
     2
 40
0.375
 49
0.25
 74
     0
 49
-0.125
 74
     0
  0
LTYPE
  5
1D6918559E
330
1D69183386
100
AcDbSymbolTableRecord
100
AcDbLinetypeTableRecord
  2
DASHEDX2
 70
     0
  3
Dashed (2x) ____  ____  ____  ____  ____  ___
 72
    65
 73
     2
 40
1.5
 49
1.0
 74
     0
 49
-0.5
 74
     0
  0
LTYPE
  5
1D6918559F
330
1D69183386
100
AcDbSymbolTableRecord
100
AcDbLinetypeTableRecord
  2
DIVIDE
 70
     0
  3
Divide ____ . . ____ . . ____ . . ____ . . ____
 72
    65
 73
     6
 40
1.25
 49
0.5
 74
     0
 49
-0.25
 74
     0
 49
0.0
 74
     0
 49
-0.25
 74
     0
 49
0.0
 74
     0
 49
-0.25
 74
     0
  0
LTYPE
  5
1D691855A0
330
1D69183386
100
AcDbSymbolTableRecord
100
AcDbLinetypeTableRecord
  2
DIVIDE2
 70
     0
  3
Divide (.5x) __..__..__..__..__..__..__..__.._
 72
    65
 73
     6
 40
0.625
 49
0.25
 74
     0
 49
-0.125
 74
     0
 49
0.0
 74
     0
 49
-0.125
 74
     0
 49
0.0
 74
     0
 49
-0.125
 74
     0
  0
LTYPE
  5
1D691855A1
330
1D69183386
100
AcDbSymbolTableRecord
100
AcDbLinetypeTableRecord
  2
DIVIDEX2
 70
     0
  3
Divide (2x) ________  .  .  ________  .  .  _
 72
    65
 73
     6
 40
2.5
 49
1.0
 74
     0
 49
-0.5
 74
     0
 49
0.0
 74
     0
 49
-0.5
 74
     0
 49
0.0
 74
     0
 49
-0.5
 74
     0
  0
LTYPE
  5
1D691855A2
330
1D69183386
100
AcDbSymbolTableRecord
100
AcDbLinetypeTableRecord
  2
DOT
 70
     0
  3
Dot . . . . . . . . . . . . . . . . . . . . . .
 72
    65
 73
     2
 40
0.25
 49
0.0
 74
     0
 49
-0.25
 74
     0
  0
LTYPE
  5
1D691855A3
330
1D69183386
100
AcDbSymbolTableRecord
100
AcDbLinetypeTableRecord
  2
DOT2
 70
     0
  3
Dot (.5x) .....................................
 72
    65
 73
     2
 40
0.125
 49
0.0
 74
     0
 49
-0.125
 74
     0
  0
LTYPE
  5
1D691855A4
330
1D69183386
100
AcDbSymbolTableRecord
100
AcDbLinetypeTableRecord
  2
DOTX2
 70
     0
  3
Dot (2x) .  .  .  .  .  .  .  .  .  .  .  .  . 
 72
    65
 73
     2
 40
0.5
 49
0.0
 74
     0
 49
-0.5
 74
     0
  0
LTYPE
  5
1D691855A5
330
1D69183386
100
AcDbSymbolTableRecord
100
AcDbLinetypeTableRecord
  2
HIDDEN2
 70
     0
  3
Hidden (.5x) _ _ _ _ _ _ _ _ _ _ _ _ _ _ _ _ _
 72
    65
 73
     2
 40
0.1875
 49
0.125
 74
     0
 49
-0.0625
 74
     0
  0
LTYPE
  5
1D691855A6
330
1D69183386
100
AcDbSymbolTableRecord
100
AcDbLinetypeTableRecord
  2
HIDDENX2
 70
     0
  3
Hidden (2x) ____ ____ ____ ____ ____ ____ ____
 72
    65
 73
     2
 40
0.75
 49
0.5
 74
     0
 49
-0.25
 74
     0
  0
LTYPE
  5
1D691855A7
330
1D69183386
100
AcDbSymbolTableRecord
100
AcDbLinetypeTableRecord
  2
PHANTOM2
 70
     0
  3
Phantom (.5x) ___ _ _ ___ _ _ ___ _ _ ___ _ _
 72
    65
 73
     6
 40
1.25
 49
0.625
 74
     0
 49
-0.125
 74
     0
 49
0.125
 74
     0
 49
-0.125
 74
     0
 49
0.125
 74
     0
 49
-0.125
 74
     0
  0
LTYPE
  5
1D691855A8
330
1D69183386
100
AcDbSymbolTableRecord
100
AcDbLinetypeTableRecord
  2
PHANTOMX2
 70
     0
  3
Phantom (2x) ____________    ____    ____   _
 72
    65
 73
     6
 40
5.0
 49
2.5
 74
     0
 49
-0.5
 74
     0
 49
0.5
 74
     0
 49
-0.5
 74
     0
 49
0.5
 74
     0
 49
-0.5
 74
     0
  0
LTYPE
  5
1D69188349
330
1D69183386
100
AcDbSymbolTableRecord
100
AcDbLinetypeTableRecord
  2
ACAD_ISO09W100
 70
     0
  3
ISO long-dash double-short-dash ____ __ __ ____
 72
    65
 73
     6
 40
45.0
 49
24.0
 74
     0
 49
-3.0
 74
     0
 49
6.0
 74
     0
 49
-3.0
 74
     0
 49
6.0
 74
     0
 49
-3.0
 74
     0
  0
ENDTAB
  0
TABLE
  2
LAYER
  5
1D69183383
102
{ACAD_XDICTIONARY
360
1D691847F3
102
}
330
0
100
AcDbSymbolTable
 70
    28
  0
LAYER
  5
1D69183390
330
1D69183383
100
AcDbSymbolTableRecord
100
AcDbLayerTableRecord
  2
0
 70
     0
 62
     7
  6
CONTINUOUS
370
    -3
390
1D691837E5
  0
LAYER
  5
1D691833C9
330
1D69183383
100
AcDbSymbolTableRecord
100
AcDbLayerTableRecord
  2
NITEN
 70
     0
 62
     2
  6
PHANTOM
370
    -3
390
1D691837E5
  0
LAYER
  5
1D691833CA
330
1D69183383
100
AcDbSymbolTableRecord
100
AcDbLayerTableRecord
  2
HATCH
 70
     0
 62
     4
  6
CONTINUOUS
370
    -3
390
1D691837E5
  0
LAYER
  5
1D691833CB
330
1D69183383
100
AcDbSymbolTableRecord
100
AcDbLayerTableRecord
  2
SUNPOU
 70
     0
 62
     3
  6
CONTINUOUS
370
    -3
390
1D691837E5
  0
LAYER
  5
1D691833CC
330
1D69183383
100
AcDbSymbolTableRecord
100
AcDbLayerTableRecord
  2
TEXT
 70
     0
 62
     3
  6
CONTINUOUS
370
    -3
390
1D691837E5
  0
LAYER
  5
1D691833CD
330
1D69183383
100
AcDbSymbolTableRecord
100
AcDbLayerTableRecord
  2
SAISEN
 70
     0
 62
     4
  6
CONTINUOUS
370
    -3
390
1D691837E5
  0
LAYER
  5
1D691833CE
330
1D69183383
100
AcDbSymbolTableRecord
100
AcDbLayerTableRecord
  2
JISSEN
 70
     0
 62
     7
  6
CONTINUOUS
370
    -3
390
1D691837E5
  0
LAYER
  5
1D691833D2
330
1D69183383
100
AcDbSymbolTableRecord
100
AcDbLayerTableRecord
  2
WAKU
 70
     0
 62
     5
  6
CONTINUOUS
370
    -3
390
1D691837E5
  0
LAYER
  5
1D691850DF
330
1D69183383
100
AcDbSymbolTableRecord
100
AcDbLayerTableRecord
  2
DEFPOINTS
 70
     0
 62
     7
  6
CONTINUOUS
290
     0
370
    -3
390
1D691837E5
  0
LAYER
  5
1D691855A9
330
1D69183383
100
AcDbSymbolTableRecord
100
AcDbLayerTableRecord
  2
ITTEN
 70
     0
 62
     1
  6
CENTER
370
    -3
390
1D691837E5
  0
LAYER
  5
1D691855AA
330
1D69183383
100
AcDbSymbolTableRecord
100
AcDbLayerTableRecord
  2
TENSEN
 70
     0
 62
     2
  6
HIDDEN
370
    -3
390
1D691837E5
  0
LAYER
  5
1D691855AB
330
1D69183383
100
AcDbSymbolTableRecord
100
AcDbLayerTableRecord
  2
HOJYO
 70
     0
 62
     7
  6
CONTINUOUS
370
    -3
390
1D691837E5
  0
LAYER
  5
1D691855AC
330
1D69183383
100
AcDbSymbolTableRecord
100
AcDbLayerTableRecord
  2
BORDER
 70
     0
 62
     7
  6
CONTINUOUS
370
    -3
390
1D691855D5
  0
LAYER
  5
1D691855AD
330
1D69183383
100
AcDbSymbolTableRecord
100
AcDbLayerTableRecord
  2
HIDDEN
 70
     0
 62
     7
  6
HIDDEN
370
    -3
390
1D691837E5
  0
LAYER
  5
1D691855AE
330
1D69183383
100
AcDbSymbolTableRecord
100
AcDbLayerTableRecord
  2
ASSIST
 70
     0
 62
     7
  6
CONTINUOUS
370
    -3
390
1D691837E5
  0
LAYER
  5
1D691855AF
330
1D69183383
100
AcDbSymbolTableRecord
100
AcDbLayerTableRecord
  2
SCALE
 70
     0
 62
     4
  6
CONTINUOUS
370
    -3
390
1D691837E5
  0
LAYER
  5
1D691855B0
330
1D69183383
100
AcDbSymbolTableRecord
100
AcDbLayerTableRecord
  2
HASEN
 70
     0
 62
     2
  6
DASHED
370
    -3
390
1D691837E5
  0
LAYER
  5
1D691855B1
330
1D69183383
100
AcDbSymbolTableRecord
100
AcDbLayerTableRecord
  2
HOJO
 70
     0
 62
     6
  6
CONTINUOUS
370
    -3
390
1D691837E5
  0
LAYER
  5
1D691855B2
330
1D69183383
100
AcDbSymbolTableRecord
100
AcDbLayerTableRecord
  2
TXT1
 70
     0
 62
     7
  6
CONTINUOUS
370
    -3
390
1D691837E5
  0
LAYER
  5
1D691855B3
330
1D69183383
100
AcDbSymbolTableRecord
100
AcDbLayerTableRecord
  2
IMAGE
 70
     0
 62
     6
  6
PHANTOM
370
    -3
390
1D691837E5
  0
LAYER
  5
1D691855B4
330
1D69183383
100
AcDbSymbolTableRecord
100
AcDbLayerTableRecord
  2
HOJOORG
 70
     0
 62
     1
  6
CONTINUOUS
370
    -3
390
1D691837E5
  0
LAYER
  5
1D691855B5
330
1D69183383
100
AcDbSymbolTableRecord
100
AcDbLayerTableRecord
  2
POINT
 70
     0
 62
     7
  6
CONTINUOUS
370
    -3
390
1D691837E5
  0
LAYER
  5
1D691855B6
330
1D69183383
100
AcDbSymbolTableRecord
100
AcDbLayerTableRecord
  2
1
 70
     0
 62
     4
  6
CONTINUOUS
370
    -3
390
1D691837E5
  0
LAYER
  5
1D691855B7
330
1D69183383
100
AcDbSymbolTableRecord
100
AcDbLayerTableRecord
  2
CENTER
 70
     0
 62
     1
  6
CENTER
370
    -3
390
1D691837E5
  0
LAYER
  5
1D691855B8
330
1D69183383
100
AcDbSymbolTableRecord
100
AcDbLayerTableRecord
  2
ERROR
 70
     0
 62
     1
  6
HIDDEN
370
    -3
390
1D691837E5
  0
LAYER
  5
1D691855B9
330
1D69183383
100
AcDbSymbolTableRecord
100
AcDbLayerTableRecord
  2
FRAME
 70
     0
 62
     2
  6
CONTINUOUS
370
    -3
390
1D691837E5
  0
LAYER
  5
1D691855BA
330
1D69183383
100
AcDbSymbolTableRecord
100
AcDbLayerTableRecord
  2
TEMPORARY
 70
     0
 62
     5
  6
DASHED
370
    -3
390
1D691837E5
  0
LAYER
  5
1D691855BB
330
1D69183383
100
AcDbSymbolTableRecord
100
AcDbLayerTableRecord
  2
WINDOW
 70
     0
 62
     3
  6
CONTINUOUS
370
    -3
390
1D691837E5
  0
ENDTAB
  0
TABLE
  2
STYLE
  5
1D69183384
330
0
100
AcDbSymbolTable
 70
    14
  0
STYLE
  5
1D69183391
330
1D69183384
100
AcDbSymbolTableRecord
100
AcDbTextStyleTableRecord
  2
STANDARD
 70
     0
 40
0.0
 41
1.0
 50
0.0
 71
     0
 42
0.2
  3
ROMANS
  4
EXTFONT
  0
STYLE
  5
1D691833B3
330
1D69183384
100
AcDbSymbolTableRecord
100
AcDbTextStyleTableRecord
  2
K
 70
     0
 40
0.0
 41
1.0
 50
0.0
 71
     0
 42
3.0
  3
ROMANS.shx
  4
bigfont.shx
  0
STYLE
  5
1D691833B5
330
1D69183384
100
AcDbSymbolTableRecord
100
AcDbTextStyleTableRecord
  2
BIGFONT
 70
     0
 40
0.0
 41
1.0
 50
0.0
 71
     0
 42
1.5
  3
txt.shx
  4
bigfont
  0
STYLE
  5
1D691855BC
330
1D69183384
100
AcDbSymbolTableRecord
100
AcDbTextStyleTableRecord
  2
ROMANS
 70
     0
 40
0.0
 41
0.8
 50
0.0
 71
     0
 42
6.0
  3
romans
  4

  0
STYLE
  5
1D691855BD
330
1D69183384
100
AcDbSymbolTableRecord
100
AcDbTextStyleTableRecord
  2
DIMENSION
 70
     0
 40
0.0
 41
1.0
 50
0.0
 71
     0
 42
2.5
  3
romans.shx
  4
bigfont.shx
  0
STYLE
  5
1D691855BE
330
1D69183384
100
AcDbSymbolTableRecord
100
AcDbTextStyleTableRecord
  2
ｽﾀｲﾙ1
 70
     0
 40
0.0
 41
1.0
 50
0.0
 71
     0
 42
1.5
  3
HGRSMP.TTF
  4

1001
ACAD
1000
HGMaruGothicMPRO
1071
    32817
  0
STYLE
  5
1D691855BF
330
1D69183384
100
AcDbSymbolTableRecord
100
AcDbTextStyleTableRecord
  2
SCRIPTC
 70
     0
 40
0.0
 41
1.0
 50
0.0
 71
     0
 42
10.0
  3
scriptc
  4

  0
STYLE
  5
1D691855C0
330
1D69183384
100
AcDbSymbolTableRecord
100
AcDbTextStyleTableRecord
  2
NAME
 70
     0
 40
0.0
 41
2.5
 50
0.0
 71
     0
 42
2.5
  3
Arphic Gyokaisho Heavy JIS.ttf
  4

1001
ACAD
1000
Arphic Gyokaisho Heavy JIS
1071
    32817
  0
STYLE
  5
1D691855C1
330
1D69183384
100
AcDbSymbolTableRecord
100
AcDbTextStyleTableRecord
  2
SCRIPTS
 70
     0
 40
0.0
 41
1.0
 50
0.0
 71
     0
 42
11.0
  3
scripts
  4

  0
STYLE
  5
1D691855C2
330
1D69183384
100
AcDbSymbolTableRecord
100
AcDbTextStyleTableRecord
  2
CMP-SET
 70
     0
 40
0.0
 41
1.0
 50
0.0
 71
     0
 42
2.5
  3
COMPLEX
  4
BIGFONT
  0
STYLE
  5
1D691855C3
330
1D69183384
100
AcDbSymbolTableRecord
100
AcDbTextStyleTableRecord
  2
ITL-SET
 70
     0
 40
0.0
 41
1.0
 50
0.0
 71
     0
 42
2.5
  3
ITALIC
  4
BIGFONT
  0
STYLE
  5
1D691855C4
330
1D69183384
100
AcDbSymbolTableRecord
100
AcDbTextStyleTableRecord
  2
MONO-SET
 70
     0
 40
0.0
 41
1.0
 50
0.0
 71
     0
 42
2.5
  3
MONOTXT
  4
BIGFONT
  0
STYLE
  5
1D691855C5
330
1D69183384
100
AcDbSymbolTableRecord
100
AcDbTextStyleTableRecord
  2
SMP-SET
 70
     0
 40
0.0
 41
1.0
 50
0.0
 71
     0
 42
2.5
  3
SIMPLEX
  4
BIGFONT
  0
STYLE
  5
1D691855C6
330
1D69183384
100
AcDbSymbolTableRecord
100
AcDbTextStyleTableRecord
  2
STYLE1
 70
     0
 40
0.0
 41
1.0
 50
0.0
 71
     0
 42
2.5
  3
scripts.shx
  4
BIGFONT.shx
  0
ENDTAB
  0
TABLE
  2
VIEW
  5
1D69183387
330
0
100
AcDbSymbolTable
 70
     0
  0
ENDTAB
  0
TABLE
  2
UCS
  5
1D69183388
330
0
100
AcDbSymbolTable
 70
     0
  0
ENDTAB
  0
TABLE
  2
APPID
  5
1D6918338A
330
0
100
AcDbSymbolTable
 70
     8
  0
APPID
  5
1D69183392
330
1D6918338A
100
AcDbSymbolTableRecord
100
AcDbRegAppTableRecord
  2
ACAD
 70
     0
  0
APPID
  5
1D691855CE
330
1D6918338A
100
AcDbSymbolTableRecord
100
AcDbRegAppTableRecord
  2
CONTENTBLOCKICON
 70
     0
  0
APPID
  5
1D691855CF
330
1D6918338A
100
AcDbSymbolTableRecord
100
AcDbRegAppTableRecord
  2
X_OBJNAME
 70
     0
  0
APPID
  5
1D691855D0
330
1D6918338A
100
AcDbSymbolTableRecord
100
AcDbRegAppTableRecord
  2
X_PARAM_BALLOON
 70
     0
  0
APPID
  5
1D691855D1
330
1D6918338A
100
AcDbSymbolTableRecord
100
AcDbRegAppTableRecord
  2
X_PARAM_TXTPATERN
 70
     0
  0
APPID
  5
1D691855D2
330
1D6918338A
100
AcDbSymbolTableRecord
100
AcDbRegAppTableRecord
  2
X_PARAM_CTXTPATERN
 70
     0
  0
APPID
  5
1D691855D3
330
1D6918338A
100
AcDbSymbolTableRecord
100
AcDbRegAppTableRecord
  2
X_PARAM_SYSVAL
 70
     0
  0
APPID
  5
1D691855D4
330
1D6918338A
100
AcDbSymbolTableRecord
100
AcDbRegAppTableRecord
  2
X_DEFINELIST
 70
     0
  0
ENDTAB
  0
TABLE
  2
DIMSTYLE
  5
1D6918338B
330
0
100
AcDbSymbolTable
 70
     8
100
AcDbDimStyleTable
 71
     0
  0
DIMSTYLE
105
1D691833C6
330
1D6918338B
100
AcDbSymbolTableRecord
100
AcDbDimStyleTableRecord
  2
IMAO
 70
     0
 41
1.5
 42
1.0
 43
6.0
 44
1.0
 47
495.0
 73
     0
 74
     0
 77
     1
 78
     8
140
3.0
141
0.0
172
     1
174
     1
271
     2
272
     2
284
     8
285
     8
286
     8
340
1D691833B5
341
1D691833A3
342
1D691833A3
343
1D691833A3
344
1D691833A3
  0
DIMSTYLE
105
1D691855C7
330
1D6918338B
100
AcDbSymbolTableRecord
100
AcDbDimStyleTableRecord
  2
ISO-25
 70
     0
 41
2.5
 42
0.625
 43
3.75
 44
1.25
 73
     0
 74
     0
 77
     1
 78
     8
140
2.5
141
2.5
143
0.03937007874016
147
0.625
171
     3
172
     1
271
     2
272
     2
274
     3
278
    44
283
     0
284
     8
340
1D69183391
  0
DIMSTYLE
105
1D691855C8
330
1D6918338B
100
AcDbSymbolTableRecord
100
AcDbDimStyleTableRecord
  2
ｺﾋﾟｰ - IMAO2
 70
     0
 40
0.4
 41
0.75
 42
0.0
 43
0.0
 44
0.3
 47
495.0
 73
     0
 74
     0
 77
     1
 78
     8
140
1.5
141
0.0
147
0.5
172
     1
176
     3
177
     3
178
     3
271
     1
272
     1
279
     2
284
     8
285
     8
286
     8
340
1D691833B3
341
1D6918553F
342
1D6918553F
  0
DIMSTYLE
105
1D691855C9
330
1D6918338B
100
AcDbSymbolTableRecord
100
AcDbDimStyleTableRecord
  2
STANDARD
 70
     0
 40
0.5
 41
2.0
 42
0.1
 43
10.0
 44
1.5
 73
     0
 74
     0
 78
     8
140
3.0
145
1.0
147
0.1
172
     1
176
   256
177
   256
178
   256
271
     2
272
     2
284
     8
340
1D691855BD
341
1D69185539
342
1D69185539
  0
DIMSTYLE
105
1D691855CA
330
1D6918338B
100
AcDbSymbolTableRecord
100
AcDbDimStyleTableRecord
  2
IMAO_0.1
 70
     0
 40
0.1
 41
1.0
 42
1.0
 43
6.0
 44
1.0
 73
     0
 74
     0
 77
     3
 78
     8
140
3.0
141
1.0
147
1.0
172
     1
176
   256
177
   256
178
   256
340
1D691833B3
341
1D6918553F
342
1D6918553F
371
    -1
372
    -1
  0
DIMSTYLE
105
1D691855CB
330
1D6918338B
100
AcDbSymbolTableRecord
100
AcDbDimStyleTableRecord
  2
IMAO_0.2
 70
     0
 40
0.2
 41
1.5
 42
1.0
 43
6.0
 44
1.0
 73
     0
 74
     0
 77
     3
 78
     8
140
3.0
141
1.0
147
1.0
172
     1
176
   256
177
   256
178
   256
340
1D691833B3
341
1D6918553F
342
1D6918553F
371
    -1
372
    -1
  0
DIMSTYLE
105
1D691855CC
330
1D6918338B
100
AcDbSymbolTableRecord
100
AcDbDimStyleTableRecord
  2
ｺﾋﾟｰ - IMAO
 70
     0
 40
0.5
 41
1.5
 42
0.0
 43
1.5
 44
0.5
 47
495.0
 73
     0
 74
     0
 77
     1
 78
     8
140
1.5
141
0.0
147
0.5
172
     1
176
     3
177
     3
178
     3
271
     2
272
     2
279
     2
340
1D691833B3
341
1D6918553F
342
1D6918553F
  0
DIMSTYLE
105
1D691855CD
330
1D6918338B
100
AcDbSymbolTableRecord
100
AcDbDimStyleTableRecord
  2
ｺﾋﾟｰ(2) - IMAO
 70
     0
 41
1.199999999999999
 42
0.0
 43
0.6
 44
0.5
 47
495.0
 73
     0
 74
     0
 77
     1
 78
     8
140
1.199999999999999
141
0.0
147
0.3
172
     1
176
     3
177
     3
178
     3
179
     1
271
     2
272
     2
279
     2
340
1D69183391
341
1D6918553F
342
1D6918553F
  0
ENDTAB
  0
TABLE
  2
BLOCK_RECORD
  5
1D69183382
330
0
100
AcDbSymbolTable
 70
     7
  0
BLOCK_RECORD
  5
1D69183399
102
{ACAD_XDICTIONARY
360
1D69183A5C
102
}
330
1D69183382
100
AcDbSymbolTableRecord
100
AcDbBlockTableRecord
  2
*MODEL_SPACE
340
1D69185372
  0
BLOCK_RECORD
  5
1D69183396
102
{ACAD_XDICTIONARY
360
1D69183A5A
102
}
330
1D69183382
100
AcDbSymbolTableRecord
100
AcDbBlockTableRecord
  2
*PAPER_SPACE
340
1D69185373
  0
BLOCK_RECORD
  5
1D691833A3
330
1D69183382
100
AcDbSymbolTableRecord
100
AcDbBlockTableRecord
  2
ARROWANG
340
0
  0
BLOCK_RECORD
  5
1D69184B8F
330
1D69183382
100
AcDbSymbolTableRecord
100
AcDbBlockTableRecord
  2
ARROW
340
0
102
{BLKREFS
331
1D69187319
331
1D69187385
102
}
  0
BLOCK_RECORD
  5
1D69184B95
330
1D69183382
100
AcDbSymbolTableRecord
100
AcDbBlockTableRecord
  2
WAKU
340
0
102
{BLKREFS
331
1D69187383
331
1D6918738A
102
}
  0
BLOCK_RECORD
  5
1D69185539
330
1D69183382
100
AcDbSymbolTableRecord
100
AcDbBlockTableRecord
  2
AR_OPEN
340
0
  0
BLOCK_RECORD
  5
1D6918553F
330
1D69183382
100
AcDbSymbolTableRecord
100
AcDbBlockTableRecord
  2
_Open30
340
0
  0
BLOCK_RECORD
  5
1D69186D51
330
1D69183382
100
AcDbSymbolTableRecord
100
AcDbBlockTableRecord
  2
*X5
340
0
102
{BLKREFS
331
1D6918732D
331
1D6918733C
102
}
  0
BLOCK_RECORD
  5
1D69186D65
330
1D69183382
100
AcDbSymbolTableRecord
100
AcDbBlockTableRecord
  2
*X6
340
0
102
{BLKREFS
331
1D6918727C
331
1D691872A5
102
}
  0
ENDTAB
  0
ENDSEC
  0
SECTION
  2
BLOCKS
  0
BLOCK
  5
1D691833D6
330
1D69183399
100
AcDbEntity
  8
0
100
AcDbBlockBegin
  2
*MODEL_SPACE
 70
     0
 10
0.0
 20
0.0
 30
0.0
  3
*MODEL_SPACE
  1

  0
ENDBLK
  5
1D691833D7
330
1D69183399
100
AcDbEntity
  8
0
100
AcDbBlockEnd
  0
BLOCK
  5
1D691833D4
330
1D69183396
100
AcDbEntity
 67
     1
  8
0
100
AcDbBlockBegin
  2
*PAPER_SPACE
 70
     0
 10
0.0
 20
0.0
 30
0.0
  3
*PAPER_SPACE
  1

  0
ENDBLK
  5
1D691833D5
330
1D69183396
100
AcDbEntity
 67
     1
  8
0
100
AcDbBlockEnd
  0
BLOCK
  5
1D
330
1D691833A3
100
AcDbEntity
  8
0
100
AcDbBlockBegin
  2
ARROWANG
 70
     0
 10
0.0
 20
0.0
 30
0.0
  3
ARROWANG
  1

  0
LINE
  5
1E
330
1D691833A3
100
AcDbEntity
  8
SUNPOU
100
AcDbLine
 10
0.0
 20
0.0
 30
0.0
 11
-1.5
 21
0.401924
 31
0.0
  0
LINE
  5
1F
330
1D691833A3
100
AcDbEntity
  8
SUNPOU
100
AcDbLine
 10
0.0
 20
0.0
 30
0.0
 11
-1.5
 21
-0.401924
 31
0.0
  0
ENDBLK
  5
20
330
1D691833A3
100
AcDbEntity
  8
0
100
AcDbBlockEnd
  0
BLOCK
  5
1D69184B93
330
1D69184B8F
100
AcDbEntity
  8
0
100
AcDbBlockBegin
  2
ARROW
 70
     0
 10
1.0
 20
0.5
 30
0.0
  3
ARROW
  1

  0
LINE
  5
1D69184B90
330
1D69184B8F
100
AcDbEntity
  8
0
100
AcDbLine
 10
1.0
 20
0.5
 30
0.0
 11
-0.5000000000000214
 21
0.0980762113533018
 31
0.0
  0
LINE
  5
1D69184B91
330
1D69184B8F
100
AcDbEntity
  8
0
100
AcDbLine
 10
0.0
 20
0.5
 30
0.0
 11
1.0
 21
0.5
 31
0.0
  0
LINE
  5
1D69184B92
330
1D69184B8F
100
AcDbEntity
  8
0
100
AcDbLine
 10
1.0
 20
0.5
 30
0.0
 11
-0.4999999999999575
 21
0.9019237886467408
 31
0.0
  0
ENDBLK
  5
1D69184B94
330
1D69184B8F
100
AcDbEntity
  8
0
100
AcDbBlockEnd
  0
BLOCK
  5
1D69184B9A
330
1D69184B95
100
AcDbEntity
  8
0
100
AcDbBlockBegin
  2
WAKU
 70
     0
 10
0.0
 20
0.0
 30
0.0
  3
WAKU
  1

  0
LINE
  5
1D69184B96
330
1D69184B95
100
AcDbEntity
  8
WAKU
100
AcDbLine
 10
0.9999999959999998
 20
0.0
 30
0.0
 11
0.9999999959999998
 21
0.9999999999999998
 31
0.0
  0
LINE
  5
1D69184B97
330
1D69184B95
100
AcDbEntity
  8
WAKU
100
AcDbLine
 10
0.0
 20
0.9999999999999998
 30
0.0
 11
0.9999999959999998
 21
0.9999999999999998
 31
0.0
  0
LINE
  5
1D69184B98
330
1D69184B95
100
AcDbEntity
  8
WAKU
100
AcDbLine
 10
0.9999999959999998
 20
0.0
 30
0.0
 11
0.0
 21
0.0
 31
0.0
  0
LINE
  5
1D69184B99
330
1D69184B95
100
AcDbEntity
  8
WAKU
100
AcDbLine
 10
0.0
 20
0.0
 30
0.0
 11
0.0
 21
0.9999999999999998
 31
0.0
  0
ENDBLK
  5
1D69184B9B
330
1D69184B95
100
AcDbEntity
  8
0
100
AcDbBlockEnd
  0
BLOCK
  5
1D6918553D
330
1D69185539
100
AcDbEntity
  8
0
100
AcDbBlockBegin
  2
AR_OPEN
 70
     0
 10
0.0
 20
0.0
 30
0.0
  3
AR_OPEN
  1

  0
LINE
  5
1D6918553A
330
1D69185539
100
AcDbEntity
  8
0
 62
     0
100
AcDbLine
 10
-1.0
 20
0.0
 30
0.0
 11
0.0
 21
0.0
 31
0.0
  0
LINE
  5
1D6918553B
330
1D69185539
100
AcDbEntity
  8
0
 62
     0
100
AcDbLine
 10
0.0
 20
0.0
 30
0.0
 11
-1.0
 21
0.2679491924311037
 31
0.0
  0
LINE
  5
1D6918553C
330
1D69185539
100
AcDbEntity
  8
0
 62
     0
100
AcDbLine
 10
0.0
 20
0.0
 30
0.0
 11
-1.0
 21
-0.2679491924311037
 31
0.0
  0
ENDBLK
  5
1D6918553E
330
1D69185539
100
AcDbEntity
  8
0
100
AcDbBlockEnd
  0
BLOCK
  5
1D69185543
330
1D6918553F
100
AcDbEntity
  8
0
100
AcDbBlockBegin
  2
_Open30
 70
     0
 10
0.0
 20
0.0
 30
0.0
  3
_Open30
  1

  0
LINE
  5
1D69185540
330
1D6918553F
100
AcDbEntity
  8
0
  6
ByBlock
 62
     0
370
    -2
100
AcDbLine
 10
-1.0
 20
0.26794919
 30
0.0
 11
0.0
 21
0.0
 31
0.0
  0
LINE
  5
1D69185541
330
1D6918553F
100
AcDbEntity
  8
0
  6
ByBlock
 62
     0
370
    -2
100
AcDbLine
 10
0.0
 20
0.0
 30
0.0
 11
-1.0
 21
-0.26794919
 31
0.0
  0
LINE
  5
1D69185542
330
1D6918553F
100
AcDbEntity
  8
0
  6
ByBlock
 62
     0
370
    -2
100
AcDbLine
 10
0.0
 20
0.0
 30
0.0
 11
-1.0
 21
0.0
 31
0.0
  0
ENDBLK
  5
1D69185544
330
1D6918553F
100
AcDbEntity
  8
0
100
AcDbBlockEnd
  0
BLOCK
  5
1D69186D63
330
1D69186D51
100
AcDbEntity
  8
0
100
AcDbBlockBegin
  2
*X5
 70
     1
 10
0.0
 20
0.0
 30
0.0
  3
*X5
  1

  0
LINE
  5
1D69186D52
330
1D69186D51
100
AcDbEntity
  8
0
 62
     0
100
AcDbLine
 10
42.91207191918546
 20
139.0785941605559
 30
0.0
 11
47.91207191918545
 21
144.0785941605559
 31
0.0
  0
LINE
  5
1D69186D53
330
1D69186D51
100
AcDbEntity
  8
0
 62
     0
100
AcDbLine
 10
40.08364479443928
 20
139.0785941605559
 30
0.0
 11
45.08364479443929
 21
144.0785941605559
 31
0.0
  0
LINE
  5
1D69186D54
330
1D69186D51
100
AcDbEntity
  8
0
 62
     0
100
AcDbLine
 10
37.25521766969309
 20
139.0785941605559
 30
0.0
 11
42.25521766969309
 21
144.0785941605559
 31
0.0
  0
LINE
  5
1D69186D55
330
1D69186D51
100
AcDbEntity
  8
0
 62
     0
100
AcDbLine
 10
34.42679054494689
 20
139.0785941605559
 30
0.0
 11
39.42679054494689
 21
144.0785941605559
 31
0.0
  0
LINE
  5
1D69186D56
330
1D69186D51
100
AcDbEntity
  8
0
 62
     0
100
AcDbLine
 10
31.59836342020071
 20
139.0785941605559
 30
0.0
 11
36.59836342020072
 21
144.0785941605559
 31
0.0
  0
LINE
  5
1D69186D57
330
1D69186D51
100
AcDbEntity
  8
0
 62
     0
100
AcDbLine
 10
28.76993629545451
 20
139.0785941605559
 30
0.0
 11
33.76993629545452
 21
144.0785941605559
 31
0.0
  0
LINE
  5
1D69186D58
330
1D69186D51
100
AcDbEntity
  8
0
 62
     0
100
AcDbLine
 10
25.94150917070832
 20
139.0785941605559
 30
0.0
 11
30.94150917070832
 21
144.0785941605559
 31
0.0
  0
LINE
  5
1D69186D59
330
1D69186D51
100
AcDbEntity
  8
0
 62
     0
100
AcDbLine
 10
24.20506654826371
 20
140.1705786628574
 30
0.0
 11
28.11308204596214
 21
144.0785941605559
 31
0.0
  0
LINE
  5
1D69186D5A
330
1D69186D51
100
AcDbEntity
  8
0
 62
     0
100
AcDbLine
 10
22.72841915269601
 20
141.522358392036
 30
0.0
 11
25.28465492121595
 21
144.0785941605559
 31
0.0
  0
LINE
  5
1D69186D5B
330
1D69186D51
100
AcDbEntity
  8
0
 62
     0
100
AcDbLine
 10
21.47523861350567
 20
143.0976049775918
 30
0.0
 11
22.45622779646976
 21
144.0785941605559
 31
0.0
  0
LINE
  5
1D69186D5C
330
1D69186D51
100
AcDbEntity
  8
0
 62
     0
100
AcDbLine
 10
45.74049904393166
 20
139.0785941605559
 30
0.0
 11
50.74049904393167
 21
144.0785941605559
 31
0.0
  0
LINE
  5
1D69186D5D
330
1D69186D51
100
AcDbEntity
  8
0
 62
     0
100
AcDbLine
 10
48.56892616867785
 20
139.0785941605559
 30
0.0
 11
53.56892616867786
 21
144.0785941605559
 31
0.0
  0
LINE
  5
1D69186D5E
330
1D69186D51
100
AcDbEntity
  8
0
 62
     0
100
AcDbLine
 10
51.39735329342403
 20
139.0785941605559
 30
0.0
 11
56.39735329342404
 21
144.0785941605559
 31
0.0
  0
LINE
  5
1D69186D5F
330
1D69186D51
100
AcDbEntity
  8
0
 62
     0
100
AcDbLine
 10
54.22578041817022
 20
139.0785941605559
 30
0.0
 11
59.22578041817022
 21
144.0785941605559
 31
0.0
  0
LINE
  5
1D69186D60
330
1D69186D51
100
AcDbEntity
  8
0
 62
     0
100
AcDbLine
 10
57.0542075429164
 20
139.0785941605559
 30
0.0
 11
62.05420754291642
 21
144.0785941605559
 31
0.0
  0
LINE
  5
1D69186D61
330
1D69186D51
100
AcDbEntity
  8
0
 62
     0
100
AcDbLine
 10
59.8826346676626
 20
139.0785941605559
 30
0.0
 11
64.88263466766261
 21
144.0785941605559
 31
0.0
  0
LINE
  5
1D69186D62
330
1D69186D51
100
AcDbEntity
  8
0
 62
     0
100
AcDbLine
 10
62.71106179240879
 20
139.0785941605559
 30
0.0
 11
65.0
 21
141.3675323681469
 31
0.0
  0
ENDBLK
  5
1D69186D64
330
1D69186D51
100
AcDbEntity
  8
0
100
AcDbBlockEnd
  0
BLOCK
  5
1D69186D77
330
1D69186D65
100
AcDbEntity
  8
0
100
AcDbBlockBegin
  2
*X6
 70
     1
 10
0.0
 20
0.0
 30
0.0
  3
*X6
  1

  0
LINE
  5
1D69186D66
330
1D69186D65
100
AcDbEntity
  8
0
 62
     0
100
AcDbLine
 10
42.91207191918546
 20
139.0785941605559
 30
0.0
 11
47.91207191918545
 21
144.0785941605559
 31
0.0
  0
LINE
  5
1D69186D67
330
1D69186D65
100
AcDbEntity
  8
0
 62
     0
100
AcDbLine
 10
40.08364479443928
 20
139.0785941605559
 30
0.0
 11
45.08364479443929
 21
144.0785941605559
 31
0.0
  0
LINE
  5
1D69186D68
330
1D69186D65
100
AcDbEntity
  8
0
 62
     0
100
AcDbLine
 10
37.25521766969309
 20
139.0785941605559
 30
0.0
 11
42.25521766969309
 21
144.0785941605559
 31
0.0
  0
LINE
  5
1D69186D69
330
1D69186D65
100
AcDbEntity
  8
0
 62
     0
100
AcDbLine
 10
34.42679054494689
 20
139.0785941605559
 30
0.0
 11
39.42679054494689
 21
144.0785941605559
 31
0.0
  0
LINE
  5
1D69186D6A
330
1D69186D65
100
AcDbEntity
  8
0
 62
     0
100
AcDbLine
 10
31.59836342020071
 20
139.0785941605559
 30
0.0
 11
36.59836342020072
 21
144.0785941605559
 31
0.0
  0
LINE
  5
1D69186D6B
330
1D69186D65
100
AcDbEntity
  8
0
 62
     0
100
AcDbLine
 10
28.76993629545451
 20
139.0785941605559
 30
0.0
 11
33.76993629545452
 21
144.0785941605559
 31
0.0
  0
LINE
  5
1D69186D6C
330
1D69186D65
100
AcDbEntity
  8
0
 62
     0
100
AcDbLine
 10
25.94150917070832
 20
139.0785941605559
 30
0.0
 11
30.94150917070832
 21
144.0785941605559
 31
0.0
  0
LINE
  5
1D69186D6D
330
1D69186D65
100
AcDbEntity
  8
0
 62
     0
100
AcDbLine
 10
24.20506654826371
 20
140.1705786628574
 30
0.0
 11
28.11308204596214
 21
144.0785941605559
 31
0.0
  0
LINE
  5
1D69186D6E
330
1D69186D65
100
AcDbEntity
  8
0
 62
     0
100
AcDbLine
 10
22.72841915269601
 20
141.522358392036
 30
0.0
 11
25.28465492121595
 21
144.0785941605559
 31
0.0
  0
LINE
  5
1D69186D6F
330
1D69186D65
100
AcDbEntity
  8
0
 62
     0
100
AcDbLine
 10
21.47523861350567
 20
143.0976049775918
 30
0.0
 11
22.45622779646976
 21
144.0785941605559
 31
0.0
  0
LINE
  5
1D69186D70
330
1D69186D65
100
AcDbEntity
  8
0
 62
     0
100
AcDbLine
 10
45.74049904393166
 20
139.0785941605559
 30
0.0
 11
50.74049904393167
 21
144.0785941605559
 31
0.0
  0
LINE
  5
1D69186D71
330
1D69186D65
100
AcDbEntity
  8
0
 62
     0
100
AcDbLine
 10
48.56892616867785
 20
139.0785941605559
 30
0.0
 11
53.56892616867786
 21
144.0785941605559
 31
0.0
  0
LINE
  5
1D69186D72
330
1D69186D65
100
AcDbEntity
  8
0
 62
     0
100
AcDbLine
 10
51.39735329342403
 20
139.0785941605559
 30
0.0
 11
56.39735329342404
 21
144.0785941605559
 31
0.0
  0
LINE
  5
1D69186D73
330
1D69186D65
100
AcDbEntity
  8
0
 62
     0
100
AcDbLine
 10
54.22578041817022
 20
139.0785941605559
 30
0.0
 11
59.22578041817022
 21
144.0785941605559
 31
0.0
  0
LINE
  5
1D69186D74
330
1D69186D65
100
AcDbEntity
  8
0
 62
     0
100
AcDbLine
 10
57.0542075429164
 20
139.0785941605559
 30
0.0
 11
62.05420754291642
 21
144.0785941605559
 31
0.0
  0
LINE
  5
1D69186D75
330
1D69186D65
100
AcDbEntity
  8
0
 62
     0
100
AcDbLine
 10
59.8826346676626
 20
139.0785941605559
 30
0.0
 11
64.88263466766261
 21
144.0785941605559
 31
0.0
  0
LINE
  5
1D69186D76
330
1D69186D65
100
AcDbEntity
  8
0
 62
     0
100
AcDbLine
 10
62.71106179240879
 20
139.0785941605559
 30
0.0
 11
65.0
 21
141.3675323681469
 31
0.0
  0
ENDBLK
  5
1D69186D78
330
1D69186D65
100
AcDbEntity
  8
0
100
AcDbBlockEnd
  0
ENDSEC
  0
SECTION
  2
ENTITIES
  0
TEXT
  5
1D6918726A
330
1D69183399
100
AcDbEntity
  8
SUNPOU
100
AcDbText
 10
297.7992545431581
 20
2.849424139244888
 30
0.0
 40
3.0
  1
尺度　1/1
  7
K
100
AcDbText
  0
TEXT
  5
1D6918726D
330
1D69183399
100
AcDbEntity
  8
SUNPOU
100
AcDbText
 10
297.7992545431581
 20
7.849424139244887
 30
0.0
 40
3.0
  1
RES-F　ガードZN　　作動状態
  7
K
100
AcDbText
  0
LINE
  5
1D69187274
330
1D69183399
100
AcDbEntity
  8
SUNPOU
100
AcDbLine
 10
83.59100295208094
 20
156.0762138776484
 30
0.0
 11
74.73805306753752
 21
139.4091352743022
 31
0.0
  0
LWPOLYLINE
  5
1D69187275
330
1D69183399
100
AcDbEntity
  8
HATCH
100
AcDbPolyline
 90
       13
 70
     0
 43
0.0
 10
339.7336689287446
 20
179.6844633870541
 10
339.5690817504946
 20
178.8648263088219
 10
339.4271763938141
 20
178.3482083320577
 10
339.1994677566664
 20
177.92978204537
 10
338.8915802700072
 20
177.591665021703
 10
338.5253569810277
 20
177.3014139490529
 10
338.1226409369189
 20
177.0265855154154
 10
337.7052751848721
 20
176.7347364087864
 10
337.2951027720783
 20
176.3934233171616
 10
336.9139667457289
 20
175.9702029285372
 10
336.5837101530142
 20
175.432631930909
 10
336.3091300898111
 20
174.7690131436216
 10
336.2759058953146
 20
174.6844633870541
  0
LINE
  5
1D6918727B
330
1D69183399
100
AcDbEntity
  8
JISSEN
100
AcDbLine
 10
295.9999999396191
 20
174.6844633870541
 30
0.0
 11
295.9999999396191
 21
179.6844633870541
 31
0.0
  0
INSERT
  5
1D6918727C
330
1D69183399
100
AcDbEntity
  8
HATCH
100
AcDbBlockReference
  2
*X6
 10
360.9999999396192
 20
35.60586922649838
 30
0.0
 41
-1.0
1001
ACAD
1000
HATCH
1002
{
1070
    16
1000
_U
1040
2.0
1040
0.7853981633974483
1070
     0
1002
}
  0
LWPOLYLINE
  5
1D6918727D
330
1D69183399
100
AcDbEntity
  8
NITEN
100
AcDbPolyline
 90
        2
 70
     0
 43
0.0
 10
287.999999939619
 20
264.8827299439241
 42
0.5882352941176297
 10
270.999999939619
 20
264.8827299439242
 42
0.5882352941176297
  0
LWPOLYLINE
  5
1D69187282
330
1D69183399
100
AcDbEntity
  8
NITEN
100
AcDbPolyline
 90
       15
 70
     1
 43
0.0
 10
256.9999999396189
 20
203.5450122927781
 42
0.4142135623730927
 10
258.499999939619
 20
202.0450122927782
 10
281.5940511106156
 20
202.0450122927782
 10
283.499999939619
 20
202.0450122927782
 42
0.4142135623730925
 10
284.9999999396189
 20
203.5450122927781
 10
284.9999999396189
 20
214.5910283189961
 42
-0.4142135623730943
 10
289.999999939619
 20
219.5910283189961
 42
0.4142135623730951
 10
291.9999999396189
 20
221.5910283189961
 10
291.9999999396189
 20
242.0450122927781
 42
0.4142135623730951
 10
289.999999939619
 20
244.0450122927781
 10
251.999999939619
 20
244.0450122927781
 42
0.4142135623730951
 10
249.999999939619
 20
242.0450122927781
 10
249.999999939619
 20
221.5910283189961
 42
0.4142135623730951
 10
251.999999939619
 20
219.5910283189961
 42
-0.4142135623730961
 10
256.9999999396189
 20
214.5910283189961
  0
LINE
  5
1D69187298
330
1D69183399
100
AcDbEntity
  8
JISSEN
100
AcDbLine
 10
245.999999939619
 20
174.6844633870541
 30
0.0
 11
245.999999939619
 21
179.6844633870541
 31
0.0
  0
LINE
  5
1D691872A3
330
1D69183399
100
AcDbEntity
  8
SUNPOU
100
AcDbLine
 10
226.141165350279
 20
174.6844633870541
 30
0.0
 11
226.141165350279
 21
174.6844633870541
 31
0.0
  0
LWPOLYLINE
  5
1D691872A4
330
1D69183399
100
AcDbEntity
  8
HATCH
100
AcDbPolyline
 90
       13
 70
     0
 43
0.0
 10
202.2663309504936
 20
179.6844633870541
 10
202.4309181287434
 20
178.8648263088219
 10
202.5728234854239
 20
178.3482083320577
 10
202.8005321225719
 20
177.92978204537
 10
203.1084196092312
 20
177.591665021703
 10
203.4746428982104
 20
177.3014139490529
 10
203.8773589423191
 20
177.0265855154154
 10
204.2947246943663
 20
176.7347364087864
 10
204.70489710716
 20
176.3934233171616
 10
205.0860331335096
 20
175.9702029285372
 10
205.4162897262241
 20
175.432631930909
 10
205.6908697894269
 20
174.7690131436216
 10
205.7240939839235
 20
174.6844633870541
  0
INSERT
  5
1D691872A5
330
1D69183399
100
AcDbEntity
  8
HATCH
100
AcDbBlockReference
  2
*X6
 10
180.9999999396189
 20
35.60586922649838
 30
0.0
1001
ACAD
1000
HATCH
1002
{
1070
    16
1000
_U
1040
2.0
1040
0.7853981633974483
1070
     0
1002
}
  0
LINE
  5
1D691872AA
330
1D69183399
100
AcDbEntity
  8
JISSEN
100
AcDbLine
 10
252.4999999396194
 20
174.6844633870541
 30
0.0
 11
205.7240939839234
 21
174.6844633870541
 31
0.0
  0
LINE
  5
1D691872AB
330
1D69183399
100
AcDbEntity
  8
JISSEN
100
AcDbLine
 10
202.2663309504936
 20
179.6844633870541
 30
0.0
 11
252.4999999396194
 21
179.6844633870541
 31
0.0
  0
LWPOLYLINE
  5
1D691872AC
330
1D69183399
100
AcDbEntity
  8
NITEN
100
AcDbPolyline
 90
        5
 70
     0
 43
0.0
 10
287.999999939619
 20
244.0450122927781
 10
287.999999939619
 20
264.8827299439241
 42
-0.5882352941176478
 10
270.999999939619
 20
264.8827299439241
 42
0.5882352941176478
 10
253.999999939619
 20
264.8827299439236
 10
253.999999939619
 20
244.0450122927781
  0
LINE
  5
1D691872B0
330
1D69183399
100
AcDbEntity
  8
JISSEN
100
AcDbLine
 10
289.4999999396186
 20
174.6844633870541
 30
0.0
 11
336.2759058953146
 21
174.6844633870541
 31
0.0
  0
LINE
  5
1D691872B1
330
1D69183399
100
AcDbEntity
  8
JISSEN
100
AcDbLine
 10
339.7336689287446
 20
179.6844633870541
 30
0.0
 11
289.4999999396186
 21
179.6844633870541
 31
0.0
  0
TEXT
  5
1D691872ED
330
1D69183399
100
AcDbEntity
  8
TEXT
100
AcDbText
 10
165.6999999396189
 20
278.5000002405595
 30
0.0
 40
3.0
  1
備    考
  7
K
 72
     4
 11
172.499999939619
 21
280.0000002405595
 31
0.0
100
AcDbText
  0
LINE
  5
1D691872F6
330
1D69183399
100
AcDbEntity
  8
JISSEN
100
AcDbLine
 10
163.499999939619
 20
283.0000002405593
 30
0.0
 11
163.499999939619
 21
265.0000002405595
 31
0.0
  0
LINE
  5
1D691872F8
330
1D69183399
100
AcDbEntity
  8
JISSEN
100
AcDbLine
 10
163.499999939619
 20
283.0000002405593
 30
0.0
 11
163.499999939619
 21
265.0000002405595
 31
0.0
  0
TEXT
  5
1D691872FA
330
1D69183399
100
AcDbEntity
  8
TEXT
100
AcDbText
 10
125.2999999396191
 20
278.5000002405595
 30
0.0
 40
3.0
  1
番号
  7
K
 72
     4
 11
128.4999999396191
 21
280.0000002405595
 31
0.0
100
AcDbText
  0
TEXT
  5
1D691872FB
330
1D69183399
100
AcDbEntity
  8
TEXT
100
AcDbText
 10
143.5999999396189
 20
266.4000002405594
 30
0.0
 40
3.0
  1
ガード
  7
K
 72
     4
 11
148.4999999396189
 21
268.0000002405595
 31
0.0
100
AcDbText
  0
LWPOLYLINE
  5
1D691872FC
330
1D69183399
100
AcDbEntity
  8
NITEN
100
AcDbPolyline
 90
        2
 70
     0
 43
0.0
 10
107.000000663619
 20
264.8827300129613
 42
0.5882352941176297
 10
90.00000066361911
 20
264.8827300129616
 42
0.5882352941176297
  0
TEXT
  5
1D691872FD
330
1D69183399
100
AcDbEntity
  8
TEXT
100
AcDbText
 10
127.3830723451535
 20
266.5000002405595
 30
0.0
 40
3.0
  1
2
  7
K
 72
     4
 11
128.8116437737249
 21
268.0000002405595
 31
0.0
100
AcDbText
  0
LINE
  5
1D691872FE
330
1D69183399
100
AcDbEntity
  8
JISSEN
100
AcDbLine
 10
123.4999999396191
 20
265.0000002405595
 30
0.0
 11
123.4999999396191
 21
283.0000002405593
 31
0.0
  0
LINE
  5
1D691872FF
330
1D69183399
100
AcDbEntity
  8
JISSEN
100
AcDbLine
 10
133.4999999396189
 20
283.0000002405593
 30
0.0
 11
133.4999999396189
 21
265.0000002405595
 31
0.0
  0
TEXT
  5
1D69187300
330
1D69183399
100
AcDbEntity
  8
TEXT
100
AcDbText
 10
127.2857142253334
 20
272.5000002405595
 30
0.0
 40
3.0
  1
1
  7
K
 72
     4
 11
128.4999999396191
 21
274.0000002405595
 31
0.0
100
AcDbText
  0
LINE
  5
1D69187301
330
1D69183399
100
AcDbEntity
  8
JISSEN
100
AcDbLine
 10
123.4999999396191
 20
277.0000002405595
 30
0.0
 11
180.9999999396189
 21
277.0000002405595
 31
0.0
  0
LINE
  5
1D69187302
330
1D69183399
100
AcDbEntity
  8
JISSEN
100
AcDbLine
 10
123.4999999396191
 20
271.0000002405595
 30
0.0
 11
180.9999999396189
 21
271.0000002405595
 31
0.0
  0
TEXT
  5
1D69187303
330
1D69183399
100
AcDbEntity
  8
TEXT
100
AcDbText
 10
139.8999999396189
 20
278.5000002405595
 30
0.0
 40
3.0
  1
名      称
  7
K
 72
     4
 11
148.4999999396189
 21
280.0000002405595
 31
0.0
100
AcDbText
  0
LINE
  5
1D69187304
330
1D69183399
100
AcDbEntity
  8
JISSEN
100
AcDbLine
 10
123.4999999396191
 20
265.0000002405594
 30
0.0
 11
180.9999999396189
 21
265.0000002405595
 31
0.0
  0
TEXT
  5
1D69187305
330
1D69183399
100
AcDbEntity
  8
TEXT
100
AcDbText
 10
134.4999999396189
 20
272.4000002405595
 30
0.0
 40
3.0
  1
スプリンクラーヘッド
 41
0.8
  7
K
 72
     4
 11
148.4999999396189
 21
274.0000002405595
 31
0.0
100
AcDbText
  0
LWPOLYLINE
  5
1D69187306
330
1D69183399
100
AcDbEntity
  8
HATCH
100
AcDbPolyline
 90
       13
 70
     0
 43
0.0
 10
158.7336696527445
 20
179.6844634560915
 10
158.5690824744946
 20
178.8648263778595
 10
158.4271771178141
 20
178.348208401095
 10
158.1994684806664
 20
177.9297821144072
 10
157.891580994007
 20
177.5916650907404
 10
157.5253577050275
 20
177.3014140180902
 10
157.1226416609189
 20
177.0265855844527
 10
156.7052759088719
 20
176.7347364778237
 10
156.2951034960781
 20
176.393423386199
 10
155.9139674697284
 20
175.9702029975746
 10
155.5837108770139
 20
175.4326319999464
 10
155.3091308138114
 20
174.769013212659
 10
155.2759066193148
 20
174.6844634560915
  0
LWPOLYLINE
  5
1D69187311
330
1D69183399
100
AcDbEntity
  8
NITEN
100
AcDbPolyline
 90
       15
 70
     1
 43
0.0
 10
76.00000066361919
 20
203.5450123618156
 42
0.4142135623730927
 10
77.50000066361913
 20
202.0450123618155
 10
100.5940518346154
 20
202.0450123618155
 10
102.5000006636189
 20
202.0450123618155
 42
0.4142135623730925
 10
104.000000663619
 20
203.5450123618156
 10
104.000000663619
 20
214.5910283880335
 42
-0.4142135623730943
 10
109.0000006636189
 20
219.5910283880336
 42
0.4142135623730951
 10
111.0000006636191
 20
221.5910283880336
 10
111.0000006636189
 20
242.0450123618155
 42
0.4142135623730951
 10
109.0000006636191
 20
244.0450123618155
 10
71.00000066361919
 20
244.0450123618155
 42
0.4142135623730951
 10
69.00000066361918
 20
242.0450123618155
 10
69.00000066361918
 20
221.5910283880336
 42
0.4142135623730951
 10
71.00000066361919
 20
219.5910283880336
 42
-0.4142135623730961
 10
76.00000066361919
 20
214.5910283880335
  0
INSERT
  5
1D69187319
330
1D69183399
100
AcDbEntity
  8
SUNPOU
100
AcDbBlockReference
  2
ARROW
 10
111.9148899342518
 20
165.6547471600285
 30
0.0
 41
1.499999999999998
 42
1.5
 43
1.5
 50
116.2503179468657
  0
LINE
  5
1D6918731B
330
1D69183399
100
AcDbEntity
  8
JISSEN
100
AcDbLine
 10
115.0000006636191
 20
174.6844634560915
 30
0.0
 11
115.0000006636191
 21
179.6844634560915
 31
0.0
  0
LINE
  5
1D6918732C
330
1D69183399
100
AcDbEntity
  8
JISSEN
100
AcDbLine
 10
108.5000006636184
 20
174.6844634560915
 30
0.0
 11
155.2759066193148
 21
174.6844634560915
 31
0.0
  0
INSERT
  5
1D6918732D
330
1D69183399
100
AcDbEntity
  8
HATCH
100
AcDbBlockReference
  2
*X5
 10
180.0000006636193
 20
35.60586929553572
 30
0.0
 41
-1.0
1001
ACAD
1000
HATCH
1002
{
1070
    16
1000
_U
1040
2.0
1040
0.7853981633974483
1070
     0
1002
}
  0
LINE
  5
1D6918732E
330
1D69183399
100
AcDbEntity
  8
JISSEN
100
AcDbLine
 10
158.7336696527445
 20
179.6844634560915
 30
0.0
 11
108.5000006636184
 21
179.6844634560915
 31
0.0
  0
LWPOLYLINE
  5
1D69187333
330
1D69183399
100
AcDbEntity
  8
NITEN
100
AcDbPolyline
 90
        5
 70
     0
 43
0.0
 10
107.000000663619
 20
244.0450123618155
 10
107.000000663619
 20
264.8827300129613
 42
-0.5882352941176478
 10
90.00000066361918
 20
264.8827300129613
 42
0.5882352941176478
 10
73.00000066361917
 20
264.8827300129611
 10
73.00000066361917
 20
244.0450123618155
  0
LINE
  5
1D69187337
330
1D69183399
100
AcDbEntity
  8
SUNPOU
100
AcDbLine
 10
45.14116607427921
 20
174.6844634560915
 30
0.0
 11
45.14116607427921
 21
174.6844634560915
 31
0.0
  0
LINE
  5
1D6918733A
330
1D69183399
100
AcDbEntity
  8
JISSEN
100
AcDbLine
 10
65.00000066361917
 20
174.6844634560915
 30
0.0
 11
65.00000066361917
 21
179.6844634560915
 31
0.0
  0
LWPOLYLINE
  5
1D6918733B
330
1D69183399
100
AcDbEntity
  8
HATCH
100
AcDbPolyline
 90
       13
 70
     0
 43
0.0
 10
21.26633167449373
 20
179.6844634560915
 10
21.43091885274372
 20
178.8648263778595
 10
21.57282420942402
 20
178.348208401095
 10
21.80053284657189
 20
177.9297821144072
 10
22.10842033323114
 20
177.5916650907404
 10
22.47464362221067
 20
177.3014140180902
 10
22.8773596663194
 20
177.0265855844527
 10
23.29472541836627
 20
176.7347364778237
 10
23.7048978311601
 20
176.393423386199
 10
24.08603385750978
 20
175.9702029975746
 10
24.41629045022426
 20
175.4326319999464
 10
24.69087051342706
 20
174.769013212659
 10
24.72409470792365
 20
174.6844634560915
  0
INSERT
  5
1D6918733C
330
1D69183399
100
AcDbEntity
  8
HATCH
100
AcDbBlockReference
  2
*X5
 10
0.0000006636191756
 20
35.60586929553572
 30
0.0
1001
ACAD
1000
HATCH
1002
{
1070
    16
1000
_U
1040
2.0
1040
0.7853981633974483
1070
     0
1002
}
  0
LINE
  5
1D6918733D
330
1D69183399
100
AcDbEntity
  8
JISSEN
100
AcDbLine
 10
71.50000066361968
 20
174.6844634560915
 30
0.0
 11
24.72409470792365
 21
174.6844634560915
 31
0.0
  0
LINE
  5
1D6918733E
330
1D69183399
100
AcDbEntity
  8
JISSEN
100
AcDbLine
 10
21.26633167449374
 20
179.6844634560915
 30
0.0
 11
71.50000066361968
 21
179.6844634560915
 31
0.0
  0
LINE
  5
1D69187340
330
1D69183399
100
AcDbEntity
  8
JISSEN
100
AcDbLine
 10
71.50000066361895
 20
174.68446345609
 30
0.0
 11
52.50000066361804
 21
174.684463456092
 31
0.0
  0
LINE
  5
1D69187341
330
1D69183399
100
AcDbEntity
  8
JISSEN
100
AcDbLine
 10
59.18718956524822
 20
174.684463456092
 30
0.0
 11
71.47555222061396
 21
174.6844634560924
 31
0.0
  0
LINE
  5
1D69187342
330
1D69183399
100
AcDbEntity
  8
JISSEN
100
AcDbLine
 10
71.50000066362031
 20
174.684463456092
 30
0.0
 11
60.23270028083931
 21
174.684463456092
 31
0.0
  0
TEXT
  5
1D69187345
330
1D69183399
100
AcDbEntity
  8
SUNPOU
100
AcDbText
 10
125.5738217381196
 20
131.3623372348612
 30
0.0
 40
4.5
  1
2
  7
K
 72
     4
 11
127.7166788809767
 21
133.6123372348612
 31
0.0
100
AcDbText
  0
TEXT
  5
1D69187354
330
1D69183399
100
AcDbEntity
  8
SUNPOU
100
AcDbText
 10
70.10204910625318
 20
131.8602518659965
 30
0.0
 40
4.5
  1
1
  7
K
 72
     4
 11
71.92347767768175
 21
134.1102518659964
 31
0.0
100
AcDbText
  0
CIRCLE
  5
1D6918736A
330
1D69183399
100
AcDbEntity
  8
SUNPOU
100
AcDbCircle
 10
127.7166788809767
 20
133.6123372348612
 30
0.0
 40
6.0
  0
LINE
  5
1D69187370
330
1D69183399
100
AcDbEntity
  8
TEXT
100
AcDbLine
 10
152.6455221499578
 20
10.84959345429124
 30
0.0
 11
155.5455221499576
 21
10.84959345429125
 31
0.0
  0
LINE
  5
1D69187371
330
1D69183399
100
AcDbEntity
  8
TEXT
100
AcDbLine
 10
152.6455221499578
 20
7.849593454291265
 30
0.0
 11
155.5455221499576
 21
7.849593454291266
 31
0.0
  0
TEXT
  5
1D69187372
330
1D69183399
100
AcDbEntity
  8
SUNPOU
100
AcDbText
 10
116.7992552671579
 20
2.849424139244888
 30
0.0
 40
3.0
  1
尺度　1/1
  7
K
100
AcDbText
  0
TEXT
  5
1D69187373
330
1D69183399
100
AcDbEntity
  8
SUNPOU
100
AcDbText
 10
116.7992552671579
 20
7.849424139244887
 30
0.0
 40
3.0
  1
RES-F　ガードZN　　取付状態
  7
K
100
AcDbText
  0
LINE
  5
1D69187374
330
1D69183399
100
AcDbEntity
  8
TEXT
100
AcDbLine
 10
154.0955221499577
 20
10.84959345429125
 30
0.0
 11
154.0955221499577
 21
7.849593454291266
 31
0.0
  0
LINE
  5
1D69187375
330
1D69183399
100
AcDbEntity
  8
TEXT
100
AcDbLine
 10
154.9955221499577
 20
10.84959345429125
 30
0.0
 11
154.9955221499577
 21
7.849593454291266
 31
0.0
  0
CIRCLE
  5
1D6918737C
330
1D69183399
100
AcDbEntity
  8
SUNPOU
100
AcDbCircle
 10
71.92347767768175
 20
134.1102518659964
 30
0.0
 40
6.0
  0
INSERT
  5
1D69187383
330
1D69183399
100
AcDbEntity
  8
WAKU
100
AcDbBlockReference
  2
WAKU
 10
0.0000006636191756
 20
0.0000002405596433
 30
0.0
 41
181.0
 42
283.0
 43
181.0
  0
LINE
  5
1D69187384
330
1D69183399
100
AcDbEntity
  8
SUNPOU
100
AcDbLine
 10
111.9148899342514
 20
165.654747160029
 30
0.0
 11
125.0629168780406
 21
138.9935589578321
 31
0.0
  0
INSERT
  5
1D69187385
330
1D69183399
100
AcDbEntity
  8
SUNPOU
100
AcDbBlockReference
  2
ARROW
 10
83.5910029520814
 20
156.0762138776489
 30
0.0
 41
1.499999999999988
 42
1.5
 43
1.5
 50
62.02437466931193
  0
INSERT
  5
1D6918738A
330
1D69183399
100
AcDbEntity
  8
WAKU
100
AcDbBlockReference
  2
WAKU
 10
180.9999999396189
 20
0.0000002405596433
 30
0.0
 41
181.0
 42
283.0
 43
181.0
  0
LINE
  5
1D69187704
330
1D69183399
100
AcDbEntity
  8
JISSEN
100
AcDbLine
 10
73.89702624911769
 20
175.8235264130915
 30
0.0
 11
73.89702624911769
 21
181.3905137111997
 31
0.0
  0
LINE
  5
1D69187707
330
1D69183399
100
AcDbEntity
  8
JISSEN
100
AcDbLine
 10
72.3132299861806
 20
169.8667554980365
 30
0.0
 11
73.29702624911596
 21
180.9344634561116
 31
0.0
  0
LINE
  5
1D69187708
330
1D69183399
100
AcDbEntity
  8
JISSEN
 62
     7
370
     0
100
AcDbLine
 10
70.54702624911948
 20
174.2805401435383
 30
0.0
 11
70.54702624911778
 21
201.434463456097
 31
0.0
  0
HATCH
  5
1D6918770A
330
1D69183399
100
AcDbEntity
  8
HATCH
100
AcDbHatch
 10
0.0
 20
0.0
 30
0.0
210
0.0
220
0.0
230
1.0
  2
ANSI31
 70
     0
 71
     0
 91
        2
 92
        7
 72
     1
 73
     1
 93
       11
 10
57.8765622844557
 20
172.8338175357982
 42
0.0
 10
70.25218965610548
 20
170.5963011651142
 42
0.0
 10
71.79702624911505
 20
170.5963011651143
 42
0.0
 10
71.79702624911505
 20
169.8844634560914
 42
0.2679491924309735
 10
71.89702624911496
 20
169.7112583753346
 42
0.0
 10
71.89702624911451
 20
150.6844634560325
 42
0.0
 10
71.89702624911451
 20
149.1844634560966
 42
-0.4142135623863255
 10
70.39702624911041
 20
147.6844634560329
 42
0.0
 10
69.39702624911132
 20
147.6844634560356
 42
-0.414213562372296
 10
67.89702624911632
 20
149.1844634560347
 42
0.0
 10
67.89702624911644
 20
158.684463456097
 42
0.3182354891986536
 97
        0
 92
        7
 72
     1
 73
     1
 93
       37
 10
70.54702624911778
 20
201.434463456097
 42
0.0
 10
70.79702624911778
 20
201.684463456097
 42
0.0
 10
71.39702624911723
 20
201.0844634560953
 42
0.0
 10
71.39702624911723
 20
197.5154109580275
 42
0.3419987131192447
 10
71.54702624911732
 20
197.3217617907176
 42
0.4903143948256207
 10
71.04702624911744
 20
196.934463456097
 42
0.4903138930594824
 10
71.54702562244182
 20
196.5471649596699
 42
0.3419978094579608
 10
71.39702624911723
 20
196.3535159541674
 42
0.0
 10
71.39702624911723
 20
194.5154109580275
 42
0.3419987131192447
 10
71.54702624911732
 20
194.3217617907176
 42
0.4903143948256207
 10
71.04702624911744
 20
193.934463456097
 42
0.4903143948256043
 10
71.5470262491172
 20
193.5471651214763
 42
0.3419987131196557
 10
71.39702624911723
 20
193.353515954166
 42
0.0
 10
71.39702624911723
 20
191.5154109580275
 42
0.3419987131192447
 10
71.54702624911732
 20
191.3217617907176
 42
0.4903143948256207
 10
71.04702624911744
 20
190.934463456097
 42
0.4903143948258117
 10
71.5470262491171
 20
190.5471651214761
 42
0.3419987131185312
 10
71.39702624911814
 20
190.3535159541656
 42
0.0
 10
71.39702624911723
 20
185.6844634560967
 42
0.0
 10
73.79702624911686
 20
183.2844634560978
 42
0.0
 10
73.79702624911686
 20
180.9344634561116
 42
0.0
 10
73.29702624911596
 20
180.9344634561117
 42
0.0
 10
72.3132299861806
 20
169.8667554980365
 42
-0.3884789017125283
 10
72.11401545804512
 20
169.6844634560933
 42
0.0
 10
71.99702624911783
 20
169.6844634560914
 42
-0.4142135623773823
 10
71.79702624911505
 20
169.8844634560914
 42
0.0
 10
71.79702624911505
 20
172.1844634561034
 42
1.0
 10
70.79702624911414
 20
172.1844634561028
 42
0.0
 10
70.79702624911504
 20
171.0963011651146
 42
-0.4676277381132078
 10
70.20806839797291
 20
170.604278299073
 42
0.0
 10
57.87656228445593
 20
172.8338175357982
 42
0.0
 10
55.86911054683714
 20
173.1967652871449
 42
-0.3627433906114596
 10
55.04702624911619
 20
174.1808110192541
 42
0.0
 10
55.04702624911619
 20
174.6844634560915
 42
0.0
 10
61.69230070304109
 20
174.6844634560915
 42
0.0
 10
69.36911054683065
 20
173.2964944114307
 42
0.4676277381222354
 10
70.54702624911948
 20
174.2805401435383
 42
0.0
 97
        0
 75
     0
 76
     1
 52
0.0
 41
10.0
 77
     0
 78
     1
 53
45.0
 43
-569.8463007895647
 44
-23.04773980803216
 45
-0.8838834764831842
 46
0.8838834764831844
 79
     0
 47
0.1096538951749675
 98
        2
 10
68.38238320154636
 20
168.5816895395276
 10
70.90563604903394
 20
177.5733087627713
  0
LINE
  5
1D69187718
330
1D69183399
100
AcDbEntity
  8
JISSEN
100
AcDbLine
 10
96.9374697310593
 20
36.33940371027552
 30
0.0
 11
95.99739163252321
 21
37.96766674002265
 31
0.0
  0
LINE
  5
1D69187719
330
1D69183399
100
AcDbEntity
  8
JISSEN
100
AcDbLine
 10
94.33939351970593
 20
34.83940371027552
 30
0.0
 11
93.39931542116984
 21
36.46766674002265
 31
0.0
  0
LINE
  5
1D6918771A
330
1D69183399
100
AcDbEntity
  8
JISSEN
100
AcDbLine
 10
102.7970262491173
 20
36.1807351679447
 30
0.0
 11
102.1991745263708
 21
36.5259050210077
 31
0.0
  0
LINE
  5
1D6918771C
330
1D69183399
100
AcDbEntity
  8
JISSEN
100
AcDbLine
 10
81.156582767175
 20
36.33940371027552
 30
0.0
 11
82.09666086571109
 21
37.96766674002265
 31
0.0
  0
LINE
  5
1D6918771D
330
1D69183399
100
AcDbEntity
  8
JISSEN
100
AcDbLine
 10
83.75465897852837
 20
34.83940371027552
 30
0.0
 11
84.69473707706447
 21
36.46766674002265
 31
0.0
  0
LINE
  5
1D6918771E
330
1D69183399
100
AcDbEntity
  8
JISSEN
100
AcDbLine
 10
75.89487797186416
 20
36.52590502100725
 30
0.0
 11
75.29702624911795
 21
36.18073516794424
 31
0.0
  0
ARC
  5
1D6918771F
330
1D69183399
100
AcDbEntity
  8
JISSEN
100
AcDbCircle
 10
89.04702624911715
 20
47.00605271525006
 30
0.0
 40
17.0
100
AcDbArc
 50
218.4565193352732
 51
321.5434806647339
  0
CIRCLE
  5
1D69187720
330
1D69183399
100
AcDbEntity
  8
JISSEN
100
AcDbCircle
 10
89.04702624911715
 20
47.00605271525001
 30
0.0
 40
15.14999999999999
  0
CIRCLE
  5
1D69187721
330
1D69183399
100
AcDbEntity
  8
JISSEN
100
AcDbCircle
 10
89.04702624911715
 20
47.00605271525001
 30
0.0
 40
11.40175425099283
  0
CIRCLE
  5
1D69187722
330
1D69183399
100
AcDbEntity
  8
JISSEN
100
AcDbCircle
 10
89.04702624911715
 20
47.00605271525001
 30
0.0
 40
14.55000000000002
  0
CIRCLE
  5
1D69187723
330
1D69183399
100
AcDbEntity
  8
JISSEN
100
AcDbCircle
 10
89.04702624911715
 20
47.00605271525001
 30
0.0
 40
14.10000000000013
  0
ARC
  5
1D69187726
330
1D69183399
100
AcDbEntity
  8
JISSEN
100
AcDbCircle
 10
89.04702624911715
 20
47.00605271525006
 30
0.0
 40
17.5
100
AcDbArc
 50
218.2132107017354
 51
321.7867892982593
  0
ARC
  5
1D69187727
330
1D69183399
100
AcDbEntity
  8
JISSEN
100
AcDbCircle
 10
82.04702624911716
 20
34.88169706226779
 30
0.0
 40
2.25
100
AcDbArc
 50
176.8557628338728
 51
303.1442371661221
  0
ELLIPSE
  5
1D69187728
330
1D69183399
100
AcDbEntity
  8
JISSEN
100
AcDbEllipse
 10
82.45562087285156
 20
35.58940371027552
 30
0.0
 11
-1.299038105676657
 21
0.75
 31
0.0
210
0.0
220
0.0
230
0.9999999999999998
 40
0.6114594983127546
 41
0.0
 42
3.141592653589793
  0
ELLIPSE
  5
1D69187729
330
1D69183399
100
AcDbEntity
  8
JISSEN
100
AcDbEllipse
 10
89.04702624911715
 20
33.82324196271895
 30
0.0
 11
-1.5
 21
0.0000000000000001
 31
0.0
210
0.0
220
0.0
230
1.0
 40
0.6114594983127546
 41
0.0
 42
3.141592653589793
  0
LINE
  5
1D6918772A
330
1D69183399
100
AcDbEntity
  8
JISSEN
100
AcDbLine
 10
87.54702624911715
 20
33.82324196271895
 30
0.0
 11
87.54702624911715
 21
35.70339815979116
 31
0.0
  0
LINE
  5
1D6918772B
330
1D69183399
100
AcDbEntity
  8
JISSEN
100
AcDbLine
 10
90.54702624911715
 20
33.82324196271895
 30
0.0
 11
90.54702624911715
 21
35.70339815979116
 31
0.0
  0
ELLIPSE
  5
1D6918772C
330
1D69183399
100
AcDbEntity
  8
JISSEN
100
AcDbEllipse
 10
95.63843162538251
 20
35.58940371027552
 30
0.0
 11
-1.299038105676658
 21
-0.7499999999999997
 31
0.0
210
0.0
220
0.0
230
0.9999999999999998
 40
0.6114594983127546
 41
0.0
 42
3.141592653589793
  0
LINE
  5
1D6918772E
330
1D69183399
100
AcDbEntity
  8
JISSEN
100
AcDbLine
 10
87.54702624911756
 20
150.6844634560361
 30
0.0
 11
71.89702624911451
 21
150.6844634560361
 31
0.0
  0
LINE
  5
1D6918772F
330
1D69183399
100
AcDbEntity
  8
JISSEN
100
AcDbLine
 10
89.04702624911754
 20
175.3905137111997
 30
0.0
 11
74.14702624911768
 21
175.3905137111997
 31
0.0
  0
LINE
  5
1D69187730
330
1D69183399
100
AcDbEntity
  8
TEXT
 62
     7
100
AcDbLine
 10
73.89702624911769
 20
175.8235264130915
 30
0.0
 11
89.04702624911754
 21
175.8235264130915
 31
0.0
  0
LINE
  5
1D69187731
330
1D69183399
100
AcDbEntity
  8
JISSEN
100
AcDbLine
 10
89.04702624911733
 20
172.8762138776486
 30
0.0
 11
74.94702624911742
 21
172.8762138776486
 31
0.0
  0
LINE
  5
1D69187732
330
1D69183399
100
AcDbEntity
  8
JISSEN
100
AcDbLine
 10
74.94702624911742
 20
172.6762138776485
 30
0.0
 11
89.04702624911733
 21
172.6762138776485
 31
0.0
  0
LINE
  5
1D69187733
330
1D69183399
100
AcDbEntity
  8
JISSEN
100
AcDbLine
 10
75.24943096637497
 20
167.4243332561794
 30
0.0
 11
89.04702624911733
 21
167.4243332561794
 31
0.0
  0
LINE
  5
1D69187734
330
1D69183399
100
AcDbEntity
  8
JISSEN
100
AcDbLine
 10
89.04702624911754
 20
162.8762138776486
 30
0.0
 11
77.66958640674528
 21
162.8762138776486
 31
0.0
  0
LINE
  5
1D69187735
330
1D69183399
100
AcDbEntity
  8
JISSEN
100
AcDbLine
 10
89.04702624911733
 20
160.6262138776485
 30
0.0
 11
79.79702624911755
 21
160.6262138776486
 31
0.0
  0
LINE
  5
1D69187736
330
1D69183399
100
AcDbEntity
  8
JISSEN
100
AcDbLine
 10
89.04702624911733
 20
160.4762138776485
 30
0.0
 11
79.79702624911755
 21
160.4762138776485
 31
0.0
  0
LINE
  5
1D69187737
330
1D69183399
100
AcDbEntity
  8
JISSEN
100
AcDbLine
 10
89.04702624911733
 20
172.8762138776486
 30
0.0
 11
82.65702624911767
 21
172.8762138776486
 31
0.0
  0
LINE
  5
1D69187738
330
1D69183399
100
AcDbEntity
  8
JISSEN
100
AcDbLine
 10
84.21349320756002
 20
163.1762138776485
 30
0.0
 11
82.1846016933784
 21
163.1762138776485
 31
0.0
  0
LINE
  5
1D69187739
330
1D69183399
100
AcDbEntity
  8
JISSEN
100
AcDbLine
 10
84.21349320755979
 20
163.1762138776485
 30
0.0
 11
83.07042706247575
 21
166.3889255628381
 31
0.0
  0
LINE
  5
1D6918773A
330
1D69183399
100
AcDbEntity
  8
JISSEN
100
AcDbLine
 10
89.04702624911733
 20
160.9262138776485
 30
0.0
 11
81.54702624911754
 21
160.9262138776485
 31
0.0
  0
LINE
  5
1D6918773B
330
1D69183399
100
AcDbEntity
  8
JISSEN
100
AcDbLine
 10
89.04702624911733
 20
156.2762138776484
 30
0.0
 11
79.79702624911732
 21
156.2762138776484
 31
0.0
  0
LINE
  5
1D6918773C
330
1D69183399
100
AcDbEntity
  8
JISSEN
100
AcDbLine
 10
79.79702624911732
 20
156.5762138776484
 30
0.0
 11
89.04702624911733
 21
156.5762138776484
 31
0.0
  0
LINE
  5
1D6918773D
330
1D69183399
100
AcDbEntity
  8
JISSEN
100
AcDbLine
 10
89.04702624911733
 20
158.6262138776486
 30
0.0
 11
79.79702624911755
 21
158.6262138776486
 31
0.0
  0
LINE
  5
1D6918773E
330
1D69183399
100
AcDbEntity
  8
JISSEN
100
AcDbLine
 10
89.04702624911733
 20
158.7762138776484
 30
0.0
 11
79.79702624911755
 21
158.7762138776484
 31
0.0
  0
LINE
  5
1D6918773F
330
1D69183399
100
AcDbEntity
  8
JISSEN
100
AcDbLine
 10
89.04702624911733
 20
156.0762138776484
 30
0.0
 11
81.04702624911732
 21
156.0762138776484
 31
0.0
  0
LINE
  5
1D69187740
330
1D69183399
100
AcDbEntity
  8
JISSEN
100
AcDbLine
 10
89.04702624911733
 20
158.3262138776484
 30
0.0
 11
81.54702624911754
 21
158.3262138776484
 31
0.0
  0
LINE
  5
1D69187741
330
1D69183399
100
AcDbEntity
  8
JISSEN
100
AcDbLine
 10
89.0470262491171
 20
147.6844634560964
 30
0.0
 11
69.39702624911541
 21
147.6844634560966
 31
0.0
  0
LINE
  5
1D69187742
330
1D69183399
100
AcDbEntity
  8
JISSEN
100
AcDbLine
 10
83.75465897852837
 20
59.17270172022448
 30
0.0
 11
84.69473707706447
 21
57.54443869047713
 31
0.0
  0
ARC
  5
1D69187747
330
1D69183399
100
AcDbEntity
  8
JISSEN
100
AcDbCircle
 10
89.04702624911715
 20
47.00605271525006
 30
0.0
 40
17.0
100
AcDbArc
 50
98.45651933526932
 51
201.5434806647321
  0
ARC
  5
1D69187748
330
1D69183399
100
AcDbEntity
  8
JISSEN
100
AcDbCircle
 10
89.04702624911715
 20
47.00605271525006
 30
0.0
 40
17.5
100
AcDbArc
 50
98.21321070174288
 51
201.7867892982599
  0
CIRCLE
  5
1D6918774D
330
1D69183399
100
AcDbEntity
  8
JISSEN
100
AcDbCircle
 10
89.04702624911715
 20
47.00605271525001
 30
0.0
 40
9.25
  0
CIRCLE
  5
1D6918774E
330
1D69183399
100
AcDbEntity
  8
JISSEN
100
AcDbCircle
 10
89.04702624911715
 20
47.00605271525001
 30
0.0
 40
8.282842712474625
  0
CIRCLE
  5
1D6918774F
330
1D69183399
100
AcDbEntity
  8
JISSEN
100
AcDbCircle
 10
89.04702624911715
 20
47.00605271525001
 30
0.0
 40
7.717157287525409
  0
ELLIPSE
  5
1D69187752
330
1D69183399
100
AcDbEntity
  8
JISSEN
100
AcDbEllipse
 10
82.45562087285156
 20
58.42270172022449
 30
0.0
 11
1.299038105676657
 21
0.75
 31
0.0
210
0.0
220
0.0
230
0.9999999999999998
 40
0.6114594983127546
 41
0.0
 42
3.141592653589793
  0
ELLIPSE
  5
1D69187753
330
1D69183399
100
AcDbEntity
  8
JISSEN
100
AcDbEllipse
 10
75.86421549658599
 20
47.00605271525001
 30
0.0
 11
0.0
 21
1.5
 31
0.0
210
0.0
220
0.0
230
1.0
 40
0.6114594983127546
 41
0.0
 42
3.141592653589793
  0
ARC
  5
1D69187754
330
1D69183399
100
AcDbEntity
  8
JISSEN
100
AcDbCircle
 10
89.04702624911715
 20
47.00605271525006
 30
0.0
 40
16.25
100
AcDbArc
 50
203.1423515846507
 51
216.8576484153548
  0
ARC
  5
1D69187755
330
1D69183399
100
AcDbEntity
  8
JISSEN
100
AcDbCircle
 10
76.92267059613448
 20
54.00605271524948
 30
0.0
 40
2.25
100
AcDbArc
 50
86.85576283387929
 51
213.1442371661303
  0
LINE
  5
1D69187756
330
1D69183399
100
AcDbEntity
  8
JISSEN
100
AcDbLine
 10
72.79702624911772
 20
40.51086218686634
 30
0.0
 11
73.39487797186404
 21
40.85603203992945
 31
0.0
  0
ARC
  5
1D69187757
330
1D69183399
100
AcDbEntity
  8
JISSEN
100
AcDbCircle
 10
73.64487797186416
 20
40.42301933803725
 30
0.0
 40
0.5
100
AcDbArc
 50
23.14235158465077
 51
120.0000000000001
  0
LINE
  5
1D6918775A
330
1D69183399
100
AcDbEntity
  8
JISSEN
100
AcDbLine
 10
78.38037724414267
 20
39.11560923330785
 30
0.0
 11
80.00864027388979
 21
40.05568733184396
 31
0.0
  0
LINE
  5
1D6918775D
330
1D69183399
100
AcDbEntity
  8
JISSEN
100
AcDbLine
 10
76.88037724414266
 20
41.71368544466111
 30
0.0
 11
78.50864027388979
 21
42.65376354319721
 31
0.0
  0
ELLIPSE
  5
1D6918775E
330
1D69183399
100
AcDbEntity
  8
JISSEN
100
AcDbEllipse
 10
77.63037724414266
 20
40.41464733898442
 30
0.0
 11
-0.7499999999999999
 21
1.299038105676658
 31
0.0
210
0.0
220
0.0
230
1.0
 40
0.6114594983127546
 41
0.0
 42
3.141592653589793
  0
ARC
  5
1D6918775F
330
1D69183399
100
AcDbEntity
  8
JISSEN
100
AcDbCircle
 10
75.64487797186416
 20
36.95891772289945
 30
0.0
 40
0.5
100
AcDbArc
 50
300.0000000000001
 51
36.85764841535483
  0
LINE
  5
1D69187760
330
1D69183399
100
AcDbEntity
  8
JISSEN
100
AcDbLine
 10
75.86421549658599
 20
45.50605271525
 30
0.0
 11
77.74437169365819
 21
45.50605271525
 31
0.0
  0
LINE
  5
1D69187764
330
1D69183399
100
AcDbEntity
  8
JISSEN
100
AcDbLine
 10
78.38037724414267
 20
54.89649619719216
 30
0.0
 11
80.00864027388979
 21
53.95641809865605
 31
0.0
  0
ELLIPSE
  5
1D69187765
330
1D69183399
100
AcDbEntity
  8
JISSEN
100
AcDbEllipse
 10
77.63037724414266
 20
53.59745809151537
 30
0.0
 11
0.7499999999999996
 21
1.299038105676658
 31
0.0
210
0.0
220
0.0
230
1.0
 40
0.6114594983127546
 41
0.0
 42
3.141592653589793
  0
LINE
  5
1D69187766
330
1D69183399
100
AcDbEntity
  8
JISSEN
100
AcDbLine
 10
76.88037724414266
 20
52.29841998583879
 30
0.0
 11
78.50864027388979
 21
51.35834188730267
 31
0.0
  0
LINE
  5
1D69187767
330
1D69183399
100
AcDbEntity
  8
JISSEN
100
AcDbLine
 10
75.86421549658599
 20
48.50605271525
 30
0.0
 11
77.74437169365819
 21
48.50605271525
 31
0.0
  0
LINE
  5
1D69187768
330
1D69183399
100
AcDbEntity
  8
JISSEN
100
AcDbLine
 10
81.156582767175
 20
57.67270172022449
 30
0.0
 11
82.09666086571109
 21
56.04443869047713
 31
0.0
  0
LINE
  5
1D6918776B
330
1D69183399
100
AcDbEntity
  8
TENSEN
100
AcDbLine
 10
70.20806839797268
 20
170.604278299073
 30
0.0
 11
57.87656228445593
 21
172.8338175357982
 31
0.0
  0
LINE
  5
1D6918776C
330
1D69183399
100
AcDbEntity
  8
JISSEN
100
AcDbLine
 10
69.36911054683065
 20
173.2964944114307
 30
0.0
 11
61.69230070304109
 21
174.6844634560915
 31
0.0
  0
LINE
  5
1D6918776D
330
1D69183399
100
AcDbEntity
  8
JISSEN
100
AcDbLine
 10
55.04702624911619
 20
174.6844634560915
 30
0.0
 11
70.54702624911948
 21
174.6844634560915
 31
0.0
  0
ARC
  5
1D6918776E
330
1D69183399
100
AcDbEntity
  8
JISSEN
100
AcDbCircle
 10
52.89702624911644
 20
158.684463456097
 30
0.0
 40
15.0
100
AcDbArc
 50
0.0
 51
70.61166638269982
  0
LINE
  5
1D69187771
330
1D69183399
100
AcDbEntity
  8
JISSEN
 48
3.0
100
AcDbLine
 10
57.87656228456029
 20
172.8338175357614
 30
0.0
 11
55.86911054682781
 21
173.1967652871466
 31
0.0
  0
ARC
  5
1D69187772
330
1D69183399
100
AcDbEntity
  8
JISSEN
100
AcDbCircle
 10
56.04702624911709
 20
174.1808110192541
 30
0.0
 40
1.0
100
AcDbArc
 50
179.9999999999739
 51
259.7516211655536
  0
LINE
  5
1D69187773
330
1D69183399
100
AcDbEntity
  8
JISSEN
100
AcDbLine
 10
55.04702624911619
 20
174.1808110192541
 30
0.0
 11
55.04702624911619
 21
174.6844634560915
 31
0.0
  0
LINE
  5
1D69187775
330
1D69183399
100
AcDbEntity
  8
JISSEN
100
AcDbLine
 10
79.79702624911755
 20
158.6262138776483
 30
0.0
 11
79.79702624911755
 21
158.7762138776484
 31
0.0
  0
LINE
  5
1D69187776
330
1D69183399
100
AcDbEntity
  8
JISSEN
100
AcDbLine
 10
71.89702624911496
 20
169.6844634560934
 30
0.0
 11
71.89702624911451
 21
150.6844634560325
 31
0.0
  0
ARC
  5
1D69187777
330
1D69183399
100
AcDbEntity
  8
JISSEN
100
AcDbCircle
 10
70.3970262491145
 20
149.1844634560966
 30
0.0
 40
1.5
100
AcDbArc
 50
269.9999999998436
 51
0.0
  0
ARC
  5
1D69187778
330
1D69183399
100
AcDbEntity
  8
JISSEN
 62
     7
370
     0
100
AcDbCircle
 10
69.39702624911541
 20
149.1844634560347
 30
0.0
 40
1.49999999999909
100
AcDbArc
 50
179.9999999991141
 51
269.9999999998436
  0
LINE
  5
1D69187779
330
1D69183399
100
AcDbEntity
  8
JISSEN
100
AcDbLine
 10
70.39702624911996
 20
147.6844634560329
 30
0.0
 11
69.39702624911451
 21
147.6844634560356
 31
0.0
  0
LINE
  5
1D6918777A
330
1D69183399
100
AcDbEntity
  8
JISSEN
100
AcDbLine
 10
67.89702624911632
 20
149.1844634560347
 30
0.0
 11
67.89702624911644
 21
158.684463456097
 31
0.0
  0
LINE
  5
1D6918777B
330
1D69183399
100
AcDbEntity
  8
JISSEN
100
AcDbLine
 10
71.89702624911451
 20
150.6844634560325
 30
0.0
 11
71.89702624911451
 21
149.1844634560966
 31
0.0
  0
LINE
  5
1D6918777C
330
1D69183399
100
AcDbEntity
  8
JISSEN
100
AcDbLine
 10
79.79702624911732
 20
156.2762138776484
 30
0.0
 11
79.79702624911732
 21
156.5762138776484
 31
0.0
  0
LINE
  5
1D6918777D
330
1D69183399
100
AcDbEntity
  8
JISSEN
100
AcDbLine
 10
79.79702624911732
 20
156.2762138776484
 30
0.0
 11
79.79702624911732
 21
156.5762138776484
 31
0.0
  0
ARC
  5
1D6918777E
330
1D69183399
100
AcDbEntity
  8
JISSEN
100
AcDbCircle
 10
81.04702624911732
 20
156.3762138776486
 30
0.0
 40
0.3
100
AcDbArc
 50
199.4712206348898
 51
270.0
  0
ARC
  5
1D6918777F
330
1D69183399
100
AcDbEntity
  8
JISSEN
100
AcDbCircle
 10
81.54702624911754
 20
158.6262138776483
 30
0.0
 40
0.2999999999998692
100
AcDbArc
 50
180.0
 51
270.0
  0
LINE
  5
1D69187780
330
1D69183399
100
AcDbEntity
  8
JISSEN
100
AcDbLine
 10
71.897026249117
 20
169.6844634560933
 30
0.0
 11
75.2470262491176
 21
169.6844634560933
 31
0.0
  0
LINE
  5
1D69187781
330
1D69183399
100
AcDbEntity
  8
JISSEN
100
AcDbLine
 10
80.7845084333025
 20
172.8762138776485
 30
0.0
 11
74.94702624911742
 21
172.8762138776486
 31
0.0
  0
ARC
  5
1D69187782
330
1D69183399
100
AcDbEntity
  8
JISSEN
100
AcDbCircle
 10
73.74702624911737
 20
171.7762138776486
 30
0.0
 40
1.5
100
AcDbArc
 50
0.0
 51
36.86989764583751
  0
ARC
  5
1D69187783
330
1D69183399
100
AcDbEntity
  8
TENSEN
100
AcDbCircle
 10
70.29702624911505
 20
171.0963011651142
 30
0.0
 40
0.5
100
AcDbArc
 50
259.7516211656067
 51
0.0000000000260551
  0
LINE
  5
1D69187784
330
1D69183399
100
AcDbEntity
  8
TENSEN
100
AcDbLine
 10
70.29702624911505
 20
170.5963011651142
 30
0.0
 11
71.79702624911505
 21
170.5963011651142
 31
0.0
  0
ARC
  5
1D69187785
330
1D69183399
100
AcDbEntity
  8
JISSEN
100
AcDbCircle
 10
69.54702624911949
 20
174.2805401435382
 30
0.0
 40
1.0
100
AcDbArc
 50
259.7516211655801
 51
0.0000000000065138
  0
LINE
  5
1D69187786
330
1D69183399
100
AcDbEntity
  8
JISSEN
100
AcDbLine
 10
71.89702624911564
 20
169.6844634560934
 30
0.0
 11
72.11401545804136
 21
169.6844634560934
 31
0.0
  0
ARC
  5
1D69187787
330
1D69183399
100
AcDbEntity
  8
JISSEN
100
AcDbCircle
 10
72.11401545804136
 20
169.8844634560932
 30
0.0
 40
0.2
100
AcDbArc
 50
270.0
 51
354.9203921400315
  0
LINE
  5
1D69187788
330
1D69183399
100
AcDbEntity
  8
JISSEN
100
AcDbLine
 10
71.99702624911487
 20
169.6844634560914
 30
0.0
 11
72.11401545804136
 21
169.6844634560933
 31
0.0
  0
ARC
  5
1D69187789
330
1D69183399
100
AcDbEntity
  8
TENSEN
100
AcDbCircle
 10
71.99702624911487
 20
169.8844634560914
 30
0.0
 40
0.2
100
AcDbArc
 50
180.0
 51
270.0
  0
LINE
  5
1D6918778A
330
1D69183399
100
AcDbEntity
  8
TENSEN
100
AcDbLine
 10
70.79702624911414
 20
172.1844634561029
 30
0.0
 11
70.79702624911504
 21
171.0963011651146
 31
0.0
  0
ARC
  5
1D6918778B
330
1D69183399
100
AcDbEntity
  8
TENSEN
100
AcDbCircle
 10
71.29702624911414
 20
172.1844634561034
 30
0.0
 40
0.5
100
AcDbArc
 50
0.0
 51
180.0000000000521
  0
LINE
  5
1D6918778C
330
1D69183399
100
AcDbEntity
  8
TENSEN
100
AcDbLine
 10
71.79702624911505
 20
172.1844634561034
 30
0.0
 11
71.79702624911505
 21
169.8844634560914
 31
0.0
  0
LINE
  5
1D6918778D
330
1D69183399
100
AcDbEntity
  8
JISSEN
100
AcDbLine
 10
74.94702624911742
 20
172.8762138776486
 30
0.0
 11
74.94702624911742
 21
172.6762138776485
 31
0.0
  0
LINE
  5
1D6918778E
330
1D69183399
100
AcDbEntity
  8
JISSEN
100
AcDbLine
 10
74.94702624911742
 20
172.8762138776486
 30
0.0
 11
74.94702624911742
 21
172.6762138776485
 31
0.0
  0
LINE
  5
1D6918778F
330
1D69183399
100
AcDbEntity
  8
JISSEN
100
AcDbLine
 10
74.14702624911768
 20
175.3905137111997
 30
0.0
 11
73.89702624911769
 21
175.8235264130915
 31
0.0
  0
LINE
  5
1D69187790
330
1D69183399
100
AcDbEntity
  8
JISSEN
100
AcDbLine
 10
75.2470262491176
 20
171.7762138776486
 30
0.0
 11
75.2470262491176
 21
167.4622416680343
 31
0.0
  0
LINE
  5
1D69187791
330
1D69183399
100
AcDbEntity
  8
JISSEN
100
AcDbLine
 10
75.2797242918611
 20
167.3260445181125
 30
0.0
 11
77.49138510190772
 21
162.9854157777006
 31
0.0
  0
LINE
  5
1D69187792
330
1D69183399
100
AcDbEntity
  8
JISSEN
100
AcDbLine
 10
78.50260742231938
 20
163.1762138776485
 30
0.0
 11
76.70887451668789
 21
166.1529000311105
 31
0.0
  0
LINE
  5
1D69187793
330
1D69183399
100
AcDbEntity
  8
JISSEN
100
AcDbLine
 10
79.51438028216688
 20
163.1762138776485
 30
0.0
 11
77.47373651310244
 21
166.5626467364375
 31
0.0
  0
LINE
  5
1D69187794
330
1D69183399
100
AcDbEntity
  8
JISSEN
100
AcDbLine
 10
79.51438028216688
 20
163.1762138776485
 30
0.0
 11
78.50260742231961
 21
163.1762138776485
 31
0.0
  0
ARC
  5
1D69187795
330
1D69183399
100
AcDbEntity
  8
JISSEN
100
AcDbCircle
 10
77.66958640674528
 20
163.0762138776484
 30
0.0
 40
0.2
100
AcDbArc
 50
207.0000000000017
 51
270.0
  0
SPLINE
  5
1D69187796
330
1D69183399
100
AcDbEntity
  8
JISSEN
100
AcDbSpline
210
0.0
220
0.0
230
1.0
 70
     8
 71
     3
 72
    12
 73
     8
 74
     0
 42
0.0000000001
 43
0.0000000001
 40
4.927655908264091
 40
4.927655908264091
 40
4.927655908264091
 40
4.927655908264091
 40
5.267374716391513
 40
5.267374716391513
 40
5.651619790278387
 40
5.651619790278387
 40
5.743457712309654
 40
5.743457712309654
 40
5.743457712309654
 40
5.743457712309654
 10
77.48670455129007
 20
166.5431398017795
 30
0.0
 10
77.40065355124142
 20
166.6608932691486
 30
0.0
 10
77.30931337595638
 20
166.7677642025019
 30
0.0
 10
77.11895070735471
 20
166.956573703726
 30
0.0
 10
77.02006864133267
 20
167.0330172960369
 30
0.0
 10
76.91974375293938
 20
167.0905597750746
 30
0.0
 10
76.9014567318606
 20
167.0998498607942
 30
0.0
 10
76.88455566794591
 20
167.1075394680802
 30
0.0
  0
ARC
  5
1D69187797
330
1D69183399
100
AcDbEntity
  8
JISSEN
100
AcDbCircle
 10
76.84811231679413
 20
167.0274402661064
 30
0.0
 40
0.088
100
AcDbArc
 50
65.53552317176055
 51
142.9939697501109
  0
ARC
  5
1D69187798
330
1D69183399
100
AcDbEntity
  8
JISSEN
100
AcDbCircle
 10
75.54702624911732
 20
167.4622416680343
 30
0.0
 40
0.3
100
AcDbArc
 50
180.0
 51
207.0000000000017
  0
ARC
  5
1D69187799
330
1D69183399
100
AcDbEntity
  8
JISSEN
100
AcDbCircle
 10
77.84869359726775
 20
166.2732830687665
 30
0.0
 40
1.340962879392063
100
AcDbArc
 50
142.9939697501317
 51
166.4699450128802
  0
ELLIPSE
  5
1D6918779A
330
1D69183399
100
AcDbEntity
  8
JISSEN
100
AcDbEllipse
 10
77.37120730711007
 20
166.1449650717016
 30
0.0
 11
-0.7365439769865056
 21
1.222289143954679
 31
0.0
210
0.0
220
0.0
230
1.0
 40
0.4069918413230502
 41
7.254579298188163
 42
7.60717270050308
  0
LINE
  5
1D6918779B
330
1D69183399
100
AcDbEntity
  8
JISSEN
100
AcDbLine
 10
82.1846016933784
 20
163.1762138776485
 30
0.0
 11
81.26948303327225
 21
165.7482543718066
 31
0.0
  0
LINE
  5
1D6918779C
330
1D69183399
100
AcDbEntity
  8
JISSEN
100
AcDbLine
 10
79.79702624911755
 20
160.6262138776486
 30
0.0
 11
79.79702624911755
 21
160.4762138776485
 31
0.0
  0
ARC
  5
1D6918779D
330
1D69183399
100
AcDbEntity
  8
JISSEN
100
AcDbCircle
 10
81.54702624911754
 20
160.6262138776486
 30
0.0
 40
0.2999999999998692
100
AcDbArc
 50
90.0
 51
180.0
  0
ARC
  5
1D6918779E
330
1D69183399
100
AcDbEntity
  8
JISSEN
100
AcDbCircle
 10
82.50643661314091
 20
165.8665688387639
 30
0.0
 40
1.375879154787482
100
AcDbArc
 50
114.4167034614547
 51
165.0144433096724
  0
ELLIPSE
  5
1D6918779F
330
1D69183399
100
AcDbEntity
  8
JISSEN
100
AcDbEllipse
 10
82.29577624911661
 20
166.1132138776484
 30
0.0
 11
-0.4476083380395809
 21
1.257724841019467
 31
0.0
210
0.0
220
0.0
230
1.0
 40
0.8159202227897862
 41
7.487959916961759
 42
7.853780332635299
  0
SPLINE
  5
1D691877A0
330
1D69183399
100
AcDbEntity
  8
JISSEN
100
AcDbSpline
210
0.0
220
0.0
230
1.0
 70
     8
 71
     3
 72
    14
 73
    10
 74
     0
 42
0.0000000001
 43
0.0000000001
 40
4.712392463599221
 40
4.712392463599221
 40
4.712392463599221
 40
4.712392463599221
 40
5.201868027680625
 40
5.201868027680625
 40
5.722054830448688
 40
5.722054830448688
 40
6.24224163321675
 40
6.24224163321675
 40
6.283185307179586
 40
6.283185307179586
 40
6.283185307179586
 40
6.283185307179586
 10
83.07042198192283
 20
166.3889004807291
 30
0.0
 10
83.00919740995045
 20
166.5605408828267
 30
0.0
 10
82.9129827749586
 20
166.7194430968146
 30
0.0
 10
82.67172081712415
 20
166.9774193092333
 30
0.0
 10
82.52501944161593
 20
167.0714409167574
 30
0.0
 10
82.23559425642651
 20
167.1655815955312
 30
0.0
 10
82.09401154383881
 20
167.1671560970158
 30
0.0
 10
81.95737289754783
 20
167.1261218594976
 30
0.0
 10
81.94748749675289
 20
167.1228807053843
 30
0.0
 10
81.93768957868513
 20
167.1193937504641
 30
0.0
  0
LINE
  5
1D691877A1
330
1D69183399
100
AcDbEntity
  8
JISSEN
100
AcDbLine
 10
82.65702624911767
 20
172.8762138776485
 30
0.0
 11
82.65702624911767
 21
175.3905137111997
 31
0.0
  0
LINE
  5
1D691877A2
330
1D69183399
100
AcDbEntity
  8
JISSEN
100
AcDbLine
 10
80.7845084333025
 20
175.3905137111997
 30
0.0
 11
80.7845084333025
 21
172.8762138776485
 31
0.0
  0
LINE
  5
1D691877A7
330
1D69183399
100
AcDbEntity
  8
JISSEN
100
AcDbLine
 10
102.229837001648
 20
48.50605271525
 30
0.0
 11
100.3496808045758
 21
48.50605271525
 31
0.0
  0
LINE
  5
1D691877A8
330
1D69183399
100
AcDbEntity
  8
JISSEN
100
AcDbLine
 10
102.229837001648
 20
45.50605271525
 30
0.0
 11
100.3496808045758
 21
45.50605271525
 31
0.0
  0
ARC
  5
1D691877AB
330
1D69183399
100
AcDbEntity
  8
JISSEN
100
AcDbCircle
 10
89.04702624911715
 20
47.00605271525006
 30
0.0
 40
17.0
100
AcDbArc
 50
338.4565193352617
 51
81.5434806647241
  0
ARC
  5
1D691877AC
330
1D69183399
100
AcDbEntity
  8
JISSEN
100
AcDbCircle
 10
89.04702624911715
 20
47.00605271525006
 30
0.0
 40
17.5
100
AcDbArc
 50
338.2132107017335
 51
81.78678929827027
  0
LINE
  5
1D691877AD
330
1D69183399
100
AcDbEntity
  8
JISSEN
100
AcDbLine
 10
94.33939351970593
 20
59.17270172022448
 30
0.0
 11
93.39931542116984
 21
57.54443869047713
 31
0.0
  0
ELLIPSE
  5
1D691877AE
330
1D69183399
100
AcDbEntity
  8
JISSEN
100
AcDbEllipse
 10
95.63843162538251
 20
58.42270172022449
 30
0.0
 11
1.299038105676657
 21
-0.7500000000000007
 31
0.0
210
0.0
220
0.0
230
1.0
 40
0.6114594983127546
 41
0.0
 42
3.141592653589793
  0
CIRCLE
  5
1D691877B3
330
1D69183399
100
AcDbEntity
  8
JISSEN
100
AcDbCircle
 10
89.04702624911715
 20
47.00605271525001
 30
0.0
 40
1.0
  0
CIRCLE
  5
1D691877B4
330
1D69183399
100
AcDbEntity
  8
JISSEN
100
AcDbCircle
 10
89.04702624911715
 20
47.00605271525001
 30
0.0
 40
1.25
  0
CIRCLE
  5
1D691877B5
330
1D69183399
100
AcDbEntity
  8
JISSEN
100
AcDbCircle
 10
89.04702624911715
 20
47.00605271525001
 30
0.0
 40
1.449999999999988
  0
CIRCLE
  5
1D691877B6
330
1D69183399
100
AcDbEntity
  8
JISSEN
100
AcDbCircle
 10
89.04702624911715
 20
47.00605271525001
 30
0.0
 40
2.25
  0
LINE
  5
1D691877D8
330
1D69183399
100
AcDbEntity
  8
JISSEN
100
AcDbLine
 10
101.2136752540916
 20
41.71368544466111
 30
0.0
 11
99.58541222434428
 21
42.65376354319721
 31
0.0
  0
LINE
  5
1D691877D9
330
1D69183399
100
AcDbEntity
  8
JISSEN
100
AcDbLine
 10
99.71367525409164
 20
39.11560923330785
 30
0.0
 11
98.08541222434428
 21
40.05568733184396
 31
0.0
  0
ELLIPSE
  5
1D691877DA
330
1D69183399
100
AcDbEntity
  8
JISSEN
100
AcDbEllipse
 10
100.4636752540916
 20
40.41464733898442
 30
0.0
 11
-0.7500000000000004
 21
-1.299038105676657
 31
0.0
210
0.0
220
0.0
230
0.9999999999999998
 40
0.6114594983127546
 41
0.0
 42
3.141592653589793
  0
LINE
  5
1D691877E1
330
1D69183399
100
AcDbEntity
  8
JISSEN
100
AcDbLine
 10
96.9374697310593
 20
57.67270172022449
 30
0.0
 11
95.99739163252321
 21
56.04443869047713
 31
0.0
  0
ELLIPSE
  5
1D691877E2
330
1D69183399
100
AcDbEntity
  8
JISSEN
100
AcDbEllipse
 10
100.4636752540916
 20
53.59745809151537
 30
0.0
 11
0.7499999999999992
 21
-1.299038105676658
 31
0.0
210
0.0
220
0.0
230
0.9999999999999998
 40
0.6114594983127546
 41
0.0
 42
3.141592653589793
  0
LINE
  5
1D691877E3
330
1D69183399
100
AcDbEntity
  8
JISSEN
100
AcDbLine
 10
101.2136752540916
 20
52.29841998583879
 30
0.0
 11
99.58541222434428
 21
51.35834188730267
 31
0.0
  0
LINE
  5
1D691877E4
330
1D69183399
100
AcDbEntity
  8
JISSEN
100
AcDbLine
 10
99.71367525409164
 20
54.89649619719216
 30
0.0
 11
98.08541222434428
 21
53.95641809865605
 31
0.0
  0
ARC
  5
1D691877E5
330
1D69183399
100
AcDbEntity
  8
JISSEN
100
AcDbCircle
 10
89.04702624911715
 20
47.00605271525006
 30
0.0
 40
16.25
100
AcDbArc
 50
83.14235158464763
 51
96.85764841535238
  0
ELLIPSE
  5
1D691877E6
330
1D69183399
100
AcDbEntity
  8
JISSEN
100
AcDbEllipse
 10
89.04702624911715
 20
60.18886346778095
 30
0.0
 11
1.5
 21
-0.0000000000000003
 31
0.0
210
0.0
220
0.0
230
1.0
 40
0.6114594983127546
 41
0.0
 42
3.141592653589793
  0
ARC
  5
1D691877E7
330
1D69183399
100
AcDbEntity
  8
JISSEN
100
AcDbCircle
 10
87.04702624911623
 20
63.63622108481195
 30
0.0
 40
0.5
100
AcDbArc
 50
180.0000000000032
 51
276.8576484153523
  0
LINE
  5
1D691877E8
330
1D69183399
100
AcDbEntity
  8
JISSEN
100
AcDbLine
 10
87.54702624911715
 20
60.18886346778094
 30
0.0
 11
87.54702624911715
 21
58.30870727070873
 31
0.0
  0
LINE
  5
1D691877E9
330
1D69183399
100
AcDbEntity
  8
JISSEN
100
AcDbLine
 10
86.54702624911625
 20
64.32656079093817
 30
0.0
 11
86.54702624911635
 21
63.63622108481217
 31
0.0
  0
ARC
  5
1D691877EA
330
1D69183399
100
AcDbEntity
  8
JISSEN
100
AcDbCircle
 10
91.04702624911624
 20
63.63622108481234
 30
0.0
 40
0.5
100
AcDbArc
 50
263.1423515846476
 51
0.0000000000032569
  0
LINE
  5
1D691877EB
330
1D69183399
100
AcDbEntity
  8
JISSEN
100
AcDbLine
 10
90.54702624911715
 20
60.18886346778094
 30
0.0
 11
90.54702624911715
 21
58.30870727070873
 31
0.0
  0
LINE
  5
1D691877EC
330
1D69183399
100
AcDbEntity
  8
JISSEN
100
AcDbLine
 10
91.54702624911635
 20
63.6362210848124
 30
0.0
 11
91.54702624911625
 21
64.32656079093852
 31
0.0
  0
ELLIPSE
  5
1D691877EF
330
1D69183399
100
AcDbEntity
  8
JISSEN
100
AcDbEllipse
 10
102.229837001648
 20
47.00605271525001
 30
0.0
 11
-0.0000000000000008
 21
-1.5
 31
0.0
210
0.0
220
0.0
230
1.0
 40
0.6114594983127546
 41
0.0
 42
3.141592653589793
  0
ARC
  5
1D691877F0
330
1D69183399
100
AcDbEntity
  8
JISSEN
100
AcDbCircle
 10
103.0470262491171
 20
47.00605271525001
 30
0.0
 40
2.25
100
AcDbArc
 50
296.8557628338753
 51
63.14423716612462
  0
ARC
  5
1D691877F1
330
1D69183399
100
AcDbEntity
  8
JISSEN
100
AcDbCircle
 10
89.04702624911715
 20
47.00605271525006
 30
0.0
 40
16.25
100
AcDbArc
 50
323.1423515846529
 51
336.8576484153537
  0
ARC
  5
1D691877F2
330
1D69183399
100
AcDbEntity
  8
JISSEN
100
AcDbCircle
 10
102.4491745263709
 20
36.95891772289991
 30
0.0
 40
0.5
100
AcDbArc
 50
143.1423515846529
 51
239.9999999999998
  0
LINE
  5
1D691877F3
330
1D69183399
100
AcDbEntity
  8
JISSEN
100
AcDbLine
 10
104.6991745263709
 20
40.85603203993014
 30
0.0
 11
105.2970262491172
 21
40.51086218686691
 31
0.0
  0
ARC
  5
1D691877F4
330
1D69183399
100
AcDbEntity
  8
JISSEN
100
AcDbCircle
 10
104.4491745263708
 20
40.4230193380377
 30
0.0
 40
0.5
100
AcDbArc
 50
60.00000000000028
 51
156.8576484153537
  0
ARC
  5
1D69187819
330
1D69183399
100
AcDbEntity
  8
JISSEN
 48
3.0
370
     0
100
AcDbCircle
 10
87.54702624911756
 20
149.184463456037
 30
0.0
 40
1.49999999999909
100
AcDbArc
 50
0.0
 51
90.0
  0
LINE
  5
1D6918781A
330
1D69183399
100
AcDbEntity
  8
JISSEN
100
AcDbLine
 10
86.54702624911733
 20
157.0762138776484
 30
0.0
 11
89.04702624911733
 21
157.0762138776484
 31
0.0
  0
LINE
  5
1D6918781B
330
1D69183399
100
AcDbEntity
  8
JISSEN
 48
3.0
100
AcDbLine
 10
87.547026249118
 20
156.0762138776484
 30
0.0
 11
87.54702624911846
 21
150.6844634560361
 31
0.0
  0
ARC
  5
1D6918781C
330
1D69183399
100
AcDbEntity
  8
JISSEN
100
AcDbCircle
 10
86.14702624911746
 20
156.6762138776483
 30
0.0
 40
0.1
100
AcDbArc
 50
270.0
 51
0.0
  0
ARC
  5
1D6918781D
330
1D69183399
100
AcDbEntity
  8
JISSEN
100
AcDbCircle
 10
86.54702624911754
 20
156.7762138776484
 30
0.0
 40
0.3
100
AcDbArc
 50
90.0
 51
179.9999999999804
  0
LINE
  5
1D6918781E
330
1D69183399
100
AcDbEntity
  8
JISSEN
100
AcDbLine
 10
86.2470262491176
 20
156.7762138776487
 30
0.0
 11
86.2470262491176
 21
156.6762138776483
 31
0.0
  0
LINE
  5
1D6918781F
330
1D69183399
100
AcDbEntity
  8
JISSEN
100
AcDbLine
 10
86.94702624911764
 20
158.3262138776484
 30
0.0
 11
86.94702624911764
 21
157.0762138776484
 31
0.0
  0
ARC
  5
1D69187851
330
1D69183399
100
AcDbEntity
  8
JISSEN
100
AcDbCircle
 10
89.04702624911733
 20
165.6980928979194
 30
0.0
 40
1.503191537583756
100
AcDbArc
 50
90.0
 51
176.2657161977734
  0
LINE
  5
1D69187852
330
1D69183399
100
AcDbEntity
  8
JISSEN
100
AcDbLine
 10
89.04702624911733
 20
163.1762138776485
 30
0.0
 11
87.54702624911756
 21
163.1762138776485
 31
0.0
  0
LINE
  5
1D69187853
330
1D69183399
100
AcDbEntity
  8
JISSEN
100
AcDbLine
 10
89.04702624911733
 20
159.6262138776486
 30
0.0
 11
86.39702624911768
 21
159.6262138776486
 31
0.0
  0
LINE
  5
1D69187854
330
1D69183399
100
AcDbEntity
  8
JISSEN
100
AcDbLine
 10
87.54702624911756
 20
163.1762138776485
 30
0.0
 11
87.54702624911756
 21
165.7959948829033
 31
0.0
  0
ARC
  5
1D69187855
330
1D69183399
100
AcDbEntity
  8
JISSEN
100
AcDbCircle
 10
86.39702624911768
 20
159.2762138776484
 30
0.0
 40
0.35
100
AcDbArc
 50
90.0
 51
180.0
  0
ARC
  5
1D69187856
330
1D69183399
100
AcDbEntity
  8
JISSEN
100
AcDbCircle
 10
86.39702624911768
 20
159.9762138776485
 30
0.0
 40
0.35
100
AcDbArc
 50
180.0
 51
270.0
  0
LINE
  5
1D69187857
330
1D69183399
100
AcDbEntity
  8
JISSEN
100
AcDbLine
 10
86.04702624911755
 20
160.2762138776484
 30
0.0
 11
86.04702624911755
 21
159.9762138776485
 31
0.0
  0
ARC
  5
1D69187858
330
1D69183399
100
AcDbEntity
  8
JISSEN
100
AcDbCircle
 10
85.8470262491175
 20
160.2762138776484
 30
0.0
 40
0.2
100
AcDbArc
 50
0.0
 51
90.0
  0
ARC
  5
1D69187859
330
1D69183399
100
AcDbEntity
  8
JISSEN
100
AcDbCircle
 10
85.8470262491175
 20
158.9762138776485
 30
0.0
 40
0.2
100
AcDbArc
 50
270.0
 51
0.0
  0
LINE
  5
1D6918785A
330
1D69183399
100
AcDbEntity
  8
JISSEN
100
AcDbLine
 10
86.04702624911755
 20
158.9762138776485
 30
0.0
 11
86.04702624911755
 21
159.2762138776484
 31
0.0
  0
LINE
  5
1D6918785B
330
1D69183399
100
AcDbEntity
  8
JISSEN
100
AcDbLine
 10
86.94702624911764
 20
162.8762138776486
 30
0.0
 11
86.94702624911764
 21
160.9262138776485
 31
0.0
  0
LINE
  5
1D6918788D
330
1D69183399
100
AcDbEntity
  8
TEXT
 62
     7
100
AcDbLine
 10
87.04702624911755
 20
174.5261639734716
 30
0.0
 11
89.04702624911754
 21
174.5261639734713
 31
0.0
  0
LINE
  5
1D6918788E
330
1D69183399
100
AcDbEntity
  8
TEXT
 62
     7
100
AcDbLine
 10
87.54702624911756
 20
174.0261639734715
 30
0.0
 11
89.04702624911754
 21
174.0261639734714
 31
0.0
  0
LINE
  5
1D6918788F
330
1D69183399
100
AcDbEntity
  8
SAISEN
100
AcDbLine
 10
87.34702624911774
 20
175.3905137111997
 30
0.0
 11
87.34702624911774
 21
174.2261639734716
 31
0.0
  0
LINE
  5
1D69187890
330
1D69183399
100
AcDbEntity
  8
JISSEN
100
AcDbLine
 10
87.04702624911755
 20
174.5261639734716
 30
0.0
 11
87.04702624911755
 21
175.3905137111997
 31
0.0
  0
LINE
  5
1D69187891
330
1D69183399
100
AcDbEntity
  8
JISSEN
100
AcDbLine
 10
83.97303464341797
 20
175.3905137111997
 30
0.0
 11
83.97303464341797
 21
172.8762138776485
 31
0.0
  0
LINE
  5
1D69187892
330
1D69183399
100
AcDbEntity
  8
JISSEN
100
AcDbLine
 10
85.37303464341807
 20
175.3905137111997
 30
0.0
 11
85.37303464341807
 21
172.8762138776485
 31
0.0
  0
LINE
  5
1D69187893
330
1D69183399
100
AcDbEntity
  8
JISSEN
100
AcDbLine
 10
87.04702624911755
 20
174.5261639734716
 30
0.0
 11
87.54702624911756
 21
174.0261639734715
 31
0.0
  0
LINE
  5
1D69187894
330
1D69183399
100
AcDbEntity
  8
JISSEN
100
AcDbLine
 10
87.54702624911756
 20
174.0261639734717
 30
0.0
 11
87.54702624911756
 21
172.8762138776486
 31
0.0
  0
LINE
  5
1D691878FB
330
1D69183399
100
AcDbEntity
  8
SUNPOU
 62
     7
100
AcDbLine
 10
78.78634611060255
 20
212.423783317577
 30
0.0
 11
89.04702624911733
 21
212.423783317577
 31
0.0
  0
LINE
  5
1D691878FC
330
1D69183399
100
AcDbEntity
  8
JISSEN
100
AcDbLine
 10
89.04702624911733
 20
213.6844634560918
 30
0.0
 11
80.04702624911733
 21
213.6844634560918
 31
0.0
  0
LINE
  5
1D691878FD
330
1D69183399
100
AcDbEntity
  8
JISSEN
 62
     7
100
AcDbLine
 10
86.54702624911687
 20
194.6344634560989
 30
0.0
 11
71.54702624910027
 21
194.6344634560989
 31
0.0
  0
LINE
  5
1D691878FE
330
1D69183399
100
AcDbEntity
  8
JISSEN
 62
     7
100
AcDbLine
 10
71.5470262491172
 20
195.1844634560915
 30
0.0
 11
86.54702624911687
 21
195.1844634560915
 31
0.0
  0
LINE
  5
1D691878FF
330
1D69183399
100
AcDbEntity
  8
JISSEN
 62
     7
100
AcDbLine
 10
71.54702624911755
 20
190.1844634560915
 30
0.0
 11
86.54702624911687
 21
190.1844634560916
 31
0.0
  0
LINE
  5
1D69187900
330
1D69183399
100
AcDbEntity
  8
JISSEN
 62
     7
100
AcDbLine
 10
86.54702624911687
 20
190.7344634560922
 30
0.0
 11
71.54702624911698
 21
190.7344634560916
 31
0.0
  0
LINE
  5
1D69187901
330
1D69183399
100
AcDbEntity
  8
JISSEN
 62
     7
100
AcDbLine
 10
71.54702624911834
 20
193.7344634560922
 30
0.0
 11
86.54702624911687
 21
193.7344634560887
 31
0.0
  0
LINE
  5
1D69187902
330
1D69183399
100
AcDbEntity
  8
JISSEN
 62
     7
100
AcDbLine
 10
86.54702624911687
 20
193.1344634560908
 30
0.0
 11
71.54702624911971
 21
193.1344634560908
 31
0.0
  0
LINE
  5
1D69187903
330
1D69183399
100
AcDbEntity
  8
JISSEN
 62
     7
100
AcDbLine
 10
71.54702624909879
 20
192.234463456084
 30
0.0
 11
86.54702624911687
 21
192.2344634560875
 31
0.0
  0
LINE
  5
1D69187904
330
1D69183399
100
AcDbEntity
  8
JISSEN
 62
     7
100
AcDbLine
 10
86.54702624911687
 20
191.6344634560908
 30
0.0
 11
71.5470262491172
 21
191.6344634560908
 31
0.0
  0
LINE
  5
1D69187905
330
1D69183399
100
AcDbEntity
  8
JISSEN
100
AcDbLine
 10
73.89694281110104
 20
188.3791888457946
 30
0.0
 11
89.04702624911733
 21
188.3791888457946
 31
0.0
  0
LINE
  5
1D69187906
330
1D69183399
100
AcDbEntity
  8
JISSEN
100
AcDbLine
 10
89.04702624911754
 20
196.6789830351005
 30
0.0
 11
78.29154582812583
 21
196.6789830351005
 31
0.0
  0
LINE
  5
1D69187907
330
1D69183399
100
AcDbEntity
  8
JISSEN
100
AcDbLine
 10
89.04702624911733
 20
198.656378800186
 30
0.0
 11
78.35368799351243
 21
198.656378800186
 31
0.0
  0
LINE
  5
1D69187908
330
1D69183399
100
AcDbEntity
  8
JISSEN
100
AcDbLine
 10
89.04702624911733
 20
195.6844634560919
 30
0.0
 11
72.04702624911732
 21
195.6844634560918
 31
0.0
  0
LINE
  5
1D69187909
330
1D69183399
100
AcDbEntity
  8
JISSEN
100
AcDbLine
 10
72.04702624911732
 20
189.6844634560918
 30
0.0
 11
89.04702624911733
 21
189.6844634560914
 31
0.0
  0
LINE
  5
1D69187913
330
1D69183399
100
AcDbEntity
  8
JISSEN
100
AcDbLine
 10
71.39702624911632
 20
201.0844634560962
 30
0.0
 11
70.79702624911778
 21
201.684463456097
 31
0.0
1001
ACAD
1000
ASC_BOUNDS
1002
{
1070
    19
1002
}
  0
LINE
  5
1D69187914
330
1D69183399
100
AcDbEntity
  8
JISSEN
100
AcDbLine
 10
78.78634611060277
 20
212.423783317577
 30
0.0
 11
78.29154582812606
 21
196.6789830351005
 31
0.0
  0
LINE
  5
1D69187915
330
1D69183399
100
AcDbEntity
  8
SAISEN
100
AcDbLine
 10
79.79086965712548
 20
213.4283068640999
 30
0.0
 11
79.32664311581556
 21
198.656378800186
 31
0.0
  0
LINE
  5
1D69187916
330
1D69183399
100
AcDbEntity
  8
JISSEN
100
AcDbLine
 10
73.89702624911746
 20
184.3905137111997
 30
0.0
 11
78.04469116659942
 21
184.3905137111994
 31
0.0
  0
LINE
  5
1D69187917
330
1D69183399
100
AcDbEntity
  8
JISSEN
100
AcDbLine
 10
77.79702624911755
 20
181.3905137111997
 30
0.0
 11
73.89702624911769
 21
181.3905137111997
 31
0.0
  0
LINE
  5
1D69187918
330
1D69183399
100
AcDbEntity
  8
JISSEN
100
AcDbLine
 10
71.54702624911732
 20
190.7344634560906
 30
0.0
 11
71.54702624911732
 21
190.1844634560918
 31
0.0
  0
LINE
  5
1D69187919
330
1D69183399
100
AcDbEntity
  8
JISSEN
 62
     7
370
     0
100
AcDbLine
 10
71.39702624911928
 20
196.3535159541674
 30
0.0
 11
71.39702624911723
 21
185.684463456097
 31
0.0
  0
LINE
  5
1D6918791A
330
1D69183399
100
AcDbEntity
  8
JISSEN
100
AcDbLine
 10
71.39702624911723
 20
185.6844634560966
 30
0.0
 11
73.79702624911686
 21
183.2844634560978
 31
0.0
  0
LINE
  5
1D6918791B
330
1D69183399
100
AcDbEntity
  8
JISSEN
100
AcDbLine
 10
73.89702624911723
 20
189.6844634560918
 30
0.0
 11
73.89702624911746
 21
184.3905137111997
 31
0.0
  0
LINE
  5
1D6918791C
330
1D69183399
100
AcDbEntity
  8
JISSEN
100
AcDbLine
 10
73.79702624911686
 20
183.2844634560978
 30
0.0
 11
73.79702624911686
 21
180.9344634560966
 31
0.0
  0
LINE
  5
1D6918791D
330
1D69183399
100
AcDbEntity
  8
JISSEN
100
AcDbLine
 10
73.29702624911596
 20
180.9344634561116
 30
0.0
 11
73.79702624911686
 21
180.9344634561116
 31
0.0
  0
LINE
  5
1D6918791E
330
1D69183399
100
AcDbEntity
  8
JISSEN
100
AcDbLine
 10
71.54702624911732
 20
190.1844634560918
 30
0.0
 11
72.04702624911732
 21
189.6844634560918
 31
0.0
  0
LINE
  5
1D6918791F
330
1D69183399
100
AcDbEntity
  8
SAISEN
100
AcDbLine
 10
74.39702624911723
 20
189.6844634560918
 30
0.0
 11
74.39702624911723
 21
188.3791888457945
 31
0.0
  0
LINE
  5
1D69187920
330
1D69183399
100
AcDbEntity
  8
SAISEN
100
AcDbLine
 10
74.39702624911723
 20
188.3791888457944
 30
0.0
 11
73.89702624911723
 21
188.0905137111996
 31
0.0
  0
LINE
  5
1D69187921
330
1D69183399
100
AcDbEntity
  8
JISSEN
100
AcDbLine
 10
72.04702624911732
 20
195.6844634560918
 30
0.0
 11
71.54702624911732
 21
195.1844634560918
 31
0.0
  0
LINE
  5
1D69187922
330
1D69183399
100
AcDbEntity
  8
JISSEN
100
AcDbLine
 10
71.54702624911732
 20
195.1844634560918
 30
0.0
 11
71.54702624911732
 21
194.6344634560912
 31
0.0
  0
LINE
  5
1D69187923
330
1D69183399
100
AcDbEntity
  8
JISSEN
100
AcDbLine
 10
71.54702624911732
 20
193.7344634560924
 30
0.0
 11
71.54702624911732
 21
193.1344634560911
 31
0.0
  0
ARC
  5
1D69187924
330
1D69183399
100
AcDbEntity
  8
JISSEN
100
AcDbCircle
 10
71.35952624911732
 20
191.1844634560918
 30
0.0
 40
0.4875000000000239
100
AcDbArc
 50
292.6198649480457
 51
67.38013505195425
  0
LINE
  5
1D69187925
330
1D69183399
100
AcDbEntity
  8
JISSEN
100
AcDbLine
 10
71.54702624911732
 20
192.2344634560924
 30
0.0
 11
71.54702624911732
 21
191.6344634560932
 31
0.0
  0
ARC
  5
1D69187926
330
1D69183399
100
AcDbEntity
  8
JISSEN
100
AcDbCircle
 10
71.35952624911732
 20
192.6844634560918
 30
0.0
 40
0.4875000000000239
100
AcDbArc
 50
292.6198649480457
 51
67.38013505195425
  0
ARC
  5
1D69187927
330
1D69183399
100
AcDbEntity
  8
JISSEN
100
AcDbCircle
 10
71.35952624911732
 20
194.1844634560918
 30
0.0
 40
0.4875000000000239
100
AcDbArc
 50
292.6198649480457
 51
67.38013505195425
  0
ARC
  5
1D69187928
330
1D69183399
100
AcDbEntity
  8
JISSEN
100
AcDbCircle
 10
71.44702624911741
 20
196.934463456097
 30
0.0
 40
0.4
100
AcDbArc
 50
284.4775121859837
 51
75.52248781407015
1001
ACAD
1000
ASC_BOUNDS
1002
{
1070
    19
1002
}
  0
ARC
  5
1D69187929
330
1D69183399
100
AcDbEntity
  8
JISSEN
100
AcDbCircle
 10
71.59702624911705
 20
196.3535159541674
 30
0.0
 40
0.2
100
AcDbArc
 50
104.4775121859837
 51
180.0
1001
ACAD
1000
ASC_BOUNDS
1002
{
1070
    19
1002
}
  0
LINE
  5
1D6918792A
330
1D69183399
100
AcDbEntity
  8
JISSEN
 62
     7
370
     0
100
AcDbLine
 10
71.39702624911723
 20
201.0844634560958
 30
0.0
 11
71.39702624911723
 21
197.5154109580275
 31
0.0
  0
ARC
  5
1D6918792B
330
1D69183399
100
AcDbEntity
  8
JISSEN
100
AcDbCircle
 10
71.59702624911705
 20
197.5154109580275
 30
0.0
 40
0.2
100
AcDbArc
 50
180.0
 51
255.52248781407
1001
ACAD
1000
ASC_BOUNDS
1002
{
1070
    19
1002
}
  0
ARC
  5
1D6918792C
330
1D69183399
100
AcDbEntity
  8
JISSEN
100
AcDbCircle
 10
78.0446911665992
 20
182.8905137111997
 30
0.0
 40
1.5
100
AcDbArc
 50
270.0
 51
89.99999999999349
  0
ARC
  5
1D6918792D
330
1D69183399
100
AcDbEntity
  8
JISSEN
100
AcDbCircle
 10
78.29702624911755
 20
181.3905137112002
 30
0.0
 40
2.500000000000011
100
AcDbArc
 50
65.66412066686061
 51
180.0
  0
LINE
  5
1D6918792E
330
1D69183399
100
AcDbEntity
  8
JISSEN
100
AcDbLine
 10
78.0446911665992
 20
181.3905137111997
 30
0.0
 11
77.76111043849454
 21
181.3905137111997
 31
0.0
  0
LINE
  5
1D6918792F
330
1D69183399
100
AcDbEntity
  8
JISSEN
100
AcDbLine
 10
78.82180787104329
 20
181.6075134665878
 30
0.0
 11
78.61327080533573
 21
181.7777983360723
 31
0.0
  0
ARC
  5
1D69187930
330
1D69183399
100
AcDbEntity
  8
JISSEN
100
AcDbCircle
 10
78.29702624911755
 20
181.3905137112002
 30
0.0
 40
0.5
100
AcDbArc
 50
50.76599557932714
 51
180.0
  0
LINE
  5
1D69187931
330
1D69183399
100
AcDbEntity
  8
JISSEN
100
AcDbLine
 10
77.54702624911755
 20
184.3905137111995
 30
0.0
 11
77.54702624911755
 21
183.8905137112002
 31
0.0
  0
LINE
  5
1D69187932
330
1D69183399
100
AcDbEntity
  8
JISSEN
100
AcDbLine
 10
77.54702624911755
 20
183.8905137112002
 30
0.0
 11
79.1627251553486
 21
183.8905137112002
 31
0.0
  0
LINE
  5
1D69187933
330
1D69183399
100
AcDbEntity
  8
JISSEN
100
AcDbLine
 10
77.29702624911732
 20
195.6844634560918
 30
0.0
 11
78.29154582812606
 21
196.6789830351005
 31
0.0
  0
LINE
  5
1D69187934
330
1D69183399
100
AcDbEntity
  8
SAISEN
100
AcDbLine
 10
78.29767956313498
 20
196.8741616478063
 30
0.0
 11
79.32664311581556
 21
198.656378800186
 31
0.0
  0
LINE
  5
1D69187935
330
1D69183399
100
AcDbEntity
  8
JISSEN
100
AcDbLine
 10
78.46456252053434
 20
201.684463456158
 30
0.0
 11
70.79702624911869
 21
201.684463456158
 31
0.0
  0
LINE
  5
1D69187938
330
1D69183399
100
AcDbEntity
  8
JISSEN
100
AcDbLine
 10
70.79702624911778
 20
201.684463456097
 30
0.0
 11
70.54702624911778
 21
201.434463456097
 31
0.0
1001
ACAD
1000
ASC_BOUNDS
1002
{
1070
    19
1002
}
  0
LINE
  5
1D6918793B
330
1D69183399
100
AcDbEntity
  8
JISSEN
100
AcDbLine
 10
78.78634611060277
 20
212.423783317577
 30
0.0
 11
80.04702624911733
 21
213.6844634560918
 31
0.0
  0
LINE
  5
1D69187959
330
1D69183399
100
AcDbEntity
  8
JISSEN
 62
     7
100
AcDbLine
 10
86.54702624911687
 20
195.6844634560914
 30
0.0
 11
86.54702624911687
 21
189.6844634560914
 31
0.0
  0
LINE
  5
1D69187A09
330
1D69183399
100
AcDbEntity
  8
JISSEN
 62
     7
100
AcDbLine
 10
91.54702624911761
 20
195.6844634560914
 30
0.0
 11
91.54702624911763
 21
189.6844634560914
 31
0.0
  0
LINE
  5
1D69187A0A
330
1D69183399
100
AcDbEntity
  8
JISSEN
100
AcDbLine
 10
99.30770638763164
 20
212.423783317577
 30
0.0
 11
98.0470262491171
 21
213.6844634560918
 31
0.0
  0
LINE
  5
1D69187A0B
330
1D69183399
100
AcDbEntity
  8
JISSEN
100
AcDbLine
 10
107.2970262491167
 20
201.6844634560971
 30
0.0
 11
107.5470262491166
 21
201.4344634560971
 31
0.0
1001
ACAD
1000
ASC_BOUNDS
1002
{
1070
    19
1002
}
  0
LINE
  5
1D69187A0C
330
1D69183399
100
AcDbEntity
  8
JISSEN
100
AcDbLine
 10
99.62948997770013
 20
201.684463456158
 30
0.0
 11
107.2970262491157
 21
201.684463456158
 31
0.0
  0
LINE
  5
1D69187A0D
330
1D69183399
100
AcDbEntity
  8
SAISEN
100
AcDbLine
 10
99.7963729350995
 20
196.8741616478064
 30
0.0
 11
98.76740938241892
 21
198.656378800186
 31
0.0
  0
LINE
  5
1D69187A0E
330
1D69183399
100
AcDbEntity
  8
JISSEN
100
AcDbLine
 10
100.7970262491171
 20
195.6844634560918
 30
0.0
 11
99.80250667010842
 21
196.6789830351006
 31
0.0
  0
LINE
  5
1D69187A0F
330
1D69183399
100
AcDbEntity
  8
JISSEN
100
AcDbLine
 10
100.5470262491169
 20
183.8905137112002
 30
0.0
 11
98.93132734288593
 21
183.8905137112002
 31
0.0
  0
LINE
  5
1D69187A10
330
1D69183399
100
AcDbEntity
  8
JISSEN
100
AcDbLine
 10
100.5470262491169
 20
184.3905137111995
 30
0.0
 11
100.5470262491169
 21
183.8905137112002
 31
0.0
  0
ARC
  5
1D69187A11
330
1D69183399
100
AcDbEntity
  8
JISSEN
100
AcDbCircle
 10
99.79702624911698
 20
181.3905137112002
 30
0.0
 40
0.5
100
AcDbArc
 50
0.0000000000001931
 51
129.234004420673
  0
LINE
  5
1D69187A12
330
1D69183399
100
AcDbEntity
  8
JISSEN
100
AcDbLine
 10
99.27224462719124
 20
181.6075134665878
 30
0.0
 11
99.4807816928988
 21
181.7777983360723
 31
0.0
  0
LINE
  5
1D69187A13
330
1D69183399
100
AcDbEntity
  8
JISSEN
100
AcDbLine
 10
100.0493613316353
 20
181.3905137111997
 30
0.0
 11
100.3329420597399
 21
181.3905137111997
 31
0.0
  0
ARC
  5
1D69187A14
330
1D69183399
100
AcDbEntity
  8
JISSEN
100
AcDbCircle
 10
99.79702624911698
 20
181.3905137112002
 30
0.0
 40
2.500000000000011
100
AcDbArc
 50
0.0000000000001931
 51
114.3358793331395
  0
ARC
  5
1D69187A15
330
1D69183399
100
AcDbEntity
  8
JISSEN
100
AcDbCircle
 10
100.0493613316353
 20
182.8905137111997
 30
0.0
 40
1.5
100
AcDbArc
 50
90.00000000000669
 51
270.0000000000002
  0
ARC
  5
1D69187A16
330
1D69183399
100
AcDbEntity
  8
JISSEN
100
AcDbCircle
 10
106.4970262491174
 20
197.5154109580276
 30
0.0
 40
0.2
100
AcDbArc
 50
284.4775121859301
 51
0.0000000000001931
1001
ACAD
1000
ASC_BOUNDS
1002
{
1070
    19
1002
}
  0
LINE
  5
1D69187A17
330
1D69183399
100
AcDbEntity
  8
JISSEN
 62
     7
370
     0
100
AcDbLine
 10
106.6970262491172
 20
201.0844634560958
 30
0.0
 11
106.6970262491172
 21
197.5154109580276
 31
0.0
  0
ARC
  5
1D69187A18
330
1D69183399
100
AcDbEntity
  8
JISSEN
100
AcDbCircle
 10
106.4970262491174
 20
196.3535159541675
 30
0.0
 40
0.2
100
AcDbArc
 50
0.0000000000001931
 51
75.5224878140164
1001
ACAD
1000
ASC_BOUNDS
1002
{
1070
    19
1002
}
  0
ARC
  5
1D69187A19
330
1D69183399
100
AcDbEntity
  8
JISSEN
100
AcDbCircle
 10
106.647026249117
 20
196.9344634560971
 30
0.0
 40
0.4
100
AcDbArc
 50
104.47751218593
 51
255.5224878140164
1001
ACAD
1000
ASC_BOUNDS
1002
{
1070
    19
1002
}
  0
ARC
  5
1D69187A1A
330
1D69183399
100
AcDbEntity
  8
JISSEN
100
AcDbCircle
 10
106.7345262491171
 20
194.1844634560919
 30
0.0
 40
0.4875000000000239
100
AcDbArc
 50
112.6198649480459
 51
247.3801350519544
  0
ARC
  5
1D69187A1B
330
1D69183399
100
AcDbEntity
  8
JISSEN
100
AcDbCircle
 10
106.7345262491171
 20
192.6844634560918
 30
0.0
 40
0.4875000000000239
100
AcDbArc
 50
112.6198649480459
 51
247.3801350519544
  0
LINE
  5
1D69187A1C
330
1D69183399
100
AcDbEntity
  8
JISSEN
100
AcDbLine
 10
106.5470262491171
 20
192.2344634560925
 30
0.0
 11
106.5470262491171
 21
191.6344634560933
 31
0.0
  0
ARC
  5
1D69187A1D
330
1D69183399
100
AcDbEntity
  8
JISSEN
100
AcDbCircle
 10
106.7345262491171
 20
191.1844634560918
 30
0.0
 40
0.4875000000000239
100
AcDbArc
 50
112.6198649480459
 51
247.3801350519544
  0
LINE
  5
1D69187A1E
330
1D69183399
100
AcDbEntity
  8
JISSEN
100
AcDbLine
 10
106.5470262491171
 20
193.7344634560925
 30
0.0
 11
106.5470262491171
 21
193.1344634560912
 31
0.0
  0
LINE
  5
1D69187A1F
330
1D69183399
100
AcDbEntity
  8
JISSEN
100
AcDbLine
 10
106.5470262491171
 20
195.1844634560919
 30
0.0
 11
106.5470262491171
 21
194.6344634560912
 31
0.0
  0
LINE
  5
1D69187A20
330
1D69183399
100
AcDbEntity
  8
JISSEN
100
AcDbLine
 10
106.0470262491171
 20
195.6844634560918
 30
0.0
 11
106.5470262491171
 21
195.1844634560919
 31
0.0
  0
LINE
  5
1D69187A21
330
1D69183399
100
AcDbEntity
  8
SAISEN
100
AcDbLine
 10
103.6970262491172
 20
188.3791888457944
 30
0.0
 11
104.1970262491172
 21
188.0905137111997
 31
0.0
  0
LINE
  5
1D69187A22
330
1D69183399
100
AcDbEntity
  8
SAISEN
100
AcDbLine
 10
103.6970262491172
 20
189.6844634560918
 30
0.0
 11
103.6970262491172
 21
188.3791888457945
 31
0.0
  0
LINE
  5
1D69187A23
330
1D69183399
100
AcDbEntity
  8
JISSEN
100
AcDbLine
 10
106.5470262491171
 20
190.1844634560919
 30
0.0
 11
106.0470262491171
 21
189.6844634560918
 31
0.0
  0
LINE
  5
1D69187A24
330
1D69183399
100
AcDbEntity
  8
JISSEN
100
AcDbLine
 10
104.7970262491185
 20
180.9344634561116
 30
0.0
 11
104.2970262491176
 21
180.9344634561116
 31
0.0
  0
LINE
  5
1D69187A25
330
1D69183399
100
AcDbEntity
  8
JISSEN
100
AcDbLine
 10
104.2970262491176
 20
183.2844634560979
 30
0.0
 11
104.2970262491176
 21
180.9344634560966
 31
0.0
  0
LINE
  5
1D69187A26
330
1D69183399
100
AcDbEntity
  8
JISSEN
100
AcDbLine
 10
104.1970262491172
 20
189.6844634560918
 30
0.0
 11
104.197026249117
 21
184.3905137111997
 31
0.0
  0
LINE
  5
1D69187A27
330
1D69183399
100
AcDbEntity
  8
JISSEN
100
AcDbLine
 10
106.6970262491172
 20
185.6844634560966
 30
0.0
 11
104.2970262491176
 21
183.2844634560979
 31
0.0
  0
LINE
  5
1D69187A28
330
1D69183399
100
AcDbEntity
  8
JISSEN
 62
     7
370
     0
100
AcDbLine
 10
106.6970262491151
 20
196.3535159541675
 30
0.0
 11
106.6970262491172
 21
185.6844634560971
 31
0.0
  0
LINE
  5
1D69187A29
330
1D69183399
100
AcDbEntity
  8
JISSEN
100
AcDbLine
 10
106.5470262491171
 20
190.7344634560907
 30
0.0
 11
106.5470262491171
 21
190.1844634560919
 31
0.0
  0
LINE
  5
1D69187A2A
330
1D69183399
100
AcDbEntity
  8
JISSEN
100
AcDbLine
 10
100.2970262491169
 20
181.3905137111997
 30
0.0
 11
104.1970262491168
 21
181.3905137111997
 31
0.0
  0
LINE
  5
1D69187A2B
330
1D69183399
100
AcDbEntity
  8
JISSEN
100
AcDbLine
 10
104.197026249117
 20
184.3905137111997
 30
0.0
 11
100.0493613316351
 21
184.3905137111994
 31
0.0
  0
LINE
  5
1D69187A2C
330
1D69183399
100
AcDbEntity
  8
SAISEN
100
AcDbLine
 10
98.30318284110894
 20
213.4283068641
 30
0.0
 11
98.76740938241892
 21
198.656378800186
 31
0.0
  0
LINE
  5
1D69187A2D
330
1D69183399
100
AcDbEntity
  8
JISSEN
100
AcDbLine
 10
99.30770638763164
 20
212.423783317577
 30
0.0
 11
99.80250667010842
 21
196.6789830351006
 31
0.0
  0
LINE
  5
1D69187A2E
330
1D69183399
100
AcDbEntity
  8
JISSEN
100
AcDbLine
 10
106.6970262491181
 20
201.0844634560962
 30
0.0
 11
107.2970262491167
 21
201.6844634560971
 31
0.0
1001
ACAD
1000
ASC_BOUNDS
1002
{
1070
    19
1002
}
  0
LINE
  5
1D69187A2F
330
1D69183399
100
AcDbEntity
  8
JISSEN
100
AcDbLine
 10
106.0470262491171
 20
189.6844634560918
 30
0.0
 11
89.04702624911719
 21
189.6844634560914
 31
0.0
  0
LINE
  5
1D69187A30
330
1D69183399
100
AcDbEntity
  8
JISSEN
100
AcDbLine
 10
89.04702624911715
 20
195.6844634560919
 30
0.0
 11
106.0470262491171
 21
195.6844634560918
 31
0.0
  0
LINE
  5
1D69187A31
330
1D69183399
100
AcDbEntity
  8
JISSEN
100
AcDbLine
 10
89.04702624911715
 20
198.656378800186
 30
0.0
 11
99.74036450472205
 21
198.656378800186
 31
0.0
  0
LINE
  5
1D69187A32
330
1D69183399
100
AcDbEntity
  8
JISSEN
100
AcDbLine
 10
89.04702624911692
 20
196.6789830351005
 30
0.0
 11
99.80250667010864
 21
196.6789830351006
 31
0.0
  0
LINE
  5
1D69187A33
330
1D69183399
100
AcDbEntity
  8
JISSEN
100
AcDbLine
 10
104.1971096871334
 20
188.3791888457947
 30
0.0
 11
89.04702624911719
 21
188.3791888457946
 31
0.0
  0
LINE
  5
1D69187A34
330
1D69183399
100
AcDbEntity
  8
JISSEN
 62
     7
100
AcDbLine
 10
91.54702624911763
 20
191.6344634560908
 30
0.0
 11
106.5470262491172
 21
191.6344634560909
 31
0.0
  0
LINE
  5
1D69187A35
330
1D69183399
100
AcDbEntity
  8
JISSEN
 62
     7
100
AcDbLine
 10
106.5470262491357
 20
192.2344634560841
 30
0.0
 11
91.54702624911763
 21
192.2344634560875
 31
0.0
  0
LINE
  5
1D69187A36
330
1D69183399
100
AcDbEntity
  8
JISSEN
 62
     7
100
AcDbLine
 10
91.54702624911763
 20
193.1344634560908
 30
0.0
 11
106.5470262491147
 21
193.1344634560909
 31
0.0
  0
LINE
  5
1D69187A37
330
1D69183399
100
AcDbEntity
  8
JISSEN
 62
     7
100
AcDbLine
 10
106.5470262491161
 20
193.7344634560923
 30
0.0
 11
91.54702624911763
 21
193.7344634560887
 31
0.0
  0
LINE
  5
1D69187A38
330
1D69183399
100
AcDbEntity
  8
JISSEN
 62
     7
100
AcDbLine
 10
91.54702624911763
 20
190.7344634560922
 30
0.0
 11
106.5470262491175
 21
190.7344634560917
 31
0.0
  0
LINE
  5
1D69187A39
330
1D69183399
100
AcDbEntity
  8
JISSEN
 62
     7
100
AcDbLine
 10
106.5470262491169
 20
190.1844634560916
 30
0.0
 11
91.54702624911763
 21
190.1844634560916
 31
0.0
  0
LINE
  5
1D69187A3A
330
1D69183399
100
AcDbEntity
  8
JISSEN
 62
     7
100
AcDbLine
 10
106.5470262491172
 20
195.1844634560915
 30
0.0
 11
91.54702624911761
 21
195.1844634560915
 31
0.0
  0
LINE
  5
1D69187A3B
330
1D69183399
100
AcDbEntity
  8
JISSEN
 62
     7
100
AcDbLine
 10
91.54702624911761
 20
194.6344634560989
 30
0.0
 11
106.5470262491342
 21
194.634463456099
 31
0.0
  0
LINE
  5
1D69187A3C
330
1D69183399
100
AcDbEntity
  8
JISSEN
100
AcDbLine
 10
89.0470262491171
 20
213.6844634560918
 30
0.0
 11
98.0470262491171
 21
213.6844634560918
 31
0.0
  0
LINE
  5
1D69187A3D
330
1D69183399
100
AcDbEntity
  8
SUNPOU
 62
     7
100
AcDbLine
 10
99.30770638763187
 20
212.423783317577
 30
0.0
 11
89.0470262491171
 21
212.423783317577
 31
0.0
  0
LINE
  5
1D69187A3E
330
1D69183399
100
AcDbEntity
  8
JISSEN
100
AcDbLine
 10
90.54702624911701
 20
174.0261639734717
 30
0.0
 11
90.54702624911701
 21
172.8762138776486
 31
0.0
  0
LINE
  5
1D69187A3F
330
1D69183399
100
AcDbEntity
  8
JISSEN
100
AcDbLine
 10
91.047026249117
 20
174.5261639734716
 30
0.0
 11
90.54702624911701
 21
174.0261639734715
 31
0.0
  0
LINE
  5
1D69187A40
330
1D69183399
100
AcDbEntity
  8
JISSEN
100
AcDbLine
 10
92.7210178548165
 20
175.3905137111997
 30
0.0
 11
92.7210178548165
 21
172.8762138776485
 31
0.0
  0
LINE
  5
1D69187A41
330
1D69183399
100
AcDbEntity
  8
JISSEN
100
AcDbLine
 10
94.12101785481658
 20
175.3905137111997
 30
0.0
 11
94.12101785481658
 21
172.8762138776485
 31
0.0
  0
LINE
  5
1D69187A42
330
1D69183399
100
AcDbEntity
  8
JISSEN
100
AcDbLine
 10
91.047026249117
 20
174.5261639734716
 30
0.0
 11
91.047026249117
 21
175.3905137111997
 31
0.0
  0
LINE
  5
1D69187A43
330
1D69183399
100
AcDbEntity
  8
SAISEN
100
AcDbLine
 10
90.74702624911683
 20
175.3905137111997
 30
0.0
 11
90.74702624911683
 21
174.2261639734716
 31
0.0
  0
LINE
  5
1D69187A44
330
1D69183399
100
AcDbEntity
  8
TEXT
 62
     7
100
AcDbLine
 10
90.54702624911701
 20
174.0261639734715
 30
0.0
 11
89.04702624911701
 21
174.0261639734714
 31
0.0
  0
LINE
  5
1D69187A45
330
1D69183399
100
AcDbEntity
  8
TEXT
 62
     7
100
AcDbLine
 10
91.047026249117
 20
174.5261639734716
 30
0.0
 11
89.04702624911701
 21
174.5261639734713
 31
0.0
  0
LINE
  5
1D69187A46
330
1D69183399
100
AcDbEntity
  8
JISSEN
100
AcDbLine
 10
91.14702624911695
 20
162.8762138776486
 30
0.0
 11
91.14702624911695
 21
160.9262138776485
 31
0.0
  0
LINE
  5
1D69187A47
330
1D69183399
100
AcDbEntity
  8
JISSEN
100
AcDbLine
 10
92.04702624911707
 20
158.9762138776485
 30
0.0
 11
92.04702624911703
 21
159.2762138776484
 31
0.0
  0
ARC
  5
1D69187A48
330
1D69183399
100
AcDbEntity
  8
JISSEN
100
AcDbCircle
 10
92.24702624911712
 20
158.9762138776485
 30
0.0
 40
0.2
100
AcDbArc
 50
180.0000000000001
 51
270.0000000000002
  0
ARC
  5
1D69187A49
330
1D69183399
100
AcDbEntity
  8
JISSEN
100
AcDbCircle
 10
92.24702624911708
 20
160.2762138776484
 30
0.0
 40
0.2
100
AcDbArc
 50
90.00000000000019
 51
180.0000000000001
  0
LINE
  5
1D69187A4A
330
1D69183399
100
AcDbEntity
  8
JISSEN
100
AcDbLine
 10
92.04702624911703
 20
160.2762138776484
 30
0.0
 11
92.04702624911703
 21
159.9762138776485
 31
0.0
  0
ARC
  5
1D69187A4B
330
1D69183399
100
AcDbEntity
  8
JISSEN
100
AcDbCircle
 10
91.69702624911691
 20
159.9762138776485
 30
0.0
 40
0.35
100
AcDbArc
 50
270.0000000000002
 51
0.0000000000001931
  0
ARC
  5
1D69187A4C
330
1D69183399
100
AcDbEntity
  8
JISSEN
100
AcDbCircle
 10
91.69702624911691
 20
159.2762138776484
 30
0.0
 40
0.35
100
AcDbArc
 50
0.0000000000001931
 51
90.00000000000019
  0
LINE
  5
1D69187A4D
330
1D69183399
100
AcDbEntity
  8
JISSEN
100
AcDbLine
 10
90.54702624911703
 20
163.1762138776485
 30
0.0
 11
90.54702624911703
 21
165.7959948829033
 31
0.0
  0
LINE
  5
1D69187A4E
330
1D69183399
100
AcDbEntity
  8
JISSEN
100
AcDbLine
 10
89.04702624911726
 20
159.6262138776486
 30
0.0
 11
91.69702624911691
 21
159.6262138776486
 31
0.0
  0
LINE
  5
1D69187A4F
330
1D69183399
100
AcDbEntity
  8
JISSEN
100
AcDbLine
 10
89.04702624911726
 20
163.1762138776485
 30
0.0
 11
90.54702624911703
 21
163.1762138776485
 31
0.0
  0
ARC
  5
1D69187A50
330
1D69183399
100
AcDbEntity
  8
JISSEN
100
AcDbCircle
 10
89.04702624911726
 20
165.6980928979194
 30
0.0
 40
1.503191537583756
100
AcDbArc
 50
3.734283802226753
 51
90.00000000000019
  0
LINE
  5
1D69187A51
330
1D69183399
100
AcDbEntity
  8
JISSEN
100
AcDbLine
 10
91.14702624911698
 20
158.3262138776484
 30
0.0
 11
91.14702624911698
 21
157.0762138776484
 31
0.0
  0
LINE
  5
1D69187A52
330
1D69183399
100
AcDbEntity
  8
JISSEN
100
AcDbLine
 10
91.84702624911702
 20
156.7762138776487
 30
0.0
 11
91.84702624911702
 21
156.6762138776483
 31
0.0
  0
ARC
  5
1D69187A53
330
1D69183399
100
AcDbEntity
  8
JISSEN
100
AcDbCircle
 10
91.54702624911706
 20
156.7762138776484
 30
0.0
 40
0.3
100
AcDbArc
 50
0.0000000000197345
 51
90.00000000000019
  0
ARC
  5
1D69187A54
330
1D69183399
100
AcDbEntity
  8
JISSEN
100
AcDbCircle
 10
91.94702624911716
 20
156.6762138776483
 30
0.0
 40
0.1
100
AcDbArc
 50
180.0000000000001
 51
270.0000000000002
  0
LINE
  5
1D69187A55
330
1D69183399
100
AcDbEntity
  8
JISSEN
 48
3.0
100
AcDbLine
 10
90.5470262491166
 20
156.0762138776484
 30
0.0
 11
90.54702624911618
 21
150.6844634560361
 31
0.0
  0
LINE
  5
1D69187A56
330
1D69183399
100
AcDbEntity
  8
JISSEN
100
AcDbLine
 10
91.54702624911729
 20
157.0762138776484
 30
0.0
 11
89.04702624911729
 21
157.0762138776484
 31
0.0
  0
ARC
  5
1D69187A57
330
1D69183399
100
AcDbEntity
  8
JISSEN
 48
3.0
370
     0
100
AcDbCircle
 10
90.5470262491171
 20
149.184463456037
 30
0.0
 40
1.49999999999909
100
AcDbArc
 50
90.00000000000019
 51
180.0000000000001
  0
LINE
  5
1D69187A58
330
1D69183399
100
AcDbEntity
  8
JISSEN
100
AcDbLine
 10
97.30954406493205
 20
175.3905137111997
 30
0.0
 11
97.30954406493205
 21
172.8762138776486
 31
0.0
  0
LINE
  5
1D69187A59
330
1D69183399
100
AcDbEntity
  8
JISSEN
100
AcDbLine
 10
95.43702624911688
 20
172.8762138776485
 30
0.0
 11
95.43702624911688
 21
175.3905137111997
 31
0.0
  0
SPLINE
  5
1D69187A5A
330
1D69183399
100
AcDbEntity
  8
JISSEN
100
AcDbSpline
210
0.0
220
0.0
230
1.0
 70
     8
 71
     3
 72
    14
 73
    10
 74
     0
 42
0.0000000001
 43
0.0000000001
 40
4.712392463599221
 40
4.712392463599221
 40
4.712392463599221
 40
4.712392463599221
 40
5.201868027680625
 40
5.201868027680625
 40
5.722054830448688
 40
5.722054830448688
 40
6.24224163321675
 40
6.24224163321675
 40
6.283185307179586
 40
6.283185307179586
 40
6.283185307179586
 40
6.283185307179586
 10
95.02363051631174
 20
166.3889004807291
 30
0.0
 10
95.08485508828412
 20
166.5605408828267
 30
0.0
 10
95.18106972327597
 20
166.7194430968146
 30
0.0
 10
95.42233168111044
 20
166.9774193092333
 30
0.0
 10
95.56903305661863
 20
167.0714409167574
 30
0.0
 10
95.85845824180806
 20
167.1655815955312
 30
0.0
 10
96.00004095439578
 20
167.1671560970158
 30
0.0
 10
96.13667960068674
 20
167.1261218594976
 30
0.0
 10
96.14656500148168
 20
167.1228807053843
 30
0.0
 10
96.15636291954944
 20
167.1193937504641
 30
0.0
  0
ELLIPSE
  5
1D69187A5B
330
1D69183399
100
AcDbEntity
  8
JISSEN
100
AcDbEllipse
 10
95.79827624911796
 20
166.1132138776484
 30
0.0
 11
0.447608338039577
 21
1.257724841019469
 31
0.0
210
0.0
220
0.0
230
-1.0
 40
0.8159202227897862
 41
7.487959916961759
 42
7.853780332635299
  0
ARC
  5
1D69187A5C
330
1D69183399
100
AcDbEntity
  8
JISSEN
100
AcDbCircle
 10
95.58761588509367
 20
165.866568838764
 30
0.0
 40
1.375879154787482
100
AcDbArc
 50
14.98555669032772
 51
65.58329653854546
  0
ARC
  5
1D69187A5D
330
1D69183399
100
AcDbEntity
  8
JISSEN
100
AcDbCircle
 10
96.54702624911704
 20
160.6262138776486
 30
0.0
 40
0.2999999999998692
100
AcDbArc
 50
0.0000000000001931
 51
90.00000000000019
  0
LINE
  5
1D69187A5E
330
1D69183399
100
AcDbEntity
  8
JISSEN
100
AcDbLine
 10
98.29702624911703
 20
160.6262138776486
 30
0.0
 11
98.29702624911703
 21
160.4762138776485
 31
0.0
  0
LINE
  5
1D69187A5F
330
1D69183399
100
AcDbEntity
  8
JISSEN
100
AcDbLine
 10
95.90945080485619
 20
163.1762138776486
 30
0.0
 11
96.82456946496234
 21
165.7482543718066
 31
0.0
  0
ELLIPSE
  5
1D69187A60
330
1D69183399
100
AcDbEntity
  8
JISSEN
100
AcDbEllipse
 10
100.7228451911245
 20
166.1449650717016
 30
0.0
 11
0.7365439769865016
 21
1.222289143954681
 31
0.0
210
0.0
220
0.0
230
-1.0
 40
0.4069918413230502
 41
7.254579298188163
 42
7.60717270050308
  0
ARC
  5
1D69187A61
330
1D69183399
100
AcDbEntity
  8
JISSEN
100
AcDbCircle
 10
100.2453589009668
 20
166.2732830687665
 30
0.0
 40
1.340962879392063
100
AcDbArc
 50
13.53005498712
 51
37.00603024986842
  0
ARC
  5
1D69187A62
330
1D69183399
100
AcDbEntity
  8
JISSEN
100
AcDbCircle
 10
102.5470262491172
 20
167.4622416680343
 30
0.0
 40
0.3
100
AcDbArc
 50
332.9999999999984
 51
0.0000000000001931
  0
ARC
  5
1D69187A63
330
1D69183399
100
AcDbEntity
  8
JISSEN
100
AcDbCircle
 10
101.2459401814404
 20
167.0274402661065
 30
0.0
 40
0.088
100
AcDbArc
 50
37.00603024988926
 51
114.4644768282396
  0
SPLINE
  5
1D69187A64
330
1D69183399
100
AcDbEntity
  8
JISSEN
100
AcDbSpline
210
0.0
220
0.0
230
1.0
 70
     8
 71
     3
 72
    12
 73
     8
 74
     0
 42
0.0000000001
 43
0.0000000001
 40
4.927655908264091
 40
4.927655908264091
 40
4.927655908264091
 40
4.927655908264091
 40
5.267374716391513
 40
5.267374716391513
 40
5.651619790278387
 40
5.651619790278387
 40
5.743457712309654
 40
5.743457712309654
 40
5.743457712309654
 40
5.743457712309654
 10
100.6073479469445
 20
166.5431398017796
 30
0.0
 10
100.6933989469931
 20
166.6608932691486
 30
0.0
 10
100.7847391222781
 20
166.767764202502
 30
0.0
 10
100.9751017908798
 20
166.9565737037261
 30
0.0
 10
101.0739838569019
 20
167.033017296037
 30
0.0
 10
101.1743087452952
 20
167.0905597750746
 30
0.0
 10
101.1925957663739
 20
167.0998498607943
 30
0.0
 10
101.2094968302886
 20
167.1075394680803
 30
0.0
  0
ARC
  5
1D69187A65
330
1D69183399
100
AcDbEntity
  8
JISSEN
100
AcDbCircle
 10
100.4244660914893
 20
163.0762138776484
 30
0.0
 40
0.2
100
AcDbArc
 50
270.0000000000002
 51
332.9999999999984
  0
LINE
  5
1D69187A66
330
1D69183399
100
AcDbEntity
  8
JISSEN
100
AcDbLine
 10
98.5796722160677
 20
163.1762138776486
 30
0.0
 11
99.59144507591497
 21
163.1762138776486
 31
0.0
  0
LINE
  5
1D69187A67
330
1D69183399
100
AcDbEntity
  8
JISSEN
100
AcDbLine
 10
98.5796722160677
 20
163.1762138776486
 30
0.0
 11
100.6203159851321
 21
166.5626467364376
 31
0.0
  0
LINE
  5
1D69187A68
330
1D69183399
100
AcDbEntity
  8
JISSEN
100
AcDbLine
 10
99.59144507591521
 20
163.1762138776486
 30
0.0
 11
101.3851779815466
 21
166.1529000311105
 31
0.0
  0
LINE
  5
1D69187A69
330
1D69183399
100
AcDbEntity
  8
JISSEN
100
AcDbLine
 10
102.8143282063734
 20
167.3260445181125
 30
0.0
 11
100.6026673963268
 21
162.9854157777007
 31
0.0
  0
LINE
  5
1D69187A6A
330
1D69183399
100
AcDbEntity
  8
JISSEN
100
AcDbLine
 10
102.8470262491169
 20
171.7762138776487
 30
0.0
 11
102.8470262491169
 21
167.4622416680343
 31
0.0
  0
LINE
  5
1D69187A6B
330
1D69183399
100
AcDbEntity
  8
JISSEN
100
AcDbLine
 10
103.9470262491168
 20
175.3905137111997
 30
0.0
 11
104.1970262491168
 21
175.8235264130916
 31
0.0
  0
LINE
  5
1D69187A6C
330
1D69183399
100
AcDbEntity
  8
JISSEN
100
AcDbLine
 10
103.1470262491171
 20
172.8762138776486
 30
0.0
 11
103.1470262491171
 21
172.6762138776486
 31
0.0
  0
LINE
  5
1D69187A6D
330
1D69183399
100
AcDbEntity
  8
JISSEN
100
AcDbLine
 10
103.1470262491171
 20
172.8762138776486
 30
0.0
 11
103.1470262491171
 21
172.6762138776486
 31
0.0
  0
LINE
  5
1D69187A6E
330
1D69183399
100
AcDbEntity
  8
TENSEN
100
AcDbLine
 10
106.2970262491195
 20
172.1844634561034
 30
0.0
 11
106.2970262491195
 21
169.8844634560914
 31
0.0
  0
ARC
  5
1D69187A6F
330
1D69183399
100
AcDbEntity
  8
TENSEN
100
AcDbCircle
 10
106.7970262491204
 20
172.1844634561034
 30
0.0
 40
0.5
100
AcDbArc
 50
359.999999999948
 51
180.0000000000001
  0
LINE
  5
1D69187A70
330
1D69183399
100
AcDbEntity
  8
TENSEN
100
AcDbLine
 10
107.2970262491204
 20
172.184463456103
 30
0.0
 11
107.2970262491195
 21
171.0963011651147
 31
0.0
  0
ARC
  5
1D69187A71
330
1D69183399
100
AcDbEntity
  8
TENSEN
100
AcDbCircle
 10
106.0970262491197
 20
169.8844634560914
 30
0.0
 40
0.2
100
AcDbArc
 50
270.0000000000002
 51
0.0000000000001931
  0
LINE
  5
1D69187A72
330
1D69183399
100
AcDbEntity
  8
JISSEN
100
AcDbLine
 10
106.0970262491197
 20
169.6844634560915
 30
0.0
 11
105.9800370401932
 21
169.6844634560933
 31
0.0
  0
ARC
  5
1D69187A73
330
1D69183399
100
AcDbEntity
  8
JISSEN
100
AcDbCircle
 10
105.9800370401932
 20
169.8844634560932
 30
0.0
 40
0.2
100
AcDbArc
 50
185.0796078599686
 51
270.0000000000002
  0
LINE
  5
1D69187A74
330
1D69183399
100
AcDbEntity
  8
JISSEN
100
AcDbLine
 10
106.1970262491189
 20
169.6844634560934
 30
0.0
 11
105.9800370401932
 21
169.6844634560934
 31
0.0
  0
ARC
  5
1D69187A75
330
1D69183399
100
AcDbEntity
  8
JISSEN
100
AcDbCircle
 10
108.547026249115
 20
174.2805401435382
 30
0.0
 40
1.0
100
AcDbArc
 50
179.9999999999936
 51
280.24837883442
  0
LINE
  5
1D69187A76
330
1D69183399
100
AcDbEntity
  8
TENSEN
100
AcDbLine
 10
107.7970262491195
 20
170.5963011651142
 30
0.0
 11
106.2970262491195
 21
170.5963011651142
 31
0.0
  0
ARC
  5
1D69187A77
330
1D69183399
100
AcDbEntity
  8
TENSEN
100
AcDbCircle
 10
107.7970262491195
 20
171.0963011651142
 30
0.0
 40
0.5
100
AcDbArc
 50
179.9999999999741
 51
280.2483788343934
  0
ARC
  5
1D69187A78
330
1D69183399
100
AcDbEntity
  8
JISSEN
100
AcDbCircle
 10
104.3470262491172
 20
171.7762138776487
 30
0.0
 40
1.5
100
AcDbArc
 50
143.1301023541626
 51
180.0000000000001
  0
LINE
  5
1D69187A79
330
1D69183399
100
AcDbEntity
  8
JISSEN
100
AcDbLine
 10
97.30954406493205
 20
172.8762138776486
 30
0.0
 11
103.1470262491171
 21
172.8762138776486
 31
0.0
  0
LINE
  5
1D69187A7A
330
1D69183399
100
AcDbEntity
  8
JISSEN
100
AcDbLine
 10
106.1970262491175
 20
169.6844634560933
 30
0.0
 11
102.8470262491169
 21
169.6844634560933
 31
0.0
  0
ARC
  5
1D69187A7B
330
1D69183399
100
AcDbEntity
  8
JISSEN
100
AcDbCircle
 10
96.54702624911706
 20
158.6262138776484
 30
0.0
 40
0.2999999999998692
100
AcDbArc
 50
270.0000000000002
 51
0.0000000000001931
  0
ARC
  5
1D69187A7C
330
1D69183399
100
AcDbEntity
  8
JISSEN
100
AcDbCircle
 10
97.0470262491173
 20
156.3762138776486
 30
0.0
 40
0.3
100
AcDbArc
 50
270.0000000000002
 51
340.5287793651103
  0
LINE
  5
1D69187A7D
330
1D69183399
100
AcDbEntity
  8
JISSEN
100
AcDbLine
 10
98.2970262491173
 20
156.2762138776484
 30
0.0
 11
98.2970262491173
 21
156.5762138776484
 31
0.0
  0
LINE
  5
1D69187A7E
330
1D69183399
100
AcDbEntity
  8
JISSEN
100
AcDbLine
 10
98.2970262491173
 20
156.2762138776484
 30
0.0
 11
98.2970262491173
 21
156.5762138776484
 31
0.0
  0
LINE
  5
1D69187A7F
330
1D69183399
100
AcDbEntity
  8
JISSEN
100
AcDbLine
 10
106.1970262491201
 20
150.6844634560325
 30
0.0
 11
106.1970262491201
 21
149.1844634560966
 31
0.0
  0
LINE
  5
1D69187A80
330
1D69183399
100
AcDbEntity
  8
JISSEN
100
AcDbLine
 10
110.1970262491183
 20
149.1844634560348
 30
0.0
 11
110.1970262491181
 21
158.6844634560971
 31
0.0
  0
LINE
  5
1D69187A81
330
1D69183399
100
AcDbEntity
  8
JISSEN
100
AcDbLine
 10
107.6970262491146
 20
147.684463456033
 30
0.0
 11
108.6970262491201
 21
147.6844634560357
 31
0.0
  0
ARC
  5
1D69187A82
330
1D69183399
100
AcDbEntity
  8
JISSEN
 62
     7
370
     0
100
AcDbCircle
 10
108.6970262491192
 20
149.1844634560348
 30
0.0
 40
1.49999999999909
100
AcDbArc
 50
270.0000000001565
 51
0.0000000008860667
  0
ARC
  5
1D69187A83
330
1D69183399
100
AcDbEntity
  8
JISSEN
100
AcDbCircle
 10
107.6970262491201
 20
149.1844634560966
 30
0.0
 40
1.5
100
AcDbArc
 50
180.0000000000001
 51
270.0000000001565
  0
LINE
  5
1D69187A84
330
1D69183399
100
AcDbEntity
  8
JISSEN
100
AcDbLine
 10
106.1970262491196
 20
169.6844634560934
 30
0.0
 11
106.1970262491201
 21
150.6844634560325
 31
0.0
  0
LINE
  5
1D69187A85
330
1D69183399
100
AcDbEntity
  8
JISSEN
100
AcDbLine
 10
98.29702624911707
 20
158.6262138776484
 30
0.0
 11
98.29702624911707
 21
158.7762138776485
 31
0.0
  0
LINE
  5
1D69187A86
330
1D69183399
100
AcDbEntity
  8
JISSEN
100
AcDbLine
 10
123.0470262491183
 20
174.1808110192542
 30
0.0
 11
123.0470262491183
 21
174.6844634560916
 31
0.0
  0
ARC
  5
1D69187A87
330
1D69183399
100
AcDbEntity
  8
JISSEN
100
AcDbCircle
 10
122.0470262491174
 20
174.1808110192542
 30
0.0
 40
1.0
100
AcDbArc
 50
280.2483788344465
 51
0.0000000000262482
  0
LINE
  5
1D69187A88
330
1D69183399
100
AcDbEntity
  8
JISSEN
 48
3.0
100
AcDbLine
 10
120.2174902136742
 20
172.8338175357615
 30
0.0
 11
122.2249419514067
 21
173.1967652871467
 31
0.0
  0
ARC
  5
1D69187A89
330
1D69183399
100
AcDbEntity
  8
JISSEN
100
AcDbCircle
 10
125.1970262491181
 20
158.6844634560971
 30
0.0
 40
15.0
100
AcDbArc
 50
109.3883336173003
 51
180.0000000000001
  0
LINE
  5
1D69187A8A
330
1D69183399
100
AcDbEntity
  8
JISSEN
100
AcDbLine
 10
123.0470262491183
 20
174.6844634560916
 30
0.0
 11
107.547026249115
 21
174.6844634560915
 31
0.0
  0
LINE
  5
1D69187A8B
330
1D69183399
100
AcDbEntity
  8
JISSEN
100
AcDbLine
 10
108.7249419514039
 20
173.2964944114308
 30
0.0
 11
116.4017517951934
 21
174.6844634560915
 31
0.0
  0
LINE
  5
1D69187A8C
330
1D69183399
100
AcDbEntity
  8
TENSEN
100
AcDbLine
 10
107.8859841002618
 20
170.604278299073
 30
0.0
 11
120.2174902137786
 21
172.8338175357983
 31
0.0
  0
LINE
  5
1D69187A8D
330
1D69183399
100
AcDbEntity
  8
JISSEN
100
AcDbLine
 10
89.04702624911754
 20
147.6844634560964
 30
0.0
 11
108.6970262491192
 21
147.6844634560966
 31
0.0
  0
LINE
  5
1D69187A8E
330
1D69183399
100
AcDbEntity
  8
JISSEN
100
AcDbLine
 10
89.04702624911729
 20
158.3262138776484
 30
0.0
 11
96.54702624911706
 21
158.3262138776484
 31
0.0
  0
LINE
  5
1D69187A8F
330
1D69183399
100
AcDbEntity
  8
JISSEN
100
AcDbLine
 10
89.04702624911729
 20
156.0762138776484
 30
0.0
 11
97.0470262491173
 21
156.0762138776484
 31
0.0
  0
LINE
  5
1D69187A90
330
1D69183399
100
AcDbEntity
  8
JISSEN
100
AcDbLine
 10
89.04702624911729
 20
158.7762138776484
 30
0.0
 11
98.29702624911707
 21
158.7762138776485
 31
0.0
  0
LINE
  5
1D69187A91
330
1D69183399
100
AcDbEntity
  8
JISSEN
100
AcDbLine
 10
89.04702624911729
 20
158.6262138776486
 30
0.0
 11
98.29702624911707
 21
158.6262138776486
 31
0.0
  0
LINE
  5
1D69187A92
330
1D69183399
100
AcDbEntity
  8
JISSEN
100
AcDbLine
 10
98.2970262491173
 20
156.5762138776484
 30
0.0
 11
89.04702624911729
 21
156.5762138776484
 31
0.0
  0
LINE
  5
1D69187A93
330
1D69183399
100
AcDbEntity
  8
JISSEN
100
AcDbLine
 10
89.04702624911729
 20
156.2762138776484
 30
0.0
 11
98.2970262491173
 21
156.2762138776484
 31
0.0
  0
LINE
  5
1D69187A94
330
1D69183399
100
AcDbEntity
  8
JISSEN
100
AcDbLine
 10
89.04702624911726
 20
160.9262138776485
 30
0.0
 11
96.54702624911704
 21
160.9262138776486
 31
0.0
  0
LINE
  5
1D69187A95
330
1D69183399
100
AcDbEntity
  8
JISSEN
100
AcDbLine
 10
93.8805592906748
 20
163.1762138776486
 30
0.0
 11
95.02362543575884
 21
166.3889255628381
 31
0.0
  0
LINE
  5
1D69187A96
330
1D69183399
100
AcDbEntity
  8
JISSEN
100
AcDbLine
 10
93.88055929067457
 20
163.1762138776486
 30
0.0
 11
95.90945080485619
 21
163.1762138776486
 31
0.0
  0
LINE
  5
1D69187A97
330
1D69183399
100
AcDbEntity
  8
JISSEN
100
AcDbLine
 10
89.04702624911724
 20
172.8762138776486
 30
0.0
 11
95.43702624911688
 21
172.8762138776486
 31
0.0
  0
LINE
  5
1D69187A98
330
1D69183399
100
AcDbEntity
  8
JISSEN
100
AcDbLine
 10
89.04702624911726
 20
160.4762138776485
 30
0.0
 11
98.29702624911703
 21
160.4762138776485
 31
0.0
  0
LINE
  5
1D69187A99
330
1D69183399
100
AcDbEntity
  8
JISSEN
100
AcDbLine
 10
89.04702624911726
 20
160.6262138776485
 30
0.0
 11
98.29702624911703
 21
160.6262138776486
 31
0.0
  0
LINE
  5
1D69187A9A
330
1D69183399
100
AcDbEntity
  8
JISSEN
100
AcDbLine
 10
89.04702624911704
 20
162.8762138776486
 30
0.0
 11
100.4244660914893
 21
162.8762138776486
 31
0.0
  0
LINE
  5
1D69187A9B
330
1D69183399
100
AcDbEntity
  8
JISSEN
100
AcDbLine
 10
102.8446215318596
 20
167.4243332561794
 30
0.0
 11
89.04702624911726
 21
167.4243332561794
 31
0.0
  0
LINE
  5
1D69187A9C
330
1D69183399
100
AcDbEntity
  8
JISSEN
100
AcDbLine
 10
103.1470262491171
 20
172.6762138776486
 30
0.0
 11
89.04702624911724
 21
172.6762138776485
 31
0.0
  0
LINE
  5
1D69187A9D
330
1D69183399
100
AcDbEntity
  8
JISSEN
100
AcDbLine
 10
89.04702624911724
 20
172.8762138776486
 30
0.0
 11
103.1470262491171
 21
172.8762138776486
 31
0.0
  0
LINE
  5
1D69187A9E
330
1D69183399
100
AcDbEntity
  8
TEXT
 62
     7
100
AcDbLine
 10
104.1970262491168
 20
175.8235264130916
 30
0.0
 11
89.04702624911701
 21
175.8235264130915
 31
0.0
  0
LINE
  5
1D69187A9F
330
1D69183399
100
AcDbEntity
  8
JISSEN
100
AcDbLine
 10
89.04702624911701
 20
175.3905137111997
 30
0.0
 11
103.9470262491168
 21
175.3905137111997
 31
0.0
  0
LINE
  5
1D69187AA0
330
1D69183399
100
AcDbEntity
  8
JISSEN
100
AcDbLine
 10
90.5470262491171
 20
150.6844634560361
 30
0.0
 11
106.1970262491201
 21
150.6844634560361
 31
0.0
  0
HATCH
  5
1D69187AA1
330
1D69183399
100
AcDbEntity
  8
HATCH
100
AcDbHatch
 10
0.0
 20
0.0
 30
0.0
210
0.0
220
0.0
230
1.0
  2
ANSI31
 70
     0
 71
     0
 91
        2
 92
        7
 72
     1
 73
     1
 93
       11
 10
120.2174902137788
 20
172.8338175357983
 42
0.0
 10
107.841862842129
 20
170.5963011651142
 42
0.0
 10
106.2970262491195
 20
170.5963011651143
 42
0.0
 10
106.2970262491195
 20
169.8844634560914
 42
-0.2679491924309735
 10
106.1970262491196
 20
169.7112583753346
 42
0.0
 10
106.1970262491201
 20
150.6844634560325
 42
0.0
 10
106.1970262491201
 20
149.1844634560966
 42
0.4142135623863255
 10
107.6970262491242
 20
147.684463456033
 42
0.0
 10
108.6970262491233
 20
147.6844634560357
 42
0.414213562372296
 10
110.1970262491183
 20
149.1844634560348
 42
0.0
 10
110.1970262491181
 20
158.6844634560971
 42
-0.3182354891986536
 97
        0
 92
        7
 72
     1
 73
     1
 93
       37
 10
107.5470262491166
 20
201.4344634560971
 42
0.0
 10
107.2970262491167
 20
201.6844634560971
 42
0.0
 10
106.6970262491172
 20
201.0844634560954
 42
0.0
 10
106.6970262491172
 20
197.5154109580276
 42
-0.3419987131192447
 10
106.5470262491171
 20
197.3217617907177
 42
-0.4903143948256207
 10
107.047026249117
 20
196.9344634560971
 42
-0.4903138930594824
 10
106.5470268757926
 20
196.54716495967
 42
-0.3419978094579608
 10
106.6970262491172
 20
196.3535159541675
 42
0.0
 10
106.6970262491172
 20
194.5154109580276
 42
-0.3419987131192447
 10
106.5470262491171
 20
194.3217617907177
 42
-0.4903143948256207
 10
107.047026249117
 20
193.9344634560971
 42
-0.4903143948256043
 10
106.5470262491172
 20
193.5471651214763
 42
-0.3419987131196557
 10
106.6970262491172
 20
193.353515954166
 42
0.0
 10
106.6970262491172
 20
191.5154109580276
 42
-0.3419987131192447
 10
106.5470262491171
 20
191.3217617907177
 42
-0.4903143948256207
 10
107.047026249117
 20
190.9344634560971
 42
-0.4903143948258117
 10
106.5470262491174
 20
190.5471651214761
 42
-0.3419987131185312
 10
106.6970262491163
 20
190.3535159541657
 42
0.0
 10
106.6970262491172
 20
185.6844634560967
 42
0.0
 10
104.2970262491176
 20
183.2844634560979
 42
0.0
 10
104.2970262491176
 20
180.9344634561116
 42
0.0
 10
104.7970262491185
 20
180.9344634561117
 42
0.0
 10
105.7808225120539
 20
169.8667554980366
 42
0.3884789017125283
 10
105.9800370401894
 20
169.6844634560933
 42
0.0
 10
106.0970262491167
 20
169.6844634560915
 42
0.4142135623773823
 10
106.2970262491195
 20
169.8844634560914
 42
0.0
 10
106.2970262491195
 20
172.1844634561034
 42
-1.0
 10
107.2970262491204
 20
172.1844634561029
 42
0.0
 10
107.2970262491195
 20
171.0963011651147
 42
0.4676277381132078
 10
107.8859841002616
 20
170.604278299073
 42
0.0
 10
120.2174902137786
 20
172.8338175357983
 42
0.0
 10
122.2249419513974
 20
173.196765287145
 42
0.3627433906114596
 10
123.0470262491183
 20
174.1808110192542
 42
0.0
 10
123.0470262491183
 20
174.6844634560916
 42
0.0
 10
116.4017517951934
 20
174.6844634560915
 42
0.0
 10
108.7249419514039
 20
173.2964944114308
 42
-0.4676277381222354
 10
107.547026249115
 20
174.2805401435384
 42
0.0
 97
        0
 75
     0
 76
     1
 52
0.0
 41
10.0
 77
     0
 78
     1
 53
45.0
 43
123.0968728317375
 44
68.28975636088299
 45
-0.8838834764831842
 46
0.8838834764831844
 79
     0
 47
0.1096538951749675
 98
        2
 10
109.7116692966882
 20
168.5816895395277
 10
107.1884164492006
 20
177.5733087627713
  0
LINE
  5
1D69187AA2
330
1D69183399
100
AcDbEntity
  8
JISSEN
 62
     7
370
     0
100
AcDbLine
 10
107.547026249115
 20
174.2805401435384
 30
0.0
 11
107.5470262491166
 21
201.4344634560971
 31
0.0
  0
LINE
  5
1D69187AA3
330
1D69183399
100
AcDbEntity
  8
JISSEN
100
AcDbLine
 10
105.7808225120539
 20
169.8667554980366
 30
0.0
 11
104.7970262491185
 21
180.9344634561116
 31
0.0
  0
LINE
  5
1D69187AA4
330
1D69183399
100
AcDbEntity
  8
JISSEN
100
AcDbLine
 10
104.1970262491168
 20
175.8235264130916
 30
0.0
 11
104.1970262491168
 21
181.3905137111997
 31
0.0
  0
LINE
  5
1D69188005
330
1D69183399
100
AcDbEntity
  8
SUNPOU
 62
     7
100
AcDbLine
 10
260.7393198011043
 20
212.3815083702559
 30
0.0
 11
270.999999939619
 21
212.3815083702559
 31
0.0
  0
LINE
  5
1D69188006
330
1D69183399
100
AcDbEntity
  8
JISSEN
100
AcDbLine
 10
270.999999939619
 20
213.6421885087707
 30
0.0
 11
261.9999999396191
 21
213.6421885087707
 31
0.0
  0
LINE
  5
1D6918801E
330
1D69183399
100
AcDbEntity
  8
JISSEN
100
AcDbLine
 10
260.7393198011045
 20
212.3815083702559
 30
0.0
 11
260.4031516195847
 21
201.6844633870556
 31
0.0
  0
LINE
  5
1D6918801F
330
1D69183399
100
AcDbEntity
  8
SAISEN
100
AcDbLine
 10
261.7438433476272
 20
213.3860319167788
 30
0.0
 11
261.3761067418876
 21
201.6844633870557
 31
0.0
  0
LINE
  5
1D69188045
330
1D69183399
100
AcDbEntity
  8
JISSEN
100
AcDbLine
 10
260.7393198011045
 20
212.3815083702559
 30
0.0
 11
261.9999999396191
 21
213.6421885087707
 31
0.0
  0
LINE
  5
1D6918832D
330
1D69183399
100
AcDbEntity
  8
JISSEN
100
AcDbLine
 10
265.1260083339193
 20
156.2420384962747
 30
0.0
 11
269.4999999396193
 21
156.2420384962747
 31
0.0
  0
LINE
  5
1D6918832E
330
1D69183399
100
AcDbEntity
  8
JISSEN
100
AcDbLine
 10
259.5010083339189
 20
157.4420384962747
 30
0.0
 11
259.5010083339189
 21
156.2420384962747
 31
0.0
  0
LINE
  5
1D6918832F
330
1D69183399
100
AcDbEntity
  8
JISSEN
100
AcDbLine
 10
263.9999999396189
 20
157.7420384962747
 30
0.0
 11
263.9999999396189
 21
157.4420384962747
 31
0.0
  0
LINE
  5
1D69188330
330
1D69183399
100
AcDbEntity
  8
JISSEN
100
AcDbLine
 10
264.9999999396189
 20
159.2420384962747
 30
0.0
 11
264.9999999396189
 21
158.9420384962747
 31
0.0
  0
LINE
  5
1D69188331
330
1D69183399
100
AcDbEntity
  8
JISSEN
100
AcDbLine
 10
269.4999999396191
 20
159.2420384962745
 30
0.0
 11
264.9999999396189
 21
159.2420384962747
 31
0.0
  0
LINE
  5
1D69188332
330
1D69183399
100
AcDbEntity
  8
JISSEN
100
AcDbLine
 10
263.9999999396189
 20
157.7420384962747
 30
0.0
 11
264.9999999396189
 21
158.9420384962747
 31
0.0
  0
LINE
  5
1D69188333
330
1D69183399
100
AcDbEntity
  8
JISSEN
100
AcDbLine
 10
268.7576767446647
 20
154.7627164761111
 30
0.0
 11
268.2499999396189
 21
155.6420384962746
 31
0.0
  0
LINE
  5
1D69188334
330
1D69183399
100
AcDbEntity
  8
JISSEN
100
AcDbLine
 10
268.2499999396189
 20
155.6420384962746
 30
0.0
 11
268.2499999396189
 21
156.2420384962747
 31
0.0
  0
ARC
  5
1D69188335
330
1D69183399
100
AcDbEntity
  8
JISSEN
100
AcDbCircle
 10
270.9999999396189
 20
162.4420384962747
 30
0.0
 40
8.000000000000003
100
AcDbArc
 50
253.7224625911077
 51
259.1930771251446
  0
LINE
  5
1D69188336
330
1D69183399
100
AcDbEntity
  8
JISSEN
100
AcDbLine
 10
267.2499999396189
 20
160.9920384962753
 30
0.0
 11
267.2499999396189
 21
159.5420384962747
 31
0.0
  0
LINE
  5
1D69188337
330
1D69183399
100
AcDbEntity
  8
JISSEN
100
AcDbLine
 10
267.9644057935405
 20
156.2420384962747
 30
0.0
 11
259.5010083339189
 21
156.2420384962747
 31
0.0
  0
ARC
  5
1D69188338
330
1D69183399
100
AcDbEntity
  8
JISSEN
100
AcDbCircle
 10
270.9999999396189
 20
160.9920384962753
 30
0.0
 40
3.75
100
AcDbArc
 50
113.5781784782055
 51
180.0000000000001
  0
LINE
  5
1D69188339
330
1D69183399
100
AcDbEntity
  8
JISSEN
100
AcDbLine
 10
264.2499999396189
 20
157.4420384962747
 30
0.0
 11
269.4999999396194
 21
157.4420384962747
 31
0.0
  0
LINE
  5
1D6918833A
330
1D69183399
100
AcDbEntity
  8
JISSEN
100
AcDbLine
 10
268.3749999396189
 20
157.4420384962747
 30
0.0
 11
263.9999999396189
 21
157.4420384962747
 31
0.0
  0
LINE
  5
1D6918833B
330
1D69183399
100
AcDbEntity
  8
JISSEN
100
AcDbLine
 10
264.9999999396189
 20
157.4420384962747
 30
0.0
 11
268.3749999396189
 21
157.4420384962747
 31
0.0
  0
ARC
  5
1D6918833C
330
1D69183399
100
AcDbEntity
  8
JISSEN
100
AcDbCircle
 10
266.9499999396189
 20
159.5420384962747
 30
0.0
 40
0.3
100
AcDbArc
 50
270.0000000000001
 51
0.0000000000001596
  0
LINE
  5
1D6918833D
330
1D69183399
100
AcDbEntity
  8
JISSEN
100
AcDbLine
 10
259.5010083339189
 20
157.4420384962747
 30
0.0
 11
268.2510083339189
 21
157.4420384962747
 31
0.0
  0
ARC
  5
1D6918833E
330
1D69183399
100
AcDbEntity
  8
JISSEN
100
AcDbCircle
 10
265.6360083339194
 20
155.1920384962747
 30
0.0
 40
0.15
100
AcDbArc
 50
0.0000000000001596
 51
90.00000000000017
  0
LINE
  5
1D6918833F
330
1D69183399
100
AcDbEntity
  8
JISSEN
100
AcDbLine
 10
265.7860083339193
 20
154.6420384962746
 30
0.0
 11
265.7860083339193
 21
155.1920384962747
 31
0.0
  0
LINE
  5
1D69188340
330
1D69183399
100
AcDbEntity
  8
JISSEN
100
AcDbLine
 10
265.1260083339193
 20
156.2420384962747
 30
0.0
 11
265.1260083339195
 21
155.3420384962747
 31
0.0
  0
LINE
  5
1D69188341
330
1D69183399
100
AcDbEntity
  8
JISSEN
100
AcDbLine
 10
265.1260083339195
 20
155.3420384962747
 30
0.0
 11
266.951008333919
 21
155.3420384962747
 31
0.0
  0
LINE
  5
1D69188342
330
1D69183399
100
AcDbEntity
  8
JISSEN
100
AcDbLine
 10
265.9260083339193
 20
169.6844633870522
 30
0.0
 11
265.9260083339193
 21
159.2420384962747
 31
0.0
  0
LINE
  5
1D69188343
330
1D69183399
100
AcDbEntity
  8
JISSEN
100
AcDbLine
 10
267.9260083339193
 20
156.2420384962747
 30
0.0
 11
267.9260083339194
 21
155.3420384962747
 31
0.0
  0
ARC
  5
1D69188344
330
1D69183399
100
AcDbEntity
  8
JISSEN
100
AcDbCircle
 10
267.4160083339194
 20
155.1920384962747
 30
0.0
 40
0.15
100
AcDbArc
 50
90.00000000000017
 51
180.0000000000001
  0
LINE
  5
1D69188345
330
1D69183399
100
AcDbEntity
  8
JISSEN
100
AcDbLine
 10
267.2660083339193
 20
154.6420384962746
 30
0.0
 11
267.2660083339193
 21
155.1920384962747
 31
0.0
  0
LINE
  5
1D69188346
330
1D69183399
100
AcDbEntity
  8
JISSEN
100
AcDbLine
 10
267.3260083339194
 20
169.6844633870522
 30
0.0
 11
267.3260083339194
 21
161.7432280071509
 31
0.0
  0
LINE
  5
1D69188347
330
1D69183399
100
AcDbEntity
  8
JISSEN
100
AcDbLine
 10
267.2660083339193
 20
154.6420384962746
 30
0.0
 11
265.7860083339193
 21
154.6420384962746
 31
0.0
  0
LINE
  5
1D69188348
330
1D69183399
100
AcDbEntity
  8
JISSEN
100
AcDbLine
 10
267.9260083339194
 20
155.3420384962746
 30
0.0
 11
265.1260083339195
 21
155.3420384962747
 31
0.0
  0
LINE
  5
1D69188429
330
1D69183399
100
AcDbEntity
  8
JISSEN
100
AcDbLine
 10
62.13805147516268
 20
45.50605271525637
 30
0.0
 11
67.85003353788488
 21
45.506052715255
 31
0.0
  0
ARC
  5
1D6918842A
330
1D69183399
100
AcDbEntity
  8
JISSEN
100
AcDbCircle
 10
69.35877454643469
 20
45.50605271524637
 30
0.0
 40
1.5
100
AcDbArc
 50
0.0000000000781653
 51
90.0
  0
ELLIPSE
  5
1D6918842D
330
1D69183399
100
AcDbEntity
  8
JISSEN
100
AcDbEllipse
 10
62.13805147516268
 20
47.00605271525591
 30
0.0
 11
-3.286276802032261
 21
0.0
 31
0.0
210
0.0
220
0.0
230
1.0
 40
0.4564435957043948
 41
6.283185307179586
 42
7.853981633974482
  0
ARC
  5
1D6918842E
330
1D69183399
100
AcDbEntity
  8
JISSEN
100
AcDbCircle
 10
89.04702624911989
 20
47.00605271526046
 30
0.0
 40
18.25
100
AcDbArc
 50
274.7145605408658
 51
355.5585553348862
  0
ELLIPSE
  5
1D6918842F
330
1D69183399
100
AcDbEntity
  8
JISSEN
100
AcDbEllipse
 10
115.9560010230697
 20
47.00605271525591
 30
0.0
 11
3.286276802032261
 21
0.0
 31
0.0
210
0.0
220
0.0
230
-1.0
 40
0.4564435957043948
 41
6.283185307179586
 42
7.853981633974482
  0
ARC
  5
1D69188434
330
1D69183399
100
AcDbEntity
  8
JISSEN
100
AcDbCircle
 10
108.7352779517978
 20
45.50605271524637
 30
0.0
 40
1.5
100
AcDbArc
 50
90.0
 51
179.9999999999218
  0
ARC
  5
1D69188435
330
1D69183399
100
AcDbEntity
  8
JISSEN
100
AcDbCircle
 10
90.54702624911625
 20
27.31780101258118
 30
0.0
 40
1.5
100
AcDbArc
 50
90.0
 51
179.9999999998957
  0
ARC
  5
1D69188436
330
1D69183399
100
AcDbEntity
  8
JISSEN
100
AcDbCircle
 10
87.54702624911534
 20
27.31780101258391
 30
0.0
 40
1.5
100
AcDbArc
 50
0.0
 51
89.99999999989578
  0
LINE
  5
1D69188437
330
1D69183399
100
AcDbEntity
  8
JISSEN
100
AcDbLine
 10
87.54702624911624
 20
20.09707794130235
 30
0.0
 11
87.54702624911624
 21
25.80906000403001
 31
0.0
  0
LINE
  5
1D69188438
330
1D69183399
100
AcDbEntity
  8
JISSEN
100
AcDbLine
 10
90.54234615016412
 20
25.80872933721366
 30
0.0
 11
90.54234615016412
 21
19.83768269924212
 31
0.0
  0
ELLIPSE
  5
1D69188439
330
1D69183399
100
AcDbEntity
  8
JISSEN
100
AcDbEllipse
 10
89.04702624911625
 20
20.09707794130235
 30
0.0
 11
-0.0000000000000009
 21
-3.286276802032261
 31
0.0
210
0.0
220
0.0
230
1.0
 40
0.4564435957043948
 41
4.712388980384689
 42
7.853981633974482
  0
LINE
  5
1D6918843E
330
1D69183399
100
AcDbEntity
  8
JISSEN
100
AcDbLine
 10
115.9560010230697
 20
45.50605271525637
 30
0.0
 11
110.2440189603476
 21
45.506052715255
 31
0.0
  0
ARC
  5
1D69188441
330
1D69183399
100
AcDbEntity
  8
JISSEN
100
AcDbCircle
 10
89.04702624911896
 20
47.00605271526046
 30
0.0
 40
18.25
100
AcDbArc
 50
184.7145605408921
 51
265.2854394590299
  0
ARC
  5
1D69188446
330
1D69183399
100
AcDbEntity
  8
JISSEN
100
AcDbCircle
 10
89.04702624911625
 20
47.00605271526137
 30
0.0
 40
21.25
100
AcDbArc
 50
180.0000000000146
 51
359.9999999999739
  0
ARC
  5
1D69188448
330
1D69183399
100
AcDbEntity
  8
JISSEN
100
AcDbCircle
 10
89.04702624911715
 20
47.00605271526183
 30
0.0
 40
34.0
100
AcDbArc
 50
180.0
 51
0.0
  0
LINE
  5
1D6918845B
330
1D69183399
100
AcDbEntity
  8
JISSEN
100
AcDbLine
 10
270.4999999396187
 20
201.6844633870527
 30
0.0
 11
270.4999999396187
 21
183.2844633870525
 31
0.0
  0
LINE
  5
1D6918845D
330
1D69183399
100
AcDbEntity
  8
JISSEN
100
AcDbLine
 10
270.9999999396186
 20
174.6844633870525
 30
0.0
 11
236.9999999396181
 21
174.6844633870546
 31
0.0
  0
ELLIPSE
  5
1D691884B8
330
1D69183399
100
AcDbEntity
  8
JISSEN
100
AcDbEllipse
 10
270.999999939619
 20
170.4878209534467
 30
0.0
 11
0.0
 21
2.673389674331701
 31
0.0
210
0.0
220
0.0
230
1.0
 40
0.5610854318774397
 41
6.283185307179586
 42
7.853981633974482
  0
ARC
  5
1D691884B9
330
1D69183399
100
AcDbEntity
  8
JISSEN
 48
3.0
370
     0
100
AcDbCircle
 10
269.499999939619
 20
149.1844633869927
 30
0.0
 40
1.49999999999909
100
AcDbArc
 50
0.0
 51
90.0
  0
LINE
  5
1D691884BA
330
1D69183399
100
AcDbEntity
  8
JISSEN
 48
3.0
100
AcDbLine
 10
269.4999999396181
 20
170.4878209534462
 30
0.0
 11
269.4999999396199
 21
150.6844633869918
 31
0.0
  0
LINE
  5
1D691884BB
330
1D69183399
100
AcDbEntity
  8
JISSEN
100
AcDbLine
 10
252.749999939619
 20
201.6844633870554
 30
0.0
 11
252.499999939619
 21
201.4344633870554
 31
0.0
  0
LINE
  5
1D691884BC
330
1D69183399
100
AcDbEntity
  8
JISSEN
100
AcDbLine
 10
255.5019531838429
 20
183.6844633870559
 30
0.0
 11
254.5019531838428
 21
183.6844633870559
 31
0.0
  0
LINE
  5
1D691884BD
330
1D69183399
100
AcDbEntity
  8
JISSEN
100
AcDbLine
 10
254.5019531838428
 20
201.6844633870554
 30
0.0
 11
254.5019531838428
 21
183.6844633870559
 31
0.0
  0
LINE
  5
1D691884BE
330
1D69183399
100
AcDbEntity
  8
JISSEN
100
AcDbLine
 10
255.5019531838429
 20
201.6844633870554
 30
0.0
 11
255.5019531838429
 21
183.6844633870559
 31
0.0
  0
ARC
  5
1D691884BF
330
1D69183399
100
AcDbEntity
  8
JISSEN
 48
3.0
100
AcDbCircle
 10
252.8499999396166
 20
170.9878209534462
 30
0.0
 40
0.5
100
AcDbArc
 50
259.7516211656067
 51
270.0
  0
LINE
  5
1D691884C0
330
1D69183399
100
AcDbEntity
  8
JISSEN
100
AcDbLine
 10
252.499999939619
 20
174.684463387055
 30
0.0
 11
252.499999939619
 21
201.4344633870554
 31
0.0
  0
LINE
  5
1D691884C1
330
1D69183399
100
AcDbEntity
  8
JISSEN
100
AcDbLine
 10
236.9999999396181
 20
174.180810950213
 30
0.0
 11
236.9999999396181
 21
174.6844633870554
 31
0.0
  0
ARC
  5
1D691884C2
330
1D69183399
100
AcDbEntity
  8
JISSEN
100
AcDbCircle
 10
237.9999999396181
 20
174.180810950213
 30
0.0
 40
1.0
100
AcDbArc
 50
180.0
 51
259.7516211656067
  0
LINE
  5
1D691884C3
330
1D69183399
100
AcDbEntity
  8
JISSEN
 48
3.0
100
AcDbLine
 10
252.7610420884724
 20
170.4957980873913
 30
0.0
 11
237.8220842373297
 21
173.1967652181055
 31
0.0
  0
LINE
  5
1D691884C4
330
1D69183399
100
AcDbEntity
  8
JISSEN
100
AcDbLine
 10
249.8499999396185
 20
149.1844633869936
 30
0.0
 11
249.8499999396185
 21
158.6844633870554
 31
0.0
  0
LINE
  5
1D691884C5
330
1D69183399
100
AcDbEntity
  8
JISSEN
100
AcDbLine
 10
249.8398683324207
 20
158.4246738212663
 30
0.0
 11
249.8499999396185
 21
149.1844633869945
 31
0.0
  0
LINE
  5
1D691884C6
330
1D69183399
100
AcDbEntity
  8
JISSEN
100
AcDbLine
 10
253.3499999396203
 20
147.6844633869913
 30
0.0
 11
252.3499999396148
 21
147.684463386994
 31
0.0
  0
ARC
  5
1D691884C7
330
1D69183399
100
AcDbEntity
  8
JISSEN
 62
     7
370
     0
100
AcDbCircle
 10
251.3499999396175
 20
149.1844633869936
 30
0.0
 40
1.49999999999909
100
AcDbArc
 50
179.9999999991141
 51
269.9999999998436
  0
ARC
  5
1D691884C8
330
1D69183399
100
AcDbEntity
  8
JISSEN
 48
3.0
370
     0
100
AcDbCircle
 10
251.3499999396175
 20
149.1844633869936
 30
0.0
 40
1.49999999999909
100
AcDbArc
 50
90.0
 51
180.0
  0
LINE
  5
1D691884C9
330
1D69183399
100
AcDbEntity
  8
JISSEN
100
AcDbLine
 10
253.8499999396166
 20
170.4878209534458
 30
0.0
 11
253.8499999396157
 21
150.6844633869913
 31
0.0
  0
ARC
  5
1D691884CA
330
1D69183399
100
AcDbEntity
  8
JISSEN
100
AcDbCircle
 10
234.8499999396185
 20
158.6844633870559
 30
0.0
 40
15.0
100
AcDbArc
 50
0.0
 51
70.61166638270314
  0
LINE
  5
1D691884CB
330
1D69183399
100
AcDbEntity
  8
JISSEN
100
AcDbLine
 10
252.8499999396166
 20
170.4878209534462
 30
0.0
 11
269.4999999396181
 21
170.4878209534467
 31
0.0
  0
LINE
  5
1D691884CC
330
1D69183399
100
AcDbEntity
  8
JISSEN
100
AcDbLine
 10
253.8499999396185
 20
169.6844633870522
 30
0.0
 11
269.4999999396181
 21
169.6844633870522
 31
0.0
  0
LINE
  5
1D691884CD
330
1D69183399
100
AcDbEntity
  8
JISSEN
100
AcDbLine
 10
251.3499999396175
 20
147.6844633870554
 30
0.0
 11
270.9999999396189
 21
147.6844633870554
 31
0.0
  0
LINE
  5
1D691884CE
330
1D69183399
100
AcDbEntity
  8
JISSEN
100
AcDbLine
 10
269.499999939619
 20
150.6844633869918
 30
0.0
 11
251.3499999396175
 21
150.6844633869918
 31
0.0
  0
LINE
  5
1D691884CF
330
1D69183399
100
AcDbEntity
  8
JISSEN
100
AcDbLine
 10
252.749999939619
 20
201.6844633870554
 30
0.0
 11
270.4999999396185
 21
201.6844633870559
 31
0.0
  0
LINE
  5
1D691884F7
330
1D69183399
100
AcDbEntity
  8
JISSEN
100
AcDbLine
 10
289.2499999396188
 20
201.6844633870554
 30
0.0
 11
271.4999999396193
 21
201.6844633870559
 31
0.0
  0
LINE
  5
1D691884F8
330
1D69183399
100
AcDbEntity
  8
JISSEN
100
AcDbLine
 10
272.4999999396188
 20
150.6844633869918
 30
0.0
 11
290.6499999396202
 21
150.6844633869917
 31
0.0
  0
LINE
  5
1D691884F9
330
1D69183399
100
AcDbEntity
  8
JISSEN
100
AcDbLine
 10
290.6499999396202
 20
147.6844633870554
 30
0.0
 11
270.9999999396189
 21
147.6844633870554
 31
0.0
  0
LINE
  5
1D691884FA
330
1D69183399
100
AcDbEntity
  8
JISSEN
100
AcDbLine
 10
288.1499999396193
 20
169.6844633870522
 30
0.0
 11
272.4999999396197
 21
169.6844633870522
 31
0.0
  0
LINE
  5
1D691884FB
330
1D69183399
100
AcDbEntity
  8
JISSEN
100
AcDbLine
 10
289.1499999396211
 20
170.4878209534462
 30
0.0
 11
272.4999999396197
 21
170.4878209534467
 31
0.0
  0
ARC
  5
1D691884FC
330
1D69183399
100
AcDbEntity
  8
JISSEN
100
AcDbCircle
 10
307.1499999396193
 20
158.6844633870558
 30
0.0
 40
15.0
100
AcDbArc
 50
109.3883336172967
 51
179.9999999999998
  0
LINE
  5
1D691884FD
330
1D69183399
100
AcDbEntity
  8
JISSEN
100
AcDbLine
 10
288.1499999396211
 20
170.4878209534457
 30
0.0
 11
288.1499999396221
 21
150.6844633869913
 31
0.0
  0
ARC
  5
1D691884FE
330
1D69183399
100
AcDbEntity
  8
JISSEN
 48
3.0
370
     0
100
AcDbCircle
 10
290.6499999396202
 20
149.1844633869936
 30
0.0
 40
1.49999999999909
100
AcDbArc
 50
359.9999999999998
 51
89.99999999999991
  0
ARC
  5
1D691884FF
330
1D69183399
100
AcDbEntity
  8
JISSEN
 62
     7
370
     0
100
AcDbCircle
 10
290.6499999396202
 20
149.1844633869936
 30
0.0
 40
1.49999999999909
100
AcDbArc
 50
270.0000000001562
 51
0.0000000008857888
  0
LINE
  5
1D69188500
330
1D69183399
100
AcDbEntity
  8
JISSEN
100
AcDbLine
 10
288.6499999396175
 20
147.6844633869913
 30
0.0
 11
289.649999939623
 21
147.684463386994
 31
0.0
  0
LINE
  5
1D69188501
330
1D69183399
100
AcDbEntity
  8
JISSEN
100
AcDbLine
 10
292.1601315468171
 20
158.4246738212663
 30
0.0
 11
292.1499999396193
 21
149.1844633869945
 31
0.0
  0
LINE
  5
1D69188502
330
1D69183399
100
AcDbEntity
  8
JISSEN
100
AcDbLine
 10
292.1499999396193
 20
149.1844633869936
 30
0.0
 11
292.1499999396193
 21
158.6844633870554
 31
0.0
  0
LINE
  5
1D69188503
330
1D69183399
100
AcDbEntity
  8
JISSEN
 48
3.0
100
AcDbLine
 10
289.2389577907653
 20
170.4957980873913
 30
0.0
 11
304.1779156419081
 21
173.1967652181054
 31
0.0
  0
ARC
  5
1D69188504
330
1D69183399
100
AcDbEntity
  8
JISSEN
100
AcDbCircle
 10
303.9999999396197
 20
174.1808109502129
 30
0.0
 40
1.0
100
AcDbArc
 50
280.2483788343931
 51
359.9999999999998
  0
LINE
  5
1D69188505
330
1D69183399
100
AcDbEntity
  8
JISSEN
100
AcDbLine
 10
304.9999999396197
 20
174.1808109502129
 30
0.0
 11
304.9999999396197
 21
174.6844633870554
 31
0.0
  0
LINE
  5
1D69188506
330
1D69183399
100
AcDbEntity
  8
JISSEN
100
AcDbLine
 10
289.4999999396188
 20
174.6844633870549
 30
0.0
 11
289.4999999396188
 21
201.4344633870554
 31
0.0
  0
ARC
  5
1D69188507
330
1D69183399
100
AcDbEntity
  8
JISSEN
 48
3.0
100
AcDbCircle
 10
289.1499999396211
 20
170.9878209534462
 30
0.0
 40
0.5
100
AcDbArc
 50
269.9999999999998
 51
280.2483788343931
  0
LINE
  5
1D69188508
330
1D69183399
100
AcDbEntity
  8
JISSEN
100
AcDbLine
 10
286.498046695395
 20
201.6844633870554
 30
0.0
 11
286.498046695395
 21
183.6844633870558
 31
0.0
  0
LINE
  5
1D69188509
330
1D69183399
100
AcDbEntity
  8
JISSEN
100
AcDbLine
 10
287.498046695395
 20
201.6844633870554
 30
0.0
 11
287.498046695395
 21
183.6844633870558
 31
0.0
  0
LINE
  5
1D6918850A
330
1D69183399
100
AcDbEntity
  8
JISSEN
100
AcDbLine
 10
286.498046695395
 20
183.6844633870558
 30
0.0
 11
287.498046695395
 21
183.6844633870558
 31
0.0
  0
LINE
  5
1D6918850B
330
1D69183399
100
AcDbEntity
  8
JISSEN
100
AcDbLine
 10
289.2499999396188
 20
201.6844633870554
 30
0.0
 11
289.4999999396188
 21
201.4344633870554
 31
0.0
  0
LINE
  5
1D6918850C
330
1D69183399
100
AcDbEntity
  8
JISSEN
 48
3.0
100
AcDbLine
 10
272.4999999396197
 20
170.4878209534462
 30
0.0
 11
272.4999999396179
 21
150.6844633869918
 31
0.0
  0
ARC
  5
1D6918850D
330
1D69183399
100
AcDbEntity
  8
JISSEN
 48
3.0
370
     0
100
AcDbCircle
 10
272.4999999396188
 20
149.1844633869927
 30
0.0
 40
1.49999999999909
100
AcDbArc
 50
89.99999999999991
 51
179.9999999999998
  0
ELLIPSE
  5
1D6918850E
330
1D69183399
100
AcDbEntity
  8
JISSEN
100
AcDbEllipse
 10
270.9999999396188
 20
170.4878209534467
 30
0.0
 11
0.0000000000000043
 21
2.673389674331701
 31
0.0
210
0.0
220
0.0
230
-1.0
 40
0.5610854318774397
 41
6.283185307179586
 42
7.853981633974482
  0
LINE
  5
1D6918850F
330
1D69183399
100
AcDbEntity
  8
JISSEN
100
AcDbLine
 10
270.9999999396191
 20
174.6844633870525
 30
0.0
 11
304.9999999396197
 21
174.6844633870545
 31
0.0
  0
LINE
  5
1D69188510
330
1D69183399
100
AcDbEntity
  8
JISSEN
100
AcDbLine
 10
271.4999999396192
 20
201.6844633870527
 30
0.0
 11
271.4999999396192
 21
183.2844633870525
 31
0.0
  0
LINE
  5
1D69188511
330
1D69183399
100
AcDbEntity
  8
JISSEN
100
AcDbLine
 10
274.0739915453183
 20
155.3420384962746
 30
0.0
 11
276.8739915453183
 21
155.3420384962747
 31
0.0
  0
LINE
  5
1D69188512
330
1D69183399
100
AcDbEntity
  8
JISSEN
100
AcDbLine
 10
274.7339915453185
 20
154.6420384962746
 30
0.0
 11
276.2139915453185
 21
154.6420384962746
 31
0.0
  0
LINE
  5
1D69188513
330
1D69183399
100
AcDbEntity
  8
JISSEN
100
AcDbLine
 10
274.6739915453184
 20
169.6844633870522
 30
0.0
 11
274.6739915453184
 21
161.7432280071509
 31
0.0
  0
LINE
  5
1D69188514
330
1D69183399
100
AcDbEntity
  8
JISSEN
100
AcDbLine
 10
274.7339915453185
 20
154.6420384962746
 30
0.0
 11
274.7339915453185
 21
155.1920384962747
 31
0.0
  0
ARC
  5
1D69188515
330
1D69183399
100
AcDbEntity
  8
JISSEN
100
AcDbCircle
 10
274.5839915453184
 20
155.1920384962747
 30
0.0
 40
0.15
100
AcDbArc
 50
359.9999999999997
 51
89.99999999999975
  0
LINE
  5
1D69188516
330
1D69183399
100
AcDbEntity
  8
JISSEN
100
AcDbLine
 10
274.0739915453185
 20
156.2420384962747
 30
0.0
 11
274.0739915453183
 21
155.3420384962747
 31
0.0
  0
LINE
  5
1D69188517
330
1D69183399
100
AcDbEntity
  8
JISSEN
100
AcDbLine
 10
276.0739915453185
 20
169.6844633870522
 30
0.0
 11
276.0739915453185
 21
159.2420384962747
 31
0.0
  0
LINE
  5
1D69188518
330
1D69183399
100
AcDbEntity
  8
JISSEN
100
AcDbLine
 10
276.8739915453183
 20
155.3420384962747
 30
0.0
 11
275.0489915453187
 21
155.3420384962747
 31
0.0
  0
LINE
  5
1D69188519
330
1D69183399
100
AcDbEntity
  8
JISSEN
100
AcDbLine
 10
276.8739915453184
 20
156.2420384962747
 30
0.0
 11
276.8739915453183
 21
155.3420384962747
 31
0.0
  0
LINE
  5
1D6918851A
330
1D69183399
100
AcDbEntity
  8
JISSEN
100
AcDbLine
 10
276.2139915453185
 20
154.6420384962746
 30
0.0
 11
276.2139915453185
 21
155.1920384962747
 31
0.0
  0
ARC
  5
1D6918851B
330
1D69183399
100
AcDbEntity
  8
JISSEN
100
AcDbCircle
 10
276.3639915453183
 20
155.1920384962747
 30
0.0
 40
0.15
100
AcDbArc
 50
89.99999999999975
 51
179.9999999999997
  0
LINE
  5
1D6918851C
330
1D69183399
100
AcDbEntity
  8
JISSEN
100
AcDbLine
 10
282.4989915453189
 20
157.4420384962746
 30
0.0
 11
273.7489915453189
 21
157.4420384962747
 31
0.0
  0
ARC
  5
1D6918851D
330
1D69183399
100
AcDbEntity
  8
JISSEN
100
AcDbCircle
 10
275.0499999396188
 20
159.5420384962747
 30
0.0
 40
0.3
100
AcDbArc
 50
179.9999999999997
 51
269.9999999999997
  0
LINE
  5
1D6918851E
330
1D69183399
100
AcDbEntity
  8
JISSEN
100
AcDbLine
 10
276.9999999396189
 20
157.4420384962747
 30
0.0
 11
273.6249999396189
 21
157.4420384962747
 31
0.0
  0
LINE
  5
1D6918851F
330
1D69183399
100
AcDbEntity
  8
JISSEN
100
AcDbLine
 10
273.6249999396189
 20
157.4420384962747
 30
0.0
 11
277.9999999396189
 21
157.4420384962747
 31
0.0
  0
LINE
  5
1D69188520
330
1D69183399
100
AcDbEntity
  8
JISSEN
100
AcDbLine
 10
277.7499999396189
 20
157.4420384962747
 30
0.0
 11
272.4999999396184
 21
157.4420384962747
 31
0.0
  0
ARC
  5
1D69188521
330
1D69183399
100
AcDbEntity
  8
JISSEN
100
AcDbCircle
 10
270.9999999396189
 20
160.9920384962753
 30
0.0
 40
3.75
100
AcDbArc
 50
359.9999999999997
 51
66.42182152179437
  0
LINE
  5
1D69188522
330
1D69183399
100
AcDbEntity
  8
JISSEN
100
AcDbLine
 10
274.0355940856973
 20
156.2420384962747
 30
0.0
 11
282.4989915453189
 21
156.2420384962747
 31
0.0
  0
LINE
  5
1D69188523
330
1D69183399
100
AcDbEntity
  8
JISSEN
100
AcDbLine
 10
274.7499999396189
 20
160.9920384962753
 30
0.0
 11
274.7499999396189
 21
159.5420384962747
 31
0.0
  0
ARC
  5
1D69188524
330
1D69183399
100
AcDbEntity
  8
JISSEN
100
AcDbCircle
 10
270.9999999396189
 20
162.4420384962747
 30
0.0
 40
8.000000000000003
100
AcDbArc
 50
280.8069228748552
 51
286.2775374088921
  0
LINE
  5
1D69188525
330
1D69183399
100
AcDbEntity
  8
JISSEN
100
AcDbLine
 10
273.7499999396189
 20
155.6420384962746
 30
0.0
 11
273.7499999396189
 21
156.2420384962747
 31
0.0
  0
LINE
  5
1D69188526
330
1D69183399
100
AcDbEntity
  8
JISSEN
100
AcDbLine
 10
273.2423231345731
 20
154.7627164761111
 30
0.0
 11
273.7499999396189
 21
155.6420384962746
 31
0.0
  0
LINE
  5
1D69188527
330
1D69183399
100
AcDbEntity
  8
JISSEN
100
AcDbLine
 10
277.9999999396189
 20
157.7420384962747
 30
0.0
 11
276.9999999396189
 21
158.9420384962747
 31
0.0
  0
LINE
  5
1D69188528
330
1D69183399
100
AcDbEntity
  8
JISSEN
100
AcDbLine
 10
272.4999999396187
 20
159.2420384962745
 30
0.0
 11
276.9999999396189
 21
159.2420384962747
 31
0.0
  0
LINE
  5
1D69188529
330
1D69183399
100
AcDbEntity
  8
JISSEN
100
AcDbLine
 10
276.9999999396189
 20
159.2420384962747
 30
0.0
 11
276.9999999396189
 21
158.9420384962747
 31
0.0
  0
LINE
  5
1D6918852A
330
1D69183399
100
AcDbEntity
  8
JISSEN
100
AcDbLine
 10
277.9999999396189
 20
157.7420384962747
 30
0.0
 11
277.9999999396189
 21
157.4420384962747
 31
0.0
  0
LINE
  5
1D6918852B
330
1D69183399
100
AcDbEntity
  8
JISSEN
100
AcDbLine
 10
282.4989915453189
 20
157.4420384962746
 30
0.0
 11
282.4989915453189
 21
156.2420384962747
 31
0.0
  0
LINE
  5
1D6918852C
330
1D69183399
100
AcDbEntity
  8
JISSEN
100
AcDbLine
 10
276.8739915453184
 20
156.2420384962747
 30
0.0
 11
272.4999999396184
 21
156.2420384962747
 31
0.0
  0
LINE
  5
1D6918852D
330
1D69183399
100
AcDbEntity
  8
JISSEN
100
AcDbLine
 10
281.2606800781334
 20
212.3815083702559
 30
0.0
 11
279.9999999396188
 21
213.6421885087707
 31
0.0
  0
LINE
  5
1D6918852E
330
1D69183399
100
AcDbEntity
  8
SAISEN
100
AcDbLine
 10
280.2561565316107
 20
213.3860319167788
 30
0.0
 11
280.6238931373503
 21
201.6844633870556
 31
0.0
  0
LINE
  5
1D6918852F
330
1D69183399
100
AcDbEntity
  8
JISSEN
100
AcDbLine
 10
281.2606800781334
 20
212.3815083702559
 30
0.0
 11
281.5968482596531
 21
201.6844633870556
 31
0.0
  0
LINE
  5
1D69188530
330
1D69183399
100
AcDbEntity
  8
JISSEN
100
AcDbLine
 10
270.9999999396188
 20
213.6421885087707
 30
0.0
 11
279.9999999396188
 21
213.6421885087707
 31
0.0
  0
LINE
  5
1D69188531
330
1D69183399
100
AcDbEntity
  8
SUNPOU
 62
     7
100
AcDbLine
 10
281.2606800781336
 20
212.3815083702559
 30
0.0
 11
270.9999999396188
 21
212.3815083702559
 31
0.0
  0
LINE
  5
1D69188532
330
1D69183399
100
AcDbEntity
  8
JISSEN
100
AcDbLine
 10
271.4999999396192
 20
183.2844633870525
 30
0.0
 11
270.4999999396192
 21
183.2844633870525
 31
0.0
  0
LINE
  5
1D69188538
330
1D69183399
100
AcDbEntity
  8
JISSEN
100
AcDbLine
 10
276.8739915453184
 20
99.83358764615017
 30
0.0
 11
272.4999999396184
 21
99.83358764615012
 31
0.0
  0
LINE
  5
1D69188539
330
1D69183399
100
AcDbEntity
  8
JISSEN
100
AcDbLine
 10
282.4989915453189
 20
101.03358764615
 30
0.0
 11
282.4989915453189
 21
99.83358764615013
 31
0.0
  0
LINE
  5
1D6918853A
330
1D69183399
100
AcDbEntity
  8
JISSEN
100
AcDbLine
 10
277.9999999396189
 20
101.3335876461501
 30
0.0
 11
277.9999999396189
 21
101.03358764615
 31
0.0
  0
LINE
  5
1D6918853B
330
1D69183399
100
AcDbEntity
  8
JISSEN
100
AcDbLine
 10
276.9999999396189
 20
102.8335876461501
 30
0.0
 11
276.9999999396189
 21
102.5335876461501
 31
0.0
  0
LINE
  5
1D6918853C
330
1D69183399
100
AcDbEntity
  8
JISSEN
100
AcDbLine
 10
272.4999999396187
 20
102.8335876461499
 30
0.0
 11
276.9999999396189
 21
102.8335876461501
 31
0.0
  0
LINE
  5
1D6918853D
330
1D69183399
100
AcDbEntity
  8
JISSEN
100
AcDbLine
 10
277.9999999396189
 20
101.3335876461501
 30
0.0
 11
276.9999999396189
 21
102.5335876461501
 31
0.0
  0
LINE
  5
1D6918853E
330
1D69183399
100
AcDbEntity
  8
JISSEN
100
AcDbLine
 10
273.2423231345731
 20
98.35426562598655
 30
0.0
 11
273.7499999396189
 21
99.23358764615002
 31
0.0
  0
LINE
  5
1D6918853F
330
1D69183399
100
AcDbEntity
  8
JISSEN
100
AcDbLine
 10
273.7499999396189
 20
99.23358764615002
 30
0.0
 11
273.7499999396189
 21
99.83358764615017
 31
0.0
  0
ARC
  5
1D69188540
330
1D69183399
100
AcDbEntity
  8
JISSEN
100
AcDbCircle
 10
270.9999999396189
 20
106.0335876461501
 30
0.0
 40
8.000000000000003
100
AcDbArc
 50
280.8069228748552
 51
286.2775374088921
  0
LINE
  5
1D69188541
330
1D69183399
100
AcDbEntity
  8
JISSEN
100
AcDbLine
 10
274.7499999396189
 20
104.5835876461507
 30
0.0
 11
274.7499999396189
 21
103.1335876461501
 31
0.0
  0
LINE
  5
1D69188542
330
1D69183399
100
AcDbEntity
  8
JISSEN
100
AcDbLine
 10
274.0355940856973
 20
99.83358764615017
 30
0.0
 11
282.4989915453189
 21
99.83358764615013
 31
0.0
  0
ARC
  5
1D69188543
330
1D69183399
100
AcDbEntity
  8
JISSEN
100
AcDbCircle
 10
270.9999999396189
 20
104.5835876461507
 30
0.0
 40
3.75
100
AcDbArc
 50
359.9999999999997
 51
66.42182152179437
  0
LINE
  5
1D69188544
330
1D69183399
100
AcDbEntity
  8
JISSEN
100
AcDbLine
 10
277.7499999396189
 20
101.03358764615
 30
0.0
 11
272.4999999396184
 21
101.0335876461501
 31
0.0
  0
LINE
  5
1D69188545
330
1D69183399
100
AcDbEntity
  8
JISSEN
100
AcDbLine
 10
273.6249999396189
 20
101.03358764615
 30
0.0
 11
277.9999999396189
 21
101.03358764615
 31
0.0
  0
LINE
  5
1D69188546
330
1D69183399
100
AcDbEntity
  8
JISSEN
100
AcDbLine
 10
276.9999999396189
 20
101.03358764615
 30
0.0
 11
273.6249999396189
 21
101.03358764615
 31
0.0
  0
ARC
  5
1D69188547
330
1D69183399
100
AcDbEntity
  8
JISSEN
100
AcDbCircle
 10
275.0499999396188
 20
103.1335876461501
 30
0.0
 40
0.3
100
AcDbArc
 50
179.9999999999997
 51
269.9999999999997
  0
LINE
  5
1D69188548
330
1D69183399
100
AcDbEntity
  8
JISSEN
100
AcDbLine
 10
282.4989915453189
 20
101.03358764615
 30
0.0
 11
273.7489915453189
 21
101.03358764615
 31
0.0
  0
ARC
  5
1D69188549
330
1D69183399
100
AcDbEntity
  8
JISSEN
100
AcDbCircle
 10
276.3639915453183
 20
98.78358764615015
 30
0.0
 40
0.15
100
AcDbArc
 50
89.99999999999975
 51
179.9999999999997
  0
LINE
  5
1D6918854A
330
1D69183399
100
AcDbEntity
  8
JISSEN
100
AcDbLine
 10
276.2139915453185
 20
98.23358764615008
 30
0.0
 11
276.2139915453185
 21
98.78358764615015
 31
0.0
  0
LINE
  5
1D6918854B
330
1D69183399
100
AcDbEntity
  8
JISSEN
100
AcDbLine
 10
276.8739915453184
 20
99.83358764615017
 30
0.0
 11
276.8739915453183
 21
98.93358764615014
 31
0.0
  0
LINE
  5
1D6918854C
330
1D69183399
100
AcDbEntity
  8
JISSEN
100
AcDbLine
 10
276.8739915453183
 20
98.93358764615014
 30
0.0
 11
275.0489915453187
 21
98.93358764615014
 31
0.0
  0
LINE
  5
1D6918854D
330
1D69183399
100
AcDbEntity
  8
JISSEN
100
AcDbLine
 10
276.0739915453185
 20
113.2760125369276
 30
0.0
 11
276.0739915453185
 21
102.8335876461501
 31
0.0
  0
LINE
  5
1D6918854E
330
1D69183399
100
AcDbEntity
  8
JISSEN
100
AcDbLine
 10
274.0739915453185
 20
99.83358764615013
 30
0.0
 11
274.0739915453183
 21
98.93358764615014
 31
0.0
  0
ARC
  5
1D6918854F
330
1D69183399
100
AcDbEntity
  8
JISSEN
100
AcDbCircle
 10
274.5839915453184
 20
98.78358764615015
 30
0.0
 40
0.15
100
AcDbArc
 50
359.9999999999997
 51
89.99999999999975
  0
LINE
  5
1D69188550
330
1D69183399
100
AcDbEntity
  8
JISSEN
100
AcDbLine
 10
274.7339915453185
 20
98.23358764615008
 30
0.0
 11
274.7339915453185
 21
98.78358764615015
 31
0.0
  0
LINE
  5
1D69188551
330
1D69183399
100
AcDbEntity
  8
JISSEN
100
AcDbLine
 10
274.6739915453184
 20
113.2760125369276
 30
0.0
 11
274.6739915453184
 21
105.3347771570263
 31
0.0
  0
LINE
  5
1D69188552
330
1D69183399
100
AcDbEntity
  8
JISSEN
100
AcDbLine
 10
274.7339915453185
 20
98.23358764615008
 30
0.0
 11
276.2139915453185
 21
98.23358764615008
 31
0.0
  0
LINE
  5
1D69188553
330
1D69183399
100
AcDbEntity
  8
JISSEN
100
AcDbLine
 10
274.0739915453183
 20
98.93358764615001
 30
0.0
 11
276.8739915453183
 21
98.93358764615014
 31
0.0
  0
LINE
  5
1D69188554
330
1D69183399
100
AcDbEntity
  8
JISSEN
100
AcDbLine
 10
270.9999999396191
 20
118.2760125369278
 30
0.0
 11
304.9999999396197
 21
118.2760125369299
 31
0.0
  0
ELLIPSE
  5
1D69188555
330
1D69183399
100
AcDbEntity
  8
JISSEN
100
AcDbEllipse
 10
270.9999999396188
 20
114.079370103322
 30
0.0
 11
0.0000000000000043
 21
2.673389674331701
 31
0.0
210
0.0
220
0.0
230
-1.0
 40
0.5610854318774397
 41
6.283185307179586
 42
7.853981633974482
  0
ARC
  5
1D69188556
330
1D69183399
100
AcDbEntity
  8
JISSEN
 48
3.0
370
     0
100
AcDbCircle
 10
272.4999999396188
 20
92.7760125368681
 30
0.0
 40
1.49999999999909
100
AcDbArc
 50
89.99999999999991
 51
179.9999999999998
  0
LINE
  5
1D69188557
330
1D69183399
100
AcDbEntity
  8
JISSEN
 48
3.0
100
AcDbLine
 10
272.4999999396197
 20
114.0793701033216
 30
0.0
 11
272.4999999396179
 21
94.2760125368672
 31
0.0
  0
ARC
  5
1D69188559
330
1D69183399
100
AcDbEntity
  8
JISSEN
 48
3.0
100
AcDbCircle
 10
289.1499999396211
 20
114.5793701033216
 30
0.0
 40
0.5
100
AcDbArc
 50
269.9999999999998
 51
280.2483788343931
  0
LINE
  5
1D6918855A
330
1D69183399
100
AcDbEntity
  8
JISSEN
100
AcDbLine
 10
304.9999999396197
 20
117.7723601000883
 30
0.0
 11
304.9999999396197
 21
118.2760125369308
 31
0.0
  0
ARC
  5
1D6918855B
330
1D69183399
100
AcDbEntity
  8
JISSEN
100
AcDbCircle
 10
303.9999999396197
 20
117.7723601000883
 30
0.0
 40
1.0
100
AcDbArc
 50
280.2483788343931
 51
359.9999999999998
  0
LINE
  5
1D6918855C
330
1D69183399
100
AcDbEntity
  8
JISSEN
 48
3.0
100
AcDbLine
 10
289.2389577907653
 20
114.0873472372667
 30
0.0
 11
304.1779156419081
 21
116.7883143679808
 31
0.0
  0
LINE
  5
1D6918855D
330
1D69183399
100
AcDbEntity
  8
JISSEN
100
AcDbLine
 10
292.1499999396193
 20
92.77601253686899
 30
0.0
 11
292.1499999396193
 21
102.2760125369308
 31
0.0
  0
LINE
  5
1D6918855E
330
1D69183399
100
AcDbEntity
  8
JISSEN
100
AcDbLine
 10
292.1601315468171
 20
102.0162229711417
 30
0.0
 11
292.1499999396193
 21
92.7760125368699
 31
0.0
  0
LINE
  5
1D6918855F
330
1D69183399
100
AcDbEntity
  8
JISSEN
100
AcDbLine
 10
288.6499999396175
 20
91.27601253686671
 30
0.0
 11
289.649999939623
 21
91.27601253686945
 31
0.0
  0
ARC
  5
1D69188560
330
1D69183399
100
AcDbEntity
  8
JISSEN
 62
     7
370
     0
100
AcDbCircle
 10
290.6499999396202
 20
92.77601253686899
 30
0.0
 40
1.49999999999909
100
AcDbArc
 50
270.0000000001562
 51
0.0000000008857888
  0
ARC
  5
1D69188561
330
1D69183399
100
AcDbEntity
  8
JISSEN
 48
3.0
370
     0
100
AcDbCircle
 10
290.6499999396202
 20
92.77601253686899
 30
0.0
 40
1.49999999999909
100
AcDbArc
 50
359.9999999999998
 51
89.99999999999991
  0
LINE
  5
1D69188562
330
1D69183399
100
AcDbEntity
  8
JISSEN
100
AcDbLine
 10
288.1499999396211
 20
114.0793701033211
 30
0.0
 11
288.1499999396221
 21
94.27601253686672
 31
0.0
  0
ARC
  5
1D69188563
330
1D69183399
100
AcDbEntity
  8
JISSEN
100
AcDbCircle
 10
307.1499999396193
 20
102.2760125369312
 30
0.0
 40
15.0
100
AcDbArc
 50
109.3883336172967
 51
179.9999999999998
  0
LINE
  5
1D69188564
330
1D69183399
100
AcDbEntity
  8
JISSEN
100
AcDbLine
 10
289.1499999396211
 20
114.0793701033216
 30
0.0
 11
272.4999999396197
 21
114.079370103322
 31
0.0
  0
LINE
  5
1D69188565
330
1D69183399
100
AcDbEntity
  8
JISSEN
100
AcDbLine
 10
288.1499999396193
 20
113.2760125369276
 30
0.0
 11
272.4999999396197
 21
113.2760125369276
 31
0.0
  0
LINE
  5
1D69188566
330
1D69183399
100
AcDbEntity
  8
JISSEN
100
AcDbLine
 10
290.6499999396202
 20
91.27601253693084
 30
0.0
 11
270.9999999396189
 21
91.27601253693086
 31
0.0
  0
LINE
  5
1D69188567
330
1D69183399
100
AcDbEntity
  8
JISSEN
100
AcDbLine
 10
272.4999999396188
 20
94.2760125368672
 30
0.0
 11
290.6499999396202
 21
94.27601253686717
 31
0.0
  0
LINE
  5
1D69188568
330
1D69183399
100
AcDbEntity
  8
JISSEN
100
AcDbLine
 10
269.499999939619
 20
94.2760125368672
 30
0.0
 11
251.3499999396175
 21
94.2760125368672
 31
0.0
  0
LINE
  5
1D69188569
330
1D69183399
100
AcDbEntity
  8
JISSEN
100
AcDbLine
 10
251.3499999396175
 20
91.27601253693086
 30
0.0
 11
270.9999999396189
 21
91.27601253693086
 31
0.0
  0
LINE
  5
1D6918856A
330
1D69183399
100
AcDbEntity
  8
JISSEN
100
AcDbLine
 10
253.8499999396185
 20
113.2760125369276
 30
0.0
 11
269.4999999396181
 21
113.2760125369276
 31
0.0
  0
LINE
  5
1D6918856B
330
1D69183399
100
AcDbEntity
  8
JISSEN
100
AcDbLine
 10
252.8499999396166
 20
114.0793701033216
 30
0.0
 11
269.4999999396181
 21
114.079370103322
 31
0.0
  0
ARC
  5
1D6918856C
330
1D69183399
100
AcDbEntity
  8
JISSEN
100
AcDbCircle
 10
234.8499999396185
 20
102.2760125369313
 30
0.0
 40
15.0
100
AcDbArc
 50
0.0
 51
70.61166638270314
  0
LINE
  5
1D6918856D
330
1D69183399
100
AcDbEntity
  8
JISSEN
100
AcDbLine
 10
253.8499999396166
 20
114.0793701033212
 30
0.0
 11
253.8499999396157
 21
94.27601253686674
 31
0.0
  0
ARC
  5
1D6918856E
330
1D69183399
100
AcDbEntity
  8
JISSEN
 48
3.0
370
     0
100
AcDbCircle
 10
251.3499999396175
 20
92.77601253686901
 30
0.0
 40
1.49999999999909
100
AcDbArc
 50
90.0
 51
180.0
  0
ARC
  5
1D6918856F
330
1D69183399
100
AcDbEntity
  8
JISSEN
 62
     7
370
     0
100
AcDbCircle
 10
251.3499999396175
 20
92.77601253686901
 30
0.0
 40
1.49999999999909
100
AcDbArc
 50
179.9999999991141
 51
269.9999999998436
  0
LINE
  5
1D69188570
330
1D69183399
100
AcDbEntity
  8
JISSEN
100
AcDbLine
 10
253.3499999396203
 20
91.27601253686675
 30
0.0
 11
252.3499999396148
 21
91.27601253686947
 31
0.0
  0
LINE
  5
1D69188571
330
1D69183399
100
AcDbEntity
  8
JISSEN
100
AcDbLine
 10
249.8398683324207
 20
102.0162229711417
 30
0.0
 11
249.8499999396185
 21
92.77601253686993
 31
0.0
  0
LINE
  5
1D69188572
330
1D69183399
100
AcDbEntity
  8
JISSEN
100
AcDbLine
 10
249.8499999396185
 20
92.77601253686901
 30
0.0
 11
249.8499999396185
 21
102.2760125369308
 31
0.0
  0
LINE
  5
1D69188573
330
1D69183399
100
AcDbEntity
  8
JISSEN
 48
3.0
100
AcDbLine
 10
252.7610420884724
 20
114.0873472372667
 30
0.0
 11
237.8220842373297
 21
116.7883143679809
 31
0.0
  0
ARC
  5
1D69188574
330
1D69183399
100
AcDbEntity
  8
JISSEN
100
AcDbCircle
 10
237.9999999396181
 20
117.7723601000884
 30
0.0
 40
1.0
100
AcDbArc
 50
180.0
 51
259.7516211656067
  0
LINE
  5
1D69188575
330
1D69183399
100
AcDbEntity
  8
JISSEN
100
AcDbLine
 10
236.9999999396181
 20
117.7723601000884
 30
0.0
 11
236.9999999396181
 21
118.2760125369308
 31
0.0
  0
ARC
  5
1D69188576
330
1D69183399
100
AcDbEntity
  8
JISSEN
 48
3.0
100
AcDbCircle
 10
252.8499999396166
 20
114.5793701033216
 30
0.0
 40
0.5
100
AcDbArc
 50
259.7516211656067
 51
270.0
  0
LINE
  5
1D69188578
330
1D69183399
100
AcDbEntity
  8
JISSEN
 48
3.0
100
AcDbLine
 10
269.4999999396181
 20
114.0793701033216
 30
0.0
 11
269.4999999396199
 21
94.2760125368672
 31
0.0
  0
ARC
  5
1D69188579
330
1D69183399
100
AcDbEntity
  8
JISSEN
 48
3.0
370
     0
100
AcDbCircle
 10
269.499999939619
 20
92.7760125368681
 30
0.0
 40
1.49999999999909
100
AcDbArc
 50
0.0
 51
90.0
  0
ELLIPSE
  5
1D6918857A
330
1D69183399
100
AcDbEntity
  8
JISSEN
100
AcDbEllipse
 10
270.999999939619
 20
114.079370103322
 30
0.0
 11
0.0
 21
2.673389674331701
 31
0.0
210
0.0
220
0.0
230
1.0
 40
0.5610854318774397
 41
6.283185307179586
 42
7.853981633974482
  0
LINE
  5
1D6918857B
330
1D69183399
100
AcDbEntity
  8
JISSEN
100
AcDbLine
 10
270.9999999396186
 20
118.2760125369278
 30
0.0
 11
236.9999999396181
 21
118.27601253693
 31
0.0
  0
LINE
  5
1D6918857C
330
1D69183399
100
AcDbEntity
  8
JISSEN
100
AcDbLine
 10
267.9260083339194
 20
98.93358764615001
 30
0.0
 11
265.1260083339195
 21
98.93358764615014
 31
0.0
  0
LINE
  5
1D6918857D
330
1D69183399
100
AcDbEntity
  8
JISSEN
100
AcDbLine
 10
267.2660083339193
 20
98.23358764615008
 30
0.0
 11
265.7860083339193
 21
98.23358764615008
 31
0.0
  0
LINE
  5
1D6918857E
330
1D69183399
100
AcDbEntity
  8
JISSEN
100
AcDbLine
 10
267.3260083339194
 20
113.2760125369276
 30
0.0
 11
267.3260083339194
 21
105.3347771570263
 31
0.0
  0
LINE
  5
1D6918857F
330
1D69183399
100
AcDbEntity
  8
JISSEN
100
AcDbLine
 10
267.2660083339193
 20
98.23358764615008
 30
0.0
 11
267.2660083339193
 21
98.78358764615015
 31
0.0
  0
ARC
  5
1D69188580
330
1D69183399
100
AcDbEntity
  8
JISSEN
100
AcDbCircle
 10
267.4160083339194
 20
98.78358764615015
 30
0.0
 40
0.15
100
AcDbArc
 50
90.00000000000017
 51
180.0000000000001
  0
LINE
  5
1D69188581
330
1D69183399
100
AcDbEntity
  8
JISSEN
100
AcDbLine
 10
267.9260083339193
 20
99.83358764615013
 30
0.0
 11
267.9260083339194
 21
98.93358764615014
 31
0.0
  0
LINE
  5
1D69188582
330
1D69183399
100
AcDbEntity
  8
JISSEN
100
AcDbLine
 10
265.9260083339193
 20
113.2760125369276
 30
0.0
 11
265.9260083339193
 21
102.8335876461501
 31
0.0
  0
LINE
  5
1D69188583
330
1D69183399
100
AcDbEntity
  8
JISSEN
100
AcDbLine
 10
265.1260083339195
 20
98.93358764615014
 30
0.0
 11
266.951008333919
 21
98.93358764615014
 31
0.0
  0
LINE
  5
1D69188584
330
1D69183399
100
AcDbEntity
  8
JISSEN
100
AcDbLine
 10
265.1260083339193
 20
99.83358764615017
 30
0.0
 11
265.1260083339195
 21
98.93358764615014
 31
0.0
  0
LINE
  5
1D69188585
330
1D69183399
100
AcDbEntity
  8
JISSEN
100
AcDbLine
 10
265.7860083339193
 20
98.23358764615008
 30
0.0
 11
265.7860083339193
 21
98.78358764615015
 31
0.0
  0
ARC
  5
1D69188586
330
1D69183399
100
AcDbEntity
  8
JISSEN
100
AcDbCircle
 10
265.6360083339194
 20
98.78358764615015
 30
0.0
 40
0.15
100
AcDbArc
 50
0.0000000000001596
 51
90.00000000000017
  0
LINE
  5
1D69188587
330
1D69183399
100
AcDbEntity
  8
JISSEN
100
AcDbLine
 10
259.5010083339189
 20
101.03358764615
 30
0.0
 11
268.2510083339189
 21
101.03358764615
 31
0.0
  0
ARC
  5
1D69188588
330
1D69183399
100
AcDbEntity
  8
JISSEN
100
AcDbCircle
 10
266.9499999396189
 20
103.1335876461501
 30
0.0
 40
0.3
100
AcDbArc
 50
270.0000000000001
 51
0.0000000000001596
  0
LINE
  5
1D69188589
330
1D69183399
100
AcDbEntity
  8
JISSEN
100
AcDbLine
 10
264.9999999396189
 20
101.03358764615
 30
0.0
 11
268.3749999396189
 21
101.03358764615
 31
0.0
  0
LINE
  5
1D6918858A
330
1D69183399
100
AcDbEntity
  8
JISSEN
100
AcDbLine
 10
268.3749999396189
 20
101.03358764615
 30
0.0
 11
263.9999999396189
 21
101.03358764615
 31
0.0
  0
LINE
  5
1D6918858B
330
1D69183399
100
AcDbEntity
  8
JISSEN
100
AcDbLine
 10
264.2499999396189
 20
101.03358764615
 30
0.0
 11
269.4999999396194
 21
101.0335876461501
 31
0.0
  0
ARC
  5
1D6918858C
330
1D69183399
100
AcDbEntity
  8
JISSEN
100
AcDbCircle
 10
270.9999999396189
 20
104.5835876461507
 30
0.0
 40
3.75
100
AcDbArc
 50
113.5781784782055
 51
180.0000000000001
  0
LINE
  5
1D6918858D
330
1D69183399
100
AcDbEntity
  8
JISSEN
100
AcDbLine
 10
267.9644057935405
 20
99.83358764615017
 30
0.0
 11
259.5010083339189
 21
99.83358764615017
 31
0.0
  0
LINE
  5
1D6918858E
330
1D69183399
100
AcDbEntity
  8
JISSEN
100
AcDbLine
 10
267.2499999396189
 20
104.5835876461507
 30
0.0
 11
267.2499999396189
 21
103.1335876461501
 31
0.0
  0
ARC
  5
1D6918858F
330
1D69183399
100
AcDbEntity
  8
JISSEN
100
AcDbCircle
 10
270.9999999396189
 20
106.0335876461501
 30
0.0
 40
8.000000000000003
100
AcDbArc
 50
253.7224625911077
 51
259.1930771251446
  0
LINE
  5
1D69188590
330
1D69183399
100
AcDbEntity
  8
JISSEN
100
AcDbLine
 10
268.2499999396189
 20
99.23358764615002
 30
0.0
 11
268.2499999396189
 21
99.83358764615017
 31
0.0
  0
LINE
  5
1D69188591
330
1D69183399
100
AcDbEntity
  8
JISSEN
100
AcDbLine
 10
268.7576767446647
 20
98.35426562598655
 30
0.0
 11
268.2499999396189
 21
99.23358764615002
 31
0.0
  0
LINE
  5
1D69188592
330
1D69183399
100
AcDbEntity
  8
JISSEN
100
AcDbLine
 10
263.9999999396189
 20
101.3335876461501
 30
0.0
 11
264.9999999396189
 21
102.5335876461501
 31
0.0
  0
LINE
  5
1D69188593
330
1D69183399
100
AcDbEntity
  8
JISSEN
100
AcDbLine
 10
269.4999999396191
 20
102.8335876461499
 30
0.0
 11
264.9999999396189
 21
102.8335876461501
 31
0.0
  0
LINE
  5
1D69188594
330
1D69183399
100
AcDbEntity
  8
JISSEN
100
AcDbLine
 10
264.9999999396189
 20
102.8335876461501
 30
0.0
 11
264.9999999396189
 21
102.5335876461501
 31
0.0
  0
LINE
  5
1D69188595
330
1D69183399
100
AcDbEntity
  8
JISSEN
100
AcDbLine
 10
263.9999999396189
 20
101.3335876461501
 30
0.0
 11
263.9999999396189
 21
101.03358764615
 31
0.0
  0
LINE
  5
1D69188596
330
1D69183399
100
AcDbEntity
  8
JISSEN
100
AcDbLine
 10
259.5010083339189
 20
101.03358764615
 30
0.0
 11
259.5010083339189
 21
99.83358764615017
 31
0.0
  0
LINE
  5
1D69188597
330
1D69183399
100
AcDbEntity
  8
JISSEN
100
AcDbLine
 10
265.1260083339193
 20
99.83358764615017
 30
0.0
 11
269.4999999396193
 21
99.83358764615012
 31
0.0
  0
LINE
  5
1D691886D0
330
1D69183399
100
AcDbEntity
  8
JISSEN
100
AcDbLine
 10
289.4999999396186
 20
118.2760125369294
 30
0.0
 11
336.2759058953146
 21
118.2760125369294
 31
0.0
  0
LINE
  5
1D691886D2
330
1D69183399
100
AcDbEntity
  8
JISSEN
100
AcDbLine
 10
252.4999999396194
 20
118.2760125369294
 30
0.0
 11
205.7240939839234
 21
118.2760125369294
 31
0.0
  0
LINE
  5
1D691886D5
330
1D69183399
100
AcDbEntity
  8
SUNPOU
100
AcDbLine
 10
226.141165350279
 20
118.2760125369294
 30
0.0
 11
226.141165350279
 21
118.2760125369294
 31
0.0
  0
LINE
  5
1D691886F7
330
1D69183399
100
AcDbEntity
  8
JISSEN
100
AcDbLine
 10
89.04702624911692
 20
118.318287484249
 30
0.0
 11
55.04702624911636
 21
118.3182874842511
 31
0.0
  0
ELLIPSE
  5
1D691886F8
330
1D69183399
100
AcDbEntity
  8
JISSEN
100
AcDbEllipse
 10
89.04702624911726
 20
114.1216450506432
 30
0.0
 11
0.0
 21
2.673389674331701
 31
0.0
210
0.0
220
0.0
230
1.0
 40
0.5610854318774397
 41
6.283185307179586
 42
7.853981633974482
  0
ARC
  5
1D691886F9
330
1D69183399
100
AcDbEntity
  8
JISSEN
 48
3.0
370
     0
100
AcDbCircle
 10
87.54702624911727
 20
92.81828748418925
 30
0.0
 40
1.49999999999909
100
AcDbArc
 50
0.0
 51
90.0
  0
LINE
  5
1D691886FA
330
1D69183399
100
AcDbEntity
  8
JISSEN
 48
3.0
100
AcDbLine
 10
87.54702624911635
 20
114.1216450506427
 30
0.0
 11
87.54702624911818
 21
94.31828748418835
 31
0.0
  0
ARC
  5
1D691886FB
330
1D69183399
100
AcDbEntity
  8
JISSEN
 48
3.0
100
AcDbCircle
 10
70.8970262491149
 20
114.6216450506428
 30
0.0
 40
0.5
100
AcDbArc
 50
259.7516211656067
 51
270.0
  0
LINE
  5
1D691886FC
330
1D69183399
100
AcDbEntity
  8
JISSEN
100
AcDbLine
 10
55.04702624911636
 20
117.8146350474095
 30
0.0
 11
55.04702624911636
 21
118.318287484252
 31
0.0
  0
ARC
  5
1D691886FD
330
1D69183399
100
AcDbEntity
  8
JISSEN
100
AcDbCircle
 10
56.04702624911635
 20
117.8146350474095
 30
0.0
 40
1.0
100
AcDbArc
 50
180.0
 51
259.7516211656067
  0
LINE
  5
1D691886FE
330
1D69183399
100
AcDbEntity
  8
JISSEN
 48
3.0
100
AcDbLine
 10
70.80806839797071
 20
114.1296221845879
 30
0.0
 11
55.86911054682798
 21
116.8305893153021
 31
0.0
  0
LINE
  5
1D691886FF
330
1D69183399
100
AcDbEntity
  8
JISSEN
100
AcDbLine
 10
67.89702624911672
 20
92.81828748419016
 30
0.0
 11
67.89702624911672
 21
102.318287484252
 31
0.0
  0
LINE
  5
1D69188700
330
1D69183399
100
AcDbEntity
  8
JISSEN
100
AcDbLine
 10
67.88689464191896
 20
102.0584979184629
 30
0.0
 11
67.89702624911672
 21
92.81828748419107
 31
0.0
  0
LINE
  5
1D69188701
330
1D69183399
100
AcDbEntity
  8
JISSEN
100
AcDbLine
 10
71.39702624911854
 20
91.31828748418788
 30
0.0
 11
70.39702624911308
 21
91.31828748419062
 31
0.0
  0
ARC
  5
1D69188702
330
1D69183399
100
AcDbEntity
  8
JISSEN
 62
     7
370
     0
100
AcDbCircle
 10
69.39702624911581
 20
92.81828748419016
 30
0.0
 40
1.49999999999909
100
AcDbArc
 50
179.9999999991141
 51
269.9999999998436
  0
ARC
  5
1D69188703
330
1D69183399
100
AcDbEntity
  8
JISSEN
 48
3.0
370
     0
100
AcDbCircle
 10
69.39702624911581
 20
92.81828748419016
 30
0.0
 40
1.49999999999909
100
AcDbArc
 50
90.0
 51
180.0
  0
LINE
  5
1D69188704
330
1D69183399
100
AcDbEntity
  8
JISSEN
100
AcDbLine
 10
71.8970262491149
 20
114.1216450506423
 30
0.0
 11
71.89702624911399
 21
94.31828748418789
 31
0.0
  0
ARC
  5
1D69188705
330
1D69183399
100
AcDbEntity
  8
JISSEN
100
AcDbCircle
 10
52.89702624911678
 20
102.3182874842524
 30
0.0
 40
15.0
100
AcDbArc
 50
0.0
 51
70.61166638270314
  0
LINE
  5
1D69188706
330
1D69183399
100
AcDbEntity
  8
JISSEN
100
AcDbLine
 10
70.8970262491149
 20
114.1216450506427
 30
0.0
 11
87.54702624911635
 21
114.1216450506432
 31
0.0
  0
LINE
  5
1D69188707
330
1D69183399
100
AcDbEntity
  8
JISSEN
100
AcDbLine
 10
71.89702624911672
 20
113.3182874842488
 30
0.0
 11
87.54702624911635
 21
113.3182874842488
 31
0.0
  0
LINE
  5
1D69188708
330
1D69183399
100
AcDbEntity
  8
JISSEN
100
AcDbLine
 10
69.39702624911581
 20
91.31828748425201
 30
0.0
 11
89.04702624911715
 21
91.31828748425201
 31
0.0
  0
LINE
  5
1D69188709
330
1D69183399
100
AcDbEntity
  8
JISSEN
100
AcDbLine
 10
87.54702624911727
 20
94.31828748418835
 30
0.0
 11
69.39702624911581
 21
94.31828748418835
 31
0.0
  0
LINE
  5
1D6918870A
330
1D69183399
100
AcDbEntity
  8
JISSEN
100
AcDbLine
 10
90.54702624911703
 20
94.31828748418835
 30
0.0
 11
108.6970262491185
 21
94.31828748418832
 31
0.0
  0
LINE
  5
1D6918870B
330
1D69183399
100
AcDbEntity
  8
JISSEN
100
AcDbLine
 10
108.6970262491185
 20
91.31828748425197
 30
0.0
 11
89.04702624911715
 21
91.31828748425201
 31
0.0
  0
LINE
  5
1D6918870C
330
1D69183399
100
AcDbEntity
  8
JISSEN
100
AcDbLine
 10
106.1970262491175
 20
113.3182874842487
 30
0.0
 11
90.54702624911795
 21
113.3182874842488
 31
0.0
  0
LINE
  5
1D6918870D
330
1D69183399
100
AcDbEntity
  8
JISSEN
100
AcDbLine
 10
107.1970262491193
 20
114.1216450506427
 30
0.0
 11
90.54702624911795
 21
114.1216450506432
 31
0.0
  0
ARC
  5
1D6918870E
330
1D69183399
100
AcDbEntity
  8
JISSEN
100
AcDbCircle
 10
125.1970262491175
 20
102.3182874842524
 30
0.0
 40
15.0
100
AcDbArc
 50
109.3883336172967
 51
179.9999999999998
  0
LINE
  5
1D6918870F
330
1D69183399
100
AcDbEntity
  8
JISSEN
100
AcDbLine
 10
106.1970262491193
 20
114.1216450506423
 30
0.0
 11
106.1970262491203
 21
94.31828748418785
 31
0.0
  0
ARC
  5
1D69188710
330
1D69183399
100
AcDbEntity
  8
JISSEN
 48
3.0
370
     0
100
AcDbCircle
 10
108.6970262491185
 20
92.81828748419014
 30
0.0
 40
1.49999999999909
100
AcDbArc
 50
359.9999999999998
 51
89.99999999999991
  0
ARC
  5
1D69188711
330
1D69183399
100
AcDbEntity
  8
JISSEN
 62
     7
370
     0
100
AcDbCircle
 10
108.6970262491185
 20
92.81828748419014
 30
0.0
 40
1.49999999999909
100
AcDbArc
 50
270.0000000001562
 51
0.0000000008857888
  0
LINE
  5
1D69188712
330
1D69183399
100
AcDbEntity
  8
JISSEN
100
AcDbLine
 10
106.6970262491157
 20
91.31828748418787
 30
0.0
 11
107.6970262491212
 21
91.31828748419058
 31
0.0
  0
LINE
  5
1D69188713
330
1D69183399
100
AcDbEntity
  8
JISSEN
100
AcDbLine
 10
110.2071578563153
 20
102.0584979184628
 30
0.0
 11
110.1970262491175
 21
92.81828748419105
 31
0.0
  0
LINE
  5
1D69188714
330
1D69183399
100
AcDbEntity
  8
JISSEN
100
AcDbLine
 10
110.1970262491175
 20
92.81828748419014
 30
0.0
 11
110.1970262491175
 21
102.3182874842519
 31
0.0
  0
LINE
  5
1D69188715
330
1D69183399
100
AcDbEntity
  8
JISSEN
 48
3.0
100
AcDbLine
 10
107.2859841002635
 20
114.1296221845879
 30
0.0
 11
122.2249419514063
 21
116.830589315302
 31
0.0
  0
ARC
  5
1D69188716
330
1D69183399
100
AcDbEntity
  8
JISSEN
100
AcDbCircle
 10
122.0470262491179
 20
117.8146350474094
 30
0.0
 40
1.0
100
AcDbArc
 50
280.2483788343931
 51
359.9999999999998
  0
LINE
  5
1D69188717
330
1D69183399
100
AcDbEntity
  8
JISSEN
100
AcDbLine
 10
123.0470262491179
 20
117.8146350474094
 30
0.0
 11
123.0470262491179
 21
118.3182874842519
 31
0.0
  0
ARC
  5
1D69188718
330
1D69183399
100
AcDbEntity
  8
JISSEN
 48
3.0
100
AcDbCircle
 10
107.1970262491193
 20
114.6216450506427
 30
0.0
 40
0.5
100
AcDbArc
 50
269.9999999999998
 51
280.2483788343931
  0
LINE
  5
1D69188719
330
1D69183399
100
AcDbEntity
  8
JISSEN
 48
3.0
100
AcDbLine
 10
90.54702624911795
 20
114.1216450506427
 30
0.0
 11
90.54702624911612
 21
94.31828748418835
 31
0.0
  0
ARC
  5
1D6918871A
330
1D69183399
100
AcDbEntity
  8
JISSEN
 48
3.0
370
     0
100
AcDbCircle
 10
90.54702624911703
 20
92.81828748418925
 30
0.0
 40
1.49999999999909
100
AcDbArc
 50
89.99999999999991
 51
179.9999999999998
  0
ELLIPSE
  5
1D6918871B
330
1D69183399
100
AcDbEntity
  8
JISSEN
100
AcDbEllipse
 10
89.04702624911704
 20
114.1216450506432
 30
0.0
 11
0.0000000000000043
 21
2.673389674331701
 31
0.0
210
0.0
220
0.0
230
-1.0
 40
0.5610854318774397
 41
6.283185307179586
 42
7.853981633974482
  0
LINE
  5
1D6918871C
330
1D69183399
100
AcDbEntity
  8
JISSEN
100
AcDbLine
 10
89.04702624911738
 20
118.318287484249
 30
0.0
 11
123.0470262491179
 21
118.3182874842511
 31
0.0
  0
LINE
  5
1D69188739
330
1D69183399
100
AcDbEntity
  8
SUNPOU
100
AcDbLine
 10
44.1881916597772
 20
118.3182874842506
 30
0.0
 11
44.1881916597772
 21
118.3182874842506
 31
0.0
  0
LINE
  5
1D6918873A
330
1D69183399
100
AcDbEntity
  8
JISSEN
100
AcDbLine
 10
70.54702624911772
 20
118.3182874842506
 30
0.0
 11
23.77112029342174
 21
118.3182874842506
 31
0.0
  0
LINE
  5
1D6918873B
330
1D69183399
100
AcDbEntity
  8
JISSEN
100
AcDbLine
 10
107.5470262491168
 20
118.3182874842506
 30
0.0
 11
154.3229322048128
 21
118.3182874842506
 31
0.0
  0
LINE
  5
1D6918873C
330
1D69183399
100
AcDbEntity
  8
JISSEN
100
AcDbLine
 10
90.54702624911664
 20
99.71003790580397
 30
0.0
 11
97.04702624911726
 21
99.71003790580397
 31
0.0
  0
LINE
  5
1D6918873D
330
1D69183399
100
AcDbEntity
  8
JISSEN
100
AcDbLine
 10
90.54702624911682
 20
101.9600379058039
 30
0.0
 11
96.54702624911704
 21
101.9600379058039
 31
0.0
  0
LINE
  5
1D6918873E
330
1D69183399
100
AcDbEntity
  8
JISSEN
100
AcDbLine
 10
98.29702624911703
 20
102.2600379058039
 30
0.0
 11
98.29702624911703
 21
102.410037905804
 31
0.0
  0
LINE
  5
1D6918873F
330
1D69183399
100
AcDbEntity
  8
JISSEN
100
AcDbLine
 10
98.29702624911726
 20
99.91003790580402
 30
0.0
 11
98.29702624911726
 21
100.2100379058039
 31
0.0
  0
LINE
  5
1D69188740
330
1D69183399
100
AcDbEntity
  8
JISSEN
100
AcDbLine
 10
98.29702624911726
 20
99.91003790580402
 30
0.0
 11
98.29702624911726
 21
100.2100379058039
 31
0.0
  0
ARC
  5
1D69188741
330
1D69183399
100
AcDbEntity
  8
JISSEN
100
AcDbCircle
 10
97.04702624911726
 20
100.0100379058041
 30
0.0
 40
0.3
100
AcDbArc
 50
270.0000000000002
 51
340.5287793651103
  0
ARC
  5
1D69188742
330
1D69183399
100
AcDbEntity
  8
JISSEN
100
AcDbCircle
 10
96.54702624911704
 20
102.2600379058039
 30
0.0
 40
0.2999999999998692
100
AcDbArc
 50
270.0000000000002
 51
0.0000000000001931
  0
LINE
  5
1D69188747
330
1D69183399
100
AcDbEntity
  8
JISSEN
100
AcDbLine
 10
102.8470262491169
 20
113.3182874842487
 30
0.0
 11
102.8470262491169
 21
111.0960656961899
 31
0.0
  0
LINE
  5
1D69188748
330
1D69183399
100
AcDbEntity
  8
JISSEN
100
AcDbLine
 10
102.8143282063734
 20
110.959868546268
 30
0.0
 11
100.6026673963268
 21
106.6192398058562
 31
0.0
  0
LINE
  5
1D69188749
330
1D69183399
100
AcDbEntity
  8
JISSEN
100
AcDbLine
 10
99.59144507591521
 20
106.8100379058041
 30
0.0
 11
101.3851779815466
 21
109.786724059266
 31
0.0
  0
LINE
  5
1D6918874A
330
1D69183399
100
AcDbEntity
  8
JISSEN
100
AcDbLine
 10
98.5796722160677
 20
106.8100379058041
 30
0.0
 11
100.6203159851321
 21
110.1964707645931
 31
0.0
  0
LINE
  5
1D6918874B
330
1D69183399
100
AcDbEntity
  8
JISSEN
100
AcDbLine
 10
98.5796722160677
 20
106.8100379058041
 30
0.0
 11
99.59144507591497
 21
106.8100379058041
 31
0.0
  0
ARC
  5
1D6918874C
330
1D69183399
100
AcDbEntity
  8
JISSEN
100
AcDbCircle
 10
100.4244660914893
 20
106.7100379058039
 30
0.0
 40
0.2
100
AcDbArc
 50
270.0000000000002
 51
332.9999999999984
  0
SPLINE
  5
1D6918874D
330
1D69183399
100
AcDbEntity
  8
JISSEN
100
AcDbSpline
210
0.0
220
0.0
230
1.0
 70
     8
 71
     3
 72
    12
 73
     8
 74
     0
 42
0.0000000001
 43
0.0000000001
 40
4.927655908264091
 40
4.927655908264091
 40
4.927655908264091
 40
4.927655908264091
 40
5.267374716391513
 40
5.267374716391513
 40
5.651619790278387
 40
5.651619790278387
 40
5.743457712309654
 40
5.743457712309654
 40
5.743457712309654
 40
5.743457712309654
 10
100.6073479469445
 20
110.1769638299351
 30
0.0
 10
100.6933989469931
 20
110.2947172973042
 30
0.0
 10
100.7847391222781
 20
110.4015882306575
 30
0.0
 10
100.9751017908798
 20
110.5903977318816
 30
0.0
 10
101.0739838569019
 20
110.6668413241925
 30
0.0
 10
101.1743087452952
 20
110.7243838032302
 30
0.0
 10
101.1925957663739
 20
110.7336738889498
 30
0.0
 10
101.2094968302886
 20
110.7413634962358
 30
0.0
  0
ARC
  5
1D6918874E
330
1D69183399
100
AcDbEntity
  8
JISSEN
100
AcDbCircle
 10
101.2459401814404
 20
110.661264294262
 30
0.0
 40
0.088
100
AcDbArc
 50
37.00603024988926
 51
114.4644768282396
  0
ARC
  5
1D6918874F
330
1D69183399
100
AcDbEntity
  8
JISSEN
100
AcDbCircle
 10
102.5470262491172
 20
111.0960656961899
 30
0.0
 40
0.3
100
AcDbArc
 50
332.9999999999984
 51
0.0000000000001931
  0
ARC
  5
1D69188750
330
1D69183399
100
AcDbEntity
  8
JISSEN
100
AcDbCircle
 10
100.2453589009668
 20
109.907107096922
 30
0.0
 40
1.340962879392063
100
AcDbArc
 50
13.53005498712
 51
37.00603024986842
  0
ELLIPSE
  5
1D69188751
330
1D69183399
100
AcDbEntity
  8
JISSEN
100
AcDbEllipse
 10
100.7228451911245
 20
109.7787890998571
 30
0.0
 11
0.7365439769865016
 21
1.222289143954681
 31
0.0
210
0.0
220
0.0
230
-1.0
 40
0.4069918413230502
 41
7.254579298188163
 42
7.60717270050308
  0
LINE
  5
1D69188752
330
1D69183399
100
AcDbEntity
  8
JISSEN
100
AcDbLine
 10
95.90945080485619
 20
106.8100379058041
 30
0.0
 11
96.82456946496234
 21
109.3820783999621
 31
0.0
  0
LINE
  5
1D69188753
330
1D69183399
100
AcDbEntity
  8
JISSEN
100
AcDbLine
 10
98.29702624911703
 20
104.2600379058041
 30
0.0
 11
98.29702624911703
 21
104.110037905804
 31
0.0
  0
ARC
  5
1D69188754
330
1D69183399
100
AcDbEntity
  8
JISSEN
100
AcDbCircle
 10
96.54702624911704
 20
104.2600379058041
 30
0.0
 40
0.2999999999998692
100
AcDbArc
 50
0.0000000000001931
 51
90.00000000000019
  0
ARC
  5
1D69188755
330
1D69183399
100
AcDbEntity
  8
JISSEN
100
AcDbCircle
 10
95.58761588509367
 20
109.5003928669195
 30
0.0
 40
1.375879154787482
100
AcDbArc
 50
14.98555669032772
 51
65.58329653854546
  0
ELLIPSE
  5
1D69188756
330
1D69183399
100
AcDbEntity
  8
JISSEN
100
AcDbEllipse
 10
95.79827624911796
 20
109.7470379058039
 30
0.0
 11
0.447608338039577
 21
1.257724841019469
 31
0.0
210
0.0
220
0.0
230
-0.9999999999999996
 40
0.8159202227897862
 41
7.487959916961759
 42
7.853780332635299
  0
SPLINE
  5
1D69188757
330
1D69183399
100
AcDbEntity
  8
JISSEN
100
AcDbSpline
210
0.0
220
0.0
230
1.0
 70
     8
 71
     3
 72
    14
 73
    10
 74
     0
 42
0.0000000001
 43
0.0000000001
 40
4.712392463599221
 40
4.712392463599221
 40
4.712392463599221
 40
4.712392463599221
 40
5.201868027680625
 40
5.201868027680625
 40
5.722054830448688
 40
5.722054830448688
 40
6.24224163321675
 40
6.24224163321675
 40
6.283185307179586
 40
6.283185307179586
 40
6.283185307179586
 40
6.283185307179586
 10
95.02363051631174
 20
110.0227245088846
 30
0.0
 10
95.08485508828412
 20
110.1943649109822
 30
0.0
 10
95.18106972327597
 20
110.3532671249701
 30
0.0
 10
95.42233168111044
 20
110.6112433373888
 30
0.0
 10
95.56903305661863
 20
110.705264944913
 30
0.0
 10
95.85845824180806
 20
110.7994056236867
 30
0.0
 10
96.00004095439578
 20
110.8009801251713
 30
0.0
 10
96.13667960068674
 20
110.7599458876531
 30
0.0
 10
96.14656500148168
 20
110.7567047335398
 30
0.0
 10
96.15636291954944
 20
110.7532177786196
 30
0.0
  0
LINE
  5
1D69188758
330
1D69183399
100
AcDbEntity
  8
JISSEN
100
AcDbLine
 10
91.54702624911726
 20
100.7100379058039
 30
0.0
 11
90.54702624911669
 21
100.7100379058039
 31
0.0
  0
ARC
  5
1D69188759
330
1D69183399
100
AcDbEntity
  8
JISSEN
100
AcDbCircle
 10
91.94702624911712
 20
100.3100379058038
 30
0.0
 40
0.1
100
AcDbArc
 50
180.0000000000001
 51
270.0000000000002
  0
ARC
  5
1D6918875A
330
1D69183399
100
AcDbEntity
  8
JISSEN
100
AcDbCircle
 10
91.54702624911704
 20
100.4100379058039
 30
0.0
 40
0.3
100
AcDbArc
 50
0.0000000000197345
 51
90.00000000000019
  0
LINE
  5
1D6918875B
330
1D69183399
100
AcDbEntity
  8
JISSEN
100
AcDbLine
 10
91.84702624911698
 20
100.4100379058042
 30
0.0
 11
91.84702624911698
 21
100.3100379058038
 31
0.0
  0
LINE
  5
1D6918875C
330
1D69183399
100
AcDbEntity
  8
JISSEN
100
AcDbLine
 10
91.14702624911695
 20
101.9600379058039
 30
0.0
 11
91.14702624911695
 21
100.7100379058039
 31
0.0
  0
LINE
  5
1D6918875F
330
1D69183399
100
AcDbEntity
  8
JISSEN
100
AcDbLine
 10
90.54702624911692
 20
103.2600379058041
 30
0.0
 11
91.69702624911691
 21
103.2600379058041
 31
0.0
  0
LINE
  5
1D69188760
330
1D69183399
100
AcDbEntity
  8
JISSEN
100
AcDbLine
 10
90.54702624911703
 20
106.810037905804
 30
0.0
 11
90.54702624911703
 21
109.4298189110588
 31
0.0
  0
ARC
  5
1D69188761
330
1D69183399
100
AcDbEntity
  8
JISSEN
100
AcDbCircle
 10
91.69702624911691
 20
102.9100379058039
 30
0.0
 40
0.35
100
AcDbArc
 50
0.0000000000001931
 51
90.00000000000019
  0
ARC
  5
1D69188762
330
1D69183399
100
AcDbEntity
  8
JISSEN
100
AcDbCircle
 10
91.69702624911691
 20
103.610037905804
 30
0.0
 40
0.35
100
AcDbArc
 50
270.0000000000002
 51
0.0000000000001931
  0
LINE
  5
1D69188763
330
1D69183399
100
AcDbEntity
  8
JISSEN
100
AcDbLine
 10
92.04702624911703
 20
103.9100379058039
 30
0.0
 11
92.04702624911703
 21
103.610037905804
 31
0.0
  0
ARC
  5
1D69188764
330
1D69183399
100
AcDbEntity
  8
JISSEN
100
AcDbCircle
 10
92.24702624911708
 20
103.910037905804
 30
0.0
 40
0.2
100
AcDbArc
 50
90.00000000000019
 51
180.0000000000001
  0
ARC
  5
1D69188765
330
1D69183399
100
AcDbEntity
  8
JISSEN
100
AcDbCircle
 10
92.24702624911708
 20
102.610037905804
 30
0.0
 40
0.2
100
AcDbArc
 50
180.0000000000001
 51
270.0000000000002
  0
LINE
  5
1D69188766
330
1D69183399
100
AcDbEntity
  8
JISSEN
100
AcDbLine
 10
92.04702624911703
 20
102.610037905804
 30
0.0
 11
92.04702624911703
 21
102.9100379058039
 31
0.0
  0
LINE
  5
1D69188767
330
1D69183399
100
AcDbEntity
  8
JISSEN
100
AcDbLine
 10
91.14702624911695
 20
106.5100379058041
 30
0.0
 11
91.14702624911695
 21
104.560037905804
 31
0.0
  0
LINE
  5
1D6918876C
330
1D69183399
100
AcDbEntity
  8
JISSEN
100
AcDbLine
 10
102.8446215318596
 20
111.0581572843349
 30
0.0
 11
90.54702624911767
 21
111.0581572843349
 31
0.0
  0
LINE
  5
1D6918876D
330
1D69183399
100
AcDbEntity
  8
JISSEN
100
AcDbLine
 10
90.54702624911726
 20
106.5100379058041
 30
0.0
 11
100.4244660914893
 21
106.5100379058041
 31
0.0
  0
LINE
  5
1D6918876E
330
1D69183399
100
AcDbEntity
  8
JISSEN
100
AcDbLine
 10
90.54702624911703
 20
104.260037905804
 30
0.0
 11
98.29702624911703
 21
104.2600379058041
 31
0.0
  0
LINE
  5
1D6918876F
330
1D69183399
100
AcDbEntity
  8
JISSEN
100
AcDbLine
 10
90.54702624911703
 20
104.110037905804
 30
0.0
 11
98.29702624911703
 21
104.110037905804
 31
0.0
  0
LINE
  5
1D69188771
330
1D69183399
100
AcDbEntity
  8
JISSEN
100
AcDbLine
 10
93.88055929067457
 20
106.8100379058041
 30
0.0
 11
95.90945080485619
 21
106.8100379058041
 31
0.0
  0
LINE
  5
1D69188772
330
1D69183399
100
AcDbEntity
  8
JISSEN
100
AcDbLine
 10
93.8805592906748
 20
106.8100379058041
 30
0.0
 11
95.02362543575884
 21
110.0227495909936
 31
0.0
  0
LINE
  5
1D69188773
330
1D69183399
100
AcDbEntity
  8
JISSEN
100
AcDbLine
 10
90.54702624911703
 20
104.560037905804
 30
0.0
 11
96.54702624911704
 21
104.5600379058041
 31
0.0
  0
LINE
  5
1D69188774
330
1D69183399
100
AcDbEntity
  8
JISSEN
100
AcDbLine
 10
90.54702624911664
 20
99.910037905804
 30
0.0
 11
98.29702624911726
 21
99.91003790580402
 31
0.0
  0
LINE
  5
1D69188775
330
1D69183399
100
AcDbEntity
  8
JISSEN
100
AcDbLine
 10
98.29702624911726
 20
100.2100379058039
 30
0.0
 11
90.54702624911669
 21
100.2100379058039
 31
0.0
  0
LINE
  5
1D69188776
330
1D69183399
100
AcDbEntity
  8
JISSEN
100
AcDbLine
 10
90.54702624911687
 20
102.2600379058041
 30
0.0
 11
98.29702624911703
 21
102.2600379058041
 31
0.0
  0
LINE
  5
1D69188777
330
1D69183399
100
AcDbEntity
  8
JISSEN
100
AcDbLine
 10
90.54702624911687
 20
102.4100379058039
 30
0.0
 11
98.29702624911703
 21
102.410037905804
 31
0.0
  0
LINE
  5
1D6918877A
330
1D69183399
100
AcDbEntity
  8
JISSEN
100
AcDbLine
 10
86.94702624911764
 20
106.5100379058041
 30
0.0
 11
86.94702624911764
 21
104.560037905804
 31
0.0
  0
LINE
  5
1D6918877B
330
1D69183399
100
AcDbEntity
  8
JISSEN
100
AcDbLine
 10
86.04702624911755
 20
102.610037905804
 30
0.0
 11
86.04702624911755
 21
102.9100379058039
 31
0.0
  0
ARC
  5
1D6918877C
330
1D69183399
100
AcDbEntity
  8
JISSEN
100
AcDbCircle
 10
85.8470262491175
 20
102.610037905804
 30
0.0
 40
0.2
100
AcDbArc
 50
270.0
 51
0.0
  0
ARC
  5
1D6918877D
330
1D69183399
100
AcDbEntity
  8
JISSEN
100
AcDbCircle
 10
85.8470262491175
 20
103.9100379058039
 30
0.0
 40
0.2
100
AcDbArc
 50
0.0
 51
90.0
  0
LINE
  5
1D6918877E
330
1D69183399
100
AcDbEntity
  8
JISSEN
100
AcDbLine
 10
86.04702624911755
 20
103.9100379058039
 30
0.0
 11
86.04702624911755
 21
103.610037905804
 31
0.0
  0
ARC
  5
1D6918877F
330
1D69183399
100
AcDbEntity
  8
JISSEN
100
AcDbCircle
 10
86.39702624911768
 20
103.610037905804
 30
0.0
 40
0.35
100
AcDbArc
 50
180.0
 51
270.0
  0
ARC
  5
1D69188780
330
1D69183399
100
AcDbEntity
  8
JISSEN
100
AcDbCircle
 10
86.39702624911768
 20
102.9100379058039
 30
0.0
 40
0.35
100
AcDbArc
 50
90.0
 51
180.0
  0
LINE
  5
1D69188781
330
1D69183399
100
AcDbEntity
  8
JISSEN
100
AcDbLine
 10
87.54702624911756
 20
106.810037905804
 30
0.0
 11
87.54702624911756
 21
109.4298189110588
 31
0.0
  0
LINE
  5
1D69188782
330
1D69183399
100
AcDbEntity
  8
JISSEN
100
AcDbLine
 10
87.54702624911738
 20
103.2600379058041
 30
0.0
 11
86.39702624911768
 21
103.2600379058041
 31
0.0
  0
LINE
  5
1D69188785
330
1D69183399
100
AcDbEntity
  8
JISSEN
100
AcDbLine
 10
86.94702624911764
 20
101.9600379058039
 30
0.0
 11
86.94702624911764
 21
100.7100379058039
 31
0.0
  0
LINE
  5
1D69188786
330
1D69183399
100
AcDbEntity
  8
JISSEN
100
AcDbLine
 10
86.2470262491176
 20
100.4100379058042
 30
0.0
 11
86.2470262491176
 21
100.3100379058038
 31
0.0
  0
ARC
  5
1D69188787
330
1D69183399
100
AcDbEntity
  8
JISSEN
100
AcDbCircle
 10
86.54702624911754
 20
100.4100379058039
 30
0.0
 40
0.3
100
AcDbArc
 50
90.0
 51
179.9999999999804
  0
ARC
  5
1D69188788
330
1D69183399
100
AcDbEntity
  8
JISSEN
100
AcDbCircle
 10
86.14702624911746
 20
100.3100379058038
 30
0.0
 40
0.1
100
AcDbArc
 50
270.0
 51
0.0
  0
LINE
  5
1D69188789
330
1D69183399
100
AcDbEntity
  8
JISSEN
100
AcDbLine
 10
86.54702624911733
 20
100.7100379058039
 30
0.0
 11
87.54702624911761
 21
100.7100379058039
 31
0.0
  0
SPLINE
  5
1D6918878A
330
1D69183399
100
AcDbEntity
  8
JISSEN
100
AcDbSpline
210
0.0
220
0.0
230
1.0
 70
     8
 71
     3
 72
    14
 73
    10
 74
     0
 42
0.0000000001
 43
0.0000000001
 40
4.712392463599221
 40
4.712392463599221
 40
4.712392463599221
 40
4.712392463599221
 40
5.201868027680625
 40
5.201868027680625
 40
5.722054830448688
 40
5.722054830448688
 40
6.24224163321675
 40
6.24224163321675
 40
6.283185307179586
 40
6.283185307179586
 40
6.283185307179586
 40
6.283185307179586
 10
83.07042198192283
 20
110.0227245088846
 30
0.0
 10
83.00919740995045
 20
110.1943649109822
 30
0.0
 10
82.9129827749586
 20
110.3532671249701
 30
0.0
 10
82.67172081712415
 20
110.6112433373888
 30
0.0
 10
82.52501944161593
 20
110.705264944913
 30
0.0
 10
82.23559425642651
 20
110.7994056236867
 30
0.0
 10
82.09401154383881
 20
110.8009801251713
 30
0.0
 10
81.95737289754783
 20
110.7599458876531
 30
0.0
 10
81.94748749675289
 20
110.7567047335398
 30
0.0
 10
81.93768957868513
 20
110.7532177786196
 30
0.0
  0
ELLIPSE
  5
1D6918878B
330
1D69183399
100
AcDbEntity
  8
JISSEN
100
AcDbEllipse
 10
82.29577624911661
 20
109.7470379058039
 30
0.0
 11
-0.4476083380395809
 21
1.257724841019467
 31
0.0
210
0.0
220
0.0
230
1.0
 40
0.8159202227897862
 41
7.487959916961759
 42
7.853780332635299
  0
ARC
  5
1D6918878C
330
1D69183399
100
AcDbEntity
  8
JISSEN
100
AcDbCircle
 10
82.50643661314091
 20
109.5003928669195
 30
0.0
 40
1.375879154787482
100
AcDbArc
 50
114.4167034614547
 51
165.0144433096724
  0
ARC
  5
1D6918878D
330
1D69183399
100
AcDbEntity
  8
JISSEN
100
AcDbCircle
 10
81.54702624911754
 20
104.2600379058041
 30
0.0
 40
0.2999999999998692
100
AcDbArc
 50
90.0
 51
180.0
  0
LINE
  5
1D6918878E
330
1D69183399
100
AcDbEntity
  8
JISSEN
100
AcDbLine
 10
79.79702624911755
 20
104.2600379058041
 30
0.0
 11
79.79702624911755
 21
104.110037905804
 31
0.0
  0
LINE
  5
1D6918878F
330
1D69183399
100
AcDbEntity
  8
JISSEN
100
AcDbLine
 10
82.1846016933784
 20
106.810037905804
 30
0.0
 11
81.26948303327225
 21
109.3820783999621
 31
0.0
  0
ELLIPSE
  5
1D69188790
330
1D69183399
100
AcDbEntity
  8
JISSEN
100
AcDbEllipse
 10
77.37120730711007
 20
109.7787890998571
 30
0.0
 11
-0.7365439769865056
 21
1.222289143954679
 31
0.0
210
0.0
220
0.0
230
1.0
 40
0.4069918413230502
 41
7.254579298188163
 42
7.60717270050308
  0
ARC
  5
1D69188791
330
1D69183399
100
AcDbEntity
  8
JISSEN
100
AcDbCircle
 10
77.84869359726775
 20
109.907107096922
 30
0.0
 40
1.340962879392063
100
AcDbArc
 50
142.9939697501317
 51
166.4699450128802
  0
ARC
  5
1D69188792
330
1D69183399
100
AcDbEntity
  8
JISSEN
100
AcDbCircle
 10
75.54702624911732
 20
111.0960656961898
 30
0.0
 40
0.3
100
AcDbArc
 50
180.0
 51
207.0000000000017
  0
ARC
  5
1D69188793
330
1D69183399
100
AcDbEntity
  8
JISSEN
100
AcDbCircle
 10
76.84811231679413
 20
110.6612642942619
 30
0.0
 40
0.088
100
AcDbArc
 50
65.53552317176055
 51
142.9939697501109
  0
SPLINE
  5
1D69188794
330
1D69183399
100
AcDbEntity
  8
JISSEN
100
AcDbSpline
210
0.0
220
0.0
230
1.0
 70
     8
 71
     3
 72
    12
 73
     8
 74
     0
 42
0.0000000001
 43
0.0000000001
 40
4.927655908264091
 40
4.927655908264091
 40
4.927655908264091
 40
4.927655908264091
 40
5.267374716391513
 40
5.267374716391513
 40
5.651619790278387
 40
5.651619790278387
 40
5.743457712309654
 40
5.743457712309654
 40
5.743457712309654
 40
5.743457712309654
 10
77.48670455129007
 20
110.176963829935
 30
0.0
 10
77.40065355124142
 20
110.2947172973041
 30
0.0
 10
77.30931337595638
 20
110.4015882306574
 30
0.0
 10
77.11895070735471
 20
110.5903977318816
 30
0.0
 10
77.02006864133267
 20
110.6668413241924
 30
0.0
 10
76.91974375293938
 20
110.7243838032301
 30
0.0
 10
76.9014567318606
 20
110.7336738889497
 30
0.0
 10
76.88455566794591
 20
110.7413634962357
 30
0.0
  0
ARC
  5
1D69188795
330
1D69183399
100
AcDbEntity
  8
JISSEN
100
AcDbCircle
 10
77.66958640674528
 20
106.7100379058039
 30
0.0
 40
0.2
100
AcDbArc
 50
207.0000000000017
 51
270.0
  0
LINE
  5
1D69188796
330
1D69183399
100
AcDbEntity
  8
JISSEN
100
AcDbLine
 10
79.51438028216688
 20
106.810037905804
 30
0.0
 11
78.50260742231961
 21
106.810037905804
 31
0.0
  0
LINE
  5
1D69188797
330
1D69183399
100
AcDbEntity
  8
JISSEN
100
AcDbLine
 10
79.51438028216688
 20
106.810037905804
 30
0.0
 11
77.47373651310244
 21
110.1964707645931
 31
0.0
  0
LINE
  5
1D69188798
330
1D69183399
100
AcDbEntity
  8
JISSEN
100
AcDbLine
 10
78.50260742231938
 20
106.810037905804
 30
0.0
 11
76.70887451668789
 21
109.786724059266
 31
0.0
  0
LINE
  5
1D69188799
330
1D69183399
100
AcDbEntity
  8
JISSEN
100
AcDbLine
 10
75.2797242918611
 20
110.959868546268
 30
0.0
 11
77.49138510190772
 21
106.6192398058562
 31
0.0
  0
LINE
  5
1D6918879A
330
1D69183399
100
AcDbEntity
  8
JISSEN
100
AcDbLine
 10
75.2470262491176
 20
113.3182874842488
 30
0.0
 11
75.2470262491176
 21
111.0960656961898
 31
0.0
  0
ARC
  5
1D6918879F
330
1D69183399
100
AcDbEntity
  8
JISSEN
100
AcDbCircle
 10
81.54702624911754
 20
102.2600379058038
 30
0.0
 40
0.2999999999998692
100
AcDbArc
 50
180.0
 51
270.0
  0
ARC
  5
1D691887A0
330
1D69183399
100
AcDbEntity
  8
JISSEN
100
AcDbCircle
 10
81.04702624911732
 20
100.0100379058041
 30
0.0
 40
0.3
100
AcDbArc
 50
199.4712206348898
 51
270.0
  0
LINE
  5
1D691887A1
330
1D69183399
100
AcDbEntity
  8
JISSEN
100
AcDbLine
 10
79.79702624911732
 20
99.910037905804
 30
0.0
 11
79.79702624911732
 21
100.2100379058039
 31
0.0
  0
LINE
  5
1D691887A2
330
1D69183399
100
AcDbEntity
  8
JISSEN
100
AcDbLine
 10
79.79702624911732
 20
99.910037905804
 30
0.0
 11
79.79702624911732
 21
100.2100379058039
 31
0.0
  0
LINE
  5
1D691887A3
330
1D69183399
100
AcDbEntity
  8
JISSEN
100
AcDbLine
 10
79.79702624911755
 20
102.2600379058038
 30
0.0
 11
79.79702624911755
 21
102.4100379058039
 31
0.0
  0
LINE
  5
1D691887A4
330
1D69183399
100
AcDbEntity
  8
JISSEN
100
AcDbLine
 10
87.54702624911748
 20
101.9600379058039
 30
0.0
 11
81.54702624911754
 21
101.9600379058039
 31
0.0
  0
LINE
  5
1D691887A5
330
1D69183399
100
AcDbEntity
  8
JISSEN
100
AcDbLine
 10
87.54702624911766
 20
99.71003790580395
 30
0.0
 11
81.04702624911732
 21
99.71003790580395
 31
0.0
  0
LINE
  5
1D691887A6
330
1D69183399
100
AcDbEntity
  8
JISSEN
100
AcDbLine
 10
87.54702624911743
 20
102.4100379058039
 30
0.0
 11
79.79702624911755
 21
102.4100379058039
 31
0.0
  0
LINE
  5
1D691887A7
330
1D69183399
100
AcDbEntity
  8
JISSEN
100
AcDbLine
 10
87.54702624911743
 20
102.2600379058041
 30
0.0
 11
79.79702624911755
 21
102.2600379058041
 31
0.0
  0
LINE
  5
1D691887A8
330
1D69183399
100
AcDbEntity
  8
JISSEN
100
AcDbLine
 10
79.79702624911732
 20
100.2100379058039
 30
0.0
 11
87.54702624911766
 21
100.2100379058039
 31
0.0
  0
LINE
  5
1D691887A9
330
1D69183399
100
AcDbEntity
  8
JISSEN
100
AcDbLine
 10
87.54702624911766
 20
99.910037905804
 30
0.0
 11
79.79702624911732
 21
99.910037905804
 31
0.0
  0
LINE
  5
1D691887AA
330
1D69183399
100
AcDbEntity
  8
JISSEN
100
AcDbLine
 10
87.54702624911727
 20
104.560037905804
 30
0.0
 11
81.54702624911754
 21
104.560037905804
 31
0.0
  0
LINE
  5
1D691887AB
330
1D69183399
100
AcDbEntity
  8
JISSEN
100
AcDbLine
 10
84.21349320755979
 20
106.810037905804
 30
0.0
 11
83.07042706247575
 21
110.0227495909936
 31
0.0
  0
LINE
  5
1D691887AC
330
1D69183399
100
AcDbEntity
  8
JISSEN
100
AcDbLine
 10
84.21349320756002
 20
106.810037905804
 30
0.0
 11
82.1846016933784
 21
106.810037905804
 31
0.0
  0
LINE
  5
1D691887AE
330
1D69183399
100
AcDbEntity
  8
JISSEN
100
AcDbLine
 10
87.54702624911727
 20
104.110037905804
 30
0.0
 11
79.79702624911755
 21
104.110037905804
 31
0.0
  0
LINE
  5
1D691887AF
330
1D69183399
100
AcDbEntity
  8
JISSEN
100
AcDbLine
 10
87.54702624911727
 20
104.260037905804
 30
0.0
 11
79.79702624911755
 21
104.2600379058041
 31
0.0
  0
LINE
  5
1D691887B0
330
1D69183399
100
AcDbEntity
  8
JISSEN
100
AcDbLine
 10
87.54702624911704
 20
106.5100379058041
 30
0.0
 11
77.66958640674528
 21
106.5100379058041
 31
0.0
  0
LINE
  5
1D691887B1
330
1D69183399
100
AcDbEntity
  8
JISSEN
100
AcDbLine
 10
75.24943096637497
 20
111.0581572843349
 30
0.0
 11
87.54702624911663
 21
111.0581572843349
 31
0.0
  0
ARC
  5
1D69188802
330
1D69183399
100
AcDbEntity
  8
JISSEN
100
AcDbCircle
 10
89.04702624911715
 20
47.00605271525001
 30
0.0
 40
34.0
100
AcDbArc
 50
0.0
 51
180.0
  0
ARC
  5
1D69188803
330
1D69183399
100
AcDbEntity
  8
JISSEN
100
AcDbCircle
 10
89.04702624911625
 20
47.00605271525046
 30
0.0
 40
21.25
100
AcDbArc
 50
0.0000000000260691
 51
179.9999999999853
  0
ARC
  5
1D69188805
330
1D69183399
100
AcDbEntity
  8
JISSEN
100
AcDbCircle
 10
89.04702624911896
 20
47.00605271525136
 30
0.0
 40
18.25
100
AcDbArc
 50
94.71456054097009
 51
175.2854394591078
  0
LINE
  5
1D69188808
330
1D69183399
100
AcDbEntity
  8
JISSEN
100
AcDbLine
 10
115.9560010230697
 20
48.50605271525546
 30
0.0
 11
110.2440189603476
 21
48.50605271525683
 31
0.0
  0
ELLIPSE
  5
1D6918880D
330
1D69183399
100
AcDbEntity
  8
JISSEN
100
AcDbEllipse
 10
89.04702624911625
 20
73.91502748920948
 30
0.0
 11
-0.0000000000000009
 21
3.286276802032261
 31
0.0
210
0.0
220
0.0
230
-1.0
 40
0.4564435957043948
 41
4.712388980384689
 42
7.853981633974482
  0
LINE
  5
1D6918880E
330
1D69183399
100
AcDbEntity
  8
JISSEN
100
AcDbLine
 10
90.54234615016412
 20
68.20337609329818
 30
0.0
 11
90.54234615016412
 21
74.17442273126972
 31
0.0
  0
LINE
  5
1D6918880F
330
1D69183399
100
AcDbEntity
  8
JISSEN
100
AcDbLine
 10
87.54702624911624
 20
73.91502748920948
 30
0.0
 11
87.54702624911624
 21
68.20304542648182
 31
0.0
  0
ARC
  5
1D69188810
330
1D69183399
100
AcDbEntity
  8
JISSEN
100
AcDbCircle
 10
87.54702624911534
 20
66.69430441792792
 30
0.0
 40
1.5
100
AcDbArc
 50
270.0000000001042
 51
0.0
  0
ARC
  5
1D69188811
330
1D69183399
100
AcDbEntity
  8
JISSEN
100
AcDbCircle
 10
90.54702624911625
 20
66.69430441793065
 30
0.0
 40
1.5
100
AcDbArc
 50
180.0000000001042
 51
270.0
  0
ARC
  5
1D69188812
330
1D69183399
100
AcDbEntity
  8
JISSEN
100
AcDbCircle
 10
108.7352779517978
 20
48.50605271526546
 30
0.0
 40
1.5
100
AcDbArc
 50
180.0000000000781
 51
270.0
  0
ELLIPSE
  5
1D69188817
330
1D69183399
100
AcDbEntity
  8
JISSEN
100
AcDbEllipse
 10
115.9560010230697
 20
47.00605271525591
 30
0.0
 11
3.286276802032261
 21
0.0
 31
0.0
210
0.0
220
0.0
230
1.0
 40
0.4564435957043948
 41
6.283185307179586
 42
7.853981633974482
  0
ARC
  5
1D69188818
330
1D69183399
100
AcDbEntity
  8
JISSEN
100
AcDbCircle
 10
89.04702624911989
 20
47.00605271525136
 30
0.0
 40
18.25
100
AcDbArc
 50
4.44144466511373
 51
85.2854394591341
  0
ELLIPSE
  5
1D69188819
330
1D69183399
100
AcDbEntity
  8
JISSEN
100
AcDbEllipse
 10
62.13805147516268
 20
47.00605271525591
 30
0.0
 11
-3.286276802032261
 21
0.0
 31
0.0
210
0.0
220
0.0
230
-1.0
 40
0.4564435957043948
 41
6.283185307179586
 42
7.853981633974482
  0
ARC
  5
1D6918881C
330
1D69183399
100
AcDbEntity
  8
JISSEN
100
AcDbCircle
 10
69.35877454643469
 20
48.50605271526546
 30
0.0
 40
1.5
100
AcDbArc
 50
270.0
 51
359.9999999999218
  0
LINE
  5
1D6918881D
330
1D69183399
100
AcDbEntity
  8
JISSEN
100
AcDbLine
 10
62.13805147516268
 20
48.50605271525546
 30
0.0
 11
67.85003353788488
 21
48.50605271525683
 31
0.0
  0
LINE
  5
1D69188820
330
1D69183399
100
AcDbEntity
  8
TEXT
100
AcDbLine
 10
153.1955221499577
 20
10.84959345429125
 30
0.0
 11
153.1955221499577
 21
7.849593454291266
 31
0.0
  0
LINE
  5
1D69188823
330
1D69183399
100
AcDbEntity
  8
TEXT
100
AcDbLine
 10
334.1722412823379
 20
10.84959345429125
 30
0.0
 11
334.1722412823379
 21
7.849593454291266
 31
0.0
  0
LINE
  5
1D69188824
330
1D69183399
100
AcDbEntity
  8
TEXT
100
AcDbLine
 10
335.9722412823379
 20
10.84959345429125
 30
0.0
 11
335.9722412823379
 21
7.849593454291266
 31
0.0
  0
LINE
  5
1D69188825
330
1D69183399
100
AcDbEntity
  8
TEXT
100
AcDbLine
 10
335.0722412823379
 20
10.84959345429125
 30
0.0
 11
335.0722412823379
 21
7.849593454291266
 31
0.0
  0
LINE
  5
1D69188826
330
1D69183399
100
AcDbEntity
  8
TEXT
100
AcDbLine
 10
333.622241282338
 20
7.849593454291265
 30
0.0
 11
336.5222412823377
 21
7.849593454291266
 31
0.0
  0
LINE
  5
1D69188827
330
1D69183399
100
AcDbEntity
  8
TEXT
100
AcDbLine
 10
333.622241282338
 20
10.84959345429124
 30
0.0
 11
336.5222412823377
 21
10.84959345429125
 31
0.0
  0
ENDSEC
  0
SECTION
  2
OBJECTS
  0
DICTIONARY
  5
1D6918338D
330
0
100
AcDbDictionary
281
     1
  3
ACAD_GROUP
350
1D6918338E
  3
ACAD_LAYOUT
350
1D691837E6
  3
ACAD_MLINESTYLE
350
1D6918338F
  3
ACAD_PLOTSETTINGS
350
1D691837E7
  3
ACAD_PLOTSTYLENAME
350
1D691837E4
  3
ACDBHEADERROUNDTRIPXREC
350
1D69188839
  3
ACDBVARIABLEDICTIONARY
350
1D691847BA
  0
DICTIONARY
  5
1D691847F3
330
1D69183383
100
AcDbDictionary
280
     1
281
     1
  3
ACAD_LAYERFILTERS
360
1D6918537E
  3
ACAD_LAYERSTATES
360
1D691847F4
  0
DICTIONARY
  5
1D69183A5C
330
1D69183399
100
AcDbDictionary
280
     1
281
     1
  3
ACAD_LAYOUTSELFREF
360
1D6918536D
  0
DICTIONARY
  5
1D69183A5A
330
1D69183396
100
AcDbDictionary
280
     1
281
     1
  3
ACAD_LAYOUTSELFREF
360
1D6918536C
  0
DICTIONARY
  5
1D6918338E
102
{ACAD_REACTORS
330
1D6918338D
102
}
330
1D6918338D
100
AcDbDictionary
281
     1
  0
DICTIONARY
  5
1D691837E6
102
{ACAD_REACTORS
330
1D6918338D
102
}
330
1D6918338D
100
AcDbDictionary
281
     1
  3
Model
350
1D69185372
  3
ﾚｲｱｳﾄ1
350
1D69185373
  0
DICTIONARY
  5
1D6918338F
102
{ACAD_REACTORS
330
1D6918338D
102
}
330
1D6918338D
100
AcDbDictionary
281
     1
  3
STANDARD
350
1D6918339C
  0
DICTIONARY
  5
1D691837E7
102
{ACAD_REACTORS
330
1D6918338D
102
}
330
1D6918338D
100
AcDbDictionary
281
     1
  0
ACDBDICTIONARYWDFLT
  5
1D691837E4
102
{ACAD_REACTORS
330
1D6918338D
102
}
330
1D6918338D
100
AcDbDictionary
281
     1
  3
Normal
350
1D691837E5
  3
Style_1
350
1D691855D5
100
AcDbDictionaryWithDefault
340
1D691837E5
  0
DICTIONARY
  5
1D69188839
102
{ACAD_REACTORS
330
1D6918338D
102
}
330
1D6918338D
100
AcDbDictionary
281
     1
  3
CEPSNTYPE
350
1D69188843
  3
DIMSTYLEDATA
350
1D69188847
  3
FINGERPRINTGUID
350
1D69188844
  3
HYPERLINKBASE
350
1D6918883C
  3
INSUNITS
350
1D69188842
  3
LAYOUTDICT
350
1D6918883E
  3
LWETCUNION
350
1D69188841
  3
PLOTSETDICT
350
1D6918883F
  3
PLOTSTYLNAMDICT
350
1D69188840
  3
PSVPSCALE
350
1D69188846
  3
PUCSBASE
350
1D6918884A
  3
PUCSORGBACK
350
1D69188850
  3
PUCSORGBOTTOM
350
1D6918884C
  3
PUCSORGFRONT
350
1D6918884F
  3
PUCSORGLEFT
350
1D6918884D
  3
PUCSORGRIGHT
350
1D6918884E
  3
PUCSORGTOP
350
1D6918884B
  3
PUCSORTHOREF
350
1D69188848
  3
PUCSORTHOVIEW
350
1D69188849
  3
STYLESHEET
350
1D6918883D
  3
TSTACKALIGN
350
1D6918883A
  3
TSTACKSIZE
350
1D6918883B
  3
UCSBASE
350
1D69188853
  3
UCSORGBACK
350
1D69188859
  3
UCSORGBOTTOM
350
1D69188855
  3
UCSORGFRONT
350
1D69188858
  3
UCSORGLEFT
350
1D69188856
  3
UCSORGRIGHT
350
1D69188857
  3
UCSORGTOP
350
1D69188854
  3
UCSORTHOREF
350
1D69188851
  3
UCSORTHOVIEW
350
1D69188852
  3
VERSIONGUID
350
1D69188845
  0
DICTIONARY
  5
1D691847BA
102
{ACAD_REACTORS
330
1D6918338D
102
}
330
1D6918338D
100
AcDbDictionary
281
     1
  3
DIMASSOC
350
1D691847BB
  0
DICTIONARY
  5
1D6918537E
102
{ACAD_REACTORS
330
1D691847F3
102
}
330
1D691847F3
100
AcDbDictionary
280
     1
281
     1
  3
0
360
1D6918537F
  3
0-0
360
1D69185380
  3
10画層
360
1D69185381
  3
2
360
1D69185382
  3
3
360
1D69185383
  3
3A
360
1D69185384
  3
4
360
1D69185385
  3
5画層
360
1D69185386
  3
6画層
360
1D69185387
  3
7
360
1D69185388
  3
7a画層
360
1D69185389
  3
8
360
1D6918538A
  3
ASYST
360
1D6918538B
  3
ASYST PHASE 1
360
1D6918538C
  3
ASYST PHASE 2
360
1D6918538D
  3
cap-0
360
1D6918538E
  3
dims
360
1D6918538F
  3
elec
360
1D69185390
  3
ELECTRICAL
360
1D69185391
  3
F
360
1D69185392
  3
Frame
360
1D69185393
  3
FROZEN
360
1D69185394
  3
FROZEN ACTIVE
360
1D69185395
  3
jiku-0
360
1D69185396
  3
MP
360
1D69185397
  3
MPR
360
1D69185398
  3
p-
360
1D69185399
  3
ST
360
1D6918539A
  3
TC
360
1D6918539B
  3
TEXT
360
1D6918539C
  3
ｹｰﾌﾞﾙ図
360
1D6918539D
  3
０画層
360
1D6918539E
  3
３A画層
360
1D6918539F
  3
３画層
360
1D691853A0
  0
DICTIONARY
  5
1D691847F4
102
{ACAD_REACTORS
330
1D691847F3
102
}
330
1D691847F3
100
AcDbDictionary
281
     1
  0
XRECORD
  5
1D6918536D
102
{ACAD_REACTORS
330
1D69183A5C
102
}
330
1D69183A5C
100
AcDbXrecord
280
     1
340
1D69183399
  0
XRECORD
  5
1D6918536C
102
{ACAD_REACTORS
330
1D69183A5A
102
}
330
1D69183A5A
100
AcDbXrecord
280
     1
340
1D69183396
  0
LAYOUT
  5
1D69185372
102
{ACAD_REACTORS
330
1D691837E6
102
}
330
1D691837E6
100
AcDbPlotSettings
  1

  2
RICOH imagio Neo C355 RPCS
  4

  6

 40
0.0
 41
0.0
 42
0.0
 43
0.0
 44
0.0
 45
0.0
 46
0.0
 47
0.0
 48
0.0
 49
0.0
140
0.0
141
0.0
142
1.0
143
1.0
 70
  1712
 72
     0
 73
     0
 74
     0
  7
aclt.ctb
 75
     0
147
1.0
148
0.0
149
0.0
100
AcDbLayout
  1
Model
 70
     1
 71
     0
 10
0.0
 20
0.0
 11
12.0
 21
9.0
 12
0.0
 22
0.0
 32
0.0
 14
0.0
 24
0.0
 34
0.0
 15
0.0
 25
0.0
 35
0.0
146
0.0
 13
0.0
 23
0.0
 33
0.0
 16
1.0
 26
0.0
 36
0.0
 17
0.0
 27
1.0
 37
0.0
 76
     0
330
1D69183399
  0
LAYOUT
  5
1D69185373
102
{ACAD_REACTORS
330
1D691837E6
102
}
330
1D691837E6
100
AcDbPlotSettings
  1

  2
RICOH imagio Neo C355 RPCS
  4

  6

 40
0.0
 41
0.0
 42
0.0
 43
0.0
 44
0.0
 45
0.0
 46
0.0
 47
0.0
 48
0.0
 49
0.0
140
0.0
141
0.0
142
1.0
143
1.0
 70
   688
 72
     0
 73
     0
 74
     5
  7
aclt.ctb
 75
    16
147
1.0
148
0.0
149
0.0
100
AcDbLayout
  1
ﾚｲｱｳﾄ1
 70
     0
 71
     1
 10
0.0
 20
0.0
 11
12.0
 21
9.0
 12
0.0
 22
0.0
 32
0.0
 14
1.000000000000000E+20
 24
1.000000000000000E+20
 34
1.000000000000000E+20
 15
-1.000000000000000E+20
 25
-1.000000000000000E+20
 35
-1.000000000000000E+20
146
0.0
 13
0.0
 23
0.0
 33
0.0
 16
1.0
 26
0.0
 36
0.0
 17
0.0
 27
1.0
 37
0.0
 76
     0
330
1D69183396
  0
MLINESTYLE
  5
1D6918339C
102
{ACAD_REACTORS
330
1D6918338F
102
}
330
1D6918338F
100
AcDbMlineStyle
  2
STANDARD
 70
     0
  3

 62
     0
 51
90.0
 52
90.0
 71
     2
 49
0.5
 62
   256
  6
BYLAYER
 49
-0.5
 62
   256
  6
BYLAYER
  0
ACDBPLACEHOLDER
  5
1D691837E5
102
{ACAD_REACTORS
330
1D691837E4
102
}
330
1D691837E4
  0
ACDBPLACEHOLDER
  5
1D691855D5
102
{ACAD_REACTORS
330
1D691837E4
102
}
330
1D691837E4
  0
XRECORD
  5
1D69188843
102
{ACAD_REACTORS
330
1D69188839
102
}
330
1D69188839
100
AcDbXrecord
280
     1
 90
        0
  0
XRECORD
  5
1D69188847
102
{ACAD_REACTORS
330
1D69188839
102
}
330
1D69188839
100
AcDbXrecord
280
     1
1000
DSTYLE
1002
{
1070
   341
340
1D691833A3
1070
   342
340
1D691833A3
1070
   343
340
1D691833A3
1070
   344
340
1D691833A3
1002
}
  0
XRECORD
  5
1D69188844
102
{ACAD_REACTORS
330
1D69188839
102
}
330
1D69188839
100
AcDbXrecord
280
     1
  1
{9E4523D2-8DA8-438B-B789-0D080F5E267A}
  0
XRECORD
  5
1D6918883C
102
{ACAD_REACTORS
330
1D69188839
102
}
330
1D69188839
100
AcDbXrecord
280
     1
  1

  0
XRECORD
  5
1D69188842
102
{ACAD_REACTORS
330
1D69188839
102
}
330
1D69188839
100
AcDbXrecord
280
     1
 90
        0
  0
XRECORD
  5
1D6918883E
102
{ACAD_REACTORS
330
1D69188839
102
}
330
1D69188839
100
AcDbXrecord
280
     1
340
1D691837E6
  0
XRECORD
  5
1D69188841
102
{ACAD_REACTORS
330
1D69188839
102
}
330
1D69188839
100
AcDbXrecord
280
     1
 90
    10781
  0
XRECORD
  5
1D6918883F
102
{ACAD_REACTORS
330
1D69188839
102
}
330
1D69188839
100
AcDbXrecord
280
     1
340
1D691837E7
  0
XRECORD
  5
1D69188840
102
{ACAD_REACTORS
330
1D69188839
102
}
330
1D69188839
100
AcDbXrecord
280
     1
340
1D691837E4
  0
XRECORD
  5
1D69188846
102
{ACAD_REACTORS
330
1D69188839
102
}
330
1D69188839
100
AcDbXrecord
280
     1
 40
0.0
  0
XRECORD
  5
1D6918884A
102
{ACAD_REACTORS
330
1D69188839
102
}
330
1D69188839
100
AcDbXrecord
280
     1
340
0
  0
XRECORD
  5
1D69188850
102
{ACAD_REACTORS
330
1D69188839
102
}
330
1D69188839
100
AcDbXrecord
280
     1
 10
0.0
 20
0.0
 30
0.0
  0
XRECORD
  5
1D6918884C
102
{ACAD_REACTORS
330
1D69188839
102
}
330
1D69188839
100
AcDbXrecord
280
     1
 10
0.0
 20
0.0
 30
0.0
  0
XRECORD
  5
1D6918884F
102
{ACAD_REACTORS
330
1D69188839
102
}
330
1D69188839
100
AcDbXrecord
280
     1
 10
0.0
 20
0.0
 30
0.0
  0
XRECORD
  5
1D6918884D
102
{ACAD_REACTORS
330
1D69188839
102
}
330
1D69188839
100
AcDbXrecord
280
     1
 10
0.0
 20
0.0
 30
0.0
  0
XRECORD
  5
1D6918884E
102
{ACAD_REACTORS
330
1D69188839
102
}
330
1D69188839
100
AcDbXrecord
280
     1
 10
0.0
 20
0.0
 30
0.0
  0
XRECORD
  5
1D6918884B
102
{ACAD_REACTORS
330
1D69188839
102
}
330
1D69188839
100
AcDbXrecord
280
     1
 10
0.0
 20
0.0
 30
0.0
  0
XRECORD
  5
1D69188848
102
{ACAD_REACTORS
330
1D69188839
102
}
330
1D69188839
100
AcDbXrecord
280
     1
340
0
  0
XRECORD
  5
1D69188849
102
{ACAD_REACTORS
330
1D69188839
102
}
330
1D69188839
100
AcDbXrecord
280
     1
 70
     0
  0
XRECORD
  5
1D6918883D
102
{ACAD_REACTORS
330
1D69188839
102
}
330
1D69188839
100
AcDbXrecord
280
     1
  1

  0
XRECORD
  5
1D6918883A
102
{ACAD_REACTORS
330
1D69188839
102
}
330
1D69188839
100
AcDbXrecord
280
     1
 90
        1
  0
XRECORD
  5
1D6918883B
102
{ACAD_REACTORS
330
1D69188839
102
}
330
1D69188839
100
AcDbXrecord
280
     1
 90
       70
  0
XRECORD
  5
1D69188853
102
{ACAD_REACTORS
330
1D69188839
102
}
330
1D69188839
100
AcDbXrecord
280
     1
340
0
  0
XRECORD
  5
1D69188859
102
{ACAD_REACTORS
330
1D69188839
102
}
330
1D69188839
100
AcDbXrecord
280
     1
 10
0.0
 20
0.0
 30
0.0
  0
XRECORD
  5
1D69188855
102
{ACAD_REACTORS
330
1D69188839
102
}
330
1D69188839
100
AcDbXrecord
280
     1
 10
0.0
 20
0.0
 30
0.0
  0
XRECORD
  5
1D69188858
102
{ACAD_REACTORS
330
1D69188839
102
}
330
1D69188839
100
AcDbXrecord
280
     1
 10
0.0
 20
0.0
 30
0.0
  0
XRECORD
  5
1D69188856
102
{ACAD_REACTORS
330
1D69188839
102
}
330
1D69188839
100
AcDbXrecord
280
     1
 10
0.0
 20
0.0
 30
0.0
  0
XRECORD
  5
1D69188857
102
{ACAD_REACTORS
330
1D69188839
102
}
330
1D69188839
100
AcDbXrecord
280
     1
 10
0.0
 20
0.0
 30
0.0
  0
XRECORD
  5
1D69188854
102
{ACAD_REACTORS
330
1D69188839
102
}
330
1D69188839
100
AcDbXrecord
280
     1
 10
0.0
 20
0.0
 30
0.0
  0
XRECORD
  5
1D69188851
102
{ACAD_REACTORS
330
1D69188839
102
}
330
1D69188839
100
AcDbXrecord
280
     1
340
0
  0
XRECORD
  5
1D69188852
102
{ACAD_REACTORS
330
1D69188839
102
}
330
1D69188839
100
AcDbXrecord
280
     1
 70
     0
  0
XRECORD
  5
1D69188845
102
{ACAD_REACTORS
330
1D69188839
102
}
330
1D69188839
100
AcDbXrecord
280
     1
  1
{87268793-0420-4023-BD48-88723801AEC3}
  0
DICTIONARYVAR
  5
1D691847BB
102
{ACAD_REACTORS
330
1D691847BA
102
}
330
1D691847BA
100
DictionaryVariables
280
     0
  1
0
  0
XRECORD
  5
1D6918537F
102
{ACAD_REACTORS
330
1D6918537E
102
}
330
1D6918537E
100
AcDbXrecord
280
     1
  1
0
  1
*-0
  1
*
  1
*
 70
     0
  1
*
  1
*
  0
XRECORD
  5
1D69185380
102
{ACAD_REACTORS
330
1D6918537E
102
}
330
1D6918537E
100
AcDbXrecord
280
     1
  1
0-0
  1
*-0
  1
*
  1
*
 70
     0
  1
*
  1
*
  0
XRECORD
  5
1D69185381
102
{ACAD_REACTORS
330
1D6918537E
102
}
330
1D6918537E
100
AcDbXrecord
280
     1
  1
10画層
  1
*-10
  1
*
  1
*
 70
     0
  1
*
  1
*
  0
XRECORD
  5
1D69185382
102
{ACAD_REACTORS
330
1D6918537E
102
}
330
1D6918537E
100
AcDbXrecord
280
     1
  1
2
  1
*-2
  1
*
  1
*
 70
     0
  1
*
  1
*
  0
XRECORD
  5
1D69185383
102
{ACAD_REACTORS
330
1D6918537E
102
}
330
1D6918537E
100
AcDbXrecord
280
     1
  1
3
  1
*-3
  1
*
  1
*
 70
     0
  1
*
  1
*
  0
XRECORD
  5
1D69185384
102
{ACAD_REACTORS
330
1D6918537E
102
}
330
1D6918537E
100
AcDbXrecord
280
     1
  1
3A
  1
*-3A
  1
*
  1
*
 70
     0
  1
*
  1
*
  0
XRECORD
  5
1D69185385
102
{ACAD_REACTORS
330
1D6918537E
102
}
330
1D6918537E
100
AcDbXrecord
280
     1
  1
4
  1
*-4
  1
*
  1
*
 70
     0
  1
*
  1
*
  0
XRECORD
  5
1D69185386
102
{ACAD_REACTORS
330
1D6918537E
102
}
330
1D6918537E
100
AcDbXrecord
280
     1
  1
5画層
  1
*-5
  1
*
  1
*
 70
     0
  1
*
  1
*
  0
XRECORD
  5
1D69185387
102
{ACAD_REACTORS
330
1D6918537E
102
}
330
1D6918537E
100
AcDbXrecord
280
     1
  1
6画層
  1
*-6
  1
*
  1
*
 70
     0
  1
*
  1
*
  0
XRECORD
  5
1D69185388
102
{ACAD_REACTORS
330
1D6918537E
102
}
330
1D6918537E
100
AcDbXrecord
280
     1
  1
7
  1
*-7*
  1
*
  1
*
 70
     0
  1
*
  1
*
  0
XRECORD
  5
1D69185389
102
{ACAD_REACTORS
330
1D6918537E
102
}
330
1D6918537E
100
AcDbXrecord
280
     1
  1
7a画層
  1
*-7a
  1
*
  1
*
 70
     0
  1
*
  1
*
  0
XRECORD
  5
1D6918538A
102
{ACAD_REACTORS
330
1D6918537E
102
}
330
1D6918537E
100
AcDbXrecord
280
     1
  1
8
  1
*-8,8
  1
*
  1
*
 70
     0
  1
*
  1
*
  0
XRECORD
  5
1D6918538B
102
{ACAD_REACTORS
330
1D6918537E
102
}
330
1D6918537E
100
AcDbXrecord
280
     1
  1
ASYST
  1
ASYST*
  1
*
  1
*
 70
     0
  1
*
  1
*
  0
XRECORD
  5
1D6918538C
102
{ACAD_REACTORS
330
1D6918537E
102
}
330
1D6918537E
100
AcDbXrecord
280
     1
  1
ASYST PHASE 1
  1
A1.0-8$0$ASYT*
  1
*
  1
*
 70
     0
  1
*
  1
*
  0
XRECORD
  5
1D6918538D
102
{ACAD_REACTORS
330
1D6918537E
102
}
330
1D6918537E
100
AcDbXrecord
280
     1
  1
ASYST PHASE 2
  1
A2.0-8$0$ASYT*
  1
*
  1
*
 70
     0
  1
*
  1
*
  0
XRECORD
  5
1D6918538E
102
{ACAD_REACTORS
330
1D6918537E
102
}
330
1D6918537E
100
AcDbXrecord
280
     1
  1
cap-0
  1
*
  1
*
  1
*
 70
     0
  1
*
  1
*
  0
XRECORD
  5
1D6918538F
102
{ACAD_REACTORS
330
1D6918537E
102
}
330
1D6918537E
100
AcDbXrecord
280
     1
  1
dims
  1
*di*
  1
*
  1
*
 70
     0
  1
*
  1
*
  0
XRECORD
  5
1D69185390
102
{ACAD_REACTORS
330
1D6918537E
102
}
330
1D6918537E
100
AcDbXrecord
280
     1
  1
elec
  1
e-*
  1
*
  1
*
 70
     0
  1
*
  1
*
  0
XRECORD
  5
1D69185391
102
{ACAD_REACTORS
330
1D6918537E
102
}
330
1D6918537E
100
AcDbXrecord
280
     1
  1
ELECTRICAL
  1
E-*
  1
*
  1
*
 70
     0
  1
*
  1
*
  0
XRECORD
  5
1D69185392
102
{ACAD_REACTORS
330
1D6918537E
102
}
330
1D6918537E
100
AcDbXrecord
280
     1
  1
F
  1
*
  1
*
  1
*
 70
     0
  1
*
  1
*
  0
XRECORD
  5
1D69185393
102
{ACAD_REACTORS
330
1D6918537E
102
}
330
1D6918537E
100
AcDbXrecord
280
     1
  1
Frame
  1
F*
  1
*
  1
*
 70
     0
  1
*
  1
*
  0
XRECORD
  5
1D69185394
102
{ACAD_REACTORS
330
1D6918537E
102
}
330
1D6918537E
100
AcDbXrecord
280
     1
  1
FROZEN
  1
*
  1
*
  1
*
 70
     4
  1
*
  1
*
  0
XRECORD
  5
1D69185395
102
{ACAD_REACTORS
330
1D6918537E
102
}
330
1D6918537E
100
AcDbXrecord
280
     1
  1
FROZEN ACTIVE
  1
*
  1
*
  1
*
 70
    16
  1
*
  1
*
  0
XRECORD
  5
1D69185396
102
{ACAD_REACTORS
330
1D6918537E
102
}
330
1D6918537E
100
AcDbXrecord
280
     1
  1
jiku-0
  1
*
  1
*
  1
*
 70
     0
  1
*
  1
*
  0
XRECORD
  5
1D69185397
102
{ACAD_REACTORS
330
1D6918537E
102
}
330
1D6918537E
100
AcDbXrecord
280
     1
  1
MP
  1
MP_*
  1
*
  1
*
 70
     0
  1
*
  1
*
  0
XRECORD
  5
1D69185398
102
{ACAD_REACTORS
330
1D6918537E
102
}
330
1D6918537E
100
AcDbXrecord
280
     1
  1
MPR
  1
MPR*
  1
*
  1
*
 70
     0
  1
*
  1
*
  0
XRECORD
  5
1D69185399
102
{ACAD_REACTORS
330
1D6918537E
102
}
330
1D6918537E
100
AcDbXrecord
280
     1
  1
p-
  1
p-*
  1
*
  1
*
 70
     0
  1
*
  1
*
  0
XRECORD
  5
1D6918539A
102
{ACAD_REACTORS
330
1D6918537E
102
}
330
1D6918537E
100
AcDbXrecord
280
     1
  1
ST
  1
ST_*
  1
*
  1
*
 70
     0
  1
*
  1
*
  0
XRECORD
  5
1D6918539B
102
{ACAD_REACTORS
330
1D6918537E
102
}
330
1D6918537E
100
AcDbXrecord
280
     1
  1
TC
  1
TC_*,0N
  1
*
  1
*
 70
     0
  1
*
  1
*
  0
XRECORD
  5
1D6918539C
102
{ACAD_REACTORS
330
1D6918537E
102
}
330
1D6918537E
100
AcDbXrecord
280
     1
  1
TEXT
  1
TEXT
  1
*
  1
*
 70
     0
  1
*
  1
*
  0
XRECORD
  5
1D6918539D
102
{ACAD_REACTORS
330
1D6918537E
102
}
330
1D6918537E
100
AcDbXrecord
280
     1
  1
ｹｰﾌﾞﾙ図
  1
*
  1
*
  1
*
 70
     0
  1
*
  1
*
  0
XRECORD
  5
1D6918539E
102
{ACAD_REACTORS
330
1D6918537E
102
}
330
1D6918537E
100
AcDbXrecord
280
     1
  1
０画層
  1
*-0
  1
*
  1
*
 70
     0
  1
*
  1
*
  0
XRECORD
  5
1D6918539F
102
{ACAD_REACTORS
330
1D6918537E
102
}
330
1D6918537E
100
AcDbXrecord
280
     1
  1
３A画層
  1
*-3A
  1
*
  1
*
 70
     0
  1
*
  1
*
  0
XRECORD
  5
1D691853A0
102
{ACAD_REACTORS
330
1D6918537E
102
}
330
1D6918537E
100
AcDbXrecord
280
     1
  1
３画層
  1
*-3
  1
*
  1
*
 70
     0
  1
*
  1
*
  0
ENDSEC
  0
EOF
