  0
SECTION
  2
HEADER
  9
$ACADVER
  1
AC1014
  9
$ACADMAINTVER
 70
     9
  9
$DWGCODEPAGE
  3
ANSI_932
  9
$INSBASE
 10
0.0
 20
0.0
 30
0.0
  9
$EXTMIN
 10
-0.016569780604641
 20
-0.0249919896305073
 30
-0.0015258207003583
  9
$EXTMAX
 10
543.0165701491457
 20
819.0249958033959
 30
0.0000000349246037
  9
$LIMMIN
 10
0.0
 20
0.0
  9
$LIMMAX
 10
542.9999978399998
 20
818.9999999999997
  9
$ORTHOMODE
 70
     1
  9
$REGENMODE
 70
     1
  9
$FILLMODE
 70
     1
  9
$QTEXTMODE
 70
     0
  9
$MIRRTEXT
 70
     0
  9
$DRAGMODE
 70
     2
  9
$LTSCALE
 40
5.0
  9
$OSMODE
 70
   167
  9
$ATTMODE
 70
     1
  9
$TEXTSIZE
 40
3.0
  9
$TRACEWID
 40
0.05
  9
$TEXTSTYLE
  7
K
  9
$CLAYER
  8
JISSEN
  9
$CELTYPE
  6
BYLAYER
  9
$CECOLOR
 62
   256
  9
$CELTSCALE
 40
1.0
  9
$DELOBJ
 70
     1
  9
$DISPSILH
 70
     0
  9
$DIMSCALE
 40
3.0
  9
$DIMASZ
 40
3.0
  9
$DIMEXO
 40
0.75
  9
$DIMDLI
 40
6.0
  9
$DIMRND
 40
0.0
  9
$DIMDLE
 40
0.0
  9
$DIMEXE
 40
1.0
  9
$DIMTP
 40
495.0
  9
$DIMTM
 40
0.0
  9
$DIMTXT
 40
3.0
  9
$DIMCEN
 40
0.0
  9
$DIMTSZ
 40
0.0
  9
$DIMTOL
 70
     0
  9
$DIMLIM
 70
     0
  9
$DIMTIH
 70
     0
  9
$DIMTOH
 70
     0
  9
$DIMSE1
 70
     0
  9
$DIMSE2
 70
     0
  9
$DIMTAD
 70
     3
  9
$DIMZIN
 70
     8
  9
$DIMBLK
  1
ARROWANG
  9
$DIMASO
 70
     0
  9
$DIMSHO
 70
     0
  9
$DIMPOST
  1

  9
$DIMAPOST
  1

  9
$DIMALT
 70
     0
  9
$DIMALTD
 70
     2
  9
$DIMALTF
 40
25.4
  9
$DIMLFAC
 40
1.0
  9
$DIMTOFL
 70
     1
  9
$DIMTVP
 40
0.0
  9
$DIMTIX
 70
     1
  9
$DIMSOXD
 70
     0
  9
$DIMSAH
 70
     1
  9
$DIMBLK1
  1
ARROWANG
  9
$DIMBLK2
  1
ARROWANG
  9
$DIMSTYLE
  2
IMAO
  9
$DIMCLRD
 70
   256
  9
$DIMCLRE
 70
   256
  9
$DIMCLRT
 70
   256
  9
$DIMTFAC
 40
1.0
  9
$DIMGAP
 40
1.0
  9
$DIMJUST
 70
     0
  9
$DIMSD1
 70
     0
  9
$DIMSD2
 70
     0
  9
$DIMTOLJ
 70
     1
  9
$DIMTZIN
 70
     0
  9
$DIMALTZ
 70
     0
  9
$DIMALTTZ
 70
     0
  9
$DIMFIT
 70
     3
  9
$DIMUPT
 70
     0
  9
$DIMUNIT
 70
     2
  9
$DIMDEC
 70
     2
  9
$DIMTDEC
 70
     2
  9
$DIMALTU
 70
     2
  9
$DIMALTTD
 70
     2
  9
$DIMTXSTY
  7
K
  9
$DIMAUNIT
 70
     0
  9
$LUNITS
 70
     2
  9
$LUPREC
 70
     2
  9
$SKETCHINC
 40
0.1
  9
$FILLETRAD
 40
2.0
  9
$AUNITS
 70
     0
  9
$AUPREC
 70
     2
  9
$MENU
  1
STDR12J
  9
$ELEVATION
 40
0.0
  9
$PELEVATION
 40
0.0
  9
$THICKNESS
 40
0.0
  9
$LIMCHECK
 70
     0
  9
$BLIPMODE
 70
     0
  9
$CHAMFERA
 40
0.0
  9
$CHAMFERB
 40
0.0
  9
$CHAMFERC
 40
0.0
  9
$CHAMFERD
 40
0.0
  9
$SKPOLY
 70
     0
  9
$TDCREATE
 40
2450694.750535185
  9
$TDUPDATE
 40
2453365.716184236
  9
$TDINDWG
 40
0.1884769213
  9
$TDUSRTIMER
 40
0.1884769213
  9
$USRTIMER
 70
     1
  9
$ANGBASE
 50
0.0
  9
$ANGDIR
 70
     0
  9
$PDMODE
 70
     0
  9
$PDSIZE
 40
0.0
  9
$PLINEWID
 40
0.0
  9
$COORDS
 70
     2
  9
$SPLFRAME
 70
     0
  9
$SPLINETYPE
 70
     6
  9
$SPLINESEGS
 70
     8
  9
$ATTDIA
 70
     0
  9
$ATTREQ
 70
     1
  9
$HANDLING
 70
 22529
  9
$HANDSEED
  5
31833E5C
  9
$SURFTAB1
 70
     6
  9
$SURFTAB2
 70
     6
  9
$SURFTYPE
 70
     6
  9
$SURFU
 70
     6
  9
$SURFV
 70
     6
  9
$UCSNAME
  2

  9
$UCSORG
 10
0.0
 20
0.0
 30
0.0
  9
$UCSXDIR
 10
1.0
 20
0.0
 30
0.0
  9
$UCSYDIR
 10
0.0
 20
1.0
 30
0.0
  9
$PUCSNAME
  2

  9
$PUCSORG
 10
0.0
 20
0.0
 30
0.0
  9
$PUCSXDIR
 10
1.0
 20
0.0
 30
0.0
  9
$PUCSYDIR
 10
0.0
 20
1.0
 30
0.0
  9
$USERI1
 70
     4
  9
$USERI2
 70
     1
  9
$USERI3
 70
     1
  9
$USERI4
 70
     1
  9
$USERI5
 70
     1
  9
$USERR1
 40
1.0
  9
$USERR2
 40
3.0
  9
$USERR3
 40
3.0
  9
$USERR4
 40
1.5
  9
$USERR5
 40
10.0
  9
$WORLDVIEW
 70
     1
  9
$SHADEDGE
 70
     3
  9
$SHADEDIF
 70
    70
  9
$TILEMODE
 70
     1
  9
$MAXACTVP
 70
    16
  9
$PINSBASE
 10
0.0
 20
0.0
 30
0.0
  9
$PLIMCHECK
 70
     0
  9
$PEXTMIN
 10
1.000000000000000E+20
 20
1.000000000000000E+20
 30
1.000000000000000E+20
  9
$PEXTMAX
 10
-1.000000000000000E+20
 20
-1.000000000000000E+20
 30
-1.000000000000000E+20
  9
$PLIMMIN
 10
0.0
 20
0.0
  9
$PLIMMAX
 10
12.0
 20
9.0
  9
$UNITMODE
 70
     0
  9
$VISRETAIN
 70
     0
  9
$PLINEGEN
 70
     0
  9
$PSLTSCALE
 70
     0
  9
$TREEDEPTH
 70
     0
  9
$PICKSTYLE
 70
     1
  9
$CMLSTYLE
  2
STANDARD
  9
$CMLJUST
 70
     0
  9
$CMLSCALE
 40
1.0
  9
$PROXYGRAPHICS
 70
     1
  9
$MEASUREMENT
 70
     0
  0
ENDSEC
  0
SECTION
  2
CLASSES
  0
CLASS
  1
LWPOLYLINE
  2
AcDbPolyline
  3
AutoCAD 2000
 90
        0
280
     0
281
     1
  0
CLASS
  1
ACDBDICTIONARYWDFLT
  2
AcDbDictionaryWithDefault
  3
AutoCAD 2000
 90
        0
280
     0
281
     0
  0
CLASS
  1
ACDBPLACEHOLDER
  2
AcDbPlaceHolder
  3
AutoCAD 2000
 90
        0
280
     0
281
     0
  0
CLASS
  1
LAYOUT
  2
AcDbLayout
  3
AutoCAD 2000
 90
        0
280
     0
281
     0
  0
CLASS
  1
LONG_TRANSACTION
  2
AcDbLongTransaction
  3
AutoCAD 2000
 90
        0
280
     0
281
     0
  0
CLASS
  1
LWPOLYLINE
  2
AcDbPolyline
  3
AutoCAD 2000
 90
        0
280
     0
281
     1
  0
CLASS
  1
HATCH
  2
AcDbHatch
  3
AutoCAD 2000
 90
        0
280
     0
281
     1
  0
CLASS
  1
XRECORD
  2
AcDbXrecord
  3
AutoCAD 2000
 90
        0
280
     0
281
     0
  0
CLASS
  1
LONG_TRANSACTION
  2
AcDbLongTransaction
  3
AutoCAD 2000
 90
        0
280
     0
281
     0
  0
CLASS
  1
LWPOLYLINE
  2
AcDbPolyline
  3
AutoCAD 2000
 90
        0
280
     0
281
     1
  0
CLASS
  1
HATCH
  2
AcDbHatch
  3
AutoCAD 2000
 90
        0
280
     0
281
     1
  0
CLASS
  1
XRECORD
  2
AcDbXrecord
  3
AutoCAD 2000
 90
        0
280
     0
281
     0
  0
CLASS
  1
LONG_TRANSACTION
  2
AcDbLongTransaction
  3
AutoCAD 2000
 90
        0
280
     0
281
     0
  0
CLASS
  1
LWPOLYLINE
  2
AcDbPolyline
  3
AutoCAD 2000
 90
        0
280
     0
281
     1
  0
CLASS
  1
HATCH
  2
AcDbHatch
  3
AutoCAD 2000
 90
        0
280
     0
281
     1
  0
CLASS
  1
XRECORD
  2
AcDbXrecord
  3
AutoCAD 2000
 90
        0
280
     0
281
     0
  0
CLASS
  1
LONG_TRANSACTION
  2
AcDbLongTransaction
  3
AutoCAD 2000
 90
        0
280
     0
281
     0
  0
CLASS
  1
LWPOLYLINE
  2
AcDbPolyline
  3
AutoCAD 2000
 90
        0
280
     0
281
     1
  0
CLASS
  1
HATCH
  2
AcDbHatch
  3
AutoCAD 2000
 90
        0
280
     0
281
     1
  0
CLASS
  1
XRECORD
  2
AcDbXrecord
  3
AutoCAD 2000
 90
        0
280
     0
281
     0
  0
CLASS
  1
LONG_TRANSACTION
  2
AcDbLongTransaction
  3
AutoCAD 2000
 90
        0
280
     0
281
     0
  0
CLASS
  1
LWPOLYLINE
  2
AcDbPolyline
  3
AutoCAD 2000
 90
        0
280
     0
281
     1
  0
CLASS
  1
HATCH
  2
AcDbHatch
  3
AutoCAD 2000
 90
        0
280
     0
281
     1
  0
CLASS
  1
XRECORD
  2
AcDbXrecord
  3
AutoCAD 2000
 90
        0
280
     0
281
     0
  0
CLASS
  1
DICTIONARYVAR
  2
AcDbDictionaryVar
  3
AutoCAD 2000
 90
        0
280
     0
281
     0
  0
CLASS
  1
LONG_TRANSACTION
  2
AcDbLongTransaction
  3
AutoCAD 2000
 90
        0
280
     0
281
     0
  0
CLASS
  1
LWPOLYLINE
  2
AcDbPolyline
  3
AutoCAD 2000
 90
        0
280
     0
281
     1
  0
CLASS
  1
HATCH
  2
AcDbHatch
  3
AutoCAD 2000
 90
        0
280
     0
281
     1
  0
CLASS
  1
XRECORD
  2
AcDbXrecord
  3
AutoCAD 2000
 90
        0
280
     0
281
     0
  0
ENDSEC
  0
SECTION
  2
TABLES
  0
TABLE
  2
VPORT
  5
3183249F
330
0
100
AcDbSymbolTable
 70
    12
  0
VPORT
  5
318324C3
330
3183249F
100
AcDbSymbolTableRecord
100
AcDbViewportTableRecord
  2
2
 70
     0
 10
0.5
 20
0.0
 11
1.0
 21
1.0
 12
0.9240312421264802
 22
1.052650975462766
 13
0.0
 23
0.0
 14
1.0
 24
1.0
 15
10.0
 25
10.0
 16
0.0
 26
0.0
 36
1.0
 17
0.0
 27
0.0
 37
0.0
 40
2.105301950925533
 41
0.8778135048231511
 42
50.0
 43
0.0
 44
0.0
 50
0.0
 51
0.0
 71
     0
 72
   500
 73
     1
 74
     1
 75
     0
 76
     0
 77
     0
 78
     0
  0
VPORT
  5
318324C4
330
3183249F
100
AcDbSymbolTableRecord
100
AcDbViewportTableRecord
  2
2
 70
     0
 10
0.0
 20
0.0
 11
0.5
 21
1.0
 12
0.9240312421264802
 22
1.052650975462766
 13
0.0
 23
0.0
 14
1.0
 24
1.0
 15
10.0
 25
10.0
 16
0.0
 26
0.0
 36
1.0
 17
0.0
 27
0.0
 37
0.0
 40
2.105301950925533
 41
0.8778135048231511
 42
50.0
 43
0.0
 44
0.0
 50
0.0
 51
0.0
 71
     0
 72
   500
 73
     1
 74
     1
 75
     0
 76
     0
 77
     0
 78
     0
  0
VPORT
  5
318324C5
330
3183249F
100
AcDbSymbolTableRecord
100
AcDbViewportTableRecord
  2
3
 70
     0
 10
0.0
 20
0.5
 11
1.0
 21
1.0
 12
2.832169994473273
 22
1.052650975462766
 13
0.0
 23
0.0
 14
1.0
 24
1.0
 15
10.0
 25
10.0
 16
0.0
 26
0.0
 36
1.0
 17
0.0
 27
0.0
 37
0.0
 40
2.105301950925533
 41
3.571428571428571
 42
50.0
 43
0.0
 44
0.0
 50
0.0
 51
0.0
 71
     0
 72
   500
 73
     1
 74
     1
 75
     0
 76
     0
 77
     0
 78
     0
  0
VPORT
  5
318324C6
330
3183249F
100
AcDbSymbolTableRecord
100
AcDbViewportTableRecord
  2
3
 70
     0
 10
0.0
 20
0.0
 11
1.0
 21
0.5
 12
2.856741679241311
 22
1.052650975462766
 13
0.0
 23
0.0
 14
1.0
 24
1.0
 15
10.0
 25
10.0
 16
0.0
 26
0.0
 36
1.0
 17
0.0
 27
0.0
 37
0.0
 40
2.105301950925533
 41
3.594771241830065
 42
50.0
 43
0.0
 44
0.0
 50
0.0
 51
0.0
 71
     0
 72
   500
 73
     1
 74
     1
 75
     0
 76
     0
 77
     0
 78
     0
  0
VPORT
  5
318324C7
330
3183249F
100
AcDbSymbolTableRecord
100
AcDbViewportTableRecord
  2
4
 70
     0
 10
0.5
 20
0.0
 11
1.0
 21
0.5
 12
2.886857516709719
 22
1.052650975462766
 13
0.0
 23
0.0
 14
1.0
 24
1.0
 15
10.0
 25
10.0
 16
0.0
 26
0.0
 36
1.0
 17
0.0
 27
0.0
 37
0.0
 40
4.27520703030907
 41
1.784313725490195
 42
50.0
 43
0.0
 44
0.0
 50
0.0
 51
0.0
 71
     0
 72
   500
 73
     1
 74
     1
 75
     0
 76
     0
 77
     0
 78
     0
  0
VPORT
  5
318324C8
330
3183249F
100
AcDbSymbolTableRecord
100
AcDbViewportTableRecord
  2
4
 70
     0
 10
0.5
 20
0.5
 11
1.0
 21
1.0
 12
2.862090274555523
 22
1.052650975462766
 13
0.0
 23
0.0
 14
1.0
 24
1.0
 15
10.0
 25
10.0
 16
0.0
 26
0.0
 36
1.0
 17
0.0
 27
0.0
 37
0.0
 40
4.27520703030907
 41
1.772727272727272
 42
50.0
 43
0.0
 44
0.0
 50
0.0
 51
0.0
 71
     0
 72
   500
 73
     1
 74
     1
 75
     0
 76
     0
 77
     0
 78
     0
  0
VPORT
  5
318324C9
330
3183249F
100
AcDbSymbolTableRecord
100
AcDbViewportTableRecord
  2
4
 70
     0
 10
0.0
 20
0.5
 11
0.5
 21
1.0
 12
2.862090274555523
 22
1.052650975462766
 13
0.0
 23
0.0
 14
1.0
 24
1.0
 15
10.0
 25
10.0
 16
0.0
 26
0.0
 36
1.0
 17
0.0
 27
0.0
 37
0.0
 40
4.27520703030907
 41
1.772727272727272
 42
50.0
 43
0.0
 44
0.0
 50
0.0
 51
0.0
 71
     0
 72
   500
 73
     1
 74
     1
 75
     0
 76
     0
 77
     0
 78
     0
  0
VPORT
  5
318324CA
330
3183249F
100
AcDbSymbolTableRecord
100
AcDbViewportTableRecord
  2
4
 70
     0
 10
0.0
 20
0.0
 11
0.5
 21
0.5
 12
2.886857516709719
 22
1.052650975462766
 13
0.0
 23
0.0
 14
1.0
 24
1.0
 15
10.0
 25
10.0
 16
0.0
 26
0.0
 36
1.0
 17
0.0
 27
0.0
 37
0.0
 40
4.27520703030907
 41
1.784313725490195
 42
50.0
 43
0.0
 44
0.0
 50
0.0
 51
0.0
 71
     0
 72
   500
 73
     1
 74
     1
 75
     0
 76
     0
 77
     0
 78
     0
  0
VPORT
  5
31833E38
330
3183249F
100
AcDbSymbolTableRecord
100
AcDbViewportTableRecord
  2
*ACTIVE
 70
     0
 10
0.0
 20
0.0
 11
1.0
 21
1.0
 12
271.5000001842705
 22
409.5000019068827
 13
0.0
 23
0.0
 14
1.0
 24
1.0
 15
10.0
 25
10.0
 16
0.0
 26
0.0
 36
1.0
 17
0.0
 27
0.0
 37
0.0
 40
828.4314748077434
 41
1.771962616822429
 42
50.0
 43
0.0
 44
0.0
 50
0.0
 51
0.0
 71
     0
 72
   500
 73
     1
 74
     0
 75
     0
 76
     0
 77
     0
 78
     0
  0
ENDTAB
  0
TABLE
  2
LTYPE
  5
3183249C
330
0
100
AcDbSymbolTable
 70
     4
  0
LTYPE
  5
318324A9
330
3183249C
100
AcDbSymbolTableRecord
100
AcDbLinetypeTableRecord
  2
BYBLOCK
 70
     0
  3

 72
    65
 73
     0
 40
0.0
  0
LTYPE
  5
318324AA
330
3183249C
100
AcDbSymbolTableRecord
100
AcDbLinetypeTableRecord
  2
BYLAYER
 70
     0
  3

 72
    65
 73
     0
 40
0.0
  0
LTYPE
  5
318324AB
330
3183249C
100
AcDbSymbolTableRecord
100
AcDbLinetypeTableRecord
  2
CONTINUOUS
 70
     0
  3
実線
 72
    65
 73
     0
 40
0.0
  0
LTYPE
  5
318324C0
330
3183249C
100
AcDbSymbolTableRecord
100
AcDbLinetypeTableRecord
  2
CENTER
 70
     0
  3
____ _ ____ _ ____ _ ____ _ ____ _ ____ _ ____
 72
    65
 73
     4
 40
2.0
 49
1.25
 74
     0
 49
-0.25
 74
     0
 49
0.25
 74
     0
 49
-0.25
 74
     0
  0
LTYPE
  5
318324C2
330
3183249C
100
AcDbSymbolTableRecord
100
AcDbLinetypeTableRecord
  2
HIDDEN
 70
     0
  3
_ _ _ _ _ _ _ _ _ _ _ _ _ _ _ _ _ _ _ _ _ _ _
 72
    65
 73
     2
 40
0.375
 49
0.25
 74
     0
 49
-0.125
 74
     0
  0
ENDTAB
  0
TABLE
  2
LAYER
  5
31832499
330
0
100
AcDbSymbolTable
 70
     9
  0
LAYER
  5
318324A6
330
31832499
100
AcDbSymbolTableRecord
100
AcDbLayerTableRecord
  2
0
 70
     0
 62
     7
  6
CONTINUOUS
  0
LAYER
  5
318324CF
330
31832499
100
AcDbSymbolTableRecord
100
AcDbLayerTableRecord
  2
ITTEN
 70
     0
 62
     1
  6
CENTER
  0
LAYER
  5
318324D2
330
31832499
100
AcDbSymbolTableRecord
100
AcDbLayerTableRecord
  2
SUNPOU
 70
     0
 62
     3
  6
CONTINUOUS
  0
LAYER
  5
318324D4
330
31832499
100
AcDbSymbolTableRecord
100
AcDbLayerTableRecord
  2
SAISEN
 70
     0
 62
     4
  6
CONTINUOUS
  0
LAYER
  5
318324D5
330
31832499
100
AcDbSymbolTableRecord
100
AcDbLayerTableRecord
  2
JISSEN
 70
     0
 62
     7
  6
CONTINUOUS
  0
LAYER
  5
318324D9
330
31832499
100
AcDbSymbolTableRecord
100
AcDbLayerTableRecord
  2
WAKU
 70
     0
 62
     5
  6
CONTINUOUS
  0
LAYER
  5
3183292E
330
31832499
100
AcDbSymbolTableRecord
100
AcDbLayerTableRecord
  2
2
 70
     0
 62
     2
  6
HIDDEN
  0
ENDTAB
  0
TABLE
  2
STYLE
  5
3183249A
330
0
100
AcDbSymbolTable
 70
     3
  0
STYLE
  5
318324A7
330
3183249A
100
AcDbSymbolTableRecord
100
AcDbTextStyleTableRecord
  2
STANDARD
 70
     0
 40
0.0
 41
1.0
 50
0.0
 71
     0
 42
0.2
  3
ROMANS
  4
EXTFONT
  0
STYLE
  5
318324BE
330
3183249A
100
AcDbSymbolTableRecord
100
AcDbTextStyleTableRecord
  2
K
 70
     0
 40
0.0
 41
1.0
 50
0.0
 71
     0
 42
3.0
  3
ROMANS.shx
  4
bigfont.shx
  0
STYLE
  5
3183292F
330
3183249A
100
AcDbSymbolTableRecord
100
AcDbTextStyleTableRecord
  2
BIGFONT
 70
     0
 40
0.0
 41
1.0
 50
0.0
 71
     0
 42
9.0
  3
txt.shx
  4
bigfont
  0
ENDTAB
  0
TABLE
  2
VIEW
  5
3183249D
330
0
100
AcDbSymbolTable
 70
     0
  0
ENDTAB
  0
TABLE
  2
UCS
  5
3183249E
330
0
100
AcDbSymbolTable
 70
     0
  0
ENDTAB
  0
TABLE
  2
APPID
  5
318324A0
330
0
100
AcDbSymbolTable
 70
     1
  0
APPID
  5
318324A8
330
318324A0
100
AcDbSymbolTableRecord
100
AcDbRegAppTableRecord
  2
ACAD
 70
     0
  0
ENDTAB
  0
TABLE
  2
DIMSTYLE
  5
318324A1
330
0
100
AcDbSymbolTable
 70
     1
  0
DIMSTYLE
105
318324CD
330
318324A1
100
AcDbSymbolTableRecord
100
AcDbDimStyleTableRecord
  2
IMAO
 70
     0
  3

  4

  5
ARROWANG
  6
ARROWANG
  7
ARROWANG
 40
1.0
 41
1.5
 42
0.75
 43
6.0
 44
1.0
 45
0.0
 46
0.0
 47
495.0
 48
0.0
140
3.0
141
0.0
142
0.0
143
25.4
144
1.0
145
0.0
146
1.0
147
1.0
 71
     0
 72
     0
 73
     0
 74
     0
 75
     0
 76
     0
 77
     3
 78
     8
170
     0
171
     2
172
     1
173
     1
174
     1
175
     0
176
   256
177
   256
178
   256
270
     2
271
     2
272
     2
273
     2
274
     2
340
318324BE
275
     0
280
     0
281
     0
282
     0
283
     1
284
     0
285
     0
286
     0
287
     3
288
     0
  0
ENDTAB
  0
TABLE
  2
BLOCK_RECORD
  5
31832498
330
0
100
AcDbSymbolTable
 70
     5
  0
BLOCK_RECORD
  5
318324AF
102
{ACAD_XDICTIONARY
360
31832D4E
102
}
330
31832498
100
AcDbSymbolTableRecord
100
AcDbBlockTableRecord
  2
*MODEL_SPACE
  0
BLOCK_RECORD
  5
318324AC
102
{ACAD_XDICTIONARY
360
31832D4C
102
}
330
31832498
100
AcDbSymbolTableRecord
100
AcDbBlockTableRecord
  2
*PAPER_SPACE
  0
BLOCK_RECORD
  5
318324B9
330
31832498
100
AcDbSymbolTableRecord
100
AcDbBlockTableRecord
  2
ARROWANG
  0
BLOCK_RECORD
  5
31832783
330
31832498
100
AcDbSymbolTableRecord
100
AcDbBlockTableRecord
  2
X023
  0
ENDTAB
  0
ENDSEC
  0
SECTION
  2
BLOCKS
  0
BLOCK
  5
318324DE
330
318324AF
100
AcDbEntity
  8
0
100
AcDbBlockBegin
  2
*MODEL_SPACE
 70
     0
 10
0.0
 20
0.0
 30
0.0
  3
*MODEL_SPACE
  1

  0
ENDBLK
  5
318324DF
330
318324AF
100
AcDbEntity
  8
0
100
AcDbBlockEnd
  0
BLOCK
  5
318324DC
330
318324AC
100
AcDbEntity
 67
     1
  8
0
100
AcDbBlockBegin
  2
*PAPER_SPACE
 70
     0
 10
0.0
 20
0.0
 30
0.0
  3
*PAPER_SPACE
  1

  0
ENDBLK
  5
318324DD
330
318324AC
100
AcDbEntity
 67
     1
  8
0
100
AcDbBlockEnd
  0
BLOCK
  5
1D
330
318324B9
100
AcDbEntity
  8
0
100
AcDbBlockBegin
  2
ARROWANG
 70
     0
 10
0.0
 20
0.0
 30
0.0
  3
ARROWANG
  1

  0
LINE
  5
1E
330
318324B9
100
AcDbEntity
  8
SUNPOU
100
AcDbLine
 10
0.0
 20
0.0
 30
0.0
 11
-1.499999999999957
 21
0.4019237886467409
 31
0.0
  0
LINE
  5
1F
330
318324B9
100
AcDbEntity
  8
SUNPOU
100
AcDbLine
 10
0.0
 20
0.0
 30
0.0
 11
-1.500000000000028
 21
-0.4019237886467124
 31
0.0
  0
ENDBLK
  5
20
330
318324B9
100
AcDbEntity
  8
0
100
AcDbBlockEnd
  0
BLOCK
  5
3183278C
330
31832783
100
AcDbEntity
  8
0
100
AcDbBlockBegin
  2
X023
 70
     0
 10
0.0
 20
0.0
 30
0.0
  3
X023
  1

  0
ARC
  5
31832784
330
31832783
100
AcDbEntity
  8
2
100
AcDbCircle
 10
-2.141791044776056
 20
0.0
 30
0.0
 40
1.793321003826916
100
AcDbArc
 50
282.6193222934307
 51
77.38067770656854
  0
LINE
  5
31832785
330
31832783
100
AcDbEntity
  8
0
100
AcDbLine
 10
-1.499999999999943
 20
-3.0
 30
0.0
 11
0.0000000000001137
 21
-1.5
 31
0.0
  0
LINE
  5
31832786
330
31832783
100
AcDbEntity
  8
0
100
AcDbLine
 10
-1.499999999999943
 20
3.0
 30
0.0
 11
0.0
 21
1.499999999999943
 31
0.0
  0
LINE
  5
31832787
330
31832783
100
AcDbEntity
  8
0
100
AcDbLine
 10
0.0
 20
1.499999999999971
 30
0.0
 11
0.0000000000001137
 21
-1.500000000000028
 31
0.0
  0
LINE
  5
31832788
330
31832783
100
AcDbEntity
  8
0
100
AcDbLine
 10
-1.749999999999943
 20
-3.000000000000028
 30
0.0
 11
-1.749999999999943
 21
2.999999999999971
 31
0.0
  0
LINE
  5
31832789
330
31832783
100
AcDbEntity
  8
0
100
AcDbLine
 10
-1.499999999999943
 20
-3.000000000000028
 30
0.0
 11
-1.749999999999943
 21
-3.000000000000028
 31
0.0
  0
LINE
  5
3183278A
330
31832783
100
AcDbEntity
  8
0
100
AcDbLine
 10
-1.499999999999943
 20
2.999999999999971
 30
0.0
 11
-1.499999999999971
 21
-3.000000000000028
 31
0.0
  0
LINE
  5
3183278B
330
31832783
100
AcDbEntity
  8
0
100
AcDbLine
 10
-1.749999999999943
 20
2.999999999999971
 30
0.0
 11
-1.499999999999943
 21
2.999999999999971
 31
0.0
  0
ENDBLK
  5
3183278D
330
31832783
100
AcDbEntity
  8
0
100
AcDbBlockEnd
  0
ENDSEC
  0
SECTION
  2
ENTITIES
  0
LWPOLYLINE
  5
3183276C
330
318324AF
100
AcDbEntity
  8
WAKU
100
AcDbPolyline
 90
        4
 70
     1
 43
0.0
 10
0.0
 20
0.0
 10
542.9999978399998
 20
0.0
 10
542.9999978399998
 20
818.9999999999997
 10
0.0
 20
818.9999999999997
  0
TEXT
  5
31832B4B
330
318324AF
100
AcDbEntity
  8
SAISEN
100
AcDbText
 10
357.1918548114539
 20
111.0127348717775
 30
0.0
 40
9.0
  1
塗装色：マンセル　7.5BG 5/4.5
  7
K
 72
     4
 11
447.2775690971682
 21
114.8698777289204
 31
0.0
100
AcDbText
  0
TEXT
  5
31832B4C
330
318324AF
100
AcDbEntity
  8
SAISEN
100
AcDbText
 10
357.078585686625
 20
125.8698777289203
 30
0.0
 40
9.0
  1
材　質：SPCC
  7
K
 72
     4
 11
395.8214428294821
 21
130.3698777289203
 31
0.0
100
AcDbText
  0
LINE
  5
31832B4D
330
318324AF
100
AcDbEntity
  8
SAISEN
100
AcDbLine
 10
354.2689855706021
 20
106.8698777289203
 30
0.0
 11
539.7289716197429
 21
106.8698777289203
 31
0.0
  0
LINE
  5
31832B4E
330
318324AF
100
AcDbEntity
  8
SAISEN
100
AcDbLine
 10
354.2689855706021
 20
138.8698777289202
 30
0.0
 11
539.7289716197429
 21
138.8698777289202
 31
0.0
  0
TEXT
  5
318335E4
330
318324AF
100
AcDbEntity
  8
SUNPOU
100
AcDbText
 10
413.2715574118799
 20
6.503658421196405
 30
0.0
 40
9.0
  1
A4用紙、印刷尺度 1/3
  7
K
100
AcDbText
  0
TEXT
  5
318335E5
330
318324AF
100
AcDbEntity
  8
SUNPOU
100
AcDbText
 10
413.2715574118799
 20
21.5036584211964
 30
0.0
 40
9.0
  1
格納箱EP
  7
K
100
AcDbText
  0
CIRCLE
  5
31833A49
330
318324AF
100
AcDbEntity
  8
JISSEN
100
AcDbCircle
 10
317.3478795571623
 20
659.6879231420953
 30
0.0
 40
2.744610977126967
  0
ARC
  5
31833A4A
330
318324AF
100
AcDbEntity
  8
SAISEN
100
AcDbCircle
 10
317.3478795571623
 20
659.6879231420953
 30
0.0
 40
1.75
100
AcDbArc
 50
253.398450400977
 51
286.6015495990229
  0
LINE
  5
31833A4B
330
318324AF
100
AcDbEntity
  8
SAISEN
100
AcDbLine
 10
316.8478795571624
 20
658.0108721589704
 30
0.0
 11
316.8478795571624
 21
659.1879231420953
 31
0.0
  0
LINE
  5
31833A4C
330
318324AF
100
AcDbEntity
  8
SAISEN
100
AcDbLine
 10
316.8478795571624
 20
659.1879231420953
 30
0.0
 11
315.6708285740374
 21
659.1879231420953
 31
0.0
  0
LINE
  5
31833A4D
330
318324AF
100
AcDbEntity
  8
SAISEN
100
AcDbLine
 10
315.6708285740374
 20
660.1879231420952
 30
0.0
 11
316.8478795571624
 21
660.1879231420952
 31
0.0
  0
LINE
  5
31833A4E
330
318324AF
100
AcDbEntity
  8
SAISEN
100
AcDbLine
 10
316.8478795571624
 20
660.1879231420952
 30
0.0
 11
316.8478795571624
 21
661.3649741252199
 31
0.0
  0
LINE
  5
31833A4F
330
318324AF
100
AcDbEntity
  8
SAISEN
100
AcDbLine
 10
317.8478795571624
 20
661.3649741252202
 30
0.0
 11
317.8478795571624
 21
660.1879231420952
 31
0.0
  0
LINE
  5
31833A50
330
318324AF
100
AcDbEntity
  8
SAISEN
100
AcDbLine
 10
317.8478795571624
 20
660.1879231420952
 30
0.0
 11
319.0249305402872
 21
660.1879231420952
 31
0.0
  0
LINE
  5
31833A51
330
318324AF
100
AcDbEntity
  8
SAISEN
100
AcDbLine
 10
319.0249305402872
 20
659.1879231420953
 30
0.0
 11
317.8478795571624
 21
659.1879231420953
 31
0.0
  0
LINE
  5
31833A52
330
318324AF
100
AcDbEntity
  8
SAISEN
100
AcDbLine
 10
317.8478795571624
 20
659.1879231420953
 30
0.0
 11
317.8478795571624
 21
658.0108721589704
 31
0.0
  0
ARC
  5
31833A53
330
318324AF
100
AcDbEntity
  8
SAISEN
100
AcDbCircle
 10
317.3478795571623
 20
659.6879231420953
 30
0.0
 40
1.75
100
AcDbArc
 50
163.3984504009792
 51
196.6015495990207
  0
ARC
  5
31833A54
330
318324AF
100
AcDbEntity
  8
SAISEN
100
AcDbCircle
 10
317.3478795571623
 20
659.6879231420953
 30
0.0
 40
1.75
100
AcDbArc
 50
73.39845040097706
 51
106.6015495990229
  0
ARC
  5
31833A55
330
318324AF
100
AcDbEntity
  8
SAISEN
100
AcDbCircle
 10
317.3478795571623
 20
659.6879231420953
 30
0.0
 40
1.75
100
AcDbArc
 50
343.3984504009792
 51
16.60154959902077
  0
LWPOLYLINE
  5
31833A56
330
318324AF
100
AcDbEntity
  8
JISSEN
100
AcDbPolyline
 90
        4
 70
     0
 43
0.0
 10
106.3478795571624
 20
666.6879231420953
 10
106.3478795571624
 20
556.6879231420953
 10
326.3478795571624
 20
556.6879231420953
 10
326.3478795571624
 20
666.6879231420953
  0
LWPOLYLINE
  5
31833A57
330
318324AF
100
AcDbEntity
  8
JISSEN
100
AcDbPolyline
 90
        2
 70
     0
 43
0.0
 10
326.3478795571624
 20
666.6879231420953
 10
106.3478795571624
 20
666.6879231420953
  0
TEXT
  5
31833A58
330
318324AF
100
AcDbEntity
  8
WAKU
100
AcDbText
 10
120.0978795571624
 20
619.1879231420953
 30
0.0
 40
25.0
  1
スプリンクラーヘッド格納箱
 41
0.5
  7
K
 72
     4
 11
216.3478795571624
 21
631.6879231420953
 31
0.0
100
AcDbText
  0
ARC
  5
31833A59
330
318324AF
100
AcDbEntity
  8
SAISEN
100
AcDbCircle
 10
115.3478795571625
 20
659.6879231420953
 30
0.0
 40
1.75
100
AcDbArc
 50
343.3984504009792
 51
16.60154959902075
  0
ARC
  5
31833A5A
330
318324AF
100
AcDbEntity
  8
SAISEN
100
AcDbCircle
 10
115.3478795571625
 20
659.6879231420953
 30
0.0
 40
1.75
100
AcDbArc
 50
253.398450400977
 51
286.6015495990229
  0
ARC
  5
31833A5B
330
318324AF
100
AcDbEntity
  8
SAISEN
100
AcDbCircle
 10
115.3478795571625
 20
659.6879231420953
 30
0.0
 40
1.75
100
AcDbArc
 50
163.3984504009792
 51
196.6015495990207
  0
LINE
  5
31833A5C
330
318324AF
100
AcDbEntity
  8
SAISEN
100
AcDbLine
 10
115.8478795571625
 20
660.1879231420952
 30
0.0
 11
115.8478795571625
 21
661.3649741252202
 31
0.0
  0
LINE
  5
31833A5D
330
318324AF
100
AcDbEntity
  8
SAISEN
100
AcDbLine
 10
117.0249305402874
 20
660.1879231420952
 30
0.0
 11
115.8478795571625
 21
660.1879231420952
 31
0.0
  0
LINE
  5
31833A5E
330
318324AF
100
AcDbEntity
  8
SAISEN
100
AcDbLine
 10
115.8478795571625
 20
659.1879231420953
 30
0.0
 11
117.0249305402874
 21
659.1879231420953
 31
0.0
  0
LINE
  5
31833A5F
330
318324AF
100
AcDbEntity
  8
SAISEN
100
AcDbLine
 10
115.8478795571625
 20
658.0108721589704
 30
0.0
 11
115.8478795571625
 21
659.1879231420953
 31
0.0
  0
LINE
  5
31833A60
330
318324AF
100
AcDbEntity
  8
SAISEN
100
AcDbLine
 10
114.8478795571625
 20
659.1879231420953
 30
0.0
 11
114.8478795571625
 21
658.0108721589706
 31
0.0
  0
LINE
  5
31833A61
330
318324AF
100
AcDbEntity
  8
SAISEN
100
AcDbLine
 10
113.6708285740376
 20
659.1879231420953
 30
0.0
 11
114.8478795571625
 21
659.1879231420953
 31
0.0
  0
LINE
  5
31833A62
330
318324AF
100
AcDbEntity
  8
SAISEN
100
AcDbLine
 10
114.8478795571625
 20
660.1879231420952
 30
0.0
 11
113.6708285740376
 21
660.1879231420952
 31
0.0
  0
LINE
  5
31833A63
330
318324AF
100
AcDbEntity
  8
SAISEN
100
AcDbLine
 10
114.8478795571625
 20
661.3649741252202
 30
0.0
 11
114.8478795571625
 21
660.1879231420952
 31
0.0
  0
ARC
  5
31833A64
330
318324AF
100
AcDbEntity
  8
SAISEN
100
AcDbCircle
 10
115.3478795571625
 20
659.6879231420953
 30
0.0
 40
1.75
100
AcDbArc
 50
73.39845040097705
 51
106.6015495990229
  0
CIRCLE
  5
31833A65
330
318324AF
100
AcDbEntity
  8
JISSEN
100
AcDbCircle
 10
115.3478795571625
 20
659.6879231420953
 30
0.0
 40
2.744610977126967
  0
ARC
  5
31833A66
330
318324AF
100
AcDbEntity
  8
SAISEN
100
AcDbCircle
 10
115.3478795571625
 20
563.6879231420953
 30
0.0
 40
1.75
100
AcDbArc
 50
343.3984504009792
 51
16.60154959902075
  0
ARC
  5
31833A67
330
318324AF
100
AcDbEntity
  8
SAISEN
100
AcDbCircle
 10
115.3478795571625
 20
563.6879231420953
 30
0.0
 40
1.75
100
AcDbArc
 50
253.398450400977
 51
286.6015495990229
  0
ARC
  5
31833A68
330
318324AF
100
AcDbEntity
  8
SAISEN
100
AcDbCircle
 10
115.3478795571625
 20
563.6879231420953
 30
0.0
 40
1.75
100
AcDbArc
 50
163.3984504009792
 51
196.6015495990207
  0
LINE
  5
31833A69
330
318324AF
100
AcDbEntity
  8
SAISEN
100
AcDbLine
 10
115.8478795571625
 20
564.1879231420952
 30
0.0
 11
115.8478795571625
 21
565.3649741252202
 31
0.0
  0
LINE
  5
31833A6A
330
318324AF
100
AcDbEntity
  8
SAISEN
100
AcDbLine
 10
117.0249305402874
 20
564.1879231420952
 30
0.0
 11
115.8478795571625
 21
564.1879231420952
 31
0.0
  0
LINE
  5
31833A6B
330
318324AF
100
AcDbEntity
  8
SAISEN
100
AcDbLine
 10
115.8478795571625
 20
563.1879231420953
 30
0.0
 11
117.0249305402874
 21
563.1879231420953
 31
0.0
  0
LINE
  5
31833A6C
330
318324AF
100
AcDbEntity
  8
SAISEN
100
AcDbLine
 10
115.8478795571625
 20
562.0108721589704
 30
0.0
 11
115.8478795571625
 21
563.1879231420953
 31
0.0
  0
LINE
  5
31833A6D
330
318324AF
100
AcDbEntity
  8
SAISEN
100
AcDbLine
 10
114.8478795571625
 20
563.1879231420953
 30
0.0
 11
114.8478795571625
 21
562.0108721589706
 31
0.0
  0
LINE
  5
31833A6E
330
318324AF
100
AcDbEntity
  8
SAISEN
100
AcDbLine
 10
113.6708285740376
 20
563.1879231420953
 30
0.0
 11
114.8478795571625
 21
563.1879231420953
 31
0.0
  0
LINE
  5
31833A6F
330
318324AF
100
AcDbEntity
  8
SAISEN
100
AcDbLine
 10
114.8478795571625
 20
564.1879231420952
 30
0.0
 11
113.6708285740376
 21
564.1879231420952
 31
0.0
  0
LINE
  5
31833A70
330
318324AF
100
AcDbEntity
  8
SAISEN
100
AcDbLine
 10
114.8478795571625
 20
565.3649741252202
 30
0.0
 11
114.8478795571625
 21
564.1879231420952
 31
0.0
  0
ARC
  5
31833A71
330
318324AF
100
AcDbEntity
  8
SAISEN
100
AcDbCircle
 10
115.3478795571625
 20
563.6879231420953
 30
0.0
 40
1.75
100
AcDbArc
 50
73.39845040097705
 51
106.6015495990229
  0
CIRCLE
  5
31833A72
330
318324AF
100
AcDbEntity
  8
JISSEN
100
AcDbCircle
 10
115.3478795571625
 20
563.6879231420953
 30
0.0
 40
2.744610977126967
  0
ARC
  5
31833A73
330
318324AF
100
AcDbEntity
  8
SAISEN
100
AcDbCircle
 10
317.3478795571623
 20
563.6879231420953
 30
0.0
 40
1.75
100
AcDbArc
 50
343.3984504009792
 51
16.60154959902075
  0
ARC
  5
31833A74
330
318324AF
100
AcDbEntity
  8
SAISEN
100
AcDbCircle
 10
317.3478795571623
 20
563.6879231420953
 30
0.0
 40
1.75
100
AcDbArc
 50
253.398450400977
 51
286.6015495990229
  0
ARC
  5
31833A75
330
318324AF
100
AcDbEntity
  8
SAISEN
100
AcDbCircle
 10
317.3478795571623
 20
563.6879231420953
 30
0.0
 40
1.75
100
AcDbArc
 50
163.3984504009792
 51
196.6015495990207
  0
LINE
  5
31833A76
330
318324AF
100
AcDbEntity
  8
SAISEN
100
AcDbLine
 10
317.8478795571624
 20
564.1879231420952
 30
0.0
 11
317.8478795571624
 21
565.3649741252202
 31
0.0
  0
LINE
  5
31833A77
330
318324AF
100
AcDbEntity
  8
SAISEN
100
AcDbLine
 10
319.0249305402872
 20
564.1879231420952
 30
0.0
 11
317.8478795571624
 21
564.1879231420952
 31
0.0
  0
LINE
  5
31833A78
330
318324AF
100
AcDbEntity
  8
SAISEN
100
AcDbLine
 10
317.8478795571624
 20
563.1879231420953
 30
0.0
 11
319.0249305402872
 21
563.1879231420953
 31
0.0
  0
LINE
  5
31833A79
330
318324AF
100
AcDbEntity
  8
SAISEN
100
AcDbLine
 10
317.8478795571624
 20
562.0108721589704
 30
0.0
 11
317.8478795571624
 21
563.1879231420953
 31
0.0
  0
LINE
  5
31833A7A
330
318324AF
100
AcDbEntity
  8
SAISEN
100
AcDbLine
 10
316.8478795571624
 20
563.1879231420953
 30
0.0
 11
316.8478795571624
 21
562.0108721589706
 31
0.0
  0
LINE
  5
31833A7B
330
318324AF
100
AcDbEntity
  8
SAISEN
100
AcDbLine
 10
315.6708285740374
 20
563.1879231420953
 30
0.0
 11
316.8478795571624
 21
563.1879231420953
 31
0.0
  0
LINE
  5
31833A7C
330
318324AF
100
AcDbEntity
  8
SAISEN
100
AcDbLine
 10
316.8478795571624
 20
564.1879231420952
 30
0.0
 11
315.6708285740374
 21
564.1879231420952
 31
0.0
  0
LINE
  5
31833A7D
330
318324AF
100
AcDbEntity
  8
SAISEN
100
AcDbLine
 10
316.8478795571624
 20
565.3649741252202
 30
0.0
 11
316.8478795571624
 21
564.1879231420952
 31
0.0
  0
ARC
  5
31833A7E
330
318324AF
100
AcDbEntity
  8
SAISEN
100
AcDbCircle
 10
317.3478795571623
 20
563.6879231420953
 30
0.0
 40
1.75
100
AcDbArc
 50
73.39845040097705
 51
106.6015495990229
  0
CIRCLE
  5
31833A7F
330
318324AF
100
AcDbEntity
  8
JISSEN
100
AcDbCircle
 10
317.3478795571623
 20
563.6879231420953
 30
0.0
 40
2.744610977126967
  0
CIRCLE
  5
31833A80
102
{ACAD_REACTORS
330
31833A9B
102
}
330
318324AF
100
AcDbEntity
  8
SAISEN
 62
     4
100
AcDbCircle
 10
133.6361856003393
 20
582.177944818751
 30
0.0
 40
12.53164556962025
  0
CIRCLE
  5
31833A81
102
{ACAD_REACTORS
330
31833A9B
102
}
330
318324AF
100
AcDbEntity
  8
SAISEN
 62
     4
100
AcDbCircle
 10
133.6361856003393
 20
582.177944818751
 30
0.0
 40
11.27848101265822
  0
CIRCLE
  5
31833A84
102
{ACAD_REACTORS
330
31833A9B
102
}
330
318324AF
100
AcDbEntity
  8
SAISEN
100
AcDbCircle
 10
201.9110890670581
 20
587.0075364103287
 30
0.0
 40
0.3870958325686231
  0
LWPOLYLINE
  5
31833A85
102
{ACAD_REACTORS
330
31833A9B
102
}
330
318324AF
100
AcDbEntity
  8
SAISEN
100
AcDbPolyline
 90
        8
 70
     1
 43
0.0
 10
170.2489667866616
 20
583.8361246239888
 10
170.2489667866616
 20
576.3006590833197
 42
-1.0
 10
168.8038090117387
 20
576.3006590833197
 10
168.8038090117387
 20
581.0274816635938
 42
0.6866165717616584
 10
168.6689498184569
 20
581.0793889912899
 42
-0.9560347805192888
 10
167.5554094820813
 20
581.9982430346091
 42
0.1183853437574497
 10
169.552695888167
 20
586.6026885323585
 42
-1.0
 10
170.9761308263991
 20
586.353060867546
 42
-0.053874857749413
  0
LWPOLYLINE
  5
31833A86
102
{ACAD_REACTORS
330
31833A9B
102
}
330
318324AF
100
AcDbEntity
  8
SAISEN
100
AcDbPolyline
 90
       35
 70
     1
 43
0.0
 10
176.4174885086645
 20
583.8361246239888
 10
178.9465146147796
 20
583.8361246239888
 42
1.0
 10
178.9465146147796
 20
585.3845079542635
 10
176.2480043706734
 20
585.3845079542635
 42
-0.5029716470336553
 10
176.149186824284
 20
585.5175765624616
 42
0.2011148424014987
 10
176.0872580167354
 20
586.1129587460289
 10
175.2584385174583
 20
587.1563658496156
 42
1.0
 10
174.0460137532597
 20
586.1932889427021
 10
174.4557160421984
 20
585.677511648602
 42
-0.6276728463992862
 10
174.3142664863755
 20
585.3845079542635
 10
171.9787896285445
 20
585.3845079542635
 42
1.0
 10
171.9787896285445
 20
583.8361246239888
 10
174.5078157346594
 20
583.8361246239888
 42
-0.4142135623730951
 10
174.6884604565248
 20
583.6554799021235
 10
174.6884604565248
 20
581.9006454611458
 42
-0.4142135623730945
 10
174.5078157346594
 20
581.7200007392804
 10
172.1078215727338
 20
581.7200007392804
 42
1.0
 10
172.1078215727338
 20
580.1716174090058
 10
174.5078157346594
 20
580.1716174090058
 42
-0.4142135623730956
 10
174.6884604565248
 20
579.9909726871406
 10
174.6884604565248
 20
577.7200104694046
 42
-0.4142135623730956
 10
174.5078157346594
 20
577.5393657475392
 10
171.7465321290033
 20
577.5393657475392
 42
1.0
 10
171.7465321290033
 20
575.9909824172648
 10
179.1787721143207
 20
575.9909824172648
 42
1.0
 10
179.1787721143207
 20
577.5393657475392
 10
176.4174885086645
 20
577.5393657475392
 42
-0.4142135623730956
 10
176.2368437867992
 20
577.7200104694046
 10
176.2368437867992
 20
579.9909726871406
 42
-0.4142135623730955
 10
176.4174885086645
 20
580.1716174090058
 10
178.8174826705901
 20
580.1716174090058
 42
1.0
 10
178.8174826705901
 20
581.7200007392804
 10
176.4174885086645
 20
581.7200007392804
 42
-0.4142135623730945
 10
176.2368437867992
 20
581.9006454611458
 10
176.2368437867992
 20
583.6554799021235
 42
-0.4142135623731011
  0
LWPOLYLINE
  5
31833A87
102
{ACAD_REACTORS
330
31833A9B
102
}
330
318324AF
100
AcDbEntity
  8
SAISEN
100
AcDbPolyline
 90
       46
 70
     1
 43
0.0
 10
303.0658859676095
 20
586.6748273961588
 42
-1.0
 10
304.6142692978838
 20
586.6748273961588
 10
304.6142692978838
 20
585.4619271207771
 42
0.414213562373093
 10
304.7691076309115
 20
585.3070887877496
 10
306.1414005099984
 20
585.3070887877496
 42
-0.4122746911688611
 10
306.6575169627592
 20
584.7943799480962
 42
-0.2168776885244659
 10
307.2413339301113
 20
585.060112683722
 10
308.3045829017049
 20
585.060112683722
 42
0.4142135623730951
 10
308.4594212347324
 20
585.2149510167495
 10
308.4594212347324
 20
586.6748273961588
 42
-1.0
 10
310.0078045650067
 20
586.6748273961588
 10
310.0078045650067
 20
585.2149510167495
 42
0.4142135623730956
 10
310.1626428980341
 20
585.060112683722
 10
311.7110262283087
 20
585.060112683722
 42
-1.0
 10
311.7110262283087
 20
583.5117293534477
 10
310.1626428980341
 20
583.5117293534477
 42
0.4142135623730941
 10
310.0078045650067
 20
583.3568910204201
 10
310.0078045650067
 20
577.6942040805668
 42
0.4142135623730955
 10
310.1626428980341
 20
577.5393657475392
 10
311.9690901166877
 20
577.5393657475392
 42
-1.0
 10
311.9690901166877
 20
575.9909824172648
 10
306.1368462393205
 20
575.9909824172648
 42
-1.0
 10
306.1368462393205
 20
577.5393657475392
 10
308.3045829017049
 20
577.5393657475392
 42
0.4142135623730966
 10
308.4594212347324
 20
577.6942040805668
 10
308.4594212347324
 20
583.3568910204201
 42
0.4142135623730941
 10
308.3045829017049
 20
583.5117293534477
 10
307.2413339301113
 20
583.5117293534477
 42
-0.4078750109712648
 10
306.4673243620881
 20
584.2691304564583
 42
-0.0460346531742509
 10
305.2656260440382
 20
582.274815763457
 10
307.3960940443213
 20
580.7049972369325
 42
-0.9999999999999984
 10
306.4775945422701
 20
579.4584621984344
 10
304.8609575811165
 20
580.649668380337
 42
0.6151099889490489
 10
304.6142692978838
 20
580.5250148764871
 10
304.6142692978838
 20
576.3522718609956
 42
-1.0
 10
303.0658859676095
 20
576.3522718609956
 10
303.0658859676095
 20
579.6422145962481
 42
0.6233400877170312
 10
302.8162577062419
 20
579.7646473486468
 42
-0.0212493152492001
 10
301.9377799781567
 20
579.1423479373402
 42
-0.9999999999999998
 10
301.0972252965132
 20
580.4427166406852
 42
0.0999246241034749
 10
304.2481449694133
 20
583.5166201350275
 42
0.6026211128375224
 10
304.1202275264596
 20
583.7587054574752
 10
301.7755665257141
 20
583.7587054574752
 42
-1.0
 10
301.7755665257141
 20
585.3070887877496
 10
302.911047634582
 20
585.3070887877496
 42
0.4142135623730943
 10
303.0658859676095
 20
585.4619271207771
  0
LWPOLYLINE
  5
31833A88
102
{ACAD_REACTORS
330
31833A9B
102
}
330
318324AF
100
AcDbEntity
  8
SAISEN
100
AcDbPolyline
 90
        6
 70
     1
 43
0.0
 10
294.1796454598047
 20
585.7921844454063
 10
292.1698171612526
 20
584.3648843629921
 10
292.1972822963282
 20
584.2695732423876
 10
296.2264253627698
 20
584.2695732423876
 10
296.253890497845
 20
584.3648843629921
 10
294.2440621992929
 20
585.7921844454063
  0
LWPOLYLINE
  5
31833A89
102
{ACAD_REACTORS
330
31833A9B
102
}
330
318324AF
100
AcDbEntity
  8
SAISEN
100
AcDbPolyline
 90
       22
 70
     1
 43
0.0
 10
300.0004666024892
 20
576.8046413470405
 42
-1.0
 10
298.7439084741668
 20
575.8999023749504
 42
0.021927783063709
 10
298.1618725950256
 20
576.6377679166208
 42
0.2350649554663871
 10
298.0346549536528
 20
576.6911532669832
 10
289.8746119501131
 20
576.1646988796579
 42
-1.0
 10
289.774923504096
 20
577.7098697929237
 10
290.7612580434996
 20
577.7735042793368
 42
0.2847578740297872
 10
290.8941024323798
 20
577.8681942052858
 10
291.7993513956162
 20
580.029111085269
 42
0.5358006090657583
 10
291.6565381621341
 20
580.243776583674
 10
289.3086399503463
 20
580.243776583674
 42
-1.0
 10
289.3086399503463
 20
581.7921599139484
 10
299.1150677087514
 20
581.7921599139484
 42
-1.0
 10
299.1150677087514
 20
580.243776583674
 10
293.6534900726992
 20
580.243776583674
 42
0.3105051435850527
 10
293.5089366652814
 20
580.1444289866175
 10
292.7320462573232
 20
578.1206289108824
 42
0.5468718829383487
 10
292.8865685093429
 20
577.9106210835847
 10
296.422611495868
 20
578.1387528891671
 42
0.6976989533440405
 10
296.4501299214771
 20
578.2316432269165
 42
0.0029535551001564
 10
296.3481370785704
 20
578.3067190978487
 42
-1.000000000000001
 10
297.2586462892288
 20
579.5591023917239
 42
-0.0797012575166524
  0
LWPOLYLINE
  5
31833A8A
102
{ACAD_REACTORS
330
31833A9B
102
}
330
318324AF
100
AcDbEntity
  8
SAISEN
100
AcDbPolyline
 90
       12
 70
     1
 43
0.0
 10
288.750098676629
 20
584.2867381826049
 42
0.0714953966147462
 10
293.7305218710948
 20
587.2812037480549
 42
-0.3486477685382974
 10
294.6931857880029
 20
587.2812037480549
 42
0.0714953966147458
 10
299.6736089824691
 20
584.286738182605
 42
-0.9375247296223454
 10
299.1668890575072
 20
582.8270205535723
 42
-0.0177045635089767
 10
297.7699021406467
 20
583.4945619690634
 42
0.5448562439575066
 10
297.6944841877827
 20
583.4517203935912
 42
-0.3977817593624567
 10
296.9215246575292
 20
582.7211899121132
 10
291.5021830015685
 20
582.7211899121132
 42
-0.3977817593624539
 10
290.7292234713152
 20
583.4517203935912
 42
0.544856243957455
 10
290.6538055184512
 20
583.4945619690634
 42
-0.0177045635089769
 10
289.2568186015907
 20
582.8270205535723
 42
-0.9375247296222685
  0
LWPOLYLINE
  5
31833A8B
102
{ACAD_REACTORS
330
31833A9B
102
}
330
318324AF
100
AcDbEntity
  8
SAISEN
100
AcDbPolyline
 90
       18
 70
     1
 43
0.0
 10
276.7399728704242
 20
576.1822355058684
 10
281.6669377414498
 20
577.182770781496
 42
0.9150617575178049
 10
281.1451601875605
 20
578.6286672184242
 10
280.5592106791664
 20
578.4742490738412
 42
-0.4918646192181379
 10
279.9385414946988
 20
578.9525414448432
 10
279.9385414946987
 20
581.1046516712028
 42
-0.4103985717549125
 10
280.4267128989584
 20
581.5992320536635
 10
281.1608044512784
 20
581.6088071608676
 42
1.0
 10
281.1419561705404
 20
583.0538420174483
 10
276.5470596251422
 20
582.9939085842474
 42
0.8496409365451205
 10
276.3294085625896
 20
581.545788953624
 10
277.8890846632308
 20
581.5661325549366
 42
-0.4180388721689203
 10
278.3901581644243
 20
581.071552172476
 10
278.3901581644243
 20
578.4175842462491
 42
-0.3712644620077222
 10
277.9688787482186
 20
577.9284297003894
 10
276.4719984080335
 20
577.7039898983129
 42
0.3712644620077241
 10
275.8148025187526
 20
576.9409088067719
 10
275.8148025187526
 20
576.9384121448974
 42
0.4741888709078976
  0
LWPOLYLINE
  5
31833A8C
102
{ACAD_REACTORS
330
31833A9B
102
}
330
318324AF
100
AcDbEntity
  8
SAISEN
100
AcDbPolyline
 90
       35
 70
     1
 43
0.0
 10
285.102447084539
 20
585.7637847460741
 42
0.7994078749809068
 10
285.1233381380902
 20
585.8622851781262
 42
-0.0438731735806829
 10
284.4025941970048
 20
586.273732398661
 42
-1.0
 10
285.1379757067819
 20
587.3339862820357
 42
0.0837739739835673
 10
286.17636850556
 20
586.8460779797842
 42
-0.5119692040613775
 10
286.5376280615921
 20
585.8635665407493
 42
0.6055107519491782
 10
286.5810729464082
 20
585.7830711703591
 10
286.7412693954829
 20
585.7851606892601
 42
-1.0
 10
286.7614639819878
 20
584.2369090572094
 10
284.1059414749135
 20
584.202271807117
 42
0.4458536162710301
 10
283.8530944954348
 20
583.9133753655208
 42
0.0279921944070669
 10
284.5220845413018
 20
580.1476479362161
 42
0.0606728607395486
 10
285.6226417593642
 20
577.9722599970674
 42
0.6592200259122605
 10
285.9024230582816
 20
578.0244522289648
 42
0.030470320942106
 10
286.1320133566256
 20
579.4490385215445
 42
-1.0
 10
287.6803966869
 20
579.4490385215445
 10
287.6803966869
 20
578.8605542707086
 42
-0.0466637896147516
 10
287.3534312306357
 20
577.1617978081656
 42
-0.0168888916150345
 10
287.2891786999296
 20
576.9748220164721
 42
-0.1128117704920973
 10
286.7461860001785
 20
576.0924210630058
 42
-0.3024975898513548
 10
285.8739494682465
 20
575.8453107157029
 42
-0.0769260479074295
 10
284.9326641865295
 20
576.2246348898337
 42
-0.1182289009929937
 10
284.4152202005674
 20
576.7283879228826
 42
-0.0622972667805791
 10
283.09820931399
 20
579.5331298093699
 42
-0.0039769140334449
 10
283.0352466960766
 20
579.7071024099237
 42
-0.0301411173838843
 10
282.2902227491197
 20
583.9464371357927
 42
0.3850296683360234
 10
282.0304593951031
 20
584.1752003017282
 10
276.593746779852
 20
584.1042866589206
 42
-1.0
 10
276.573552193347
 20
585.6525382909714
 10
281.8575578421011
 20
585.7214601037811
 42
0.4323918708266769
 10
282.1115361727206
 20
585.9987630713722
 10
282.0652606488843
 20
586.6170443094112
 42
-1.0
 10
283.6093252191064
 20
586.7326104829065
 10
283.6651144083928
 20
585.9872184017023
 42
0.3962659525886108
 10
283.9258242678472
 20
585.7484374919432
  0
LWPOLYLINE
  5
31833A8D
102
{ACAD_REACTORS
330
31833A9B
102
}
330
318324AF
100
AcDbEntity
  8
SAISEN
100
AcDbPolyline
 90
       53
 70
     1
 43
0.0
 10
273.9841791658114
 20
581.7200007392804
 10
271.5841850038859
 20
581.7200007392804
 42
0.0743494977705335
 10
274.8531496230725
 20
577.3598392629009
 42
-1.0
 10
273.8377875960119
 20
576.3314808874191
 42
-0.0438873845599916
 10
271.5841850038859
 20
578.9852256156693
 10
271.5841850038859
 20
576.3006590833197
 42
-1.0
 10
270.1390272289632
 20
576.3006590833197
 10
270.1390272289632
 20
578.9852256156693
 42
-0.044425566432872
 10
267.8550130453607
 20
576.3015180878896
 42
-1.0
 10
266.8418628274512
 20
577.3320556322659
 42
0.074889623148952
 10
270.1390272289632
 20
581.7200007392804
 10
268.1003225107683
 20
581.7200007392804
 42
-1.0
 10
268.1003225107683
 20
583.1651585142033
 10
270.1390272289632
 20
583.1651585142033
 10
270.1390272289632
 20
584.3006396230712
 10
268.5906438986887
 20
584.3006396230714
 42
-0.0152523455626472
 10
268.3466541782568
 20
583.806353481766
 42
-0.6902403826681676
 10
267.0062168628997
 20
583.9768679683685
 42
-0.1600327065525932
 10
266.577745569332
 20
583.8361246239888
 10
266.1293682899615
 20
583.8361246239888
 42
0.5443354633598011
 10
266.0587771476831
 20
583.7269152392389
 42
0.0425297040123326
 10
267.6414092579207
 20
580.8852013571472
 42
-1.000000000000001
 10
266.4431118723228
 20
580.0773867929746
 42
-0.0064282713165093
 10
266.1527100803485
 20
580.5203453122323
 42
0.7500568622206073
 10
266.0100050148979
 20
580.4787342711054
 10
266.0100050148979
 20
576.3006590833197
 42
-1.0
 10
264.564847239975
 20
576.3006590833197
 10
264.564847239975
 20
579.5039186244456
 42
0.8118892076050451
 10
264.4165430781978
 20
579.5350481087036
 42
-0.0510400568211836
 10
264.0969142391181
 20
578.9163876546235
 42
-1.038853738921953
 10
262.8955999076739
 20
579.7178196818564
 42
0.0807299223725665
 10
264.5432323898602
 20
583.7412390307315
 42
0.4825507232976211
 10
264.4678092416861
 20
583.8361246239888
 10
263.6358172418102
 20
583.8361246239888
 42
-1.0
 10
263.6358172418102
 20
585.2812823989117
 10
264.564847239975
 20
585.2812823989117
 10
264.564847239975
 20
586.7264401738345
 42
-1.0
 10
266.0100050148979
 20
586.7264401738345
 10
266.0100050148979
 20
585.2812823989117
 10
266.577745569332
 20
585.2812823989117
 42
-0.3035254725439783
 10
267.2455023522713
 20
584.8347852519606
 42
0.0615665677052705
 10
267.8218318691794
 20
586.6059816027329
 42
-1.0
 10
269.2405425870664
 20
586.3307709681781
 42
-0.0166046853614768
 10
269.1067716754468
 20
585.7457973979941
 10
270.1390272289632
 20
585.7457973979941
 10
270.1390272289632
 20
586.7264401738345
 42
-1.0
 10
271.5841850038859
 20
586.7264401738345
 10
271.5841850038859
 20
585.7457973979941
 10
273.8293408327839
 20
585.7457973979941
 42
-1.0
 10
273.8293408327839
 20
584.3006396230712
 10
271.5841850038859
 20
584.3006396230712
 10
271.5841850038859
 20
583.1651585142033
 10
273.9841791658114
 20
583.1651585142033
 42
-1.0
  0
LWPOLYLINE
  5
31833A8E
102
{ACAD_REACTORS
330
31833A9B
102
}
330
318324AF
100
AcDbEntity
  8
SAISEN
100
AcDbPolyline
 90
        4
 70
     1
 43
0.0
 10
251.1952835451859
 20
582.2877412937145
 42
1.0
 10
251.1952835451859
 20
580.7393579634399
 10
261.5178390803492
 20
580.7393579634399
 42
1.0
 10
261.5178390803492
 20
582.2877412937145
  0
LWPOLYLINE
  5
31833A8F
102
{ACAD_REACTORS
330
31833A9B
102
}
330
318324AF
100
AcDbEntity
  8
SAISEN
100
AcDbPolyline
 90
        4
 70
     1
 43
0.0
 10
247.7122749130907
 20
586.7780529515104
 10
239.9703582617182
 20
586.7780529515104
 42
1.0
 10
239.9703582617182
 20
585.2296696212358
 10
247.7122749130907
 20
585.2296696212358
 42
1.0
  0
LWPOLYLINE
  5
31833A90
102
{ACAD_REACTORS
330
31833A9B
102
}
330
318324AF
100
AcDbEntity
  8
SAISEN
100
AcDbPolyline
 90
       11
 70
     1
 43
0.0
 10
249.5187221317442
 20
582.5458051820935
 42
-0.3106637293672825
 10
245.1316360292997
 20
576.6103357493745
 42
-0.0757975034211305
 10
240.7625269294486
 20
575.8399655600611
 42
-1.0
 10
240.7265729242622
 20
577.3879314017331
 42
0.0757047635176025
 10
244.6313985116969
 20
578.075695680827
 42
0.2739170351993261
 10
247.9037374894792
 20
581.9347632006099
 42
0.4645004032667825
 10
247.6493323855586
 20
582.2361285160385
 10
238.9381027082017
 20
582.2361285160385
 42
-1.0
 10
238.9381027082017
 20
583.784511846313
 10
248.4864665782278
 20
583.784511846313
 42
-0.4142135623731018
 10
249.5187221317442
 20
582.7522562927968
  0
LWPOLYLINE
  5
31833A91
102
{ACAD_REACTORS
330
31833A9B
102
}
330
318324AF
100
AcDbEntity
  8
SAISEN
100
AcDbPolyline
 90
       14
 70
     1
 43
0.0
 10
233.2402074125945
 20
579.7099983017544
 42
-0.1525099745054455
 10
228.4248912314505
 20
577.1256689088757
 42
1.000000000000009
 10
228.7171332324559
 20
575.6051145526226
 42
0.1527087266791696
 10
234.3516433316445
 20
578.6319164762264
 42
0.1741491623156161
 10
237.329261327085
 20
585.2866874036179
 42
0.4366181916758971
 10
236.0426551705613
 20
586.6748273961588
 10
230.2912026589667
 20
586.6748273961588
 42
0.2814124278005228
 10
229.3725297212128
 20
586.1133069711419
 42
-0.1568400336058553
 10
226.9266381079427
 20
583.6638496964657
 42
1.000000000000001
 10
227.6347474721726
 20
582.2868703699099
 42
0.1354825693697109
 10
230.4537648681539
 20
584.8832352389746
 42
-0.2589752263221756
 10
230.8918323615323
 20
585.1264440658844
 10
235.1668510997567
 20
585.1264440658844
 42
-0.4655939616553161
 10
235.6753465560666
 20
584.5218840955906
 42
-0.149244744637674
  0
LWPOLYLINE
  5
31833A92
102
{ACAD_REACTORS
330
31833A9B
102
}
330
318324AF
100
AcDbEntity
  8
SAISEN
100
AcDbPolyline
 90
        4
 70
     1
 43
0.0
 10
215.396117429507
 20
576.1278164043845
 42
-1.0
 10
215.2795757539307
 20
577.6718076528462
 42
0.3208737530023473
 10
224.115813101363
 20
585.05918152221
 42
-0.9999999999999953
 10
225.6147198994058
 20
584.670891233569
 42
-0.3208737530023471
  0
LWPOLYLINE
  5
31833A93
102
{ACAD_REACTORS
330
31833A9B
102
}
330
318324AF
100
AcDbEntity
  8
SAISEN
100
AcDbPolyline
 90
        4
 70
     1
 43
0.0
 10
216.1368086050813
 20
586.7314306414019
 42
-0.0235585019510392
 10
219.2141247431952
 20
585.2978611945766
 42
-1.000000000000001
 10
218.4949073249865
 20
583.9266510564806
 42
0.0235585019510392
 10
215.549780670058
 20
585.2986399585129
 42
-0.99999999999999
  0
LWPOLYLINE
  5
31833A94
102
{ACAD_REACTORS
330
31833A9B
102
}
330
318324AF
100
AcDbEntity
  8
SAISEN
100
AcDbPolyline
 90
        8
 70
     1
 43
0.0
 10
214.0551237027778
 20
586.6748273961588
 10
214.0551237027778
 20
581.3403079720049
 42
-0.2490165112722773
 10
211.3468149893241
 20
577.1127262922979
 42
-0.1273412802796108
 10
206.7778245377421
 20
575.5977593415448
 42
-1.000000000000005
 10
206.6743940078813
 20
577.1426842791919
 42
0.1288820830114853
 10
210.5476655409952
 20
578.4400150150888
 42
0.2481156621714279
 10
212.5067403725032
 20
581.4089549237336
 10
212.5067403725032
 20
586.6748273961588
 42
-1.0
  0
LWPOLYLINE
  5
31833A95
102
{ACAD_REACTORS
330
31833A9B
102
}
330
318324AF
100
AcDbEntity
  8
SAISEN
100
AcDbPolyline
 90
        4
 70
     1
 43
0.0
 10
203.8874065006418
 20
586.6748273961588
 42
-1.0
 10
205.4357898309163
 20
586.6748273961588
 10
205.4357898309163
 20
580.997421851819
 42
-1.0
 10
203.8874065006418
 20
580.997421851819
  0
LWPOLYLINE
  5
31833A96
102
{ACAD_REACTORS
330
31833A9B
102
}
330
318324AF
100
AcDbEntity
  8
SAISEN
100
AcDbPolyline
 90
       15
 70
     1
 43
0.0
 10
200.1589820717889
 20
585.1097667579542
 10
191.8023334691547
 20
585.0305568185928
 42
-1.0
 10
191.7876575091781
 20
586.5788705961166
 10
200.6676072648234
 20
586.6630407359805
 42
-2.831910569060239
 10
201.9849423111096
 20
585.7193322493061
 42
-0.0208206875585603
 10
201.9885190801401
 20
585.6334748901917
 10
201.9885190801401
 20
585.1271083409715
 42
-0.0668647846844765
 10
201.2291971593684
 20
581.0229066018546
 42
-0.0333533933995328
 10
201.1520550506446
 20
580.8315229923466
 42
-0.0927123145957803
 10
199.2788482521598
 20
578.2877510238387
 42
-0.1458956791762012
 10
193.44637620831
 20
575.6608421090963
 42
-1.0
 10
193.2403814305715
 20
577.1954616349126
 42
0.145102294197791
 10
198.2434183859627
 20
579.4394536071526
 42
0.091665638147642
 10
199.7577081501367
 20
581.5047894021102
 42
0.0602525101072688
 10
200.4187518348937
 20
584.8321837680637
 42
0.4394037110369716
  0
LWPOLYLINE
  5
31833A97
102
{ACAD_REACTORS
330
31833A9B
102
}
330
318324AF
100
AcDbEntity
  8
SAISEN
100
AcDbPolyline
 90
       17
 70
     0
 43
0.0
 10
181.5139985941635
 20
575.8361440842373
 42
0.1063712114884995
 10
186.7585954168855
 20
579.2691332052539
 42
-0.405938226823953
 10
187.1182715291665
 20
579.2764359944384
 10
190.5812113225508
 20
576.0443588539462
 42
1.0
 10
191.6377015273503
 20
577.176312644803
 10
188.1145462499947
 20
580.464590903668
 42
-0.3828982093648742
 10
188.0840746860179
 20
580.8079519027194
 42
0.0039489750640175
 10
188.2236596920196
 20
580.997421851819
 42
0.1138496861554026
 10
189.9874138126704
 20
585.4910692971659
 42
0.45804529415744
 10
188.9663366821461
 20
586.6748273961588
 10
182.2881902593006
 20
586.6748273961588
 42
1.0
 10
182.2881902593006
 20
585.1264440658844
 10
188.0223926643584
 20
585.1264440658844
 42
-0.4890901285612313
 10
188.2725148288691
 20
584.8048516539445
 42
-0.0876802035349815
 10
186.9577360842575
 20
581.8892748258283
 42
-0.1442471141632833
 10
180.9765724089721
 20
577.2884288651676
 42
0.9853669476710768
 10
181.5138922830374
 20
575.8364449169205
  0
LWPOLYLINE
  5
31833A98
102
{ACAD_REACTORS
330
31833A9B
102
}
330
318324AF
100
AcDbEntity
  8
SAISEN
100
AcDbPolyline
 90
       22
 70
     1
 43
0.0
 10
155.4938304557914
 20
580.997421851819
 10
159.7647878084652
 20
580.997421851819
 42
-0.4142135623730948
 10
159.9454325303305
 20
580.8167771299536
 10
159.9454325303305
 20
576.3522718609956
 42
1.0
 10
161.493815860605
 20
576.3522718609956
 10
161.493815860605
 20
580.8167771299536
 42
-0.4142135623730948
 10
161.6744605824704
 20
580.997421851819
 10
165.9454179351441
 20
580.997421851819
 42
1.0
 10
165.9454179351441
 20
582.5458051820935
 10
161.6744605824704
 20
582.5458051820935
 42
-0.4142135623730951
 10
161.493815860605
 20
582.7264499039588
 10
161.493815860605
 20
584.8894928307129
 42
-0.3832517545221522
 10
161.655194542541
 20
585.0691072378278
 42
0.0118347698368547
 10
165.2256117289813
 20
585.5377941579305
 42
0.9999999999999991
 10
164.9878088668431
 20
587.0678074703663
 42
-0.0292873215554025
 10
156.3038408621878
 20
586.2347859895939
 42
1.0
 10
156.3612353238589
 20
584.6874667551624
 42
0.0111567498169039
 10
159.7500453700731
 20
584.8889597529186
 42
-0.4383507954394755
 10
159.9454325303305
 20
584.7089176021649
 10
159.9454325303305
 20
582.7264499039588
 42
-0.4142135623730948
 10
159.7647878084652
 20
582.5458051820935
 10
155.4938304557914
 20
582.5458051820935
 42
1.0
  0
LWPOLYLINE
  5
31833A99
102
{ACAD_REACTORS
330
31833A9B
102
}
330
318324AF
100
AcDbEntity
  8
SAISEN
100
AcDbPolyline
 90
       35
 70
     1
 43
0.0
 10
136.7123075044528
 20
585.3125591310868
 10
139.7401527972597
 20
585.3125591310868
 42
1.0
 10
139.7401527972597
 20
587.1663419634176
 10
136.5093947119826
 20
587.1663419634176
 42
-0.5029716470336553
 10
136.3910866241545
 20
587.3256567122763
 42
0.2011148424014987
 10
136.3169431236299
 20
588.0384706834631
 10
135.3246492072466
 20
589.2876769607085
 42
1.0
 10
133.8730886218163
 20
588.1346450200108
 10
134.3635996307837
 20
587.5171370202707
 42
-0.6276728463992862
 10
134.194250895817
 20
587.1663419634176
 10
131.3981300517718
 20
587.1663419634176
 42
1.0
 10
131.3981300517718
 20
585.3125591310868
 10
134.4259753445785
 20
585.3125591310868
 42
-0.4142135623730951
 10
134.6422500083503
 20
585.0962844673148
 10
134.6422500083503
 20
582.9953305906734
 42
-0.4142135623730945
 10
134.4259753445785
 20
582.7790559269015
 10
131.5526119544659
 20
582.7790559269015
 42
1.0
 10
131.5526119544659
 20
580.9252730945708
 10
134.4259753445785
 20
580.9252730945708
 42
-0.4142135623730956
 10
134.6422500083503
 20
580.7089984307991
 10
134.6422500083503
 20
577.9901169433807
 42
-0.4142135623730956
 10
134.4259753445785
 20
577.7738422796087
 10
131.1200626269222
 20
577.7738422796087
 42
1.0
 10
131.1200626269222
 20
575.9200594472782
 10
140.0182202221092
 20
575.9200594472782
 42
1.0
 10
140.0182202221092
 20
577.7738422796087
 10
136.7123075044528
 20
577.7738422796087
 42
-0.4142135623730956
 10
136.4960328406809
 20
577.9901169433807
 10
136.4960328406809
 20
580.7089984307991
 42
-0.4142135623730955
 10
136.7123075044528
 20
580.9252730945708
 10
139.5856708945655
 20
580.9252730945708
 42
1.0
 10
139.5856708945655
 20
582.7790559269015
 10
136.7123075044528
 20
582.7790559269015
 42
-0.4142135623730945
 10
136.4960328406809
 20
582.9953305906734
 10
136.4960328406809
 20
585.0962844673148
 42
-0.4142135623731011
  0
LWPOLYLINE
  5
31833A9A
102
{ACAD_REACTORS
330
31833A9B
102
}
330
318324AF
100
AcDbEntity
  8
SAISEN
100
AcDbPolyline
 90
        8
 70
     1
 43
0.0
 10
129.3271210034586
 20
585.3125591310868
 10
129.3271210034586
 20
576.2908160137443
 42
-1.0
 10
127.5969236932833
 20
576.2908160137443
 10
127.5969236932833
 20
581.949946010469
 42
0.6866165717616584
 10
127.435465188532
 20
582.0120914179232
 42
-0.9560347805192888
 10
126.1022927639009
 20
583.1121780809724
 42
0.1183853437574497
 10
128.4935192634735
 20
588.6247936259983
 42
-1.0
 10
130.1977091755198
 20
588.3259299851566
 42
-0.053874857749413
  0
HATCH
  5
31833A9B
330
318324AF
100
AcDbEntity
  8
SUNPOU
100
AcDbHatch
 10
0.0
 20
0.0
 30
0.0
210
0.0
220
0.0
230
1.0
  2
ANSI31
 70
     0
 71
     1
 91
       25
 92
        1
 93
        1
 72
     2
 10
133.6361856003393
 20
582.177944818751
 40
12.53164556962025
 50
0.0
 51
360.0
 73
     1
 97
        1
330
31833A80
 92
       16
 93
        1
 72
     2
 10
133.6361856003393
 20
582.177944818751
 40
11.27848101265822
 50
0.0
 51
360.0
 73
     1
 97
        1
330
31833A81
 92
        0
 93
        8
 72
     1
 10
129.3271210034586
 20
585.3125591310868
 11
129.3271210034586
 21
576.2908160137443
 72
     2
 10
128.4620223483709
 20
576.2908160137443
 40
0.8650986550876496
 50
360.0
 51
540.0
 73
     0
 72
     1
 10
127.5969236932833
 20
576.2908160137443
 11
127.5969236932833
 21
581.949946010469
 72
     2
 10
127.5042345516668
 20
581.9499460104691
 40
0.0926891416165035
 50
359.9999999999297
 51
497.8965511292499
 73
     1
 72
     2
 10
126.7936177992735
 20
582.5921152208281
 40
0.8650986550875694
 50
42.10344887074622
 51
216.9530344301661
 73
     0
 72
     2
 10
115.8198049843979
 20
590.8473818279697
 40
12.86712601722647
 50
323.0469655698346
 51
350.0531909869001
 73
     1
 72
     2
 10
129.3456142194967
 20
588.4753618055774
 40
0.8650986550876268
 50
189.9468090131002
 51
369.9468090130928
 73
     0
 72
     2
 10
115.8198049843974
 20
590.8473818279706
 40
14.59732332740243
 50
9.946809013102633
 51
22.28209173268345
 73
     0
 97
        1
330
31833A9A
 92
        0
 93
       35
 72
     1
 10
136.7123075044528
 20
585.3125591310868
 11
139.7401527972597
 21
585.3125591310868
 72
     2
 10
139.7401527972597
 20
586.2394505472521
 40
0.9268914161654038
 50
270.0
 51
450.0
 73
     1
 72
     1
 10
139.7401527972597
 20
587.1663419634176
 11
136.5093947119826
 21
587.1663419634176
 72
     2
 10
136.5093947119826
 20
587.2899274855727
 40
0.1235855221551674
 50
90.00000000002636
 51
196.8043978906832
 73
     0
 72
     2
 10
135.5037759654425
 20
587.5936259125528
 40
0.9268914161652554
 50
343.1956021093467
 51
388.6809552685447
 73
     1
 72
     1
 10
136.3169431236299
 20
588.0384706834631
 11
135.3246492072466
 21
589.2876769607085
 72
     2
 10
134.5988689145315
 20
588.7111609903597
 40
0.9268914161653439
 50
38.46150445227397
 51
218.4615044522794
 73
     1
 72
     1
 10
133.8730886218163
 20
588.1346450200108
 11
134.3635996307837
 21
587.5171370202707
 72
     2
 10
134.194250895817
 20
587.3826166271895
 40
0.2162746637717236
 50
321.5384955477232
 51
449.9999999999849
 73
     0
 72
     1
 10
134.194250895817
 20
587.1663419634176
 11
131.3981300517718
 21
587.1663419634176
 72
     2
 10
131.3981300517718
 20
586.2394505472521
 40
0.9268914161654038
 50
90.0
 51
270.0
 73
     1
 72
     1
 10
131.3981300517718
 20
585.3125591310868
 11
134.4259753445785
 21
585.3125591310868
 72
     2
 10
134.4259753445784
 20
585.0962844673149
 40
0.2162746637718556
 50
270.000000000015
 51
360.0000000000301
 73
     0
 72
     1
 10
134.6422500083503
 20
585.0962844673148
 11
134.6422500083503
 21
582.9953305906734
 72
     2
 10
134.4259753445784
 20
582.9953305906733
 40
0.2162746637719124
 50
359.9999999999698
 51
449.9999999999849
 73
     0
 72
     1
 10
134.4259753445785
 20
582.7790559269015
 11
131.5526119544659
 21
582.7790559269015
 72
     2
 10
131.5526119544659
 20
581.8521645107361
 40
0.9268914161652901
 50
90.0
 51
270.0
 73
     1
 72
     1
 10
131.5526119544659
 20
580.9252730945708
 11
134.4259753445785
 21
580.9252730945708
 72
     2
 10
134.4259753445786
 20
580.7089984307991
 40
0.2162746637717419
 50
269.9999999999849
 51
360.0
 73
     0
 72
     1
 10
134.6422500083503
 20
580.7089984307991
 11
134.6422500083503
 21
577.9901169433807
 72
     2
 10
134.4259753445784
 20
577.9901169433806
 40
0.2162746637719124
 50
359.9999999999698
 51
449.9999999999849
 73
     0
 72
     1
 10
134.4259753445785
 20
577.7738422796087
 11
131.1200626269222
 21
577.7738422796087
 72
     2
 10
131.1200626269222
 20
576.8469508634434
 40
0.9268914161652901
 50
90.0
 51
270.0
 73
     1
 72
     1
 10
131.1200626269222
 20
575.9200594472782
 11
140.0182202221092
 21
575.9200594472782
 72
     2
 10
140.0182202221092
 20
576.8469508634434
 40
0.9268914161651764
 50
270.0
 51
450.0
 73
     1
 72
     1
 10
140.0182202221092
 20
577.7738422796087
 11
136.7123075044528
 21
577.7738422796087
 72
     2
 10
136.7123075044528
 20
577.9901169433806
 40
0.2162746637718556
 50
90.00000000001506
 51
180.0000000000301
 73
     0
 72
     1
 10
136.4960328406809
 20
577.9901169433807
 11
136.4960328406809
 21
580.7089984307991
 72
     2
 10
136.7123075044527
 20
580.7089984307991
 40
0.2162746637717987
 50
180.0
 51
270.000000000015
 73
     0
 72
     1
 10
136.7123075044528
 20
580.9252730945708
 11
139.5856708945655
 21
580.9252730945708
 72
     2
 10
139.5856708945655
 20
581.8521645107361
 40
0.9268914161654038
 50
270.0
 51
450.0
 73
     1
 72
     1
 10
139.5856708945655
 20
582.7790559269015
 11
136.7123075044528
 21
582.7790559269015
 72
     2
 10
136.7123075044528
 20
582.9953305906733
 40
0.2162746637718556
 50
90.00000000001506
 51
180.0000000000301
 73
     0
 72
     1
 10
136.4960328406809
 20
582.9953305906734
 11
136.4960328406809
 21
585.0962844673148
 72
     2
 10
136.7123075044528
 20
585.0962844673149
 40
0.2162746637719124
 50
179.9999999999698
 51
269.9999999999849
 73
     0
 97
        1
330
31833A99
 92
        1
 93
       22
 72
     1
 10
155.4938304557914
 20
580.997421851819
 11
159.7647878084652
 21
580.997421851819
 72
     2
 10
159.7647878084652
 20
580.8167771299536
 40
0.1806447218654057
 50
270.000000000018
 51
360.0
 73
     0
 72
     1
 10
159.9454325303305
 20
580.8167771299536
 11
159.9454325303305
 21
576.3522718609956
 72
     2
 10
160.7196241954678
 20
576.3522718609956
 40
0.7741916651372663
 50
180.0
 51
360.0
 73
     1
 72
     1
 10
161.493815860605
 20
576.3522718609956
 11
161.493815860605
 21
580.8167771299536
 72
     2
 10
161.6744605824704
 20
580.8167771299536
 40
0.1806447218654057
 50
180.0
 51
270.0
 73
     0
 72
     1
 10
161.6744605824704
 20
580.997421851819
 11
165.9454179351441
 21
580.997421851819
 72
     2
 10
165.9454179351441
 20
581.7716135169562
 40
0.7741916651372094
 50
270.0
 51
450.0
 73
     1
 72
     1
 10
165.9454179351441
 20
582.5458051820935
 11
161.6744605824704
 21
582.5458051820935
 72
     2
 10
161.6744605824704
 20
582.7264499039588
 40
0.180644721865292
 50
89.99999999998198
 51
180.0
 73
     0
 72
     1
 10
161.493815860605
 20
582.7264499039588
 11
161.493815860605
 21
584.8894928307129
 72
     2
 10
161.6744605824704
 20
584.8894928307129
 40
0.1806447218653488
 50
180.0
 51
263.8776721144806
 73
     0
 72
     2
 10
153.5411553802117
 20
660.715080088996
 40
76.07989773999097
 50
276.1223278855241
 51
278.834530717579
 73
     1
 72
     2
 10
165.1067102979122
 20
586.3028008141484
 40
0.7741916651372469
 50
278.8345307175777
 51
458.8345307175777
 73
     1
 72
     2
 10
153.5411553802125
 20
660.7150800889958
 40
74.53151440971613
 50
81.16546928242145
 51
87.87571083088888
 73
     0
 72
     2
 10
156.3325380930234
 20
585.4611263723781
 40
0.7741916651372261
 50
92.12428916911088
 51
272.1242891691105
 73
     1
 72
     2
 10
153.5411553802119
 20
660.7150800889987
 40
76.07989773999356
 50
272.1242891691114
 51
274.681121797401
 73
     1
 72
     2
 10
159.7647878084652
 20
584.708917602165
 40
0.1806447218652265
 50
265.3188782026067
 51
360.0000000000361
 73
     0
 72
     1
 10
159.9454325303305
 20
584.7089176021649
 11
159.9454325303305
 21
582.7264499039588
 72
     2
 10
159.7647878084652
 20
582.7264499039588
 40
0.180644721865292
 50
360.0
 51
450.0
 73
     0
 72
     1
 10
159.7647878084652
 20
582.5458051820935
 11
155.4938304557914
 21
582.5458051820935
 72
     2
 10
155.4938304557914
 20
581.7716135169562
 40
0.7741916651373231
 50
90.0
 51
270.0
 73
     1
 97
        1
330
31833A98
 92
        1
 93
        8
 72
     1
 10
170.2489667866616
 20
583.8361246239888
 11
170.2489667866616
 21
576.3006590833197
 72
     2
 10
169.5263878992001
 20
576.3006590833197
 40
0.7225788874614523
 50
360.0
 51
540.0
 73
     0
 72
     1
 10
168.8038090117387
 20
576.3006590833197
 11
168.8038090117387
 21
581.0274816635938
 72
     2
 10
168.726389845225
 20
581.0274816635938
 40
0.0774191665136641
 50
0.0
 51
137.8965511291877
 73
     1
 72
     2
 10
168.1328429019532
 20
581.5638573831194
 40
0.7225788874614674
 50
42.10344887074749
 51
216.9530344301588
 73
     0
 72
     2
 10
158.9668993319917
 20
588.4591187797305
 40
10.7473448810434
 50
323.0469655698341
 51
350.0531909868996
 73
     1
 72
     2
 10
170.2644133572831
 20
586.4778746999522
 40
0.7225788874613937
 50
189.9468090130963
 51
369.9468090130963
 73
     0
 72
     2
 10
158.966899331991
 20
588.4591187797306
 40
12.19250265596691
 50
9.946809013100393
 51
22.28209173268121
 73
     0
 97
        1
330
31833A85
 92
        1
 93
       35
 72
     1
 10
176.4174885086645
 20
583.8361246239888
 11
178.9465146147796
 21
583.8361246239888
 72
     2
 10
178.9465146147796
 20
584.6103162891262
 40
0.7741916651373231
 50
270.0
 51
450.0
 73
     1
 72
     1
 10
178.9465146147796
 20
585.3845079542635
 11
176.2480043706734
 21
585.3845079542635
 72
     2
 10
176.2480043706734
 20
585.487733509615
 40
0.1032255553515142
 50
89.99999999998422
 51
196.8043978906503
 73
     0
 72
     2
 10
175.4080552263626
 20
585.7413994588112
 40
0.7741916651371814
 50
343.195602109337
 51
388.6809552685354
 73
     1
 72
     1
 10
176.0872580167354
 20
586.1129587460289
 11
175.2584385174583
 21
587.1563658496156
 72
     2
 10
174.652226135359
 20
586.6748273961588
 40
0.7741916651372709
 50
38.46150445227566
 51
218.4615044522756
 73
     1
 72
     1
 10
174.0460137532597
 20
586.1932889427021
 11
174.4557160421984
 21
585.677511648602
 72
     2
 10
174.3142664863754
 20
585.5651526761286
 40
0.1806447218652677
 50
321.5384955476725
 51
449.9999999999639
 73
     0
 72
     1
 10
174.3142664863755
 20
585.3845079542635
 11
171.9787896285445
 21
585.3845079542635
 72
     2
 10
171.9787896285445
 20
584.6103162891262
 40
0.7741916651373231
 50
90.0
 51
270.0
 73
     1
 72
     1
 10
171.9787896285445
 20
583.8361246239888
 11
174.5078157346594
 21
583.8361246239888
 72
     2
 10
174.5078157346594
 20
583.6554799021235
 40
0.1806447218654057
 50
270.0
 51
360.0
 73
     0
 72
     1
 10
174.6884604565248
 20
583.6554799021235
 11
174.6884604565248
 21
581.9006454611458
 72
     2
 10
174.5078157346594
 20
581.9006454611458
 40
0.1806447218654057
 50
360.0
 51
450.0
 73
     0
 72
     1
 10
174.5078157346594
 20
581.7200007392804
 11
172.1078215727338
 21
581.7200007392804
 72
     2
 10
172.1078215727338
 20
580.9458090741432
 40
0.7741916651372094
 50
90.0
 51
270.0
 73
     1
 72
     1
 10
172.1078215727338
 20
580.1716174090058
 11
174.5078157346594
 21
580.1716174090058
 72
     2
 10
174.5078157346594
 20
579.9909726871406
 40
0.180644721865292
 50
269.9999999999819
 51
360.0
 73
     0
 72
     1
 10
174.6884604565248
 20
579.9909726871406
 11
174.6884604565248
 21
577.7200104694046
 72
     2
 10
174.5078157346594
 20
577.7200104694046
 40
0.1806447218654057
 50
360.0
 51
450.0
 73
     0
 72
     1
 10
174.5078157346594
 20
577.5393657475392
 11
171.7465321290033
 21
577.5393657475392
 72
     2
 10
171.7465321290033
 20
576.765174082402
 40
0.7741916651372094
 50
90.0
 51
270.0
 73
     1
 72
     1
 10
171.7465321290033
 20
575.9909824172648
 11
179.1787721143207
 21
575.9909824172648
 72
     2
 10
179.1787721143207
 20
576.765174082402
 40
0.7741916651372094
 50
270.0
 51
450.0
 73
     1
 72
     1
 10
179.1787721143207
 20
577.5393657475392
 11
176.4174885086645
 21
577.5393657475392
 72
     2
 10
176.4174885086645
 20
577.7200104694045
 40
0.180644721865292
 50
90.00000000001803
 51
180.000000000036
 73
     0
 72
     1
 10
176.2368437867992
 20
577.7200104694046
 11
176.2368437867992
 21
579.9909726871406
 72
     2
 10
176.4174885086645
 20
579.9909726871406
 40
0.180644721865292
 50
180.0
 51
270.0
 73
     0
 72
     1
 10
176.4174885086645
 20
580.1716174090058
 11
178.8174826705901
 21
580.1716174090058
 72
     2
 10
178.8174826705901
 20
580.9458090741432
 40
0.7741916651373231
 50
270.0
 51
450.0
 73
     1
 72
     1
 10
178.8174826705901
 20
581.7200007392804
 11
176.4174885086645
 21
581.7200007392804
 72
     2
 10
176.4174885086645
 20
581.9006454611458
 40
0.1806447218654057
 50
90.00000000001803
 51
180.0
 73
     0
 72
     1
 10
176.2368437867992
 20
581.9006454611458
 11
176.2368437867992
 21
583.6554799021235
 72
     2
 10
176.4174885086645
 20
583.6554799021235
 40
0.1806447218653488
 50
180.0
 51
269.9999999999819
 73
     0
 97
        1
330
31833A86
 92
        1
 93
       15
 72
     1
 10
200.1589820717889
 20
585.1097667579542
 11
191.8023334691547
 21
585.0305568185928
 72
     2
 10
191.7949954891664
 20
585.8047137073547
 40
0.7741916651371596
 50
89.45692830627519
 51
269.4569283062751
 73
     0
 72
     1
 10
191.7876575091781
 20
586.5788705961166
 11
200.6676072648234
 21
586.6630407359805
 72
     2
 10
201.9110890670579
 20
587.0075364103288
 40
1.290319441895348
 50
164.5150768139665
 51
446.7188024496401
 73
     0
 72
     2
 10
200.9562635266212
 20
585.6334748901922
 40
1.032255553518832
 50
355.2289392455997
 51
360.0000000000252
 73
     0
 72
     1
 10
201.9885190801401
 20
585.6334748901917
 11
201.9885190801401
 21
585.1271083409715
 72
     2
 10
186.3323105126035
 20
585.9013347840459
 40
15.67534029280902
 50
2.831068584469339
 51
18.13257172327503
 73
     0
 72
     2
 10
199.7577081501419
 20
581.5047894021081
 40
1.548383330268938
 50
18.13257172329075
 51
25.77377377814393
 73
     0
 72
     2
 10
193.4150961615565
 20
584.5673469339019
 40
8.591676982623184
 50
25.7737737781569
 51
46.961303323272
 73
     0
 72
     2
 10
191.9570778609089
 20
586.7558142670284
 40
11.19448153122146
 50
49.15221128013691
 51
82.35478209661343
 73
     0
 72
     2
 10
193.3433788194408
 20
576.4281518720045
 40
0.7741916651372365
 50
82.35478209661145
 51
262.3547820966114
 73
     0
 72
     2
 10
191.9570778609088
 20
586.7558142670284
 40
9.646098200947015
 50
277.6452179033867
 51
310.669727826386
 73
     1
 72
     2
 10
193.4150961615567
 20
584.5673469339019
 40
7.043293652348564
 50
313.2765557096139
 51
334.2262262218363
 73
     1
 72
     2
 10
186.3323105126064
 20
585.9013347840452
 40
14.12695696253155
 50
341.8674282767269
 51
355.6596123200714
 73
     1
 72
     2
 10
200.1614280651183
 20
584.8517144617001
 40
0.2580638883791418
 50
355.6596123200546
 51
450.5430716937162
 73
     1
 97
        1
330
31833A96
 92
        1
 93
        4
 72
     2
 10
204.661598165779
 20
586.6748273961588
 40
0.7741916651372094
 50
180.0
 51
360.0
 73
     0
 72
     1
 10
205.4357898309163
 20
586.6748273961588
 11
205.4357898309163
 21
580.997421851819
 72
     2
 10
204.661598165779
 20
580.997421851819
 40
0.7741916651372094
 50
360.0
 51
540.0
 73
     0
 72
     1
 10
203.8874065006418
 20
580.997421851819
 11
203.8874065006418
 21
586.6748273961588
 97
        1
330
31833A95
 92
        1
 93
        8
 72
     1
 10
214.0551237027778
 20
586.6748273961588
 11
214.0551237027778
 21
581.3403079720049
 72
     2
 10
208.7198752764246
 20
581.7769188924776
 40
5.353083678290421
 50
4.67838429357078
 51
60.61116887564995
 73
     0
 72
     2
 10
206.136323291924
 20
585.1797587137855
 40
9.603449162566935
 50
57.14160545648081
 51
86.1698445278381
 73
     0
 72
     2
 10
206.7261092728117
 20
576.3702218103682
 40
0.7741916651370817
 50
86.16984452783491
 51
266.1698445278354
 73
     0
 72
     2
 10
206.1363232919231
 20
585.1797587137854
 40
8.055065832292607
 50
273.8301554721674
 51
303.2058183250351
 73
     1
 72
     2
 10
208.7198752764247
 20
581.7769188924777
 40
3.804700348015795
 50
298.7117396778155
 51
354.4500787022754
 73
     1
 72
     1
 10
212.5067403725032
 20
581.4089549237336
 11
212.5067403725032
 21
586.6748273961588
 72
     2
 10
213.2809320376405
 20
586.6748273961588
 40
0.7741916651372663
 50
180.0
 51
360.0
 73
     0
 97
        1
330
31833A94
 92
        1
 93
        4
 72
     2
 10
202.4710426572907
 20
553.3766600140721
 40
36.04571933727476
 50
292.2793779041677
 51
297.6775903109914
 73
     0
 72
     2
 10
218.8545160340909
 20
584.6122561255286
 40
0.7741916651373099
 50
297.6775903109867
 51
477.6775903109907
 73
     0
 72
     2
 10
202.4710426572883
 20
553.3766600140715
 40
34.49733600700175
 50
62.32240968900521
 51
67.72062209582897
 73
     1
 72
     2
 10
215.8432946375696
 20
586.0150352999574
 40
0.7741916651371145
 50
112.2793779041712
 51
292.2793779041681
 73
     0
 97
        1
330
31833A93
 92
        1
 93
        4
 72
     2
 10
215.3378465917189
 20
576.8998120286154
 40
0.77419166513732
 50
85.68345463735786
 51
265.6834546373578
 73
     0
 72
     2
 10
214.5346279181362
 20
587.5411778445805
 40
9.897444885400824
 50
274.3165453626418
 51
345.476834384037
 73
     1
 72
     2
 10
224.8652665003844
 20
584.8650363778895
 40
0.7741916651372048
 50
194.5231656159611
 51
374.5231656159611
 73
     0
 72
     2
 10
214.534627918136
 20
587.5411778445803
 40
11.44582821567538
 50
14.52316561596187
 51
85.68345463735708
 73
     0
 97
        1
330
31833A92
 92
        1
 93
       14
 72
     2
 10
226.6947548461947
 20
586.1276823376813
 40
9.166767024637479
 50
44.43529403939628
 51
79.12073388346765
 73
     0
 72
     2
 10
228.5710122319532
 20
576.3653917307492
 40
0.7741916651372553
 50
100.8792661165293
 51
280.8792661165293
 73
     1
 72
     2
 10
226.6947548461943
 20
586.1276823376816
 40
10.71515035491237
 50
280.8792661165333
 51
315.6092198911109
 73
     1
 72
     2
 10
226.5769201224859
 20
586.1041869406981
 40
10.78337363134779
 50
316.1364203100118
 51
355.6521717581445
 73
     1
 72
     2
 10
236.0426551705613
 20
585.3845079542634
 40
1.290319441895472
 50
355.6521717581441
 51
449.9999999999974
 73
     1
 72
     1
 10
236.0426551705613
 20
586.6748273961588
 11
230.2912026589667
 21
586.6748273961588
 72
     2
 10
230.291202658967
 20
585.6425718426426
 40
1.032255553516279
 50
90.00000000001262
 51
152.8690468028237
 73
     1
 72
     2
 10
224.3412393236117
 20
588.6913791386137
 40
5.653347607010026
 50
27.13095319719201
 51
62.78558091782568
 73
     0
 72
     2
 10
227.2806927900576
 20
582.9753600331878
 40
0.7741916651372789
 50
117.2144190821773
 51
297.2144190821773
 73
     1
 72
     2
 10
224.3412393236116
 20
588.6913791386136
 40
7.201730937284436
 50
297.2144190821765
 51
328.0768204089637
 73
     1
 72
     2
 10
230.8918323615325
 20
584.610316289126
 40
0.5161277767582315
 50
211.9231795910231
 51
269.9999999999842
 73
     0
 72
     1
 10
230.8918323615323
 20
585.1264440658844
 11
235.1668510997567
 21
585.1264440658844
 72
     2
 10
235.1668510997567
 20
584.610316289126
 40
0.5161277767582533
 50
270.0000000000031
 51
369.865610202545
 73
     0
 72
     2
 10
226.5769201224856
 20
586.1041869406979
 40
9.234990301073453
 50
9.865610202551657
 51
43.81937100197855
 73
     0
 97
        1
330
31833A91
 92
        1
 93
       11
 72
     2
 10
243.0097206117827
 20
582.7677571600195
 40
6.512784616994932
 50
1.952985583143863
 51
70.98548319695886
 73
     0
 72
     2
 10
240.4207970487074
 20
590.5528238278911
 40
14.71682634675852
 50
71.3310978399981
 51
88.66945227344725
 73
     0
 72
     2
 10
240.7445499268554
 20
576.613948480897
 40
0.7741916651372182
 50
88.66945227343945
 51
268.6694522734396
 73
     0
 72
     2
 10
240.4207970487078
 20
590.5528238278918
 40
13.16844301648464
 50
271.3305477265499
 51
288.6477690067387
 73
     1
 72
     2
 10
243.0097206117827
 20
582.7677571600194
 40
4.9644012867204
 50
289.0662562538117
 51
350.3404504136948
 73
     1
 72
     2
 10
247.6493323855586
 20
581.9780646276594
 40
0.2580638883791041
 50
350.3404504136951
 51
450.0000000000126
 73
     1
 72
     1
 10
247.6493323855586
 20
582.2361285160385
 11
238.9381027082017
 21
582.2361285160385
 72
     2
 10
238.9381027082017
 20
583.0103201811757
 40
0.7741916651372094
 50
90.0
 51
270.0
 73
     0
 72
     1
 10
238.9381027082017
 20
583.784511846313
 11
248.4864665782278
 21
583.784511846313
 72
     2
 10
248.4864665782278
 20
582.7522562927968
 40
1.032255553516279
 50
269.9999999999968
 51
360.0
 73
     0
 72
     1
 10
249.5187221317442
 20
582.7522562927968
 11
249.5187221317442
 21
582.5458051820935
 97
        1
330
31833A90
 92
        1
 93
        4
 72
     1
 10
247.7122749130907
 20
586.7780529515104
 11
239.9703582617182
 21
586.7780529515104
 72
     2
 10
239.9703582617182
 20
586.0038612863731
 40
0.7741916651372094
 50
90.0
 51
270.0
 73
     1
 72
     1
 10
239.9703582617182
 20
585.2296696212358
 11
247.7122749130907
 21
585.2296696212358
 72
     2
 10
247.7122749130907
 20
586.0038612863731
 40
0.7741916651373231
 50
270.0
 51
450.0
 73
     1
 97
        1
330
31833A8F
 92
        1
 93
        4
 72
     2
 10
251.1952835451859
 20
581.5135496285773
 40
0.7741916651372094
 50
90.0
 51
270.0
 73
     1
 72
     1
 10
251.1952835451859
 20
580.7393579634399
 11
261.5178390803492
 21
580.7393579634399
 72
     2
 10
261.5178390803492
 20
581.5135496285773
 40
0.7741916651373231
 50
270.0
 51
450.0
 73
     1
 72
     1
 10
261.5178390803492
 20
582.2877412937145
 11
251.1952835451859
 21
582.2877412937145
 97
        1
330
31833A8E
 92
        1
 93
       53
 72
     1
 10
273.9841791658114
 20
581.7200007392804
 11
271.5841850038859
 21
581.7200007392804
 72
     2
 10
287.7986554011442
 20
590.4710438745841
 40
18.42524914945548
 50
208.355992291411
 51
225.3643482129412
 73
     1
 72
     2
 10
274.3454686095422
 20
576.84566007516
 40
0.7225788874614488
 50
314.6356517870549
 51
494.6356517870549
 73
     0
 72
     2
 10
287.7986554011449
 20
590.4710438745844
 40
19.87040692437913
 50
134.6356517870592
 51
144.6874491376694
 73
     0
 72
     1
 10
271.5841850038859
 20
578.9852256156693
 11
271.5841850038859
 21
576.3006590833197
 72
     2
 10
270.8616061164245
 20
576.3006590833197
 40
0.7225788874613955
 50
360.0
 51
540.0
 73
     0
 72
     1
 10
270.1390272289632
 20
576.3006590833197
 11
270.1390272289632
 21
578.9852256156693
 72
     2
 10
253.9245568317051
 20
590.4710438745848
 40
19.87040692437855
 50
35.31255086233294
 51
45.48745038578256
 73
     0
 72
     2
 10
267.3484379364059
 20
576.8167868600778
 40
0.7225788874612932
 50
45.48745038577972
 51
225.4874503857797
 73
     0
 72
     2
 10
253.9245568317045
 20
590.4710438745837
 40
18.42524914945565
 50
314.5125496142207
 51
331.6440077085904
 73
     1
 72
     1
 10
270.1390272289632
 20
581.7200007392804
 11
268.1003225107683
 21
581.7200007392804
 72
     2
 10
268.1003225107683
 20
582.4425796267418
 40
0.7225788874615092
 50
90.0
 51
270.0
 73
     0
 72
     1
 10
268.1003225107683
 20
583.1651585142033
 11
270.1390272289632
 21
583.1651585142033
 72
     1
 10
270.1390272289632
 20
583.1651585142033
 11
270.1390272289632
 21
584.3006396230712
 72
     1
 10
270.1390272289632
 20
584.3006396230712
 11
268.5906438986887
 21
584.3006396230714
 72
     2
 10
260.3687284149335
 20
588.051782572008
 40
9.037199104001761
 50
24.52423153182499
 51
28.01954061966569
 73
     0
 72
     2
 10
267.7087706198698
 20
584.1458012900439
 40
0.7225788874615104
 50
28.01954061967087
 51
166.4795610696779
 73
     0
 72
     2
 10
266.5777455693319
 20
584.5587035114499
 40
0.7225788874610437
 50
53.63158366669097
 51
89.99999999999552
 73
     0
 72
     1
 10
266.577745569332
 20
583.8361246239888
 11
266.1293682899615
 21
583.8361246239888
 72
     2
 10
266.1293682899612
 20
583.7587054574753
 40
0.0774191665135504
 50
89.99999999978966
 51
204.2440804458615
 73
     1
 72
     2
 10
283.5241679752621
 20
591.5923296254014
 40
19.15475450707042
 50
204.2440804465094
 51
213.9853002248274
 73
     1
 72
     2
 10
267.0422605651217
 20
580.4812940750609
 40
0.7225788874614453
 50
326.0146997751807
 51
506.0146997751734
 73
     0
 72
     2
 10
283.5241679752602
 20
591.5923296253988
 40
20.59991228199036
 50
146.0146997751759
 51
147.48793074679
 73
     0
 72
     2
 10
266.0874241814116
 20
580.4787342711054
 40
0.0774191665136656
 50
32.51206925314096
 51
180.0
 73
     1
 72
     1
 10
266.0100050148979
 20
580.4787342711054
 11
266.0100050148979
 21
576.3006590833197
 72
     2
 10
265.2874261274364
 20
576.3006590833197
 40
0.7225788874614523
 50
360.0
 51
540.0
 73
     0
 72
     1
 10
264.564847239975
 20
576.3006590833197
 11
264.564847239975
 21
579.5039186244456
 72
     2
 10
264.4874280734613
 20
579.5039186244458
 40
0.077419166513721
 50
359.9999999999158
 51
516.2910909798195
 73
     1
 72
     2
 10
261.2343535480272
 20
580.7872177989495
 40
3.41968699431656
 50
21.47929642627096
 51
33.1666739548579
 73
     0
 72
     2
 10
263.4809789087828
 20
579.2942023148072
 40
0.7225788874614615
 50
31.52494793504553
 51
215.8918837167079
 73
     0
 72
     2
 10
251.3411141557228
 20
586.798574034362
 40
13.55150261751691
 50
328.4994362659303
 51
346.9613336964125
 73
     1
 72
     2
 10
264.4678092416861
 20
583.7587054574751
 40
0.0774191665137122
 50
346.9613336964206
 51
450.0
 73
     1
 72
     1
 10
264.4678092416861
 20
583.8361246239888
 11
263.6358172418102
 21
583.8361246239888
 72
     2
 10
263.6358172418102
 20
584.5587035114504
 40
0.7225788874615092
 50
90.0
 51
270.0
 73
     0
 72
     1
 10
263.6358172418102
 20
585.2812823989117
 11
264.564847239975
 21
585.2812823989117
 72
     1
 10
264.564847239975
 20
585.2812823989117
 11
264.564847239975
 21
586.7264401738345
 72
     2
 10
265.2874261274364
 20
586.7264401738345
 40
0.7225788874614523
 50
180.0
 51
360.0
 73
     0
 72
     1
 10
266.0100050148979
 20
586.7264401738345
 11
266.0100050148979
 21
585.2812823989117
 72
     1
 10
266.0100050148979
 20
585.2812823989117
 11
266.577745569332
 21
585.2812823989117
 72
     2
 10
266.5777455693319
 20
584.5587035114506
 40
0.7225788874611681
 50
270.0000000000089
 51
337.5375207416591
 73
     0
 72
     2
 10
260.3687284149296
 20
588.0517825720112
 40
7.592041329083726
 50
334.9295166386165
 51
349.0217472925316
 73
     1
 72
     2
 10
268.5311872281229
 20
586.4683762854554
 40
0.722578887461361
 50
190.978252707464
 51
370.978252707464
 73
     0
 72
     2
 10
260.3687284149317
 20
588.0517825720103
 40
9.03719910400423
 50
10.9782527074646
 51
14.78341658427783
 73
     0
 72
     1
 10
269.1067716754468
 20
585.7457973979941
 11
270.1390272289632
 21
585.7457973979941
 72
     1
 10
270.1390272289632
 20
585.7457973979941
 11
270.1390272289632
 21
586.7264401738345
 72
     2
 10
270.8616061164245
 20
586.7264401738345
 40
0.7225788874613955
 50
180.0
 51
360.0
 73
     0
 72
     1
 10
271.5841850038859
 20
586.7264401738345
 11
271.5841850038859
 21
585.7457973979941
 72
     1
 10
271.5841850038859
 20
585.7457973979941
 11
273.8293408327839
 21
585.7457973979941
 72
     2
 10
273.8293408327839
 20
585.0232185105325
 40
0.7225788874615092
 50
270.0
 51
450.0
 73
     0
 72
     1
 10
273.8293408327839
 20
584.3006396230712
 11
271.5841850038859
 21
584.3006396230712
 72
     1
 10
271.5841850038859
 20
584.3006396230712
 11
271.5841850038859
 21
583.1651585142033
 72
     1
 10
271.5841850038859
 20
583.1651585142033
 11
273.9841791658114
 21
583.1651585142033
 72
     2
 10
273.9841791658114
 20
582.4425796267418
 40
0.7225788874613955
 50
270.0
 51
450.0
 73
     0
 97
        1
330
31833A8D
 92
       17
 93
       18
 72
     1
 10
276.7399728704242
 20
576.1822355058684
 11
281.6669377414498
 21
577.182770781496
 72
     2
 10
281.3417930890766
 20
577.8825311196612
 40
0.7716110262535248
 50
294.9220052137705
 51
464.7637627083331
 73
     1
 72
     1
 10
281.1451601875605
 20
578.6286672184242
 11
280.5592106791664
 21
578.4742490738412
 72
     2
 10
280.4331639474254
 20
578.9525414448432
 40
0.4946224527266198
 50
75.23623729167391
 51
180.0
 73
     0
 72
     1
 10
279.9385414946988
 20
578.9525414448432
 11
279.9385414946987
 21
581.1046516712028
 72
     2
 10
280.4331639474253
 20
581.1046516712028
 40
0.4946224527266168
 50
180.0
 51
269.2527061231796
 73
     0
 72
     1
 10
280.4267128989584
 20
581.5992320536635
 11
281.1608044512784
 21
581.6088071608676
 72
     2
 10
281.1513803109093
 20
582.3313245891579
 40
0.7225788874613811
 50
270.7472938768251
 51
450.7472938768249
 73
     1
 72
     1
 10
281.1419561705404
 20
583.0538420174483
 11
276.5470596251422
 21
582.9939085842474
 72
     2
 10
276.5567361978424
 20
582.2520380105565
 40
0.7419336790897783
 50
90.74729387682483
 51
252.1576573741625
 73
     1
 72
     1
 10
276.3294085625896
 20
581.545788953624
 11
277.8890846632308
 21
581.5661325549366
 72
     2
 10
277.8955357116977
 20
581.071552172476
 40
0.494622452726557
 50
269.252706123173
 51
360.0
 73
     0
 72
     1
 10
278.3901581644243
 20
581.071552172476
 11
278.3901581644243
 21
578.4175842462491
 72
     2
 10
277.8955357116977
 20
578.417584246249
 40
0.49462245272656
 50
359.9999999999868
 51
441.4726877161699
 73
     0
 72
     1
 10
277.9688787482186
 20
577.9284297003894
 11
276.4719984080335
 21
577.7039898983129
 72
     2
 10
276.586413545006
 20
576.9409088067719
 40
0.7716110262533399
 50
98.52731228381886
 51
180.0
 73
     1
 72
     1
 10
275.8148025187526
 20
576.9409088067719
 11
275.8148025187526
 21
576.9384121448974
 72
     2
 10
276.5864135450061
 20
576.9384121448972
 40
0.7716110262534244
 50
179.9999999999915
 51
281.4791494176426
 73
     1
 97
        1
330
31833A8B
 92
        1
 93
       35
 72
     2
 10
285.1017739316554
 20
585.815393133809
 40
0.0516127776757643
 50
270.7472938768348
 51
425.3037560024905
 73
     1
 72
     2
 10
287.1029794981975
 20
590.1670775047486
 40
4.738165983795252
 50
114.6962439975611
 51
124.7447906906953
 73
     0
 72
     2
 10
284.7702849518934
 20
586.8038593403483
 40
0.6451597209477212
 50
124.7447906906983
 51
304.7447906906983
 73
     0
 72
     2
 10
287.1029794981978
 20
590.1670775047493
 40
3.447846541900605
 50
235.2552093093068
 51
254.4100633419994
 73
     1
 72
     2
 10
286.0029814124361
 20
586.2246538239364
 40
0.6451597209476259
 50
285.5899366580105
 51
394.0341302999878
 73
     0
 72
     2
 10
286.5803997935247
 20
585.8346795580941
 40
0.0516127776759614
 50
145.9658696999725
 51
270.74729387677
 73
     1
 72
     1
 10
286.5810729464082
 20
585.7830711703591
 11
286.7412693954829
 21
585.7851606892601
 72
     2
 10
286.7513666887353
 20
585.0110348732348
 40
0.7741916651371446
 50
269.2527061231784
 51
449.2527061231785
 73
     0
 72
     1
 10
286.7614639819878
 20
584.2369090572094
 11
284.1059414749135
 21
584.202271807117
 72
     2
 10
284.109307239331
 20
583.944229868442
 40
0.2580638883790482
 50
90.74729387682156
 51
186.8667955861607
 73
     1
 72
     2
 10
317.7931787238898
 20
588.0006210350568
 40
34.18530231836129
 50
186.8667955861627
 51
193.2804591616723
 73
     1
 72
     2
 10
294.002961952187
 20
583.57806073561
 40
10.08239894343
 50
199.8913601546187
 51
213.7795305643051
 73
     1
 72
     2
 10
285.7513407739711
 20
578.0583499094493
 40
0.1548383330274437
 50
213.7795305642779
 51
347.3542134402989
 73
     1
 72
     2
 10
274.3397595770253
 20
580.618717162309
 40
11.85012224937602
 50
347.3542134403437
 51
354.3353366174936
 73
     1
 72
     2
 10
286.9062050217628
 20
579.4490385215445
 40
0.7741916651372094
 50
180.0
 51
360.0
 73
     0
 72
     1
 10
287.6803966869
 20
579.4490385215445
 11
287.6803966869
 21
578.8605542707086
 72
     2
 10
278.4356894236011
 20
579.7590703309678
 40
9.28826913340881
 50
5.551283092637619
 51
16.23808352675581
 73
     0
 72
     2
 10
284.5543611068914
 20
578.019145010345
 40
2.927428527346556
 50
17.02967716515854
 51
20.89995805450743
 73
     0
 72
     2
 10
285.0870968316981
 20
577.7216232509728
 40
2.325269153935812
 50
18.73355423004363
 51
44.47925821960585
 73
     0
 72
     2
 10
286.1245302506615
 20
576.6237659085654
 40
0.817791670176687
 50
40.5213461604312
 51
107.8431040350108
 73
     0
 72
     2
 10
286.6287678034329
 20
579.0759294797655
 40
3.317626910586343
 50
103.1509632605596
 51
120.7464615745546
 73
     0
 72
     2
 10
285.7242596966971
 20
577.5553743405735
 40
1.548383330274743
 50
120.7464615745483
 51
147.7173278579019
 73
     0
 72
     2
 10
294.9685101112009
 20
583.3954345963006
 40
12.48284580067428
 50
147.7173278579104
 51
161.9763825330148
 73
     0
 72
     2
 10
294.0029619521942
 20
583.578060735611
 40
11.63078227371145
 50
159.6485284184458
 51
160.5599651718295
 73
     0
 72
     2
 10
317.7931787238899
 20
588.0006210350577
 40
35.73368564863595
 50
166.5797056495733
 51
173.4854501599817
 73
     0
 72
     2
 10
282.0338251595206
 20
583.9171583630531
 40
0.2580638883790736
 50
6.51454984004374
 51
90.74729387684678
 73
     1
 72
     1
 10
282.0304593951031
 20
584.1752003017282
 11
276.593746779852
 21
584.1042866589206
 72
     2
 10
276.5836494865995
 20
584.8784124749459
 40
0.7741916651372591
 50
89.25270612317435
 51
269.2527061231743
 73
     0
 72
     1
 10
276.573552193347
 20
585.6525382909714
 11
281.8575578421011
 21
585.7214601037811
 72
     2
 10
281.8541920776836
 20
585.9795020424562
 40
0.2580638883790489
 50
270.7472938768341
 51
364.2803464377843
 73
     1
 72
     1
 10
282.1115361727206
 20
585.9987630713722
 11
282.0652606488843
 21
586.6170443094112
 72
     2
 10
282.8372929339954
 20
586.6748273961588
 40
0.7741916651372172
 50
175.7196535622327
 51
355.7196535622243
 73
     0
 72
     1
 10
283.6093252191064
 20
586.7326104829065
 11
283.6651144083928
 21
585.9872184017023
 72
     2
 10
283.9224585034297
 20
586.0064794306182
 40
0.2580638883789458
 50
184.2803464377862
 51
270.7472938768345
 73
     1
 72
     1
 10
283.9258242678472
 20
585.7484374919432
 11
285.102447084539
 21
585.7637847460741
 97
        1
330
31833A8C
 92
        1
 93
       22
 72
     2
 10
299.372187538328
 20
576.3522718609954
 40
0.7741916651372649
 50
324.2455986461042
 51
504.2455986461109
 73
     0
 72
     2
 10
290.0444851641318
 20
569.6361990683579
 40
10.71979221068197
 50
35.75440135389891
 51
40.77907381779801
 73
     1
 72
     2
 10
298.0446237982544
 20
576.5366361756564
 40
0.1548383330276135
 50
40.77907381774929
 51
93.6913859864005
 73
     1
 72
     1
 10
298.0346549536528
 20
576.6911532669832
 11
289.8746119501131
 21
576.1646988796579
 72
     2
 10
289.8247677271045
 20
576.9372843362909
 40
0.7741916651372503
 50
86.30861401354952
 51
266.3086140135495
 73
     0
 72
     1
 10
289.774923504096
 20
577.7098697929237
 11
290.7612580434996
 21
577.7735042793368
 72
     2
 10
290.7512891988978
 20
577.9280213706633
 40
0.1548383330273849
 50
273.6913859864688
 51
337.2702679200689
 73
     1
 72
     1
 10
290.8941024323798
 20
577.8681942052858
 11
291.7993513956162
 21
580.029111085269
 72
     2
 10
291.6565381621341
 20
580.0889382506466
 40
0.1548383330274336
 50
337.270267920077
 51
450.000000000021
 73
     1
 72
     1
 10
291.6565381621341
 20
580.243776583674
 11
289.3086399503463
 21
580.243776583674
 72
     2
 10
289.3086399503463
 20
581.0179682488112
 40
0.7741916651372094
 50
90.0
 51
270.0
 73
     0
 72
     1
 10
289.3086399503463
 20
581.7921599139484
 11
299.1150677087514
 21
581.7921599139484
 72
     2
 10
299.1150677087514
 20
581.0179682488112
 40
0.7741916651372094
 50
270.0
 51
450.0
 73
     0
 72
     1
 10
299.1150677087514
 20
580.243776583674
 11
293.6534900726992
 21
580.243776583674
 72
     2
 10
293.6534900726993
 20
580.0889382506466
 40
0.1548383330274419
 50
90.00000000002101
 51
158.9993499433518
 73
     1
 72
     1
 10
293.5089366652814
 20
580.1444289866175
 11
292.7320462573232
 21
578.1206289108824
 72
     2
 10
292.8765996647411
 20
578.0651381749114
 40
0.1548383330275591
 50
158.9993499433744
 51
273.6913859864634
 73
     1
 72
     1
 10
292.8865685093429
 20
577.9106210835847
 11
296.422611495868
 21
578.1387528891671
 72
     2
 10
296.4192885476675
 20
578.1902585862759
 40
0.0516127776757925
 50
273.6913859864269
 51
413.3051504477283
 73
     1
 72
     2
 10
290.0444851641254
 20
569.6361990683621
 40
10.71979221068265
 50
53.30515044767741
 51
53.98205344655686
 73
     1
 72
     2
 10
296.8033916838996
 20
578.9329107447863
 40
0.7741916651372138
 50
126.0179465534102
 51
306.0179465534103
 73
     0
 72
     2
 10
290.0444851641314
 20
569.636199068359
 40
12.26817554095611
 50
306.0179465534075
 51
324.2455986461073
 73
     0
 97
        1
330
31833A89
 92
        1
 93
       12
 72
     2
 10
280.8229994361381
 20
603.1101399882031
 40
20.42447937900951
 50
292.8374195160417
 51
309.1951240259334
 73
     1
 72
     2
 10
294.2118538295488
 20
586.6748273961588
 40
0.7741916651372327
 50
231.5580096528812
 51
308.4419903471187
 73
     0
 72
     2
 10
307.6007082229594
 20
603.1101399882044
 40
20.42447937901046
 50
230.8048759740694
 51
247.1625804839609
 73
     1
 72
     2
 10
299.3731315971306
 20
583.5732355019736
 40
0.7741916651373049
 50
292.8374195160369
 51
465.4499948569647
 73
     0
 72
     2
 10
307.8915617399514
 20
602.8809756704298
 40
21.86963715393388
 50
113.5119284300984
 51
117.569091626212
 73
     0
 72
     2
 10
297.7460148231329
 20
583.448809648014
 40
0.0516127776757951
 50
62.43090837378157
 51
176.7670415228801
 73
     1
 72
     2
 10
296.9215246575293
 20
583.4953815772504
 40
0.7741916651372402
 50
3.232958477211996
 51
90.00000000000417
 73
     0
 72
     1
 10
296.9215246575292
 20
582.7211899121132
 11
291.5021830015685
 21
582.7211899121132
 72
     2
 10
291.5021830015685
 20
583.4953815772504
 40
0.7741916651372094
 50
89.99999999999582
 51
176.767041522788
 73
     0
 72
     2
 10
290.677692835965
 20
583.448809648014
 40
0.0516127776757508
 50
3.23295847712337
 51
117.5690916261625
 73
     1
 72
     2
 10
280.5321459191466
 20
602.8809756704296
 40
21.86963715393363
 50
62.4309083737879
 51
66.48807156990158
 73
     0
 72
     2
 10
289.0505760619674
 20
583.5732355019736
 40
0.7741916651371624
 50
74.55000514304342
 51
247.1625804839598
 73
     0
 97
        1
330
31833A8A
 92
       16
 93
        6
 72
     1
 10
294.1796454598047
 20
585.7921844454063
 11
292.1698171612526
 21
584.3648843629921
 72
     1
 10
292.1698171612526
 20
584.3648843629921
 11
292.1972822963282
 21
584.2695732423876
 72
     1
 10
292.1972822963282
 20
584.2695732423876
 11
296.2264253627698
 21
584.2695732423876
 72
     1
 10
296.2264253627698
 20
584.2695732423876
 11
296.253890497845
 21
584.3648843629921
 72
     1
 10
296.253890497845
 20
584.3648843629921
 11
294.2440621992929
 21
585.7921844454063
 72
     1
 10
294.2440621992929
 20
585.7921844454063
 11
294.1796454598047
 21
585.7921844454063
 97
        1
330
31833A88
 92
        1
 93
       46
 72
     2
 10
303.8400776327467
 20
586.6748273961588
 40
0.7741916651371526
 50
180.0
 51
360.0
 73
     0
 72
     1
 10
304.6142692978838
 20
586.6748273961588
 11
304.6142692978838
 21
585.4619271207771
 72
     2
 10
304.7691076309114
 20
585.4619271207772
 40
0.1548383330275556
 50
180.000000000042
 51
270.000000000042
 73
     1
 72
     1
 10
304.7691076309115
 20
585.3070887877496
 11
306.1414005099984
 21
585.3070887877496
 72
     2
 10
306.1414005099984
 20
584.7909610109915
 40
0.5161277767581396
 50
270.0
 51
359.6204581346191
 73
     0
 72
     2
 10
307.2413339301113
 20
584.2859210185848
 40
0.7741916651372299
 50
221.0533172235576
 51
270.0
 73
     0
 72
     1
 10
307.2413339301113
 20
585.060112683722
 11
308.3045829017049
 21
585.060112683722
 72
     2
 10
308.3045829017049
 20
585.2149510167495
 40
0.1548383330274419
 50
270.0
 51
360.0
 73
     1
 72
     1
 10
308.4594212347324
 20
585.2149510167495
 11
308.4594212347324
 21
586.6748273961588
 72
     2
 10
309.2336128998695
 20
586.6748273961588
 40
0.7741916651371526
 50
180.0
 51
360.0
 73
     0
 72
     1
 10
310.0078045650067
 20
586.6748273961588
 11
310.0078045650067
 21
585.2149510167495
 72
     2
 10
310.1626428980341
 20
585.2149510167495
 40
0.1548383330274419
 50
180.0
 51
270.0
 73
     1
 72
     1
 10
310.1626428980341
 20
585.060112683722
 11
311.7110262283087
 21
585.060112683722
 72
     2
 10
311.7110262283087
 20
584.2859210185848
 40
0.7741916651372094
 50
270.0
 51
450.0
 73
     0
 72
     1
 10
311.7110262283087
 20
583.5117293534477
 11
310.1626428980341
 21
583.5117293534477
 72
     2
 10
310.1626428980342
 20
583.3568910204201
 40
0.1548383330275556
 50
90.00000000002101
 51
180.0
 73
     1
 72
     1
 10
310.0078045650067
 20
583.3568910204201
 11
310.0078045650067
 21
577.6942040805668
 72
     2
 10
310.1626428980342
 20
577.6942040805668
 40
0.1548383330274987
 50
180.0
 51
269.9999999999789
 73
     1
 72
     1
 10
310.1626428980341
 20
577.5393657475392
 11
311.9690901166877
 21
577.5393657475392
 72
     2
 10
311.9690901166877
 20
576.765174082402
 40
0.7741916651372094
 50
270.0
 51
450.0
 73
     0
 72
     1
 10
311.9690901166877
 20
575.9909824172648
 11
306.1368462393205
 21
575.9909824172648
 72
     2
 10
306.1368462393205
 20
576.765174082402
 40
0.7741916651372094
 50
90.0
 51
270.0
 73
     0
 72
     1
 10
306.1368462393205
 20
577.5393657475392
 11
308.3045829017049
 21
577.5393657475392
 72
     2
 10
308.3045829017049
 20
577.6942040805668
 40
0.1548383330275556
 50
270.000000000021
 51
360.0
 73
     1
 72
     1
 10
308.4594212347324
 20
577.6942040805668
 11
308.4594212347324
 21
583.3568910204201
 72
     2
 10
308.3045829017049
 20
583.3568910204201
 40
0.1548383330274987
 50
0.0
 51
89.99999999997896
 73
     1
 72
     1
 10
308.3045829017049
 20
583.5117293534477
 11
307.2413339301113
 21
583.5117293534477
 72
     2
 10
307.2413339301113
 20
584.2859210185848
 40
0.7741916651372094
 50
90.0
 51
178.7572795963297
 73
     0
 72
     2
 10
295.0589192347125
 20
589.7841960178935
 40
12.67152933537448
 50
25.80011007782308
 51
36.34303215226481
 73
     0
 72
     1
 10
305.2656260440382
 20
582.274815763457
 11
307.3960940443213
 21
580.7049972369325
 72
     2
 10
306.9368442932957
 20
580.0817297176833
 40
0.7741916651372662
 50
306.3843518158319
 51
486.3843518158368
 73
     0
 72
     1
 10
306.4775945422701
 20
579.4584621984344
 11
304.8609575811165
 21
580.649668380337
 72
     2
 10
304.7691076309114
 20
580.5250148764871
 40
0.1548383330275332
 50
53.61564818418461
 51
180.0
 73
     1
 72
     1
 10
304.6142692978838
 20
580.5250148764871
 11
304.6142692978838
 21
576.3522718609956
 72
     2
 10
303.8400776327467
 20
576.3522718609956
 40
0.7741916651371526
 50
360.0
 51
540.0
 73
     0
 72
     1
 10
303.0658859676095
 20
576.3522718609956
 11
303.0658859676095
 21
579.6422145962481
 72
     2
 10
302.9110476345822
 20
579.642214596248
 40
0.154838333027385
 50
0.0000000000420682
 51
127.7477654900688
 73
     1
 72
     2
 10
295.0589192347072
 20
589.7841960178986
 40
12.67152933538242
 50
52.25223450996091
 51
57.12148604690852
 73
     0
 72
     2
 10
301.5175026373349
 20
579.7925322890128
 40
0.7741916651373283
 50
57.12148604690456
 51
237.1214860469
 73
     0
 72
     2
 10
295.0589192347063
 20
589.7841960178975
 40
11.12314600510739
 50
302.8785139530977
 51
325.7037825309355
 73
     1
 72
     2
 10
304.1202275264595
 20
583.6038671244478
 40
0.1548383330274851
 50
325.7037825309157
 51
449.9999999999789
 73
     1
 72
     1
 10
304.1202275264596
 20
583.7587054574752
 11
301.7755665257141
 21
583.7587054574752
 72
     2
 10
301.7755665257141
 20
584.5328971226124
 40
0.7741916651372094
 50
90.0
 51
270.0
 73
     0
 72
     1
 10
301.7755665257141
 20
585.3070887877496
 11
302.911047634582
 21
585.3070887877496
 72
     2
 10
302.911047634582
 20
585.4619271207771
 40
0.1548383330274419
 50
269.9999999999789
 51
360.0
 73
     1
 72
     1
 10
303.0658859676095
 20
585.4619271207771
 11
303.0658859676095
 21
586.6748273961588
 97
        1
330
31833A87
 92
       16
 93
        1
 72
     2
 10
201.9110890670581
 20
587.0075364103287
 40
0.3870958325686231
 50
0.0
 51
360.0
 73
     1
 97
        1
330
31833A84
 92
       33
 93
       16
 72
     2
 10
176.1591729102973
 20
589.7393360706603
 40
14.89875516665509
 50
291.0642306470734
 51
315.3513896006456
 73
     1
 72
     2
 10
186.9421898283666
 20
579.0877770292957
 40
0.2580638883790463
 50
224.6486103993359
 51
313.0250659891198
 73
     0
 72
     1
 10
187.1182715291665
 20
579.2764359944384
 11
190.5812113225508
 21
576.0443588539462
 72
     2
 10
191.1094564249506
 20
576.6103357493745
 40
0.7741916651372602
 50
226.9749340108828
 51
406.9749340108885
 73
     1
 72
     1
 10
191.6377015273503
 20
577.176312644803
 11
188.1145462499947
 21
580.464590903668
 72
     2
 10
188.2906279507947
 20
580.6532498688109
 40
0.258063888379168
 50
133.0250659891118
 51
216.8320803032257
 73
     0
 72
     2
 10
176.1591729103032
 20
589.739336070659
 40
14.89875516664956
 50
323.1679196967589
 51
324.0729534105738
 73
     1
 72
     2
 10
179.3659361094082
 20
587.0670334047349
 40
10.73775821432202
 50
325.5797402083247
 51
351.5603004662469
 73
     1
 72
     2
 10
188.9663366821461
 20
585.6425718426423
 40
1.032255553516466
 50
351.5603004662494
 51
450.0
 73
     1
 72
     1
 10
188.9663366821461
 20
586.6748273961588
 11
182.2881902593006
 21
586.6748273961588
 72
     2
 10
182.2881902593006
 20
585.9006357310216
 40
0.7741916651373231
 50
90.0
 51
270.0
 73
     1
 72
     1
 10
182.2881902593006
 20
585.1264440658844
 11
188.0223926643584
 21
585.1264440658844
 72
     2
 10
188.0223926643584
 20
584.8683801775052
 40
0.2580638883790698
 50
270.0000000000126
 51
374.2512020763084
 73
     0
 72
     2
 10
179.3659361094085
 20
587.0670334047347
 40
9.189374884047165
 50
14.25120207629168
 51
34.29476563517253
 73
     0
 72
     2
 10
176.1591729102972
 20
589.7393360706603
 40
13.35037183638063
 50
36.0154362736242
 51
68.84797155758054
 73
     0
 72
     2
 10
181.2559347057844
 20
576.5663973966791
 40
0.7741916651371679
 50
111.1520284424168
 51
289.4628757958994
 73
     1
 97
        1
330
31833A97
 75
     0
 76
     1
 52
315.0
 41
8.0
 77
     0
 78
     1
 53
0.0
 43
22.77941320270997
 44
-43.7556331271744
 45
0.0000000000000003
 46
1.0
 79
     0
 98
        1
 10
22.77941320270997
 20
-43.7556331271744
  0
LINE
  5
31833C76
330
318324AF
100
AcDbEntity
  8
JISSEN
100
AcDbLine
 10
426.5946209271191
 20
494.1879231420953
 30
0.0
 11
414.5946209271191
 21
494.1879231420953
 31
0.0
  0
LINE
  5
31833C77
330
318324AF
100
AcDbEntity
  8
JISSEN
100
AcDbLine
 10
426.5946209271191
 20
727.1879231420953
 30
0.0
 11
514.594620927119
 21
727.1879231420953
 31
0.0
  0
LINE
  5
31833C78
330
318324AF
100
AcDbEntity
  8
JISSEN
100
AcDbLine
 10
48.84787955716252
 20
424.7047485090704
 30
0.0
 11
48.84787955716252
 21
336.7047485090704
 31
0.0
  0
LINE
  5
31833C79
330
318324AF
100
AcDbEntity
  8
JISSEN
100
AcDbLine
 10
383.8478795571625
 20
336.7047485090704
 30
0.0
 11
383.8478795571625
 21
424.7047485090704
 31
0.0
  0
LINE
  5
31833C7A
330
318324AF
100
AcDbEntity
  8
JISSEN
100
AcDbLine
 10
43.84787955716251
 20
424.7047485090704
 30
0.0
 11
43.84787955716251
 21
436.7047485090704
 31
0.0
  0
LINE
  5
31833C7B
330
318324AF
100
AcDbEntity
  8
JISSEN
100
AcDbLine
 10
383.8478795571625
 20
424.7047485090704
 30
0.0
 11
383.8478795571625
 21
336.7047485090704
 31
0.0
  0
LINE
  5
31833C7C
330
318324AF
100
AcDbEntity
  8
JISSEN
100
AcDbLine
 10
46.84787955716251
 20
439.7047485090704
 30
0.0
 11
385.8478795571625
 21
439.7047485090704
 31
0.0
  0
LINE
  5
31833C7D
330
318324AF
100
AcDbEntity
  8
JISSEN
100
AcDbLine
 10
388.8478795571625
 20
436.7047485090704
 30
0.0
 11
388.8478795571625
 21
429.7047485090704
 31
0.0
  0
ARC
  5
31833C7E
330
318324AF
100
AcDbEntity
  8
JISSEN
100
AcDbCircle
 10
381.8478795571625
 20
336.7047485090704
 30
0.0
 40
2.0
100
AcDbArc
 50
270.0
 51
0.0
  0
ARC
  5
31833C7F
330
318324AF
100
AcDbEntity
  8
JISSEN
100
AcDbCircle
 10
50.84787955716251
 20
336.7047485090704
 30
0.0
 40
2.0
100
AcDbArc
 50
180.0
 51
270.0
  0
LINE
  5
31833C80
330
318324AF
100
AcDbEntity
  8
JISSEN
100
AcDbLine
 10
50.84787955716251
 20
334.7047485090704
 30
0.0
 11
381.8478795571625
 21
334.7047485090704
 31
0.0
  0
LINE
  5
31833C81
330
318324AF
100
AcDbEntity
  8
JISSEN
100
AcDbLine
 10
48.84787955716252
 20
336.7047485090704
 30
0.0
 11
48.84787955716252
 21
424.7047485090704
 31
0.0
  0
ARC
  5
31833C82
330
318324AF
100
AcDbEntity
  8
JISSEN
100
AcDbCircle
 10
514.594620927119
 20
725.1879231420953
 30
0.0
 40
2.0
100
AcDbArc
 50
0.0
 51
90.0
  0
LINE
  5
31833C83
330
318324AF
100
AcDbEntity
  8
JISSEN
100
AcDbLine
 10
516.5946209271189
 20
725.1879231420953
 30
0.0
 11
516.5946209271189
 21
498.1879231420953
 31
0.0
  0
ARC
  5
31833C84
330
318324AF
100
AcDbEntity
  8
JISSEN
100
AcDbCircle
 10
514.594620927119
 20
498.1879231420953
 30
0.0
 40
2.0
100
AcDbArc
 50
270.0
 51
0.0
  0
LINE
  5
31833C85
330
318324AF
100
AcDbEntity
  8
JISSEN
100
AcDbLine
 10
514.594620927119
 20
496.1879231420953
 30
0.0
 11
426.5946209271191
 21
496.1879231420953
 31
0.0
  0
ARC
  5
31833C86
330
318324AF
100
AcDbEntity
  8
JISSEN
100
AcDbCircle
 10
385.8478795571625
 20
436.7047485090704
 30
0.0
 40
3.0
100
AcDbArc
 50
0.0
 51
90.0
  0
ARC
  5
31833C87
330
318324AF
100
AcDbEntity
  8
JISSEN
100
AcDbCircle
 10
46.84787955716251
 20
436.7047485090704
 30
0.0
 40
3.0
100
AcDbArc
 50
90.0
 51
180.0
  0
ARC
  5
31833C88
330
318324AF
100
AcDbEntity
  8
JISSEN
100
AcDbCircle
 10
414.5946209271191
 20
726.1879231420953
 30
0.0
 40
3.0
100
AcDbArc
 50
90.0
 51
180.0
  0
LINE
  5
31833C89
330
318324AF
100
AcDbEntity
  8
JISSEN
100
AcDbLine
 10
414.5946209271191
 20
729.1879231420953
 30
0.0
 11
426.5946209271191
 21
729.1879231420955
 31
0.0
  0
ARC
  5
31833C8A
330
318324AF
100
AcDbEntity
  8
JISSEN
100
AcDbCircle
 10
414.5946209271191
 20
497.1879231420953
 30
0.0
 40
3.0
100
AcDbArc
 50
180.0
 51
270.0
  0
LINE
  5
31833C8B
330
318324AF
100
AcDbEntity
  8
JISSEN
100
AcDbLine
 10
411.5946209271191
 20
497.1879231420953
 30
0.0
 11
411.5946209271191
 21
726.1879231420953
 31
0.0
  0
LINE
  5
31833C8C
330
318324AF
100
AcDbEntity
  8
JISSEN
100
AcDbLine
 10
388.8478795571625
 20
424.7047485090704
 30
0.0
 11
388.8478795571625
 21
438.7031336616255
 31
0.0
  0
LINE
  5
31833C8D
330
318324AF
100
AcDbEntity
  8
JISSEN
100
AcDbLine
 10
385.3478795571625
 20
409.2196004772331
 30
0.0
 11
385.3478795571625
 21
389.7047485090704
 31
0.0
  0
LINE
  5
31833C8E
330
318324AF
100
AcDbEntity
  8
JISSEN
100
AcDbLine
 10
385.3478795571625
 20
389.7047485090704
 30
0.0
 11
383.8478795571625
 21
389.7047485090704
 31
0.0
  0
LINE
  5
31833C9D
330
318324AF
100
AcDbEntity
  8
JISSEN
100
AcDbLine
 10
45.84787955716251
 20
494.1879231420953
 30
0.0
 11
386.8478795571625
 21
494.1879231420953
 31
0.0
  0
ARC
  5
31833C9E
330
318324AF
100
AcDbEntity
  8
JISSEN
100
AcDbCircle
 10
45.84787955716251
 20
496.1879231420953
 30
0.0
 40
2.0
100
AcDbArc
 50
180.0
 51
270.0
  0
LINE
  5
31833C9F
330
318324AF
100
AcDbEntity
  8
JISSEN
100
AcDbLine
 10
45.84787955716251
 20
729.1879231420953
 30
0.0
 11
386.8478795571622
 21
729.1879231420953
 31
0.0
  0
LINE
  5
31833CA0
330
318324AF
100
AcDbEntity
  8
JISSEN
100
AcDbLine
 10
43.84787955716251
 20
727.1879231420953
 30
0.0
 11
43.84787955716251
 21
496.1879231420953
 31
0.0
  0
ARC
  5
31833CA1
330
318324AF
100
AcDbEntity
  8
JISSEN
100
AcDbCircle
 10
45.84787955716251
 20
727.1879231420953
 30
0.0
 40
2.0
100
AcDbArc
 50
90.0
 51
180.0
  0
LINE
  5
31833CA8
330
318324AF
100
AcDbEntity
  8
JISSEN
100
AcDbLine
 10
43.84787955716251
 20
554.1879231420953
 30
0.0
 11
41.84787955716251
 21
554.1879231420953
 31
0.0
  0
LINE
  5
31833CA9
330
318324AF
100
AcDbEntity
  8
JISSEN
100
AcDbLine
 10
41.84787955716251
 20
514.1879231420952
 30
0.0
 11
43.84787955716251
 21
514.1879231420952
 31
0.0
  0
LINE
  5
31833CAA
330
318324AF
100
AcDbEntity
  8
JISSEN
100
AcDbLine
 10
41.84787955716251
 20
544.1879231420953
 30
0.0
 11
43.84787955716251
 21
544.1879231420953
 31
0.0
  0
LINE
  5
31833CAB
330
318324AF
100
AcDbEntity
  8
JISSEN
100
AcDbLine
 10
43.84787955716251
 20
524.1879231420953
 30
0.0
 11
41.84787955716251
 21
524.1879231420953
 31
0.0
  0
LINE
  5
31833CAC
330
318324AF
100
AcDbEntity
  8
JISSEN
100
AcDbLine
 10
41.84787955716251
 20
669.1879231420953
 30
0.0
 11
43.84787955716251
 21
669.1879231420953
 31
0.0
  0
LINE
  5
31833CAD
330
318324AF
100
AcDbEntity
  8
JISSEN
100
AcDbLine
 10
43.84787955716251
 20
709.1879231420953
 30
0.0
 11
41.84787955716251
 21
709.1879231420953
 31
0.0
  0
LINE
  5
31833CAE
330
318324AF
100
AcDbEntity
  8
ITTEN
100
AcDbLine
 10
71.84787955716251
 20
549.1879231420953
 30
0.0
 11
71.84787955716251
 21
509.1879231420953
 31
0.0
  0
LINE
  5
31833CAF
330
318324AF
100
AcDbEntity
  8
ITTEN
100
AcDbLine
 10
91.84787955716251
 20
529.1879231420953
 30
0.0
 11
51.84787955716251
 21
529.1879231420953
 31
0.0
  0
LINE
  5
31833CB0
330
318324AF
100
AcDbEntity
  8
ITTEN
100
AcDbLine
 10
126.8478795571625
 20
549.1879231420953
 30
0.0
 11
126.8478795571625
 21
509.1879231420953
 31
0.0
  0
LINE
  5
31833CB1
330
318324AF
100
AcDbEntity
  8
ITTEN
100
AcDbLine
 10
146.8478795571625
 20
529.1879231420953
 30
0.0
 11
106.8478795571625
 21
529.1879231420953
 31
0.0
  0
LINE
  5
31833CB2
330
318324AF
100
AcDbEntity
  8
ITTEN
100
AcDbLine
 10
181.8478795571625
 20
549.1879231420953
 30
0.0
 11
181.8478795571625
 21
509.1879231420953
 31
0.0
  0
LINE
  5
31833CB3
330
318324AF
100
AcDbEntity
  8
ITTEN
100
AcDbLine
 10
201.8478795571625
 20
529.1879231420953
 30
0.0
 11
161.8478795571625
 21
529.1879231420953
 31
0.0
  0
LINE
  5
31833CB4
330
318324AF
100
AcDbEntity
  8
ITTEN
100
AcDbLine
 10
236.8478795571625
 20
549.1879231420953
 30
0.0
 11
236.8478795571625
 21
509.1879231420953
 31
0.0
  0
LINE
  5
31833CB5
330
318324AF
100
AcDbEntity
  8
ITTEN
100
AcDbLine
 10
256.8478795571625
 20
529.1879231420953
 30
0.0
 11
216.8478795571625
 21
529.1879231420953
 31
0.0
  0
LINE
  5
31833CB6
330
318324AF
100
AcDbEntity
  8
ITTEN
100
AcDbLine
 10
291.8478795571625
 20
549.1879231420953
 30
0.0
 11
291.8478795571625
 21
509.1879231420953
 31
0.0
  0
LINE
  5
31833CB7
330
318324AF
100
AcDbEntity
  8
ITTEN
100
AcDbLine
 10
311.8478795571625
 20
529.1879231420953
 30
0.0
 11
271.8478795571625
 21
529.1879231420953
 31
0.0
  0
LINE
  5
31833CBC
330
318324AF
100
AcDbEntity
  8
ITTEN
100
AcDbLine
 10
71.84787955716251
 20
604.1879231420953
 30
0.0
 11
71.84787955716251
 21
564.1879231420952
 31
0.0
  0
LINE
  5
31833CC1
330
318324AF
100
AcDbEntity
  8
ITTEN
100
AcDbLine
 10
91.84787955716251
 20
584.1879231420953
 30
0.0
 11
51.84787955716251
 21
584.1879231420953
 31
0.0
  0
LINE
  5
31833CC6
330
318324AF
100
AcDbEntity
  8
ITTEN
100
AcDbLine
 10
71.84787955716251
 20
659.1879231420953
 30
0.0
 11
71.84787955716251
 21
619.1879231420953
 31
0.0
  0
LINE
  5
31833CCB
330
318324AF
100
AcDbEntity
  8
ITTEN
100
AcDbLine
 10
91.84787955716251
 20
639.1879231420952
 30
0.0
 11
51.84787955716251
 21
639.1879231420952
 31
0.0
  0
LINE
  5
31833CCC
330
318324AF
100
AcDbEntity
  8
ITTEN
100
AcDbLine
 10
291.8478795571625
 20
714.1879231420952
 30
0.0
 11
291.8478795571625
 21
674.1879231420953
 31
0.0
  0
LINE
  5
31833CCD
330
318324AF
100
AcDbEntity
  8
ITTEN
100
AcDbLine
 10
236.8478795571625
 20
714.1879231420952
 30
0.0
 11
236.8478795571625
 21
674.1879231420953
 31
0.0
  0
LINE
  5
31833CCE
330
318324AF
100
AcDbEntity
  8
ITTEN
100
AcDbLine
 10
181.8478795571625
 20
714.1879231420952
 30
0.0
 11
181.8478795571625
 21
674.1879231420953
 31
0.0
  0
LINE
  5
31833CCF
330
318324AF
100
AcDbEntity
  8
ITTEN
100
AcDbLine
 10
126.8478795571625
 20
714.1879231420952
 30
0.0
 11
126.8478795571625
 21
674.1879231420953
 31
0.0
  0
LINE
  5
31833CD0
330
318324AF
100
AcDbEntity
  8
ITTEN
100
AcDbLine
 10
71.84787955716251
 20
714.1879231420952
 30
0.0
 11
71.84787955716251
 21
674.1879231420953
 31
0.0
  0
LINE
  5
31833CD1
330
318324AF
100
AcDbEntity
  8
ITTEN
100
AcDbLine
 10
311.8478795571625
 20
694.1879231420953
 30
0.0
 11
271.8478795571625
 21
694.1879231420953
 31
0.0
  0
LINE
  5
31833CD2
330
318324AF
100
AcDbEntity
  8
ITTEN
100
AcDbLine
 10
256.8478795571625
 20
694.1879231420953
 30
0.0
 11
216.8478795571625
 21
694.1879231420953
 31
0.0
  0
LINE
  5
31833CD3
330
318324AF
100
AcDbEntity
  8
ITTEN
100
AcDbLine
 10
201.8478795571625
 20
694.1879231420953
 30
0.0
 11
161.8478795571625
 21
694.1879231420953
 31
0.0
  0
LINE
  5
31833CD4
330
318324AF
100
AcDbEntity
  8
ITTEN
100
AcDbLine
 10
146.8478795571625
 20
694.1879231420953
 30
0.0
 11
106.8478795571625
 21
694.1879231420953
 31
0.0
  0
LINE
  5
31833CD5
330
318324AF
100
AcDbEntity
  8
ITTEN
100
AcDbLine
 10
91.84787955716251
 20
694.1879231420953
 30
0.0
 11
51.84787955716251
 21
694.1879231420953
 31
0.0
  0
LINE
  5
31833CDA
330
318324AF
100
AcDbEntity
  8
JISSEN
100
AcDbLine
 10
426.5946209271191
 20
729.1879231420953
 30
0.0
 11
426.5946209271191
 21
619.243478697651
 31
0.0
  0
LINE
  5
31833CDB
330
318324AF
100
AcDbEntity
  8
JISSEN
100
AcDbLine
 10
388.8478795571625
 20
424.7047485090704
 30
0.0
 11
43.84787955716251
 21
424.7047485090704
 31
0.0
  0
INSERT
  5
31833CDC
330
318324AF
100
AcDbEntity
  8
JISSEN
100
AcDbBlockReference
  2
X023
 10
390.3478795571625
 20
433.7047485090701
 30
0.0
 50
180.0
  0
ARC
  5
31833CDD
330
318324AF
100
AcDbEntity
  8
JISSEN
100
AcDbCircle
 10
443.8446209271192
 20
611.6879231420953
 30
0.0
 40
31.24999999999994
100
AcDbArc
 50
162.0797868606069
 51
197.920213139393
  0
CIRCLE
  5
31833CDE
330
318324AF
100
AcDbEntity
  8
JISSEN
100
AcDbCircle
 10
417.5946209271192
 20
618.1879231420952
 30
0.0
 40
3.0
  0
ARC
  5
31833CDF
330
318324AF
100
AcDbEntity
  8
SAISEN
100
AcDbCircle
 10
417.5946209271192
 20
618.1879231420952
 30
0.0
 40
1.75
100
AcDbArc
 50
73.39845040097704
 51
106.6015495990229
  0
LINE
  5
31833CE0
330
318324AF
100
AcDbEntity
  8
SAISEN
100
AcDbLine
 10
417.0946209271192
 20
619.8649741252202
 30
0.0
 11
417.0946209271192
 21
618.6879231420952
 31
0.0
  0
LINE
  5
31833CE1
330
318324AF
100
AcDbEntity
  8
SAISEN
100
AcDbLine
 10
417.0946209271192
 20
618.6879231420952
 30
0.0
 11
415.9175699439942
 21
618.6879231420952
 31
0.0
  0
LINE
  5
31833CE2
330
318324AF
100
AcDbEntity
  8
SAISEN
100
AcDbLine
 10
415.9175699439942
 20
617.6879231420953
 30
0.0
 11
417.0946209271192
 21
617.6879231420953
 31
0.0
  0
LINE
  5
31833CE3
330
318324AF
100
AcDbEntity
  8
SAISEN
100
AcDbLine
 10
417.0946209271192
 20
617.6879231420953
 30
0.0
 11
417.0946209271192
 21
616.5108721589706
 31
0.0
  0
LINE
  5
31833CE4
330
318324AF
100
AcDbEntity
  8
SAISEN
100
AcDbLine
 10
418.0946209271191
 20
616.5108721589704
 30
0.0
 11
418.0946209271191
 21
617.6879231420953
 31
0.0
  0
LINE
  5
31833CE5
330
318324AF
100
AcDbEntity
  8
SAISEN
100
AcDbLine
 10
418.0946209271191
 20
617.6879231420953
 30
0.0
 11
419.271671910244
 21
617.6879231420953
 31
0.0
  0
LINE
  5
31833CE6
330
318324AF
100
AcDbEntity
  8
SAISEN
100
AcDbLine
 10
419.271671910244
 20
618.6879231420952
 30
0.0
 11
418.0946209271191
 21
618.6879231420952
 31
0.0
  0
LINE
  5
31833CE7
330
318324AF
100
AcDbEntity
  8
SAISEN
100
AcDbLine
 10
418.0946209271191
 20
618.6879231420952
 30
0.0
 11
418.0946209271191
 21
619.8649741252202
 31
0.0
  0
ARC
  5
31833CE8
330
318324AF
100
AcDbEntity
  8
SAISEN
100
AcDbCircle
 10
417.5946209271192
 20
618.1879231420952
 30
0.0
 40
1.75
100
AcDbArc
 50
163.3984504009797
 51
196.6015495990203
  0
ARC
  5
31833CE9
330
318324AF
100
AcDbEntity
  8
SAISEN
100
AcDbCircle
 10
417.5946209271192
 20
618.1879231420952
 30
0.0
 40
1.75
100
AcDbArc
 50
253.398450400977
 51
286.6015495990229
  0
ARC
  5
31833CEA
330
318324AF
100
AcDbEntity
  8
SAISEN
100
AcDbCircle
 10
417.5946209271192
 20
618.1879231420952
 30
0.0
 40
1.75
100
AcDbArc
 50
343.3984504009797
 51
16.60154959902031
  0
ARC
  5
31833CEB
330
318324AF
100
AcDbEntity
  8
SAISEN
100
AcDbCircle
 10
417.5946209271192
 20
605.1879231420953
 30
0.0
 40
1.75
100
AcDbArc
 50
343.3984504009797
 51
16.60154959902031
  0
ARC
  5
31833CEC
330
318324AF
100
AcDbEntity
  8
SAISEN
100
AcDbCircle
 10
417.5946209271192
 20
605.1879231420953
 30
0.0
 40
1.75
100
AcDbArc
 50
253.398450400977
 51
286.6015495990229
  0
ARC
  5
31833CED
330
318324AF
100
AcDbEntity
  8
SAISEN
100
AcDbCircle
 10
417.5946209271192
 20
605.1879231420953
 30
0.0
 40
1.75
100
AcDbArc
 50
163.3984504009797
 51
196.6015495990203
  0
LINE
  5
31833CEE
330
318324AF
100
AcDbEntity
  8
SAISEN
100
AcDbLine
 10
418.0946209271191
 20
605.6879231420952
 30
0.0
 11
418.0946209271191
 21
606.8649741252202
 31
0.0
  0
LINE
  5
31833CEF
330
318324AF
100
AcDbEntity
  8
SAISEN
100
AcDbLine
 10
419.271671910244
 20
605.6879231420952
 30
0.0
 11
418.0946209271191
 21
605.6879231420952
 31
0.0
  0
LINE
  5
31833CF0
330
318324AF
100
AcDbEntity
  8
SAISEN
100
AcDbLine
 10
418.0946209271191
 20
604.6879231420953
 30
0.0
 11
419.271671910244
 21
604.6879231420953
 31
0.0
  0
LINE
  5
31833CF1
330
318324AF
100
AcDbEntity
  8
SAISEN
100
AcDbLine
 10
418.0946209271191
 20
603.5108721589704
 30
0.0
 11
418.0946209271191
 21
604.6879231420953
 31
0.0
  0
LINE
  5
31833CF2
330
318324AF
100
AcDbEntity
  8
SAISEN
100
AcDbLine
 10
417.0946209271192
 20
604.6879231420953
 30
0.0
 11
417.0946209271192
 21
603.5108721589706
 31
0.0
  0
LINE
  5
31833CF3
330
318324AF
100
AcDbEntity
  8
SAISEN
100
AcDbLine
 10
415.9175699439942
 20
604.6879231420953
 30
0.0
 11
417.0946209271192
 21
604.6879231420953
 31
0.0
  0
LINE
  5
31833CF4
330
318324AF
100
AcDbEntity
  8
SAISEN
100
AcDbLine
 10
417.0946209271192
 20
605.6879231420952
 30
0.0
 11
415.9175699439942
 21
605.6879231420952
 31
0.0
  0
LINE
  5
31833CF5
330
318324AF
100
AcDbEntity
  8
SAISEN
100
AcDbLine
 10
417.0946209271192
 20
606.8649741252202
 30
0.0
 11
417.0946209271192
 21
605.6879231420952
 31
0.0
  0
ARC
  5
31833CF6
330
318324AF
100
AcDbEntity
  8
SAISEN
100
AcDbCircle
 10
417.5946209271192
 20
605.1879231420953
 30
0.0
 40
1.75
100
AcDbArc
 50
73.39845040097704
 51
106.6015495990229
  0
CIRCLE
  5
31833CF7
330
318324AF
100
AcDbEntity
  8
JISSEN
100
AcDbCircle
 10
417.5946209271192
 20
605.1879231420953
 30
0.0
 40
3.0
  0
LINE
  5
31833CF8
330
318324AF
100
AcDbEntity
  8
JISSEN
100
AcDbLine
 10
416.0136579541999
 20
622.6879231420952
 30
0.0
 11
423.5946209271191
 21
622.6879231420952
 31
0.0
  0
LINE
  5
31833CF9
330
318324AF
100
AcDbEntity
  8
JISSEN
100
AcDbLine
 10
416.0136579541999
 20
600.6879231420953
 30
0.0
 11
423.5946209271191
 21
600.6879231420953
 31
0.0
  0
ARC
  5
31833CFA
330
318324AF
100
AcDbEntity
  8
JISSEN
100
AcDbCircle
 10
416.0136579541999
 20
620.6879231420953
 30
0.0
 40
2.0
100
AcDbArc
 50
90.0
 51
162.0797868606069
  0
ARC
  5
31833CFB
330
318324AF
100
AcDbEntity
  8
JISSEN
100
AcDbCircle
 10
416.0136579541999
 20
602.6879231420953
 30
0.0
 40
2.0
100
AcDbArc
 50
197.920213139393
 51
270.0
  0
LINE
  5
31833CFC
330
318324AF
100
AcDbEntity
  8
JISSEN
100
AcDbLine
 10
433.5946209271192
 20
618.6879231420952
 30
0.0
 11
433.5946209271192
 21
604.6879231420953
 31
0.0
  0
LINE
  5
31833CFD
330
318324AF
100
AcDbEntity
  8
JISSEN
100
AcDbLine
 10
433.5946209271192
 20
604.6879231420953
 30
0.0
 11
458.0946209271192
 21
604.6879231420953
 31
0.0
  0
LINE
  5
31833CFE
330
318324AF
100
AcDbEntity
  8
JISSEN
100
AcDbLine
 10
461.5946209271189
 20
608.1879231420953
 30
0.0
 11
461.5946209271192
 21
615.1879231420953
 31
0.0
  0
LINE
  5
31833CFF
330
318324AF
100
AcDbEntity
  8
JISSEN
100
AcDbLine
 10
426.5946209271191
 20
606.4284133593234
 30
0.0
 11
426.5946209271191
 21
616.9474329248672
 31
0.0
  0
ARC
  5
31833D00
330
318324AF
100
AcDbEntity
  8
JISSEN
100
AcDbCircle
 10
427.5040062958769
 20
615.8635637488089
 30
0.0
 40
3.5
100
AcDbArc
 50
105.5241109967566
 51
168.8010810772581
  0
ARC
  5
31833D01
330
318324AF
100
AcDbEntity
  8
JISSEN
100
AcDbCircle
 10
427.5040062958769
 20
607.5122825353816
 30
0.0
 40
3.5
100
AcDbArc
 50
191.1989189227418
 51
254.4758890032433
  0
ARC
  5
31833D02
330
318324AF
100
AcDbEntity
  8
JISSEN
100
AcDbCircle
 10
427.937074393284
 20
607.9109175553314
 30
0.0
 40
2.0
100
AcDbArc
 50
217.6978396590328
 51
254.4758890032501
  0
ARC
  5
31833D03
330
318324AF
100
AcDbEntity
  8
JISSEN
100
AcDbCircle
 10
439.6794660308878
 20
604.1302103867674
 30
0.0
 40
3.5
100
AcDbArc
 50
254.4758890032433
 51
353.7116578954515
  0
ARC
  5
31833D04
330
318324AF
100
AcDbEntity
  8
JISSEN
100
AcDbCircle
 10
439.6794660308878
 20
619.2456358974232
 30
0.0
 40
3.5
100
AcDbArc
 50
6.288342104548463
 51
105.5241109967566
  0
ARC
  5
31833D05
330
318324AF
100
AcDbEntity
  8
JISSEN
100
AcDbCircle
 10
439.2443990409709
 20
604.7699940420852
 30
0.0
 40
2.0
100
AcDbArc
 50
254.4758890032438
 51
354.2037221541393
  0
ARC
  5
31833D06
330
318324AF
100
AcDbEntity
  8
JISSEN
100
AcDbCircle
 10
439.2443990409709
 20
618.6058522421054
 30
0.0
 40
2.0
100
AcDbArc
 50
5.796277845860682
 51
105.5241109967561
  0
ARC
  5
31833D07
330
318324AF
100
AcDbEntity
  8
JISSEN
100
AcDbCircle
 10
427.937074393284
 20
615.4649287288592
 30
0.0
 40
2.0
100
AcDbArc
 50
105.5241109967498
 51
142.3021603409671
  0
LINE
  5
31833D08
330
318324AF
100
AcDbEntity
  8
JISSEN
100
AcDbLine
 10
427.401786665712
 20
605.9838817360716
 30
0.0
 11
438.7091113133988
 21
602.8429582228254
 31
0.0
  0
ARC
  5
31833D09
330
318324AF
100
AcDbEntity
  8
JISSEN
100
AcDbCircle
 10
371.0946209271193
 20
611.6879231420953
 30
0.0
 40
70.49999999999977
100
AcDbArc
 50
354.2037221541393
 51
354.3016680812168
  0
LINE
  5
31833D0A
330
318324AF
100
AcDbEntity
  8
JISSEN
100
AcDbLine
 10
427.401786665712
 20
617.3919645481189
 30
0.0
 11
438.7091113133988
 21
620.5328880613653
 31
0.0
  0
ARC
  5
31833D0B
330
318324AF
100
AcDbEntity
  8
JISSEN
100
AcDbCircle
 10
371.0946209271193
 20
611.6879231420953
 30
0.0
 40
72.49999999999977
100
AcDbArc
 50
353.7116578954515
 51
354.4593623334351
  0
ARC
  5
31833D0C
330
318324AF
100
AcDbEntity
  8
JISSEN
100
AcDbCircle
 10
448.5946209271191
 20
611.6879231420953
 30
0.0
 40
25.0
100
AcDbArc
 50
168.8010810772581
 51
191.1989189227418
  0
LINE
  5
31833D0D
330
318324AF
100
AcDbEntity
  8
JISSEN
100
AcDbLine
 10
426.5672527726255
 20
604.1399698516768
 30
0.0
 11
438.7427125076365
 21
600.7578977030627
 31
0.0
  0
LINE
  5
31833D0E
330
318324AF
100
AcDbEntity
  8
JISSEN
100
AcDbLine
 10
426.5672527726255
 20
619.2358764325137
 30
0.0
 11
438.7427125076365
 21
622.6179485811278
 31
0.0
  0
LINE
  5
31833D0F
330
318324AF
100
AcDbEntity
  8
JISSEN
100
AcDbLine
 10
426.5946209271191
 20
616.6879231420953
 30
0.0
 11
424.5946209271192
 21
616.6879231420953
 31
0.0
  0
LINE
  5
31833D10
330
318324AF
100
AcDbEntity
  8
JISSEN
100
AcDbLine
 10
424.5946209271192
 20
616.6879231420953
 30
0.0
 11
424.5946209271192
 21
606.6879231420953
 31
0.0
  0
LINE
  5
31833D11
330
318324AF
100
AcDbEntity
  8
JISSEN
100
AcDbLine
 10
424.5946209271192
 20
606.6879231420953
 30
0.0
 11
426.5946209271191
 21
606.6879231420953
 31
0.0
  0
LINE
  5
31833D12
330
318324AF
100
AcDbEntity
  8
JISSEN
100
AcDbLine
 10
453.5946209271192
 20
604.6879231420953
 30
0.0
 11
453.5946209271192
 21
618.6879231420952
 31
0.0
  0
ARC
  5
31833D13
330
318324AF
100
AcDbEntity
  8
JISSEN
100
AcDbCircle
 10
458.0946209271192
 20
608.1879231420953
 30
0.0
 40
3.5
100
AcDbArc
 50
270.0
 51
0.0
  0
ARC
  5
31833D14
330
318324AF
100
AcDbEntity
  8
JISSEN
100
AcDbCircle
 10
458.0946209271192
 20
615.1879231420953
 30
0.0
 40
3.5
100
AcDbArc
 50
0.0
 51
90.0
  0
LINE
  5
31833D15
330
318324AF
100
AcDbEntity
  8
JISSEN
100
AcDbLine
 10
458.0946209271192
 20
618.6879231420952
 30
0.0
 11
433.5946209271192
 21
618.6879231420952
 31
0.0
  0
LINE
  5
31833D16
330
318324AF
100
AcDbEntity
  8
SAISEN
100
AcDbLine
 10
436.5946209271189
 20
619.1879231420953
 30
0.0
 11
436.5946209271189
 21
618.6879231420952
 31
0.0
  0
LINE
  5
31833D17
330
318324AF
100
AcDbEntity
  8
SAISEN
100
AcDbLine
 10
439.594620927119
 20
619.1879231420953
 30
0.0
 11
439.594620927119
 21
618.6879231420952
 31
0.0
  0
LINE
  5
31833D18
330
318324AF
100
AcDbEntity
  8
SAISEN
100
AcDbLine
 10
436.5946209271189
 20
619.1879231420953
 30
0.0
 11
439.594620927119
 21
619.1879231420953
 31
0.0
  0
LINE
  5
31833D19
330
318324AF
100
AcDbEntity
  8
SAISEN
100
AcDbLine
 10
436.5946209271189
 20
604.1879231420953
 30
0.0
 11
439.594620927119
 21
604.1879231420953
 31
0.0
  0
LINE
  5
31833D1A
330
318324AF
100
AcDbEntity
  8
SAISEN
100
AcDbLine
 10
439.594620927119
 20
604.1879231420953
 30
0.0
 11
439.594620927119
 21
604.6879231420953
 31
0.0
  0
LINE
  5
31833D1B
330
318324AF
100
AcDbEntity
  8
SAISEN
100
AcDbLine
 10
436.5946209271189
 20
604.1879231420953
 30
0.0
 11
436.5946209271189
 21
604.6879231420953
 31
0.0
  0
ARC
  5
31833D1C
330
318324AF
100
AcDbEntity
  8
JISSEN
100
AcDbCircle
 10
371.0946209271193
 20
611.6879231420953
 30
0.0
 40
70.49999999999977
100
AcDbArc
 50
5.698331918783144
 51
5.796277845860682
  0
ARC
  5
31833D1D
330
318324AF
100
AcDbEntity
  8
JISSEN
100
AcDbCircle
 10
371.0946209271193
 20
611.6879231420953
 30
0.0
 40
72.49999999999977
100
AcDbArc
 50
5.540637666564872
 51
6.288342104548463
  0
ARC
  5
31833D1E
330
318324AF
100
AcDbEntity
  8
JISSEN
100
AcDbCircle
 10
423.5946209271191
 20
619.6879231420953
 30
0.0
 40
3.0
100
AcDbArc
 50
0.0
 51
90.0
  0
ARC
  5
31833D1F
330
318324AF
100
AcDbEntity
  8
JISSEN
100
AcDbCircle
 10
423.5946209271191
 20
603.6879231420953
 30
0.0
 40
3.0
100
AcDbArc
 50
270.0
 51
0.0
  0
LINE
  5
31833D20
330
318324AF
100
AcDbEntity
  8
SAISEN
100
AcDbLine
 10
434.5946209271189
 20
616.6879231420953
 30
0.0
 11
438.0946209271189
 21
616.6879231420953
 31
0.0
  0
LINE
  5
31833D21
330
318324AF
100
AcDbEntity
  8
SAISEN
100
AcDbLine
 10
438.0946209271189
 20
616.6879231420953
 30
0.0
 11
438.0946209271189
 21
618.6879231420952
 31
0.0
  0
LINE
  5
31833D22
330
318324AF
100
AcDbEntity
  8
SAISEN
100
AcDbLine
 10
438.0946209271189
 20
617.6879231420953
 30
0.0
 11
433.5946209271192
 21
617.6879231420953
 31
0.0
  0
LINE
  5
31833D23
330
318324AF
100
AcDbEntity
  8
SAISEN
100
AcDbLine
 10
434.5946209271189
 20
606.6879231420953
 30
0.0
 11
438.0946209271189
 21
606.6879231420953
 31
0.0
  0
LINE
  5
31833D24
330
318324AF
100
AcDbEntity
  8
SAISEN
100
AcDbLine
 10
438.0946209271189
 20
606.6879231420953
 30
0.0
 11
438.0946209271189
 21
604.6879231420953
 31
0.0
  0
LINE
  5
31833D25
330
318324AF
100
AcDbEntity
  8
SAISEN
100
AcDbLine
 10
438.0946209271189
 20
605.6879231420952
 30
0.0
 11
433.5946209271192
 21
605.6879231420952
 31
0.0
  0
LINE
  5
31833D26
330
318324AF
100
AcDbEntity
  8
SAISEN
100
AcDbLine
 10
434.5946209271192
 20
617.6879231420953
 30
0.0
 11
434.5946209271189
 21
616.6879231420955
 31
0.0
  0
LINE
  5
31833D27
330
318324AF
100
AcDbEntity
  8
SAISEN
100
AcDbLine
 10
434.5946209271192
 20
606.6879231420955
 30
0.0
 11
434.5946209271192
 21
605.6879231420952
 31
0.0
  0
LINE
  5
31833D28
330
318324AF
100
AcDbEntity
  8
JISSEN
100
AcDbLine
 10
426.5946209271191
 20
616.9474329248672
 30
0.0
 11
426.5946209271191
 21
606.4284133593234
 31
0.0
  0
LINE
  5
31833D29
330
318324AF
100
AcDbEntity
  8
JISSEN
100
AcDbLine
 10
426.5946209271191
 20
604.1323675865396
 30
0.0
 11
426.5946209271191
 21
494.1879231420953
 31
0.0
  0
LINE
  5
31833D2A
330
318324AF
100
AcDbEntity
  8
JISSEN
100
AcDbLine
 10
394.3478795571625
 20
618.6879231420952
 30
0.0
 11
394.3478795571625
 21
604.6879231420953
 31
0.0
  0
LINE
  5
31833D2B
330
318324AF
100
AcDbEntity
  8
SAISEN
100
AcDbLine
 10
394.3478795571625
 20
604.6879231420953
 30
0.0
 11
388.8478795571622
 21
604.6879231420953
 31
0.0
  0
LINE
  5
31833D2E
330
318324AF
100
AcDbEntity
  8
SAISEN
100
AcDbLine
 10
394.3478795571625
 20
606.6879231420953
 30
0.0
 11
388.8478795571625
 21
606.6879231420954
 31
0.0
  0
LINE
  5
31833D2F
330
318324AF
100
AcDbEntity
  8
JISSEN
100
AcDbLine
 10
394.3478795571625
 20
605.6879231420952
 30
0.0
 11
388.8478795571625
 21
605.6879231420952
 31
0.0
  0
LINE
  5
31833D32
330
318324AF
100
AcDbEntity
  8
JISSEN
100
AcDbLine
 10
394.3478795571625
 20
617.6879231420953
 30
0.0
 11
388.8478795571625
 21
617.6879231420953
 31
0.0
  0
LINE
  5
31833D33
330
318324AF
100
AcDbEntity
  8
SAISEN
100
AcDbLine
 10
394.3478795571625
 20
616.6879231420953
 30
0.0
 11
388.8478795571625
 21
616.6879231420953
 31
0.0
  0
LINE
  5
31833D36
330
318324AF
100
AcDbEntity
  8
SAISEN
100
AcDbLine
 10
394.3478795571625
 20
618.6879231420952
 30
0.0
 11
388.8478795571622
 21
618.6879231420951
 31
0.0
  0
LINE
  5
31833D37
330
318324AF
100
AcDbEntity
  8
SAISEN
100
AcDbLine
 10
389.8478795571625
 20
619.1879231420953
 30
0.0
 11
392.8478795571625
 21
619.1879231420953
 31
0.0
  0
LINE
  5
31833D38
330
318324AF
100
AcDbEntity
  8
SAISEN
100
AcDbLine
 10
392.8478795571625
 20
619.1879231420953
 30
0.0
 11
392.8478795571625
 21
618.6879231420952
 31
0.0
  0
LINE
  5
31833D39
330
318324AF
100
AcDbEntity
  8
SAISEN
100
AcDbLine
 10
389.8478795571625
 20
619.1879231420953
 30
0.0
 11
389.8478795571625
 21
618.6879231420952
 31
0.0
  0
LINE
  5
31833D3A
330
318324AF
100
AcDbEntity
  8
JISSEN
100
AcDbLine
 10
390.3478795571625
 20
619.1879231420953
 30
0.0
 11
390.3478795571625
 21
621.7237853931607
 31
0.0
  0
ARC
  5
31833D3B
330
318324AF
100
AcDbEntity
  8
JISSEN
100
AcDbCircle
 10
391.3478795571625
 20
621.7237853931607
 30
0.0
 40
1.0
100
AcDbArc
 50
90.0
 51
180.0
  0
ARC
  5
31833D3C
330
318324AF
100
AcDbEntity
  8
JISSEN
100
AcDbCircle
 10
391.3478795571625
 20
621.7237853931607
 30
0.0
 40
1.0
100
AcDbArc
 50
0.0
 51
90.0
  0
LINE
  5
31833D3D
330
318324AF
100
AcDbEntity
  8
JISSEN
100
AcDbLine
 10
392.3478795571625
 20
621.7237853931607
 30
0.0
 11
392.3478795571625
 21
619.1879231420953
 31
0.0
  0
LINE
  5
31833D3E
330
318324AF
100
AcDbEntity
  8
JISSEN
100
AcDbLine
 10
392.3478795571625
 20
601.6520608910298
 30
0.0
 11
392.3478795571625
 21
604.1879231420955
 31
0.0
  0
ARC
  5
31833D3F
330
318324AF
100
AcDbEntity
  8
JISSEN
100
AcDbCircle
 10
391.3478795571625
 20
601.6520608910298
 30
0.0
 40
1.0
100
AcDbArc
 50
270.0
 51
0.0
  0
ARC
  5
31833D40
330
318324AF
100
AcDbEntity
  8
JISSEN
100
AcDbCircle
 10
391.3478795571625
 20
601.6520608910298
 30
0.0
 40
1.0
100
AcDbArc
 50
180.0
 51
270.0
  0
LINE
  5
31833D41
330
318324AF
100
AcDbEntity
  8
JISSEN
100
AcDbLine
 10
390.3478795571625
 20
604.1879231420955
 30
0.0
 11
390.3478795571625
 21
601.6520608910298
 31
0.0
  0
LINE
  5
31833D42
330
318324AF
100
AcDbEntity
  8
SAISEN
100
AcDbLine
 10
389.8478795571625
 20
604.1879231420955
 30
0.0
 11
389.8478795571625
 21
604.6879231420955
 31
0.0
  0
LINE
  5
31833D43
330
318324AF
100
AcDbEntity
  8
SAISEN
100
AcDbLine
 10
392.8478795571625
 20
604.1879231420955
 30
0.0
 11
392.8478795571625
 21
604.6879231420955
 31
0.0
  0
LINE
  5
31833D44
330
318324AF
100
AcDbEntity
  8
SAISEN
100
AcDbLine
 10
389.8478795571625
 20
604.1879231420955
 30
0.0
 11
392.8478795571625
 21
604.1879231420955
 31
0.0
  0
LINE
  5
31833D45
330
318324AF
100
AcDbEntity
  8
JISSEN
100
AcDbLine
 10
388.8478795571625
 20
438.7031336616255
 30
0.0
 11
390.3478795571625
 21
438.7031336616255
 31
0.0
  0
LINE
  5
31833D46
330
318324AF
100
AcDbEntity
  8
JISSEN
100
AcDbLine
 10
390.3478795571625
 20
438.7031336616255
 30
0.0
 11
390.3478795571622
 21
427.7039430442666
 31
0.0
  0
LINE
  5
31833D47
330
318324AF
100
AcDbEntity
  8
JISSEN
100
AcDbLine
 10
392.3066302063491
 20
426.8998536674496
 30
0.0
 11
392.8454158613858
 21
427.0959556085326
 31
0.0
  0
LINE
  5
31833D48
330
318324AF
100
AcDbEntity
  8
JISSEN
100
AcDbLine
 10
394.3428343960713
 20
426.0447047246827
 30
0.0
 11
392.216929233703
 21
425.270938524708
 31
0.0
  0
LINE
  5
31833D49
330
318324AF
100
AcDbEntity
  8
JISSEN
100
AcDbLine
 10
394.0937437917482
 20
426.5788812494874
 30
0.0
 11
394.3428343960713
 21
426.0447047246827
 31
0.0
  0
ARC
  5
31833D4A
330
318324AF
100
AcDbEntity
  8
JISSEN
100
AcDbCircle
 10
390.3478795571625
 20
426.186926734796
 30
0.0
 40
1.5
100
AcDbArc
 50
180.0
 51
263.6602545730382
  0
ARC
  5
31833D4B
330
318324AF
100
AcDbEntity
  8
JISSEN
100
AcDbCircle
 10
393.1874360047115
 20
426.1562629877467
 30
0.0
 40
1.0
100
AcDbArc
 50
24.99999999999788
 51
109.9999999999964
  0
LINE
  5
31833D4C
330
318324AF
100
AcDbEntity
  8
JISSEN
100
AcDbLine
 10
383.8478795571625
 20
417.7047485090704
 30
0.0
 11
390.1052388700432
 21
417.7047485090704
 31
0.0
  0
ARC
  5
31833D4D
330
318324AF
100
AcDbEntity
  8
JISSEN
100
AcDbCircle
 10
390.1052388700432
 20
413.462107821951
 30
0.0
 40
4.242640687119284
100
AcDbArc
 50
336.389704061856
 51
66.73123831488736
  0
LWPOLYLINE
  5
31833D4E
330
318324AF
100
AcDbEntity
  8
JISSEN
100
AcDbPolyline
 90
        4
 70
     1
 43
0.0
 10
390.3478795571625
 20
427.7039430442666
 10
389.2668560460913
 20
408.0732131324396
 10
391.2638304495665
 20
407.9632439009918
 10
392.3448539606374
 20
427.5939738128188
  0
ARC
  5
31833D4F
330
318324AF
100
AcDbEntity
  8
SAISEN
100
AcDbCircle
 10
390.1052388700432
 20
413.462107821951
 30
0.0
 40
1.5
100
AcDbArc
 50
107.9813139064696
 51
245.7147340653312
  0
LINE
  5
31833D50
330
318324AF
100
AcDbEntity
  8
JISSEN
100
AcDbLine
 10
385.862598182924
 20
413.462107821951
 30
0.0
 11
385.862598182924
 21
398.6247485090702
 31
0.0
  0
LINE
  5
31833D51
330
318324AF
100
AcDbEntity
  8
JISSEN
100
AcDbLine
 10
383.8478795571625
 20
409.2196004772331
 30
0.0
 11
385.3478795571625
 21
409.2196004772331
 31
0.0
  0
LINE
  5
31833D52
330
318324AF
100
AcDbEntity
  8
JISSEN
100
AcDbLine
 10
388.138212206144
 20
398.3689683119444
 30
0.0
 11
393.992731384121
 21
411.7628721252363
 31
0.0
  0
LINE
  5
31833D53
330
318324AF
100
AcDbEntity
  8
JISSEN
100
AcDbLine
 10
386.7837017846866
 20
397.7047485090704
 30
0.0
 11
389.6954636588161
 21
389.7047485090704
 31
0.0
  0
LINE
  5
31833D54
330
318324AF
100
AcDbEntity
  8
JISSEN
100
AcDbLine
 10
389.6954636588161
 20
389.7047485090704
 30
0.0
 11
391.0601182621371
 21
390.3410974013356
 31
0.0
  0
ARC
  5
31833D55
330
318324AF
100
AcDbEntity
  8
JISSEN
100
AcDbCircle
 10
386.7825981829239
 20
398.6247485090702
 30
0.0
 40
0.9200000000000001
100
AcDbArc
 50
179.9999999999983
 51
270.0
  0
ARC
  5
31833D56
330
318324AF
100
AcDbEntity
  8
JISSEN
100
AcDbCircle
 10
390.1052388700432
 20
413.462107821951
 30
0.0
 40
4.242640687119284
100
AcDbArc
 50
94.17142539113209
 51
180.0
  0
ARC
  5
31833D57
330
318324AF
100
AcDbEntity
  8
SAISEN
100
AcDbCircle
 10
390.1052388700432
 20
413.462107821951
 30
0.0
 40
1.5
100
AcDbArc
 50
343.4526342617886
 51
10.24341371001125
  0
ARC
  5
31833D58
330
318324AF
100
AcDbEntity
  8
JISSEN
100
AcDbCircle
 10
45.34787955716251
 20
421.2047485090704
 30
0.0
 40
3.5
100
AcDbArc
 50
0.0
 51
295.3769335251528
  0
LINE
  5
31833D59
330
318324AF
100
AcDbEntity
  8
JISSEN
100
AcDbLine
 10
48.84787955716252
 20
402.7047485090704
 30
0.0
 11
47.84787955716251
 21
402.7047485090704
 31
0.0
  0
LINE
  5
31833D5A
330
318324AF
100
AcDbEntity
  8
JISSEN
100
AcDbLine
 10
47.84787955716251
 20
402.7047485090704
 30
0.0
 11
47.84787955716251
 21
421.2047485090704
 31
0.0
  0
CIRCLE
  5
31833D5B
330
318324AF
100
AcDbEntity
  8
SAISEN
100
AcDbCircle
 10
45.34787955716251
 20
421.2047485090704
 30
0.0
 40
2.5
  0
LINE
  5
31833D5C
330
318324AF
100
AcDbEntity
  8
JISSEN
100
AcDbLine
 10
46.84787955716251
 20
418.0424708489019
 30
0.0
 11
46.41930812859107
 21
418.9459787518071
 31
0.0
  0
LINE
  5
31833D5D
330
318324AF
100
AcDbEntity
  8
JISSEN
100
AcDbLine
 10
47.84787955716251
 20
423.6542382518535
 30
0.0
 11
47.84787955716251
 21
424.7047485090704
 31
0.0
  0
LINE
  5
31833D5E
330
318324AF
100
AcDbEntity
  8
JISSEN
100
AcDbLine
 10
46.84787955716251
 20
424.3670261692386
 30
0.0
 11
46.84787955716251
 21
424.7047485090704
 31
0.0
  0
LINE
  5
31833D5F
330
318324AF
100
AcDbEntity
  8
SUNPOU
100
AcDbLine
 10
42.84787955716251
 20
494.1879231420953
 30
0.0
 11
21.49281621703812
 21
494.1879231420953
 31
0.0
  0
LINE
  5
31833D60
330
318324AF
100
AcDbEntity
  8
SUNPOU
100
AcDbLine
 10
42.8478795571624
 20
729.1879231420953
 30
0.0
 11
21.49281621703812
 21
729.1879231420953
 31
0.0
  0
LINE
  5
31833D61
330
318324AF
100
AcDbEntity
  8
SUNPOU
100
AcDbLine
 10
24.49281621703812
 20
494.1879231420953
 30
0.0
 11
24.49281621703812
 21
729.1879231420953
 31
0.0
  0
INSERT
  5
31833D62
330
318324AF
100
AcDbEntity
  8
SUNPOU
100
AcDbBlockReference
  2
ARROWANG
 10
24.49281621703812
 20
494.1879231420953
 30
0.0
 41
4.5
 42
4.5
 43
4.5
 50
270.0
  0
INSERT
  5
31833D63
330
318324AF
100
AcDbEntity
  8
SUNPOU
100
AcDbBlockReference
  2
ARROWANG
 10
24.49281621703812
 20
729.1879231420953
 30
0.0
 41
4.5
 42
4.5
 43
4.5
 50
90.0
  0
TEXT
  5
31833D64
330
318324AF
100
AcDbEntity
  8
SUNPOU
100
AcDbText
 10
19.99281621703812
 20
598.8307802849524
 30
0.0
 40
9.0
  1
235
 50
90.0
  7
K
 72
     1
 11
19.99281621703812
 21
611.6879231420953
 31
0.0
100
AcDbText
  0
LINE
  5
31833D65
330
318324AF
100
AcDbEntity
  8
SUNPOU
100
AcDbLine
 10
48.84787955716252
 20
333.7047485090704
 30
0.0
 11
48.84787955716252
 21
304.3888856295409
 31
0.0
  0
LINE
  5
31833D66
330
318324AF
100
AcDbEntity
  8
SUNPOU
100
AcDbLine
 10
383.8478795571625
 20
333.7047485090704
 30
0.0
 11
383.8478795571625
 21
304.3888856295409
 31
0.0
  0
LINE
  5
31833D67
330
318324AF
100
AcDbEntity
  8
SUNPOU
100
AcDbLine
 10
48.84787955716252
 20
307.3888856295409
 30
0.0
 11
383.8478795571625
 21
307.3888856295409
 31
0.0
  0
INSERT
  5
31833D68
330
318324AF
100
AcDbEntity
  8
SUNPOU
100
AcDbBlockReference
  2
ARROWANG
 10
383.8478795571625
 20
307.3888856295409
 30
0.0
 41
4.5
 42
4.5
 43
4.5
  0
INSERT
  5
31833D69
330
318324AF
100
AcDbEntity
  8
SUNPOU
100
AcDbBlockReference
  2
ARROWANG
 10
48.84787955716252
 20
307.3888856295409
 30
0.0
 41
4.5
 42
4.5
 43
4.5
 50
180.0
  0
TEXT
  5
31833D6A
330
318324AF
100
AcDbEntity
  8
SUNPOU
100
AcDbText
 10
203.4907367000196
 20
311.8888856295409
 30
0.0
 40
9.0
  1
335
  7
K
 72
     1
 11
216.3478795571625
 21
311.8888856295409
 31
0.0
100
AcDbText
  0
LINE
  5
31833D6B
330
318324AF
100
AcDbEntity
  8
SUNPOU
100
AcDbLine
 10
43.84787955716251
 20
439.7047485090704
 30
0.0
 11
43.84787955716251
 21
468.025327446569
 31
0.0
  0
LINE
  5
31833D6C
330
318324AF
100
AcDbEntity
  8
SUNPOU
100
AcDbLine
 10
388.8478795571625
 20
439.7047485090704
 30
0.0
 11
388.8478795571625
 21
468.025327446569
 31
0.0
  0
LINE
  5
31833D6D
330
318324AF
100
AcDbEntity
  8
SUNPOU
100
AcDbLine
 10
43.84787955716251
 20
465.025327446569
 30
0.0
 11
388.8478795571625
 21
465.025327446569
 31
0.0
  0
INSERT
  5
31833D6E
330
318324AF
100
AcDbEntity
  8
SUNPOU
100
AcDbBlockReference
  2
ARROWANG
 10
43.84787955716251
 20
465.025327446569
 30
0.0
 41
4.5
 42
4.5
 43
4.5
 50
180.0
  0
INSERT
  5
31833D6F
330
318324AF
100
AcDbEntity
  8
SUNPOU
100
AcDbBlockReference
  2
ARROWANG
 10
388.8478795571625
 20
465.025327446569
 30
0.0
 41
4.5
 42
4.5
 43
4.5
  0
TEXT
  5
31833D70
330
318324AF
100
AcDbEntity
  8
SUNPOU
100
AcDbText
 10
203.4907367000196
 20
469.525327446569
 30
0.0
 40
9.0
  1
345
  7
K
 72
     1
 11
216.3478795571625
 21
469.525327446569
 31
0.0
100
AcDbText
  0
LINE
  5
31833D75
330
318324AF
100
AcDbEntity
  8
JISSEN
100
AcDbLine
 10
43.84787955716251
 20
679.1879231420953
 30
0.0
 11
41.84787955716251
 21
679.1879231420953
 31
0.0
  0
LINE
  5
31833D76
330
318324AF
100
AcDbEntity
  8
JISSEN
100
AcDbLine
 10
41.84787955716251
 20
699.1879231420953
 30
0.0
 11
43.84787955716251
 21
699.1879231420953
 31
0.0
  0
LINE
  5
31833D77
330
318324AF
100
AcDbEntity
  8
JISSEN
100
AcDbLine
 10
41.84787955716251
 20
669.1879231420953
 30
0.0
 11
41.84787955716251
 21
709.1879231420953
 31
0.0
  0
LINE
  5
31833D78
330
318324AF
100
AcDbEntity
  8
JISSEN
100
AcDbLine
 10
41.84787955716251
 20
514.1879231420952
 30
0.0
 11
41.84787955716251
 21
554.1879231420953
 31
0.0
  0
LINE
  5
31833D79
330
318324AF
100
AcDbEntity
  8
SUNPOU
100
AcDbLine
 10
384.8478795571624
 20
334.7047485090704
 30
0.0
 11
433.2191502050941
 21
334.7047485090704
 31
0.0
  0
LINE
  5
31833D7A
330
318324AF
100
AcDbEntity
  8
SUNPOU
100
AcDbLine
 10
388.8478795571625
 20
439.7047485090704
 30
0.0
 11
433.2191502050941
 21
439.7047485090704
 31
0.0
  0
LINE
  5
31833D7B
330
318324AF
100
AcDbEntity
  8
SUNPOU
100
AcDbLine
 10
430.2191502050941
 20
334.7047485090704
 30
0.0
 11
430.2191502050941
 21
439.7047485090704
 31
0.0
  0
INSERT
  5
31833D7C
330
318324AF
100
AcDbEntity
  8
SUNPOU
100
AcDbBlockReference
  2
ARROWANG
 10
430.2191502050941
 20
334.7047485090704
 30
0.0
 41
4.5
 42
4.5
 43
4.5
 50
270.0
  0
INSERT
  5
31833D7D
330
318324AF
100
AcDbEntity
  8
SUNPOU
100
AcDbBlockReference
  2
ARROWANG
 10
430.2191502050941
 20
439.7047485090704
 30
0.0
 41
4.5
 42
4.5
 43
4.5
 50
90.0
  0
TEXT
  5
31833D7E
330
318324AF
100
AcDbEntity
  8
SUNPOU
100
AcDbText
 10
425.7191502050941
 20
373.7047485090704
 30
0.0
 40
9.0
  1
105
 50
90.0
  7
K
 72
     1
 11
425.7191502050941
 21
387.2047485090704
 31
0.0
100
AcDbText
  0
ARC
  5
31833D7F
330
318324AF
100
AcDbEntity
  8
SAISEN
100
AcDbCircle
 10
45.43377449053878
 20
408.2012446131493
 30
0.0
 40
2.025575541927547
100
AcDbArc
 50
279.1145210713242
 51
80.88547892867579
  0
ARC
  5
31833D80
330
318324AF
100
AcDbEntity
  8
0
100
AcDbCircle
 10
49.44787955716254
 20
408.2012446131493
 30
0.0
 40
4.200000000000017
100
AcDbArc
 50
140.8332892838669
 51
180.0
  0
ARC
  5
31833D81
330
318324AF
100
AcDbEntity
  8
0
100
AcDbCircle
 10
47.97478757089743
 20
409.4012446131493
 30
0.0
 40
2.299999999999999
100
AcDbArc
 50
93.16303837732645
 51
140.8332892838681
  0
ARC
  5
31833D82
330
318324AF
100
AcDbEntity
  8
0
100
AcDbCircle
 10
47.97478757089743
 20
407.0012446131492
 30
0.0
 40
2.299999999999999
100
AcDbArc
 50
219.1667107161331
 51
266.8369616226736
  0
ARC
  5
31833D83
330
318324AF
100
AcDbEntity
  8
0
100
AcDbCircle
 10
49.44787955716254
 20
408.2012446131493
 30
0.0
 40
4.200000000000017
100
AcDbArc
 50
180.0
 51
219.1667107161331
  0
LINE
  5
31833D84
330
318324AF
100
AcDbEntity
  8
0
100
AcDbLine
 10
47.84787955716251
 20
411.7012446131493
 30
0.0
 11
47.84787955716251
 21
404.7047485090758
 31
0.0
  0
LINE
  5
31833DB9
330
318324AF
100
AcDbEntity
  8
0
100
AcDbLine
 10
411.5946209271191
 20
662.4325341192206
 30
0.0
 11
411.5946209271191
 21
656.9433121649701
 31
0.0
  0
ARC
  5
31833DBA
330
318324AF
100
AcDbEntity
  8
0
100
AcDbCircle
 10
412.8946209271191
 20
659.6879231420953
 30
0.0
 40
3.300000000000011
100
AcDbArc
 50
140.7034272206015
 51
219.2964802390736
  0
ARC
  5
31833DBB
330
318324AF
100
AcDbEntity
  8
0
100
AcDbCircle
 10
411.73380225049
 20
658.7379231420954
 30
0.0
 40
1.8
100
AcDbArc
 50
219.2964802390736
 51
265.5652943050972
  0
ARC
  5
31833DBC
330
318324AF
100
AcDbEntity
  8
0
100
AcDbCircle
 10
411.73380225049
 20
660.6379231420953
 30
0.0
 40
1.8
100
AcDbArc
 50
94.43470569490271
 51
140.7033501036629
  0
ARC
  5
31833DBD
330
318324AF
100
AcDbEntity
  8
SAISEN
100
AcDbCircle
 10
409.3597685247877
 20
659.6879231420957
 30
0.0
 40
1.840933641609659
100
AcDbArc
 50
292.565048168416
 51
67.43495183154163
  0
LINE
  5
31833DBE
330
318324AF
100
AcDbEntity
  8
0
100
AcDbLine
 10
411.5946209271191
 20
566.4325341192206
 30
0.0
 11
411.5946209271191
 21
560.9433121649701
 31
0.0
  0
ARC
  5
31833DBF
330
318324AF
100
AcDbEntity
  8
0
100
AcDbCircle
 10
412.8946209271191
 20
563.6879231420953
 30
0.0
 40
3.300000000000011
100
AcDbArc
 50
140.7034272206015
 51
219.2964802390736
  0
ARC
  5
31833DC0
330
318324AF
100
AcDbEntity
  8
0
100
AcDbCircle
 10
411.73380225049
 20
562.7379231420954
 30
0.0
 40
1.8
100
AcDbArc
 50
219.2964802390736
 51
265.5652943050972
  0
ARC
  5
31833DC1
330
318324AF
100
AcDbEntity
  8
0
100
AcDbCircle
 10
411.73380225049
 20
564.6379231420953
 30
0.0
 40
1.8
100
AcDbArc
 50
94.43470569490271
 51
140.7033501036629
  0
ARC
  5
31833DC2
330
318324AF
100
AcDbEntity
  8
SAISEN
100
AcDbCircle
 10
409.3597685247877
 20
563.6879231420957
 30
0.0
 40
1.840933641609659
100
AcDbArc
 50
292.565048168416
 51
67.43495183154163
  0
LINE
  5
31833DC3
330
318324AF
100
AcDbEntity
  8
JISSEN
100
AcDbLine
 10
388.138212206144
 20
398.3689683119444
 30
0.0
 11
391.0750797047565
 21
390.2999911755766
 31
0.0
  0
LINE
  5
31833DC6
330
318324AF
100
AcDbEntity
  8
SUNPOU
100
AcDbLine
 10
53.63681312518713
 20
268.4045862528548
 30
0.0
 11
173.6368131251871
 21
268.4045862528548
 31
0.0
  0
LINE
  5
31833DC7
330
318324AF
100
AcDbEntity
  8
SUNPOU
100
AcDbLine
 10
173.6368131251871
 20
268.4045862528548
 30
0.0
 11
173.6368131251871
 21
232.4045862528548
 31
0.0
  0
LINE
  5
31833DC8
330
318324AF
100
AcDbEntity
  8
SUNPOU
100
AcDbLine
 10
53.63681312518725
 20
232.4045862528548
 30
0.0
 11
53.63681312518713
 21
268.4045862528548
 31
0.0
  0
LINE
  5
31833DC9
330
318324AF
100
AcDbEntity
  8
SUNPOU
100
AcDbLine
 10
53.63681312518713
 20
250.4045862528548
 30
0.0
 11
173.6368131251871
 21
250.4045862528548
 31
0.0
  0
LINE
  5
31833DCA
330
318324AF
100
AcDbEntity
  8
SUNPOU
100
AcDbLine
 10
113.6368131251871
 20
268.4045862528548
 30
0.0
 11
113.6368131251872
 21
232.4045862528548
 31
0.0
  0
LINE
  5
31833DCB
330
318324AF
100
AcDbEntity
  8
SUNPOU
100
AcDbLine
 10
53.63681312518713
 20
232.4045862528548
 30
0.0
 11
173.6368131251871
 21
232.4045862528548
 31
0.0
  0
TEXT
  5
31833DCC
330
318324AF
100
AcDbEntity
  8
SUNPOU
100
AcDbText
 10
63.23681312518714
 20
254.9045862528548
 30
0.0
 40
9.0
  1
対応製品
  7
BIGFONT
 72
     4
 11
83.63681312518712
 21
259.4045862528548
 31
0.0
100
AcDbText
  0
TEXT
  5
31833DCD
330
318324AF
100
AcDbEntity
  8
SUNPOU
100
AcDbText
 10
123.2368131251871
 20
254.9045862528548
 30
0.0
 40
9.0
  1
格納個数
  7
BIGFONT
 72
     4
 11
143.6368131251871
 21
259.4045862528548
 31
0.0
100
AcDbText
  0
TEXT
  5
31833DCE
330
318324AF
100
AcDbEntity
  8
SUNPOU
100
AcDbText
 10
66.58865184659191
 20
236.3823861653537
 30
0.0
 40
9.0
  1
EPQR
  7
K
 72
     4
 11
84.58865184659192
 21
240.4538147367822
 31
0.0
100
AcDbText
  0
TEXT
  5
31833DCF
330
318324AF
100
AcDbEntity
  8
SUNPOU
100
AcDbText
 10
135.0653845537585
 20
235.9706235688174
 30
0.0
 40
9.0
  1
20
  7
K
 72
     4
 11
143.6368131251871
 21
240.4706235688174
 31
0.0
100
AcDbText
  0
ARC
  5
31833DD0
330
318324AF
100
AcDbEntity
  8
SAISEN
100
AcDbCircle
 10
115.3478795571628
 20
441.9396009114016
 30
0.0
 40
1.840933641609659
100
AcDbArc
 50
202.5650481684181
 51
337.4349518315392
  0
ARC
  5
31833DD1
330
318324AF
100
AcDbEntity
  8
0
100
AcDbCircle
 10
116.2978795571624
 20
439.5655671856996
 30
0.0
 40
1.8
100
AcDbArc
 50
4.434705694904486
 51
50.70335010366173
  0
ARC
  5
31833DD2
330
318324AF
100
AcDbEntity
  8
0
100
AcDbCircle
 10
114.3978795571625
 20
439.5655671856996
 30
0.0
 40
1.8
100
AcDbArc
 50
129.2964802390759
 51
175.5652943050955
  0
ARC
  5
31833DD3
330
318324AF
100
AcDbEntity
  8
0
100
AcDbCircle
 10
115.3478795571625
 20
438.4047485090705
 30
0.0
 40
3.300000000000011
100
AcDbArc
 50
50.70342722060175
 51
129.2964802390759
  0
LINE
  5
31833DD4
330
318324AF
100
AcDbEntity
  8
0
100
AcDbLine
 10
118.0924905342877
 20
439.7047485090704
 30
0.0
 11
112.6032685800372
 21
439.7047485090704
 31
0.0
  0
LINE
  5
31833DD5
330
318324AF
100
AcDbEntity
  8
0
100
AcDbLine
 10
320.0924905342877
 20
439.7047485090704
 30
0.0
 11
314.6032685800372
 21
439.7047485090704
 31
0.0
  0
ARC
  5
31833DD6
330
318324AF
100
AcDbEntity
  8
0
100
AcDbCircle
 10
317.3478795571625
 20
438.4047485090705
 30
0.0
 40
3.300000000000011
100
AcDbArc
 50
50.70342722060175
 51
129.2964802390759
  0
ARC
  5
31833DD7
330
318324AF
100
AcDbEntity
  8
0
100
AcDbCircle
 10
316.3978795571626
 20
439.5655671856996
 30
0.0
 40
1.8
100
AcDbArc
 50
129.2964802390759
 51
175.5652943050955
  0
ARC
  5
31833DD8
330
318324AF
100
AcDbEntity
  8
0
100
AcDbCircle
 10
318.2978795571624
 20
439.5655671856996
 30
0.0
 40
1.8
100
AcDbArc
 50
4.434705694904486
 51
50.70335010366173
  0
ARC
  5
31833DD9
330
318324AF
100
AcDbEntity
  8
SAISEN
100
AcDbCircle
 10
317.3478795571628
 20
441.9396009114016
 30
0.0
 40
1.840933641609659
100
AcDbArc
 50
202.5650481684181
 51
337.4349518315392
  0
LINE
  5
31833E1E
330
318324AF
100
AcDbEntity
  8
JISSEN
100
AcDbLine
 10
388.8478795571625
 20
496.1879231420953
 30
0.0
 11
388.8478795571622
 21
727.1879231420953
 31
0.0
  0
ARC
  5
31833E23
330
318324AF
100
AcDbEntity
  8
JISSEN
100
AcDbCircle
 10
386.8478795571622
 20
727.1879231420953
 30
0.0
 40
2.0
100
AcDbArc
 50
0.0
 51
90.0
  0
ARC
  5
31833E24
330
318324AF
100
AcDbEntity
  8
JISSEN
100
AcDbCircle
 10
386.8478795571625
 20
496.1879231420953
 30
0.0
 40
2.0
100
AcDbArc
 50
270.0
 51
0.0000000000000382
  0
LINE
  5
31833E27
330
318324AF
100
AcDbEntity
  8
ITTEN
100
AcDbLine
 10
146.8478795571624
 20
639.1879231420952
 30
0.0
 11
106.8478795571623
 21
639.1879231420952
 31
0.0
  0
LINE
  5
31833E28
330
318324AF
100
AcDbEntity
  8
ITTEN
100
AcDbLine
 10
201.8478795571624
 20
639.1879231420952
 30
0.0
 11
161.8478795571624
 21
639.1879231420952
 31
0.0
  0
LINE
  5
31833E29
330
318324AF
100
AcDbEntity
  8
ITTEN
100
AcDbLine
 10
256.8478795571623
 20
639.1879231420952
 30
0.0
 11
216.8478795571624
 21
639.1879231420952
 31
0.0
  0
LINE
  5
31833E2A
330
318324AF
100
AcDbEntity
  8
ITTEN
100
AcDbLine
 10
311.8478795571624
 20
639.1879231420952
 30
0.0
 11
271.8478795571623
 21
639.1879231420952
 31
0.0
  0
LINE
  5
31833E2B
330
318324AF
100
AcDbEntity
  8
ITTEN
100
AcDbLine
 10
126.8478795571624
 20
659.1879231420953
 30
0.0
 11
126.8478795571624
 21
619.1879231420953
 31
0.0
  0
LINE
  5
31833E2C
330
318324AF
100
AcDbEntity
  8
ITTEN
100
AcDbLine
 10
181.8478795571623
 20
659.1879231420953
 30
0.0
 11
181.8478795571623
 21
619.1879231420953
 31
0.0
  0
LINE
  5
31833E2D
330
318324AF
100
AcDbEntity
  8
ITTEN
100
AcDbLine
 10
236.8478795571624
 20
659.1879231420953
 30
0.0
 11
236.8478795571624
 21
619.1879231420953
 31
0.0
  0
LINE
  5
31833E2E
330
318324AF
100
AcDbEntity
  8
ITTEN
100
AcDbLine
 10
291.8478795571624
 20
659.1879231420953
 30
0.0
 11
291.8478795571624
 21
619.1879231420953
 31
0.0
  0
LINE
  5
31833E2F
330
318324AF
100
AcDbEntity
  8
ITTEN
100
AcDbLine
 10
311.8478795571625
 20
584.1879231420953
 30
0.0
 11
271.8478795571625
 21
584.1879231420953
 31
0.0
  0
LINE
  5
31833E30
330
318324AF
100
AcDbEntity
  8
ITTEN
100
AcDbLine
 10
291.8478795571625
 20
604.1879231420953
 30
0.0
 11
291.8478795571625
 21
564.1879231420952
 31
0.0
  0
LINE
  5
31833E31
330
318324AF
100
AcDbEntity
  8
ITTEN
100
AcDbLine
 10
256.8478795571625
 20
584.1879231420953
 30
0.0
 11
216.8478795571625
 21
584.1879231420953
 31
0.0
  0
LINE
  5
31833E32
330
318324AF
100
AcDbEntity
  8
ITTEN
100
AcDbLine
 10
236.8478795571625
 20
604.1879231420953
 30
0.0
 11
236.8478795571625
 21
564.1879231420952
 31
0.0
  0
LINE
  5
31833E33
330
318324AF
100
AcDbEntity
  8
ITTEN
100
AcDbLine
 10
201.8478795571625
 20
584.1879231420953
 30
0.0
 11
161.8478795571625
 21
584.1879231420953
 31
0.0
  0
LINE
  5
31833E34
330
318324AF
100
AcDbEntity
  8
ITTEN
100
AcDbLine
 10
181.8478795571625
 20
604.1879231420953
 30
0.0
 11
181.8478795571625
 21
564.1879231420952
 31
0.0
  0
LINE
  5
31833E35
330
318324AF
100
AcDbEntity
  8
ITTEN
100
AcDbLine
 10
146.8478795571625
 20
584.1879231420953
 30
0.0
 11
106.8478795571625
 21
584.1879231420953
 31
0.0
  0
LINE
  5
31833E36
330
318324AF
100
AcDbEntity
  8
ITTEN
100
AcDbLine
 10
126.8478795571625
 20
604.1879231420953
 30
0.0
 11
126.8478795571625
 21
564.1879231420952
 31
0.0
  0
ENDSEC
  0
SECTION
  2
OBJECTS
  0
DICTIONARY
  5
318324A3
330
0
100
AcDbDictionary
  3
ACAD_GROUP
350
318324A4
  3
ACAD_LAYOUT
350
3183277C
  3
ACAD_MLINESTYLE
350
318324A5
  3
ACAD_PLOTSETTINGS
350
3183277D
  3
ACAD_PLOTSTYLENAME
350
3183277A
  3
ACDBHEADERROUNDTRIPXREC
350
31833E39
  3
ACDBVARIABLEDICTIONARY
350
318335F1
  0
DICTIONARY
  5
31832D4E
330
318324AF
100
AcDbDictionary
280
     1
  3
ACAD_LAYOUTSELFREF
360
31833E5B
  0
DICTIONARY
  5
31832D4C
330
318324AC
100
AcDbDictionary
280
     1
  3
ACAD_LAYOUTSELFREF
360
31833E5A
  0
DICTIONARY
  5
318324A4
102
{ACAD_REACTORS
330
318324A3
102
}
330
318324A3
100
AcDbDictionary
  0
DICTIONARY
  5
3183277C
102
{ACAD_REACTORS
330
318324A3
102
}
330
318324A3
100
AcDbDictionary
  0
DICTIONARY
  5
318324A5
102
{ACAD_REACTORS
330
318324A3
102
}
330
318324A3
100
AcDbDictionary
  3
STANDARD
350
318324B2
  0
DICTIONARY
  5
3183277D
102
{ACAD_REACTORS
330
318324A3
102
}
330
318324A3
100
AcDbDictionary
  0
ACDBDICTIONARYWDFLT
  5
3183277A
102
{ACAD_REACTORS
330
318324A3
102
}
330
318324A3
100
AcDbDictionary
281
     1
  3
Normal
350
3183277B
100
AcDbDictionaryWithDefault
340
3183277B
  0
DICTIONARY
  5
31833E39
102
{ACAD_REACTORS
330
318324A3
102
}
330
318324A3
100
AcDbDictionary
  3
CEPSNTYPE
350
31833E43
  3
DIMSTYLEDATA
350
31833E47
  3
FINGERPRINTGUID
350
31833E44
  3
HYPERLINKBASE
350
31833E3C
  3
INSUNITS
350
31833E42
  3
LAYOUTDICT
350
31833E3E
  3
LWETCUNION
350
31833E41
  3
PLOTSETDICT
350
31833E3F
  3
PLOTSTYLNAMDICT
350
31833E40
  3
PSVPSCALE
350
31833E46
  3
PUCSBASE
350
31833E4A
  3
PUCSORGBACK
350
31833E50
  3
PUCSORGBOTTOM
350
31833E4C
  3
PUCSORGFRONT
350
31833E4F
  3
PUCSORGLEFT
350
31833E4D
  3
PUCSORGRIGHT
350
31833E4E
  3
PUCSORGTOP
350
31833E4B
  3
PUCSORTHOREF
350
31833E48
  3
PUCSORTHOVIEW
350
31833E49
  3
STYLESHEET
350
31833E3D
  3
TSTACKALIGN
350
31833E3A
  3
TSTACKSIZE
350
31833E3B
  3
UCSBASE
350
31833E53
  3
UCSORGBACK
350
31833E59
  3
UCSORGBOTTOM
350
31833E55
  3
UCSORGFRONT
350
31833E58
  3
UCSORGLEFT
350
31833E56
  3
UCSORGRIGHT
350
31833E57
  3
UCSORGTOP
350
31833E54
  3
UCSORTHOREF
350
31833E51
  3
UCSORTHOVIEW
350
31833E52
  3
VERSIONGUID
350
31833E45
  0
DICTIONARY
  5
318335F1
102
{ACAD_REACTORS
330
318324A3
102
}
330
318324A3
100
AcDbDictionary
  3
DIMASSOC
350
318335F2
  0
XRECORD
  5
31833E5B
102
{ACAD_REACTORS
330
31832D4E
102
}
330
31832D4E
100
AcDbXrecord
340
318324AF
  0
XRECORD
  5
31833E5A
102
{ACAD_REACTORS
330
31832D4C
102
}
330
31832D4C
100
AcDbXrecord
340
318324AC
  0
MLINESTYLE
  5
318324B2
102
{ACAD_REACTORS
330
318324A5
102
}
330
318324A5
100
AcDbMlineStyle
  2
STANDARD
 70
     0
  3

 62
     0
 51
90.0
 52
90.0
 71
     2
 49
0.5
 62
   256
  6
BYLAYER
 49
-0.5
 62
   256
  6
BYLAYER
  0
ACDBPLACEHOLDER
  5
3183277B
102
{ACAD_REACTORS
330
3183277A
102
}
330
3183277A
100
AcDbPlaceHolder
280
     0
  0
XRECORD
  5
31833E43
102
{ACAD_REACTORS
330
31833E39
102
}
330
31833E39
100
AcDbXrecord
 90
        0
  0
XRECORD
  5
31833E47
102
{ACAD_REACTORS
330
31833E39
102
}
330
31833E39
100
AcDbXrecord
1000
DSTYLE
1002
{
1070
   341
340
318324B9
1070
   342
340
318324B9
1070
   343
340
318324B9
1070
   344
340
318324B9
1002
}
  0
XRECORD
  5
31833E44
102
{ACAD_REACTORS
330
31833E39
102
}
330
31833E39
100
AcDbXrecord
  1
{DCEE27B6-A85E-4C57-9B36-E2F0ECEE1DE5}
  0
XRECORD
  5
31833E3C
102
{ACAD_REACTORS
330
31833E39
102
}
330
31833E39
100
AcDbXrecord
  1

  0
XRECORD
  5
31833E42
102
{ACAD_REACTORS
330
31833E39
102
}
330
31833E39
100
AcDbXrecord
 90
        0
  0
XRECORD
  5
31833E3E
102
{ACAD_REACTORS
330
31833E39
102
}
330
31833E39
100
AcDbXrecord
340
3183277C
  0
XRECORD
  5
31833E41
102
{ACAD_REACTORS
330
31833E39
102
}
330
31833E39
100
AcDbXrecord
 90
    14877
  0
XRECORD
  5
31833E3F
102
{ACAD_REACTORS
330
31833E39
102
}
330
31833E39
100
AcDbXrecord
340
3183277D
  0
XRECORD
  5
31833E40
102
{ACAD_REACTORS
330
31833E39
102
}
330
31833E39
100
AcDbXrecord
340
3183277A
  0
XRECORD
  5
31833E46
102
{ACAD_REACTORS
330
31833E39
102
}
330
31833E39
100
AcDbXrecord
 40
0.0
  0
XRECORD
  5
31833E4A
102
{ACAD_REACTORS
330
31833E39
102
}
330
31833E39
100
AcDbXrecord
340
0
  0
XRECORD
  5
31833E50
102
{ACAD_REACTORS
330
31833E39
102
}
330
31833E39
100
AcDbXrecord
 10
0.0
 20
0.0
 30
0.0
  0
XRECORD
  5
31833E4C
102
{ACAD_REACTORS
330
31833E39
102
}
330
31833E39
100
AcDbXrecord
 10
0.0
 20
0.0
 30
0.0
  0
XRECORD
  5
31833E4F
102
{ACAD_REACTORS
330
31833E39
102
}
330
31833E39
100
AcDbXrecord
 10
0.0
 20
0.0
 30
0.0
  0
XRECORD
  5
31833E4D
102
{ACAD_REACTORS
330
31833E39
102
}
330
31833E39
100
AcDbXrecord
 10
0.0
 20
0.0
 30
0.0
  0
XRECORD
  5
31833E4E
102
{ACAD_REACTORS
330
31833E39
102
}
330
31833E39
100
AcDbXrecord
 10
0.0
 20
0.0
 30
0.0
  0
XRECORD
  5
31833E4B
102
{ACAD_REACTORS
330
31833E39
102
}
330
31833E39
100
AcDbXrecord
 10
0.0
 20
0.0
 30
0.0
  0
XRECORD
  5
31833E48
102
{ACAD_REACTORS
330
31833E39
102
}
330
31833E39
100
AcDbXrecord
340
0
  0
XRECORD
  5
31833E49
102
{ACAD_REACTORS
330
31833E39
102
}
330
31833E39
100
AcDbXrecord
 70
     0
  0
XRECORD
  5
31833E3D
102
{ACAD_REACTORS
330
31833E39
102
}
330
31833E39
100
AcDbXrecord
  1
aclt.ctb
  0
XRECORD
  5
31833E3A
102
{ACAD_REACTORS
330
31833E39
102
}
330
31833E39
100
AcDbXrecord
 90
        1
  0
XRECORD
  5
31833E3B
102
{ACAD_REACTORS
330
31833E39
102
}
330
31833E39
100
AcDbXrecord
 90
       70
  0
XRECORD
  5
31833E53
102
{ACAD_REACTORS
330
31833E39
102
}
330
31833E39
100
AcDbXrecord
340
0
  0
XRECORD
  5
31833E59
102
{ACAD_REACTORS
330
31833E39
102
}
330
31833E39
100
AcDbXrecord
 10
0.0
 20
0.0
 30
0.0
  0
XRECORD
  5
31833E55
102
{ACAD_REACTORS
330
31833E39
102
}
330
31833E39
100
AcDbXrecord
 10
0.0
 20
0.0
 30
0.0
  0
XRECORD
  5
31833E58
102
{ACAD_REACTORS
330
31833E39
102
}
330
31833E39
100
AcDbXrecord
 10
0.0
 20
0.0
 30
0.0
  0
XRECORD
  5
31833E56
102
{ACAD_REACTORS
330
31833E39
102
}
330
31833E39
100
AcDbXrecord
 10
0.0
 20
0.0
 30
0.0
  0
XRECORD
  5
31833E57
102
{ACAD_REACTORS
330
31833E39
102
}
330
31833E39
100
AcDbXrecord
 10
0.0
 20
0.0
 30
0.0
  0
XRECORD
  5
31833E54
102
{ACAD_REACTORS
330
31833E39
102
}
330
31833E39
100
AcDbXrecord
 10
0.0
 20
0.0
 30
0.0
  0
XRECORD
  5
31833E51
102
{ACAD_REACTORS
330
31833E39
102
}
330
31833E39
100
AcDbXrecord
340
0
  0
XRECORD
  5
31833E52
102
{ACAD_REACTORS
330
31833E39
102
}
330
31833E39
100
AcDbXrecord
 70
     0
  0
XRECORD
  5
31833E45
102
{ACAD_REACTORS
330
31833E39
102
}
330
31833E39
100
AcDbXrecord
  1
{A5BA797F-21A9-409B-AC01-EE19ABD526F9}
  0
DICTIONARYVAR
  5
318335F2
102
{ACAD_REACTORS
330
318335F1
102
}
330
318335F1
100
DictionaryVariables
280
     0
  1
0
  0
ENDSEC
  0
EOF
