  0
SECTION
  2
HEADER
  9
$ACADVER
  1
AC1014
  9
$ACADMAINTVER
 70
     9
  9
$DWGCODEPAGE
  3
ANSI_932
  9
$INSBASE
 10
0.0
 20
0.0
 30
0.0
  9
$EXTMIN
 10
0.0
 20
0.0
 30
0.0
  9
$EXTMAX
 10
542.9999978399998
 20
818.9999999999997
 30
0.0
  9
$LIMMIN
 10
0.0
 20
0.0
  9
$LIMMAX
 10
542.9999978399998
 20
818.9999999999997
  9
$ORTHOMODE
 70
     1
  9
$REGENMODE
 70
     1
  9
$FILLMODE
 70
     1
  9
$QTEXTMODE
 70
     0
  9
$MIRRTEXT
 70
     0
  9
$DRAGMODE
 70
     2
  9
$LTSCALE
 40
5.0
  9
$OSMODE
 70
   167
  9
$ATTMODE
 70
     1
  9
$TEXTSIZE
 40
3.0
  9
$TRACEWID
 40
0.05
  9
$TEXTSTYLE
  7
K
  9
$CLAYER
  8
JISSEN
  9
$CELTYPE
  6
BYLAYER
  9
$CECOLOR
 62
   256
  9
$CELTSCALE
 40
1.0
  9
$DELOBJ
 70
     1
  9
$DISPSILH
 70
     0
  9
$DIMSCALE
 40
3.0
  9
$DIMASZ
 40
3.0
  9
$DIMEXO
 40
0.75
  9
$DIMDLI
 40
6.0
  9
$DIMRND
 40
0.0
  9
$DIMDLE
 40
0.0
  9
$DIMEXE
 40
1.0
  9
$DIMTP
 40
495.0
  9
$DIMTM
 40
0.0
  9
$DIMTXT
 40
3.0
  9
$DIMCEN
 40
0.0
  9
$DIMTSZ
 40
0.0
  9
$DIMTOL
 70
     0
  9
$DIMLIM
 70
     0
  9
$DIMTIH
 70
     0
  9
$DIMTOH
 70
     0
  9
$DIMSE1
 70
     0
  9
$DIMSE2
 70
     0
  9
$DIMTAD
 70
     3
  9
$DIMZIN
 70
     8
  9
$DIMBLK
  1
ARROWANG
  9
$DIMASO
 70
     0
  9
$DIMSHO
 70
     0
  9
$DIMPOST
  1

  9
$DIMAPOST
  1

  9
$DIMALT
 70
     0
  9
$DIMALTD
 70
     2
  9
$DIMALTF
 40
25.4
  9
$DIMLFAC
 40
1.0
  9
$DIMTOFL
 70
     1
  9
$DIMTVP
 40
0.0
  9
$DIMTIX
 70
     1
  9
$DIMSOXD
 70
     0
  9
$DIMSAH
 70
     1
  9
$DIMBLK1
  1
ARROWANG
  9
$DIMBLK2
  1
ARROWANG
  9
$DIMSTYLE
  2
IMAO
  9
$DIMCLRD
 70
   256
  9
$DIMCLRE
 70
   256
  9
$DIMCLRT
 70
   256
  9
$DIMTFAC
 40
1.0
  9
$DIMGAP
 40
1.0
  9
$DIMJUST
 70
     0
  9
$DIMSD1
 70
     0
  9
$DIMSD2
 70
     0
  9
$DIMTOLJ
 70
     1
  9
$DIMTZIN
 70
     0
  9
$DIMALTZ
 70
     0
  9
$DIMALTTZ
 70
     0
  9
$DIMFIT
 70
     3
  9
$DIMUPT
 70
     0
  9
$DIMUNIT
 70
     2
  9
$DIMDEC
 70
     2
  9
$DIMTDEC
 70
     2
  9
$DIMALTU
 70
     2
  9
$DIMALTTD
 70
     2
  9
$DIMTXSTY
  7
K
  9
$DIMAUNIT
 70
     0
  9
$LUNITS
 70
     2
  9
$LUPREC
 70
     2
  9
$SKETCHINC
 40
0.1
  9
$FILLETRAD
 40
1.399999999999999
  9
$AUNITS
 70
     0
  9
$AUPREC
 70
     2
  9
$MENU
  1
STDR12J
  9
$ELEVATION
 40
0.0
  9
$PELEVATION
 40
0.0
  9
$THICKNESS
 40
0.0
  9
$LIMCHECK
 70
     0
  9
$BLIPMODE
 70
     0
  9
$CHAMFERA
 40
0.0
  9
$CHAMFERB
 40
0.0
  9
$CHAMFERC
 40
0.0
  9
$CHAMFERD
 40
0.0
  9
$SKPOLY
 70
     0
  9
$TDCREATE
 40
2450694.750535185
  9
$TDUPDATE
 40
2453365.716412454
  9
$TDINDWG
 40
0.1865348611
  9
$TDUSRTIMER
 40
0.1865348611
  9
$USRTIMER
 70
     1
  9
$ANGBASE
 50
0.0
  9
$ANGDIR
 70
     0
  9
$PDMODE
 70
     0
  9
$PDSIZE
 40
0.0
  9
$PLINEWID
 40
0.0
  9
$COORDS
 70
     2
  9
$SPLFRAME
 70
     0
  9
$SPLINETYPE
 70
     6
  9
$SPLINESEGS
 70
     8
  9
$ATTDIA
 70
     0
  9
$ATTREQ
 70
     1
  9
$HANDLING
 70
 22529
  9
$HANDSEED
  5
31833AC7
  9
$SURFTAB1
 70
     6
  9
$SURFTAB2
 70
     6
  9
$SURFTYPE
 70
     6
  9
$SURFU
 70
     6
  9
$SURFV
 70
     6
  9
$UCSNAME
  2

  9
$UCSORG
 10
0.0
 20
0.0
 30
0.0
  9
$UCSXDIR
 10
1.0
 20
0.0
 30
0.0
  9
$UCSYDIR
 10
0.0
 20
1.0
 30
0.0
  9
$PUCSNAME
  2

  9
$PUCSORG
 10
0.0
 20
0.0
 30
0.0
  9
$PUCSXDIR
 10
1.0
 20
0.0
 30
0.0
  9
$PUCSYDIR
 10
0.0
 20
1.0
 30
0.0
  9
$USERI1
 70
     4
  9
$USERI2
 70
     1
  9
$USERI3
 70
     1
  9
$USERI4
 70
     1
  9
$USERI5
 70
     1
  9
$USERR1
 40
1.0
  9
$USERR2
 40
3.0
  9
$USERR3
 40
3.0
  9
$USERR4
 40
1.5
  9
$USERR5
 40
10.0
  9
$WORLDVIEW
 70
     1
  9
$SHADEDGE
 70
     3
  9
$SHADEDIF
 70
    70
  9
$TILEMODE
 70
     1
  9
$MAXACTVP
 70
    16
  9
$PINSBASE
 10
0.0
 20
0.0
 30
0.0
  9
$PLIMCHECK
 70
     0
  9
$PEXTMIN
 10
1.000000000000000E+20
 20
1.000000000000000E+20
 30
1.000000000000000E+20
  9
$PEXTMAX
 10
-1.000000000000000E+20
 20
-1.000000000000000E+20
 30
-1.000000000000000E+20
  9
$PLIMMIN
 10
0.0
 20
0.0
  9
$PLIMMAX
 10
12.0
 20
9.0
  9
$UNITMODE
 70
     0
  9
$VISRETAIN
 70
     0
  9
$PLINEGEN
 70
     0
  9
$PSLTSCALE
 70
     0
  9
$TREEDEPTH
 70
     0
  9
$PICKSTYLE
 70
     1
  9
$CMLSTYLE
  2
STANDARD
  9
$CMLJUST
 70
     0
  9
$CMLSCALE
 40
1.0
  9
$PROXYGRAPHICS
 70
     1
  9
$MEASUREMENT
 70
     0
  0
ENDSEC
  0
SECTION
  2
CLASSES
  0
CLASS
  1
LWPOLYLINE
  2
AcDbPolyline
  3
AutoCAD 2000
 90
        0
280
     0
281
     1
  0
CLASS
  1
ACDBDICTIONARYWDFLT
  2
AcDbDictionaryWithDefault
  3
AutoCAD 2000
 90
        0
280
     0
281
     0
  0
CLASS
  1
ACDBPLACEHOLDER
  2
AcDbPlaceHolder
  3
AutoCAD 2000
 90
        0
280
     0
281
     0
  0
CLASS
  1
LAYOUT
  2
AcDbLayout
  3
AutoCAD 2000
 90
        0
280
     0
281
     0
  0
CLASS
  1
LONG_TRANSACTION
  2
AcDbLongTransaction
  3
AutoCAD 2000
 90
        0
280
     0
281
     0
  0
CLASS
  1
LWPOLYLINE
  2
AcDbPolyline
  3
AutoCAD 2000
 90
        0
280
     0
281
     1
  0
CLASS
  1
HATCH
  2
AcDbHatch
  3
AutoCAD 2000
 90
        0
280
     0
281
     1
  0
CLASS
  1
XRECORD
  2
AcDbXrecord
  3
AutoCAD 2000
 90
        0
280
     0
281
     0
  0
CLASS
  1
LONG_TRANSACTION
  2
AcDbLongTransaction
  3
AutoCAD 2000
 90
        0
280
     0
281
     0
  0
CLASS
  1
LWPOLYLINE
  2
AcDbPolyline
  3
AutoCAD 2000
 90
        0
280
     0
281
     1
  0
CLASS
  1
HATCH
  2
AcDbHatch
  3
AutoCAD 2000
 90
        0
280
     0
281
     1
  0
CLASS
  1
XRECORD
  2
AcDbXrecord
  3
AutoCAD 2000
 90
        0
280
     0
281
     0
  0
CLASS
  1
LONG_TRANSACTION
  2
AcDbLongTransaction
  3
AutoCAD 2000
 90
        0
280
     0
281
     0
  0
CLASS
  1
LWPOLYLINE
  2
AcDbPolyline
  3
AutoCAD 2000
 90
        0
280
     0
281
     1
  0
CLASS
  1
HATCH
  2
AcDbHatch
  3
AutoCAD 2000
 90
        0
280
     0
281
     1
  0
CLASS
  1
XRECORD
  2
AcDbXrecord
  3
AutoCAD 2000
 90
        0
280
     0
281
     0
  0
CLASS
  1
LONG_TRANSACTION
  2
AcDbLongTransaction
  3
AutoCAD 2000
 90
        0
280
     0
281
     0
  0
CLASS
  1
LWPOLYLINE
  2
AcDbPolyline
  3
AutoCAD 2000
 90
        0
280
     0
281
     1
  0
CLASS
  1
HATCH
  2
AcDbHatch
  3
AutoCAD 2000
 90
        0
280
     0
281
     1
  0
CLASS
  1
XRECORD
  2
AcDbXrecord
  3
AutoCAD 2000
 90
        0
280
     0
281
     0
  0
CLASS
  1
LONG_TRANSACTION
  2
AcDbLongTransaction
  3
AutoCAD 2000
 90
        0
280
     0
281
     0
  0
CLASS
  1
LWPOLYLINE
  2
AcDbPolyline
  3
AutoCAD 2000
 90
        0
280
     0
281
     1
  0
CLASS
  1
HATCH
  2
AcDbHatch
  3
AutoCAD 2000
 90
        0
280
     0
281
     1
  0
CLASS
  1
XRECORD
  2
AcDbXrecord
  3
AutoCAD 2000
 90
        0
280
     0
281
     0
  0
CLASS
  1
DICTIONARYVAR
  2
AcDbDictionaryVar
  3
AutoCAD 2000
 90
        0
280
     0
281
     0
  0
CLASS
  1
LONG_TRANSACTION
  2
AcDbLongTransaction
  3
AutoCAD 2000
 90
        0
280
     0
281
     0
  0
CLASS
  1
LWPOLYLINE
  2
AcDbPolyline
  3
AutoCAD 2000
 90
        0
280
     0
281
     1
  0
CLASS
  1
HATCH
  2
AcDbHatch
  3
AutoCAD 2000
 90
        0
280
     0
281
     1
  0
CLASS
  1
XRECORD
  2
AcDbXrecord
  3
AutoCAD 2000
 90
        0
280
     0
281
     0
  0
ENDSEC
  0
SECTION
  2
TABLES
  0
TABLE
  2
VPORT
  5
3183249F
330
0
100
AcDbSymbolTable
 70
    10
  0
VPORT
  5
318324C3
330
3183249F
100
AcDbSymbolTableRecord
100
AcDbViewportTableRecord
  2
2
 70
     0
 10
0.5
 20
0.0
 11
1.0
 21
1.0
 12
0.9240312421264802
 22
1.052650975462766
 13
0.0
 23
0.0
 14
1.0
 24
1.0
 15
10.0
 25
10.0
 16
0.0
 26
0.0
 36
1.0
 17
0.0
 27
0.0
 37
0.0
 40
2.105301950925533
 41
0.8778135048231511
 42
50.0
 43
0.0
 44
0.0
 50
0.0
 51
0.0
 71
     0
 72
   500
 73
     1
 74
     1
 75
     0
 76
     0
 77
     0
 78
     0
  0
VPORT
  5
318324C4
330
3183249F
100
AcDbSymbolTableRecord
100
AcDbViewportTableRecord
  2
2
 70
     0
 10
0.0
 20
0.0
 11
0.5
 21
1.0
 12
0.9240312421264802
 22
1.052650975462766
 13
0.0
 23
0.0
 14
1.0
 24
1.0
 15
10.0
 25
10.0
 16
0.0
 26
0.0
 36
1.0
 17
0.0
 27
0.0
 37
0.0
 40
2.105301950925533
 41
0.8778135048231511
 42
50.0
 43
0.0
 44
0.0
 50
0.0
 51
0.0
 71
     0
 72
   500
 73
     1
 74
     1
 75
     0
 76
     0
 77
     0
 78
     0
  0
VPORT
  5
318324C5
330
3183249F
100
AcDbSymbolTableRecord
100
AcDbViewportTableRecord
  2
3
 70
     0
 10
0.0
 20
0.5
 11
1.0
 21
1.0
 12
2.832169994473273
 22
1.052650975462766
 13
0.0
 23
0.0
 14
1.0
 24
1.0
 15
10.0
 25
10.0
 16
0.0
 26
0.0
 36
1.0
 17
0.0
 27
0.0
 37
0.0
 40
2.105301950925533
 41
3.571428571428571
 42
50.0
 43
0.0
 44
0.0
 50
0.0
 51
0.0
 71
     0
 72
   500
 73
     1
 74
     1
 75
     0
 76
     0
 77
     0
 78
     0
  0
VPORT
  5
318324C6
330
3183249F
100
AcDbSymbolTableRecord
100
AcDbViewportTableRecord
  2
3
 70
     0
 10
0.0
 20
0.0
 11
1.0
 21
0.5
 12
2.856741679241311
 22
1.052650975462766
 13
0.0
 23
0.0
 14
1.0
 24
1.0
 15
10.0
 25
10.0
 16
0.0
 26
0.0
 36
1.0
 17
0.0
 27
0.0
 37
0.0
 40
2.105301950925533
 41
3.594771241830065
 42
50.0
 43
0.0
 44
0.0
 50
0.0
 51
0.0
 71
     0
 72
   500
 73
     1
 74
     1
 75
     0
 76
     0
 77
     0
 78
     0
  0
VPORT
  5
318324C7
330
3183249F
100
AcDbSymbolTableRecord
100
AcDbViewportTableRecord
  2
4
 70
     0
 10
0.5
 20
0.0
 11
1.0
 21
0.5
 12
2.886857516709719
 22
1.052650975462766
 13
0.0
 23
0.0
 14
1.0
 24
1.0
 15
10.0
 25
10.0
 16
0.0
 26
0.0
 36
1.0
 17
0.0
 27
0.0
 37
0.0
 40
4.27520703030907
 41
1.784313725490195
 42
50.0
 43
0.0
 44
0.0
 50
0.0
 51
0.0
 71
     0
 72
   500
 73
     1
 74
     1
 75
     0
 76
     0
 77
     0
 78
     0
  0
VPORT
  5
318324C8
330
3183249F
100
AcDbSymbolTableRecord
100
AcDbViewportTableRecord
  2
4
 70
     0
 10
0.5
 20
0.5
 11
1.0
 21
1.0
 12
2.862090274555523
 22
1.052650975462766
 13
0.0
 23
0.0
 14
1.0
 24
1.0
 15
10.0
 25
10.0
 16
0.0
 26
0.0
 36
1.0
 17
0.0
 27
0.0
 37
0.0
 40
4.27520703030907
 41
1.772727272727272
 42
50.0
 43
0.0
 44
0.0
 50
0.0
 51
0.0
 71
     0
 72
   500
 73
     1
 74
     1
 75
     0
 76
     0
 77
     0
 78
     0
  0
VPORT
  5
318324C9
330
3183249F
100
AcDbSymbolTableRecord
100
AcDbViewportTableRecord
  2
4
 70
     0
 10
0.0
 20
0.5
 11
0.5
 21
1.0
 12
2.862090274555523
 22
1.052650975462766
 13
0.0
 23
0.0
 14
1.0
 24
1.0
 15
10.0
 25
10.0
 16
0.0
 26
0.0
 36
1.0
 17
0.0
 27
0.0
 37
0.0
 40
4.27520703030907
 41
1.772727272727272
 42
50.0
 43
0.0
 44
0.0
 50
0.0
 51
0.0
 71
     0
 72
   500
 73
     1
 74
     1
 75
     0
 76
     0
 77
     0
 78
     0
  0
VPORT
  5
318324CA
330
3183249F
100
AcDbSymbolTableRecord
100
AcDbViewportTableRecord
  2
4
 70
     0
 10
0.0
 20
0.0
 11
0.5
 21
0.5
 12
2.886857516709719
 22
1.052650975462766
 13
0.0
 23
0.0
 14
1.0
 24
1.0
 15
10.0
 25
10.0
 16
0.0
 26
0.0
 36
1.0
 17
0.0
 27
0.0
 37
0.0
 40
4.27520703030907
 41
1.784313725490195
 42
50.0
 43
0.0
 44
0.0
 50
0.0
 51
0.0
 71
     0
 72
   500
 73
     1
 74
     1
 75
     0
 76
     0
 77
     0
 78
     0
  0
VPORT
  5
31833AA3
330
3183249F
100
AcDbSymbolTableRecord
100
AcDbViewportTableRecord
  2
*ACTIVE
 70
     0
 10
0.0
 20
0.0
 11
1.0
 21
1.0
 12
508.3405415340325
 22
409.4999999999998
 13
0.0
 23
0.0
 14
1.0
 24
1.0
 15
10.0
 25
10.0
 16
0.0
 26
0.0
 36
1.0
 17
0.0
 27
0.0
 37
0.0
 40
828.3809144491369
 41
1.771962616822429
 42
50.0
 43
0.0
 44
0.0
 50
0.0
 51
0.0
 71
     0
 72
   500
 73
     1
 74
     0
 75
     0
 76
     0
 77
     0
 78
     0
  0
ENDTAB
  0
TABLE
  2
LTYPE
  5
3183249C
330
0
100
AcDbSymbolTable
 70
     3
  0
LTYPE
  5
318324A9
330
3183249C
100
AcDbSymbolTableRecord
100
AcDbLinetypeTableRecord
  2
BYBLOCK
 70
     0
  3

 72
    65
 73
     0
 40
0.0
  0
LTYPE
  5
318324AA
330
3183249C
100
AcDbSymbolTableRecord
100
AcDbLinetypeTableRecord
  2
BYLAYER
 70
     0
  3

 72
    65
 73
     0
 40
0.0
  0
LTYPE
  5
318324AB
330
3183249C
100
AcDbSymbolTableRecord
100
AcDbLinetypeTableRecord
  2
CONTINUOUS
 70
     0
  3
実線
 72
    65
 73
     0
 40
0.0
  0
LTYPE
  5
318324C0
330
3183249C
100
AcDbSymbolTableRecord
100
AcDbLinetypeTableRecord
  2
CENTER
 70
     0
  3
____ _ ____ _ ____ _ ____ _ ____ _ ____ _ ____
 72
    65
 73
     4
 40
2.0
 49
1.25
 74
     0
 49
-0.25
 74
     0
 49
0.25
 74
     0
 49
-0.25
 74
     0
  0
LTYPE
  5
318324C2
330
3183249C
100
AcDbSymbolTableRecord
100
AcDbLinetypeTableRecord
  2
HIDDEN
 70
     0
  3
_ _ _ _ _ _ _ _ _ _ _ _ _ _ _ _ _ _ _ _ _ _ _
 72
    65
 73
     2
 40
0.375
 49
0.25
 74
     0
 49
-0.125
 74
     0
  0
ENDTAB
  0
TABLE
  2
LAYER
  5
31832499
330
0
100
AcDbSymbolTable
 70
     7
  0
LAYER
  5
318324A6
330
31832499
100
AcDbSymbolTableRecord
100
AcDbLayerTableRecord
  2
0
 70
     0
 62
     7
  6
CONTINUOUS
  0
LAYER
  5
318324CF
330
31832499
100
AcDbSymbolTableRecord
100
AcDbLayerTableRecord
  2
ITTEN
 70
     0
 62
     1
  6
CENTER
  0
LAYER
  5
318324D2
330
31832499
100
AcDbSymbolTableRecord
100
AcDbLayerTableRecord
  2
SUNPOU
 70
     0
 62
     3
  6
CONTINUOUS
  0
LAYER
  5
318324D4
330
31832499
100
AcDbSymbolTableRecord
100
AcDbLayerTableRecord
  2
SAISEN
 70
     0
 62
     4
  6
CONTINUOUS
  0
LAYER
  5
318324D5
330
31832499
100
AcDbSymbolTableRecord
100
AcDbLayerTableRecord
  2
JISSEN
 70
     0
 62
     7
  6
CONTINUOUS
  0
LAYER
  5
318324D9
330
31832499
100
AcDbSymbolTableRecord
100
AcDbLayerTableRecord
  2
WAKU
 70
     0
 62
     5
  6
CONTINUOUS
  0
LAYER
  5
3183292E
330
31832499
100
AcDbSymbolTableRecord
100
AcDbLayerTableRecord
  2
2
 70
     0
 62
     2
  6
HIDDEN
  0
ENDTAB
  0
TABLE
  2
STYLE
  5
3183249A
330
0
100
AcDbSymbolTable
 70
     3
  0
STYLE
  5
318324A7
330
3183249A
100
AcDbSymbolTableRecord
100
AcDbTextStyleTableRecord
  2
STANDARD
 70
     0
 40
0.0
 41
1.0
 50
0.0
 71
     0
 42
0.2
  3
ROMANS
  4
EXTFONT
  0
STYLE
  5
318324BE
330
3183249A
100
AcDbSymbolTableRecord
100
AcDbTextStyleTableRecord
  2
K
 70
     0
 40
0.0
 41
1.0
 50
0.0
 71
     0
 42
3.0
  3
ROMANS.shx
  4
bigfont.shx
  0
STYLE
  5
3183292F
330
3183249A
100
AcDbSymbolTableRecord
100
AcDbTextStyleTableRecord
  2
BIGFONT
 70
     0
 40
0.0
 41
1.0
 50
0.0
 71
     0
 42
9.0
  3
txt.shx
  4
bigfont
  0
ENDTAB
  0
TABLE
  2
VIEW
  5
3183249D
330
0
100
AcDbSymbolTable
 70
     0
  0
ENDTAB
  0
TABLE
  2
UCS
  5
3183249E
330
0
100
AcDbSymbolTable
 70
     0
  0
ENDTAB
  0
TABLE
  2
APPID
  5
318324A0
330
0
100
AcDbSymbolTable
 70
     1
  0
APPID
  5
318324A8
330
318324A0
100
AcDbSymbolTableRecord
100
AcDbRegAppTableRecord
  2
ACAD
 70
     0
  0
ENDTAB
  0
TABLE
  2
DIMSTYLE
  5
318324A1
330
0
100
AcDbSymbolTable
 70
     1
  0
DIMSTYLE
105
318324CD
330
318324A1
100
AcDbSymbolTableRecord
100
AcDbDimStyleTableRecord
  2
IMAO
 70
     0
  3

  4

  5
ARROWANG
  6
ARROWANG
  7
ARROWANG
 40
1.0
 41
1.5
 42
0.75
 43
6.0
 44
1.0
 45
0.0
 46
0.0
 47
495.0
 48
0.0
140
3.0
141
0.0
142
0.0
143
25.4
144
1.0
145
0.0
146
1.0
147
1.0
 71
     0
 72
     0
 73
     0
 74
     0
 75
     0
 76
     0
 77
     3
 78
     8
170
     0
171
     2
172
     1
173
     1
174
     1
175
     0
176
   256
177
   256
178
   256
270
     2
271
     2
272
     2
273
     2
274
     2
340
318324BE
275
     0
280
     0
281
     0
282
     0
283
     1
284
     0
285
     0
286
     0
287
     3
288
     0
  0
ENDTAB
  0
TABLE
  2
BLOCK_RECORD
  5
31832498
330
0
100
AcDbSymbolTable
 70
     3
  0
BLOCK_RECORD
  5
318324AF
102
{ACAD_XDICTIONARY
360
31832D4E
102
}
330
31832498
100
AcDbSymbolTableRecord
100
AcDbBlockTableRecord
  2
*MODEL_SPACE
  0
BLOCK_RECORD
  5
318324AC
102
{ACAD_XDICTIONARY
360
31832D4C
102
}
330
31832498
100
AcDbSymbolTableRecord
100
AcDbBlockTableRecord
  2
*PAPER_SPACE
  0
BLOCK_RECORD
  5
318324B9
330
31832498
100
AcDbSymbolTableRecord
100
AcDbBlockTableRecord
  2
ARROWANG
  0
BLOCK_RECORD
  5
31832783
330
31832498
100
AcDbSymbolTableRecord
100
AcDbBlockTableRecord
  2
X023
  0
BLOCK_RECORD
  5
31833612
330
31832498
100
AcDbSymbolTableRecord
100
AcDbBlockTableRecord
  2
_OPEN30
  0
ENDTAB
  0
ENDSEC
  0
SECTION
  2
BLOCKS
  0
BLOCK
  5
318324DE
330
318324AF
100
AcDbEntity
  8
0
100
AcDbBlockBegin
  2
*MODEL_SPACE
 70
     0
 10
0.0
 20
0.0
 30
0.0
  3
*MODEL_SPACE
  1

  0
ENDBLK
  5
318324DF
330
318324AF
100
AcDbEntity
  8
0
100
AcDbBlockEnd
  0
BLOCK
  5
318324DC
330
318324AC
100
AcDbEntity
 67
     1
  8
0
100
AcDbBlockBegin
  2
*PAPER_SPACE
 70
     0
 10
0.0
 20
0.0
 30
0.0
  3
*PAPER_SPACE
  1

  0
ENDBLK
  5
318324DD
330
318324AC
100
AcDbEntity
 67
     1
  8
0
100
AcDbBlockEnd
  0
BLOCK
  5
1D
330
318324B9
100
AcDbEntity
  8
0
100
AcDbBlockBegin
  2
ARROWANG
 70
     0
 10
0.0
 20
0.0
 30
0.0
  3
ARROWANG
  1

  0
LINE
  5
1E
330
318324B9
100
AcDbEntity
  8
SUNPOU
100
AcDbLine
 10
0.0
 20
0.0
 30
0.0
 11
-1.499999999999957
 21
0.4019237886467409
 31
0.0
  0
LINE
  5
1F
330
318324B9
100
AcDbEntity
  8
SUNPOU
100
AcDbLine
 10
0.0
 20
0.0
 30
0.0
 11
-1.500000000000028
 21
-0.4019237886467124
 31
0.0
  0
ENDBLK
  5
20
330
318324B9
100
AcDbEntity
  8
0
100
AcDbBlockEnd
  0
BLOCK
  5
3183278C
330
31832783
100
AcDbEntity
  8
0
100
AcDbBlockBegin
  2
X023
 70
     0
 10
0.0
 20
0.0
 30
0.0
  3
X023
  1

  0
ARC
  5
31832784
330
31832783
100
AcDbEntity
  8
2
100
AcDbCircle
 10
-2.141791044776056
 20
0.0
 30
0.0
 40
1.793321003826916
100
AcDbArc
 50
282.6193222934307
 51
77.38067770656854
  0
LINE
  5
31832785
330
31832783
100
AcDbEntity
  8
0
100
AcDbLine
 10
-1.499999999999943
 20
-3.0
 30
0.0
 11
0.0000000000001137
 21
-1.5
 31
0.0
  0
LINE
  5
31832786
330
31832783
100
AcDbEntity
  8
0
100
AcDbLine
 10
-1.499999999999943
 20
3.0
 30
0.0
 11
0.0
 21
1.499999999999943
 31
0.0
  0
LINE
  5
31832787
330
31832783
100
AcDbEntity
  8
0
100
AcDbLine
 10
0.0
 20
1.499999999999971
 30
0.0
 11
0.0000000000001137
 21
-1.500000000000028
 31
0.0
  0
LINE
  5
31832788
330
31832783
100
AcDbEntity
  8
0
100
AcDbLine
 10
-1.749999999999943
 20
-3.000000000000028
 30
0.0
 11
-1.749999999999943
 21
2.999999999999971
 31
0.0
  0
LINE
  5
31832789
330
31832783
100
AcDbEntity
  8
0
100
AcDbLine
 10
-1.499999999999943
 20
-3.000000000000028
 30
0.0
 11
-1.749999999999943
 21
-3.000000000000028
 31
0.0
  0
LINE
  5
3183278A
330
31832783
100
AcDbEntity
  8
0
100
AcDbLine
 10
-1.499999999999943
 20
2.999999999999971
 30
0.0
 11
-1.499999999999971
 21
-3.000000000000028
 31
0.0
  0
LINE
  5
3183278B
330
31832783
100
AcDbEntity
  8
0
100
AcDbLine
 10
-1.749999999999943
 20
2.999999999999971
 30
0.0
 11
-1.499999999999943
 21
2.999999999999971
 31
0.0
  0
ENDBLK
  5
3183278D
330
31832783
100
AcDbEntity
  8
0
100
AcDbBlockEnd
  0
BLOCK
  5
31833616
330
31833612
100
AcDbEntity
  8
0
100
AcDbBlockBegin
  2
_OPEN30
 70
     0
 10
0.0
 20
0.0
 30
0.0
  3
_OPEN30
  1

  0
LINE
  5
31833613
330
31833612
100
AcDbEntity
  8
0
  6
BYBLOCK
 62
     0
100
AcDbLine
 10
-1.0
 20
0.26794919
 30
0.0
 11
0.0
 21
0.0
 31
0.0
  0
LINE
  5
31833614
330
31833612
100
AcDbEntity
  8
0
  6
BYBLOCK
 62
     0
100
AcDbLine
 10
0.0
 20
0.0
 30
0.0
 11
-1.0
 21
-0.26794919
 31
0.0
  0
LINE
  5
31833615
330
31833612
100
AcDbEntity
  8
0
  6
BYBLOCK
 62
     0
100
AcDbLine
 10
0.0
 20
0.0
 30
0.0
 11
-1.0
 21
0.0
 31
0.0
  0
ENDBLK
  5
31833617
330
31833612
100
AcDbEntity
  8
0
100
AcDbBlockEnd
  0
ENDSEC
  0
SECTION
  2
ENTITIES
  0
LWPOLYLINE
  5
3183276C
330
318324AF
100
AcDbEntity
  8
WAKU
100
AcDbPolyline
 90
        4
 70
     1
 43
0.0
 10
0.0
 20
0.0
 10
542.9999978399998
 20
0.0
 10
542.9999978399998
 20
818.9999999999997
 10
0.0
 20
818.9999999999997
  0
TEXT
  5
31832B4B
330
318324AF
100
AcDbEntity
  8
SAISEN
100
AcDbText
 10
357.1918548114539
 20
111.0127348717775
 30
0.0
 40
9.0
  1
塗装色：マンセル　7.5BG 5/4.5
  7
K
 72
     4
 11
447.2775690971682
 21
114.8698777289204
 31
0.0
100
AcDbText
  0
TEXT
  5
31832B4C
330
318324AF
100
AcDbEntity
  8
SAISEN
100
AcDbText
 10
357.078585686625
 20
125.8698777289203
 30
0.0
 40
9.0
  1
材　質：SPCC
  7
K
 72
     4
 11
395.8214428294821
 21
130.3698777289203
 31
0.0
100
AcDbText
  0
LINE
  5
31832B4D
330
318324AF
100
AcDbEntity
  8
SAISEN
100
AcDbLine
 10
354.2689855706021
 20
106.8698777289203
 30
0.0
 11
539.7289716197429
 21
106.8698777289203
 31
0.0
  0
LINE
  5
31832B4E
330
318324AF
100
AcDbEntity
  8
SAISEN
100
AcDbLine
 10
354.2689855706021
 20
138.8698777289202
 30
0.0
 11
539.7289716197429
 21
138.8698777289202
 31
0.0
  0
TEXT
  5
318335E4
330
318324AF
100
AcDbEntity
  8
SUNPOU
100
AcDbText
 10
413.2715574118799
 20
6.503658421196405
 30
0.0
 40
9.0
  1
A4用紙、印刷尺度 1/3
  7
K
100
AcDbText
  0
TEXT
  5
318335E5
330
318324AF
100
AcDbEntity
  8
SUNPOU
100
AcDbText
 10
413.2715574118799
 20
21.5036584211964
 30
0.0
 40
9.0
  1
格納箱EU
  7
K
100
AcDbText
  0
MTEXT
  5
31833831
330
318324AF
100
AcDbEntity
  8
SUNPOU
100
AcDbMText
 10
361.4108136826746
 20
345.2770021118181
 30
0.0
 40
9.0
 41
0.0
 71
     5
 72
     1
  1
\A1;105
  7
K
 11
0.0000000000000001
 21
1.0
 31
0.0
1001
ACAD
1000
MTEXTBEGIN
1070
    73
1070
     1
1070
    44
1040
1.0
1070
    74
1070
     0
1000
MTEXTEND
  0
INSERT
  5
31833832
330
318324AF
100
AcDbEntity
  8
SUNPOU
100
AcDbBlockReference
  2
_OPEN30
 10
367.1308121251586
 20
308.527002111818
 30
0.0
 41
9.0
 42
9.0
 43
9.0
 50
270.0
  0
INSERT
  5
31833833
330
318324AF
100
AcDbEntity
  8
SUNPOU
100
AcDbBlockReference
  2
_OPEN30
 10
367.1308121251586
 20
382.0270021118179
 30
0.0
 41
9.0
 42
9.0
 43
9.0
 50
90.0
  0
LINE
  5
31833834
330
318324AF
100
AcDbEntity
  8
SUNPOU
100
AcDbLine
 10
367.1308121251586
 20
373.027002111818
 30
0.0
 11
367.1308121251586
 21
317.527002111818
 31
0.0
  0
LINE
  5
31833835
330
318324AF
100
AcDbEntity
  8
SUNPOU
100
AcDbLine
 10
306.693582658479
 20
308.527002111818
 30
0.0
 11
368.1308121251586
 21
308.527002111818
 31
0.0
  0
LINE
  5
31833836
330
318324AF
100
AcDbEntity
  8
SUNPOU
100
AcDbLine
 10
309.5326646177848
 20
382.0270021118179
 30
0.0
 11
368.1308121251586
 21
382.0270021118179
 31
0.0
  0
MTEXT
  5
31833837
330
318324AF
100
AcDbEntity
  8
SUNPOU
100
AcDbMText
 10
172.9420936381316
 20
277.3706184352584
 30
0.0
 40
9.0
 41
0.0
 71
     5
 72
     1
  1
\A1;385
  7
K
1001
ACAD
1000
MTEXTBEGIN
1070
    73
1070
     1
1070
    44
1040
1.0
1070
    74
1070
     0
1000
MTEXTEND
  0
INSERT
  5
31833838
330
318324AF
100
AcDbEntity
  8
SUNPOU
100
AcDbBlockReference
  2
_OPEN30
 10
307.093582658479
 20
270.0004006892186
 30
0.0
 41
9.0
 42
9.0
 43
9.0
  0
INSERT
  5
31833839
330
318324AF
100
AcDbEntity
  8
SUNPOU
100
AcDbBlockReference
  2
_OPEN30
 10
38.79060461778408
 20
270.0004006892186
 30
0.0
 41
9.0
 42
9.0
 43
9.0
 50
180.0
  0
LINE
  5
3183383A
330
318324AF
100
AcDbEntity
  8
SUNPOU
100
AcDbLine
 10
47.79060461778408
 20
270.0004006892186
 30
0.0
 11
298.093582658479
 21
270.0004006892186
 31
0.0
  0
LINE
  5
3183383B
330
318324AF
100
AcDbEntity
  8
SUNPOU
100
AcDbLine
 10
307.093582658479
 20
308.9270021118181
 30
0.0
 11
307.093582658479
 21
269.0004006892186
 31
0.0
  0
LINE
  5
3183383C
330
318324AF
100
AcDbEntity
  8
SUNPOU
100
AcDbLine
 10
38.79060461778408
 20
308.9270021118179
 30
0.0
 11
38.79060461778408
 21
269.0004006892186
 31
0.0
  0
MTEXT
  5
3183383D
330
318324AF
100
AcDbEntity
  8
SUNPOU
100
AcDbMText
 10
172.9192337953301
 20
425.2682955586886
 30
0.0
 40
9.0
 41
0.0
 71
     5
 72
     1
  1
\A1;390
  7
K
1001
ACAD
1000
MTEXTBEGIN
1070
    73
1070
     1
1070
    44
1040
1.0
1070
    74
1070
     0
1000
MTEXTEND
  0
INSERT
  5
3183383E
330
318324AF
100
AcDbEntity
  8
SUNPOU
100
AcDbBlockReference
  2
_OPEN30
 10
310.546462972876
 20
417.8610548007045
 30
0.0
 41
9.0
 42
9.0
 43
9.0
  0
INSERT
  5
3183383F
330
318324AF
100
AcDbEntity
  8
SUNPOU
100
AcDbBlockReference
  2
_OPEN30
 10
35.29200461778418
 20
417.8610548007045
 30
0.0
 41
9.0
 42
9.0
 43
9.0
 50
180.0
  0
LINE
  5
31833840
330
318324AF
100
AcDbEntity
  8
SUNPOU
100
AcDbLine
 10
44.29200461778418
 20
417.8610548007045
 30
0.0
 11
301.546462972876
 21
417.8610548007045
 31
0.0
  0
LINE
  5
31833841
330
318324AF
100
AcDbEntity
  8
SUNPOU
100
AcDbLine
 10
310.546462972876
 20
382.3261521707638
 30
0.0
 11
310.546462972876
 21
418.8610548007045
 31
0.0
  0
LINE
  5
31833842
330
318324AF
100
AcDbEntity
  8
SUNPOU
100
AcDbLine
 10
35.29200461778418
 20
380.9278421118179
 30
0.0
 11
35.29200461778418
 21
418.8610548007045
 31
0.0
  0
MTEXT
  5
31833843
330
318324AF
100
AcDbEntity
  8
SUNPOU
100
AcDbMText
 10
375.068375534244
 20
579.6991226576753
 30
0.0
 40
9.0
 41
0.0
 71
     5
 72
     1
  1
\A1;(350)
  7
K
 11
0.0000000000000001
 21
1.0
 31
0.0
1001
ACAD
1000
MTEXTBEGIN
1070
    73
1070
     1
1070
    44
1040
1.0
1070
    74
1070
     0
1000
MTEXTEND
  0
INSERT
  5
31833844
330
318324AF
100
AcDbEntity
  8
SUNPOU
100
AcDbBlockReference
  2
_OPEN30
 10
382.3669940711847
 20
457.2481226576751
 30
0.0
 41
9.0
 42
9.0
 43
9.0
 50
270.0
  0
INSERT
  5
31833845
330
318324AF
100
AcDbEntity
  8
SUNPOU
100
AcDbBlockReference
  2
_OPEN30
 10
382.3669940711847
 20
702.1501226576754
 30
0.0
 41
9.0
 42
9.0
 43
9.0
 50
90.0
  0
LINE
  5
31833846
330
318324AF
100
AcDbEntity
  8
SUNPOU
100
AcDbLine
 10
382.3669940711847
 20
693.1501226576754
 30
0.0
 11
382.3669940711847
 21
466.2481226576751
 31
0.0
  0
LINE
  5
31833847
330
318324AF
100
AcDbEntity
  8
SUNPOU
100
AcDbLine
 10
422.798061035915
 20
457.2481226576751
 30
0.0
 11
381.3669940711847
 21
457.2481226576751
 31
0.0
  0
LINE
  5
31833848
330
318324AF
100
AcDbEntity
  8
SUNPOU
100
AcDbLine
 10
422.798061035915
 20
702.1501226576754
 30
0.0
 11
381.3669940711847
 21
702.1501226576754
 31
0.0
  0
LINE
  5
31833866
330
318324AF
100
AcDbEntity
  8
ITTEN
100
AcDbLine
 10
94.9265995973683
 20
660.1669226576752
 30
0.0
 11
66.93779959736821
 21
660.1669226576752
 31
0.0
  0
LINE
  5
31833867
330
318324AF
100
AcDbEntity
  8
ITTEN
100
AcDbLine
 10
80.77380461778421
 20
674.2616650954387
 30
0.0
 11
80.77380461778421
 21
646.2728650954387
 31
0.0
  0
ARC
  5
31833868
330
318324AF
100
AcDbEntity
  8
SAISEN
100
AcDbCircle
 10
103.3397746177845
 20
383.5907730347772
 30
0.0
 40
1.288138087707111
100
AcDbArc
 50
202.5650481684181
 51
337.4349518315392
  0
ARC
  5
31833869
330
318324AF
100
AcDbEntity
  8
0
100
AcDbCircle
 10
104.0045086177842
 20
381.9296141562288
 30
0.0
 40
1.259495999999999
100
AcDbArc
 50
4.434705694904486
 51
50.70335010366173
  0
ARC
  5
3183386A
330
318324AF
100
AcDbEntity
  8
0
100
AcDbCircle
 10
102.6750406177843
 20
381.9296141562288
 30
0.0
 40
1.259495999999999
100
AcDbArc
 50
129.2964802390759
 51
175.5652943050955
  0
ARC
  5
3183386B
330
318324AF
100
AcDbEntity
  8
0
100
AcDbCircle
 10
103.3397746177843
 20
381.1173661118179
 30
0.0
 40
2.309076000000007
100
AcDbArc
 50
50.70342722060175
 51
129.2964802390759
  0
LINE
  5
3183386C
330
318324AF
100
AcDbEntity
  8
0
100
AcDbLine
 10
80.24524381069841
 20
382.0270021118179
 30
0.0
 11
76.40432542486997
 21
382.0270021118179
 31
0.0
  0
ARC
  5
3183386D
330
318324AF
100
AcDbEntity
  8
SAISEN
100
AcDbCircle
 10
244.6854201520209
 20
383.5907730347772
 30
0.0
 40
1.288138087707111
100
AcDbArc
 50
202.5650481684181
 51
337.4349518315392
  0
ARC
  5
3183386E
330
318324AF
100
AcDbEntity
  8
0
100
AcDbCircle
 10
245.3501541520205
 20
381.9296141562288
 30
0.0
 40
1.259495999999999
100
AcDbArc
 50
4.434705694904486
 51
50.70335010366173
  0
ARC
  5
3183386F
330
318324AF
100
AcDbEntity
  8
0
100
AcDbCircle
 10
244.0206861520207
 20
381.9296141562288
 30
0.0
 40
1.259495999999999
100
AcDbArc
 50
129.2964802390759
 51
175.5652943050955
  0
ARC
  5
31833870
330
318324AF
100
AcDbEntity
  8
0
100
AcDbCircle
 10
244.6854201520206
 20
381.1173661118179
 30
0.0
 40
2.309076000000007
100
AcDbArc
 50
50.70342722060175
 51
129.2964802390759
  0
LINE
  5
31833871
330
318324AF
100
AcDbEntity
  8
0
100
AcDbLine
 10
221.5886838106982
 20
382.0270021118179
 30
0.0
 11
217.74776542487
 21
382.0270021118179
 31
0.0
  0
LINE
  5
31833874
330
318324AF
100
AcDbEntity
  8
JISSEN
100
AcDbLine
 10
310.13525617893
 20
353.1035299922849
 30
0.0
 11
312.1902411050592
 21
347.4575053104257
 31
0.0
  0
ARC
  5
31833875
330
318324AF
100
AcDbEntity
  8
SAISEN
100
AcDbCircle
 10
420.1351301129562
 20
546.1125626576754
 30
0.0
 40
1.288138087707111
100
AcDbArc
 50
292.565048168416
 51
67.43495183154163
  0
ARC
  5
31833876
330
318324AF
100
AcDbEntity
  8
0
100
AcDbCircle
 10
421.7962889915042
 20
546.7772966576752
 30
0.0
 40
1.259495999999999
100
AcDbArc
 50
94.43470569490271
 51
140.7033501036629
  0
ARC
  5
31833877
330
318324AF
100
AcDbEntity
  8
0
100
AcDbCircle
 10
421.7962889915042
 20
545.4478286576752
 30
0.0
 40
1.259495999999999
100
AcDbArc
 50
219.2964802390736
 51
265.5652943050972
  0
ARC
  5
31833878
330
318324AF
100
AcDbEntity
  8
0
100
AcDbCircle
 10
422.608537035915
 20
546.1125626576752
 30
0.0
 40
2.309076000000007
100
AcDbArc
 50
140.7034272206015
 51
219.2964802390736
  0
LINE
  5
31833879
330
318324AF
100
AcDbEntity
  8
0
100
AcDbLine
 10
421.6989010359152
 20
548.0330218505892
 30
0.0
 11
421.6989010359152
 21
544.192103464761
 31
0.0
  0
ARC
  5
3183387A
330
318324AF
100
AcDbEntity
  8
SAISEN
100
AcDbCircle
 10
420.1351301129562
 20
613.2856826576754
 30
0.0
 40
1.288138087707111
100
AcDbArc
 50
292.565048168416
 51
67.43495183154163
  0
ARC
  5
3183387B
330
318324AF
100
AcDbEntity
  8
0
100
AcDbCircle
 10
421.7962889915042
 20
613.9504166576751
 30
0.0
 40
1.259495999999999
100
AcDbArc
 50
94.43470569490271
 51
140.7033501036629
  0
ARC
  5
3183387C
330
318324AF
100
AcDbEntity
  8
0
100
AcDbCircle
 10
421.7962889915042
 20
612.6209486576753
 30
0.0
 40
1.259495999999999
100
AcDbArc
 50
219.2964802390736
 51
265.5652943050972
  0
ARC
  5
3183387D
330
318324AF
100
AcDbEntity
  8
0
100
AcDbCircle
 10
422.608537035915
 20
613.2856826576751
 30
0.0
 40
2.309076000000007
100
AcDbArc
 50
140.7034272206015
 51
219.2964802390736
  0
LINE
  5
3183387E
330
318324AF
100
AcDbEntity
  8
0
100
AcDbLine
 10
421.6989010359152
 20
615.2061418505893
 30
0.0
 11
421.6989010359152
 21
611.3652234647611
 31
0.0
  0
LINE
  5
318338B2
330
318324AF
100
AcDbEntity
  8
0
100
AcDbLine
 10
38.09088461778424
 20
362.4323903657641
 30
0.0
 11
38.09088461778424
 21
357.5368021118217
 31
0.0
  0
ARC
  5
318338B3
330
318324AF
100
AcDbEntity
  8
0
100
AcDbCircle
 10
39.21043661778412
 20
359.9833703657641
 30
0.0
 40
2.938824000000011
100
AcDbArc
 50
180.0
 51
219.1667107161331
  0
ARC
  5
318338B4
330
318324AF
100
AcDbEntity
  8
0
100
AcDbCircle
 10
38.17968469315474
 20
359.143706365764
 30
0.0
 40
1.609355999999999
100
AcDbArc
 50
219.1667107161331
 51
266.8369616226736
  0
ARC
  5
318338B5
330
318324AF
100
AcDbEntity
  8
0
100
AcDbCircle
 10
38.17968469315474
 20
360.8230343657641
 30
0.0
 40
1.609355999999999
100
AcDbArc
 50
93.16303837732645
 51
140.8332892838681
  0
ARC
  5
318338B6
330
318324AF
100
AcDbEntity
  8
0
100
AcDbCircle
 10
39.21043661778412
 20
359.9833703657641
 30
0.0
 40
2.938824000000011
100
AcDbArc
 50
140.8332892838669
 51
180.0
  0
ARC
  5
318338B7
330
318324AF
100
AcDbEntity
  8
SAISEN
100
AcDbCircle
 10
36.40168702056598
 20
359.9833703657641
 30
0.0
 40
1.417335718197543
100
AcDbArc
 50
279.1145210713242
 51
80.88547892867579
  0
LINE
  5
318338B8
330
318324AF
100
AcDbEntity
  8
JISSEN
100
AcDbLine
 10
33.89256461778427
 20
474.7411226576751
 30
0.0
 11
33.89256461778427
 21
502.7299226576751
 31
0.0
  0
LINE
  5
318338B9
330
318324AF
100
AcDbEntity
  8
JISSEN
100
AcDbLine
 10
33.89256461778427
 20
656.6683226576751
 30
0.0
 11
33.89256461778427
 21
684.6571226576752
 31
0.0
  0
LINE
  5
318338BA
330
318324AF
100
AcDbEntity
  8
JISSEN
100
AcDbLine
 10
33.89256461778427
 20
677.6599226576752
 30
0.0
 11
35.29200461778418
 21
677.6599226576752
 31
0.0
  0
LINE
  5
318338BB
330
318324AF
100
AcDbEntity
  8
JISSEN
100
AcDbLine
 10
35.29200461778418
 20
663.6655226576752
 30
0.0
 11
33.89256461778427
 21
663.6655226576752
 31
0.0
  0
LINE
  5
318338BC
330
318324AF
100
AcDbEntity
  8
JISSEN
100
AcDbLine
 10
37.39116461778417
 20
371.2948910361908
 30
0.0
 11
37.39116461778417
 21
371.5312021118179
 31
0.0
  0
LINE
  5
318338BD
330
318324AF
100
AcDbEntity
  8
JISSEN
100
AcDbLine
 10
38.09088461778424
 20
370.7961390746381
 30
0.0
 11
38.09088461778424
 21
371.5312021118179
 31
0.0
  0
LINE
  5
318338BE
330
318324AF
100
AcDbEntity
  8
JISSEN
100
AcDbLine
 10
37.39116461778417
 20
366.8694731874448
 30
0.0
 11
37.09128461778414
 21
367.5016757372657
 31
0.0
  0
CIRCLE
  5
318338BF
330
318324AF
100
AcDbEntity
  8
SAISEN
100
AcDbCircle
 10
36.34158461778406
 20
369.0821821118179
 30
0.0
 40
1.749299999999999
  0
LINE
  5
318338C0
330
318324AF
100
AcDbEntity
  8
JISSEN
100
AcDbLine
 10
38.09088461778424
 20
356.137362111818
 30
0.0
 11
38.09088461778424
 21
369.0821821118179
 31
0.0
  0
LINE
  5
318338C1
330
318324AF
100
AcDbEntity
  8
JISSEN
100
AcDbLine
 10
38.79060461778408
 20
356.137362111818
 30
0.0
 11
38.09088461778424
 21
356.137362111818
 31
0.0
  0
ARC
  5
318338C2
330
318324AF
100
AcDbEntity
  8
JISSEN
100
AcDbCircle
 10
36.34158461778406
 20
369.0821821118179
 30
0.0
 40
2.449019999999999
100
AcDbArc
 50
0.0
 51
295.3769335251528
  0
ARC
  5
318338C3
330
318324AF
100
AcDbEntity
  8
SAISEN
100
AcDbCircle
 10
311.5116240761935
 20
363.6645015702268
 30
0.0
 40
1.049579999999999
100
AcDbArc
 50
343.4526342617886
 51
10.24341371001125
  0
ARC
  5
318338C4
330
318324AF
100
AcDbEntity
  8
JISSEN
100
AcDbCircle
 10
311.5116240761935
 20
363.6645015702268
 30
0.0
 40
2.968660541591106
100
AcDbArc
 50
94.17142539113209
 51
180.0
  0
ARC
  5
318338C5
330
318324AF
100
AcDbEntity
  8
JISSEN
100
AcDbCircle
 10
309.1867059346022
 20
353.2825045118179
 30
0.0
 40
0.6437424
100
AcDbArc
 50
179.9999999999983
 51
270.0
  0
LINE
  5
318338C6
330
318324AF
100
AcDbEntity
  8
JISSEN
100
AcDbLine
 10
311.2248961653937
 20
347.0410021118179
 30
0.0
 11
312.1797722844295
 21
347.4862681587138
 31
0.0
  0
LINE
  5
318338C7
330
318324AF
100
AcDbEntity
  8
JISSEN
100
AcDbLine
 10
309.1874781468277
 20
352.6387621118179
 30
0.0
 11
311.2248961653937
 21
347.0410021118179
 31
0.0
  0
LINE
  5
318338C8
330
318324AF
100
AcDbEntity
  8
JISSEN
100
AcDbLine
 10
310.13525617893
 20
353.1035299922849
 30
0.0
 11
314.2317803381439
 21
362.4755123685215
 31
0.0
  0
LINE
  5
318338C9
330
318324AF
100
AcDbEntity
  8
JISSEN
100
AcDbLine
 10
307.1332246177849
 20
360.6959343309807
 30
0.0
 11
308.1828046177847
 21
360.6959343309807
 31
0.0
  0
LINE
  5
318338CA
330
318324AF
100
AcDbEntity
  8
JISSEN
100
AcDbLine
 10
308.5429635346023
 20
363.6645015702268
 30
0.0
 11
308.5429635346023
 21
353.2825045118179
 31
0.0
  0
ARC
  5
318338CB
330
318324AF
100
AcDbEntity
  8
SAISEN
100
AcDbCircle
 10
311.5116240761935
 20
363.6645015702268
 30
0.0
 40
1.049579999999999
100
AcDbArc
 50
107.9813139064696
 51
245.7147340653312
  0
LWPOLYLINE
  5
318338CC
330
318324AF
100
AcDbEntity
  8
JISSEN
100
AcDbPolyline
 90
        4
 70
     1
 43
0.0
 10
311.6814046177845
 20
373.6297985119855
 10
310.9249908466181
 20
359.8937841780819
 10
312.3223137762177
 20
359.8168365074531
 10
313.0787275473842
 20
373.5528508413568
  0
ARC
  5
318338CD
330
318324AF
100
AcDbEntity
  8
JISSEN
100
AcDbCircle
 10
311.5116240761935
 20
363.6645015702268
 30
0.0
 40
2.968660541591106
100
AcDbArc
 50
336.389704061856
 51
66.73123831488736
  0
LINE
  5
318338CE
330
318324AF
100
AcDbEntity
  8
JISSEN
100
AcDbLine
 10
307.1332246177849
 20
366.633162111818
 30
0.0
 11
311.5116240761935
 21
366.633162111818
 31
0.0
  0
ARC
  5
318338CF
330
318324AF
100
AcDbEntity
  8
JISSEN
100
AcDbCircle
 10
313.6682990552635
 20
372.5468558228373
 30
0.0
 40
0.6997200000000001
100
AcDbArc
 50
24.99999999999788
 51
109.9999999999964
  0
ARC
  5
318338D0
330
318324AF
100
AcDbEntity
  8
JISSEN
100
AcDbCircle
 10
311.6814046177845
 20
372.5683118599226
 30
0.0
 40
1.049579999999999
100
AcDbArc
 50
180.0
 51
263.6602545730382
  0
LINE
  5
318338D1
330
318324AF
100
AcDbEntity
  8
JISSEN
100
AcDbLine
 10
314.4767544176659
 20
372.4687962750063
 30
0.0
 11
312.9892160574535
 21
371.9273765895599
 31
0.0
  0
LINE
  5
318338D2
330
318324AF
100
AcDbEntity
  8
JISSEN
100
AcDbLine
 10
313.0519816220334
 20
373.067161093239
 30
0.0
 11
313.4289807205758
 21
373.2043775434537
 31
0.0
  0
LINE
  5
318338D3
330
318324AF
100
AcDbEntity
  8
JISSEN
100
AcDbLine
 10
311.6814046177845
 20
381.3261521707638
 30
0.0
 11
311.6814046177845
 21
373.6297985119854
 31
0.0
  0
LINE
  5
318338D4
330
318324AF
100
AcDbEntity
  8
JISSEN
100
AcDbLine
 10
310.546462972876
 20
381.3261521707638
 30
0.0
 11
311.5960429728758
 21
381.3261521707638
 31
0.0
  0
LINE
  5
318338D5
330
318324AF
100
AcDbEntity
  8
SAISEN
100
AcDbLine
 10
315.933113101664
 20
574.4512226576753
 30
0.0
 11
318.0322731016641
 21
574.4512226576753
 31
0.0
  0
LINE
  5
318338D6
330
318324AF
100
AcDbEntity
  8
SAISEN
100
AcDbLine
 10
318.0322731016641
 20
574.4512226576753
 30
0.0
 11
318.0322731016641
 21
574.8010826576753
 31
0.0
  0
LINE
  5
318338D7
330
318324AF
100
AcDbEntity
  8
SAISEN
100
AcDbLine
 10
315.933113101664
 20
574.4512226576753
 30
0.0
 11
315.933113101664
 21
574.8010826576753
 31
0.0
  0
LINE
  5
318338D8
330
318324AF
100
AcDbEntity
  8
JISSEN
100
AcDbLine
 10
316.282973101664
 20
574.4512226576753
 30
0.0
 11
316.282973101664
 21
572.6768291233595
 31
0.0
  0
ARC
  5
318338D9
330
318324AF
100
AcDbEntity
  8
JISSEN
100
AcDbCircle
 10
316.9826931016641
 20
572.6768291233595
 30
0.0
 40
0.6997200000000001
100
AcDbArc
 50
180.0
 51
270.0
  0
ARC
  5
318338DA
330
318324AF
100
AcDbEntity
  8
JISSEN
100
AcDbCircle
 10
316.9826931016641
 20
572.6768291233595
 30
0.0
 40
0.6997200000000001
100
AcDbArc
 50
270.0
 51
0.0
  0
LINE
  5
318338DB
330
318324AF
100
AcDbEntity
  8
JISSEN
100
AcDbLine
 10
317.682413101664
 20
572.6768291233595
 30
0.0
 11
317.682413101664
 21
574.4512226576753
 31
0.0
  0
LINE
  5
318338DC
330
318324AF
100
AcDbEntity
  8
JISSEN
100
AcDbLine
 10
317.682413101664
 20
586.7214161919906
 30
0.0
 11
317.682413101664
 21
584.9470226576752
 31
0.0
  0
ARC
  5
318338DD
330
318324AF
100
AcDbEntity
  8
JISSEN
100
AcDbCircle
 10
316.9826931016641
 20
586.7214161919906
 30
0.0
 40
0.6997200000000001
100
AcDbArc
 50
0.0
 51
90.0
  0
ARC
  5
318338DE
330
318324AF
100
AcDbEntity
  8
JISSEN
100
AcDbCircle
 10
316.9826931016641
 20
586.7214161919906
 30
0.0
 40
0.6997200000000001
100
AcDbArc
 50
90.0
 51
180.0
  0
LINE
  5
318338DF
330
318324AF
100
AcDbEntity
  8
JISSEN
100
AcDbLine
 10
316.282973101664
 20
584.9470226576752
 30
0.0
 11
316.282973101664
 21
586.7214161919906
 31
0.0
  0
LINE
  5
318338E0
330
318324AF
100
AcDbEntity
  8
SAISEN
100
AcDbLine
 10
315.933113101664
 20
584.9470226576752
 30
0.0
 11
315.933113101664
 21
584.5971626576751
 31
0.0
  0
LINE
  5
318338E1
330
318324AF
100
AcDbEntity
  8
SAISEN
100
AcDbLine
 10
318.0322731016641
 20
584.9470226576752
 30
0.0
 11
318.0322731016641
 21
584.5971626576751
 31
0.0
  0
LINE
  5
318338E2
330
318324AF
100
AcDbEntity
  8
SAISEN
100
AcDbLine
 10
315.933113101664
 20
584.9470226576752
 30
0.0
 11
318.0322731016641
 21
584.9470226576752
 31
0.0
  0
LINE
  5
318338E3
330
318324AF
100
AcDbEntity
  8
SAISEN
100
AcDbLine
 10
319.081853101664
 20
584.5971626576751
 30
0.0
 11
313.1342331016641
 21
584.5971626576751
 31
0.0
  0
LINE
  5
318338E4
330
318324AF
100
AcDbEntity
  8
SAISEN
100
AcDbLine
 10
312.4345131016641
 20
583.1977226576753
 30
0.0
 11
312.4345131016641
 21
576.2005226576751
 31
0.0
  0
LINE
  5
318338E5
330
318324AF
100
AcDbEntity
  8
SAISEN
100
AcDbLine
 10
313.1342331016641
 20
576.2005226576751
 30
0.0
 11
313.1342331016641
 21
583.1977226576753
 31
0.0
  0
LINE
  5
318338E6
330
318324AF
100
AcDbEntity
  8
SAISEN
100
AcDbLine
 10
319.081853101664
 20
583.1977226576753
 30
0.0
 11
312.4345131016641
 21
583.1977226576753
 31
0.0
  0
LINE
  5
318338E7
330
318324AF
100
AcDbEntity
  8
JISSEN
100
AcDbLine
 10
319.081853101664
 20
583.8974426576751
 30
0.0
 11
311.734793101664
 21
583.8974426576751
 31
0.0
  0
LINE
  5
318338E8
330
318324AF
100
AcDbEntity
  8
SAISEN
100
AcDbLine
 10
313.1342331016641
 20
583.8974426576751
 30
0.0
 11
313.1342331016641
 21
584.5971626576751
 31
0.0
  0
LINE
  5
318338E9
330
318324AF
100
AcDbEntity
  8
SAISEN
100
AcDbLine
 10
313.1342331016641
 20
575.5008026576752
 30
0.0
 11
313.1342331016641
 21
574.8010826576751
 31
0.0
  0
LINE
  5
318338EA
330
318324AF
100
AcDbEntity
  8
JISSEN
100
AcDbLine
 10
319.081853101664
 20
575.5008026576752
 30
0.0
 11
311.734793101664
 21
575.5008026576752
 31
0.0
  0
LINE
  5
318338EB
330
318324AF
100
AcDbEntity
  8
SAISEN
100
AcDbLine
 10
319.081853101664
 20
576.2005226576751
 30
0.0
 11
312.4345131016641
 21
576.2005226576751
 31
0.0
  0
LINE
  5
318338EC
330
318324AF
100
AcDbEntity
  8
SAISEN
100
AcDbLine
 10
313.1342331016641
 20
583.1977226576753
 30
0.0
 11
313.1342331016641
 21
576.2005226576751
 31
0.0
  0
LINE
  5
318338ED
330
318324AF
100
AcDbEntity
  8
SAISEN
100
AcDbLine
 10
312.4345131016641
 20
576.2005226576751
 30
0.0
 11
312.4345131016641
 21
583.1977226576753
 31
0.0
  0
LINE
  5
318338EE
330
318324AF
100
AcDbEntity
  8
SAISEN
100
AcDbLine
 10
319.081853101664
 20
574.8010826576751
 30
0.0
 11
313.1342331016641
 21
574.8010826576751
 31
0.0
  0
LINE
  5
318338EF
330
318324AF
100
AcDbEntity
  8
JISSEN
100
AcDbLine
 10
319.081853101664
 20
584.5971626576751
 30
0.0
 11
319.081853101664
 21
574.8010826576751
 31
0.0
  0
LINE
  5
318338F0
330
318324AF
100
AcDbEntity
  8
JISSEN
100
AcDbLine
 10
432.1947010359154
 20
574.4123493243417
 30
0.0
 11
432.1947010359149
 21
457.2481226576751
 31
0.0
  0
LINE
  5
318338F1
330
318324AF
100
AcDbEntity
  8
JISSEN
100
AcDbLine
 10
432.1947010359154
 20
583.3793068428763
 30
0.0
 11
432.1947010359154
 21
576.018938472474
 31
0.0
  0
LINE
  5
318338F2
330
318324AF
100
AcDbEntity
  8
SAISEN
100
AcDbLine
 10
437.7924610359155
 20
576.2005226576753
 30
0.0
 11
437.7924610359155
 21
575.5008026576752
 31
0.0
  0
LINE
  5
318338F3
330
318324AF
100
AcDbEntity
  8
SAISEN
100
AcDbLine
 10
437.7924610359155
 20
583.8974426576751
 30
0.0
 11
437.7924610359155
 21
583.1977226576753
 31
0.0
  0
LINE
  5
318338F4
330
318324AF
100
AcDbEntity
  8
SAISEN
100
AcDbLine
 10
440.2414810359155
 20
575.5008026576752
 30
0.0
 11
437.0927410359154
 21
575.5008026576752
 31
0.0
  0
LINE
  5
318338F5
330
318324AF
100
AcDbEntity
  8
SAISEN
100
AcDbLine
 10
440.2414810359155
 20
576.2005226576751
 30
0.0
 11
440.2414810359155
 21
574.8010826576751
 31
0.0
  0
LINE
  5
318338F6
330
318324AF
100
AcDbEntity
  8
SAISEN
100
AcDbLine
 10
437.7924610359155
 20
576.2005226576751
 30
0.0
 11
440.2414810359155
 21
576.2005226576751
 31
0.0
  0
LINE
  5
318338F7
330
318324AF
100
AcDbEntity
  8
SAISEN
100
AcDbLine
 10
440.2414810359155
 20
583.8974426576751
 30
0.0
 11
437.0927410359154
 21
583.8974426576751
 31
0.0
  0
LINE
  5
318338F8
330
318324AF
100
AcDbEntity
  8
SAISEN
100
AcDbLine
 10
440.2414810359155
 20
583.1977226576753
 30
0.0
 11
440.2414810359155
 21
584.5971626576751
 31
0.0
  0
LINE
  5
318338F9
330
318324AF
100
AcDbEntity
  8
SAISEN
100
AcDbLine
 10
437.7924610359155
 20
583.1977226576753
 30
0.0
 11
440.2414810359155
 21
583.1977226576753
 31
0.0
  0
ARC
  5
318338FA
330
318324AF
100
AcDbEntity
  8
JISSEN
100
AcDbCircle
 10
430.0955410359153
 20
574.1013626576751
 30
0.0
 40
2.099159999999999
100
AcDbArc
 50
270.0
 51
0.0
  0
ARC
  5
318338FB
330
318324AF
100
AcDbEntity
  8
JISSEN
100
AcDbCircle
 10
430.0955410359153
 20
585.2968826576751
 30
0.0
 40
2.099159999999999
100
AcDbArc
 50
0.0
 51
90.0
  0
ARC
  5
318338FC
330
318324AF
100
AcDbEntity
  8
JISSEN
100
AcDbCircle
 10
393.3602410359153
 20
579.6991226576751
 30
0.0
 40
50.72969999999983
100
AcDbArc
 50
5.540637666564872
 51
6.288342104548463
  0
ARC
  5
318338FD
330
318324AF
100
AcDbEntity
  8
JISSEN
100
AcDbCircle
 10
393.3602410359153
 20
579.6991226576751
 30
0.0
 40
49.33025999999983
100
AcDbArc
 50
5.698331918783144
 51
5.796277845860682
  0
LINE
  5
318338FE
330
318324AF
100
AcDbEntity
  8
SAISEN
100
AcDbLine
 10
439.1919010359152
 20
574.4512226576751
 30
0.0
 11
439.1919010359152
 21
574.8010826576751
 31
0.0
  0
LINE
  5
318338FF
330
318324AF
100
AcDbEntity
  8
SAISEN
100
AcDbLine
 10
441.2910610359154
 20
574.4512226576751
 30
0.0
 11
441.2910610359154
 21
574.8010826576751
 31
0.0
  0
LINE
  5
31833900
330
318324AF
100
AcDbEntity
  8
SAISEN
100
AcDbLine
 10
439.1919010359152
 20
574.4512226576751
 30
0.0
 11
441.2910610359154
 21
574.4512226576751
 31
0.0
  0
LINE
  5
31833901
330
318324AF
100
AcDbEntity
  8
SAISEN
100
AcDbLine
 10
439.1919010359152
 20
584.9470226576752
 30
0.0
 11
441.2910610359154
 21
584.9470226576752
 31
0.0
  0
LINE
  5
31833902
330
318324AF
100
AcDbEntity
  8
SAISEN
100
AcDbLine
 10
441.2910610359154
 20
584.9470226576752
 30
0.0
 11
441.2910610359154
 21
584.5971626576751
 31
0.0
  0
LINE
  5
31833903
330
318324AF
100
AcDbEntity
  8
SAISEN
100
AcDbLine
 10
439.1919010359152
 20
584.9470226576752
 30
0.0
 11
439.1919010359152
 21
584.5971626576751
 31
0.0
  0
LINE
  5
31833904
330
318324AF
100
AcDbEntity
  8
JISSEN
100
AcDbLine
 10
454.2358810359153
 20
584.5971626576751
 30
0.0
 11
437.0927410359154
 21
584.5971626576751
 31
0.0
  0
ARC
  5
31833905
330
318324AF
100
AcDbEntity
  8
JISSEN
100
AcDbCircle
 10
454.2358810359153
 20
582.1481426576752
 30
0.0
 40
2.449019999999999
100
AcDbArc
 50
0.0
 51
90.0
  0
ARC
  5
31833906
330
318324AF
100
AcDbEntity
  8
JISSEN
100
AcDbCircle
 10
454.2358810359153
 20
577.2501026576751
 30
0.0
 40
2.449019999999999
100
AcDbArc
 50
270.0
 51
0.0
  0
LINE
  5
31833907
330
318324AF
100
AcDbEntity
  8
JISSEN
100
AcDbLine
 10
451.0871410359154
 20
574.8010826576751
 30
0.0
 11
451.0871410359154
 21
584.5971626576751
 31
0.0
  0
LINE
  5
31833908
330
318324AF
100
AcDbEntity
  8
JISSEN
100
AcDbLine
 10
430.7952610359152
 20
576.2005226576751
 30
0.0
 11
432.1947010359154
 21
576.2005226576751
 31
0.0
  0
LINE
  5
31833909
330
318324AF
100
AcDbEntity
  8
JISSEN
100
AcDbLine
 10
430.7952610359152
 20
583.1977226576753
 30
0.0
 11
430.7952610359152
 21
576.2005226576751
 31
0.0
  0
LINE
  5
3183390A
330
318324AF
100
AcDbEntity
  8
JISSEN
100
AcDbLine
 10
432.1947010359154
 20
583.1977226576753
 30
0.0
 11
430.7952610359152
 21
583.1977226576753
 31
0.0
  0
LINE
  5
3183390B
330
318324AF
100
AcDbEntity
  8
JISSEN
100
AcDbLine
 10
432.175550990853
 20
584.9805765340468
 30
0.0
 11
440.6949636766348
 21
587.347080057875
 31
0.0
  0
LINE
  5
3183390C
330
318324AF
100
AcDbEntity
  8
JISSEN
100
AcDbLine
 10
432.175550990853
 20
574.4176687813035
 30
0.0
 11
440.6949636766348
 21
572.0511652574753
 31
0.0
  0
ARC
  5
3183390D
330
318324AF
100
AcDbEntity
  8
JISSEN
100
AcDbCircle
 10
447.5885410359153
 20
579.6991226576751
 30
0.0
 40
17.49299999999999
100
AcDbArc
 50
168.8010810772581
 51
191.1989189227418
  0
ARC
  5
3183390E
330
318324AF
100
AcDbEntity
  8
JISSEN
100
AcDbCircle
 10
393.3602410359153
 20
579.6991226576751
 30
0.0
 40
50.72969999999983
100
AcDbArc
 50
353.7116578954515
 51
354.4593623334351
  0
LINE
  5
3183390F
330
318324AF
100
AcDbEntity
  8
JISSEN
100
AcDbLine
 10
432.7594910465234
 20
583.690354510298
 30
0.0
 11
440.6714522490029
 21
585.8881215109867
 31
0.0
  0
ARC
  5
31833910
330
318324AF
100
AcDbEntity
  8
JISSEN
100
AcDbCircle
 10
393.3602410359153
 20
579.6991226576751
 30
0.0
 40
49.33025999999983
100
AcDbArc
 50
354.2037221541393
 51
354.3016680812168
  0
LINE
  5
31833911
330
318324AF
100
AcDbEntity
  8
JISSEN
100
AcDbLine
 10
432.7594910465234
 20
575.7078908050523
 30
0.0
 11
440.6714522490029
 21
573.5101238043637
 31
0.0
  0
ARC
  5
31833912
330
318324AF
100
AcDbEntity
  8
JISSEN
100
AcDbCircle
 10
433.1340425752602
 20
582.3419690068456
 30
0.0
 40
1.39944
100
AcDbArc
 50
105.5241109967498
 51
142.3021603409671
  0
ARC
  5
31833913
330
318324AF
100
AcDbEntity
  8
JISSEN
100
AcDbCircle
 10
441.0460037777395
 20
584.5397360075342
 30
0.0
 40
1.39944
100
AcDbArc
 50
5.796277845860682
 51
105.5241109967561
  0
ARC
  5
31833914
330
318324AF
100
AcDbEntity
  8
JISSEN
100
AcDbCircle
 10
441.0460037777395
 20
574.8585093078161
 30
0.0
 40
1.39944
100
AcDbArc
 50
254.4758890032438
 51
354.2037221541393
  0
ARC
  5
31833915
330
318324AF
100
AcDbEntity
  8
JISSEN
100
AcDbCircle
 10
441.3504288519243
 20
584.9874054268332
 30
0.0
 40
2.449019999999999
100
AcDbArc
 50
6.288342104548463
 51
105.5241109967566
  0
ARC
  5
31833916
330
318324AF
100
AcDbEntity
  8
JISSEN
100
AcDbCircle
 10
441.3504288519243
 20
574.410839888517
 30
0.0
 40
2.449019999999999
100
AcDbArc
 50
254.4758890032433
 51
353.7116578954515
  0
ARC
  5
31833917
330
318324AF
100
AcDbEntity
  8
JISSEN
100
AcDbCircle
 10
433.1340425752602
 20
577.0562763085047
 30
0.0
 40
1.39944
100
AcDbArc
 50
217.6978396590328
 51
254.4758890032501
  0
ARC
  5
31833918
330
318324AF
100
AcDbEntity
  8
JISSEN
100
AcDbCircle
 10
432.8310161661424
 20
576.7773434123455
 30
0.0
 40
2.449019999999999
100
AcDbArc
 50
191.1989189227418
 51
254.4758890032433
  0
ARC
  5
31833919
330
318324AF
100
AcDbEntity
  8
JISSEN
100
AcDbCircle
 10
432.8310161661424
 20
582.6209019030048
 30
0.0
 40
2.449019999999999
100
AcDbArc
 50
105.5241109967566
 51
168.8010810772581
  0
LINE
  5
3183391A
330
318324AF
100
AcDbEntity
  8
JISSEN
100
AcDbLine
 10
432.1947010359154
 20
576.018938472474
 30
0.0
 11
432.1947010359154
 21
583.3793068428763
 31
0.0
  0
LINE
  5
3183391B
330
318324AF
100
AcDbEntity
  8
JISSEN
100
AcDbLine
 10
456.6849010359153
 20
577.2501026576751
 30
0.0
 11
456.6849010359153
 21
582.1481426576752
 31
0.0
  0
LINE
  5
3183391C
330
318324AF
100
AcDbEntity
  8
JISSEN
100
AcDbLine
 10
437.0927410359154
 20
574.8010826576751
 30
0.0
 11
454.2358810359153
 21
574.8010826576751
 31
0.0
  0
LINE
  5
3183391D
330
318324AF
100
AcDbEntity
  8
JISSEN
100
AcDbLine
 10
437.0927410359154
 20
584.5971626576751
 30
0.0
 11
437.0927410359154
 21
574.8010826576751
 31
0.0
  0
ARC
  5
3183391E
330
318324AF
100
AcDbEntity
  8
JISSEN
100
AcDbCircle
 10
424.7909896245044
 20
573.4016426576752
 30
0.0
 40
1.39944
100
AcDbArc
 50
197.920213139393
 51
270.0
  0
ARC
  5
3183391F
330
318324AF
100
AcDbEntity
  8
JISSEN
100
AcDbCircle
 10
424.7909896245044
 20
585.9966026576752
 30
0.0
 40
1.39944
100
AcDbArc
 50
90.0
 51
162.0797868606069
  0
LINE
  5
31833920
330
318324AF
100
AcDbEntity
  8
JISSEN
100
AcDbLine
 10
424.7909896245044
 20
572.0022026576753
 30
0.0
 11
430.0955410359153
 21
572.0022026576753
 31
0.0
  0
LINE
  5
31833921
330
318324AF
100
AcDbEntity
  8
JISSEN
100
AcDbLine
 10
424.7909896245044
 20
587.3960426576751
 30
0.0
 11
430.0955410359153
 21
587.3960426576751
 31
0.0
  0
CIRCLE
  5
31833922
330
318324AF
100
AcDbEntity
  8
JISSEN
100
AcDbCircle
 10
425.8972210359154
 20
575.1509426576752
 30
0.0
 40
2.099159999999999
  0
ARC
  5
31833923
330
318324AF
100
AcDbEntity
  8
SAISEN
100
AcDbCircle
 10
425.8972210359154
 20
575.1509426576752
 30
0.0
 40
1.224509999999999
100
AcDbArc
 50
73.39845040097704
 51
106.6015495990229
  0
LINE
  5
31833924
330
318324AF
100
AcDbEntity
  8
SAISEN
100
AcDbLine
 10
425.5473610359153
 20
576.3244087715873
 30
0.0
 11
425.5473610359153
 21
575.5008026576752
 31
0.0
  0
LINE
  5
31833925
330
318324AF
100
AcDbEntity
  8
SAISEN
100
AcDbLine
 10
425.5473610359153
 20
575.5008026576752
 30
0.0
 11
424.723754922003
 21
575.5008026576752
 31
0.0
  0
LINE
  5
31833926
330
318324AF
100
AcDbEntity
  8
SAISEN
100
AcDbLine
 10
424.723754922003
 20
574.8010826576751
 30
0.0
 11
425.5473610359153
 21
574.8010826576751
 31
0.0
  0
LINE
  5
31833927
330
318324AF
100
AcDbEntity
  8
SAISEN
100
AcDbLine
 10
425.5473610359153
 20
574.8010826576751
 30
0.0
 11
425.5473610359153
 21
573.9774765437632
 31
0.0
  0
LINE
  5
31833928
330
318324AF
100
AcDbEntity
  8
SAISEN
100
AcDbLine
 10
426.2470810359154
 20
573.977476543763
 30
0.0
 11
426.2470810359154
 21
574.8010826576751
 31
0.0
  0
LINE
  5
31833929
330
318324AF
100
AcDbEntity
  8
SAISEN
100
AcDbLine
 10
426.2470810359154
 20
574.8010826576751
 30
0.0
 11
427.0706871498275
 21
574.8010826576751
 31
0.0
  0
LINE
  5
3183392A
330
318324AF
100
AcDbEntity
  8
SAISEN
100
AcDbLine
 10
427.0706871498275
 20
575.5008026576752
 30
0.0
 11
426.2470810359154
 21
575.5008026576752
 31
0.0
  0
LINE
  5
3183392B
330
318324AF
100
AcDbEntity
  8
SAISEN
100
AcDbLine
 10
426.2470810359154
 20
575.5008026576752
 30
0.0
 11
426.2470810359154
 21
576.3244087715873
 31
0.0
  0
ARC
  5
3183392C
330
318324AF
100
AcDbEntity
  8
SAISEN
100
AcDbCircle
 10
425.8972210359154
 20
575.1509426576752
 30
0.0
 40
1.224509999999999
100
AcDbArc
 50
163.3984504009797
 51
196.6015495990203
  0
ARC
  5
3183392D
330
318324AF
100
AcDbEntity
  8
SAISEN
100
AcDbCircle
 10
425.8972210359154
 20
575.1509426576752
 30
0.0
 40
1.224509999999999
100
AcDbArc
 50
253.398450400977
 51
286.6015495990229
  0
ARC
  5
3183392E
330
318324AF
100
AcDbEntity
  8
SAISEN
100
AcDbCircle
 10
425.8972210359154
 20
575.1509426576752
 30
0.0
 40
1.224509999999999
100
AcDbArc
 50
343.3984504009797
 51
16.60154959902031
  0
ARC
  5
3183392F
330
318324AF
100
AcDbEntity
  8
SAISEN
100
AcDbCircle
 10
425.8972210359154
 20
584.2473026576751
 30
0.0
 40
1.224509999999999
100
AcDbArc
 50
343.3984504009797
 51
16.60154959902031
  0
ARC
  5
31833930
330
318324AF
100
AcDbEntity
  8
SAISEN
100
AcDbCircle
 10
425.8972210359154
 20
584.2473026576751
 30
0.0
 40
1.224509999999999
100
AcDbArc
 50
253.398450400977
 51
286.6015495990229
  0
ARC
  5
31833931
330
318324AF
100
AcDbEntity
  8
SAISEN
100
AcDbCircle
 10
425.8972210359154
 20
584.2473026576751
 30
0.0
 40
1.224509999999999
100
AcDbArc
 50
163.3984504009797
 51
196.6015495990203
  0
LINE
  5
31833932
330
318324AF
100
AcDbEntity
  8
SAISEN
100
AcDbLine
 10
426.2470810359154
 20
584.5971626576751
 30
0.0
 11
426.2470810359154
 21
585.4207687715874
 31
0.0
  0
LINE
  5
31833933
330
318324AF
100
AcDbEntity
  8
SAISEN
100
AcDbLine
 10
427.0706871498275
 20
584.5971626576751
 30
0.0
 11
426.2470810359154
 21
584.5971626576751
 31
0.0
  0
LINE
  5
31833934
330
318324AF
100
AcDbEntity
  8
SAISEN
100
AcDbLine
 10
426.2470810359154
 20
583.8974426576751
 30
0.0
 11
427.0706871498275
 21
583.8974426576751
 31
0.0
  0
LINE
  5
31833935
330
318324AF
100
AcDbEntity
  8
SAISEN
100
AcDbLine
 10
426.2470810359154
 20
583.073836543763
 30
0.0
 11
426.2470810359154
 21
583.8974426576751
 31
0.0
  0
LINE
  5
31833936
330
318324AF
100
AcDbEntity
  8
SAISEN
100
AcDbLine
 10
425.5473610359153
 20
583.8974426576751
 30
0.0
 11
425.5473610359153
 21
583.0738365437631
 31
0.0
  0
LINE
  5
31833937
330
318324AF
100
AcDbEntity
  8
SAISEN
100
AcDbLine
 10
424.723754922003
 20
583.8974426576751
 30
0.0
 11
425.5473610359153
 21
583.8974426576751
 31
0.0
  0
LINE
  5
31833938
330
318324AF
100
AcDbEntity
  8
SAISEN
100
AcDbLine
 10
425.5473610359153
 20
584.5971626576751
 30
0.0
 11
424.723754922003
 21
584.5971626576751
 31
0.0
  0
LINE
  5
31833939
330
318324AF
100
AcDbEntity
  8
SAISEN
100
AcDbLine
 10
425.5473610359153
 20
585.4207687715874
 30
0.0
 11
425.5473610359153
 21
584.5971626576751
 31
0.0
  0
ARC
  5
3183393A
330
318324AF
100
AcDbEntity
  8
SAISEN
100
AcDbCircle
 10
425.8972210359154
 20
584.2473026576751
 30
0.0
 40
1.224509999999999
100
AcDbArc
 50
73.39845040097704
 51
106.6015495990229
  0
CIRCLE
  5
3183393B
330
318324AF
100
AcDbEntity
  8
JISSEN
100
AcDbCircle
 10
425.8972210359154
 20
584.2473026576751
 30
0.0
 40
2.099159999999999
  0
ARC
  5
3183393C
330
318324AF
100
AcDbEntity
  8
JISSEN
100
AcDbCircle
 10
444.2648710359153
 20
579.6991226576751
 30
0.0
 40
21.86624999999996
100
AcDbArc
 50
162.0797868606069
 51
197.920213139393
  0
INSERT
  5
3183393D
330
318324AF
100
AcDbEntity
  8
JISSEN
100
AcDbBlockReference
  2
X023
 10
311.6814046177847
 20
377.8286821118179
 30
0.0
 41
0.6997199999999566
 42
0.6997200000000135
 43
0.6997200000000001
 50
180.0
  0
LINE
  5
3183393E
330
318324AF
100
AcDbEntity
  8
JISSEN
100
AcDbLine
 10
310.6318246177849
 20
371.5312021118179
 30
0.0
 11
35.29200461778418
 21
371.5312021118179
 31
0.0
  0
LINE
  5
3183393F
330
318324AF
100
AcDbEntity
  8
JISSEN
100
AcDbLine
 10
432.1947010359154
 20
702.1501226576754
 30
0.0
 11
432.1947010359154
 21
584.9858959910086
 31
0.0
  0
LINE
  5
31833940
330
318324AF
100
AcDbEntity
  8
JISSEN
100
AcDbLine
 10
35.29200461778418
 20
684.6571226576752
 30
0.0
 11
33.89256461778427
 21
684.6571226576752
 31
0.0
  0
LINE
  5
31833941
330
318324AF
100
AcDbEntity
  8
JISSEN
100
AcDbLine
 10
33.89256461778427
 20
656.6683226576751
 30
0.0
 11
35.29200461778418
 21
656.6683226576751
 31
0.0
  0
LINE
  5
31833942
330
318324AF
100
AcDbEntity
  8
JISSEN
100
AcDbLine
 10
35.29200461778418
 20
481.7383226576752
 30
0.0
 11
33.89256461778427
 21
481.7383226576752
 31
0.0
  0
LINE
  5
31833943
330
318324AF
100
AcDbEntity
  8
JISSEN
100
AcDbLine
 10
33.89256461778427
 20
495.7327226576751
 30
0.0
 11
35.29200461778418
 21
495.7327226576751
 31
0.0
  0
LINE
  5
31833944
330
318324AF
100
AcDbEntity
  8
JISSEN
100
AcDbLine
 10
33.89256461778427
 20
474.7411226576751
 30
0.0
 11
35.29200461778418
 21
474.7411226576751
 31
0.0
  0
LINE
  5
31833945
330
318324AF
100
AcDbEntity
  8
JISSEN
100
AcDbLine
 10
35.29200461778418
 20
502.7299226576751
 30
0.0
 11
33.89256461778427
 21
502.7299226576751
 31
0.0
  0
LINE
  5
31833946
330
318324AF
100
AcDbEntity
  8
JISSEN
100
AcDbLine
 10
35.29200461778418
 20
700.7506826576753
 30
0.0
 11
35.29200461778418
 21
458.6475626576751
 31
0.0
  0
LINE
  5
3183394B
330
318324AF
100
AcDbEntity
  8
JISSEN
100
AcDbLine
 10
308.1828046177847
 20
347.0410021118179
 30
0.0
 11
307.1332246177849
 21
347.0410021118179
 31
0.0
  0
LINE
  5
3183394C
330
318324AF
100
AcDbEntity
  8
JISSEN
100
AcDbLine
 10
308.1828046177847
 20
360.6959343309807
 30
0.0
 11
308.1828046177847
 21
347.0410021118179
 31
0.0
  0
LINE
  5
3183394D
330
318324AF
100
AcDbEntity
  8
JISSEN
100
AcDbLine
 10
310.6318246177845
 20
371.5312021118179
 30
0.0
 11
310.6318246177849
 21
381.3261521707638
 31
0.0
  0
LINE
  5
3183394E
330
318324AF
100
AcDbEntity
  8
JISSEN
100
AcDbLine
 10
421.6989010359152
 20
459.3472826576751
 30
0.0
 11
421.6989010359152
 21
700.0509626576749
 31
0.0
  0
ARC
  5
3183394F
330
318324AF
100
AcDbEntity
  8
JISSEN
100
AcDbCircle
 10
423.798061035915
 20
459.3472826576751
 30
0.0
 40
2.099159999999999
100
AcDbArc
 50
180.0
 51
270.0
  0
LINE
  5
31833950
330
318324AF
100
AcDbEntity
  8
JISSEN
100
AcDbLine
 10
423.7980610359154
 20
702.150122657675
 30
0.0
 11
432.1947010359154
 21
702.1501226576754
 31
0.0
  0
ARC
  5
31833951
330
318324AF
100
AcDbEntity
  8
JISSEN
100
AcDbCircle
 10
423.7980610359154
 20
700.0509626576749
 30
0.0
 40
2.099159999999999
100
AcDbArc
 50
90.0
 51
180.0
  0
ARC
  5
31833952
330
318324AF
100
AcDbEntity
  8
JISSEN
100
AcDbCircle
 10
37.39116461778417
 20
379.927842111818
 30
0.0
 40
2.099159999999999
100
AcDbArc
 50
90.0
 51
180.0
  0
ARC
  5
31833953
330
318324AF
100
AcDbEntity
  8
JISSEN
100
AcDbCircle
 10
308.5326646177847
 20
379.927842111818
 30
0.0
 40
2.099159999999999
100
AcDbArc
 50
0.0
 51
90.0
  0
LINE
  5
31833954
330
318324AF
100
AcDbEntity
  8
JISSEN
100
AcDbLine
 10
493.7989010359156
 20
458.6475626576753
 30
0.0
 11
432.1947010359149
 21
458.6475626576751
 31
0.0
  0
LINE
  5
31833955
330
318324AF
100
AcDbEntity
  8
JISSEN
100
AcDbLine
 10
38.79060461778408
 20
323.9502421118179
 30
0.0
 11
38.79060461778408
 21
371.5312021118179
 31
0.0
  0
LINE
  5
31833956
330
318324AF
100
AcDbEntity
  8
JISSEN
100
AcDbLine
 10
310.6318246177849
 20
379.927842111818
 30
0.0
 11
310.6318246177849
 21
375.0298021118179
 31
0.0
  0
LINE
  5
31833957
330
318324AF
100
AcDbEntity
  8
JISSEN
100
AcDbLine
 10
37.39116461778417
 20
382.0270021118179
 30
0.0
 11
308.5326646177847
 21
382.027002111818
 31
0.0
  0
LINE
  5
31833958
330
318324AF
100
AcDbEntity
  8
JISSEN
100
AcDbLine
 10
307.093582658479
 20
371.5312021118179
 30
0.0
 11
307.093582658479
 21
323.9502421118179
 31
0.0
  0
LINE
  5
31833959
330
318324AF
100
AcDbEntity
  8
JISSEN
100
AcDbLine
 10
35.29200461778418
 20
371.5312021118179
 30
0.0
 11
35.29200461778418
 21
379.927842111818
 31
0.0
  0
LINE
  5
3183395A
330
318324AF
100
AcDbEntity
  8
JISSEN
100
AcDbLine
 10
307.093582658479
 20
309.9270021118182
 30
0.0
 11
307.093582658479
 21
371.5312021118179
 31
0.0
  0
LINE
  5
3183395B
330
318324AF
100
AcDbEntity
  8
JISSEN
100
AcDbLine
 10
38.79060461778408
 20
371.5312021118179
 30
0.0
 11
38.79060461778408
 21
309.9270021118179
 31
0.0
  0
LINE
  5
3183395C
330
318324AF
100
AcDbEntity
  8
JISSEN
100
AcDbLine
 10
432.1947010359154
 20
700.7506826576749
 30
0.0
 11
493.7989010359156
 21
700.7506826576749
 31
0.0
  0
LINE
  5
3183395D
330
318324AF
100
AcDbEntity
  8
JISSEN
100
AcDbLine
 10
432.1947010359149
 20
457.2481226576751
 30
0.0
 11
423.798061035915
 21
457.2481226576751
 31
0.0
  0
LINE
  5
3183395E
330
318324AF
100
AcDbEntity
  8
JISSEN
100
AcDbLine
 10
310.6318246177845
 20
379.927842111818
 30
0.0
 11
310.6318246177845
 21
371.5312021118179
 31
0.0
  0
LINE
  5
31833968
330
318324AF
100
AcDbEntity
  8
JISSEN
100
AcDbLine
 10
36.69144461778433
 20
702.1501226576754
 30
0.0
 11
309.146462972876
 21
702.1501226576748
 31
0.0
  0
LINE
  5
31833969
330
318324AF
100
AcDbEntity
  8
JISSEN
100
AcDbLine
 10
36.69144461778433
 20
457.2481226576751
 30
0.0
 11
309.1464629728759
 21
457.2481226576751
 31
0.0
  0
LINE
  5
3183396E
330
318324AF
100
AcDbEntity
  8
ITTEN
100
AcDbLine
 10
80.77380461778421
 20
513.3260650954387
 30
0.0
 11
80.77380461778421
 21
485.3372650954387
 31
0.0
  0
LINE
  5
3183396F
330
318324AF
100
AcDbEntity
  8
ITTEN
100
AcDbLine
 10
94.9265995973683
 20
499.2313226576753
 30
0.0
 11
66.93779959736821
 21
499.2313226576753
 31
0.0
  0
LINE
  5
31833970
330
318324AF
100
AcDbEntity
  8
ITTEN
100
AcDbLine
 10
157.7430046177842
 20
674.2616650954387
 30
0.0
 11
157.7430046177842
 21
646.2728650954387
 31
0.0
  0
LINE
  5
31833971
330
318324AF
100
AcDbEntity
  8
ITTEN
100
AcDbLine
 10
171.8957995973682
 20
660.1669226576752
 30
0.0
 11
143.9069995973683
 21
660.1669226576752
 31
0.0
  0
LINE
  5
31833972
330
318324AF
100
AcDbEntity
  8
ITTEN
100
AcDbLine
 10
171.8957995973682
 20
499.2313226576753
 30
0.0
 11
143.9069995973683
 21
499.2313226576753
 31
0.0
  0
LINE
  5
31833973
330
318324AF
100
AcDbEntity
  8
ITTEN
100
AcDbLine
 10
157.7430046177842
 20
513.3260650954387
 30
0.0
 11
157.7430046177842
 21
485.3372650954387
 31
0.0
  0
LINE
  5
31833976
330
318324AF
100
AcDbEntity
  8
ITTEN
100
AcDbLine
 10
248.8649995973683
 20
499.2313226576753
 30
0.0
 11
220.8761995973683
 21
499.2313226576753
 31
0.0
  0
LINE
  5
31833977
330
318324AF
100
AcDbEntity
  8
ITTEN
100
AcDbLine
 10
234.7122046177842
 20
513.3260650954387
 30
0.0
 11
234.7122046177842
 21
485.3372650954387
 31
0.0
  0
LINE
  5
31833978
330
318324AF
100
AcDbEntity
  8
ITTEN
100
AcDbLine
 10
119.2584046177842
 20
593.7938650954387
 30
0.0
 11
119.2584046177842
 21
565.8050650954387
 31
0.0
  0
LINE
  5
31833979
330
318324AF
100
AcDbEntity
  8
ITTEN
100
AcDbLine
 10
133.4111995973682
 20
579.6991226576751
 30
0.0
 11
105.4223995973684
 21
579.6991226576751
 31
0.0
  0
LINE
  5
3183397A
330
318324AF
100
AcDbEntity
  8
ITTEN
100
AcDbLine
 10
196.2276046177842
 20
593.7938650954387
 30
0.0
 11
196.2276046177842
 21
565.8050650954387
 31
0.0
  0
LINE
  5
3183397B
330
318324AF
100
AcDbEntity
  8
ITTEN
100
AcDbLine
 10
210.3803995973684
 20
579.6991226576751
 30
0.0
 11
182.3915995973683
 21
579.6991226576751
 31
0.0
  0
ARC
  5
31833982
330
318324AF
100
AcDbEntity
  8
JISSEN
100
AcDbCircle
 10
36.69144461778433
 20
700.7506826576753
 30
0.0
 40
1.39944
100
AcDbArc
 50
90.0
 51
180.0
  0
ARC
  5
31833983
330
318324AF
100
AcDbEntity
  8
JISSEN
100
AcDbCircle
 10
36.69144461778433
 20
700.7506826576753
 30
0.0
 40
1.39944
100
AcDbArc
 50
90.0
 51
180.0
  0
ARC
  5
31833984
330
318324AF
100
AcDbEntity
  8
JISSEN
100
AcDbCircle
 10
36.69144461778433
 20
458.6475626576751
 30
0.0
 40
1.39944
100
AcDbArc
 50
180.0
 51
270.0
  0
LINE
  5
318339E6
330
318324AF
100
AcDbEntity
  8
JISSEN
100
AcDbLine
 10
495.1989010359154
 20
460.0475626576752
 30
0.0
 11
495.1989010359154
 21
699.3506826576749
 31
0.0
  0
LINE
  5
318339E7
330
318324AF
100
AcDbEntity
  8
JISSEN
100
AcDbLine
 10
40.19060461778417
 20
308.527002111818
 30
0.0
 11
305.693582658479
 21
308.527002111818
 31
0.0
  0
ARC
  5
318339E8
330
318324AF
100
AcDbEntity
  8
JISSEN
100
AcDbCircle
 10
493.7989010359156
 20
699.3506826576749
 30
0.0
 40
1.399999999999999
100
AcDbArc
 50
0.0
 51
90.0
  0
ARC
  5
318339E9
330
318324AF
100
AcDbEntity
  8
JISSEN
100
AcDbCircle
 10
493.7989010359156
 20
460.0475626576752
 30
0.0
 40
1.399999999999999
100
AcDbArc
 50
270.0
 51
0.0
  0
ARC
  5
318339EA
330
318324AF
100
AcDbEntity
  8
JISSEN
100
AcDbCircle
 10
305.693582658479
 20
309.9270021118182
 30
0.0
 40
1.399999999999999
100
AcDbArc
 50
270.0
 51
0.0
  0
ARC
  5
318339EB
330
318324AF
100
AcDbEntity
  8
JISSEN
100
AcDbCircle
 10
40.19060461778417
 20
309.9270021118179
 30
0.0
 40
1.399999999999999
100
AcDbArc
 50
180.0
 51
270.0
  0
LINE
  5
31833A31
330
318324AF
100
AcDbEntity
  8
SUNPOU
100
AcDbLine
 10
48.70797220692884
 20
164.0071402906687
 30
0.0
 11
168.7079722069288
 21
164.0071402906687
 31
0.0
  0
TEXT
  5
31833A32
330
318324AF
100
AcDbEntity
  8
SUNPOU
100
AcDbText
 10
60.49368649264312
 20
168.9357117192401
 30
0.0
 40
9.0
  1
EUQR
  7
K
 72
     4
 11
78.70797220692884
 21
173.0071402906687
 31
0.0
100
AcDbText
  0
TEXT
  5
31833A37
330
318324AF
100
AcDbEntity
  8
SUNPOU
100
AcDbText
 10
134.4222579212145
 20
168.4563598627937
 30
0.0
 40
9.0
  1
8
  7
K
 72
     4
 11
138.7079722069288
 21
172.9563598627937
 31
0.0
100
AcDbText
  0
TEXT
  5
31833A38
330
318324AF
100
AcDbEntity
  8
SUNPOU
100
AcDbText
 10
118.3079722069288
 20
186.5071402906687
 30
0.0
 40
9.0
  1
格納個数
  7
BIGFONT
 72
     4
 11
138.7079722069288
 21
191.0071402906687
 31
0.0
100
AcDbText
  0
TEXT
  5
31833A39
330
318324AF
100
AcDbEntity
  8
SUNPOU
100
AcDbText
 10
58.30797220692885
 20
186.5071402906687
 30
0.0
 40
9.0
  1
対応製品
  7
BIGFONT
 72
     4
 11
78.70797220692884
 21
191.0071402906687
 31
0.0
100
AcDbText
  0
LINE
  5
31833A3A
330
318324AF
100
AcDbEntity
  8
SUNPOU
100
AcDbLine
 10
108.7079722069288
 20
200.0071402906686
 30
0.0
 11
108.7079722069288
 21
164.0071402906687
 31
0.0
  0
LINE
  5
31833A3B
330
318324AF
100
AcDbEntity
  8
SUNPOU
100
AcDbLine
 10
48.70797220692884
 20
182.0071402906687
 30
0.0
 11
168.7079722069288
 21
182.0071402906687
 31
0.0
  0
LINE
  5
31833A3C
330
318324AF
100
AcDbEntity
  8
SUNPOU
100
AcDbLine
 10
48.70797220692884
 20
164.0071402906687
 30
0.0
 11
48.70797220692884
 21
200.0071402906686
 31
0.0
  0
LINE
  5
31833A3D
330
318324AF
100
AcDbEntity
  8
SUNPOU
100
AcDbLine
 10
168.7079722069288
 20
200.0071402906686
 30
0.0
 11
168.7079722069288
 21
164.0071402906687
 31
0.0
  0
LINE
  5
31833A3E
330
318324AF
100
AcDbEntity
  8
SUNPOU
100
AcDbLine
 10
48.70797220692884
 20
200.0071402906686
 30
0.0
 11
168.7079722069288
 21
200.0071402906686
 31
0.0
  0
LINE
  5
31833A40
330
318324AF
100
AcDbEntity
  8
ITTEN
100
AcDbLine
 10
248.8649995973683
 20
660.1669226576752
 30
0.0
 11
220.8761995973683
 21
660.1669226576752
 31
0.0
  0
LINE
  5
31833A41
330
318324AF
100
AcDbEntity
  8
ITTEN
100
AcDbLine
 10
234.7122046177842
 20
674.2616650954387
 30
0.0
 11
234.7122046177842
 21
646.2728650954387
 31
0.0
  0
LINE
  5
31833A42
330
318324AF
100
AcDbEntity
  8
JISSEN
100
AcDbLine
 10
310.5464629728759
 20
458.6481226576751
 30
0.0
 11
310.546462972876
 21
700.7501226576748
 31
0.0
  0
ARC
  5
31833A43
330
318324AF
100
AcDbEntity
  8
JISSEN
100
AcDbCircle
 10
309.146462972876
 20
700.7501226576748
 30
0.0
 40
1.399999999999999
100
AcDbArc
 50
0.0
 51
89.99999999999991
  0
ARC
  5
31833A44
330
318324AF
100
AcDbEntity
  8
JISSEN
100
AcDbCircle
 10
309.1464629728759
 20
458.6481226576751
 30
0.0
 40
1.399999999999999
100
AcDbArc
 50
270.0
 51
0.0
  0
CIRCLE
  5
31833A49
330
318324AF
100
AcDbEntity
  8
JISSEN
100
AcDbCircle
 10
273.9189537953301
 20
627.6991226576751
 30
0.0
 40
2.744610977126967
  0
ARC
  5
31833A4A
330
318324AF
100
AcDbEntity
  8
SAISEN
100
AcDbCircle
 10
273.9189537953301
 20
627.6991226576751
 30
0.0
 40
1.75
100
AcDbArc
 50
253.398450400977
 51
286.6015495990229
  0
LINE
  5
31833A4B
330
318324AF
100
AcDbEntity
  8
SAISEN
100
AcDbLine
 10
273.4189537953301
 20
626.0220716745502
 30
0.0
 11
273.4189537953301
 21
627.1991226576751
 31
0.0
  0
LINE
  5
31833A4C
330
318324AF
100
AcDbEntity
  8
SAISEN
100
AcDbLine
 10
273.4189537953301
 20
627.1991226576751
 30
0.0
 11
272.2419028122052
 21
627.1991226576751
 31
0.0
  0
LINE
  5
31833A4D
330
318324AF
100
AcDbEntity
  8
SAISEN
100
AcDbLine
 10
272.2419028122052
 20
628.1991226576751
 30
0.0
 11
273.4189537953301
 21
628.1991226576751
 31
0.0
  0
LINE
  5
31833A4E
330
318324AF
100
AcDbEntity
  8
SAISEN
100
AcDbLine
 10
273.4189537953301
 20
628.1991226576751
 30
0.0
 11
273.4189537953301
 21
629.3761736407998
 31
0.0
  0
LINE
  5
31833A4F
330
318324AF
100
AcDbEntity
  8
SAISEN
100
AcDbLine
 10
274.4189537953301
 20
629.3761736408001
 30
0.0
 11
274.4189537953301
 21
628.1991226576751
 31
0.0
  0
LINE
  5
31833A50
330
318324AF
100
AcDbEntity
  8
SAISEN
100
AcDbLine
 10
274.4189537953301
 20
628.1991226576751
 30
0.0
 11
275.596004778455
 21
628.1991226576751
 31
0.0
  0
LINE
  5
31833A51
330
318324AF
100
AcDbEntity
  8
SAISEN
100
AcDbLine
 10
275.596004778455
 20
627.1991226576751
 30
0.0
 11
274.4189537953301
 21
627.1991226576751
 31
0.0
  0
LINE
  5
31833A52
330
318324AF
100
AcDbEntity
  8
SAISEN
100
AcDbLine
 10
274.4189537953301
 20
627.1991226576751
 30
0.0
 11
274.4189537953301
 21
626.0220716745502
 31
0.0
  0
ARC
  5
31833A53
330
318324AF
100
AcDbEntity
  8
SAISEN
100
AcDbCircle
 10
273.9189537953301
 20
627.6991226576751
 30
0.0
 40
1.75
100
AcDbArc
 50
163.3984504009792
 51
196.6015495990207
  0
ARC
  5
31833A54
330
318324AF
100
AcDbEntity
  8
SAISEN
100
AcDbCircle
 10
273.9189537953301
 20
627.6991226576751
 30
0.0
 40
1.75
100
AcDbArc
 50
73.39845040097706
 51
106.6015495990229
  0
ARC
  5
31833A55
330
318324AF
100
AcDbEntity
  8
SAISEN
100
AcDbCircle
 10
273.9189537953301
 20
627.6991226576751
 30
0.0
 40
1.75
100
AcDbArc
 50
343.3984504009792
 51
16.60154959902077
  0
LWPOLYLINE
  5
31833A56
330
318324AF
100
AcDbEntity
  8
JISSEN
100
AcDbPolyline
 90
        4
 70
     0
 43
0.0
 10
62.91895379533014
 20
634.6991226576752
 10
62.91895379533014
 20
524.6991226576751
 10
282.9189537953301
 20
524.6991226576751
 10
282.9189537953301
 20
634.6991226576752
  0
LWPOLYLINE
  5
31833A57
330
318324AF
100
AcDbEntity
  8
JISSEN
100
AcDbPolyline
 90
        2
 70
     0
 43
0.0
 10
282.9189537953301
 20
634.6991226576752
 10
62.91895379533014
 20
634.6991226576752
  0
TEXT
  5
31833A58
330
318324AF
100
AcDbEntity
  8
WAKU
100
AcDbText
 10
76.6689537953302
 20
587.1991226576751
 30
0.0
 40
25.0
  1
スプリンクラーヘッド格納箱
 41
0.5
  7
K
 72
     4
 11
172.9189537953301
 21
599.6991226576751
 31
0.0
100
AcDbText
  0
ARC
  5
31833A59
330
318324AF
100
AcDbEntity
  8
SAISEN
100
AcDbCircle
 10
71.91895379533026
 20
627.6991226576751
 30
0.0
 40
1.75
100
AcDbArc
 50
343.3984504009792
 51
16.60154959902075
  0
ARC
  5
31833A5A
330
318324AF
100
AcDbEntity
  8
SAISEN
100
AcDbCircle
 10
71.91895379533026
 20
627.6991226576751
 30
0.0
 40
1.75
100
AcDbArc
 50
253.398450400977
 51
286.6015495990229
  0
ARC
  5
31833A5B
330
318324AF
100
AcDbEntity
  8
SAISEN
100
AcDbCircle
 10
71.91895379533026
 20
627.6991226576751
 30
0.0
 40
1.75
100
AcDbArc
 50
163.3984504009792
 51
196.6015495990207
  0
LINE
  5
31833A5C
330
318324AF
100
AcDbEntity
  8
SAISEN
100
AcDbLine
 10
72.41895379533025
 20
628.1991226576751
 30
0.0
 11
72.41895379533025
 21
629.3761736408001
 31
0.0
  0
LINE
  5
31833A5D
330
318324AF
100
AcDbEntity
  8
SAISEN
100
AcDbLine
 10
73.59600477845515
 20
628.1991226576751
 30
0.0
 11
72.41895379533025
 21
628.1991226576751
 31
0.0
  0
LINE
  5
31833A5E
330
318324AF
100
AcDbEntity
  8
SAISEN
100
AcDbLine
 10
72.41895379533025
 20
627.1991226576751
 30
0.0
 11
73.59600477845515
 21
627.1991226576751
 31
0.0
  0
LINE
  5
31833A5F
330
318324AF
100
AcDbEntity
  8
SAISEN
100
AcDbLine
 10
72.41895379533025
 20
626.0220716745502
 30
0.0
 11
72.41895379533025
 21
627.1991226576751
 31
0.0
  0
LINE
  5
31833A60
330
318324AF
100
AcDbEntity
  8
SAISEN
100
AcDbLine
 10
71.41895379533025
 20
627.1991226576751
 30
0.0
 11
71.41895379533025
 21
626.0220716745505
 31
0.0
  0
LINE
  5
31833A61
330
318324AF
100
AcDbEntity
  8
SAISEN
100
AcDbLine
 10
70.24190281220535
 20
627.1991226576751
 30
0.0
 11
71.41895379533025
 21
627.1991226576751
 31
0.0
  0
LINE
  5
31833A62
330
318324AF
100
AcDbEntity
  8
SAISEN
100
AcDbLine
 10
71.41895379533025
 20
628.1991226576751
 30
0.0
 11
70.24190281220535
 21
628.1991226576751
 31
0.0
  0
LINE
  5
31833A63
330
318324AF
100
AcDbEntity
  8
SAISEN
100
AcDbLine
 10
71.41895379533025
 20
629.3761736408001
 30
0.0
 11
71.41895379533025
 21
628.1991226576751
 31
0.0
  0
ARC
  5
31833A64
330
318324AF
100
AcDbEntity
  8
SAISEN
100
AcDbCircle
 10
71.91895379533026
 20
627.6991226576751
 30
0.0
 40
1.75
100
AcDbArc
 50
73.39845040097705
 51
106.6015495990229
  0
CIRCLE
  5
31833A65
330
318324AF
100
AcDbEntity
  8
JISSEN
100
AcDbCircle
 10
71.91895379533026
 20
627.6991226576751
 30
0.0
 40
2.744610977126967
  0
ARC
  5
31833A66
330
318324AF
100
AcDbEntity
  8
SAISEN
100
AcDbCircle
 10
71.91895379533026
 20
531.6991226576751
 30
0.0
 40
1.75
100
AcDbArc
 50
343.3984504009792
 51
16.60154959902075
  0
ARC
  5
31833A67
330
318324AF
100
AcDbEntity
  8
SAISEN
100
AcDbCircle
 10
71.91895379533026
 20
531.6991226576751
 30
0.0
 40
1.75
100
AcDbArc
 50
253.398450400977
 51
286.6015495990229
  0
ARC
  5
31833A68
330
318324AF
100
AcDbEntity
  8
SAISEN
100
AcDbCircle
 10
71.91895379533026
 20
531.6991226576751
 30
0.0
 40
1.75
100
AcDbArc
 50
163.3984504009792
 51
196.6015495990207
  0
LINE
  5
31833A69
330
318324AF
100
AcDbEntity
  8
SAISEN
100
AcDbLine
 10
72.41895379533025
 20
532.1991226576751
 30
0.0
 11
72.41895379533025
 21
533.3761736408
 31
0.0
  0
LINE
  5
31833A6A
330
318324AF
100
AcDbEntity
  8
SAISEN
100
AcDbLine
 10
73.59600477845515
 20
532.1991226576751
 30
0.0
 11
72.41895379533025
 21
532.1991226576751
 31
0.0
  0
LINE
  5
31833A6B
330
318324AF
100
AcDbEntity
  8
SAISEN
100
AcDbLine
 10
72.41895379533025
 20
531.1991226576751
 30
0.0
 11
73.59600477845515
 21
531.1991226576751
 31
0.0
  0
LINE
  5
31833A6C
330
318324AF
100
AcDbEntity
  8
SAISEN
100
AcDbLine
 10
72.41895379533025
 20
530.0220716745502
 30
0.0
 11
72.41895379533025
 21
531.1991226576751
 31
0.0
  0
LINE
  5
31833A6D
330
318324AF
100
AcDbEntity
  8
SAISEN
100
AcDbLine
 10
71.41895379533025
 20
531.1991226576751
 30
0.0
 11
71.41895379533025
 21
530.0220716745505
 31
0.0
  0
LINE
  5
31833A6E
330
318324AF
100
AcDbEntity
  8
SAISEN
100
AcDbLine
 10
70.24190281220535
 20
531.1991226576751
 30
0.0
 11
71.41895379533025
 21
531.1991226576751
 31
0.0
  0
LINE
  5
31833A6F
330
318324AF
100
AcDbEntity
  8
SAISEN
100
AcDbLine
 10
71.41895379533025
 20
532.1991226576751
 30
0.0
 11
70.24190281220535
 21
532.1991226576751
 31
0.0
  0
LINE
  5
31833A70
330
318324AF
100
AcDbEntity
  8
SAISEN
100
AcDbLine
 10
71.41895379533025
 20
533.3761736408
 30
0.0
 11
71.41895379533025
 21
532.1991226576751
 31
0.0
  0
ARC
  5
31833A71
330
318324AF
100
AcDbEntity
  8
SAISEN
100
AcDbCircle
 10
71.91895379533026
 20
531.6991226576751
 30
0.0
 40
1.75
100
AcDbArc
 50
73.39845040097705
 51
106.6015495990229
  0
CIRCLE
  5
31833A72
330
318324AF
100
AcDbEntity
  8
JISSEN
100
AcDbCircle
 10
71.91895379533026
 20
531.6991226576751
 30
0.0
 40
2.744610977126967
  0
ARC
  5
31833A73
330
318324AF
100
AcDbEntity
  8
SAISEN
100
AcDbCircle
 10
273.9189537953301
 20
531.6991226576751
 30
0.0
 40
1.75
100
AcDbArc
 50
343.3984504009792
 51
16.60154959902075
  0
ARC
  5
31833A74
330
318324AF
100
AcDbEntity
  8
SAISEN
100
AcDbCircle
 10
273.9189537953301
 20
531.6991226576751
 30
0.0
 40
1.75
100
AcDbArc
 50
253.398450400977
 51
286.6015495990229
  0
ARC
  5
31833A75
330
318324AF
100
AcDbEntity
  8
SAISEN
100
AcDbCircle
 10
273.9189537953301
 20
531.6991226576751
 30
0.0
 40
1.75
100
AcDbArc
 50
163.3984504009792
 51
196.6015495990207
  0
LINE
  5
31833A76
330
318324AF
100
AcDbEntity
  8
SAISEN
100
AcDbLine
 10
274.4189537953301
 20
532.1991226576751
 30
0.0
 11
274.4189537953301
 21
533.3761736408
 31
0.0
  0
LINE
  5
31833A77
330
318324AF
100
AcDbEntity
  8
SAISEN
100
AcDbLine
 10
275.596004778455
 20
532.1991226576751
 30
0.0
 11
274.4189537953301
 21
532.1991226576751
 31
0.0
  0
LINE
  5
31833A78
330
318324AF
100
AcDbEntity
  8
SAISEN
100
AcDbLine
 10
274.4189537953301
 20
531.1991226576751
 30
0.0
 11
275.596004778455
 21
531.1991226576751
 31
0.0
  0
LINE
  5
31833A79
330
318324AF
100
AcDbEntity
  8
SAISEN
100
AcDbLine
 10
274.4189537953301
 20
530.0220716745502
 30
0.0
 11
274.4189537953301
 21
531.1991226576751
 31
0.0
  0
LINE
  5
31833A7A
330
318324AF
100
AcDbEntity
  8
SAISEN
100
AcDbLine
 10
273.4189537953301
 20
531.1991226576751
 30
0.0
 11
273.4189537953301
 21
530.0220716745505
 31
0.0
  0
LINE
  5
31833A7B
330
318324AF
100
AcDbEntity
  8
SAISEN
100
AcDbLine
 10
272.2419028122052
 20
531.1991226576751
 30
0.0
 11
273.4189537953301
 21
531.1991226576751
 31
0.0
  0
LINE
  5
31833A7C
330
318324AF
100
AcDbEntity
  8
SAISEN
100
AcDbLine
 10
273.4189537953301
 20
532.1991226576751
 30
0.0
 11
272.2419028122052
 21
532.1991226576751
 31
0.0
  0
LINE
  5
31833A7D
330
318324AF
100
AcDbEntity
  8
SAISEN
100
AcDbLine
 10
273.4189537953301
 20
533.3761736408
 30
0.0
 11
273.4189537953301
 21
532.1991226576751
 31
0.0
  0
ARC
  5
31833A7E
330
318324AF
100
AcDbEntity
  8
SAISEN
100
AcDbCircle
 10
273.9189537953301
 20
531.6991226576751
 30
0.0
 40
1.75
100
AcDbArc
 50
73.39845040097705
 51
106.6015495990229
  0
CIRCLE
  5
31833A7F
330
318324AF
100
AcDbEntity
  8
JISSEN
100
AcDbCircle
 10
273.9189537953301
 20
531.6991226576751
 30
0.0
 40
2.744610977126967
  0
CIRCLE
  5
31833A80
102
{ACAD_REACTORS
330
31833A9B
102
}
330
318324AF
100
AcDbEntity
  8
SAISEN
 62
     4
100
AcDbCircle
 10
90.20725983850708
 20
550.1891443343309
 30
0.0
 40
12.53164556962025
  0
CIRCLE
  5
31833A81
102
{ACAD_REACTORS
330
31833A9B
102
}
330
318324AF
100
AcDbEntity
  8
SAISEN
 62
     4
100
AcDbCircle
 10
90.20725983850708
 20
550.1891443343309
 30
0.0
 40
11.27848101265822
  0
CIRCLE
  5
31833A84
102
{ACAD_REACTORS
330
31833A9B
102
}
330
318324AF
100
AcDbEntity
  8
SAISEN
100
AcDbCircle
 10
158.4821633052258
 20
555.0187359259085
 30
0.0
 40
0.3870958325686231
  0
LWPOLYLINE
  5
31833A85
102
{ACAD_REACTORS
330
31833A9B
102
}
330
318324AF
100
AcDbEntity
  8
SAISEN
100
AcDbPolyline
 90
        8
 70
     1
 43
0.0
 10
126.8200410248293
 20
551.8473241395687
 10
126.8200410248293
 20
544.3118585988996
 42
-1.0
 10
125.3748832499064
 20
544.3118585988996
 10
125.3748832499064
 20
549.0386811791736
 42
0.6866165717616584
 10
125.2400240566246
 20
549.0905885068697
 42
-0.9560347805192888
 10
124.1264837202491
 20
550.0094425501889
 42
0.1183853437574497
 10
126.1237701263347
 20
554.6138880479384
 42
-1.0
 10
127.5472050645669
 20
554.3642603831258
 42
-0.053874857749413
  0
LWPOLYLINE
  5
31833A86
102
{ACAD_REACTORS
330
31833A9B
102
}
330
318324AF
100
AcDbEntity
  8
SAISEN
100
AcDbPolyline
 90
       35
 70
     1
 43
0.0
 10
132.9885627468322
 20
551.8473241395687
 10
135.5175888529473
 20
551.8473241395687
 42
1.0
 10
135.5175888529473
 20
553.3957074698434
 10
132.8190786088412
 20
553.3957074698434
 42
-0.5029716470336553
 10
132.7202610624517
 20
553.5287760780414
 42
0.2011148424014987
 10
132.6583322549031
 20
554.1241582616087
 10
131.829512755626
 20
555.1675653651955
 42
1.0
 10
130.6170879914275
 20
554.204488458282
 10
131.0267902803661
 20
553.6887111641818
 42
-0.6276728463992862
 10
130.8853407245433
 20
553.3957074698434
 10
128.5498638667122
 20
553.3957074698434
 42
1.0
 10
128.5498638667122
 20
551.8473241395687
 10
131.0788899728271
 20
551.8473241395687
 42
-0.4142135623730951
 10
131.2595346946925
 20
551.6666794177033
 10
131.2595346946925
 20
549.9118449767256
 42
-0.4142135623730945
 10
131.0788899728271
 20
549.7312002548603
 10
128.6788958109016
 20
549.7312002548603
 42
1.0
 10
128.6788958109016
 20
548.1828169245857
 10
131.0788899728271
 20
548.1828169245857
 42
-0.4142135623730956
 10
131.2595346946925
 20
548.0021722027204
 10
131.2595346946925
 20
545.7312099849844
 42
-0.4142135623730956
 10
131.0788899728271
 20
545.5505652631191
 10
128.317606367171
 20
545.5505652631191
 42
1.0
 10
128.317606367171
 20
544.0021819328446
 10
135.7498463524884
 20
544.0021819328446
 42
1.0
 10
135.7498463524884
 20
545.5505652631191
 10
132.9885627468322
 20
545.5505652631191
 42
-0.4142135623730956
 10
132.8079180249669
 20
545.7312099849844
 10
132.8079180249669
 20
548.0021722027204
 42
-0.4142135623730955
 10
132.9885627468322
 20
548.1828169245857
 10
135.3885569087578
 20
548.1828169245857
 42
1.0
 10
135.3885569087578
 20
549.7312002548603
 10
132.9885627468322
 20
549.7312002548603
 42
-0.4142135623730945
 10
132.8079180249669
 20
549.9118449767256
 10
132.8079180249669
 20
551.6666794177033
 42
-0.4142135623731011
  0
LWPOLYLINE
  5
31833A87
102
{ACAD_REACTORS
330
31833A9B
102
}
330
318324AF
100
AcDbEntity
  8
SAISEN
100
AcDbPolyline
 90
       46
 70
     1
 43
0.0
 10
259.6369602057773
 20
554.6860269117387
 42
-1.0
 10
261.1853435360516
 20
554.6860269117387
 10
261.1853435360516
 20
553.4731266363569
 42
0.414213562373093
 10
261.3401818690793
 20
553.3182883033295
 10
262.7124747481662
 20
553.3182883033295
 42
-0.4122746911688611
 10
263.2285912009269
 20
552.8055794636761
 42
-0.2168776885244659
 10
263.812408168279
 20
553.0713121993019
 10
264.8756571398727
 20
553.0713121993019
 42
0.4142135623730951
 10
265.0304954729001
 20
553.2261505323293
 10
265.0304954729001
 20
554.6860269117387
 42
-1.0
 10
266.5788788031744
 20
554.6860269117387
 10
266.5788788031744
 20
553.2261505323293
 42
0.4142135623730956
 10
266.7337171362019
 20
553.0713121993019
 10
268.2821004664764
 20
553.0713121993019
 42
-1.0
 10
268.2821004664764
 20
551.5229288690274
 10
266.7337171362019
 20
551.5229288690274
 42
0.4142135623730941
 10
266.5788788031744
 20
551.3680905359999
 10
266.5788788031744
 20
545.7054035961466
 42
0.4142135623730955
 10
266.7337171362019
 20
545.5505652631191
 10
268.5401643548555
 20
545.5505652631191
 42
-1.0
 10
268.5401643548555
 20
544.0021819328446
 10
262.7079204774882
 20
544.0021819328446
 42
-1.0
 10
262.7079204774882
 20
545.5505652631191
 10
264.8756571398727
 20
545.5505652631191
 42
0.4142135623730966
 10
265.0304954729001
 20
545.7054035961466
 10
265.0304954729001
 20
551.3680905359999
 42
0.4142135623730941
 10
264.8756571398727
 20
551.5229288690274
 10
263.812408168279
 20
551.5229288690274
 42
-0.4078750109712648
 10
263.0383986002558
 20
552.2803299720382
 42
-0.0460346531742509
 10
261.836700282206
 20
550.2860152790368
 10
263.967168282489
 20
548.7161967525123
 42
-0.9999999999999984
 10
263.0486687804378
 20
547.4696617140142
 10
261.4320318192842
 20
548.6608678959169
 42
0.6151099889490489
 10
261.1853435360516
 20
548.536214392067
 10
261.1853435360516
 20
544.3634713765755
 42
-1.0
 10
259.6369602057773
 20
544.3634713765755
 10
259.6369602057773
 20
547.653414111828
 42
0.6233400877170312
 10
259.3873319444096
 20
547.7758468642267
 42
-0.0212493152492001
 10
258.5088542163244
 20
547.1535474529201
 42
-0.9999999999999998
 10
257.6682995346809
 20
548.4539161562651
 42
0.0999246241034749
 10
260.8192192075811
 20
551.5278196506073
 42
0.6026211128375224
 10
260.6913017646273
 20
551.769904973055
 10
258.3466407638818
 20
551.769904973055
 42
-1.0
 10
258.3466407638818
 20
553.3182883033295
 10
259.4821218727497
 20
553.3182883033295
 42
0.4142135623730943
 10
259.6369602057773
 20
553.4731266363569
  0
LWPOLYLINE
  5
31833A88
102
{ACAD_REACTORS
330
31833A9B
102
}
330
318324AF
100
AcDbEntity
  8
SAISEN
100
AcDbPolyline
 90
        6
 70
     1
 43
0.0
 10
250.7507196979724
 20
553.8033839609861
 10
248.7408913994204
 20
552.376083878572
 10
248.7683565344959
 20
552.2807727579674
 10
252.7974996009376
 20
552.2807727579674
 10
252.8249647360128
 20
552.376083878572
 10
250.8151364374607
 20
553.8033839609861
  0
LWPOLYLINE
  5
31833A89
102
{ACAD_REACTORS
330
31833A9B
102
}
330
318324AF
100
AcDbEntity
  8
SAISEN
100
AcDbPolyline
 90
       22
 70
     1
 43
0.0
 10
256.571540840657
 20
544.8158408626203
 42
-1.0
 10
255.3149827123345
 20
543.9111018905302
 42
0.021927783063709
 10
254.7329468331934
 20
544.6489674322005
 42
0.2350649554663871
 10
254.6057291918206
 20
544.702352782563
 10
246.4456861882808
 20
544.1758983952378
 42
-1.0
 10
246.3459977422637
 20
545.7210693085036
 10
247.3323322816673
 20
545.7847037949167
 42
0.2847578740297872
 10
247.4651766705476
 20
545.8793937208656
 10
248.3704256337839
 20
548.0403106008489
 42
0.5358006090657583
 10
248.2276124003018
 20
548.2549760992538
 10
245.879714188514
 20
548.2549760992538
 42
-1.0
 10
245.879714188514
 20
549.8033594295283
 10
255.6861419469191
 20
549.8033594295283
 42
-1.0
 10
255.6861419469191
 20
548.2549760992538
 10
250.2245643108669
 20
548.2549760992538
 42
0.3105051435850527
 10
250.0800109034492
 20
548.1556285021973
 10
249.3031204954909
 20
546.1318284264621
 42
0.5468718829383487
 10
249.4576427475107
 20
545.9218205991645
 10
252.9936857340358
 20
546.1499524047469
 42
0.6976989533440405
 10
253.0212041596448
 20
546.2428427424963
 42
0.0029535551001564
 10
252.9192113167381
 20
546.3179186134285
 42
-1.000000000000001
 10
253.8297205273966
 20
547.5703019073038
 42
-0.0797012575166524
  0
LWPOLYLINE
  5
31833A8A
102
{ACAD_REACTORS
330
31833A9B
102
}
330
318324AF
100
AcDbEntity
  8
SAISEN
100
AcDbPolyline
 90
       12
 70
     1
 43
0.0
 10
245.3211729147967
 20
552.2979376981847
 42
0.0714953966147462
 10
250.3015961092626
 20
555.2924032636347
 42
-0.3486477685382974
 10
251.2642600261706
 20
555.2924032636347
 42
0.0714953966147458
 10
256.2446832206368
 20
552.2979376981849
 42
-0.9375247296223454
 10
255.7379632956749
 20
550.8382200691521
 42
-0.0177045635089767
 10
254.3409763788145
 20
551.5057614846432
 42
0.5448562439575066
 10
254.2655584259504
 20
551.4629199091711
 42
-0.3977817593624567
 10
253.492598895697
 20
550.7323894276931
 10
248.0732572397363
 20
550.7323894276931
 42
-0.3977817593624539
 10
247.3002977094829
 20
551.4629199091711
 42
0.544856243957455
 10
247.2248797566189
 20
551.5057614846432
 42
-0.0177045635089769
 10
245.8278928397585
 20
550.8382200691521
 42
-0.9375247296222685
  0
LWPOLYLINE
  5
31833A8B
102
{ACAD_REACTORS
330
31833A9B
102
}
330
318324AF
100
AcDbEntity
  8
SAISEN
100
AcDbPolyline
 90
       18
 70
     1
 43
0.0
 10
233.311047108592
 20
544.1934350214483
 10
238.2380119796175
 20
545.1939702970759
 42
0.9150617575178049
 10
237.7162344257283
 20
546.6398667340041
 10
237.1302849173341
 20
546.485448589421
 42
-0.4918646192181379
 10
236.5096157328665
 20
546.963740960423
 10
236.5096157328664
 20
549.1158511867827
 42
-0.4103985717549125
 10
236.9977871371262
 20
549.6104315692433
 10
237.7318786894461
 20
549.6200066764474
 42
1.0
 10
237.7130304087081
 20
551.0650415330282
 10
233.1181338633099
 20
551.0051080998273
 42
0.8496409365451205
 10
232.9004828007573
 20
549.5569884692039
 10
234.4601589013985
 20
549.5773320705165
 42
-0.4180388721689203
 10
234.961232402592
 20
549.0827516880558
 10
234.961232402592
 20
546.4287837618289
 42
-0.3712644620077222
 10
234.5399529863864
 20
545.9396292159692
 10
233.0430726462012
 20
545.7151894138927
 42
0.3712644620077241
 10
232.3858767569204
 20
544.9521083223518
 10
232.3858767569204
 20
544.9496116604771
 42
0.4741888709078976
  0
LWPOLYLINE
  5
31833A8C
102
{ACAD_REACTORS
330
31833A9B
102
}
330
318324AF
100
AcDbEntity
  8
SAISEN
100
AcDbPolyline
 90
       35
 70
     1
 43
0.0
 10
241.6735213227067
 20
553.7749842616539
 42
0.7994078749809068
 10
241.694412376258
 20
553.8734846937061
 42
-0.0438731735806829
 10
240.9736684351726
 20
554.2849319142407
 42
-1.0
 10
241.7090499449496
 20
555.3451857976155
 42
0.0837739739835673
 10
242.7474427437278
 20
554.857277495364
 42
-0.5119692040613775
 10
243.1087022997599
 20
553.8747660563291
 42
0.6055107519491782
 10
243.1521471845759
 20
553.7942706859389
 10
243.3123436336507
 20
553.7963602048399
 42
-1.0
 10
243.3325382201555
 20
552.2481085727893
 10
240.6770157130813
 20
552.2134713226969
 42
0.4458536162710301
 10
240.4241687336026
 20
551.9245748811007
 42
0.0279921944070669
 10
241.0931587794696
 20
548.1588474517959
 42
0.0606728607395486
 10
242.1937159975319
 20
545.9834595126473
 42
0.6592200259122605
 10
242.4734972964494
 20
546.0356517445446
 42
0.030470320942106
 10
242.7030875947933
 20
547.4602380371243
 42
-1.0
 10
244.2514709250677
 20
547.4602380371243
 10
244.2514709250677
 20
546.8717537862885
 42
-0.0466637896147516
 10
243.9245054688034
 20
545.1729973237454
 42
-0.0168888916150345
 10
243.8602529380973
 20
544.986021532052
 42
-0.1128117704920973
 10
243.3172602383463
 20
544.1036205785857
 42
-0.3024975898513548
 10
242.4450237064143
 20
543.8565102312828
 42
-0.0769260479074295
 10
241.5037384246973
 20
544.2358344054135
 42
-0.1182289009929937
 10
240.9862944387351
 20
544.7395874384625
 42
-0.0622972667805791
 10
239.6692835521578
 20
547.5443293249497
 42
-0.0039769140334449
 10
239.6063209342444
 20
547.7183019255035
 42
-0.0301411173838843
 10
238.8612969872874
 20
551.9576366513725
 42
0.3850296683360234
 10
238.6015336332708
 20
552.1863998173081
 10
233.1648210180197
 20
552.1154861745004
 42
-1.0
 10
233.1446264315147
 20
553.6637378065512
 10
238.4286320802689
 20
553.732659619361
 42
0.4323918708266769
 10
238.6826104108883
 20
554.009962586952
 10
238.636334887052
 20
554.6282438249911
 42
-1.0
 10
240.1803994572742
 20
554.7438099984864
 10
240.2361886465605
 20
553.9984179172821
 42
0.3962659525886108
 10
240.496898506015
 20
553.7596370075231
  0
LWPOLYLINE
  5
31833A8D
102
{ACAD_REACTORS
330
31833A9B
102
}
330
318324AF
100
AcDbEntity
  8
SAISEN
100
AcDbPolyline
 90
       53
 70
     1
 43
0.0
 10
230.5552534039792
 20
549.7312002548603
 10
228.1552592420537
 20
549.7312002548603
 42
0.0743494977705335
 10
231.4242238612403
 20
545.3710387784807
 42
-1.0
 10
230.4088618341797
 20
544.3426804029989
 42
-0.0438873845599916
 10
228.1552592420537
 20
546.9964251312492
 10
228.1552592420537
 20
544.3118585988996
 42
-1.0
 10
226.7101014671309
 20
544.3118585988996
 10
226.7101014671309
 20
546.9964251312492
 42
-0.044425566432872
 10
224.4260872835284
 20
544.3127176034695
 42
-1.0
 10
223.4129370656189
 20
545.3432551478458
 42
0.074889623148952
 10
226.7101014671309
 20
549.7312002548603
 10
224.6713967489361
 20
549.7312002548603
 42
-1.0
 10
224.6713967489361
 20
551.1763580297831
 10
226.7101014671309
 20
551.1763580297831
 10
226.7101014671309
 20
552.311839138651
 10
225.1617181368565
 20
552.3118391386512
 42
-0.0152523455626472
 10
224.9177284164245
 20
551.8175529973458
 42
-0.6902403826681676
 10
223.5772911010674
 20
551.9880674839483
 42
-0.1600327065525932
 10
223.1488198074997
 20
551.8473241395687
 10
222.7004425281293
 20
551.8473241395687
 42
0.5443354633598011
 10
222.6298513858508
 20
551.7381147548187
 42
0.0425297040123326
 10
224.2124834960884
 20
548.8964008727271
 42
-1.000000000000001
 10
223.0141861104905
 20
548.0885863085545
 42
-0.0064282713165093
 10
222.7237843185163
 20
548.5315448278121
 42
0.7500568622206073
 10
222.5810792530657
 20
548.4899337866852
 10
222.5810792530657
 20
544.3118585988996
 42
-1.0
 10
221.1359214781428
 20
544.3118585988996
 10
221.1359214781428
 20
547.5151181400255
 42
0.8118892076050451
 10
220.9876173163655
 20
547.5462476242835
 42
-0.0510400568211836
 10
220.6679884772859
 20
546.9275871702034
 42
-1.038853738921953
 10
219.4666741458417
 20
547.7290191974362
 42
0.0807299223725665
 10
221.1143066280279
 20
551.7524385463113
 42
0.4825507232976211
 10
221.0388834798539
 20
551.8473241395687
 10
220.206891479978
 20
551.8473241395687
 42
-1.0
 10
220.206891479978
 20
553.2924819144916
 10
221.1359214781428
 20
553.2924819144916
 10
221.1359214781428
 20
554.7376396894143
 42
-1.0
 10
222.5810792530657
 20
554.7376396894143
 10
222.5810792530657
 20
553.2924819144916
 10
223.1488198074997
 20
553.2924819144916
 42
-0.3035254725439783
 10
223.8165765904391
 20
552.8459847675405
 42
0.0615665677052705
 10
224.3929061073471
 20
554.6171811183127
 42
-1.0
 10
225.8116168252342
 20
554.341970483758
 42
-0.0166046853614768
 10
225.6778459136145
 20
553.756996913574
 10
226.7101014671309
 20
553.756996913574
 10
226.7101014671309
 20
554.7376396894143
 42
-1.0
 10
228.1552592420537
 20
554.7376396894143
 10
228.1552592420537
 20
553.756996913574
 10
230.4004150709516
 20
553.756996913574
 42
-1.0
 10
230.4004150709516
 20
552.311839138651
 10
228.1552592420537
 20
552.311839138651
 10
228.1552592420537
 20
551.1763580297831
 10
230.5552534039792
 20
551.1763580297831
 42
-1.0
  0
LWPOLYLINE
  5
31833A8E
102
{ACAD_REACTORS
330
31833A9B
102
}
330
318324AF
100
AcDbEntity
  8
SAISEN
100
AcDbPolyline
 90
        4
 70
     1
 43
0.0
 10
207.7663577833536
 20
550.2989408092942
 42
1.0
 10
207.7663577833536
 20
548.7505574790198
 10
218.0889133185169
 20
548.7505574790198
 42
1.0
 10
218.0889133185169
 20
550.2989408092942
  0
LWPOLYLINE
  5
31833A8F
102
{ACAD_REACTORS
330
31833A9B
102
}
330
318324AF
100
AcDbEntity
  8
SAISEN
100
AcDbPolyline
 90
        4
 70
     1
 43
0.0
 10
204.2833491512584
 20
554.7892524670902
 10
196.541432499886
 20
554.7892524670902
 42
1.0
 10
196.541432499886
 20
553.2408691368157
 10
204.2833491512584
 20
553.2408691368157
 42
1.0
  0
LWPOLYLINE
  5
31833A90
102
{ACAD_REACTORS
330
31833A9B
102
}
330
318324AF
100
AcDbEntity
  8
SAISEN
100
AcDbPolyline
 90
       11
 70
     1
 43
0.0
 10
206.0897963699119
 20
550.5570046976734
 42
-0.3106637293672825
 10
201.7027102674675
 20
544.6215352649544
 42
-0.0757975034211305
 10
197.3336011676163
 20
543.8511650756409
 42
-1.0
 10
197.2976471624299
 20
545.399130917313
 42
0.0757047635176025
 10
201.2024727498646
 20
546.0868951964068
 42
0.2739170351993261
 10
204.4748117276469
 20
549.9459627161898
 42
0.4645004032667825
 10
204.2204066237263
 20
550.2473280316183
 10
195.5091769463695
 20
550.2473280316183
 42
-1.0
 10
195.5091769463695
 20
551.7957113618929
 10
205.0575408163955
 20
551.7957113618929
 42
-0.4142135623731018
 10
206.0897963699119
 20
550.7634558083766
  0
LWPOLYLINE
  5
31833A91
102
{ACAD_REACTORS
330
31833A9B
102
}
330
318324AF
100
AcDbEntity
  8
SAISEN
100
AcDbPolyline
 90
       14
 70
     1
 43
0.0
 10
189.8112816507623
 20
547.7211978173342
 42
-0.1525099745054455
 10
184.9959654696182
 20
545.1368684244556
 42
1.000000000000009
 10
185.2882074706236
 20
543.6163140682025
 42
0.1527087266791696
 10
190.9227175698123
 20
546.6431159918061
 42
0.1741491623156161
 10
193.9003355652528
 20
553.2978869191977
 42
0.4366181916758971
 10
192.6137294087291
 20
554.6860269117387
 10
186.8622768971345
 20
554.6860269117387
 42
0.2814124278005228
 10
185.9436039593805
 20
554.1245064867218
 42
-0.1568400336058553
 10
183.4977123461104
 20
551.6750492120455
 42
1.000000000000001
 10
184.2058217103403
 20
550.2980698854897
 42
0.1354825693697109
 10
187.0248391063216
 20
552.8944347545545
 42
-0.2589752263221756
 10
187.4629065997
 20
553.1376435814642
 10
191.7379253379244
 20
553.1376435814642
 42
-0.4655939616553161
 10
192.2464207942343
 20
552.5330836111704
 42
-0.149244744637674
  0
LWPOLYLINE
  5
31833A92
102
{ACAD_REACTORS
330
31833A9B
102
}
330
318324AF
100
AcDbEntity
  8
SAISEN
100
AcDbPolyline
 90
        4
 70
     1
 43
0.0
 10
171.9671916676747
 20
544.1390159199644
 42
-1.0
 10
171.8506499920985
 20
545.6830071684261
 42
0.3208737530023473
 10
180.6868873395308
 20
553.0703810377898
 42
-0.9999999999999953
 10
182.1857941375735
 20
552.6820907491488
 42
-0.3208737530023471
  0
LWPOLYLINE
  5
31833A93
102
{ACAD_REACTORS
330
31833A9B
102
}
330
318324AF
100
AcDbEntity
  8
SAISEN
100
AcDbPolyline
 90
        4
 70
     1
 43
0.0
 10
172.707882843249
 20
554.7426301569818
 42
-0.0235585019510392
 10
175.785198981363
 20
553.3090607101565
 42
-1.000000000000001
 10
175.0659815631543
 20
551.9378505720604
 42
0.0235585019510392
 10
172.1208549082257
 20
553.3098394740927
 42
-0.99999999999999
  0
LWPOLYLINE
  5
31833A94
102
{ACAD_REACTORS
330
31833A9B
102
}
330
318324AF
100
AcDbEntity
  8
SAISEN
100
AcDbPolyline
 90
        8
 70
     1
 43
0.0
 10
170.6261979409455
 20
554.6860269117387
 10
170.6261979409455
 20
549.3515074875847
 42
-0.2490165112722773
 10
167.9178892274918
 20
545.1239258078778
 42
-0.1273412802796108
 10
163.3488987759099
 20
543.6089588571246
 42
-1.000000000000005
 10
163.245468246049
 20
545.1538837947717
 42
0.1288820830114853
 10
167.1187397791629
 20
546.4512145306687
 42
0.2481156621714279
 10
169.0778146106709
 20
549.4201544393134
 10
169.0778146106709
 20
554.6860269117387
 42
-1.0
  0
LWPOLYLINE
  5
31833A95
102
{ACAD_REACTORS
330
31833A9B
102
}
330
318324AF
100
AcDbEntity
  8
SAISEN
100
AcDbPolyline
 90
        4
 70
     1
 43
0.0
 10
160.4584807388096
 20
554.6860269117387
 42
-1.0
 10
162.006864069084
 20
554.6860269117387
 10
162.006864069084
 20
549.0086213673988
 42
-1.0
 10
160.4584807388096
 20
549.0086213673988
  0
LWPOLYLINE
  5
31833A96
102
{ACAD_REACTORS
330
31833A9B
102
}
330
318324AF
100
AcDbEntity
  8
SAISEN
100
AcDbPolyline
 90
       15
 70
     1
 43
0.0
 10
156.7300563099566
 20
553.1209662735339
 10
148.3734077073224
 20
553.0417563341726
 42
-1.0
 10
148.3587317473459
 20
554.5900701116964
 10
157.2386815029912
 20
554.6742402515604
 42
-2.831910569060239
 10
158.5560165492774
 20
553.730531764886
 42
-0.0208206875585603
 10
158.5595933183078
 20
553.6446744057716
 10
158.5595933183078
 20
553.1383078565514
 42
-0.0668647846844765
 10
157.8002713975362
 20
549.0341061174344
 42
-0.0333533933995328
 10
157.7231292888123
 20
548.8427225079265
 42
-0.0927123145957803
 10
155.8499224903275
 20
546.2989505394185
 42
-0.1458956791762012
 10
150.0174504464778
 20
543.6720416246762
 42
-1.0
 10
149.8114556687393
 20
545.2066611504924
 42
0.145102294197791
 10
154.8144926241304
 20
547.4506531227324
 42
0.091665638147642
 10
156.3287823883045
 20
549.51598891769
 42
0.0602525101072688
 10
156.9898260730615
 20
552.8433832836435
 42
0.4394037110369716
  0
LWPOLYLINE
  5
31833A97
102
{ACAD_REACTORS
330
31833A9B
102
}
330
318324AF
100
AcDbEntity
  8
SAISEN
100
AcDbPolyline
 90
       17
 70
     0
 43
0.0
 10
138.0850728323313
 20
543.8473435998171
 42
0.1063712114884995
 10
143.3296696550532
 20
547.2803327208338
 42
-0.405938226823953
 10
143.6893457673343
 20
547.2876355100182
 10
147.1522855607186
 20
544.0555583695261
 42
1.0
 10
148.2087757655181
 20
545.1875121603828
 10
144.6856204881624
 20
548.4757904192479
 42
-0.3828982093648742
 10
144.6551489241857
 20
548.8191514182992
 42
0.0039489750640175
 10
144.7947339301873
 20
549.0086213673988
 42
0.1138496861554026
 10
146.5584880508381
 20
553.5022688127457
 42
0.45804529415744
 10
145.5374109203138
 20
554.6860269117387
 10
138.8592644974684
 20
554.6860269117387
 42
1.0
 10
138.8592644974684
 20
553.1376435814642
 10
144.5934669025261
 20
553.1376435814642
 42
-0.4890901285612313
 10
144.8435890670368
 20
552.8160511695244
 42
-0.0876802035349815
 10
143.5288103224253
 20
549.9004743414082
 42
-0.1442471141632833
 10
137.5476466471399
 20
545.2996283807474
 42
0.9853669476710768
 10
138.0849665212051
 20
543.8476444325003
  0
LWPOLYLINE
  5
31833A98
102
{ACAD_REACTORS
330
31833A9B
102
}
330
318324AF
100
AcDbEntity
  8
SAISEN
100
AcDbPolyline
 90
       22
 70
     1
 43
0.0
 10
112.0649046939591
 20
549.0086213673988
 10
116.3358620466329
 20
549.0086213673988
 42
-0.4142135623730948
 10
116.5165067684982
 20
548.8279766455334
 10
116.5165067684982
 20
544.3634713765755
 42
1.0
 10
118.0648900987728
 20
544.3634713765755
 10
118.0648900987728
 20
548.8279766455334
 42
-0.4142135623730948
 10
118.2455348206382
 20
549.0086213673988
 10
122.5164921733119
 20
549.0086213673988
 42
1.0
 10
122.5164921733119
 20
550.5570046976734
 10
118.2455348206382
 20
550.5570046976734
 42
-0.4142135623730951
 10
118.0648900987728
 20
550.7376494195386
 10
118.0648900987728
 20
552.9006923462928
 42
-0.3832517545221522
 10
118.2262687807087
 20
553.0803067534077
 42
0.0118347698368547
 10
121.796685967149
 20
553.5489936735103
 42
0.9999999999999991
 10
121.5588831050108
 20
555.0790069859462
 42
-0.0292873215554025
 10
112.8749151003555
 20
554.2459855051737
 42
1.0
 10
112.9323095620267
 20
552.6986662707422
 42
0.0111567498169039
 10
116.3211196082409
 20
552.9001592684985
 42
-0.4383507954394755
 10
116.5165067684982
 20
552.7201171177447
 10
116.5165067684982
 20
550.7376494195386
 42
-0.4142135623730948
 10
116.3358620466329
 20
550.5570046976734
 10
112.0649046939591
 20
550.5570046976734
 42
1.0
  0
LWPOLYLINE
  5
31833A99
102
{ACAD_REACTORS
330
31833A9B
102
}
330
318324AF
100
AcDbEntity
  8
SAISEN
100
AcDbPolyline
 90
       35
 70
     1
 43
0.0
 10
93.28338174262057
 20
553.3237586466666
 10
96.31122703542747
 20
553.3237586466666
 42
1.0
 10
96.31122703542747
 20
555.1775414789974
 10
93.08046895015037
 20
555.1775414789974
 42
-0.5029716470336553
 10
92.96216086232233
 20
555.3368562278562
 42
0.2011148424014987
 10
92.88801736179767
 20
556.0496701990429
 10
91.89572344541444
 20
557.2988764762884
 42
1.0
 10
90.44416285998408
 20
556.1458445355906
 10
90.93467386895145
 20
555.5283365358506
 42
-0.6276728463992862
 10
90.76532513398479
 20
555.1775414789974
 10
87.96920428993962
 20
555.1775414789974
 42
1.0
 10
87.96920428993962
 20
553.3237586466666
 10
90.99704958274628
 20
553.3237586466666
 42
-0.4142135623730951
 10
91.21332424651814
 20
553.1074839828947
 10
91.21332424651814
 20
551.0065301062533
 42
-0.4142135623730945
 10
90.99704958274628
 20
550.7902554424813
 10
88.12368619263372
 20
550.7902554424813
 42
1.0
 10
88.12368619263372
 20
548.9364726101506
 10
90.99704958274628
 20
548.9364726101506
 42
-0.4142135623730956
 10
91.21332424651814
 20
548.7201979463788
 10
91.21332424651814
 20
546.0013164589605
 42
-0.4142135623730956
 10
90.99704958274628
 20
545.7850417951886
 10
87.69113686509001
 20
545.7850417951886
 42
1.0
 10
87.69113686509001
 20
543.9312589628581
 10
96.58929446027697
 20
543.9312589628581
 42
1.0
 10
96.58929446027697
 20
545.7850417951886
 10
93.28338174262057
 20
545.7850417951886
 42
-0.4142135623730956
 10
93.06710707884873
 20
546.0013164589605
 10
93.06710707884873
 20
548.7201979463788
 42
-0.4142135623730955
 10
93.28338174262057
 20
548.9364726101506
 10
96.15674513273326
 20
548.9364726101506
 42
1.0
 10
96.15674513273326
 20
550.7902554424813
 10
93.28338174262057
 20
550.7902554424813
 42
-0.4142135623730945
 10
93.06710707884873
 20
551.0065301062533
 10
93.06710707884873
 20
553.1074839828947
 42
-0.4142135623731011
  0
LWPOLYLINE
  5
31833A9A
102
{ACAD_REACTORS
330
31833A9B
102
}
330
318324AF
100
AcDbEntity
  8
SAISEN
100
AcDbPolyline
 90
        8
 70
     1
 43
0.0
 10
85.89819524162635
 20
553.3237586466666
 10
85.89819524162635
 20
544.3020155293242
 42
-1.0
 10
84.16799793145106
 20
544.3020155293242
 10
84.16799793145106
 20
549.9611455260488
 42
0.6866165717616584
 10
84.00653942669976
 20
550.023290933503
 42
-0.9560347805192888
 10
82.67336700206863
 20
551.1233775965523
 42
0.1183853437574497
 10
85.0645935016413
 20
556.6359931415782
 42
-1.0
 10
86.76878341368762
 20
556.3371295007365
 42
-0.053874857749413
  0
HATCH
  5
31833A9B
330
318324AF
100
AcDbEntity
  8
SUNPOU
100
AcDbHatch
 10
0.0
 20
0.0
 30
0.0
210
0.0
220
0.0
230
1.0
  2
ANSI31
 70
     0
 71
     1
 91
       25
 92
        1
 93
        1
 72
     2
 10
90.20725983850708
 20
550.1891443343309
 40
12.53164556962025
 50
0.0
 51
360.0
 73
     1
 97
        1
330
31833A80
 92
       16
 93
        1
 72
     2
 10
90.20725983850708
 20
550.1891443343309
 40
11.27848101265822
 50
0.0
 51
360.0
 73
     1
 97
        1
330
31833A81
 92
        0
 93
        8
 72
     1
 10
85.89819524162635
 20
553.3237586466666
 11
85.89819524162635
 21
544.3020155293242
 72
     2
 10
85.0330965865387
 20
544.3020155293242
 40
0.8650986550876496
 50
360.0
 51
540.0
 73
     0
 72
     1
 10
84.16799793145106
 20
544.3020155293242
 11
84.16799793145106
 21
549.9611455260488
 72
     2
 10
84.07530878983456
 20
549.961145526049
 40
0.0926891416165035
 50
359.9999999999297
 51
497.8965511292499
 73
     1
 72
     2
 10
83.36469203744124
 20
550.603314736408
 40
0.8650986550875694
 50
42.10344887074622
 51
216.9530344301661
 73
     0
 72
     2
 10
72.39087922256569
 20
558.8585813435495
 40
12.86712601722647
 50
323.0469655698346
 51
350.0531909869001
 73
     1
 72
     2
 10
85.91668845766447
 20
556.4865613211573
 40
0.8650986550876268
 50
189.9468090131002
 51
369.9468090130928
 73
     0
 72
     2
 10
72.39087922256515
 20
558.8585813435504
 40
14.59732332740243
 50
9.946809013102633
 51
22.28209173268345
 73
     0
 97
        1
330
31833A9A
 92
        0
 93
       35
 72
     1
 10
93.28338174262057
 20
553.3237586466666
 11
96.31122703542747
 21
553.3237586466666
 72
     2
 10
96.31122703542747
 20
554.250650062832
 40
0.9268914161654038
 50
270.0
 51
450.0
 73
     1
 72
     1
 10
96.31122703542747
 20
555.1775414789974
 11
93.08046895015037
 21
555.1775414789974
 72
     2
 10
93.0804689501504
 20
555.3011270011526
 40
0.1235855221551674
 50
90.00000000001973
 51
196.8043978906851
 73
     0
 72
     2
 10
92.0748502036103
 20
555.6048254281327
 40
0.9268914161652418
 50
343.1956021093465
 51
388.6809552685451
 73
     1
 72
     1
 10
92.88801736179767
 20
556.0496701990429
 11
91.89572344541444
 21
557.2988764762884
 72
     2
 10
91.16994315269925
 20
556.7223605059395
 40
0.9268914161653439
 50
38.46150445227397
 51
218.4615044522794
 73
     1
 72
     1
 10
90.44416285998408
 20
556.1458445355906
 11
90.93467386895145
 21
555.5283365358506
 72
     2
 10
90.76532513398474
 20
555.3938161427693
 40
0.2162746637717236
 50
321.5384955477232
 51
449.9999999999849
 73
     0
 72
     1
 10
90.76532513398479
 20
555.1775414789974
 11
87.96920428993962
 21
555.1775414789974
 72
     2
 10
87.96920428993962
 20
554.250650062832
 40
0.9268914161654038
 50
90.0
 51
270.0
 73
     1
 72
     1
 10
87.96920428993962
 20
553.3237586466666
 11
90.99704958274628
 21
553.3237586466666
 72
     2
 10
90.99704958274623
 20
553.1074839828947
 40
0.2162746637718556
 50
270.000000000015
 51
360.0000000000301
 73
     0
 72
     1
 10
91.21332424651814
 20
553.1074839828947
 11
91.21332424651814
 21
551.0065301062533
 72
     2
 10
90.99704958274623
 20
551.0065301062532
 40
0.2162746637719124
 50
359.9999999999698
 51
449.9999999999849
 73
     0
 72
     1
 10
90.99704958274628
 20
550.7902554424813
 11
88.12368619263372
 21
550.7902554424813
 72
     2
 10
88.12368619263372
 20
549.863364026316
 40
0.9268914161652901
 50
90.0
 51
270.0
 73
     1
 72
     1
 10
88.12368619263372
 20
548.9364726101506
 11
90.99704958274628
 21
548.9364726101506
 72
     2
 10
90.99704958274633
 20
548.7201979463788
 40
0.2162746637717419
 50
269.9999999999849
 51
360.0
 73
     0
 72
     1
 10
91.21332424651814
 20
548.7201979463788
 11
91.21332424651814
 21
546.0013164589605
 72
     2
 10
90.99704958274623
 20
546.0013164589604
 40
0.2162746637719124
 50
359.9999999999698
 51
449.9999999999849
 73
     0
 72
     1
 10
90.99704958274628
 20
545.7850417951886
 11
87.69113686509001
 21
545.7850417951886
 72
     2
 10
87.69113686509001
 20
544.8581503790233
 40
0.9268914161652901
 50
90.0
 51
270.0
 73
     1
 72
     1
 10
87.69113686509001
 20
543.9312589628581
 11
96.58929446027697
 21
543.9312589628581
 72
     2
 10
96.58929446027697
 20
544.8581503790233
 40
0.9268914161651764
 50
270.0
 51
450.0
 73
     1
 72
     1
 10
96.58929446027697
 20
545.7850417951886
 11
93.28338174262057
 21
545.7850417951886
 72
     2
 10
93.28338174262063
 20
546.0013164589604
 40
0.2162746637718556
 50
90.00000000001506
 51
180.0000000000301
 73
     0
 72
     1
 10
93.06710707884873
 20
546.0013164589605
 11
93.06710707884873
 21
548.7201979463788
 72
     2
 10
93.28338174262052
 20
548.7201979463788
 40
0.2162746637717987
 50
180.0
 51
270.000000000015
 73
     0
 72
     1
 10
93.28338174262057
 20
548.9364726101506
 11
96.15674513273326
 21
548.9364726101506
 72
     2
 10
96.15674513273326
 20
549.863364026316
 40
0.9268914161654038
 50
270.0
 51
450.0
 73
     1
 72
     1
 10
96.15674513273326
 20
550.7902554424813
 11
93.28338174262057
 21
550.7902554424813
 72
     2
 10
93.28338174262063
 20
551.0065301062532
 40
0.2162746637718556
 50
90.00000000001506
 51
180.0000000000301
 73
     0
 72
     1
 10
93.06710707884873
 20
551.0065301062533
 11
93.06710707884873
 21
553.1074839828947
 72
     2
 10
93.28338174262063
 20
553.1074839828947
 40
0.2162746637719124
 50
179.9999999999698
 51
269.9999999999849
 73
     0
 97
        1
330
31833A99
 92
        1
 93
       22
 72
     1
 10
112.0649046939591
 20
549.0086213673988
 11
116.3358620466329
 21
549.0086213673988
 72
     2
 10
116.3358620466329
 20
548.8279766455334
 40
0.1806447218654057
 50
270.000000000018
 51
360.0
 73
     0
 72
     1
 10
116.5165067684982
 20
548.8279766455334
 11
116.5165067684982
 21
544.3634713765755
 72
     2
 10
117.2906984336355
 20
544.3634713765755
 40
0.7741916651372663
 50
180.0
 51
360.0
 73
     1
 72
     1
 10
118.0648900987728
 20
544.3634713765755
 11
118.0648900987728
 21
548.8279766455334
 72
     2
 10
118.2455348206382
 20
548.8279766455334
 40
0.1806447218654057
 50
180.0
 51
270.0
 73
     0
 72
     1
 10
118.2455348206382
 20
549.0086213673988
 11
122.5164921733119
 21
549.0086213673988
 72
     2
 10
122.5164921733119
 20
549.782813032536
 40
0.7741916651372094
 50
270.0
 51
450.0
 73
     1
 72
     1
 10
122.5164921733119
 20
550.5570046976734
 11
118.2455348206382
 21
550.5570046976734
 72
     2
 10
118.2455348206381
 20
550.7376494195386
 40
0.180644721865292
 50
89.99999999998198
 51
180.0
 73
     0
 72
     1
 10
118.0648900987728
 20
550.7376494195386
 11
118.0648900987728
 21
552.9006923462928
 72
     2
 10
118.2455348206381
 20
552.9006923462928
 40
0.1806447218653631
 50
180.0
 51
263.8776721144761
 73
     0
 72
     2
 10
110.1122296183794
 20
628.7262796045759
 40
76.07989773999097
 50
276.1223278855241
 51
278.834530717579
 73
     1
 72
     2
 10
121.6777845360799
 20
554.3140003297282
 40
0.7741916651372469
 50
278.8345307175777
 51
458.8345307175777
 73
     1
 72
     2
 10
110.1122296183802
 20
628.7262796045756
 40
74.53151440971613
 50
81.16546928242145
 51
87.87571083088888
 73
     0
 72
     2
 10
112.9036123311911
 20
553.472325887958
 40
0.7741916651372261
 50
92.12428916911088
 51
272.1242891691105
 73
     1
 72
     2
 10
110.1122296183796
 20
628.7262796045784
 40
76.07989773999356
 50
272.1242891691114
 51
274.681121797401
 73
     1
 72
     2
 10
116.335862046633
 20
552.7201171177448
 40
0.1806447218652276
 50
265.3188782026022
 51
360.0000000000361
 73
     0
 72
     1
 10
116.5165067684982
 20
552.7201171177447
 11
116.5165067684982
 21
550.7376494195386
 72
     2
 10
116.3358620466329
 20
550.7376494195386
 40
0.180644721865292
 50
360.0
 51
450.0
 73
     0
 72
     1
 10
116.3358620466329
 20
550.5570046976734
 11
112.0649046939591
 21
550.5570046976734
 72
     2
 10
112.0649046939591
 20
549.782813032536
 40
0.7741916651373231
 50
90.0
 51
270.0
 73
     1
 97
        1
330
31833A98
 92
        1
 93
        8
 72
     1
 10
126.8200410248293
 20
551.8473241395687
 11
126.8200410248293
 21
544.3118585988996
 72
     2
 10
126.0974621373679
 20
544.3118585988996
 40
0.7225788874614523
 50
360.0
 51
540.0
 73
     0
 72
     1
 10
125.3748832499064
 20
544.3118585988996
 11
125.3748832499064
 21
549.0386811791736
 72
     2
 10
125.2974640833927
 20
549.0386811791736
 40
0.0774191665136783
 50
0.0
 51
137.8965511291807
 73
     1
 72
     2
 10
124.7039171401209
 20
549.5750568986993
 40
0.7225788874614567
 50
42.10344887074827
 51
216.9530344301582
 73
     0
 72
     2
 10
115.5379735701594
 20
556.4703182953103
 40
10.74734488104341
 50
323.0469655698342
 51
350.0531909868996
 73
     1
 72
     2
 10
126.8354875954508
 20
554.4890742155321
 40
0.7225788874613937
 50
189.9468090130963
 51
369.9468090130963
 73
     0
 72
     2
 10
115.5379735701587
 20
556.4703182953105
 40
12.19250265596691
 50
9.946809013100393
 51
22.28209173268121
 73
     0
 97
        1
330
31833A85
 92
        1
 93
       35
 72
     1
 10
132.9885627468322
 20
551.8473241395687
 11
135.5175888529473
 21
551.8473241395687
 72
     2
 10
135.5175888529473
 20
552.621515804706
 40
0.7741916651373231
 50
270.0
 51
450.0
 73
     1
 72
     1
 10
135.5175888529473
 20
553.3957074698434
 11
132.8190786088412
 21
553.3957074698434
 72
     2
 10
132.8190786088411
 20
553.4989330251948
 40
0.1032255553515142
 50
89.99999999998422
 51
196.8043978906503
 73
     0
 72
     2
 10
131.9791294645303
 20
553.752598974391
 40
0.7741916651371814
 50
343.195602109337
 51
388.6809552685354
 73
     1
 72
     1
 10
132.6583322549031
 20
554.1241582616087
 11
131.829512755626
 21
555.1675653651955
 72
     2
 10
131.2233003735268
 20
554.6860269117387
 40
0.7741916651372709
 50
38.46150445227566
 51
218.4615044522756
 73
     1
 72
     1
 10
130.6170879914275
 20
554.204488458282
 11
131.0267902803661
 21
553.6887111641818
 72
     2
 10
130.8853407245432
 20
553.5763521917085
 40
0.1806447218652677
 50
321.5384955476725
 51
449.9999999999639
 73
     0
 72
     1
 10
130.8853407245433
 20
553.3957074698434
 11
128.5498638667122
 21
553.3957074698434
 72
     2
 10
128.5498638667122
 20
552.621515804706
 40
0.7741916651373231
 50
90.0
 51
270.0
 73
     1
 72
     1
 10
128.5498638667122
 20
551.8473241395687
 11
131.0788899728271
 21
551.8473241395687
 72
     2
 10
131.0788899728271
 20
551.6666794177033
 40
0.1806447218654057
 50
270.0
 51
360.0
 73
     0
 72
     1
 10
131.2595346946925
 20
551.6666794177033
 11
131.2595346946925
 21
549.9118449767256
 72
     2
 10
131.0788899728271
 20
549.9118449767256
 40
0.1806447218654057
 50
360.0
 51
450.0
 73
     0
 72
     1
 10
131.0788899728271
 20
549.7312002548603
 11
128.6788958109016
 21
549.7312002548603
 72
     2
 10
128.6788958109016
 20
548.957008589723
 40
0.7741916651372094
 50
90.0
 51
270.0
 73
     1
 72
     1
 10
128.6788958109016
 20
548.1828169245857
 11
131.0788899728271
 21
548.1828169245857
 72
     2
 10
131.0788899728271
 20
548.0021722027204
 40
0.180644721865292
 50
269.9999999999819
 51
360.0
 73
     0
 72
     1
 10
131.2595346946925
 20
548.0021722027204
 11
131.2595346946925
 21
545.7312099849844
 72
     2
 10
131.0788899728271
 20
545.7312099849844
 40
0.1806447218654057
 50
360.0
 51
450.0
 73
     0
 72
     1
 10
131.0788899728271
 20
545.5505652631191
 11
128.317606367171
 21
545.5505652631191
 72
     2
 10
128.317606367171
 20
544.7763735979818
 40
0.7741916651372094
 50
90.0
 51
270.0
 73
     1
 72
     1
 10
128.317606367171
 20
544.0021819328446
 11
135.7498463524884
 21
544.0021819328446
 72
     2
 10
135.7498463524884
 20
544.7763735979818
 40
0.7741916651372094
 50
270.0
 51
450.0
 73
     1
 72
     1
 10
135.7498463524884
 20
545.5505652631191
 11
132.9885627468322
 21
545.5505652631191
 72
     2
 10
132.9885627468323
 20
545.7312099849843
 40
0.180644721865292
 50
90.00000000001803
 51
180.000000000036
 73
     0
 72
     1
 10
132.8079180249669
 20
545.7312099849844
 11
132.8079180249669
 21
548.0021722027204
 72
     2
 10
132.9885627468322
 20
548.0021722027204
 40
0.180644721865292
 50
180.0
 51
270.0
 73
     0
 72
     1
 10
132.9885627468322
 20
548.1828169245857
 11
135.3885569087578
 21
548.1828169245857
 72
     2
 10
135.3885569087578
 20
548.957008589723
 40
0.7741916651373231
 50
270.0
 51
450.0
 73
     1
 72
     1
 10
135.3885569087578
 20
549.7312002548603
 11
132.9885627468322
 21
549.7312002548603
 72
     2
 10
132.9885627468323
 20
549.9118449767256
 40
0.1806447218654057
 50
90.00000000001803
 51
180.0
 73
     0
 72
     1
 10
132.8079180249669
 20
549.9118449767256
 11
132.8079180249669
 21
551.6666794177033
 72
     2
 10
132.9885627468323
 20
551.6666794177033
 40
0.1806447218653488
 50
180.0
 51
269.9999999999819
 73
     0
 97
        1
330
31833A86
 92
        1
 93
       15
 72
     1
 10
156.7300563099566
 20
553.1209662735339
 11
148.3734077073224
 21
553.0417563341726
 72
     2
 10
148.3660697273342
 20
553.8159132229345
 40
0.7741916651371596
 50
89.45692830627519
 51
269.4569283062751
 73
     0
 72
     1
 10
148.3587317473459
 20
554.5900701116964
 11
157.2386815029912
 21
554.6742402515604
 72
     2
 10
158.4821633052257
 20
555.0187359259086
 40
1.290319441895348
 50
164.5150768139665
 51
446.7188024496401
 73
     0
 72
     2
 10
157.527337764789
 20
553.644674405772
 40
1.032255553518832
 50
355.2289392455997
 51
360.0000000000252
 73
     0
 72
     1
 10
158.5595933183078
 20
553.6446744057716
 11
158.5595933183078
 21
553.1383078565514
 72
     2
 10
142.9033847507712
 20
553.9125342996258
 40
15.67534029280902
 50
2.831068584469339
 51
18.13257172327503
 73
     0
 72
     2
 10
156.3287823883096
 20
549.5159889176879
 40
1.548383330268938
 50
18.13257172329075
 51
25.77377377814393
 73
     0
 72
     2
 10
149.9861703997243
 20
552.5785464494817
 40
8.591676982623184
 50
25.7737737781569
 51
46.961303323272
 73
     0
 72
     2
 10
148.5281520990767
 20
554.7670137826083
 40
11.19448153122146
 50
49.15221128013691
 51
82.35478209661343
 73
     0
 72
     2
 10
149.9144530576085
 20
544.4393513875843
 40
0.7741916651372365
 50
82.35478209661145
 51
262.3547820966114
 73
     0
 72
     2
 10
148.5281520990766
 20
554.7670137826083
 40
9.646098200947015
 50
277.6452179033867
 51
310.669727826386
 73
     1
 72
     2
 10
149.9861703997244
 20
552.5785464494817
 40
7.043293652348564
 50
313.2765557096139
 51
334.2262262218363
 73
     1
 72
     2
 10
142.9033847507741
 20
553.9125342996251
 40
14.12695696253155
 50
341.8674282767269
 51
355.6596123200714
 73
     1
 72
     2
 10
156.732502303286
 20
552.86291397728
 40
0.2580638883791418
 50
355.6596123200546
 51
450.5430716937162
 73
     1
 97
        1
330
31833A96
 92
        1
 93
        4
 72
     2
 10
161.2326724039468
 20
554.6860269117387
 40
0.7741916651372094
 50
180.0
 51
360.0
 73
     0
 72
     1
 10
162.006864069084
 20
554.6860269117387
 11
162.006864069084
 21
549.0086213673988
 72
     2
 10
161.2326724039468
 20
549.0086213673988
 40
0.7741916651372094
 50
360.0
 51
540.0
 73
     0
 72
     1
 10
160.4584807388096
 20
549.0086213673988
 11
160.4584807388096
 21
554.6860269117387
 97
        1
330
31833A95
 92
        1
 93
        8
 72
     1
 10
170.6261979409455
 20
554.6860269117387
 11
170.6261979409455
 21
549.3515074875847
 72
     2
 10
165.2909495145924
 20
549.7881184080575
 40
5.353083678290421
 50
4.67838429357078
 51
60.61116887564995
 73
     0
 72
     2
 10
162.7073975300917
 20
553.1909582293653
 40
9.603449162566935
 50
57.14160545648081
 51
86.1698445278381
 73
     0
 72
     2
 10
163.2971835109795
 20
544.3814213259481
 40
0.7741916651370817
 50
86.16984452783491
 51
266.1698445278354
 73
     0
 72
     2
 10
162.7073975300909
 20
553.1909582293653
 40
8.055065832292607
 50
273.8301554721674
 51
303.2058183250351
 73
     1
 72
     2
 10
165.2909495145924
 20
549.7881184080576
 40
3.804700348015795
 50
298.7117396778155
 51
354.4500787022754
 73
     1
 72
     1
 10
169.0778146106709
 20
549.4201544393134
 11
169.0778146106709
 21
554.6860269117387
 72
     2
 10
169.8520062758082
 20
554.6860269117387
 40
0.7741916651372663
 50
180.0
 51
360.0
 73
     0
 97
        1
330
31833A94
 92
        1
 93
        4
 72
     2
 10
159.0421168954584
 20
521.3878595296518
 40
36.04571933727476
 50
292.2793779041677
 51
297.6775903109914
 73
     0
 72
     2
 10
175.4255902722586
 20
552.6234556411083
 40
0.7741916651373099
 50
297.6775903109867
 51
477.6775903109907
 73
     0
 72
     2
 10
159.042116895456
 20
521.3878595296514
 40
34.49733600700175
 50
62.32240968900521
 51
67.72062209582897
 73
     1
 72
     2
 10
172.4143688757374
 20
554.0262348155372
 40
0.7741916651371145
 50
112.2793779041712
 51
292.2793779041681
 73
     0
 97
        1
330
31833A93
 92
        1
 93
        4
 72
     2
 10
171.9089208298866
 20
544.9110115441953
 40
0.77419166513732
 50
85.68345463735786
 51
265.6834546373578
 73
     0
 72
     2
 10
171.1057021563039
 20
555.5523773601603
 40
9.897444885400824
 50
274.3165453626418
 51
345.476834384037
 73
     1
 72
     2
 10
181.4363407385521
 20
552.8762358934693
 40
0.7741916651372048
 50
194.5231656159611
 51
374.5231656159611
 73
     0
 72
     2
 10
171.1057021563037
 20
555.5523773601602
 40
11.44582821567538
 50
14.52316561596187
 51
85.68345463735708
 73
     0
 97
        1
330
31833A92
 92
        1
 93
       14
 72
     2
 10
183.2658290843624
 20
554.1388818532611
 40
9.166767024637479
 50
44.43529403939628
 51
79.12073388346765
 73
     0
 72
     2
 10
185.1420864701209
 20
544.376591246329
 40
0.7741916651372553
 50
100.8792661165293
 51
280.8792661165293
 73
     1
 72
     2
 10
183.2658290843621
 20
554.1388818532615
 40
10.71515035491237
 50
280.8792661165333
 51
315.6092198911109
 73
     1
 72
     2
 10
183.1479943606537
 20
554.115386456278
 40
10.78337363134779
 50
316.1364203100118
 51
355.6521717581445
 73
     1
 72
     2
 10
192.613729408729
 20
553.3957074698433
 40
1.290319441895472
 50
355.6521717581441
 51
449.9999999999974
 73
     1
 72
     1
 10
192.6137294087291
 20
554.6860269117387
 11
186.8622768971345
 21
554.6860269117387
 72
     2
 10
186.8622768971347
 20
553.6537713582224
 40
1.032255553516279
 50
90.00000000001262
 51
152.8690468028237
 73
     1
 72
     2
 10
180.9123135617794
 20
556.7025786541936
 40
5.653347607010026
 50
27.13095319719201
 51
62.78558091782568
 73
     0
 72
     2
 10
183.8517670282254
 20
550.9865595487676
 40
0.7741916651372789
 50
117.2144190821773
 51
297.2144190821773
 73
     1
 72
     2
 10
180.9123135617793
 20
556.7025786541933
 40
7.201730937284436
 50
297.2144190821765
 51
328.0768204089637
 73
     1
 72
     2
 10
187.4629065997002
 20
552.6215158047059
 40
0.5161277767582315
 50
211.9231795910231
 51
269.9999999999842
 73
     0
 72
     1
 10
187.4629065997
 20
553.1376435814642
 11
191.7379253379244
 21
553.1376435814642
 72
     2
 10
191.7379253379244
 20
552.6215158047059
 40
0.5161277767582533
 50
270.0000000000031
 51
369.865610202545
 73
     0
 72
     2
 10
183.1479943606533
 20
554.1153864562777
 40
9.234990301073453
 50
9.865610202551657
 51
43.81937100197855
 73
     0
 97
        1
330
31833A91
 92
        1
 93
       11
 72
     2
 10
199.5807948499504
 20
550.7789566755993
 40
6.512784616994932
 50
1.952985583143863
 51
70.98548319695886
 73
     0
 72
     2
 10
196.9918712868751
 20
558.564023343471
 40
14.71682634675852
 50
71.3310978399981
 51
88.66945227344725
 73
     0
 72
     2
 10
197.3156241650231
 20
544.6251479964769
 40
0.7741916651372182
 50
88.66945227343945
 51
268.6694522734396
 73
     0
 72
     2
 10
196.9918712868755
 20
558.5640233434717
 40
13.16844301648464
 50
271.3305477265499
 51
288.6477690067387
 73
     1
 72
     2
 10
199.5807948499504
 20
550.7789566755993
 40
4.9644012867204
 50
289.0662562538117
 51
350.3404504136948
 73
     1
 72
     2
 10
204.2204066237264
 20
549.9892641432393
 40
0.2580638883791041
 50
350.3404504136951
 51
450.0000000000126
 73
     1
 72
     1
 10
204.2204066237263
 20
550.2473280316183
 11
195.5091769463695
 21
550.2473280316183
 72
     2
 10
195.5091769463695
 20
551.0215196967556
 40
0.7741916651372094
 50
90.0
 51
270.0
 73
     0
 72
     1
 10
195.5091769463695
 20
551.7957113618929
 11
205.0575408163955
 21
551.7957113618929
 72
     2
 10
205.0575408163956
 20
550.7634558083766
 40
1.032255553516279
 50
269.9999999999968
 51
360.0
 73
     0
 72
     1
 10
206.0897963699119
 20
550.7634558083766
 11
206.0897963699119
 21
550.5570046976734
 97
        1
330
31833A90
 92
        1
 93
        4
 72
     1
 10
204.2833491512584
 20
554.7892524670902
 11
196.541432499886
 21
554.7892524670902
 72
     2
 10
196.541432499886
 20
554.015060801953
 40
0.7741916651372094
 50
90.0
 51
270.0
 73
     1
 72
     1
 10
196.541432499886
 20
553.2408691368157
 11
204.2833491512584
 21
553.2408691368157
 72
     2
 10
204.2833491512584
 20
554.015060801953
 40
0.7741916651373231
 50
270.0
 51
450.0
 73
     1
 97
        1
330
31833A8F
 92
        1
 93
        4
 72
     2
 10
207.7663577833536
 20
549.524749144157
 40
0.7741916651372094
 50
90.0
 51
270.0
 73
     1
 72
     1
 10
207.7663577833536
 20
548.7505574790198
 11
218.0889133185169
 21
548.7505574790198
 72
     2
 10
218.0889133185169
 20
549.524749144157
 40
0.7741916651373231
 50
270.0
 51
450.0
 73
     1
 72
     1
 10
218.0889133185169
 20
550.2989408092942
 11
207.7663577833536
 21
550.2989408092942
 97
        1
330
31833A8E
 92
        1
 93
       53
 72
     1
 10
230.5552534039792
 20
549.7312002548603
 11
228.1552592420537
 21
549.7312002548603
 72
     2
 10
244.3697296393119
 20
558.4822433901639
 40
18.42524914945548
 50
208.355992291411
 51
225.3643482129412
 73
     1
 72
     2
 10
230.91654284771
 20
544.8568595907398
 40
0.7225788874614488
 50
314.6356517870549
 51
494.6356517870549
 73
     0
 72
     2
 10
244.3697296393126
 20
558.4822433901642
 40
19.87040692437911
 50
134.6356517870592
 51
144.6874491376694
 73
     0
 72
     1
 10
228.1552592420537
 20
546.9964251312492
 11
228.1552592420537
 21
544.3118585988996
 72
     2
 10
227.4326803545923
 20
544.3118585988996
 40
0.7225788874613955
 50
360.0
 51
540.0
 73
     0
 72
     1
 10
226.7101014671309
 20
544.3118585988996
 11
226.7101014671309
 21
546.9964251312492
 72
     2
 10
210.4956310698729
 20
558.4822433901646
 40
19.87040692437855
 50
35.31255086233294
 51
45.48745038578256
 73
     0
 72
     2
 10
223.9195121745737
 20
544.8279863756576
 40
0.7225788874612932
 50
45.48745038577972
 51
225.4874503857797
 73
     0
 72
     2
 10
210.4956310698723
 20
558.4822433901636
 40
18.42524914945565
 50
314.5125496142207
 51
331.6440077085904
 73
     1
 72
     1
 10
226.7101014671309
 20
549.7312002548603
 11
224.6713967489361
 21
549.7312002548603
 72
     2
 10
224.6713967489361
 20
550.4537791423217
 40
0.7225788874615092
 50
90.0
 51
270.0
 73
     0
 72
     1
 10
224.6713967489361
 20
551.1763580297831
 11
226.7101014671309
 21
551.1763580297831
 72
     1
 10
226.7101014671309
 20
551.1763580297831
 11
226.7101014671309
 21
552.311839138651
 72
     1
 10
226.7101014671309
 20
552.311839138651
 11
225.1617181368565
 21
552.3118391386512
 72
     2
 10
216.9398026531013
 20
556.0629820875878
 40
9.037199104001761
 50
24.52423153182499
 51
28.01954061966569
 73
     0
 72
     2
 10
224.2798448580375
 20
552.1570008056237
 40
0.7225788874615104
 50
28.01954061967087
 51
166.4795610696779
 73
     0
 72
     2
 10
223.1488198074996
 20
552.5699030270297
 40
0.7225788874610606
 50
53.63158366668915
 51
89.99999999999323
 73
     0
 72
     1
 10
223.1488198074997
 20
551.8473241395687
 11
222.7004425281293
 21
551.8473241395687
 72
     2
 10
222.700442528129
 20
551.7699049730551
 40
0.0774191665135504
 50
89.99999999976862
 51
204.2440804458701
 73
     1
 72
     2
 10
240.0952422134299
 20
559.6035291409813
 40
19.15475450707042
 50
204.2440804465094
 51
213.9853002248274
 73
     1
 72
     2
 10
223.6133348032895
 20
548.4924935906408
 40
0.7225788874614453
 50
326.0146997751807
 51
506.0146997751734
 73
     0
 72
     2
 10
240.095242213428
 20
559.6035291409787
 40
20.59991228199036
 50
146.0146997751759
 51
147.48793074679
 73
     0
 72
     2
 10
222.6584984195794
 20
548.4899337866852
 40
0.0774191665136416
 50
32.51206925315226
 51
180.0
 73
     1
 72
     1
 10
222.5810792530657
 20
548.4899337866852
 11
222.5810792530657
 21
544.3118585988996
 72
     2
 10
221.8585003656042
 20
544.3118585988996
 40
0.7225788874614523
 50
360.0
 51
540.0
 73
     0
 72
     1
 10
221.1359214781428
 20
544.3118585988996
 11
221.1359214781428
 21
547.5151181400255
 72
     2
 10
221.0585023116291
 20
547.5151181400256
 40
0.0774191665136925
 50
359.9999999999158
 51
516.2910909798279
 73
     1
 72
     2
 10
217.8054277861949
 20
548.7984173145293
 40
3.419686994316586
 50
21.47929642627076
 51
33.16667395485765
 73
     0
 72
     2
 10
220.0520531469506
 20
547.3054018303871
 40
0.7225788874614373
 50
31.5249479350467
 51
215.8918837167066
 73
     0
 72
     2
 10
207.9121883938905
 20
554.8097735499418
 40
13.55150261751691
 50
328.4994362659303
 51
346.9613336964125
 73
     1
 72
     2
 10
221.0388834798538
 20
551.7699049730549
 40
0.0774191665137398
 50
346.9613336964254
 51
449.9999999999789
 73
     1
 72
     1
 10
221.0388834798539
 20
551.8473241395687
 11
220.206891479978
 21
551.8473241395687
 72
     2
 10
220.206891479978
 20
552.5699030270302
 40
0.7225788874615092
 50
90.0
 51
270.0
 73
     0
 72
     1
 10
220.206891479978
 20
553.2924819144916
 11
221.1359214781428
 21
553.2924819144916
 72
     1
 10
221.1359214781428
 20
553.2924819144916
 11
221.1359214781428
 21
554.7376396894143
 72
     2
 10
221.8585003656042
 20
554.7376396894143
 40
0.7225788874614523
 50
180.0
 51
360.0
 73
     0
 72
     1
 10
222.5810792530657
 20
554.7376396894143
 11
222.5810792530657
 21
553.2924819144916
 72
     1
 10
222.5810792530657
 20
553.2924819144916
 11
223.1488198074997
 21
553.2924819144916
 72
     2
 10
223.1488198074996
 20
552.5699030270304
 40
0.7225788874611681
 50
270.0000000000089
 51
337.5375207416591
 73
     0
 72
     2
 10
216.9398026530974
 20
556.062982087591
 40
7.5920413290837
 50
334.9295166386165
 51
349.0217472925315
 73
     1
 72
     2
 10
225.1022614662906
 20
554.4795758010353
 40
0.722578887461361
 50
190.978252707464
 51
370.978252707464
 73
     0
 72
     2
 10
216.9398026530994
 20
556.0629820875901
 40
9.037199104004258
 50
10.97825270746455
 51
14.78341658427778
 73
     0
 72
     1
 10
225.6778459136145
 20
553.756996913574
 11
226.7101014671309
 21
553.756996913574
 72
     1
 10
226.7101014671309
 20
553.756996913574
 11
226.7101014671309
 21
554.7376396894143
 72
     2
 10
227.4326803545923
 20
554.7376396894143
 40
0.7225788874613955
 50
180.0
 51
360.0
 73
     0
 72
     1
 10
228.1552592420537
 20
554.7376396894143
 11
228.1552592420537
 21
553.756996913574
 72
     1
 10
228.1552592420537
 20
553.756996913574
 11
230.4004150709516
 21
553.756996913574
 72
     2
 10
230.4004150709516
 20
553.0344180261124
 40
0.7225788874615092
 50
270.0
 51
450.0
 73
     0
 72
     1
 10
230.4004150709516
 20
552.311839138651
 11
228.1552592420537
 21
552.311839138651
 72
     1
 10
228.1552592420537
 20
552.311839138651
 11
228.1552592420537
 21
551.1763580297831
 72
     1
 10
228.1552592420537
 20
551.1763580297831
 11
230.5552534039792
 21
551.1763580297831
 72
     2
 10
230.5552534039792
 20
550.4537791423217
 40
0.7225788874613955
 50
270.0
 51
450.0
 73
     0
 97
        1
330
31833A8D
 92
       17
 93
       18
 72
     1
 10
233.311047108592
 20
544.1934350214483
 11
238.2380119796175
 21
545.1939702970759
 72
     2
 10
237.9128673272443
 20
545.8937306352411
 40
0.7716110262535248
 50
294.9220052137705
 51
464.7637627083331
 73
     1
 72
     1
 10
237.7162344257283
 20
546.6398667340041
 11
237.1302849173341
 21
546.485448589421
 72
     2
 10
237.0042381855931
 20
546.963740960423
 40
0.4946224527266198
 50
75.23623729167391
 51
180.0
 73
     0
 72
     1
 10
236.5096157328665
 20
546.963740960423
 11
236.5096157328664
 21
549.1158511867827
 72
     2
 10
237.004238185593
 20
549.1158511867827
 40
0.4946224527266168
 50
180.0
 51
269.2527061231796
 73
     0
 72
     1
 10
236.9977871371262
 20
549.6104315692433
 11
237.7318786894461
 21
549.6200066764474
 72
     2
 10
237.7224545490771
 20
550.3425241047377
 40
0.7225788874613811
 50
270.7472938768251
 51
450.7472938768249
 73
     1
 72
     1
 10
237.7130304087081
 20
551.0650415330282
 11
233.1181338633099
 21
551.0051080998273
 72
     2
 10
233.1278104360102
 20
550.2632375261364
 40
0.7419336790897779
 50
90.74729387682262
 51
252.1576573741646
 73
     1
 72
     1
 10
232.9004828007573
 20
549.5569884692039
 11
234.4601589013985
 21
549.5773320705165
 72
     2
 10
234.4666099498654
 20
549.0827516880558
 40
0.494622452726557
 50
269.252706123173
 51
360.0
 73
     0
 72
     1
 10
234.961232402592
 20
549.0827516880558
 11
234.961232402592
 21
546.4287837618289
 72
     2
 10
234.4666099498654
 20
546.4287837618289
 40
0.49462245272656
 50
359.9999999999868
 51
441.4726877161699
 73
     0
 72
     1
 10
234.5399529863864
 20
545.9396292159692
 11
233.0430726462012
 21
545.7151894138927
 72
     2
 10
233.1574877831737
 20
544.9521083223518
 40
0.7716110262533399
 50
98.52731228381886
 51
180.0
 73
     1
 72
     1
 10
232.3858767569204
 20
544.9521083223518
 11
232.3858767569204
 21
544.9496116604771
 72
     2
 10
233.1574877831738
 20
544.9496116604771
 40
0.7716110262534244
 50
179.9999999999915
 51
281.4791494176426
 73
     1
 97
        1
330
31833A8B
 92
        1
 93
       35
 72
     2
 10
241.6728481698232
 20
553.8265926493888
 40
0.0516127776757643
 50
270.7472938768348
 51
425.3037560024905
 73
     1
 72
     2
 10
243.6740537363652
 20
558.1782770203285
 40
4.738165983795252
 50
114.6962439975611
 51
124.7447906906953
 73
     0
 72
     2
 10
241.3413591900611
 20
554.8150588559281
 40
0.6451597209477212
 50
124.7447906906983
 51
304.7447906906983
 73
     0
 72
     2
 10
243.6740537363656
 20
558.1782770203292
 40
3.447846541900621
 50
235.2552093093064
 51
254.4100633419989
 73
     1
 72
     2
 10
242.5740556506038
 20
554.2358533395161
 40
0.6451597209476336
 50
285.5899366580129
 51
394.0341302999864
 73
     0
 72
     2
 10
243.1514740316924
 20
553.845879073674
 40
0.0516127776759379
 50
145.9658696999548
 51
270.7472938768016
 73
     1
 72
     1
 10
243.1521471845759
 20
553.7942706859389
 11
243.3123436336507
 21
553.7963602048399
 72
     2
 10
243.3224409269031
 20
553.0222343888147
 40
0.7741916651371446
 50
269.2527061231784
 51
449.2527061231785
 73
     0
 72
     1
 10
243.3325382201555
 20
552.2481085727893
 11
240.6770157130813
 21
552.2134713226969
 72
     2
 10
240.6803814774988
 20
551.9554293840218
 40
0.2580638883790482
 50
90.74729387682156
 51
186.8667955861607
 73
     1
 72
     2
 10
274.3642529620576
 20
556.0118205506366
 40
34.18530231836129
 50
186.8667955861627
 51
193.2804591616723
 73
     1
 72
     2
 10
250.5740361903547
 20
551.5892602511899
 40
10.08239894343
 50
199.8913601546187
 51
213.7795305643051
 73
     1
 72
     2
 10
242.3224150121388
 20
546.0695494250292
 40
0.1548383330274437
 50
213.7795305642779
 51
347.3542134402989
 73
     1
 72
     2
 10
230.9108338151931
 20
548.6299166778889
 40
11.85012224937602
 50
347.3542134403437
 51
354.3353366174936
 73
     1
 72
     2
 10
243.4772792599305
 20
547.4602380371243
 40
0.7741916651372094
 50
180.0
 51
360.0
 73
     0
 72
     1
 10
244.2514709250677
 20
547.4602380371243
 11
244.2514709250677
 21
546.8717537862885
 72
     2
 10
235.0067636617688
 20
547.7702698465476
 40
9.28826913340881
 50
5.551283092637619
 51
16.23808352675581
 73
     0
 72
     2
 10
241.1254353450591
 20
546.0303445259248
 40
2.927428527346556
 50
17.02967716515854
 51
20.89995805450743
 73
     0
 72
     2
 10
241.6581710698659
 20
545.7328227665526
 40
2.325269153935785
 50
18.73355423004383
 51
44.47925821960636
 73
     0
 72
     2
 10
242.6956044888292
 20
544.6349654241453
 40
0.8177916701766655
 50
40.52134616043247
 51
107.8431040350127
 73
     0
 72
     2
 10
243.1998420416007
 20
547.0871289953453
 40
3.317626910586343
 50
103.1509632605596
 51
120.7464615745546
 73
     0
 72
     2
 10
242.2953339348649
 20
545.5665738561533
 40
1.548383330274757
 50
120.7464615745492
 51
147.7173278579025
 73
     0
 72
     2
 10
251.5395843493686
 20
551.4066341118804
 40
12.48284580067428
 50
147.7173278579104
 51
161.9763825330148
 73
     0
 72
     2
 10
250.5740361903619
 20
551.5892602511907
 40
11.63078227371145
 50
159.6485284184458
 51
160.5599651718295
 73
     0
 72
     2
 10
274.3642529620576
 20
556.0118205506376
 40
35.73368564863595
 50
166.5797056495733
 51
173.4854501599817
 73
     0
 72
     2
 10
238.6048993976884
 20
551.928357878633
 40
0.2580638883790454
 50
6.514549840044457
 51
90.74729387685309
 73
     1
 72
     1
 10
238.6015336332708
 20
552.1863998173081
 11
233.1648210180197
 21
552.1154861745004
 72
     2
 10
233.1547237247672
 20
552.8896119905258
 40
0.7741916651372591
 50
89.25270612317435
 51
269.2527061231743
 73
     0
 72
     1
 10
233.1446264315147
 20
553.6637378065512
 11
238.4286320802689
 21
553.732659619361
 72
     2
 10
238.4252663158513
 20
553.9907015580361
 40
0.2580638883790489
 50
270.7472938768341
 51
364.2803464377843
 73
     1
 72
     1
 10
238.6826104108883
 20
554.009962586952
 11
238.636334887052
 21
554.6282438249911
 72
     2
 10
239.4083671721631
 20
554.6860269117387
 40
0.7741916651372172
 50
175.7196535622327
 51
355.7196535622243
 73
     0
 72
     1
 10
240.1803994572742
 20
554.7438099984864
 11
240.2361886465605
 21
553.9984179172821
 72
     2
 10
240.4935327415974
 20
554.017678946198
 40
0.2580638883789175
 50
184.2803464377866
 51
270.7472938768408
 73
     1
 72
     1
 10
240.496898506015
 20
553.7596370075231
 11
241.6735213227067
 21
553.7749842616539
 97
        1
330
31833A8C
 92
        1
 93
       22
 72
     2
 10
255.9432617764958
 20
544.3634713765752
 40
0.7741916651372649
 50
324.2455986461042
 51
504.2455986461109
 73
     0
 72
     2
 10
246.6155594022995
 20
537.6473985839377
 40
10.71979221068199
 50
35.75440135389882
 51
40.77907381779791
 73
     1
 72
     2
 10
254.6156980364222
 20
544.5478356912363
 40
0.1548383330275919
 50
40.77907381775616
 51
93.69138598641098
 73
     1
 72
     1
 10
254.6057291918206
 20
544.702352782563
 11
246.4456861882808
 21
544.1758983952378
 72
     2
 10
246.3958419652723
 20
544.9484838518706
 40
0.7741916651372503
 50
86.30861401354952
 51
266.3086140135495
 73
     0
 72
     1
 10
246.3459977422637
 20
545.7210693085036
 11
247.3323322816673
 21
545.7847037949167
 72
     2
 10
247.3223634370656
 20
545.9392208862432
 40
0.1548383330273849
 50
273.6913859864688
 51
337.2702679200689
 73
     1
 72
     1
 10
247.4651766705476
 20
545.8793937208656
 11
248.3704256337839
 21
548.0403106008489
 72
     2
 10
248.2276124003019
 20
548.1001377662265
 40
0.1548383330274336
 50
337.270267920077
 51
450.000000000021
 73
     1
 72
     1
 10
248.2276124003018
 20
548.2549760992538
 11
245.879714188514
 21
548.2549760992538
 72
     2
 10
245.879714188514
 20
549.029167764391
 40
0.7741916651372094
 50
90.0
 51
270.0
 73
     0
 72
     1
 10
245.879714188514
 20
549.8033594295283
 11
255.6861419469191
 21
549.8033594295283
 72
     2
 10
255.6861419469191
 20
549.029167764391
 40
0.7741916651372094
 50
270.0
 51
450.0
 73
     0
 72
     1
 10
255.6861419469191
 20
548.2549760992538
 11
250.2245643108669
 21
548.2549760992538
 72
     2
 10
250.224564310867
 20
548.1001377662265
 40
0.1548383330274419
 50
90.00000000002101
 51
158.9993499433518
 73
     1
 72
     1
 10
250.0800109034492
 20
548.1556285021973
 11
249.3031204954909
 21
546.1318284264621
 72
     2
 10
249.4476739029089
 20
546.0763376904913
 40
0.1548383330275591
 50
158.9993499433744
 51
273.6913859864634
 73
     1
 72
     1
 10
249.4576427475107
 20
545.9218205991645
 11
252.9936857340358
 21
546.1499524047469
 72
     2
 10
252.9903627858352
 20
546.2014581018557
 40
0.0516127776757944
 50
273.6913859864583
 51
413.305150447703
 73
     1
 72
     2
 10
246.6155594022931
 20
537.647398583942
 40
10.71979221068265
 50
53.30515044767741
 51
53.98205344655686
 73
     1
 72
     2
 10
253.3744659220673
 20
546.9441102603662
 40
0.7741916651372138
 50
126.0179465534102
 51
306.0179465534103
 73
     0
 72
     2
 10
246.6155594022992
 20
537.6473985839388
 40
12.26817554095611
 50
306.0179465534075
 51
324.2455986461073
 73
     0
 97
        1
330
31833A89
 92
        1
 93
       12
 72
     2
 10
237.3940736743059
 20
571.1213395037828
 40
20.42447937900951
 50
292.8374195160417
 51
309.1951240259334
 73
     1
 72
     2
 10
250.7829280677166
 20
554.6860269117387
 40
0.7741916651372327
 50
231.5580096528812
 51
308.4419903471187
 73
     0
 72
     2
 10
264.1717824611272
 20
571.1213395037843
 40
20.42447937901046
 50
230.8048759740694
 51
247.1625804839609
 73
     1
 72
     2
 10
255.9442058352984
 20
551.5844350175534
 40
0.7741916651373049
 50
292.8374195160369
 51
465.4499948569647
 73
     0
 72
     2
 10
264.4626359781191
 20
570.8921751860096
 40
21.86963715393388
 50
113.5119284300984
 51
117.569091626212
 73
     0
 72
     2
 10
254.3170890613006
 20
551.4600091635939
 40
0.051612777675782
 50
62.43090837380954
 51
176.7670415228819
 73
     1
 72
     2
 10
253.4925988956971
 20
551.5065810928303
 40
0.7741916651372117
 50
3.232958477212097
 51
90.0000000000063
 73
     0
 72
     1
 10
253.492598895697
 20
550.7323894276931
 11
248.0732572397363
 21
550.7323894276931
 72
     2
 10
248.0732572397362
 20
551.5065810928303
 40
0.7741916651372094
 50
89.99999999999369
 51
176.7670415227879
 73
     0
 72
     2
 10
247.2487670741327
 20
551.4600091635939
 40
0.0516127776757792
 50
3.232958477121591
 51
117.5690916261345
 73
     1
 72
     2
 10
237.1032201573144
 20
570.8921751860095
 40
21.86963715393361
 50
62.43090837378796
 51
66.48807156990162
 73
     0
 72
     2
 10
245.6216503001351
 20
551.5844350175534
 40
0.7741916651371624
 50
74.55000514304342
 51
247.1625804839598
 73
     0
 97
        1
330
31833A8A
 92
       16
 93
        6
 72
     1
 10
250.7507196979724
 20
553.8033839609861
 11
248.7408913994204
 21
552.376083878572
 72
     1
 10
248.7408913994204
 20
552.376083878572
 11
248.7683565344959
 21
552.2807727579674
 72
     1
 10
248.7683565344959
 20
552.2807727579674
 11
252.7974996009376
 21
552.2807727579674
 72
     1
 10
252.7974996009376
 20
552.2807727579674
 11
252.8249647360128
 21
552.376083878572
 72
     1
 10
252.8249647360128
 20
552.376083878572
 11
250.8151364374607
 21
553.8033839609861
 72
     1
 10
250.8151364374607
 20
553.8033839609861
 11
250.7507196979724
 21
553.8033839609861
 97
        1
330
31833A88
 92
        1
 93
       46
 72
     2
 10
260.4111518709144
 20
554.6860269117387
 40
0.7741916651371526
 50
180.0
 51
360.0
 73
     0
 72
     1
 10
261.1853435360516
 20
554.6860269117387
 11
261.1853435360516
 21
553.4731266363569
 72
     2
 10
261.3401818690791
 20
553.4731266363571
 40
0.1548383330275556
 50
180.000000000042
 51
270.000000000042
 73
     1
 72
     1
 10
261.3401818690793
 20
553.3182883033295
 11
262.7124747481662
 21
553.3182883033295
 72
     2
 10
262.7124747481662
 20
552.8021605265713
 40
0.5161277767581396
 50
270.0
 51
359.6204581346191
 73
     0
 72
     2
 10
263.812408168279
 20
552.2971205341646
 40
0.7741916651372299
 50
221.0533172235576
 51
270.0
 73
     0
 72
     1
 10
263.812408168279
 20
553.0713121993019
 11
264.8756571398727
 21
553.0713121993019
 72
     2
 10
264.8756571398727
 20
553.2261505323293
 40
0.1548383330274419
 50
270.0
 51
360.0
 73
     1
 72
     1
 10
265.0304954729001
 20
553.2261505323293
 11
265.0304954729001
 21
554.6860269117387
 72
     2
 10
265.8046871380373
 20
554.6860269117387
 40
0.7741916651371526
 50
180.0
 51
360.0
 73
     0
 72
     1
 10
266.5788788031744
 20
554.6860269117387
 11
266.5788788031744
 21
553.2261505323293
 72
     2
 10
266.7337171362019
 20
553.2261505323293
 40
0.1548383330274419
 50
180.0
 51
270.0
 73
     1
 72
     1
 10
266.7337171362019
 20
553.0713121993019
 11
268.2821004664764
 21
553.0713121993019
 72
     2
 10
268.2821004664764
 20
552.2971205341646
 40
0.7741916651372094
 50
270.0
 51
450.0
 73
     0
 72
     1
 10
268.2821004664764
 20
551.5229288690274
 11
266.7337171362019
 21
551.5229288690274
 72
     2
 10
266.7337171362019
 20
551.3680905359999
 40
0.1548383330275556
 50
90.00000000002101
 51
180.0
 73
     1
 72
     1
 10
266.5788788031744
 20
551.3680905359999
 11
266.5788788031744
 21
545.7054035961466
 72
     2
 10
266.7337171362019
 20
545.7054035961466
 40
0.1548383330274987
 50
180.0
 51
269.9999999999789
 73
     1
 72
     1
 10
266.7337171362019
 20
545.5505652631191
 11
268.5401643548555
 21
545.5505652631191
 72
     2
 10
268.5401643548555
 20
544.7763735979818
 40
0.7741916651372094
 50
270.0
 51
450.0
 73
     0
 72
     1
 10
268.5401643548555
 20
544.0021819328446
 11
262.7079204774882
 21
544.0021819328446
 72
     2
 10
262.7079204774882
 20
544.7763735979818
 40
0.7741916651372094
 50
90.0
 51
270.0
 73
     0
 72
     1
 10
262.7079204774882
 20
545.5505652631191
 11
264.8756571398727
 21
545.5505652631191
 72
     2
 10
264.8756571398726
 20
545.7054035961466
 40
0.1548383330275556
 50
270.000000000021
 51
360.0
 73
     1
 72
     1
 10
265.0304954729001
 20
545.7054035961466
 11
265.0304954729001
 21
551.3680905359999
 72
     2
 10
264.8756571398726
 20
551.3680905359999
 40
0.1548383330274987
 50
0.0
 51
89.99999999997896
 73
     1
 72
     1
 10
264.8756571398727
 20
551.5229288690274
 11
263.812408168279
 21
551.5229288690274
 72
     2
 10
263.812408168279
 20
552.2971205341646
 40
0.7741916651372094
 50
90.0
 51
178.7572795963297
 73
     0
 72
     2
 10
251.6299934728802
 20
557.7953955334733
 40
12.67152933537451
 50
25.80011007782303
 51
36.34303215226476
 73
     0
 72
     1
 10
261.836700282206
 20
550.2860152790368
 11
263.967168282489
 21
548.7161967525123
 72
     2
 10
263.5079185314634
 20
548.0929292332632
 40
0.7741916651372662
 50
306.3843518158319
 51
486.3843518158368
 73
     0
 72
     1
 10
263.0486687804378
 20
547.4696617140142
 11
261.4320318192842
 21
548.6608678959169
 72
     2
 10
261.3401818690791
 20
548.536214392067
 40
0.1548383330275332
 50
53.61564818418461
 51
180.0
 73
     1
 72
     1
 10
261.1853435360516
 20
548.536214392067
 11
261.1853435360516
 21
544.3634713765755
 72
     2
 10
260.4111518709144
 20
544.3634713765755
 40
0.7741916651371526
 50
360.0
 51
540.0
 73
     0
 72
     1
 10
259.6369602057773
 20
544.3634713765755
 11
259.6369602057773
 21
547.653414111828
 72
     2
 10
259.4821218727499
 20
547.6534141118279
 40
0.154838333027385
 50
0.0000000000420682
 51
127.7477654900688
 73
     1
 72
     2
 10
251.6299934728749
 20
557.7953955334785
 40
12.67152933538242
 50
52.25223450996091
 51
57.12148604690852
 73
     0
 72
     2
 10
258.0885768755027
 20
547.8037318045926
 40
0.7741916651373283
 50
57.12148604690456
 51
237.1214860469
 73
     0
 72
     2
 10
251.629993472874
 20
557.7953955334773
 40
11.12314600510741
 50
302.8785139530977
 51
325.7037825309356
 73
     1
 72
     2
 10
260.6913017646273
 20
551.6150666400276
 40
0.1548383330274851
 50
325.7037825309157
 51
449.9999999999789
 73
     1
 72
     1
 10
260.6913017646273
 20
551.769904973055
 11
258.3466407638818
 21
551.769904973055
 72
     2
 10
258.3466407638818
 20
552.5440966381922
 40
0.7741916651372094
 50
90.0
 51
270.0
 73
     0
 72
     1
 10
258.3466407638818
 20
553.3182883033295
 11
259.4821218727497
 21
553.3182883033295
 72
     2
 10
259.4821218727498
 20
553.4731266363569
 40
0.1548383330274419
 50
269.9999999999789
 51
360.0
 73
     1
 72
     1
 10
259.6369602057773
 20
553.4731266363569
 11
259.6369602057773
 21
554.6860269117387
 97
        1
330
31833A87
 92
       16
 93
        1
 72
     2
 10
158.4821633052258
 20
555.0187359259085
 40
0.3870958325686231
 50
0.0
 51
360.0
 73
     1
 97
        1
330
31833A84
 92
       33
 93
       16
 72
     2
 10
132.730247148465
 20
557.7505355862402
 40
14.89875516665509
 50
291.0642306470734
 51
315.3513896006456
 73
     1
 72
     2
 10
143.5132640665344
 20
547.0989765448755
 40
0.2580638883790463
 50
224.6486103993359
 51
313.0250659891198
 73
     0
 72
     1
 10
143.6893457673343
 20
547.2876355100182
 11
147.1522855607186
 21
544.0555583695261
 72
     2
 10
147.6805306631183
 20
544.6215352649544
 40
0.7741916651372602
 50
226.9749340108828
 51
406.9749340108885
 73
     1
 72
     1
 10
148.2087757655181
 20
545.1875121603828
 11
144.6856204881624
 21
548.4757904192479
 72
     2
 10
144.8617021889624
 20
548.6644493843908
 40
0.258063888379168
 50
133.0250659891118
 51
216.8320803032257
 73
     0
 72
     2
 10
132.7302471484709
 20
557.7505355862389
 40
14.89875516664956
 50
323.1679196967589
 51
324.0729534105738
 73
     1
 72
     2
 10
135.937010347576
 20
555.0782329203148
 40
10.73775821432202
 50
325.5797402083247
 51
351.5603004662469
 73
     1
 72
     2
 10
145.5374109203138
 20
553.6537713582222
 40
1.032255553516466
 50
351.5603004662494
 51
450.0
 73
     1
 72
     1
 10
145.5374109203138
 20
554.6860269117387
 11
138.8592644974684
 21
554.6860269117387
 72
     2
 10
138.8592644974684
 20
553.9118352466013
 40
0.7741916651373231
 50
90.0
 51
270.0
 73
     1
 72
     1
 10
138.8592644974684
 20
553.1376435814642
 11
144.5934669025261
 21
553.1376435814642
 72
     2
 10
144.5934669025261
 20
552.8795796930851
 40
0.2580638883790698
 50
270.0000000000126
 51
374.2512020763084
 73
     0
 72
     2
 10
135.9370103475762
 20
555.0782329203145
 40
9.189374884047165
 50
14.25120207629168
 51
34.29476563517253
 73
     0
 72
     2
 10
132.7302471484649
 20
557.7505355862402
 40
13.35037183638063
 50
36.0154362736242
 51
68.84797155758054
 73
     0
 72
     2
 10
137.8270089439522
 20
544.5775969122589
 40
0.7741916651371679
 50
111.1520284424168
 51
289.4628757958994
 73
     1
 97
        1
330
31833A97
 75
     0
 76
     1
 52
315.0
 41
8.0
 77
     0
 78
     1
 53
0.0
 43
-20.64951255912228
 44
-75.74443361159456
 45
0.0000000000000003
 46
1.0
 79
     0
 98
        1
 10
-20.64951255912228
 20
-75.74443361159456
  0
ENDSEC
  0
SECTION
  2
OBJECTS
  0
DICTIONARY
  5
318324A3
330
0
100
AcDbDictionary
  3
ACAD_GROUP
350
318324A4
  3
ACAD_LAYOUT
350
3183277C
  3
ACAD_MLINESTYLE
350
318324A5
  3
ACAD_PLOTSETTINGS
350
3183277D
  3
ACAD_PLOTSTYLENAME
350
3183277A
  3
ACDBHEADERROUNDTRIPXREC
350
31833AA4
  3
ACDBVARIABLEDICTIONARY
350
318335F1
  0
DICTIONARY
  5
31832D4E
330
318324AF
100
AcDbDictionary
280
     1
  3
ACAD_LAYOUTSELFREF
360
31833AC6
  0
DICTIONARY
  5
31832D4C
330
318324AC
100
AcDbDictionary
280
     1
  3
ACAD_LAYOUTSELFREF
360
31833AC5
  0
DICTIONARY
  5
318324A4
102
{ACAD_REACTORS
330
318324A3
102
}
330
318324A3
100
AcDbDictionary
  0
DICTIONARY
  5
3183277C
102
{ACAD_REACTORS
330
318324A3
102
}
330
318324A3
100
AcDbDictionary
  0
DICTIONARY
  5
318324A5
102
{ACAD_REACTORS
330
318324A3
102
}
330
318324A3
100
AcDbDictionary
  3
STANDARD
350
318324B2
  0
DICTIONARY
  5
3183277D
102
{ACAD_REACTORS
330
318324A3
102
}
330
318324A3
100
AcDbDictionary
  0
ACDBDICTIONARYWDFLT
  5
3183277A
102
{ACAD_REACTORS
330
318324A3
102
}
330
318324A3
100
AcDbDictionary
281
     1
  3
Normal
350
3183277B
100
AcDbDictionaryWithDefault
340
3183277B
  0
DICTIONARY
  5
31833AA4
102
{ACAD_REACTORS
330
318324A3
102
}
330
318324A3
100
AcDbDictionary
  3
CEPSNTYPE
350
31833AAE
  3
DIMSTYLEDATA
350
31833AB2
  3
FINGERPRINTGUID
350
31833AAF
  3
HYPERLINKBASE
350
31833AA7
  3
INSUNITS
350
31833AAD
  3
LAYOUTDICT
350
31833AA9
  3
LWETCUNION
350
31833AAC
  3
PLOTSETDICT
350
31833AAA
  3
PLOTSTYLNAMDICT
350
31833AAB
  3
PSVPSCALE
350
31833AB1
  3
PUCSBASE
350
31833AB5
  3
PUCSORGBACK
350
31833ABB
  3
PUCSORGBOTTOM
350
31833AB7
  3
PUCSORGFRONT
350
31833ABA
  3
PUCSORGLEFT
350
31833AB8
  3
PUCSORGRIGHT
350
31833AB9
  3
PUCSORGTOP
350
31833AB6
  3
PUCSORTHOREF
350
31833AB3
  3
PUCSORTHOVIEW
350
31833AB4
  3
STYLESHEET
350
31833AA8
  3
TSTACKALIGN
350
31833AA5
  3
TSTACKSIZE
350
31833AA6
  3
UCSBASE
350
31833ABE
  3
UCSORGBACK
350
31833AC4
  3
UCSORGBOTTOM
350
31833AC0
  3
UCSORGFRONT
350
31833AC3
  3
UCSORGLEFT
350
31833AC1
  3
UCSORGRIGHT
350
31833AC2
  3
UCSORGTOP
350
31833ABF
  3
UCSORTHOREF
350
31833ABC
  3
UCSORTHOVIEW
350
31833ABD
  3
VERSIONGUID
350
31833AB0
  0
DICTIONARY
  5
318335F1
102
{ACAD_REACTORS
330
318324A3
102
}
330
318324A3
100
AcDbDictionary
  3
DIMASSOC
350
318335F2
  0
XRECORD
  5
31833AC6
102
{ACAD_REACTORS
330
31832D4E
102
}
330
31832D4E
100
AcDbXrecord
340
318324AF
  0
XRECORD
  5
31833AC5
102
{ACAD_REACTORS
330
31832D4C
102
}
330
31832D4C
100
AcDbXrecord
340
318324AC
  0
MLINESTYLE
  5
318324B2
102
{ACAD_REACTORS
330
318324A5
102
}
330
318324A5
100
AcDbMlineStyle
  2
STANDARD
 70
     0
  3

 62
     0
 51
90.0
 52
90.0
 71
     2
 49
0.5
 62
   256
  6
BYLAYER
 49
-0.5
 62
   256
  6
BYLAYER
  0
ACDBPLACEHOLDER
  5
3183277B
102
{ACAD_REACTORS
330
3183277A
102
}
330
3183277A
100
AcDbPlaceHolder
280
     0
  0
XRECORD
  5
31833AAE
102
{ACAD_REACTORS
330
31833AA4
102
}
330
31833AA4
100
AcDbXrecord
 90
        0
  0
XRECORD
  5
31833AB2
102
{ACAD_REACTORS
330
31833AA4
102
}
330
31833AA4
100
AcDbXrecord
1000
DSTYLE
1002
{
1070
   341
340
318324B9
1070
   342
340
318324B9
1070
   343
340
318324B9
1070
   344
340
318324B9
1002
}
  0
XRECORD
  5
31833AAF
102
{ACAD_REACTORS
330
31833AA4
102
}
330
31833AA4
100
AcDbXrecord
  1
{DCEE27B6-A85E-4C57-9B36-E2F0ECEE1DE5}
  0
XRECORD
  5
31833AA7
102
{ACAD_REACTORS
330
31833AA4
102
}
330
31833AA4
100
AcDbXrecord
  1

  0
XRECORD
  5
31833AAD
102
{ACAD_REACTORS
330
31833AA4
102
}
330
31833AA4
100
AcDbXrecord
 90
        0
  0
XRECORD
  5
31833AA9
102
{ACAD_REACTORS
330
31833AA4
102
}
330
31833AA4
100
AcDbXrecord
340
3183277C
  0
XRECORD
  5
31833AAC
102
{ACAD_REACTORS
330
31833AA4
102
}
330
31833AA4
100
AcDbXrecord
 90
    14877
  0
XRECORD
  5
31833AAA
102
{ACAD_REACTORS
330
31833AA4
102
}
330
31833AA4
100
AcDbXrecord
340
3183277D
  0
XRECORD
  5
31833AAB
102
{ACAD_REACTORS
330
31833AA4
102
}
330
31833AA4
100
AcDbXrecord
340
3183277A
  0
XRECORD
  5
31833AB1
102
{ACAD_REACTORS
330
31833AA4
102
}
330
31833AA4
100
AcDbXrecord
 40
0.0
  0
XRECORD
  5
31833AB5
102
{ACAD_REACTORS
330
31833AA4
102
}
330
31833AA4
100
AcDbXrecord
340
0
  0
XRECORD
  5
31833ABB
102
{ACAD_REACTORS
330
31833AA4
102
}
330
31833AA4
100
AcDbXrecord
 10
0.0
 20
0.0
 30
0.0
  0
XRECORD
  5
31833AB7
102
{ACAD_REACTORS
330
31833AA4
102
}
330
31833AA4
100
AcDbXrecord
 10
0.0
 20
0.0
 30
0.0
  0
XRECORD
  5
31833ABA
102
{ACAD_REACTORS
330
31833AA4
102
}
330
31833AA4
100
AcDbXrecord
 10
0.0
 20
0.0
 30
0.0
  0
XRECORD
  5
31833AB8
102
{ACAD_REACTORS
330
31833AA4
102
}
330
31833AA4
100
AcDbXrecord
 10
0.0
 20
0.0
 30
0.0
  0
XRECORD
  5
31833AB9
102
{ACAD_REACTORS
330
31833AA4
102
}
330
31833AA4
100
AcDbXrecord
 10
0.0
 20
0.0
 30
0.0
  0
XRECORD
  5
31833AB6
102
{ACAD_REACTORS
330
31833AA4
102
}
330
31833AA4
100
AcDbXrecord
 10
0.0
 20
0.0
 30
0.0
  0
XRECORD
  5
31833AB3
102
{ACAD_REACTORS
330
31833AA4
102
}
330
31833AA4
100
AcDbXrecord
340
0
  0
XRECORD
  5
31833AB4
102
{ACAD_REACTORS
330
31833AA4
102
}
330
31833AA4
100
AcDbXrecord
 70
     0
  0
XRECORD
  5
31833AA8
102
{ACAD_REACTORS
330
31833AA4
102
}
330
31833AA4
100
AcDbXrecord
  1
aclt.ctb
  0
XRECORD
  5
31833AA5
102
{ACAD_REACTORS
330
31833AA4
102
}
330
31833AA4
100
AcDbXrecord
 90
        1
  0
XRECORD
  5
31833AA6
102
{ACAD_REACTORS
330
31833AA4
102
}
330
31833AA4
100
AcDbXrecord
 90
       70
  0
XRECORD
  5
31833ABE
102
{ACAD_REACTORS
330
31833AA4
102
}
330
31833AA4
100
AcDbXrecord
340
0
  0
XRECORD
  5
31833AC4
102
{ACAD_REACTORS
330
31833AA4
102
}
330
31833AA4
100
AcDbXrecord
 10
0.0
 20
0.0
 30
0.0
  0
XRECORD
  5
31833AC0
102
{ACAD_REACTORS
330
31833AA4
102
}
330
31833AA4
100
AcDbXrecord
 10
0.0
 20
0.0
 30
0.0
  0
XRECORD
  5
31833AC3
102
{ACAD_REACTORS
330
31833AA4
102
}
330
31833AA4
100
AcDbXrecord
 10
0.0
 20
0.0
 30
0.0
  0
XRECORD
  5
31833AC1
102
{ACAD_REACTORS
330
31833AA4
102
}
330
31833AA4
100
AcDbXrecord
 10
0.0
 20
0.0
 30
0.0
  0
XRECORD
  5
31833AC2
102
{ACAD_REACTORS
330
31833AA4
102
}
330
31833AA4
100
AcDbXrecord
 10
0.0
 20
0.0
 30
0.0
  0
XRECORD
  5
31833ABF
102
{ACAD_REACTORS
330
31833AA4
102
}
330
31833AA4
100
AcDbXrecord
 10
0.0
 20
0.0
 30
0.0
  0
XRECORD
  5
31833ABC
102
{ACAD_REACTORS
330
31833AA4
102
}
330
31833AA4
100
AcDbXrecord
340
0
  0
XRECORD
  5
31833ABD
102
{ACAD_REACTORS
330
31833AA4
102
}
330
31833AA4
100
AcDbXrecord
 70
     0
  0
XRECORD
  5
31833AB0
102
{ACAD_REACTORS
330
31833AA4
102
}
330
31833AA4
100
AcDbXrecord
  1
{57E3F69D-4E8C-47AB-BFA8-8C8FFE5BFD89}
  0
DICTIONARYVAR
  5
318335F2
102
{ACAD_REACTORS
330
318335F1
102
}
330
318335F1
100
DictionaryVariables
280
     0
  1
0
  0
ENDSEC
  0
EOF
