  0
SECTION
  2
HEADER
  9
$ACADVER
  1
AC1015
  9
$ACADMAINTVER
 70
    10
  9
$DWGCODEPAGE
  3
ANSI_932
  9
$INSBASE
 10
0.0
 20
0.0
 30
0.0
  9
$EXTMIN
 10
-0.016569780604641
 20
-0.0249919896307347
 30
-0.0015258207003583
  9
$EXTMAX
 10
543.0165701491457
 20
819.0249958033957
 30
0.0000000349246037
  9
$LIMMIN
 10
0.0
 20
0.0
  9
$LIMMAX
 10
542.9999978399998
 20
818.9999999999995
  9
$ORTHOMODE
 70
     1
  9
$REGENMODE
 70
     1
  9
$FILLMODE
 70
     1
  9
$QTEXTMODE
 70
     0
  9
$MIRRTEXT
 70
     0
  9
$LTSCALE
 40
5.0
  9
$ATTMODE
 70
     1
  9
$TEXTSIZE
 40
3.0
  9
$TRACEWID
 40
0.05
  9
$TEXTSTYLE
  7
K
  9
$CLAYER
  8
JISSEN
  9
$CELTYPE
  6
BYLAYER
  9
$CECOLOR
 62
   256
  9
$CELTSCALE
 40
1.0
  9
$DISPSILH
 70
     0
  9
$DIMSCALE
 40
3.0
  9
$DIMASZ
 40
3.0
  9
$DIMEXO
 40
0.75
  9
$DIMDLI
 40
6.0
  9
$DIMRND
 40
0.0
  9
$DIMDLE
 40
0.0
  9
$DIMEXE
 40
1.0
  9
$DIMTP
 40
495.0
  9
$DIMTM
 40
0.0
  9
$DIMTXT
 40
3.0
  9
$DIMCEN
 40
0.0
  9
$DIMTSZ
 40
0.0
  9
$DIMTOL
 70
     0
  9
$DIMLIM
 70
     0
  9
$DIMTIH
 70
     0
  9
$DIMTOH
 70
     0
  9
$DIMSE1
 70
     0
  9
$DIMSE2
 70
     0
  9
$DIMTAD
 70
     3
  9
$DIMZIN
 70
     8
  9
$DIMBLK
  1
ARROWANG
  9
$DIMASO
 70
     0
  9
$DIMSHO
 70
     0
  9
$DIMPOST
  1

  9
$DIMAPOST
  1

  9
$DIMALT
 70
     0
  9
$DIMALTD
 70
     2
  9
$DIMALTF
 40
25.4
  9
$DIMLFAC
 40
1.0
  9
$DIMTOFL
 70
     1
  9
$DIMTVP
 40
0.0
  9
$DIMTIX
 70
     1
  9
$DIMSOXD
 70
     0
  9
$DIMSAH
 70
     1
  9
$DIMBLK1
  1
ARROWANG
  9
$DIMBLK2
  1
ARROWANG
  9
$DIMSTYLE
  2
IMAO
  9
$DIMCLRD
 70
   256
  9
$DIMCLRE
 70
   256
  9
$DIMCLRT
 70
   256
  9
$DIMTFAC
 40
1.0
  9
$DIMGAP
 40
1.0
  9
$DIMJUST
 70
     0
  9
$DIMSD1
 70
     0
  9
$DIMSD2
 70
     0
  9
$DIMTOLJ
 70
     1
  9
$DIMTZIN
 70
     0
  9
$DIMALTZ
 70
     0
  9
$DIMALTTZ
 70
     0
  9
$DIMUPT
 70
     0
  9
$DIMDEC
 70
     2
  9
$DIMTDEC
 70
     2
  9
$DIMALTU
 70
     2
  9
$DIMALTTD
 70
     2
  9
$DIMTXSTY
  7
K
  9
$DIMAUNIT
 70
     0
  9
$DIMADEC
 70
     0
  9
$DIMALTRND
 40
0.0
  9
$DIMAZIN
 70
     0
  9
$DIMDSEP
 70
    46
  9
$DIMATFIT
 70
     3
  9
$DIMFRAC
 70
     0
  9
$DIMLDRBLK
  1
ARROWANG
  9
$DIMLUNIT
 70
     2
  9
$DIMLWD
 70
    -2
  9
$DIMLWE
 70
    -2
  9
$DIMTMOVE
 70
     0
  9
$LUNITS
 70
     2
  9
$LUPREC
 70
     2
  9
$SKETCHINC
 40
0.1
  9
$FILLETRAD
 40
0.0
  9
$AUNITS
 70
     0
  9
$AUPREC
 70
     2
  9
$MENU
  1
STDR12J
  9
$ELEVATION
 40
0.0
  9
$PELEVATION
 40
0.0
  9
$THICKNESS
 40
0.0
  9
$LIMCHECK
 70
     0
  9
$CHAMFERA
 40
0.0
  9
$CHAMFERB
 40
0.0
  9
$CHAMFERC
 40
0.0
  9
$CHAMFERD
 40
0.0
  9
$SKPOLY
 70
     0
  9
$TDCREATE
 40
2450694.750535185
  9
$TDUCREATE
 40
2450694.375535185
  9
$TDUPDATE
 40
2454760.572071493
  9
$TDUUPDATE
 40
2454760.197071493
  9
$TDINDWG
 40
0.1836078819
  9
$TDUSRTIMER
 40
0.1836076968
  9
$USRTIMER
 70
     1
  9
$ANGBASE
 50
0.0
  9
$ANGDIR
 70
     0
  9
$PDMODE
 70
     0
  9
$PDSIZE
 40
0.0
  9
$PLINEWID
 40
0.0
  9
$SPLFRAME
 70
     0
  9
$SPLINETYPE
 70
     6
  9
$SPLINESEGS
 70
     8
  9
$HANDSEED
  5
3183363C
  9
$SURFTAB1
 70
     6
  9
$SURFTAB2
 70
     6
  9
$SURFTYPE
 70
     6
  9
$SURFU
 70
     6
  9
$SURFV
 70
     6
  9
$UCSBASE
  2

  9
$UCSNAME
  2

  9
$UCSORG
 10
0.0
 20
0.0
 30
0.0
  9
$UCSXDIR
 10
1.0
 20
0.0
 30
0.0
  9
$UCSYDIR
 10
0.0
 20
1.0
 30
0.0
  9
$UCSORTHOREF
  2

  9
$UCSORTHOVIEW
 70
     0
  9
$UCSORGTOP
 10
0.0
 20
0.0
 30
0.0
  9
$UCSORGBOTTOM
 10
0.0
 20
0.0
 30
0.0
  9
$UCSORGLEFT
 10
0.0
 20
0.0
 30
0.0
  9
$UCSORGRIGHT
 10
0.0
 20
0.0
 30
0.0
  9
$UCSORGFRONT
 10
0.0
 20
0.0
 30
0.0
  9
$UCSORGBACK
 10
0.0
 20
0.0
 30
0.0
  9
$PUCSBASE
  2

  9
$PUCSNAME
  2

  9
$PUCSORG
 10
0.0
 20
0.0
 30
0.0
  9
$PUCSXDIR
 10
1.0
 20
0.0
 30
0.0
  9
$PUCSYDIR
 10
0.0
 20
1.0
 30
0.0
  9
$PUCSORTHOREF
  2

  9
$PUCSORTHOVIEW
 70
     0
  9
$PUCSORGTOP
 10
0.0
 20
0.0
 30
0.0
  9
$PUCSORGBOTTOM
 10
0.0
 20
0.0
 30
0.0
  9
$PUCSORGLEFT
 10
0.0
 20
0.0
 30
0.0
  9
$PUCSORGRIGHT
 10
0.0
 20
0.0
 30
0.0
  9
$PUCSORGFRONT
 10
0.0
 20
0.0
 30
0.0
  9
$PUCSORGBACK
 10
0.0
 20
0.0
 30
0.0
  9
$USERI1
 70
     4
  9
$USERI2
 70
     1
  9
$USERI3
 70
     1
  9
$USERI4
 70
     1
  9
$USERI5
 70
     1
  9
$USERR1
 40
1.0
  9
$USERR2
 40
3.0
  9
$USERR3
 40
3.0
  9
$USERR4
 40
1.5
  9
$USERR5
 40
10.0
  9
$WORLDVIEW
 70
     1
  9
$SHADEDGE
 70
     3
  9
$SHADEDIF
 70
    70
  9
$TILEMODE
 70
     1
  9
$MAXACTVP
 70
    16
  9
$PINSBASE
 10
0.0
 20
0.0
 30
0.0
  9
$PLIMCHECK
 70
     0
  9
$PEXTMIN
 10
1.000000000000000E+20
 20
1.000000000000000E+20
 30
1.000000000000000E+20
  9
$PEXTMAX
 10
-1.000000000000000E+20
 20
-1.000000000000000E+20
 30
-1.000000000000000E+20
  9
$PLIMMIN
 10
0.0
 20
0.0
  9
$PLIMMAX
 10
12.0
 20
9.0
  9
$UNITMODE
 70
     0
  9
$VISRETAIN
 70
     0
  9
$PLINEGEN
 70
     0
  9
$PSLTSCALE
 70
     0
  9
$TREEDEPTH
 70
     0
  9
$CMLSTYLE
  2
STANDARD
  9
$CMLJUST
 70
     0
  9
$CMLSCALE
 40
1.0
  9
$PROXYGRAPHICS
 70
     1
  9
$MEASUREMENT
 70
     0
  9
$CELWEIGHT
370
    -1
  9
$ENDCAPS
280
     0
  9
$JOINSTYLE
280
     0
  9
$LWDISPLAY
290
     0
  9
$INSUNITS
 70
     0
  9
$HYPERLINKBASE
  1

  9
$STYLESHEET
  1
aclt.ctb
  9
$XEDIT
290
     1
  9
$CEPSNTYPE
380
     0
  9
$PSTYLEMODE
290
     1
  9
$FINGERPRINTGUID
  2
{DCEE27B6-A85E-4C57-9B36-E2F0ECEE1DE5}
  9
$VERSIONGUID
  2
{54F5BEFE-D7BD-448C-BEC5-74AF60F36678}
  9
$EXTNAMES
290
     1
  9
$PSVPSCALE
 40
0.0
  9
$OLESTARTUP
290
     0
  0
ENDSEC
  0
SECTION
  2
CLASSES
  0
CLASS
  1
LWPOLYLINE
  2
AcDbPolyline
  3
AutoCAD 2000
 90
    32768
280
     0
281
     1
  0
CLASS
  1
ACDBDICTIONARYWDFLT
  2
AcDbDictionaryWithDefault
  3
AutoCAD 2000
 90
        0
280
     0
281
     0
  0
CLASS
  1
ACDBPLACEHOLDER
  2
AcDbPlaceHolder
  3
AutoCAD 2000
 90
        0
280
     0
281
     0
  0
CLASS
  1
LAYOUT
  2
AcDbLayout
  3
AutoCAD 2000
 90
        0
280
     0
281
     0
  0
CLASS
  1
LONG_TRANSACTION
  2
AcDbLongTransaction
  3
AutoCAD 2000
 90
    32768
280
     0
281
     0
  0
CLASS
  1
LWPOLYLINE
  2
AcDbPolyline
  3
AutoCAD 2000
 90
    32768
280
     0
281
     1
  0
CLASS
  1
HATCH
  2
AcDbHatch
  3
AutoCAD 2000
 90
    32768
280
     0
281
     1
  0
CLASS
  1
XRECORD
  2
AcDbXrecord
  3
AutoCAD 2000
 90
    32768
280
     0
281
     0
  0
CLASS
  1
LONG_TRANSACTION
  2
AcDbLongTransaction
  3
AutoCAD 2000
 90
    32768
280
     0
281
     0
  0
CLASS
  1
LWPOLYLINE
  2
AcDbPolyline
  3
AutoCAD 2000
 90
    32768
280
     0
281
     1
  0
CLASS
  1
HATCH
  2
AcDbHatch
  3
AutoCAD 2000
 90
    32768
280
     0
281
     1
  0
CLASS
  1
XRECORD
  2
AcDbXrecord
  3
AutoCAD 2000
 90
    32768
280
     0
281
     0
  0
CLASS
  1
LONG_TRANSACTION
  2
AcDbLongTransaction
  3
AutoCAD 2000
 90
    32768
280
     0
281
     0
  0
CLASS
  1
LWPOLYLINE
  2
AcDbPolyline
  3
AutoCAD 2000
 90
    32768
280
     0
281
     1
  0
CLASS
  1
HATCH
  2
AcDbHatch
  3
AutoCAD 2000
 90
    32768
280
     0
281
     1
  0
CLASS
  1
XRECORD
  2
AcDbXrecord
  3
AutoCAD 2000
 90
    32768
280
     0
281
     0
  0
CLASS
  1
LONG_TRANSACTION
  2
AcDbLongTransaction
  3
AutoCAD 2000
 90
    32768
280
     0
281
     0
  0
CLASS
  1
LWPOLYLINE
  2
AcDbPolyline
  3
AutoCAD 2000
 90
    32768
280
     0
281
     1
  0
CLASS
  1
HATCH
  2
AcDbHatch
  3
AutoCAD 2000
 90
    32768
280
     0
281
     1
  0
CLASS
  1
XRECORD
  2
AcDbXrecord
  3
AutoCAD 2000
 90
    32768
280
     0
281
     0
  0
CLASS
  1
LONG_TRANSACTION
  2
AcDbLongTransaction
  3
AutoCAD 2000
 90
    32768
280
     0
281
     0
  0
CLASS
  1
LWPOLYLINE
  2
AcDbPolyline
  3
AutoCAD 2000
 90
    32768
280
     0
281
     1
  0
CLASS
  1
HATCH
  2
AcDbHatch
  3
AutoCAD 2000
 90
    32768
280
     0
281
     1
  0
CLASS
  1
XRECORD
  2
AcDbXrecord
  3
AutoCAD 2000
 90
    32768
280
     0
281
     0
  0
CLASS
  1
DICTIONARYVAR
  2
AcDbDictionaryVar
  3
AutoCAD 2000
 90
        0
280
     0
281
     0
  0
CLASS
  1
LONG_TRANSACTION
  2
AcDbLongTransaction
  3
AutoCAD 2000
 90
    32768
280
     0
281
     0
  0
CLASS
  1
LWPOLYLINE
  2
AcDbPolyline
  3
AutoCAD 2000
 90
    32768
280
     0
281
     1
  0
CLASS
  1
HATCH
  2
AcDbHatch
  3
AutoCAD 2000
 90
    32768
280
     0
281
     1
  0
CLASS
  1
XRECORD
  2
AcDbXrecord
  3
AutoCAD 2000
 90
    32768
280
     0
281
     0
  0
ENDSEC
  0
SECTION
  2
TABLES
  0
TABLE
  2
VPORT
  5
3183249F
330
0
100
AcDbSymbolTable
 70
    10
  0
VPORT
  5
318324C3
330
3183249F
100
AcDbSymbolTableRecord
100
AcDbViewportTableRecord
  2
2
 70
     0
 10
0.5
 20
0.0
 11
1.0
 21
1.0
 12
0.9240312421264802
 22
1.052650975462765
 13
0.0
 23
0.0
 14
1.0
 24
1.0
 15
10.0
 25
10.0
 16
0.0
 26
0.0
 36
1.0
 17
0.0
 27
0.0
 37
0.0
 40
2.105301950925533
 41
0.8778135048231511
 42
50.0
 43
0.0
 44
0.0
 50
0.0
 51
0.0
 71
     0
 72
   500
 73
     1
 74
     1
 75
     0
 76
     0
 77
     0
 78
     0
281
     0
 65
     1
110
0.0
120
0.0
130
0.0
111
1.0
121
0.0
131
0.0
112
0.0
122
1.0
132
0.0
 79
     0
146
0.0
  0
VPORT
  5
318324C4
330
3183249F
100
AcDbSymbolTableRecord
100
AcDbViewportTableRecord
  2
2
 70
     0
 10
0.0
 20
0.0
 11
0.5
 21
1.0
 12
0.9240312421264802
 22
1.052650975462765
 13
0.0
 23
0.0
 14
1.0
 24
1.0
 15
10.0
 25
10.0
 16
0.0
 26
0.0
 36
1.0
 17
0.0
 27
0.0
 37
0.0
 40
2.105301950925533
 41
0.8778135048231511
 42
50.0
 43
0.0
 44
0.0
 50
0.0
 51
0.0
 71
     0
 72
   500
 73
     1
 74
     1
 75
     0
 76
     0
 77
     0
 78
     0
281
     0
 65
     1
110
0.0
120
0.0
130
0.0
111
1.0
121
0.0
131
0.0
112
0.0
122
1.0
132
0.0
 79
     0
146
0.0
  0
VPORT
  5
318324C5
330
3183249F
100
AcDbSymbolTableRecord
100
AcDbViewportTableRecord
  2
3
 70
     0
 10
0.0
 20
0.5
 11
1.0
 21
1.0
 12
2.832169994473273
 22
1.052650975462765
 13
0.0
 23
0.0
 14
1.0
 24
1.0
 15
10.0
 25
10.0
 16
0.0
 26
0.0
 36
1.0
 17
0.0
 27
0.0
 37
0.0
 40
2.105301950925533
 41
3.571428571428571
 42
50.0
 43
0.0
 44
0.0
 50
0.0
 51
0.0
 71
     0
 72
   500
 73
     1
 74
     1
 75
     0
 76
     0
 77
     0
 78
     0
281
     0
 65
     1
110
0.0
120
0.0
130
0.0
111
1.0
121
0.0
131
0.0
112
0.0
122
1.0
132
0.0
 79
     0
146
0.0
  0
VPORT
  5
318324C6
330
3183249F
100
AcDbSymbolTableRecord
100
AcDbViewportTableRecord
  2
3
 70
     0
 10
0.0
 20
0.0
 11
1.0
 21
0.5
 12
2.856741679241311
 22
1.052650975462765
 13
0.0
 23
0.0
 14
1.0
 24
1.0
 15
10.0
 25
10.0
 16
0.0
 26
0.0
 36
1.0
 17
0.0
 27
0.0
 37
0.0
 40
2.105301950925533
 41
3.594771241830064
 42
50.0
 43
0.0
 44
0.0
 50
0.0
 51
0.0
 71
     0
 72
   500
 73
     1
 74
     1
 75
     0
 76
     0
 77
     0
 78
     0
281
     0
 65
     1
110
0.0
120
0.0
130
0.0
111
1.0
121
0.0
131
0.0
112
0.0
122
1.0
132
0.0
 79
     0
146
0.0
  0
VPORT
  5
318324C7
330
3183249F
100
AcDbSymbolTableRecord
100
AcDbViewportTableRecord
  2
4
 70
     0
 10
0.5
 20
0.0
 11
1.0
 21
0.5
 12
2.886857516709718
 22
1.052650975462765
 13
0.0
 23
0.0
 14
1.0
 24
1.0
 15
10.0
 25
10.0
 16
0.0
 26
0.0
 36
1.0
 17
0.0
 27
0.0
 37
0.0
 40
4.275207030309069
 41
1.784313725490195
 42
50.0
 43
0.0
 44
0.0
 50
0.0
 51
0.0
 71
     0
 72
   500
 73
     1
 74
     1
 75
     0
 76
     0
 77
     0
 78
     0
281
     0
 65
     1
110
0.0
120
0.0
130
0.0
111
1.0
121
0.0
131
0.0
112
0.0
122
1.0
132
0.0
 79
     0
146
0.0
  0
VPORT
  5
318324C8
330
3183249F
100
AcDbSymbolTableRecord
100
AcDbViewportTableRecord
  2
4
 70
     0
 10
0.5
 20
0.5
 11
1.0
 21
1.0
 12
2.862090274555523
 22
1.052650975462765
 13
0.0
 23
0.0
 14
1.0
 24
1.0
 15
10.0
 25
10.0
 16
0.0
 26
0.0
 36
1.0
 17
0.0
 27
0.0
 37
0.0
 40
4.275207030309069
 41
1.772727272727271
 42
50.0
 43
0.0
 44
0.0
 50
0.0
 51
0.0
 71
     0
 72
   500
 73
     1
 74
     1
 75
     0
 76
     0
 77
     0
 78
     0
281
     0
 65
     1
110
0.0
120
0.0
130
0.0
111
1.0
121
0.0
131
0.0
112
0.0
122
1.0
132
0.0
 79
     0
146
0.0
  0
VPORT
  5
318324C9
330
3183249F
100
AcDbSymbolTableRecord
100
AcDbViewportTableRecord
  2
4
 70
     0
 10
0.0
 20
0.5
 11
0.5
 21
1.0
 12
2.862090274555523
 22
1.052650975462765
 13
0.0
 23
0.0
 14
1.0
 24
1.0
 15
10.0
 25
10.0
 16
0.0
 26
0.0
 36
1.0
 17
0.0
 27
0.0
 37
0.0
 40
4.275207030309069
 41
1.772727272727271
 42
50.0
 43
0.0
 44
0.0
 50
0.0
 51
0.0
 71
     0
 72
   500
 73
     1
 74
     1
 75
     0
 76
     0
 77
     0
 78
     0
281
     0
 65
     1
110
0.0
120
0.0
130
0.0
111
1.0
121
0.0
131
0.0
112
0.0
122
1.0
132
0.0
 79
     0
146
0.0
  0
VPORT
  5
318324CA
330
3183249F
100
AcDbSymbolTableRecord
100
AcDbViewportTableRecord
  2
4
 70
     0
 10
0.0
 20
0.0
 11
0.5
 21
0.5
 12
2.886857516709718
 22
1.052650975462765
 13
0.0
 23
0.0
 14
1.0
 24
1.0
 15
10.0
 25
10.0
 16
0.0
 26
0.0
 36
1.0
 17
0.0
 27
0.0
 37
0.0
 40
4.275207030309069
 41
1.784313725490195
 42
50.0
 43
0.0
 44
0.0
 50
0.0
 51
0.0
 71
     0
 72
   500
 73
     1
 74
     1
 75
     0
 76
     0
 77
     0
 78
     0
281
     0
 65
     1
110
0.0
120
0.0
130
0.0
111
1.0
121
0.0
131
0.0
112
0.0
122
1.0
132
0.0
 79
     0
146
0.0
  0
VPORT
  5
3183363B
330
3183249F
100
AcDbSymbolTableRecord
100
AcDbViewportTableRecord
  2
*Active
 70
     0
 10
0.0
 20
0.0
 11
1.0
 21
1.0
 12
271.5000001842705
 22
409.5000019068825
 13
0.0
 23
0.0
 14
1.0
 24
1.0
 15
10.0
 25
10.0
 16
0.0
 26
0.0
 36
1.0
 17
0.0
 27
0.0
 37
0.0
 40
825.0503540039645
 41
1.537897310513447
 42
50.0
 43
0.0
 44
0.0
 50
0.0
 51
0.0
 71
     0
 72
   500
 73
     1
 74
     0
 75
     0
 76
     0
 77
     0
 78
     0
281
     0
 65
     1
110
0.0
120
0.0
130
0.0
111
1.0
121
0.0
131
0.0
112
0.0
122
1.0
132
0.0
 79
     0
146
0.0
  0
ENDTAB
  0
TABLE
  2
LTYPE
  5
3183249C
330
0
100
AcDbSymbolTable
 70
     3
  0
LTYPE
  5
318324A9
330
3183249C
100
AcDbSymbolTableRecord
100
AcDbLinetypeTableRecord
  2
BYBLOCK
 70
     0
  3

 72
    65
 73
     0
 40
0.0
  0
LTYPE
  5
318324AA
330
3183249C
100
AcDbSymbolTableRecord
100
AcDbLinetypeTableRecord
  2
BYLAYER
 70
     0
  3

 72
    65
 73
     0
 40
0.0
  0
LTYPE
  5
318324AB
330
3183249C
100
AcDbSymbolTableRecord
100
AcDbLinetypeTableRecord
  2
CONTINUOUS
 70
     0
  3
実線
 72
    65
 73
     0
 40
0.0
  0
LTYPE
  5
318324C0
330
3183249C
100
AcDbSymbolTableRecord
100
AcDbLinetypeTableRecord
  2
CENTER
 70
     0
  3
____ _ ____ _ ____ _ ____ _ ____ _ ____ _ ____
 72
    65
 73
     4
 40
2.0
 49
1.25
 74
     0
 49
-0.25
 74
     0
 49
0.25
 74
     0
 49
-0.25
 74
     0
  0
LTYPE
  5
318324C2
330
3183249C
100
AcDbSymbolTableRecord
100
AcDbLinetypeTableRecord
  2
HIDDEN
 70
     0
  3
_ _ _ _ _ _ _ _ _ _ _ _ _ _ _ _ _ _ _ _ _ _ _
 72
    65
 73
     2
 40
0.375
 49
0.25
 74
     0
 49
-0.125
 74
     0
  0
ENDTAB
  0
TABLE
  2
LAYER
  5
31832499
330
0
100
AcDbSymbolTable
 70
     7
  0
LAYER
  5
318324A6
330
31832499
100
AcDbSymbolTableRecord
100
AcDbLayerTableRecord
  2
0
 70
     0
 62
     7
  6
CONTINUOUS
370
    -3
390
3183277B
  0
LAYER
  5
318324CF
330
31832499
100
AcDbSymbolTableRecord
100
AcDbLayerTableRecord
  2
ITTEN
 70
     0
 62
     1
  6
CENTER
370
    -3
390
3183277B
  0
LAYER
  5
318324D2
330
31832499
100
AcDbSymbolTableRecord
100
AcDbLayerTableRecord
  2
SUNPOU
 70
     0
 62
     3
  6
CONTINUOUS
370
    -3
390
3183277B
  0
LAYER
  5
318324D4
330
31832499
100
AcDbSymbolTableRecord
100
AcDbLayerTableRecord
  2
SAISEN
 70
     0
 62
     4
  6
CONTINUOUS
370
    -3
390
3183277B
  0
LAYER
  5
318324D5
330
31832499
100
AcDbSymbolTableRecord
100
AcDbLayerTableRecord
  2
JISSEN
 70
     0
 62
     7
  6
CONTINUOUS
370
    -3
390
3183277B
  0
LAYER
  5
318324D9
330
31832499
100
AcDbSymbolTableRecord
100
AcDbLayerTableRecord
  2
WAKU
 70
     0
 62
     5
  6
CONTINUOUS
370
    -3
390
3183277B
  0
LAYER
  5
3183292E
330
31832499
100
AcDbSymbolTableRecord
100
AcDbLayerTableRecord
  2
2
 70
     0
 62
     2
  6
HIDDEN
370
    -3
390
3183277B
  0
ENDTAB
  0
TABLE
  2
STYLE
  5
3183249A
330
0
100
AcDbSymbolTable
 70
     3
  0
STYLE
  5
318324A7
330
3183249A
100
AcDbSymbolTableRecord
100
AcDbTextStyleTableRecord
  2
STANDARD
 70
     0
 40
0.0
 41
1.0
 50
0.0
 71
     0
 42
0.2
  3
ROMANS
  4
EXTFONT
  0
STYLE
  5
318324BE
330
3183249A
100
AcDbSymbolTableRecord
100
AcDbTextStyleTableRecord
  2
K
 70
     0
 40
0.0
 41
1.0
 50
0.0
 71
     0
 42
3.0
  3
ROMANS.shx
  4
bigfont.shx
  0
STYLE
  5
3183292F
330
3183249A
100
AcDbSymbolTableRecord
100
AcDbTextStyleTableRecord
  2
BIGFONT
 70
     0
 40
0.0
 41
1.0
 50
0.0
 71
     0
 42
9.0
  3
txt.shx
  4
bigfont
  0
ENDTAB
  0
TABLE
  2
VIEW
  5
3183249D
330
0
100
AcDbSymbolTable
 70
     0
  0
ENDTAB
  0
TABLE
  2
UCS
  5
3183249E
330
0
100
AcDbSymbolTable
 70
     0
  0
ENDTAB
  0
TABLE
  2
APPID
  5
318324A0
330
0
100
AcDbSymbolTable
 70
     1
  0
APPID
  5
318324A8
330
318324A0
100
AcDbSymbolTableRecord
100
AcDbRegAppTableRecord
  2
ACAD
 70
     0
  0
ENDTAB
  0
TABLE
  2
DIMSTYLE
  5
318324A1
330
0
100
AcDbSymbolTable
 70
     1
100
AcDbDimStyleTable
 71
     0
  0
DIMSTYLE
105
318324CD
330
318324A1
100
AcDbSymbolTableRecord
100
AcDbDimStyleTableRecord
  2
IMAO
 70
     0
 41
1.5
 42
0.75
 43
6.0
 44
1.0
 47
495.0
 73
     0
 74
     0
 77
     3
 78
     8
140
3.0
141
0.0
147
1.0
172
     1
173
     1
174
     1
176
   256
177
   256
178
   256
271
     2
272
     2
340
318324BE
341
318324B9
342
318324B9
343
318324B9
344
318324B9
  0
ENDTAB
  0
TABLE
  2
BLOCK_RECORD
  5
31832498
330
0
100
AcDbSymbolTable
 70
     2
  0
BLOCK_RECORD
  5
318324AF
102
{ACAD_XDICTIONARY
360
31832D4E
102
}
330
31832498
100
AcDbSymbolTableRecord
100
AcDbBlockTableRecord
  2
*MODEL_SPACE
340
31833637
  0
BLOCK_RECORD
  5
318324AC
102
{ACAD_XDICTIONARY
360
31832D4C
102
}
330
31832498
100
AcDbSymbolTableRecord
100
AcDbBlockTableRecord
  2
*PAPER_SPACE
340
31833638
  0
BLOCK_RECORD
  5
318324B9
330
31832498
100
AcDbSymbolTableRecord
100
AcDbBlockTableRecord
  2
ARROWANG
340
0
102
{BLKREFS
331
318332A0
331
318332A1
331
318332BB
331
318332BC
331
318332C1
331
318332C2
331
318332C7
331
318332C8
102
}
  0
BLOCK_RECORD
  5
31832783
330
31832498
100
AcDbSymbolTableRecord
100
AcDbBlockTableRecord
  2
X023
340
0
102
{BLKREFS
331
3183346C
102
}
  0
ENDTAB
  0
ENDSEC
  0
SECTION
  2
BLOCKS
  0
BLOCK
  5
318324DE
330
318324AF
100
AcDbEntity
  8
0
100
AcDbBlockBegin
  2
*MODEL_SPACE
 70
     0
 10
0.0
 20
0.0
 30
0.0
  3
*MODEL_SPACE
  1

  0
ENDBLK
  5
318324DF
330
318324AF
100
AcDbEntity
  8
0
100
AcDbBlockEnd
  0
BLOCK
  5
318324DC
330
318324AC
100
AcDbEntity
 67
     1
  8
0
100
AcDbBlockBegin
  2
*PAPER_SPACE
 70
     0
 10
0.0
 20
0.0
 30
0.0
  3
*PAPER_SPACE
  1

  0
ENDBLK
  5
318324DD
330
318324AC
100
AcDbEntity
 67
     1
  8
0
100
AcDbBlockEnd
  0
BLOCK
  5
1D
330
318324B9
100
AcDbEntity
  8
0
100
AcDbBlockBegin
  2
ARROWANG
 70
     0
 10
0.0
 20
0.0
 30
0.0
  3
ARROWANG
  1

  0
LINE
  5
1E
330
318324B9
100
AcDbEntity
  8
SUNPOU
100
AcDbLine
 10
0.0
 20
0.0
 30
0.0
 11
-1.499999999999956
 21
0.401923788646741
 31
0.0
  0
LINE
  5
1F
330
318324B9
100
AcDbEntity
  8
SUNPOU
100
AcDbLine
 10
0.0
 20
0.0
 30
0.0
 11
-1.500000000000027
 21
-0.4019237886467124
 31
0.0
  0
ENDBLK
  5
20
330
318324B9
100
AcDbEntity
  8
0
100
AcDbBlockEnd
  0
BLOCK
  5
3183278C
330
31832783
100
AcDbEntity
  8
0
100
AcDbBlockBegin
  2
X023
 70
     0
 10
0.0
 20
0.0
 30
0.0
  3
X023
  1

  0
ARC
  5
31832784
330
31832783
100
AcDbEntity
  8
2
100
AcDbCircle
 10
-2.141791044776055
 20
0.0
 30
0.0
 40
1.793321003826915
100
AcDbArc
 50
282.6193222934307
 51
77.38067770656854
  0
LINE
  5
31832785
330
31832783
100
AcDbEntity
  8
0
100
AcDbLine
 10
-1.499999999999943
 20
-3.0
 30
0.0
 11
0.0000000000001137
 21
-1.5
 31
0.0
  0
LINE
  5
31832786
330
31832783
100
AcDbEntity
  8
0
100
AcDbLine
 10
-1.499999999999943
 20
3.0
 30
0.0
 11
0.0
 21
1.499999999999943
 31
0.0
  0
LINE
  5
31832787
330
31832783
100
AcDbEntity
  8
0
100
AcDbLine
 10
0.0
 20
1.499999999999971
 30
0.0
 11
0.0000000000001137
 21
-1.500000000000027
 31
0.0
  0
LINE
  5
31832788
330
31832783
100
AcDbEntity
  8
0
100
AcDbLine
 10
-1.749999999999943
 20
-3.000000000000028
 30
0.0
 11
-1.749999999999943
 21
2.999999999999971
 31
0.0
  0
LINE
  5
31832789
330
31832783
100
AcDbEntity
  8
0
100
AcDbLine
 10
-1.499999999999943
 20
-3.000000000000028
 30
0.0
 11
-1.749999999999943
 21
-3.000000000000028
 31
0.0
  0
LINE
  5
3183278A
330
31832783
100
AcDbEntity
  8
0
100
AcDbLine
 10
-1.499999999999943
 20
2.999999999999971
 30
0.0
 11
-1.499999999999971
 21
-3.000000000000028
 31
0.0
  0
LINE
  5
3183278B
330
31832783
100
AcDbEntity
  8
0
100
AcDbLine
 10
-1.749999999999943
 20
2.999999999999971
 30
0.0
 11
-1.499999999999943
 21
2.999999999999971
 31
0.0
  0
ENDBLK
  5
3183278D
330
31832783
100
AcDbEntity
  8
0
100
AcDbBlockEnd
  0
ENDSEC
  0
SECTION
  2
ENTITIES
  0
LWPOLYLINE
  5
3183276C
330
318324AF
100
AcDbEntity
  8
WAKU
100
AcDbPolyline
 90
        4
 70
     1
 43
0.0
 10
0.0
 20
0.0
 10
542.9999978399998
 20
0.0
 10
542.9999978399998
 20
818.9999999999995
 10
0.0
 20
818.9999999999995
  0
TEXT
  5
31832B4B
330
318324AF
100
AcDbEntity
  8
SAISEN
100
AcDbText
 10
357.1918548114539
 20
111.0127348717775
 30
0.0
 40
9.0
  1
塗装色：マンセル　7.5BG 5/4.5
  7
K
 72
     4
 11
447.2775690971682
 21
114.8698777289204
 31
0.0
100
AcDbText
  0
TEXT
  5
31832B4C
330
318324AF
100
AcDbEntity
  8
SAISEN
100
AcDbText
 10
357.0785856866249
 20
125.8698777289203
 30
0.0
 40
9.0
  1
材　質：SPCC
  7
K
 72
     4
 11
395.8214428294821
 21
130.3698777289203
 31
0.0
100
AcDbText
  0
LINE
  5
31832B4D
330
318324AF
100
AcDbEntity
  8
SAISEN
100
AcDbLine
 10
354.2689855706021
 20
106.8698777289202
 30
0.0
 11
539.7289716197429
 21
106.8698777289202
 31
0.0
  0
LINE
  5
31832B4E
330
318324AF
100
AcDbEntity
  8
SAISEN
100
AcDbLine
 10
354.2689855706021
 20
138.8698777289202
 30
0.0
 11
539.7289716197429
 21
138.8698777289202
 31
0.0
  0
HATCH
  5
31833282
330
318324AF
100
AcDbEntity
  8
SUNPOU
100
AcDbHatch
 10
0.0
 20
0.0
 30
0.0
210
0.0
220
0.0
230
1.0
  2
ANSI31
 70
     0
 71
     1
 91
       25
 92
        1
 93
        1
 72
     2
 10
110.8567724036294
 20
607.7450972586225
 40
12.53164556962024
 50
0.0
 51
360.0
 73
     1
 97
        1
330
31833362
 92
       16
 93
        1
 72
     2
 10
110.8567724036294
 20
607.7450972586225
 40
11.27848101265822
 50
0.0
 51
360.0
 73
     1
 97
        1
330
31833361
 92
        0
 93
        8
 72
     1
 10
106.5477078067486
 20
610.8797115709584
 11
106.5477078067486
 21
601.857968453616
 72
     2
 10
105.6826091516609
 20
601.857968453616
 40
0.8650986550876496
 50
360.0
 51
540.0
 73
     0
 72
     1
 10
104.8175104965732
 20
601.857968453616
 11
104.8175104965732
 21
607.5170984503406
 72
     2
 10
104.7248213549567
 20
607.5170984503406
 40
0.0926891416165035
 50
0.0
 51
137.8965511291977
 73
     1
 72
     2
 10
104.0142046025634
 20
608.1592676606998
 40
0.8650986550876458
 50
42.10344887075183
 51
216.95303443016
 73
     0
 72
     2
 10
93.04039178768801
 20
616.4145342678413
 40
12.86712601722654
 50
323.0469655698342
 51
350.0531909868996
 73
     1
 72
     2
 10
106.5662010227867
 20
614.0425142454492
 40
0.8650986550876071
 50
189.9468090130928
 51
369.9468090131002
 73
     0
 72
     2
 10
93.0403917876875
 20
616.4145342678421
 40
14.59732332740241
 50
9.946809013102175
 51
22.28209173268303
 73
     0
 97
        1
330
31833283
 92
        0
 93
       35
 72
     1
 10
113.9328943077428
 20
610.8797115709584
 11
116.9607396005498
 21
610.8797115709584
 72
     2
 10
116.9607396005498
 20
611.8066029871236
 40
0.9268914161654038
 50
270.0
 51
450.0
 73
     1
 72
     1
 10
116.9607396005498
 20
612.7334944032892
 11
113.7299815152726
 21
612.7334944032892
 72
     2
 10
113.7299815152726
 20
612.8570799254442
 40
0.1235855221551674
 50
90.00000000001973
 51
196.804397890685
 73
     0
 72
     2
 10
112.7243627687325
 20
613.1607783524245
 40
0.9268914161652418
 50
343.1956021093465
 51
388.6809552685452
 73
     1
 72
     1
 10
113.53752992692
 20
613.6056231233347
 11
112.5452360105367
 21
614.8548294005802
 72
     2
 10
111.8194557178215
 20
614.2783134302312
 40
0.9268914161654146
 50
38.46150445227947
 51
218.4615044522739
 73
     1
 72
     1
 10
111.0936754251064
 20
613.7017974598823
 11
111.5841864340737
 21
613.0842894601422
 72
     2
 10
111.414837699107
 20
612.949769067061
 40
0.2162746637717943
 50
321.5384955476995
 51
449.9999999999849
 73
     0
 72
     1
 10
111.414837699107
 20
612.7334944032892
 11
108.6187168550619
 21
612.7334944032892
 72
     2
 10
108.6187168550619
 20
611.8066029871236
 40
0.9268914161654038
 50
90.0
 51
270.0
 73
     1
 72
     1
 10
108.6187168550619
 20
610.8797115709584
 11
111.6465621478685
 21
610.8797115709584
 72
     2
 10
111.6465621478684
 20
610.6634369071863
 40
0.2162746637719692
 50
270.000000000015
 51
360.0
 73
     0
 72
     1
 10
111.8628368116404
 20
610.6634369071863
 11
111.8628368116404
 21
608.5624830305451
 72
     2
 10
111.6465621478684
 20
608.5624830305451
 40
0.2162746637719124
 50
360.0
 51
449.9999999999849
 73
     0
 72
     1
 10
111.6465621478685
 20
608.3462083667731
 11
108.773198757756
 21
608.3462083667731
 72
     2
 10
108.773198757756
 20
607.4193169506076
 40
0.9268914161654038
 50
90.0
 51
270.0
 73
     1
 72
     1
 10
108.773198757756
 20
606.4924255344424
 11
111.6465621478685
 21
606.4924255344424
 72
     2
 10
111.6465621478685
 20
606.2761508706707
 40
0.2162746637718556
 50
269.9999999999848
 51
359.9999999999697
 73
     0
 72
     1
 10
111.8628368116404
 20
606.2761508706707
 11
111.8628368116404
 21
603.5572693832522
 72
     2
 10
111.6465621478684
 20
603.5572693832522
 40
0.2162746637719124
 50
360.0
 51
449.9999999999849
 73
     0
 72
     1
 10
111.6465621478685
 20
603.3409947194804
 11
108.3406494302122
 21
603.3409947194804
 72
     2
 10
108.3406494302122
 20
602.4141033033153
 40
0.9268914161651764
 50
90.0
 51
270.0
 73
     1
 72
     1
 10
108.3406494302122
 20
601.4872118871497
 11
117.2388070253993
 21
601.4872118871497
 72
     2
 10
117.2388070253993
 20
602.4141033033153
 40
0.9268914161652899
 50
270.0
 51
450.0
 73
     1
 72
     1
 10
117.2388070253993
 20
603.3409947194804
 11
113.9328943077428
 21
603.3409947194804
 72
     2
 10
113.9328943077428
 20
603.5572693832522
 40
0.2162746637719692
 50
90.00000000001506
 51
180.0
 73
     0
 72
     1
 10
113.7166196439709
 20
603.5572693832522
 11
113.7166196439709
 21
606.2761508706707
 72
     2
 10
113.9328943077428
 20
606.2761508706707
 40
0.2162746637717987
 50
180.00000000003
 51
270.000000000015
 73
     0
 72
     1
 10
113.9328943077428
 20
606.4924255344424
 11
116.8062576978554
 21
606.4924255344424
 72
     2
 10
116.8062576978554
 20
607.4193169506076
 40
0.9268914161652899
 50
270.0
 51
450.0
 73
     1
 72
     1
 10
116.8062576978554
 20
608.3462083667731
 11
113.9328943077428
 21
608.3462083667731
 72
     2
 10
113.9328943077428
 20
608.5624830305451
 40
0.2162746637719692
 50
90.00000000001506
 51
180.0
 73
     0
 72
     1
 10
113.7166196439709
 20
608.5624830305451
 11
113.7166196439709
 21
610.6634369071863
 72
     2
 10
113.9328943077428
 20
610.6634369071863
 40
0.2162746637719124
 50
180.0
 51
269.9999999999848
 73
     0
 97
        1
330
31833284
 92
        1
 93
       22
 72
     1
 10
132.7144172590815
 20
606.5645742916906
 11
136.9853746117553
 21
606.5645742916906
 72
     2
 10
136.9853746117551
 20
606.3839295698253
 40
0.180644721865292
 50
270.000000000018
 51
360.0000000000361
 73
     0
 72
     1
 10
137.1660193336206
 20
606.3839295698253
 11
137.1660193336206
 21
601.9194243008672
 72
     2
 10
137.9402109987578
 20
601.9194243008672
 40
0.7741916651372664
 50
180.0
 51
360.0
 73
     1
 72
     1
 10
138.714402663895
 20
601.9194243008672
 11
138.714402663895
 21
606.3839295698253
 72
     2
 10
138.8950473857605
 20
606.3839295698253
 40
0.1806447218654057
 50
180.0
 51
270.0
 73
     0
 72
     1
 10
138.8950473857605
 20
606.5645742916906
 11
143.1660047384341
 21
606.5645742916906
 72
     2
 10
143.1660047384341
 20
607.3387659568278
 40
0.7741916651373231
 50
270.0
 51
450.0
 73
     1
 72
     1
 10
143.1660047384341
 20
608.1129576219653
 11
138.8950473857605
 21
608.1129576219653
 72
     2
 10
138.8950473857605
 20
608.2936023438304
 40
0.1806447218654057
 50
89.99999999998198
 51
179.9999999999639
 73
     0
 72
     1
 10
138.714402663895
 20
608.2936023438303
 11
138.714402663895
 21
610.4566452705844
 72
     2
 10
138.8950473857605
 20
610.4566452705844
 40
0.1806447218653488
 50
180.0
 51
263.8776721144806
 73
     0
 72
     2
 10
130.7617421835016
 20
686.2822325288676
 40
76.07989773999107
 50
276.122327885524
 51
278.834530717579
 73
     1
 72
     2
 10
142.3272971012023
 20
611.86995325402
 40
0.7741916651372469
 50
278.8345307175777
 51
458.8345307175776
 73
     1
 72
     2
 10
130.7617421835024
 20
686.2822325288674
 40
74.53151440971625
 50
81.16546928242145
 51
87.87571083088888
 73
     0
 72
     2
 10
133.5531248963133
 20
611.0282788122495
 40
0.7741916651373396
 50
92.12428916911056
 51
272.1242891691108
 73
     1
 72
     2
 10
130.7617421835019
 20
686.2822325288703
 40
76.07989773999356
 50
272.1242891691114
 51
274.681121797401
 73
     1
 72
     2
 10
136.9853746117553
 20
610.2760700420365
 40
0.1806447218653397
 50
265.3188782026095
 51
360.0
 73
     0
 72
     1
 10
137.1660193336206
 20
610.2760700420365
 11
137.1660193336206
 21
608.2936023438303
 72
     2
 10
136.9853746117553
 20
608.2936023438303
 40
0.180644721865292
 50
360.0
 51
450.0
 73
     0
 72
     1
 10
136.9853746117553
 20
608.1129576219653
 11
132.7144172590815
 21
608.1129576219653
 72
     2
 10
132.7144172590815
 20
607.3387659568278
 40
0.7741916651372094
 50
90.0
 51
270.0
 73
     1
 97
        1
330
31833285
 92
        1
 93
        8
 72
     1
 10
147.4695535899516
 20
609.4032770638605
 11
147.4695535899516
 21
601.8678115231912
 72
     2
 10
146.7469747024902
 20
601.8678115231912
 40
0.7225788874614523
 50
360.0
 51
540.0
 73
     0
 72
     1
 10
146.0243958150288
 20
601.8678115231912
 11
146.0243958150288
 21
606.5946341034653
 72
     2
 10
145.9469766485151
 20
606.5946341034655
 40
0.0774191665136641
 50
359.9999999999158
 51
497.8965511292502
 73
     1
 72
     2
 10
145.3534297052433
 20
607.1310098229911
 40
0.7225788874614674
 50
42.10344887074749
 51
216.9530344301588
 73
     0
 72
     2
 10
136.1874861352817
 20
614.0262712196021
 40
10.7473448810434
 50
323.0469655698341
 51
350.0531909868996
 73
     1
 72
     2
 10
147.485000160573
 20
612.0450271398238
 40
0.7225788874613937
 50
189.9468090130963
 51
369.9468090130963
 73
     0
 72
     2
 10
136.187486135281
 20
614.0262712196023
 40
12.19250265596689
 50
9.946809013099882
 51
22.28209173268069
 73
     0
 97
        1
330
31833298
 92
        1
 93
       35
 72
     1
 10
153.6380753119544
 20
609.4032770638605
 11
156.1671014180696
 21
609.4032770638605
 72
     2
 10
156.1671014180696
 20
610.1774687289977
 40
0.7741916651373231
 50
270.0
 51
450.0
 73
     1
 72
     1
 10
156.1671014180696
 20
610.9516603941351
 11
153.4685911739635
 21
610.9516603941351
 72
     2
 10
153.4685911739635
 20
611.0548859494866
 40
0.1032255553515142
 50
89.99999999998422
 51
196.8043978906503
 73
     0
 72
     2
 10
152.6286420296525
 20
611.3085518986828
 40
0.7741916651372142
 50
343.1956021093288
 51
388.680955268528
 73
     1
 72
     1
 10
153.3078448200253
 20
611.6801111859005
 11
152.4790253207484
 21
612.7235182894871
 72
     2
 10
151.8728129386491
 20
612.2419798360303
 40
0.7741916651372709
 50
38.46150445227565
 51
218.4615044522756
 73
     1
 72
     1
 10
151.2666005565498
 20
611.7604413825737
 11
151.6763028454884
 21
611.2446640884735
 72
     2
 10
151.5348532896655
 20
611.1323051160003
 40
0.1806447218651969
 50
321.5384955477007
 51
449.9999999999639
 73
     0
 72
     1
 10
151.5348532896656
 20
610.9516603941351
 11
149.1993764318346
 21
610.9516603941351
 72
     2
 10
149.1993764318346
 20
610.1774687289977
 40
0.7741916651373231
 50
90.0
 51
270.0
 73
     1
 72
     1
 10
149.1993764318346
 20
609.4032770638605
 11
151.7284025379494
 21
609.4032770638605
 72
     2
 10
151.7284025379494
 20
609.2226323419951
 40
0.1806447218654057
 50
270.0
 51
360.0
 73
     0
 72
     1
 10
151.9090472598148
 20
609.2226323419951
 11
151.9090472598148
 21
607.4677979010174
 72
     2
 10
151.7284025379494
 20
607.4677979010174
 40
0.1806447218654057
 50
360.0
 51
450.0
 73
     0
 72
     1
 10
151.7284025379494
 20
607.287153179152
 11
149.3284083760238
 21
607.287153179152
 72
     2
 10
149.3284083760238
 20
606.5129615140147
 40
0.7741916651373231
 50
90.0
 51
270.0
 73
     1
 72
     1
 10
149.3284083760238
 20
605.7387698488773
 11
151.7284025379494
 21
605.7387698488773
 72
     2
 10
151.7284025379495
 20
605.5581251270121
 40
0.1806447218654057
 50
269.9999999999819
 51
359.9999999999639
 73
     0
 72
     1
 10
151.9090472598148
 20
605.5581251270122
 11
151.9090472598148
 21
603.2871629092762
 72
     2
 10
151.7284025379494
 20
603.2871629092762
 40
0.1806447218654057
 50
360.0
 51
450.0
 73
     0
 72
     1
 10
151.7284025379494
 20
603.1065181874107
 11
148.9671189322933
 21
603.1065181874107
 72
     2
 10
148.9671189322933
 20
602.3323265222736
 40
0.7741916651372094
 50
90.0
 51
270.0
 73
     1
 72
     1
 10
148.9671189322933
 20
601.5581348571363
 11
156.3993589176108
 21
601.5581348571363
 72
     2
 10
156.3993589176108
 20
602.3323265222736
 40
0.7741916651372094
 50
270.0
 51
450.0
 73
     1
 72
     1
 10
156.3993589176108
 20
603.1065181874107
 11
153.6380753119544
 21
603.1065181874107
 72
     2
 10
153.6380753119545
 20
603.2871629092762
 40
0.1806447218654057
 50
90.00000000001803
 51
180.0
 73
     0
 72
     1
 10
153.4574305900893
 20
603.2871629092762
 11
153.4574305900893
 21
605.5581251270122
 72
     2
 10
153.6380753119544
 20
605.5581251270122
 40
0.180644721865292
 50
180.0
 51
270.0
 73
     0
 72
     1
 10
153.6380753119544
 20
605.7387698488773
 11
156.0380694738801
 21
605.7387698488773
 72
     2
 10
156.0380694738801
 20
606.5129615140147
 40
0.7741916651372094
 50
270.0
 51
450.0
 73
     1
 72
     1
 10
156.0380694738801
 20
607.287153179152
 11
153.6380753119544
 21
607.287153179152
 72
     2
 10
153.6380753119545
 20
607.4677979010171
 40
0.180644721865292
 50
90.00000000001803
 51
180.000000000036
 73
     0
 72
     1
 10
153.4574305900893
 20
607.4677979010174
 11
153.4574305900893
 21
609.2226323419951
 72
     2
 10
153.6380753119545
 20
609.2226323419952
 40
0.1806447218653488
 50
179.9999999999639
 51
269.9999999999819
 73
     0
 97
        1
330
31833297
 92
        1
 93
       15
 72
     1
 10
177.3795688750789
 20
610.6769191978258
 11
169.0229202724448
 21
610.5977092584643
 72
     2
 10
169.0155822924564
 20
611.3718661472262
 40
0.7741916651371597
 50
89.45692830627519
 51
269.4569283062751
 73
     0
 72
     1
 10
169.0082443124681
 20
612.1460230359883
 11
177.8881940681135
 21
612.2301931758521
 72
     2
 10
179.131675870348
 20
612.5746888502003
 40
1.290319441895347
 50
164.5150768139665
 51
446.7188024496401
 73
     0
 72
     2
 10
178.1768503299113
 20
611.2006273300637
 40
1.03225555351884
 50
355.2289392455933
 51
360.0000000000188
 73
     0
 72
     1
 10
179.2091058834301
 20
611.2006273300634
 11
179.2091058834301
 21
610.6942607808431
 72
     2
 10
163.5528973158934
 20
611.4684872239173
 40
15.67534029280901
 50
2.831068584468931
 51
18.13257172327462
 73
     0
 72
     2
 10
176.9782949534318
 20
607.0719418419797
 40
1.548383330268974
 50
18.13257172329471
 51
25.77377377814775
 73
     0
 72
     2
 10
170.6356829648465
 20
610.1344993737734
 40
8.591676982623184
 50
25.7737737781569
 51
46.961303323272
 73
     0
 72
     2
 10
169.177664664199
 20
612.3229667069
 40
11.19448153122146
 50
49.15221128013691
 51
82.35478209661343
 73
     0
 72
     2
 10
170.5639656227309
 20
601.9953043118761
 40
0.7741916651372365
 50
82.35478209661145
 51
262.3547820966114
 73
     0
 72
     2
 10
169.1776646641989
 20
612.3229667069002
 40
9.646098200947127
 50
277.6452179033865
 51
310.6697278263855
 73
     1
 72
     2
 10
170.6356829648468
 20
610.1344993737733
 40
7.043293652348483
 50
313.2765557096145
 51
334.2262262218371
 73
     1
 72
     2
 10
163.5528973158965
 20
611.4684872239167
 40
14.12695696253152
 50
341.8674282767273
 51
355.6596123200718
 73
     1
 72
     2
 10
177.3820148684083
 20
610.4188669015717
 40
0.2580638883791418
 50
355.6596123200546
 51
450.5430716937162
 73
     1
 97
        1
330
31833287
 92
        1
 93
        4
 72
     2
 10
181.882184969069
 20
612.2419798360303
 40
0.7741916651372094
 50
180.0
 51
360.0
 73
     0
 72
     1
 10
182.6563766342063
 20
612.2419798360303
 11
182.6563766342063
 21
606.5645742916906
 72
     2
 10
181.882184969069
 20
606.5645742916906
 40
0.7741916651372094
 50
360.0
 51
540.0
 73
     0
 72
     1
 10
181.1079933039319
 20
606.5645742916906
 11
181.1079933039319
 21
612.2419798360303
 97
        1
330
31833288
 92
        1
 93
        8
 72
     1
 10
191.2757105060678
 20
612.2419798360303
 11
191.2757105060678
 21
606.9074604118765
 72
     2
 10
185.9404620797146
 20
607.3440713323492
 40
5.35308367829042
 50
4.67838429357078
 51
60.61116887564995
 73
     0
 72
     2
 10
183.356910095214
 20
610.746911153657
 40
9.603449162566839
 50
57.1416054564804
 51
86.16984452783805
 73
     0
 72
     2
 10
183.9466960761018
 20
601.93737425024
 40
0.7741916651371951
 50
86.16984452783546
 51
266.1698445278348
 73
     0
 72
     2
 10
183.3569100952132
 20
610.746911153657
 40
8.055065832292607
 50
273.8301554721674
 51
303.2058183250351
 73
     1
 72
     2
 10
185.9404620797148
 20
607.3440713323492
 40
3.804700348015794
 50
298.7117396778155
 51
354.4500787022754
 73
     1
 72
     1
 10
189.7273271757932
 20
606.9761073636052
 11
189.7273271757932
 21
612.2419798360303
 72
     2
 10
190.5015188409306
 20
612.2419798360303
 40
0.7741916651372664
 50
180.0
 51
360.0
 73
     0
 97
        1
330
31833289
 92
        1
 93
        4
 72
     2
 10
179.6916294605806
 20
578.9438124539437
 40
36.04571933727486
 50
292.2793779041676
 51
297.6775903109913
 73
     0
 72
     2
 10
196.0751028373809
 20
610.1794085654002
 40
0.7741916651372093
 50
297.6775903109906
 51
477.6775903109867
 73
     0
 72
     2
 10
179.6916294605784
 20
578.9438124539429
 40
34.49733600700185
 50
62.3224096890053
 51
67.72062209582904
 73
     1
 72
     2
 10
193.0638814408596
 20
611.5821877398291
 40
0.7741916651372197
 50
112.2793779041679
 51
292.2793779041711
 73
     0
 97
        1
330
3183328A
 92
        1
 93
        4
 72
     2
 10
192.5584333950088
 20
602.466964468487
 40
0.77419166513732
 50
85.68345463735786
 51
265.6834546373578
 73
     0
 72
     2
 10
191.7552147214261
 20
613.1083302844521
 40
9.897444885400824
 50
274.3165453626418
 51
345.476834384037
 73
     1
 72
     2
 10
202.0858533036745
 20
610.4321888177611
 40
0.7741916651372049
 50
194.523165615961
 51
374.5231656159611
 73
     0
 72
     2
 10
191.755214721426
 20
613.108330284452
 40
11.44582821567537
 50
14.52316561596187
 51
85.68345463735708
 73
     0
 97
        1
330
3183328B
 92
        1
 93
       14
 72
     2
 10
203.9153416494848
 20
611.694834777553
 40
9.166767024637561
 50
44.43529403939679
 51
79.12073388346779
 73
     0
 72
     2
 10
205.7915990352432
 20
601.9325441706207
 40
0.7741916651372554
 50
100.8792661165292
 51
280.8792661165293
 73
     1
 72
     2
 10
203.9153416494844
 20
611.6948347775533
 40
10.71515035491237
 50
280.8792661165333
 51
315.6092198911108
 73
     1
 72
     2
 10
203.7975069257759
 20
611.6713393805696
 40
10.78337363134771
 50
316.1364203100123
 51
355.6521717581451
 73
     1
 72
     2
 10
213.2632419738512
 20
610.9516603941349
 40
1.290319441895471
 50
355.6521717581441
 51
449.9999999999974
 73
     1
 72
     1
 10
213.2632419738513
 20
612.2419798360303
 11
207.5117894622568
 21
612.2419798360303
 72
     2
 10
207.511789462257
 20
611.2097242825142
 40
1.032255553516278
 50
90.00000000001262
 51
152.8690468028237
 73
     1
 72
     2
 10
201.5618261269016
 20
614.2585315784854
 40
5.653347607010026
 50
27.13095319719201
 51
62.78558091782568
 73
     0
 72
     2
 10
204.5012795933477
 20
608.5425124730593
 40
0.7741916651372789
 50
117.2144190821772
 51
297.2144190821773
 73
     1
 72
     2
 10
201.5618261269016
 20
614.2585315784852
 40
7.201730937284436
 50
297.2144190821765
 51
328.0768204089637
 73
     1
 72
     2
 10
208.1124191648225
 20
610.1774687289977
 40
0.5161277767581712
 50
211.9231795910124
 51
269.9999999999841
 73
     0
 72
     1
 10
208.1124191648223
 20
610.693596505756
 11
212.3874379030467
 21
610.693596505756
 72
     2
 10
212.3874379030466
 20
610.1774687289977
 40
0.5161277767581396
 50
270.000000000003
 51
369.8656102025575
 73
     0
 72
     2
 10
203.7975069257755
 20
611.6713393805694
 40
9.234990301073432
 50
9.865610202550943
 51
43.81937100197804
 73
     0
 97
        1
330
3183328C
 92
        1
 93
       11
 72
     2
 10
220.2303074150728
 20
608.3349095998912
 40
6.512784616994936
 50
1.952985583144829
 51
70.98548319695922
 73
     0
 72
     2
 10
217.6413838519974
 20
616.1199762677628
 40
14.71682634675851
 50
71.3310978399981
 51
88.66945227344725
 73
     0
 72
     2
 10
217.9651367301455
 20
602.1811009207687
 40
0.7741916651373319
 50
88.66945227343967
 51
268.6694522734394
 73
     0
 72
     2
 10
217.6413838519979
 20
616.1199762677636
 40
13.16844301648475
 50
271.3305477265499
 51
288.6477690067384
 73
     1
 72
     2
 10
220.2303074150726
 20
608.3349095998909
 40
4.9644012867204
 50
289.0662562538116
 51
350.3404504136948
 73
     1
 72
     2
 10
224.8699191888487
 20
607.5452170675308
 40
0.258063888379085
 50
350.34045041372
 51
450.0000000000126
 73
     1
 72
     1
 10
224.8699191888487
 20
607.80328095591
 11
216.1586895114918
 21
607.80328095591
 72
     2
 10
216.1586895114918
 20
608.5774726210473
 40
0.7741916651373231
 50
90.0
 51
270.0
 73
     0
 72
     1
 10
216.1586895114918
 20
609.3516642861848
 11
225.7070533815178
 21
609.3516642861848
 72
     2
 10
225.7070533815179
 20
608.3194087326681
 40
1.032255553516392
 50
269.9999999999968
 51
359.9999999999937
 73
     0
 72
     1
 10
226.7393089350342
 20
608.3194087326684
 11
226.7393089350342
 21
608.1129576219653
 97
        1
330
3183328D
 92
        1
 93
        4
 72
     1
 10
224.9328617163806
 20
612.345205391382
 11
217.1909450650083
 21
612.345205391382
 72
     2
 10
217.1909450650083
 20
611.5710137262446
 40
0.7741916651373231
 50
90.0
 51
270.0
 73
     1
 72
     1
 10
217.1909450650083
 20
610.7968220611073
 11
224.9328617163806
 21
610.7968220611073
 72
     2
 10
224.9328617163806
 20
611.5710137262446
 40
0.7741916651372094
 50
270.0
 51
450.0
 73
     1
 97
        1
330
3183328E
 92
        1
 93
        4
 72
     2
 10
228.4158703484759
 20
607.0807020684486
 40
0.7741916651373231
 50
90.0
 51
270.0
 73
     1
 72
     1
 10
228.4158703484759
 20
606.3065104033114
 11
238.7384258836391
 21
606.3065104033114
 72
     2
 10
238.7384258836391
 20
607.0807020684486
 40
0.7741916651372094
 50
270.0
 51
450.0
 73
     1
 72
     1
 10
238.7384258836391
 20
607.854893733586
 11
228.4158703484759
 21
607.854893733586
 97
        1
330
3183328F
 92
        1
 93
       53
 72
     1
 10
251.2047659691015
 20
607.287153179152
 11
248.804771807176
 21
607.287153179152
 72
     2
 10
265.0192422044343
 20
616.0381963144557
 40
18.42524914945548
 50
208.355992291411
 51
225.3643482129411
 73
     1
 72
     2
 10
251.5660554128323
 20
602.4128125150316
 40
0.7225788874614488
 50
314.6356517870549
 51
494.6356517870548
 73
     0
 72
     2
 10
265.0192422044349
 20
616.038196314456
 40
19.87040692437921
 50
134.635651787059
 51
144.687449137669
 73
     0
 72
     1
 10
248.804771807176
 20
604.5523780555408
 11
248.804771807176
 21
601.8678115231912
 72
     2
 10
248.0821929197145
 20
601.8678115231912
 40
0.7225788874613956
 50
360.0
 51
540.0
 73
     0
 72
     1
 10
247.3596140322531
 20
601.8678115231912
 11
247.3596140322531
 21
604.5523780555408
 72
     2
 10
231.1451436349952
 20
616.0381963144564
 40
19.87040692437854
 50
35.31255086233293
 51
45.48745038578256
 73
     0
 72
     2
 10
244.569024739696
 20
602.3839392999494
 40
0.7225788874612932
 50
45.48745038577972
 51
225.4874503857796
 73
     0
 72
     2
 10
231.1451436349945
 20
616.0381963144552
 40
18.42524914945564
 50
314.5125496142207
 51
331.6440077085903
 73
     1
 72
     1
 10
247.3596140322531
 20
607.287153179152
 11
245.3209093140584
 21
607.287153179152
 72
     2
 10
245.3209093140584
 20
608.0097320666132
 40
0.7225788874613956
 50
90.0
 51
270.0
 73
     0
 72
     1
 10
245.3209093140584
 20
608.7323109540748
 11
247.3596140322531
 21
608.7323109540748
 72
     1
 10
247.3596140322531
 20
608.7323109540748
 11
247.3596140322531
 21
609.8677920629427
 72
     1
 10
247.3596140322531
 20
609.8677920629427
 11
245.8112307019788
 21
609.8677920629429
 72
     2
 10
237.5893152182236
 20
613.6189350118797
 40
9.037199104001807
 50
24.52423153182564
 51
28.01954061966629
 73
     0
 72
     2
 10
244.9293574231599
 20
609.7129537299154
 40
0.7225788874614569
 50
28.01954061966294
 51
166.4795610696866
 73
     0
 72
     2
 10
243.798332372622
 20
610.1258559513214
 40
0.7225788874610606
 50
53.63158366668915
 51
89.99999999999323
 73
     0
 72
     1
 10
243.798332372622
 20
609.4032770638605
 11
243.3499550932516
 21
609.4032770638605
 72
     2
 10
243.3499550932513
 20
609.3258578973468
 40
0.0774191665135504
 50
89.99999999976862
 51
204.2440804458701
 73
     1
 72
     2
 10
260.7447547785521
 20
617.1594820652731
 40
19.15475450707042
 50
204.2440804465094
 51
213.9853002248274
 73
     1
 72
     2
 10
244.2628473684118
 20
606.0484465149325
 40
0.7225788874615088
 50
326.0146997751733
 51
506.0146997751806
 73
     0
 72
     2
 10
260.7447547785503
 20
617.1594820652702
 40
20.5999122819903
 50
146.014699775176
 51
147.4879307467903
 73
     0
 72
     2
 10
243.3080109847017
 20
606.0458867109769
 40
0.0774191665137027
 50
32.51206925322321
 51
179.9999999999158
 73
     1
 72
     1
 10
243.230591818188
 20
606.045886710977
 11
243.230591818188
 21
601.8678115231912
 72
     2
 10
242.5080129307265
 20
601.8678115231912
 40
0.7225788874614523
 50
360.0
 51
540.0
 73
     0
 72
     1
 10
241.785434043265
 20
601.8678115231912
 11
241.785434043265
 21
605.0710710643173
 72
     2
 10
241.7080148767514
 20
605.0710710643174
 40
0.0774191665136925
 50
359.9999999999158
 51
516.2910909798279
 73
     1
 72
     2
 10
238.4549403513172
 20
606.3543702388212
 40
3.419686994316628
 50
21.47929642627254
 51
33.16667395485922
 73
     0
 72
     2
 10
240.7015657120729
 20
604.8613547546787
 40
0.7225788874613778
 50
31.52494793503902
 51
215.8918837167139
 73
     0
 72
     2
 10
228.5617009590129
 20
612.3657264742335
 40
13.55150261751685
 50
328.4994362659306
 51
346.9613336964129
 73
     1
 72
     2
 10
241.6883960449762
 20
609.3258578973467
 40
0.0774191665137655
 50
346.9613336963433
 51
449.9999999999788
 73
     1
 72
     1
 10
241.6883960449762
 20
609.4032770638605
 11
240.8564040451003
 21
609.4032770638605
 72
     2
 10
240.8564040451003
 20
610.1258559513219
 40
0.7225788874613956
 50
90.0
 51
270.0
 73
     0
 72
     1
 10
240.8564040451003
 20
610.8484348387833
 11
241.785434043265
 21
610.8484348387833
 72
     1
 10
241.785434043265
 20
610.8484348387833
 11
241.785434043265
 21
612.2935926137061
 72
     2
 10
242.5080129307265
 20
612.2935926137061
 40
0.7225788874614523
 50
180.0
 51
360.0
 73
     0
 72
     1
 10
243.230591818188
 20
612.2935926137061
 11
243.230591818188
 21
610.8484348387833
 72
     1
 10
243.230591818188
 20
610.8484348387833
 11
243.798332372622
 21
610.8484348387833
 72
     2
 10
243.798332372622
 20
610.1258559513221
 40
0.7225788874612819
 50
270.0000000000088
 51
337.5375207416507
 73
     0
 72
     2
 10
237.5893152182196
 20
613.6189350118828
 40
7.592041329083748
 50
334.9295166386156
 51
349.0217472925306
 73
     1
 72
     2
 10
245.751774031413
 20
612.0355287253271
 40
0.722578887461361
 50
190.9782527074639
 51
370.978252707464
 73
     0
 72
     2
 10
237.5893152182217
 20
613.6189350118818
 40
9.037199104004258
 50
10.97825270746455
 51
14.78341658427778
 73
     0
 72
     1
 10
246.3273584787368
 20
611.3129498378657
 11
247.3596140322531
 21
611.3129498378657
 72
     1
 10
247.3596140322531
 20
611.3129498378657
 11
247.3596140322531
 21
612.2935926137061
 72
     2
 10
248.0821929197145
 20
612.2935926137061
 40
0.7225788874613956
 50
180.0
 51
360.0
 73
     0
 72
     1
 10
248.804771807176
 20
612.2935926137061
 11
248.804771807176
 21
611.3129498378657
 72
     1
 10
248.804771807176
 20
611.3129498378657
 11
251.0499276360739
 21
611.3129498378657
 72
     2
 10
251.0499276360739
 20
610.5903709504042
 40
0.7225788874613956
 50
270.0
 51
450.0
 73
     0
 72
     1
 10
251.0499276360739
 20
609.8677920629427
 11
248.804771807176
 21
609.8677920629427
 72
     1
 10
248.804771807176
 20
609.8677920629427
 11
248.804771807176
 21
608.7323109540748
 72
     1
 10
248.804771807176
 20
608.7323109540748
 11
251.2047659691015
 21
608.7323109540748
 72
     2
 10
251.2047659691015
 20
608.0097320666132
 40
0.7225788874615092
 50
270.0
 51
450.0
 73
     0
 97
        1
330
31833290
 92
       17
 93
       18
 72
     1
 10
253.9605596737143
 20
601.7493879457401
 11
258.8875245447399
 21
602.7499232213677
 72
     2
 10
258.5623798923666
 20
603.4496835595327
 40
0.7716110262534217
 50
294.9220052137741
 51
464.7637627083309
 73
     1
 72
     1
 10
258.3657469908505
 20
604.1958196582959
 11
257.7797974824564
 21
604.0414015137128
 72
     2
 10
257.6537507507154
 20
604.5196938847147
 40
0.4946224527266198
 50
75.2362372916739
 51
180.0
 73
     0
 72
     1
 10
257.1591282979889
 20
604.5196938847147
 11
257.1591282979886
 21
606.6718041110743
 72
     2
 10
257.6537507507154
 20
606.6718041110743
 40
0.4946224527266169
 50
180.000000000013
 51
269.2527061231796
 73
     0
 72
     1
 10
257.6472997022485
 20
607.1663844935351
 11
258.3813912545684
 21
607.1759596007392
 72
     2
 10
258.3719671141995
 20
607.8984770290296
 40
0.7225788874614949
 50
270.7472938768249
 51
450.7472938768251
 73
     1
 72
     1
 10
258.3625429738305
 20
608.6209944573198
 11
253.7676464284321
 21
608.5610610241189
 72
     2
 10
253.7773230011325
 20
607.8191904504282
 40
0.7419336790897779
 50
90.74729387682262
 51
252.1576573741645
 73
     1
 72
     1
 10
253.5499953658796
 20
607.1129413934957
 11
255.1096714665209
 21
607.1332849948082
 72
     2
 10
255.1161225149878
 20
606.6387046123476
 40
0.4946224527265571
 50
269.2527061231729
 51
360.0
 73
     0
 72
     1
 10
255.6107449677142
 20
606.6387046123476
 11
255.6107449677142
 21
603.9847366861208
 72
     2
 10
255.1161225149878
 20
603.9847366861206
 40
0.49462245272656
 50
359.9999999999868
 51
441.4726877161698
 73
     0
 72
     1
 10
255.1894655515086
 20
603.495582140261
 11
253.6925852113235
 21
603.2711423381845
 72
     2
 10
253.807000348296
 20
602.5080612466434
 40
0.7716110262533399
 50
98.52731228381886
 51
180.0
 73
     1
 72
     1
 10
253.0353893220427
 20
602.5080612466434
 11
253.0353893220427
 21
602.505564584769
 72
     2
 10
253.807000348296
 20
602.505564584769
 40
0.7716110262534244
 50
180.0
 51
281.4791494176408
 73
     1
 97
        1
330
31833292
 92
        1
 93
       35
 72
     2
 10
262.3223607349455
 20
611.3825455736806
 40
0.0516127776757643
 50
270.7472938768348
 51
425.3037560024904
 73
     1
 72
     2
 10
264.3235663014875
 20
615.7342299446203
 40
4.738165983795355
 50
114.6962439975605
 51
124.7447906906945
 73
     0
 72
     2
 10
261.9908717551834
 20
612.3710117802199
 40
0.6451597209477212
 50
124.7447906906983
 51
304.7447906906983
 73
     0
 72
     2
 10
264.3235663014879
 20
615.7342299446209
 40
3.447846541900605
 50
235.2552093093068
 51
254.4100633419994
 73
     1
 72
     2
 10
263.223568215726
 20
611.791806263808
 40
0.6451597209476259
 50
285.5899366580104
 51
394.0341302999878
 73
     0
 72
     2
 10
263.8009865968148
 20
611.4018319979658
 40
0.0516127776758978
 50
145.965869700077
 51
270.7472938767685
 73
     1
 72
     1
 10
263.8016597496981
 20
611.3502236102307
 11
263.9618561987729
 21
611.3523131291317
 72
     2
 10
263.9719534920254
 20
610.5781873131062
 40
0.7741916651372584
 50
269.2527061231785
 51
449.2527061231784
 73
     0
 72
     1
 10
263.9820507852779
 20
609.8040614970812
 11
261.3265282782037
 21
609.7694242469887
 72
     2
 10
261.3298940426211
 20
609.5113823083136
 40
0.2580638883790482
 50
90.74729387682156
 51
186.8667955861607
 73
     1
 72
     2
 10
295.0137655271798
 20
613.5677734749284
 40
34.1853023183613
 50
186.8667955861629
 51
193.2804591616724
 73
     1
 72
     2
 10
271.223548755477
 20
609.1452131754817
 40
10.08239894342999
 50
199.8913601546187
 51
213.779530564305
 73
     1
 72
     2
 10
262.9719275772612
 20
603.6255023493207
 40
0.1548383330273805
 50
213.7795305642428
 51
347.3542134403399
 73
     1
 72
     2
 10
251.5603463803155
 20
606.1858696021808
 40
11.85012224937602
 50
347.3542134403436
 51
354.3353366174935
 73
     1
 72
     2
 10
264.1267918250529
 20
605.0161909614161
 40
0.7741916651372094
 50
180.0
 51
360.0
 73
     0
 72
     1
 10
264.90098349019
 20
605.0161909614161
 11
264.90098349019
 21
604.4277067105801
 72
     2
 10
255.6562762268911
 20
605.3262227708394
 40
9.28826913340881
 50
5.551283092637619
 51
16.2380835267558
 73
     0
 72
     2
 10
261.7749479101814
 20
603.5862974502166
 40
2.927428527346556
 50
17.02967716515853
 51
20.89995805450743
 73
     0
 72
     2
 10
262.3076836349881
 20
603.2887756908443
 40
2.325269153935812
 50
18.73355423004362
 51
44.47925821960585
 73
     0
 72
     2
 10
263.3451170539514
 20
602.1909183484368
 40
0.8177916701766131
 50
40.52134616042514
 51
107.8431040350132
 73
     0
 72
     2
 10
263.849354606723
 20
604.6430819196371
 40
3.317626910586343
 50
103.1509632605595
 51
120.7464615745545
 73
     0
 72
     2
 10
262.9448464999871
 20
603.1225267804451
 40
1.548383330274743
 50
120.7464615745483
 51
147.7173278579019
 73
     0
 72
     2
 10
272.1890969144908
 20
608.9625870361722
 40
12.48284580067427
 50
147.7173278579103
 51
161.9763825330148
 73
     0
 72
     2
 10
271.2235487554842
 20
609.1452131754826
 40
11.63078227371149
 50
159.6485284184453
 51
160.5599651718289
 73
     0
 72
     2
 10
295.01376552718
 20
613.5677734749292
 40
35.73368564863592
 50
166.5797056495734
 51
173.4854501599819
 73
     0
 72
     2
 10
259.2544119628106
 20
609.4843108029246
 40
0.2580638883790736
 50
6.51454984004374
 51
90.7472938768468
 73
     1
 72
     1
 10
259.251046198393
 20
609.7423527415997
 11
253.814333583142
 21
609.6714390987922
 72
     2
 10
253.8042362898896
 20
610.4455649148176
 40
0.7741916651372592
 50
89.25270612317435
 51
269.2527061231743
 73
     0
 72
     1
 10
253.794138996637
 20
611.219690730843
 11
259.0781446453912
 21
611.2886125436526
 72
     2
 10
259.0747788809737
 20
611.5466544823277
 40
0.2580638883790489
 50
270.747293876834
 51
364.2803464377843
 73
     1
 72
     1
 10
259.3321229760106
 20
611.5659155112437
 11
259.2858474521743
 21
612.1841967492827
 72
     2
 10
260.0578797372854
 20
612.2419798360306
 40
0.7741916651372259
 50
175.7196535622243
 51
355.7196535622328
 73
     0
 72
     1
 10
260.8299120223965
 20
612.2997629227782
 11
260.8857012116828
 21
611.5543708415738
 72
     2
 10
261.1430453067197
 20
611.5736318704897
 40
0.2580638883789458
 50
184.2803464377861
 51
270.7472938768344
 73
     1
 72
     1
 10
261.1464110711373
 20
611.3155899318147
 11
262.323033887829
 21
611.3309371859457
 97
        1
330
31833291
 92
        1
 93
       22
 72
     2
 10
276.592774341618
 20
601.9194243008671
 40
0.7741916651371987
 50
324.2455986461109
 51
504.2455986461042
 73
     0
 72
     2
 10
267.2650719674219
 20
595.2033515082296
 40
10.71979221068189
 50
35.75440135389841
 51
40.77907381779755
 73
     1
 72
     2
 10
275.2652106015444
 20
602.103788615528
 40
0.1548383330276135
 50
40.77907381774929
 51
93.6913859864005
 73
     1
 72
     1
 10
275.2552417569428
 20
602.2583057068548
 11
267.0951987534032
 21
601.7318513195296
 72
     2
 10
267.0453545303946
 20
602.5044367761624
 40
0.7741916651372504
 50
86.30861401354952
 51
266.3086140135495
 73
     0
 72
     1
 10
266.995510307386
 20
603.2770222327954
 11
267.9818448467897
 21
603.3406567192083
 72
     2
 10
267.9718760021879
 20
603.4951738105348
 40
0.1548383330273849
 50
273.6913859864687
 51
337.2702679200688
 73
     1
 72
     1
 10
268.1146892356699
 20
603.4353466451574
 11
269.0199381989061
 21
605.5962635251407
 72
     2
 10
268.8771249654241
 20
605.6560906905182
 40
0.1548383330274336
 50
337.270267920077
 51
450.0000000000209
 73
     1
 72
     1
 10
268.877124965424
 20
605.8109290235456
 11
266.5292267536364
 21
605.8109290235456
 72
     2
 10
266.5292267536364
 20
606.5851206886827
 40
0.7741916651372094
 50
90.0
 51
270.0
 73
     0
 72
     1
 10
266.5292267536364
 20
607.35931235382
 11
276.3356545120415
 21
607.35931235382
 72
     2
 10
276.3356545120415
 20
606.5851206886827
 40
0.7741916651372094
 50
270.0
 51
450.0
 73
     0
 72
     1
 10
276.3356545120415
 20
605.8109290235456
 11
270.8740768759893
 21
605.8109290235456
 72
     2
 10
270.8740768759893
 20
605.6560906905182
 40
0.1548383330273282
 50
90.00000000002101
 51
158.9993499433911
 73
     1
 72
     1
 10
270.7295234685715
 20
605.7115814264891
 11
269.9526330606131
 21
603.687781350754
 72
     2
 10
270.0971864680311
 20
603.6322906147828
 40
0.1548383330275999
 50
158.999349943335
 51
273.6913859864661
 73
     1
 72
     1
 10
270.107155312633
 20
603.4777735234562
 11
273.6431982991581
 21
603.7059053290387
 72
     2
 10
273.6398753509575
 20
603.7574110261475
 40
0.0516127776757925
 50
273.6913859864269
 51
413.3051504477283
 73
     1
 72
     2
 10
267.2650719674155
 20
595.2033515082336
 40
10.71979221068274
 50
53.30515044767778
 51
53.98205344655721
 73
     1
 72
     2
 10
274.0239784871896
 20
604.5000631846578
 40
0.7741916651372139
 50
126.0179465534102
 51
306.0179465534103
 73
     0
 72
     2
 10
267.2650719674214
 20
595.2033515082307
 40
12.26817554095602
 50
306.0179465534078
 51
324.2455986461076
 73
     0
 97
        1
330
31833294
 92
        1
 93
       12
 72
     2
 10
258.0435862394281
 20
628.6772924280747
 40
20.42447937900951
 50
292.8374195160417
 51
309.1951240259333
 73
     1
 72
     2
 10
271.4324406328389
 20
612.2419798360303
 40
0.7741916651372327
 50
231.5580096528811
 51
308.4419903471186
 73
     0
 72
     2
 10
284.8212950262495
 20
628.677292428076
 40
20.42447937901046
 50
230.8048759740694
 51
247.1625804839609
 73
     1
 72
     2
 10
276.5937184004207
 20
609.1403879418452
 40
0.7741916651372001
 50
292.8374195160401
 51
465.4499948569625
 73
     0
 72
     2
 10
285.1121485432415
 20
628.4481281103015
 40
21.86963715393387
 50
113.5119284300983
 51
117.5690916262119
 73
     0
 72
     2
 10
274.9666016264229
 20
609.0159620878855
 40
0.0516127776758959
 50
62.43090837383998
 51
176.767041522754
 73
     1
 72
     2
 10
274.1421114608194
 20
609.0625340171221
 40
0.7741916651372403
 50
3.232958477211996
 51
90.00000000000419
 73
     0
 72
     1
 10
274.1421114608193
 20
608.2883423519847
 11
268.7227698048586
 21
608.2883423519847
 72
     2
 10
268.7227698048586
 20
609.0625340171221
 40
0.7741916651372094
 50
89.9999999999958
 51
176.767041522788
 73
     0
 72
     2
 10
267.8982796392551
 20
609.0159620878855
 40
0.0516127776757508
 50
3.23295847712337
 51
117.5690916261625
 73
     1
 72
     2
 10
257.7527327224367
 20
628.4481281103012
 40
21.86963715393363
 50
62.4309083737879
 51
66.48807156990158
 73
     0
 72
     2
 10
266.2711628652575
 20
609.1403879418452
 40
0.7741916651371624
 50
74.55000514304342
 51
247.1625804839597
 73
     0
 97
        1
330
31833293
 92
       16
 93
        6
 72
     1
 10
271.4002322630948
 20
611.3593368852779
 11
269.3904039645427
 21
609.9320368028637
 72
     1
 10
269.3904039645427
 20
609.9320368028637
 11
269.4178690996183
 21
609.8367256822593
 72
     1
 10
269.4178690996183
 20
609.8367256822593
 11
273.4470121660598
 21
609.8367256822593
 72
     1
 10
273.4470121660598
 20
609.8367256822593
 11
273.474477301135
 21
609.9320368028637
 72
     1
 10
273.474477301135
 20
609.9320368028637
 11
271.4646490025831
 21
611.3593368852779
 72
     1
 10
271.4646490025831
 20
611.3593368852779
 11
271.4002322630948
 21
611.3593368852779
 97
        1
330
31833295
 92
        1
 93
       46
 72
     2
 10
281.0606644360368
 20
612.2419798360303
 40
0.7741916651371527
 50
180.0
 51
360.0
 73
     0
 72
     1
 10
281.8348561011738
 20
612.2419798360303
 11
281.8348561011738
 21
611.0290795606487
 72
     2
 10
281.9896944342015
 20
611.0290795606487
 40
0.1548383330275556
 50
180.000000000042
 51
270.000000000042
 73
     1
 72
     1
 10
281.9896944342016
 20
610.8742412276212
 11
283.3619873132885
 21
610.8742412276212
 72
     2
 10
283.3619873132885
 20
610.3581134508631
 40
0.5161277767581396
 50
270.0
 51
359.6204581346191
 73
     0
 72
     2
 10
284.4619207334013
 20
609.8530734584564
 40
0.7741916651372299
 50
221.0533172235575
 51
270.0
 73
     0
 72
     1
 10
284.4619207334013
 20
610.6272651235935
 11
285.525169704995
 21
610.6272651235935
 72
     2
 10
285.525169704995
 20
610.7821034566211
 40
0.1548383330274419
 50
270.0
 51
360.0
 73
     1
 72
     1
 10
285.6800080380224
 20
610.7821034566211
 11
285.6800080380224
 21
612.2419798360303
 72
     2
 10
286.4541997031596
 20
612.2419798360303
 40
0.7741916651371527
 50
180.0
 51
360.0
 73
     0
 72
     1
 10
287.2283913682966
 20
612.2419798360303
 11
287.2283913682966
 21
610.7821034566211
 72
     2
 10
287.3832297013241
 20
610.7821034566211
 40
0.1548383330274419
 50
180.0
 51
270.0
 73
     1
 72
     1
 10
287.3832297013241
 20
610.6272651235935
 11
288.9316130315987
 21
610.6272651235935
 72
     2
 10
288.9316130315987
 20
609.8530734584564
 40
0.7741916651372094
 50
270.0
 51
450.0
 73
     0
 72
     1
 10
288.9316130315987
 20
609.0788817933193
 11
287.3832297013241
 21
609.0788817933193
 72
     2
 10
287.3832297013241
 20
608.9240434602917
 40
0.1548383330274419
 50
90.00000000002101
 51
180.000000000042
 73
     1
 72
     1
 10
287.2283913682966
 20
608.9240434602917
 11
287.2283913682966
 21
603.2613565204384
 72
     2
 10
287.3832297013241
 20
603.2613565204382
 40
0.1548383330274987
 50
179.9999999999579
 51
269.9999999999789
 73
     1
 72
     1
 10
287.3832297013241
 20
603.1065181874107
 11
289.1896769199778
 21
603.1065181874107
 72
     2
 10
289.1896769199778
 20
602.3323265222736
 40
0.7741916651372094
 50
270.0
 51
450.0
 73
     0
 72
     1
 10
289.1896769199778
 20
601.5581348571363
 11
283.3574330426106
 21
601.5581348571363
 72
     2
 10
283.3574330426106
 20
602.3323265222736
 40
0.7741916651372094
 50
90.0
 51
270.0
 73
     0
 72
     1
 10
283.3574330426106
 20
603.1065181874107
 11
285.525169704995
 21
603.1065181874107
 72
     2
 10
285.525169704995
 20
603.2613565204382
 40
0.1548383330274419
 50
270.000000000021
 51
360.000000000042
 73
     1
 72
     1
 10
285.6800080380224
 20
603.2613565204384
 11
285.6800080380224
 21
608.9240434602917
 72
     2
 10
285.525169704995
 20
608.9240434602917
 40
0.1548383330274987
 50
359.9999999999578
 51
449.9999999999788
 73
     1
 72
     1
 10
285.525169704995
 20
609.0788817933193
 11
284.4619207334013
 21
609.0788817933193
 72
     2
 10
284.4619207334013
 20
609.8530734584564
 40
0.7741916651372094
 50
90.0
 51
178.7572795963296
 73
     0
 72
     2
 10
272.2795060380025
 20
615.351348457765
 40
12.67152933537443
 50
25.80011007782262
 51
36.3430321522644
 73
     0
 72
     1
 10
282.4862128473283
 20
607.8419682033286
 11
284.6166808476114
 21
606.2721496768041
 72
     2
 10
284.1574310965857
 20
605.6488821575551
 40
0.7741916651371748
 50
306.3843518158368
 51
486.3843518158319
 73
     0
 72
     1
 10
283.6981813455602
 20
605.025614638306
 11
282.0815443844066
 21
606.2168208202088
 72
     2
 10
281.9896944342013
 20
606.0921673163589
 40
0.1548383330274417
 50
53.61564818415963
 51
180.000000000042
 73
     1
 72
     1
 10
281.8348561011738
 20
606.0921673163587
 11
281.8348561011738
 21
601.9194243008672
 72
     2
 10
281.0606644360368
 20
601.9194243008672
 40
0.7741916651371527
 50
360.0
 51
540.0
 73
     0
 72
     1
 10
280.2864727708996
 20
601.9194243008672
 11
280.2864727708996
 21
605.2093670361196
 72
     2
 10
280.1316344378722
 20
605.2093670361196
 40
0.154838333027385
 50
0.0
 51
127.7477654900945
 73
     1
 72
     2
 10
272.2795060379973
 20
615.3513484577704
 40
12.6715293353825
 50
52.25223450996121
 51
57.12148604690884
 73
     0
 72
     2
 10
278.738089440625
 20
605.3596847288843
 40
0.7741916651372327
 50
57.12148604689997
 51
237.1214860469045
 73
     0
 72
     2
 10
272.2795060379963
 20
615.3513484577691
 40
11.12314600510739
 50
302.8785139530977
 51
325.7037825309355
 73
     1
 72
     2
 10
281.3408143297495
 20
609.1710195643194
 40
0.1548383330274851
 50
325.7037825309157
 51
449.9999999999788
 73
     1
 72
     1
 10
281.3408143297496
 20
609.3258578973467
 11
278.996153329004
 21
609.3258578973467
 72
     2
 10
278.996153329004
 20
610.1000495624839
 40
0.7741916651372094
 50
90.0
 51
270.0
 73
     0
 72
     1
 10
278.996153329004
 20
610.8742412276212
 11
280.1316344378721
 21
610.8742412276212
 72
     2
 10
280.1316344378721
 20
611.0290795606487
 40
0.1548383330275556
 50
269.9999999999789
 51
359.9999999999578
 73
     1
 72
     1
 10
280.2864727708996
 20
611.0290795606487
 11
280.2864727708996
 21
612.2419798360303
 97
        1
330
31833296
 92
       16
 93
        1
 72
     2
 10
179.1316758703482
 20
612.5746888502002
 40
0.3870958325686231
 50
0.0
 51
360.0
 73
     1
 97
        1
330
31833299
 92
       33
 93
       16
 72
     2
 10
153.3797597135873
 20
615.3064885105322
 40
14.89875516665519
 50
291.0642306470733
 51
315.3513896006451
 73
     1
 72
     2
 10
164.1627766316567
 20
604.6549294691672
 40
0.2580638883791262
 50
224.6486103993539
 51
313.0250659891026
 73
     0
 72
     1
 10
164.3388583324566
 20
604.84358843431
 11
167.8017981258409
 21
601.6115112938178
 72
     2
 10
168.3300432282406
 20
602.1774881892461
 40
0.7741916651373435
 50
226.9749340108885
 51
406.9749340108828
 73
     1
 72
     1
 10
168.8582883306404
 20
602.7434650846746
 11
165.3351330532847
 21
606.0317433435397
 72
     2
 10
165.5112147540846
 20
606.2204023086824
 40
0.258063888379168
 50
133.0250659891117
 51
216.8320803032256
 73
     0
 72
     2
 10
153.3797597135932
 20
615.3064885105306
 40
14.89875516664956
 50
323.1679196967588
 51
324.0729534105738
 73
     1
 72
     2
 10
156.5865229126983
 20
612.6341858446068
 40
10.73775821432208
 50
325.5797402083242
 51
351.5603004662463
 73
     1
 72
     2
 10
166.1869234854361
 20
611.2097242825141
 40
1.032255553516482
 50
351.5603004662431
 51
450.0
 73
     1
 72
     1
 10
166.1869234854361
 20
612.2419798360303
 11
159.5087770625907
 21
612.2419798360303
 72
     2
 10
159.5087770625907
 20
611.4677881708932
 40
0.7741916651372094
 50
90.0
 51
270.0
 73
     1
 72
     1
 10
159.5087770625907
 20
610.693596505756
 11
165.2429794676485
 21
610.693596505756
 72
     2
 10
165.2429794676484
 20
610.4355326173767
 40
0.2580638883791835
 50
270.0000000000125
 51
374.251202076284
 73
     0
 72
     2
 10
156.5865229126986
 20
612.6341858446062
 40
9.189374884047163
 50
14.25120207629167
 51
34.29476563517253
 73
     0
 72
     2
 10
153.3797597135873
 20
615.3064885105322
 40
13.35037183638069
 50
36.01543627362461
 51
68.84797155758068
 73
     0
 72
     2
 10
158.4765215090745
 20
602.1335498365507
 40
0.7741916651371679
 50
111.1520284424168
 51
289.4628757958993
 73
     1
 97
        1
330
31833286
 75
     0
 76
     1
 52
315.0
 41
8.0
 77
     0
 78
     1
 53
0.0
 43
0.0000000060000502
 44
-18.18848068730277
 45
0.0000000000000003
 46
1.0
 79
     0
 98
        1
 10
0.0000000060000502
 20
-18.18848068730277
  0
LWPOLYLINE
  5
31833283
102
{ACAD_REACTORS
330
31833282
102
}
330
318324AF
100
AcDbEntity
  8
SAISEN
100
AcDbPolyline
 90
        8
 70
     1
 43
0.0
 10
106.5477078067486
 20
610.8797115709584
 10
106.5477078067486
 20
601.857968453616
 42
-1.0
 10
104.8175104965732
 20
601.857968453616
 10
104.8175104965732
 20
607.5170984503406
 42
0.6866165717616584
 10
104.6560519918221
 20
607.5792438577947
 42
-0.9560347805192888
 10
103.3228795671909
 20
608.6793305208441
 42
0.1183853437574497
 10
105.7141060667635
 20
614.1919460658699
 42
-1.0
 10
107.4182959788099
 20
613.8930824250281
 42
-0.053874857749413
  0
LWPOLYLINE
  5
31833284
102
{ACAD_REACTORS
330
31833282
102
}
330
318324AF
100
AcDbEntity
  8
SAISEN
100
AcDbPolyline
 90
       35
 70
     1
 43
0.0
 10
113.9328943077428
 20
610.8797115709584
 10
116.9607396005498
 20
610.8797115709584
 42
1.0
 10
116.9607396005498
 20
612.7334944032892
 10
113.7299815152726
 20
612.7334944032892
 42
-0.5029716470336553
 10
113.6116734274445
 20
612.8928091521479
 42
0.2011148424014987
 10
113.53752992692
 20
613.6056231233347
 10
112.5452360105367
 20
614.8548294005802
 42
1.0
 10
111.0936754251064
 20
613.7017974598823
 10
111.5841864340737
 20
613.0842894601422
 42
-0.6276728463992863
 10
111.414837699107
 20
612.7334944032892
 10
108.6187168550619
 20
612.7334944032892
 42
1.0
 10
108.6187168550619
 20
610.8797115709584
 10
111.6465621478685
 20
610.8797115709584
 42
-0.4142135623730951
 10
111.8628368116404
 20
610.6634369071863
 10
111.8628368116404
 20
608.5624830305451
 42
-0.4142135623730945
 10
111.6465621478685
 20
608.3462083667731
 10
108.773198757756
 20
608.3462083667731
 42
1.0
 10
108.773198757756
 20
606.4924255344424
 10
111.6465621478685
 20
606.4924255344424
 42
-0.4142135623730957
 10
111.8628368116404
 20
606.2761508706707
 10
111.8628368116404
 20
603.5572693832522
 42
-0.4142135623730957
 10
111.6465621478685
 20
603.3409947194804
 10
108.3406494302122
 20
603.3409947194804
 42
1.0
 10
108.3406494302122
 20
601.4872118871497
 10
117.2388070253993
 20
601.4872118871497
 42
1.0
 10
117.2388070253993
 20
603.3409947194804
 10
113.9328943077428
 20
603.3409947194804
 42
-0.4142135623730957
 10
113.7166196439709
 20
603.5572693832522
 10
113.7166196439709
 20
606.2761508706707
 42
-0.4142135623730955
 10
113.9328943077428
 20
606.4924255344424
 10
116.8062576978554
 20
606.4924255344424
 42
1.0
 10
116.8062576978554
 20
608.3462083667731
 10
113.9328943077428
 20
608.3462083667731
 42
-0.4142135623730945
 10
113.7166196439709
 20
608.5624830305451
 10
113.7166196439709
 20
610.6634369071863
 42
-0.4142135623731011
  0
LWPOLYLINE
  5
31833285
102
{ACAD_REACTORS
330
31833282
102
}
330
318324AF
100
AcDbEntity
  8
SAISEN
100
AcDbPolyline
 90
       22
 70
     1
 43
0.0
 10
132.7144172590815
 20
606.5645742916906
 10
136.9853746117553
 20
606.5645742916906
 42
-0.4142135623730949
 10
137.1660193336206
 20
606.3839295698253
 10
137.1660193336206
 20
601.9194243008672
 42
1.0
 10
138.714402663895
 20
601.9194243008672
 10
138.714402663895
 20
606.3839295698253
 42
-0.4142135623730949
 10
138.8950473857605
 20
606.5645742916906
 10
143.1660047384341
 20
606.5645742916906
 42
1.0
 10
143.1660047384341
 20
608.1129576219653
 10
138.8950473857605
 20
608.1129576219653
 42
-0.4142135623730951
 10
138.714402663895
 20
608.2936023438303
 10
138.714402663895
 20
610.4566452705844
 42
-0.3832517545221522
 10
138.875781345831
 20
610.6362596776995
 42
0.0118347698368547
 10
142.4461985322714
 20
611.1049465978021
 42
0.9999999999999992
 10
142.208395670133
 20
612.6349599102378
 42
-0.0292873215554025
 10
133.5244276654777
 20
611.8019384294655
 42
1.0
 10
133.5818221271489
 20
610.254619195034
 42
0.0111567498169039
 10
136.9706321733632
 20
610.4561121927901
 42
-0.4383507954394755
 10
137.1660193336206
 20
610.2760700420365
 10
137.1660193336206
 20
608.2936023438303
 42
-0.4142135623730949
 10
136.9853746117553
 20
608.1129576219653
 10
132.7144172590815
 20
608.1129576219653
 42
1.0
  0
LWPOLYLINE
  5
31833286
102
{ACAD_REACTORS
330
31833282
102
}
330
318324AF
100
AcDbEntity
  8
SAISEN
100
AcDbPolyline
 90
       17
 70
     0
 43
0.0
 10
158.7345853974535
 20
601.4032965241089
 42
0.1063712114884995
 10
163.9791822201756
 20
604.8362856451254
 42
-0.405938226823953
 10
164.3388583324566
 20
604.84358843431
 10
167.8017981258409
 20
601.6115112938178
 42
1.0
 10
168.8582883306404
 20
602.7434650846746
 10
165.3351330532847
 20
606.0317433435397
 42
-0.3828982093648742
 10
165.304661489308
 20
606.375104342591
 42
0.0039489750640175
 10
165.4442464953097
 20
606.5645742916906
 42
0.1138496861554026
 10
167.2080006159603
 20
611.0582217370374
 42
0.45804529415744
 10
166.1869234854361
 20
612.2419798360303
 10
159.5087770625907
 20
612.2419798360303
 42
1.0
 10
159.5087770625907
 20
610.693596505756
 10
165.2429794676485
 20
610.693596505756
 42
-0.4890901285612313
 10
165.4931016321591
 20
610.3720040938161
 42
-0.0876802035349815
 10
164.1783228875475
 20
607.4564272656998
 42
-0.1442471141632833
 10
158.1971592122622
 20
602.8555813050392
 42
0.9853669476710768
 10
158.7344790863275
 20
601.4035973567921
  0
LWPOLYLINE
  5
31833287
102
{ACAD_REACTORS
330
31833282
102
}
330
318324AF
100
AcDbEntity
  8
SAISEN
100
AcDbPolyline
 90
       15
 70
     1
 43
0.0
 10
177.3795688750789
 20
610.6769191978258
 10
169.0229202724448
 20
610.5977092584643
 42
-1.0
 10
169.0082443124681
 20
612.1460230359883
 10
177.8881940681135
 20
612.2301931758521
 42
-2.831910569060238
 10
179.2055291143996
 20
611.2864846891778
 42
-0.0208206875585603
 10
179.2091058834301
 20
611.2006273300634
 10
179.2091058834301
 20
610.6942607808431
 42
-0.0668647846844765
 10
178.4497839626585
 20
606.5900590417262
 42
-0.0333533933995328
 10
178.3726418539346
 20
606.3986754322183
 42
-0.0927123145957803
 10
176.4994350554499
 20
603.8549034637102
 42
-0.1458956791762012
 10
170.6669630116001
 20
601.227994548968
 42
-1.0
 10
170.4609682338615
 20
602.7626140747842
 42
0.145102294197791
 10
175.4640051892528
 20
605.0066060470242
 42
0.091665638147642
 10
176.9782949534268
 20
607.0719418419817
 42
0.0602525101072688
 10
177.6393386381838
 20
610.3993362079352
 42
0.4394037110369716
  0
LWPOLYLINE
  5
31833288
102
{ACAD_REACTORS
330
31833282
102
}
330
318324AF
100
AcDbEntity
  8
SAISEN
100
AcDbPolyline
 90
        4
 70
     1
 43
0.0
 10
181.1079933039319
 20
612.2419798360303
 42
-1.0
 10
182.6563766342063
 20
612.2419798360303
 10
182.6563766342063
 20
606.5645742916906
 42
-1.0
 10
181.1079933039319
 20
606.5645742916906
  0
LWPOLYLINE
  5
31833289
102
{ACAD_REACTORS
330
31833282
102
}
330
318324AF
100
AcDbEntity
  8
SAISEN
100
AcDbPolyline
 90
        8
 70
     1
 43
0.0
 10
191.2757105060678
 20
612.2419798360303
 10
191.2757105060678
 20
606.9074604118765
 42
-0.2490165112722773
 10
188.5674017926141
 20
602.6798787321695
 42
-0.1273412802796108
 10
183.9984113410321
 20
601.1649117814164
 42
-1.000000000000005
 10
183.8949808111714
 20
602.7098367190634
 42
0.1288820830114853
 10
187.7682523442853
 20
604.0071674549603
 42
0.2481156621714279
 10
189.7273271757932
 20
606.9761073636052
 10
189.7273271757932
 20
612.2419798360303
 42
-1.0
  0
LWPOLYLINE
  5
3183328A
102
{ACAD_REACTORS
330
31833282
102
}
330
318324AF
100
AcDbEntity
  8
SAISEN
100
AcDbPolyline
 90
        4
 70
     1
 43
0.0
 10
193.3573954083714
 20
612.2985830812734
 42
-0.0235585019510392
 10
196.4347115464853
 20
610.8650136344482
 42
-1.000000000000001
 10
195.7154941282766
 20
609.4938034963522
 42
0.0235585019510392
 10
192.770367473348
 20
610.8657923983844
 42
-0.99999999999999
  0
LWPOLYLINE
  5
3183328B
102
{ACAD_REACTORS
330
31833282
102
}
330
318324AF
100
AcDbEntity
  8
SAISEN
100
AcDbPolyline
 90
        4
 70
     1
 43
0.0
 10
192.616704232797
 20
601.6949688442561
 42
-1.0
 10
192.5001625572208
 20
603.2389600927179
 42
0.3208737530023473
 10
201.336399904653
 20
610.6263339620816
 42
-0.9999999999999952
 10
202.8353067026959
 20
610.2380436734406
 42
-0.3208737530023471
  0
LWPOLYLINE
  5
3183328C
102
{ACAD_REACTORS
330
31833282
102
}
330
318324AF
100
AcDbEntity
  8
SAISEN
100
AcDbPolyline
 90
       14
 70
     1
 43
0.0
 10
210.4607942158845
 20
605.277150741626
 42
-0.1525099745054455
 10
205.6454780347404
 20
602.6928213487474
 42
1.000000000000009
 10
205.9377200357459
 20
601.1722669924942
 42
0.1527087266791696
 10
211.5722301349345
 20
604.199068916098
 42
0.1741491623156161
 10
214.549848130375
 20
610.8538398434895
 42
0.4366181916758971
 10
213.2632419738513
 20
612.2419798360303
 10
207.5117894622568
 20
612.2419798360303
 42
0.2814124278005228
 10
206.5931165245028
 20
611.6804594110135
 42
-0.1568400336058553
 10
204.1472249112326
 20
609.2310021363372
 42
1.000000000000001
 10
204.8553342754626
 20
607.8540228097814
 42
0.1354825693697109
 10
207.674351671444
 20
610.4503876788462
 42
-0.2589752263221756
 10
208.1124191648223
 20
610.693596505756
 10
212.3874379030467
 20
610.693596505756
 42
-0.4655939616553161
 10
212.8959333593567
 20
610.0890365354622
 42
-0.149244744637674
  0
LWPOLYLINE
  5
3183328D
102
{ACAD_REACTORS
330
31833282
102
}
330
318324AF
100
AcDbEntity
  8
SAISEN
100
AcDbPolyline
 90
       11
 70
     1
 43
0.0
 10
226.7393089350342
 20
608.1129576219653
 42
-0.3106637293672825
 10
222.3522228325898
 20
602.1774881892461
 42
-0.0757975034211305
 10
217.9831137327386
 20
601.4071179999327
 42
-1.0
 10
217.9471597275521
 20
602.9550838416047
 42
0.0757047635176025
 10
221.8519853149869
 20
603.6428481206987
 42
0.2739170351993261
 10
225.1243242927693
 20
607.5019156404814
 42
0.4645004032667825
 10
224.8699191888487
 20
607.80328095591
 10
216.1586895114918
 20
607.80328095591
 42
-1.0
 10
216.1586895114918
 20
609.3516642861848
 10
225.7070533815178
 20
609.3516642861848
 42
-0.4142135623731019
 10
226.7393089350342
 20
608.3194087326684
  0
LWPOLYLINE
  5
3183328E
102
{ACAD_REACTORS
330
31833282
102
}
330
318324AF
100
AcDbEntity
  8
SAISEN
100
AcDbPolyline
 90
        4
 70
     1
 43
0.0
 10
224.9328617163806
 20
612.345205391382
 10
217.1909450650083
 20
612.345205391382
 42
1.0
 10
217.1909450650083
 20
610.7968220611073
 10
224.9328617163806
 20
610.7968220611073
 42
1.0
  0
LWPOLYLINE
  5
3183328F
102
{ACAD_REACTORS
330
31833282
102
}
330
318324AF
100
AcDbEntity
  8
SAISEN
100
AcDbPolyline
 90
        4
 70
     1
 43
0.0
 10
228.4158703484759
 20
607.854893733586
 42
1.0
 10
228.4158703484759
 20
606.3065104033114
 10
238.7384258836391
 20
606.3065104033114
 42
1.0
 10
238.7384258836391
 20
607.854893733586
  0
LWPOLYLINE
  5
31833290
102
{ACAD_REACTORS
330
31833282
102
}
330
318324AF
100
AcDbEntity
  8
SAISEN
100
AcDbPolyline
 90
       53
 70
     1
 43
0.0
 10
251.2047659691015
 20
607.287153179152
 10
248.804771807176
 20
607.287153179152
 42
0.0743494977705335
 10
252.0737364263626
 20
602.9269917027725
 42
-1.0
 10
251.058374399302
 20
601.8986333272907
 42
-0.0438873845599916
 10
248.804771807176
 20
604.5523780555408
 10
248.804771807176
 20
601.8678115231912
 42
-1.0
 10
247.3596140322531
 20
601.8678115231912
 10
247.3596140322531
 20
604.5523780555408
 42
-0.044425566432872
 10
245.0755998486507
 20
601.8686705277612
 42
-1.0
 10
244.0624496307413
 20
602.8992080721376
 42
0.074889623148952
 10
247.3596140322531
 20
607.287153179152
 10
245.3209093140584
 20
607.287153179152
 42
-1.0
 10
245.3209093140584
 20
608.7323109540748
 10
247.3596140322531
 20
608.7323109540748
 10
247.3596140322531
 20
609.8677920629427
 10
245.8112307019788
 20
609.8677920629429
 42
-0.0152523455626472
 10
245.5672409815468
 20
609.3735059216376
 42
-0.6902403826681676
 10
244.2268036661896
 20
609.5440204082401
 42
-0.1600327065525932
 10
243.798332372622
 20
609.4032770638605
 10
243.3499550932516
 20
609.4032770638605
 42
0.5443354633598011
 10
243.2793639509732
 20
609.2940676791105
 42
0.0425297040123326
 10
244.8619960612106
 20
606.4523537970187
 42
-1.000000000000001
 10
243.6636986756128
 20
605.6445392328462
 42
-0.0064282713165093
 10
243.3732968836386
 20
606.0874977521039
 42
0.7500568622206073
 10
243.230591818188
 20
606.045886710977
 10
243.230591818188
 20
601.8678115231912
 42
-1.0
 10
241.785434043265
 20
601.8678115231912
 10
241.785434043265
 20
605.0710710643173
 42
0.8118892076050451
 10
241.6371298814879
 20
605.1022005485752
 42
-0.0510400568211836
 10
241.3175010424081
 20
604.4835400944951
 42
-1.038853738921952
 10
240.116186710964
 20
605.2849721217279
 42
0.0807299223725665
 10
241.7638191931503
 20
609.308391470603
 42
0.4825507232976211
 10
241.6883960449762
 20
609.4032770638605
 10
240.8564040451003
 20
609.4032770638605
 42
-1.0
 10
240.8564040451003
 20
610.8484348387833
 10
241.785434043265
 20
610.8484348387833
 10
241.785434043265
 20
612.2935926137061
 42
-1.0
 10
243.230591818188
 20
612.2935926137061
 10
243.230591818188
 20
610.8484348387833
 10
243.798332372622
 20
610.8484348387833
 42
-0.3035254725439783
 10
244.4660891555614
 20
610.4019376918322
 42
0.0615665677052705
 10
245.0424186724694
 20
612.1731340426045
 42
-1.0
 10
246.4611293903565
 20
611.8979234080498
 42
-0.0166046853614768
 10
246.3273584787368
 20
611.3129498378657
 10
247.3596140322531
 20
611.3129498378657
 10
247.3596140322531
 20
612.2935926137061
 42
-1.0
 10
248.804771807176
 20
612.2935926137061
 10
248.804771807176
 20
611.3129498378657
 10
251.0499276360739
 20
611.3129498378657
 42
-1.0
 10
251.0499276360739
 20
609.8677920629427
 10
248.804771807176
 20
609.8677920629427
 10
248.804771807176
 20
608.7323109540748
 10
251.2047659691015
 20
608.7323109540748
 42
-1.0
  0
LWPOLYLINE
  5
31833291
102
{ACAD_REACTORS
330
31833282
102
}
330
318324AF
100
AcDbEntity
  8
SAISEN
100
AcDbPolyline
 90
       35
 70
     1
 43
0.0
 10
262.323033887829
 20
611.3309371859457
 42
0.7994078749809069
 10
262.3439249413802
 20
611.4294376179977
 42
-0.0438731735806829
 10
261.6231810002949
 20
611.8408848385326
 42
-1.0
 10
262.3585625100719
 20
612.9011387219073
 42
0.0837739739835673
 10
263.3969553088501
 20
612.4132304196557
 42
-0.5119692040613775
 10
263.7582148648821
 20
611.4307189806209
 42
0.6055107519491783
 10
263.8016597496981
 20
611.3502236102307
 10
263.9618561987729
 20
611.3523131291317
 42
-1.0
 10
263.9820507852779
 20
609.8040614970812
 10
261.3265282782037
 20
609.7694242469887
 42
0.4458536162710301
 10
261.0736812987249
 20
609.4805278053925
 42
0.0279921944070669
 10
261.7426713445918
 20
605.7148003760877
 42
0.0606728607395486
 10
262.8432285626542
 20
603.5394124369389
 42
0.6592200259122605
 10
263.1230098615716
 20
603.5916046688363
 42
0.030470320942106
 10
263.3526001599157
 20
605.0161909614161
 42
-1.0
 10
264.90098349019
 20
605.0161909614161
 10
264.90098349019
 20
604.4277067105801
 42
-0.0466637896147516
 10
264.5740180339257
 20
602.7289502480372
 42
-0.0168888916150345
 10
264.5097655032196
 20
602.5419744563436
 42
-0.1128117704920973
 10
263.9667728034686
 20
601.6595735028775
 42
-0.3024975898513547
 10
263.0945362715365
 20
601.4124631555745
 42
-0.0769260479074295
 10
262.1532509898195
 20
601.7917873297052
 42
-0.1182289009929937
 10
261.6358070038575
 20
602.2955403627543
 42
-0.0622972667805791
 10
260.3187961172801
 20
605.1002822492414
 42
-0.0039769140334449
 10
260.2558334993667
 20
605.2742548497952
 42
-0.0301411173838843
 10
259.5108095524098
 20
609.5135895756642
 42
0.3850296683360234
 10
259.251046198393
 20
609.7423527415997
 10
253.814333583142
 20
609.6714390987922
 42
-1.0
 10
253.794138996637
 20
611.219690730843
 10
259.0781446453912
 20
611.2886125436526
 42
0.4323918708266769
 10
259.3321229760106
 20
611.5659155112437
 10
259.2858474521743
 20
612.1841967492827
 42
-1.0
 10
260.8299120223965
 20
612.2997629227782
 10
260.8857012116828
 20
611.5543708415738
 42
0.3962659525886108
 10
261.1464110711373
 20
611.3155899318147
  0
LWPOLYLINE
  5
31833292
102
{ACAD_REACTORS
330
31833282
102
}
330
318324AF
100
AcDbEntity
  8
SAISEN
100
AcDbPolyline
 90
       18
 70
     1
 43
0.0
 10
253.9605596737143
 20
601.7493879457401
 10
258.8875245447399
 20
602.7499232213677
 42
0.9150617575178047
 10
258.3657469908505
 20
604.1958196582959
 10
257.7797974824564
 20
604.0414015137128
 42
-0.4918646192181379
 10
257.1591282979889
 20
604.5196938847147
 10
257.1591282979886
 20
606.6718041110743
 42
-0.4103985717549125
 10
257.6472997022485
 20
607.1663844935351
 10
258.3813912545684
 20
607.1759596007392
 42
1.0
 10
258.3625429738305
 20
608.6209944573198
 10
253.7676464284321
 20
608.5610610241189
 42
0.8496409365451205
 10
253.5499953658796
 20
607.1129413934957
 10
255.1096714665209
 20
607.1332849948082
 42
-0.4180388721689203
 10
255.6107449677142
 20
606.6387046123476
 10
255.6107449677142
 20
603.9847366861208
 42
-0.3712644620077222
 10
255.1894655515086
 20
603.495582140261
 10
253.6925852113235
 20
603.2711423381845
 42
0.3712644620077241
 10
253.0353893220427
 20
602.5080612466434
 10
253.0353893220427
 20
602.505564584769
 42
0.4741888709078976
  0
LWPOLYLINE
  5
31833293
102
{ACAD_REACTORS
330
31833282
102
}
330
318324AF
100
AcDbEntity
  8
SAISEN
100
AcDbPolyline
 90
       12
 70
     1
 43
0.0
 10
265.970685479919
 20
609.8538906224765
 42
0.0714953966147462
 10
270.9511086743848
 20
612.8483561879265
 42
-0.3486477685382974
 10
271.9137725912929
 20
612.8483561879265
 42
0.0714953966147458
 10
276.8941957857591
 20
609.8538906224766
 42
-0.9375247296223454
 10
276.3874758607971
 20
608.3941729934439
 42
-0.0177045635089767
 10
274.9904889439367
 20
609.061714408935
 42
0.5448562439575067
 10
274.9150709910726
 20
609.0188728334627
 42
-0.3977817593624567
 10
274.1421114608193
 20
608.2883423519847
 10
268.7227698048586
 20
608.2883423519847
 42
-0.3977817593624539
 10
267.9498102746051
 20
609.0188728334627
 42
0.544856243957455
 10
267.8743923217413
 20
609.061714408935
 42
-0.0177045635089769
 10
266.4774054048808
 20
608.3941729934439
 42
-0.9375247296222683
  0
LWPOLYLINE
  5
31833294
102
{ACAD_REACTORS
330
31833282
102
}
330
318324AF
100
AcDbEntity
  8
SAISEN
100
AcDbPolyline
 90
       22
 70
     1
 43
0.0
 10
277.2210534057792
 20
602.3717937869121
 42
-1.0
 10
275.9644952774568
 20
601.4670548148219
 42
0.021927783063709
 10
275.3824593983157
 20
602.2049203564924
 42
0.2350649554663871
 10
275.2552417569428
 20
602.2583057068548
 10
267.0951987534032
 20
601.7318513195296
 42
-1.0
 10
266.995510307386
 20
603.2770222327954
 10
267.9818448467897
 20
603.3406567192083
 42
0.2847578740297872
 10
268.1146892356699
 20
603.4353466451574
 10
269.0199381989061
 20
605.5962635251407
 42
0.5358006090657584
 10
268.877124965424
 20
605.8109290235456
 10
266.5292267536364
 20
605.8109290235456
 42
-1.0
 10
266.5292267536364
 20
607.35931235382
 10
276.3356545120415
 20
607.35931235382
 42
-1.0
 10
276.3356545120415
 20
605.8109290235456
 10
270.8740768759893
 20
605.8109290235456
 42
0.3105051435850527
 10
270.7295234685715
 20
605.7115814264891
 10
269.9526330606131
 20
603.687781350754
 42
0.5468718829383487
 10
270.107155312633
 20
603.4777735234562
 10
273.6431982991581
 20
603.7059053290387
 42
0.6976989533440406
 10
273.6707167247672
 20
603.7987956667881
 42
0.0029535551001564
 10
273.5687238818603
 20
603.8738715377202
 42
-1.000000000000001
 10
274.4792330925189
 20
605.1262548315955
 42
-0.0797012575166524
  0
LWPOLYLINE
  5
31833295
102
{ACAD_REACTORS
330
31833282
102
}
330
318324AF
100
AcDbEntity
  8
SAISEN
100
AcDbPolyline
 90
        6
 70
     1
 43
0.0
 10
271.4002322630948
 20
611.3593368852779
 10
269.3904039645427
 20
609.9320368028637
 10
269.4178690996183
 20
609.8367256822593
 10
273.4470121660598
 20
609.8367256822593
 10
273.474477301135
 20
609.9320368028637
 10
271.4646490025831
 20
611.3593368852779
  0
LWPOLYLINE
  5
31833296
102
{ACAD_REACTORS
330
31833282
102
}
330
318324AF
100
AcDbEntity
  8
SAISEN
100
AcDbPolyline
 90
       46
 70
     1
 43
0.0
 10
280.2864727708996
 20
612.2419798360303
 42
-1.0
 10
281.8348561011738
 20
612.2419798360303
 10
281.8348561011738
 20
611.0290795606487
 42
0.414213562373093
 10
281.9896944342016
 20
610.8742412276212
 10
283.3619873132885
 20
610.8742412276212
 42
-0.4122746911688611
 10
283.8781037660493
 20
610.3615323879677
 42
-0.2168776885244659
 10
284.4619207334013
 20
610.6272651235935
 10
285.525169704995
 20
610.6272651235935
 42
0.4142135623730951
 10
285.6800080380224
 20
610.7821034566211
 10
285.6800080380224
 20
612.2419798360303
 42
-1.0
 10
287.2283913682966
 20
612.2419798360303
 10
287.2283913682966
 20
610.7821034566211
 42
0.4142135623730957
 10
287.3832297013241
 20
610.6272651235935
 10
288.9316130315987
 20
610.6272651235935
 42
-1.0
 10
288.9316130315987
 20
609.0788817933193
 10
287.3832297013241
 20
609.0788817933193
 42
0.4142135623730942
 10
287.2283913682966
 20
608.9240434602917
 10
287.2283913682966
 20
603.2613565204384
 42
0.4142135623730955
 10
287.3832297013241
 20
603.1065181874107
 10
289.1896769199778
 20
603.1065181874107
 42
-1.0
 10
289.1896769199778
 20
601.5581348571363
 10
283.3574330426106
 20
601.5581348571363
 42
-1.0
 10
283.3574330426106
 20
603.1065181874107
 10
285.525169704995
 20
603.1065181874107
 42
0.4142135623730966
 10
285.6800080380224
 20
603.2613565204384
 10
285.6800080380224
 20
608.9240434602917
 42
0.4142135623730942
 10
285.525169704995
 20
609.0788817933193
 10
284.4619207334013
 20
609.0788817933193
 42
-0.4078750109712648
 10
283.6879111653781
 20
609.8362828963298
 42
-0.0460346531742509
 10
282.4862128473283
 20
607.8419682033286
 10
284.6166808476114
 20
606.2721496768041
 42
-0.9999999999999984
 10
283.6981813455602
 20
605.025614638306
 10
282.0815443844066
 20
606.2168208202088
 42
0.6151099889490489
 10
281.8348561011738
 20
606.0921673163587
 10
281.8348561011738
 20
601.9194243008672
 42
-1.0
 10
280.2864727708996
 20
601.9194243008672
 10
280.2864727708996
 20
605.2093670361196
 42
0.6233400877170312
 10
280.0368445095319
 20
605.3317997885185
 42
-0.0212493152492001
 10
279.1583667814467
 20
604.7095003772117
 42
-0.9999999999999998
 10
278.3178120998031
 20
606.0098690805569
 42
0.0999246241034749
 10
281.4687317727034
 20
609.0837725748992
 42
0.6026211128375225
 10
281.3408143297496
 20
609.3258578973467
 10
278.996153329004
 20
609.3258578973467
 42
-1.0
 10
278.996153329004
 20
610.8742412276212
 10
280.1316344378721
 20
610.8742412276212
 42
0.4142135623730943
 10
280.2864727708996
 20
611.0290795606487
  0
LWPOLYLINE
  5
31833297
102
{ACAD_REACTORS
330
31833282
102
}
330
318324AF
100
AcDbEntity
  8
SAISEN
100
AcDbPolyline
 90
       35
 70
     1
 43
0.0
 10
153.6380753119544
 20
609.4032770638605
 10
156.1671014180696
 20
609.4032770638605
 42
1.0
 10
156.1671014180696
 20
610.9516603941351
 10
153.4685911739635
 20
610.9516603941351
 42
-0.5029716470336553
 10
153.369773627574
 20
611.0847290023332
 42
0.2011148424014987
 10
153.3078448200253
 20
611.6801111859005
 10
152.4790253207484
 20
612.7235182894871
 42
1.0
 10
151.2666005565498
 20
611.7604413825737
 10
151.6763028454884
 20
611.2446640884735
 42
-0.6276728463992863
 10
151.5348532896656
 20
610.9516603941351
 10
149.1993764318346
 20
610.9516603941351
 42
1.0
 10
149.1993764318346
 20
609.4032770638605
 10
151.7284025379494
 20
609.4032770638605
 42
-0.4142135623730951
 10
151.9090472598148
 20
609.2226323419951
 10
151.9090472598148
 20
607.4677979010174
 42
-0.4142135623730945
 10
151.7284025379494
 20
607.287153179152
 10
149.3284083760238
 20
607.287153179152
 42
1.0
 10
149.3284083760238
 20
605.7387698488773
 10
151.7284025379494
 20
605.7387698488773
 42
-0.4142135623730957
 10
151.9090472598148
 20
605.5581251270122
 10
151.9090472598148
 20
603.2871629092762
 42
-0.4142135623730957
 10
151.7284025379494
 20
603.1065181874107
 10
148.9671189322933
 20
603.1065181874107
 42
1.0
 10
148.9671189322933
 20
601.5581348571363
 10
156.3993589176108
 20
601.5581348571363
 42
1.0
 10
156.3993589176108
 20
603.1065181874107
 10
153.6380753119544
 20
603.1065181874107
 42
-0.4142135623730957
 10
153.4574305900893
 20
603.2871629092762
 10
153.4574305900893
 20
605.5581251270122
 42
-0.4142135623730955
 10
153.6380753119544
 20
605.7387698488773
 10
156.0380694738801
 20
605.7387698488773
 42
1.0
 10
156.0380694738801
 20
607.287153179152
 10
153.6380753119544
 20
607.287153179152
 42
-0.4142135623730945
 10
153.4574305900893
 20
607.4677979010174
 10
153.4574305900893
 20
609.2226323419951
 42
-0.4142135623731011
  0
LWPOLYLINE
  5
31833298
102
{ACAD_REACTORS
330
31833282
102
}
330
318324AF
100
AcDbEntity
  8
SAISEN
100
AcDbPolyline
 90
        8
 70
     1
 43
0.0
 10
147.4695535899516
 20
609.4032770638605
 10
147.4695535899516
 20
601.8678115231912
 42
-1.0
 10
146.0243958150288
 20
601.8678115231912
 10
146.0243958150288
 20
606.5946341034653
 42
0.6866165717616584
 10
145.8895366217469
 20
606.6465414311615
 42
-0.9560347805192888
 10
144.7759962853714
 20
607.5653954744807
 42
0.1183853437574497
 10
146.7732826914571
 20
612.1698409722301
 42
-1.0
 10
148.1967176296891
 20
611.9202133074176
 42
-0.053874857749413
  0
CIRCLE
  5
31833299
102
{ACAD_REACTORS
330
31833282
102
}
330
318324AF
100
AcDbEntity
  8
SAISEN
100
AcDbCircle
 10
179.1316758703482
 20
612.5746888502002
 30
0.0
 40
0.3870958325686231
  0
TEXT
  5
3183329F
330
318324AF
100
AcDbEntity
  8
SUNPOU
100
AcDbText
 10
395.2134490028983
 20
377.9746897825695
 30
0.0
 40
9.0
  1
85
 50
90.0
  7
K
 72
     1
 11
395.2134490028983
 21
386.5461183539981
 31
0.0
100
AcDbText
  0
INSERT
  5
318332A0
330
318324AF
100
AcDbEntity
  8
SUNPOU
100
AcDbBlockReference
  2
ARROWANG
 10
397.7138646332016
 20
429.0053464462066
 30
0.0
 41
4.5
 42
4.5
 43
4.5
 50
90.0
  0
INSERT
  5
318332A1
330
318324AF
100
AcDbEntity
  8
SUNPOU
100
AcDbBlockReference
  2
ARROWANG
 10
397.7138646332016
 20
344.0053464462065
 30
0.0
 41
4.5
 42
4.5
 43
4.5
 50
270.0
  0
LINE
  5
318332A2
330
318324AF
100
AcDbEntity
  8
SUNPOU
100
AcDbLine
 10
397.7138646332016
 20
344.0053464462065
 30
0.0
 11
397.7138646332016
 21
429.0053464462066
 31
0.0
  0
LINE
  5
318332A3
330
318324AF
100
AcDbEntity
  8
SUNPOU
100
AcDbLine
 10
357.7138646332016
 20
429.0053464462066
 30
0.0
 11
400.7138646332016
 21
429.0053464462066
 31
0.0
  0
LINE
  5
318332A4
330
318324AF
100
AcDbEntity
  8
SUNPOU
100
AcDbLine
 10
353.7138646332016
 20
344.0053464462065
 30
0.0
 11
400.7138646332016
 21
344.0053464462065
 31
0.0
  0
TEXT
  5
318332BA
330
318324AF
100
AcDbEntity
  8
SUNPOU
100
AcDbText
 10
182.3567217760588
 20
327.2189986639983
 30
0.0
 40
9.0
  1
315
  7
K
 72
     1
 11
195.2138646332016
 21
327.2189986639983
 31
0.0
100
AcDbText
  0
INSERT
  5
318332BB
330
318324AF
100
AcDbEntity
  8
SUNPOU
100
AcDbBlockReference
  2
ARROWANG
 10
352.7138646332017
 20
324.7189986639984
 30
0.0
 41
4.5
 42
4.5
 43
4.5
  0
INSERT
  5
318332BC
330
318324AF
100
AcDbEntity
  8
SUNPOU
100
AcDbBlockReference
  2
ARROWANG
 10
37.71386463320175
 20
324.7189986639984
 30
0.0
 41
4.5
 42
4.5
 43
4.5
 50
180.0
  0
LINE
  5
318332BD
330
318324AF
100
AcDbEntity
  8
SUNPOU
100
AcDbLine
 10
37.71386463320175
 20
324.7189986639984
 30
0.0
 11
352.7138646332017
 21
324.7189986639984
 31
0.0
  0
LINE
  5
318332BE
330
318324AF
100
AcDbEntity
  8
SUNPOU
100
AcDbLine
 10
352.7138646332017
 20
343.0053464462066
 30
0.0
 11
352.7138646332017
 21
321.7189986639983
 31
0.0
  0
LINE
  5
318332BF
330
318324AF
100
AcDbEntity
  8
SUNPOU
100
AcDbLine
 10
37.71386463320175
 20
343.0053464462066
 30
0.0
 11
37.71386463320175
 21
321.7189986639983
 31
0.0
  0
TEXT
  5
318332C0
330
318324AF
100
AcDbEntity
  8
SUNPOU
100
AcDbText
 10
182.3567217760588
 20
451.9800326552235
 30
0.0
 40
9.0
  1
320
  7
K
 72
     1
 11
195.2138646332016
 21
451.9800326552235
 31
0.0
100
AcDbText
  0
INSERT
  5
318332C1
330
318324AF
100
AcDbEntity
  8
SUNPOU
100
AcDbBlockReference
  2
ARROWANG
 10
357.7138646332016
 20
449.4800326552234
 30
0.0
 41
4.5
 42
4.5
 43
4.5
  0
INSERT
  5
318332C2
330
318324AF
100
AcDbEntity
  8
SUNPOU
100
AcDbBlockReference
  2
ARROWANG
 10
32.71386463320175
 20
449.4800326552234
 30
0.0
 41
4.5
 42
4.5
 43
4.5
 50
180.0
  0
LINE
  5
318332C3
330
318324AF
100
AcDbEntity
  8
SUNPOU
100
AcDbLine
 10
32.71386463320175
 20
449.4800326552234
 30
0.0
 11
357.7138646332016
 21
449.4800326552234
 31
0.0
  0
LINE
  5
318332C4
330
318324AF
100
AcDbEntity
  8
SUNPOU
100
AcDbLine
 10
357.7138646332016
 20
429.0053464462066
 30
0.0
 11
357.7138646332016
 21
452.4800326552234
 31
0.0
  0
LINE
  5
318332C5
330
318324AF
100
AcDbEntity
  8
SUNPOU
100
AcDbLine
 10
32.71386463320175
 20
429.0053464462066
 30
0.0
 11
32.71386463320175
 21
452.4800326552234
 31
0.0
  0
TEXT
  5
318332C6
330
318324AF
100
AcDbEntity
  8
SUNPOU
100
AcDbText
 10
397.2083937932665
 20
624.3979327248239
 30
0.0
 40
9.0
  1
260
 50
90.0
  7
K
 72
     1
 11
397.2083937932665
 21
637.2550755819668
 31
0.0
100
AcDbText
  0
INSERT
  5
318332C7
330
318324AF
100
AcDbEntity
  8
SUNPOU
100
AcDbBlockReference
  2
ARROWANG
 10
399.7083937932665
 20
767.2550755819667
 30
0.0
 41
4.5
 42
4.5
 43
4.5
 50
90.0
  0
INSERT
  5
318332C8
330
318324AF
100
AcDbEntity
  8
SUNPOU
100
AcDbBlockReference
  2
ARROWANG
 10
399.7083937932665
 20
507.2550755819668
 30
0.0
 41
4.5
 42
4.5
 43
4.5
 50
270.0
  0
LINE
  5
318332C9
330
318324AF
100
AcDbEntity
  8
SUNPOU
100
AcDbLine
 10
399.7083937932665
 20
507.2550755819668
 30
0.0
 11
399.7083937932665
 21
767.2550755819667
 31
0.0
  0
LINE
  5
318332CA
330
318324AF
100
AcDbEntity
  8
SUNPOU
100
AcDbLine
 10
422.1929230271443
 20
767.2550755819667
 30
0.0
 11
396.7083937932665
 21
767.2550755819667
 31
0.0
  0
LINE
  5
318332CB
330
318324AF
100
AcDbEntity
  8
SUNPOU
100
AcDbLine
 10
422.1929230271443
 20
507.2550755819668
 30
0.0
 11
396.7083937932665
 21
507.2550755819668
 31
0.0
  0
LINE
  5
31833329
330
318324AF
100
AcDbEntity
  8
ITTEN
 48
3.0
100
AcDbLine
 10
315.5684663604525
 20
555.2550755819667
 30
0.0
 11
275.5684663604524
 21
555.2550755819667
 31
0.0
  0
LINE
  5
3183332A
330
318324AF
100
AcDbEntity
  8
ITTEN
 48
3.0
100
AcDbLine
 10
295.5684663604523
 20
575.2550755819668
 30
0.0
 11
295.5684663604523
 21
535.2550755819667
 31
0.0
  0
LINE
  5
3183332B
330
318324AF
100
AcDbEntity
  8
ITTEN
 48
3.0
100
AcDbLine
 10
222.5684663604524
 20
745.2550755819665
 30
0.0
 11
222.5684663604524
 21
705.2550755819667
 31
0.0
  0
LINE
  5
3183332C
330
318324AF
100
AcDbEntity
  8
ITTEN
 48
3.0
100
AcDbLine
 10
242.5684663604524
 20
725.2550755819667
 30
0.0
 11
202.5684663604524
 21
725.2550755819667
 31
0.0
  0
LINE
  5
3183332D
330
318324AF
100
AcDbEntity
  8
ITTEN
 48
3.0
100
AcDbLine
 10
242.5684663604524
 20
555.2550755819667
 30
0.0
 11
202.5684663604524
 21
555.2550755819667
 31
0.0
  0
LINE
  5
3183332E
330
318324AF
100
AcDbEntity
  8
ITTEN
 48
3.0
100
AcDbLine
 10
222.5684663604524
 20
575.2550755819668
 30
0.0
 11
222.5684663604524
 21
535.2550755819667
 31
0.0
  0
LINE
  5
3183332F
330
318324AF
100
AcDbEntity
  8
ITTEN
 48
3.0
100
AcDbLine
 10
149.5684663604524
 20
745.2550755819665
 30
0.0
 11
149.5684663604524
 21
705.2550755819667
 31
0.0
  0
LINE
  5
31833330
330
318324AF
100
AcDbEntity
  8
ITTEN
 48
3.0
100
AcDbLine
 10
169.5684663604524
 20
725.2550755819667
 30
0.0
 11
129.5684663604523
 21
725.2550755819667
 31
0.0
  0
LINE
  5
31833331
330
318324AF
100
AcDbEntity
  8
ITTEN
 48
3.0
100
AcDbLine
 10
169.5684663604524
 20
555.2550755819667
 30
0.0
 11
129.5684663604523
 21
555.2550755819667
 31
0.0
  0
LINE
  5
31833332
330
318324AF
100
AcDbEntity
  8
ITTEN
 48
3.0
100
AcDbLine
 10
149.5684663604524
 20
575.2550755819668
 30
0.0
 11
149.5684663604524
 21
535.2550755819667
 31
0.0
  0
LINE
  5
31833333
330
318324AF
100
AcDbEntity
  8
ITTEN
 48
3.0
100
AcDbLine
 10
169.5684663604524
 20
640.2550755819667
 30
0.0
 11
129.5684663604523
 21
640.2550755819667
 31
0.0
  0
LINE
  5
31833334
330
318324AF
100
AcDbEntity
  8
ITTEN
 48
3.0
100
AcDbLine
 10
149.5684663604524
 20
660.2550755819668
 30
0.0
 11
149.5684663604524
 21
620.2550755819665
 31
0.0
  0
LINE
  5
31833335
330
318324AF
100
AcDbEntity
  8
ITTEN
 48
3.0
100
AcDbLine
 10
76.56846636045248
 20
575.2550755819668
 30
0.0
 11
76.56846636045248
 21
535.2550755819667
 31
0.0
  0
LINE
  5
31833336
330
318324AF
100
AcDbEntity
  8
ITTEN
 48
3.0
100
AcDbLine
 10
96.56846636045248
 20
555.2550755819667
 30
0.0
 11
56.56846636045248
 21
555.2550755819667
 31
0.0
  0
LINE
  5
31833337
330
318324AF
100
AcDbEntity
  8
ITTEN
 48
3.0
100
AcDbLine
 10
76.56846636045248
 20
660.2550755819668
 30
0.0
 11
76.56846636045248
 21
620.2550755819665
 31
0.0
  0
LINE
  5
31833338
330
318324AF
100
AcDbEntity
  8
ITTEN
 48
3.0
100
AcDbLine
 10
96.56846636045248
 20
640.2550755819667
 30
0.0
 11
56.56846636045248
 21
640.2550755819667
 31
0.0
  0
ARC
  5
31833339
330
318324AF
100
AcDbEntity
  8
SAISEN
100
AcDbCircle
 10
94.21386463320208
 20
431.2401988485379
 30
0.0
 40
1.840933641609659
100
AcDbArc
 50
202.565048168418
 51
337.4349518315394
  0
ARC
  5
3183333A
330
318324AF
100
AcDbEntity
  8
0
100
AcDbCircle
 10
95.1638646332017
 20
428.8661651228356
 30
0.0
 40
1.8
100
AcDbArc
 50
4.434705694905222
 51
50.70335010366171
  0
ARC
  5
3183333B
330
318324AF
100
AcDbEntity
  8
0
100
AcDbCircle
 10
93.26386463320179
 20
428.8661651228356
 30
0.0
 40
1.8
100
AcDbArc
 50
129.2964802390762
 51
175.5652943050946
  0
ARC
  5
3183333C
330
318324AF
100
AcDbEntity
  8
0
100
AcDbCircle
 10
94.21386463320176
 20
427.7053464462066
 30
0.0
 40
3.300000000000011
100
AcDbArc
 50
50.70342722060154
 51
129.2964802390762
  0
LINE
  5
3183333D
330
318324AF
100
AcDbEntity
  8
0
100
AcDbLine
 10
96.95847561032699
 20
429.0053464462066
 30
0.0
 11
91.46925365607648
 21
429.0053464462066
 31
0.0
  0
ARC
  5
3183333E
330
318324AF
100
AcDbEntity
  8
SAISEN
100
AcDbCircle
 10
296.2138646332021
 20
431.240198848538
 30
0.0
 40
1.840933641609659
100
AcDbArc
 50
202.565048168418
 51
337.4349518315394
  0
ARC
  5
3183333F
330
318324AF
100
AcDbEntity
  8
0
100
AcDbCircle
 10
297.1638646332016
 20
428.8661651228356
 30
0.0
 40
1.8
100
AcDbArc
 50
4.434705694905222
 51
50.70335010366171
  0
ARC
  5
31833340
330
318324AF
100
AcDbEntity
  8
0
100
AcDbCircle
 10
295.2638646332018
 20
428.8661651228356
 30
0.0
 40
1.8
100
AcDbArc
 50
129.2964802390762
 51
175.5652943050946
  0
ARC
  5
31833341
330
318324AF
100
AcDbEntity
  8
0
100
AcDbCircle
 10
296.2138646332017
 20
427.7053464462066
 30
0.0
 40
3.300000000000011
100
AcDbArc
 50
50.70342722060154
 51
129.2964802390762
  0
LINE
  5
31833342
330
318324AF
100
AcDbEntity
  8
0
100
AcDbLine
 10
298.9584756103269
 20
429.0053464462066
 30
0.0
 11
293.4692536560763
 21
429.0053464462066
 31
0.0
  0
CIRCLE
  5
31833361
102
{ACAD_REACTORS
330
31833282
102
}
330
318324AF
100
AcDbEntity
  8
SAISEN
 62
     4
100
AcDbCircle
 10
110.8567724036294
 20
607.7450972586225
 30
0.0
 40
11.27848101265822
  0
CIRCLE
  5
31833362
102
{ACAD_REACTORS
330
31833282
102
}
330
318324AF
100
AcDbEntity
  8
SAISEN
 62
     4
100
AcDbCircle
 10
110.8567724036294
 20
607.7450972586225
 30
0.0
 40
12.53164556962024
  0
LINE
  5
318333A1
330
318324AF
100
AcDbEntity
  8
JISSEN
100
AcDbLine
 10
357.0041972821833
 20
387.6695662490805
 30
0.0
 11
359.9410647807956
 21
379.6005891127127
 31
0.0
  0
ARC
  5
318333A2
330
318324AF
100
AcDbEntity
  8
SAISEN
100
AcDbCircle
 10
419.9580706248132
 20
589.2550755819672
 30
0.0
 40
1.840933641609659
100
AcDbArc
 50
292.565048168416
 51
67.43495183154141
  0
ARC
  5
318333A3
330
318324AF
100
AcDbEntity
  8
0
100
AcDbCircle
 10
422.3321043505152
 20
590.2050755819669
 30
0.0
 40
1.8
100
AcDbArc
 50
94.43470569490276
 51
140.7033501036629
  0
ARC
  5
318333A4
330
318324AF
100
AcDbEntity
  8
0
100
AcDbCircle
 10
422.3321043505152
 20
588.3050755819668
 30
0.0
 40
1.8
100
AcDbArc
 50
219.2964802390731
 51
265.5652943050972
  0
ARC
  5
318333A5
330
318324AF
100
AcDbEntity
  8
0
100
AcDbCircle
 10
423.4929230271443
 20
589.2550755819668
 30
0.0
 40
3.300000000000011
100
AcDbArc
 50
140.7034272206017
 51
219.2964802390731
  0
LINE
  5
318333A6
330
318324AF
100
AcDbEntity
  8
0
100
AcDbLine
 10
422.1929230271443
 20
591.999686559092
 30
0.0
 11
422.1929230271443
 21
586.5104646048417
 31
0.0
  0
ARC
  5
318333A7
330
318324AF
100
AcDbEntity
  8
SAISEN
100
AcDbCircle
 10
419.9580706248132
 20
685.2550755819672
 30
0.0
 40
1.840933641609659
100
AcDbArc
 50
292.565048168416
 51
67.43495183154141
  0
ARC
  5
318333A8
330
318324AF
100
AcDbEntity
  8
0
100
AcDbCircle
 10
422.3321043505152
 20
686.2050755819669
 30
0.0
 40
1.8
100
AcDbArc
 50
94.43470569490276
 51
140.7033501036629
  0
ARC
  5
318333A9
330
318324AF
100
AcDbEntity
  8
0
100
AcDbCircle
 10
422.3321043505152
 20
684.3050755819668
 30
0.0
 40
1.8
100
AcDbArc
 50
219.2964802390731
 51
265.5652943050972
  0
ARC
  5
318333AA
330
318324AF
100
AcDbEntity
  8
0
100
AcDbCircle
 10
423.4929230271443
 20
685.2550755819668
 30
0.0
 40
3.300000000000011
100
AcDbArc
 50
140.7034272206017
 51
219.2964802390731
  0
LINE
  5
318333AB
330
318324AF
100
AcDbEntity
  8
0
100
AcDbLine
 10
422.1929230271443
 20
687.999686559092
 30
0.0
 11
422.1929230271443
 21
682.5104646048417
 31
0.0
  0
CIRCLE
  5
318333AC
330
318324AF
100
AcDbEntity
  8
JISSEN
100
AcDbCircle
 10
294.5684663604523
 20
589.2550755819668
 30
0.0
 40
2.744610977126966
  0
ARC
  5
318333AD
330
318324AF
100
AcDbEntity
  8
SAISEN
100
AcDbCircle
 10
294.5684663604523
 20
589.2550755819668
 30
0.0
 40
1.75
100
AcDbArc
 50
73.39845040097705
 51
106.6015495990229
  0
LINE
  5
318333AE
330
318324AF
100
AcDbEntity
  8
SAISEN
100
AcDbLine
 10
294.0684663604523
 20
590.9321265650918
 30
0.0
 11
294.0684663604523
 21
589.7550755819668
 31
0.0
  0
LINE
  5
318333AF
330
318324AF
100
AcDbEntity
  8
SAISEN
100
AcDbLine
 10
294.0684663604523
 20
589.7550755819668
 30
0.0
 11
292.8914153773275
 21
589.7550755819668
 31
0.0
  0
LINE
  5
318333B0
330
318324AF
100
AcDbEntity
  8
SAISEN
100
AcDbLine
 10
292.8914153773275
 20
588.7550755819668
 30
0.0
 11
294.0684663604523
 21
588.7550755819668
 31
0.0
  0
LINE
  5
318333B1
330
318324AF
100
AcDbEntity
  8
SAISEN
100
AcDbLine
 10
294.0684663604523
 20
588.7550755819668
 30
0.0
 11
294.0684663604523
 21
587.5780245988422
 31
0.0
  0
LINE
  5
318333B2
330
318324AF
100
AcDbEntity
  8
SAISEN
100
AcDbLine
 10
295.0684663604523
 20
587.578024598842
 30
0.0
 11
295.0684663604523
 21
588.7550755819668
 31
0.0
  0
LINE
  5
318333B3
330
318324AF
100
AcDbEntity
  8
SAISEN
100
AcDbLine
 10
295.0684663604523
 20
588.7550755819668
 30
0.0
 11
296.2455173435774
 21
588.7550755819668
 31
0.0
  0
LINE
  5
318333B4
330
318324AF
100
AcDbEntity
  8
SAISEN
100
AcDbLine
 10
296.2455173435774
 20
589.7550755819668
 30
0.0
 11
295.0684663604523
 21
589.7550755819668
 31
0.0
  0
LINE
  5
318333B5
330
318324AF
100
AcDbEntity
  8
SAISEN
100
AcDbLine
 10
295.0684663604523
 20
589.7550755819668
 30
0.0
 11
295.0684663604523
 21
590.9321265650918
 31
0.0
  0
ARC
  5
318333B6
330
318324AF
100
AcDbEntity
  8
SAISEN
100
AcDbCircle
 10
294.5684663604523
 20
589.2550755819668
 30
0.0
 40
1.75
100
AcDbArc
 50
163.3984504009792
 51
196.6015495990206
  0
ARC
  5
318333B7
330
318324AF
100
AcDbEntity
  8
SAISEN
100
AcDbCircle
 10
294.5684663604523
 20
589.2550755819668
 30
0.0
 40
1.75
100
AcDbArc
 50
253.398450400977
 51
286.6015495990228
  0
ARC
  5
318333B8
330
318324AF
100
AcDbEntity
  8
SAISEN
100
AcDbCircle
 10
294.5684663604523
 20
589.2550755819668
 30
0.0
 40
1.75
100
AcDbArc
 50
343.3984504009791
 51
16.60154959902075
  0
CIRCLE
  5
318333B9
330
318324AF
100
AcDbEntity
  8
JISSEN
100
AcDbCircle
 10
92.56846636045247
 20
589.2550755819668
 30
0.0
 40
2.744610977126966
  0
ARC
  5
318333BA
330
318324AF
100
AcDbEntity
  8
SAISEN
100
AcDbCircle
 10
92.56846636045247
 20
589.2550755819668
 30
0.0
 40
1.75
100
AcDbArc
 50
73.39845040097705
 51
106.6015495990229
  0
LINE
  5
318333BB
330
318324AF
100
AcDbEntity
  8
SAISEN
100
AcDbLine
 10
92.06846636045247
 20
590.9321265650918
 30
0.0
 11
92.06846636045247
 21
589.7550755819668
 31
0.0
  0
LINE
  5
318333BC
330
318324AF
100
AcDbEntity
  8
SAISEN
100
AcDbLine
 10
92.06846636045247
 20
589.7550755819668
 30
0.0
 11
90.89141537732755
 21
589.7550755819668
 31
0.0
  0
LINE
  5
318333BD
330
318324AF
100
AcDbEntity
  8
SAISEN
100
AcDbLine
 10
90.89141537732755
 20
588.7550755819668
 30
0.0
 11
92.06846636045247
 21
588.7550755819668
 31
0.0
  0
LINE
  5
318333BE
330
318324AF
100
AcDbEntity
  8
SAISEN
100
AcDbLine
 10
92.06846636045247
 20
588.7550755819668
 30
0.0
 11
92.06846636045247
 21
587.5780245988422
 31
0.0
  0
LINE
  5
318333BF
330
318324AF
100
AcDbEntity
  8
SAISEN
100
AcDbLine
 10
93.06846636045248
 20
587.578024598842
 30
0.0
 11
93.06846636045248
 21
588.7550755819668
 31
0.0
  0
LINE
  5
318333C0
330
318324AF
100
AcDbEntity
  8
SAISEN
100
AcDbLine
 10
93.06846636045248
 20
588.7550755819668
 30
0.0
 11
94.24551734357736
 21
588.7550755819668
 31
0.0
  0
LINE
  5
318333C1
330
318324AF
100
AcDbEntity
  8
SAISEN
100
AcDbLine
 10
94.24551734357736
 20
589.7550755819668
 30
0.0
 11
93.06846636045248
 21
589.7550755819668
 31
0.0
  0
LINE
  5
318333C2
330
318324AF
100
AcDbEntity
  8
SAISEN
100
AcDbLine
 10
93.06846636045248
 20
589.7550755819668
 30
0.0
 11
93.06846636045248
 21
590.9321265650918
 31
0.0
  0
ARC
  5
318333C3
330
318324AF
100
AcDbEntity
  8
SAISEN
100
AcDbCircle
 10
92.56846636045247
 20
589.2550755819668
 30
0.0
 40
1.75
100
AcDbArc
 50
163.3984504009792
 51
196.6015495990206
  0
ARC
  5
318333C4
330
318324AF
100
AcDbEntity
  8
SAISEN
100
AcDbCircle
 10
92.56846636045247
 20
589.2550755819668
 30
0.0
 40
1.75
100
AcDbArc
 50
253.398450400977
 51
286.6015495990228
  0
ARC
  5
318333C5
330
318324AF
100
AcDbEntity
  8
SAISEN
100
AcDbCircle
 10
92.56846636045247
 20
589.2550755819668
 30
0.0
 40
1.75
100
AcDbArc
 50
343.3984504009791
 51
16.60154959902075
  0
CIRCLE
  5
318333C6
330
318324AF
100
AcDbEntity
  8
JISSEN
100
AcDbCircle
 10
92.56846636045247
 20
685.2550755819668
 30
0.0
 40
2.744610977126966
  0
ARC
  5
318333C7
330
318324AF
100
AcDbEntity
  8
SAISEN
100
AcDbCircle
 10
92.56846636045247
 20
685.2550755819668
 30
0.0
 40
1.75
100
AcDbArc
 50
73.39845040097705
 51
106.6015495990229
  0
LINE
  5
318333C8
330
318324AF
100
AcDbEntity
  8
SAISEN
100
AcDbLine
 10
92.06846636045247
 20
686.9321265650918
 30
0.0
 11
92.06846636045247
 21
685.7550755819667
 31
0.0
  0
LINE
  5
318333C9
330
318324AF
100
AcDbEntity
  8
SAISEN
100
AcDbLine
 10
92.06846636045247
 20
685.7550755819667
 30
0.0
 11
90.89141537732755
 21
685.7550755819667
 31
0.0
  0
LINE
  5
318333CA
330
318324AF
100
AcDbEntity
  8
SAISEN
100
AcDbLine
 10
90.89141537732755
 20
684.7550755819668
 30
0.0
 11
92.06846636045247
 21
684.7550755819668
 31
0.0
  0
LINE
  5
318333CB
330
318324AF
100
AcDbEntity
  8
SAISEN
100
AcDbLine
 10
92.06846636045247
 20
684.7550755819668
 30
0.0
 11
92.06846636045247
 21
683.5780245988423
 31
0.0
  0
LINE
  5
318333CC
330
318324AF
100
AcDbEntity
  8
SAISEN
100
AcDbLine
 10
93.06846636045248
 20
683.578024598842
 30
0.0
 11
93.06846636045248
 21
684.7550755819668
 31
0.0
  0
LINE
  5
318333CD
330
318324AF
100
AcDbEntity
  8
SAISEN
100
AcDbLine
 10
93.06846636045248
 20
684.7550755819668
 30
0.0
 11
94.24551734357736
 21
684.7550755819668
 31
0.0
  0
LINE
  5
318333CE
330
318324AF
100
AcDbEntity
  8
SAISEN
100
AcDbLine
 10
94.24551734357736
 20
685.7550755819667
 30
0.0
 11
93.06846636045248
 21
685.7550755819667
 31
0.0
  0
LINE
  5
318333CF
330
318324AF
100
AcDbEntity
  8
SAISEN
100
AcDbLine
 10
93.06846636045248
 20
685.7550755819667
 30
0.0
 11
93.06846636045248
 21
686.9321265650918
 31
0.0
  0
ARC
  5
318333D0
330
318324AF
100
AcDbEntity
  8
SAISEN
100
AcDbCircle
 10
92.56846636045247
 20
685.2550755819668
 30
0.0
 40
1.75
100
AcDbArc
 50
163.3984504009792
 51
196.6015495990206
  0
ARC
  5
318333D1
330
318324AF
100
AcDbEntity
  8
SAISEN
100
AcDbCircle
 10
92.56846636045247
 20
685.2550755819668
 30
0.0
 40
1.75
100
AcDbArc
 50
253.398450400977
 51
286.6015495990228
  0
ARC
  5
318333D2
330
318324AF
100
AcDbEntity
  8
SAISEN
100
AcDbCircle
 10
92.56846636045247
 20
685.2550755819668
 30
0.0
 40
1.75
100
AcDbArc
 50
343.3984504009791
 51
16.60154959902075
  0
LINE
  5
318333E0
330
318324AF
100
AcDbEntity
  8
0
100
AcDbLine
 10
36.71386463320175
 20
401.0018425502854
 30
0.0
 11
36.71386463320175
 21
394.005346446212
 31
0.0
  0
ARC
  5
318333E1
330
318324AF
100
AcDbEntity
  8
0
100
AcDbCircle
 10
38.31386463320177
 20
397.5018425502856
 30
0.0
 40
4.200000000000017
100
AcDbArc
 50
179.9999999999999
 51
219.1667107161324
  0
ARC
  5
318333E2
330
318324AF
100
AcDbEntity
  8
0
100
AcDbCircle
 10
36.84077264693667
 20
396.3018425502854
 30
0.0
 40
2.299999999999998
100
AcDbArc
 50
219.1667107161325
 51
266.8369616226736
  0
ARC
  5
318333E3
330
318324AF
100
AcDbEntity
  8
0
100
AcDbCircle
 10
36.84077264693667
 20
398.7018425502856
 30
0.0
 40
2.299999999999998
100
AcDbArc
 50
93.16303837732641
 51
140.8332892838676
  0
ARC
  5
318333E4
330
318324AF
100
AcDbEntity
  8
0
100
AcDbCircle
 10
38.31386463320177
 20
397.5018425502856
 30
0.0
 40
4.200000000000017
100
AcDbArc
 50
140.8332892838674
 51
180.0
  0
ARC
  5
318333E5
330
318324AF
100
AcDbEntity
  8
SAISEN
100
AcDbCircle
 10
34.29975956657802
 20
397.5018425502856
 30
0.0
 40
2.025575541927546
100
AcDbArc
 50
279.1145210713242
 51
80.88547892867579
  0
LINE
  5
318333E6
330
318324AF
100
AcDbEntity
  8
JISSEN
100
AcDbLine
 10
29.06846636045247
 20
527.2550755819668
 30
0.0
 11
29.06846636045247
 21
567.2550755819668
 31
0.0
  0
LINE
  5
318333E7
330
318324AF
100
AcDbEntity
  8
JISSEN
100
AcDbLine
 10
29.06846636045247
 20
707.2550755819668
 30
0.0
 11
29.06846636045247
 21
747.2550755819668
 31
0.0
  0
LINE
  5
318333E8
330
318324AF
100
AcDbEntity
  8
JISSEN
100
AcDbLine
 10
29.06846636045247
 20
737.2550755819668
 30
0.0
 11
31.06846636045247
 21
737.2550755819668
 31
0.0
  0
LINE
  5
318333E9
330
318324AF
100
AcDbEntity
  8
JISSEN
100
AcDbLine
 10
31.06846636045247
 20
717.2550755819668
 30
0.0
 11
29.06846636045247
 21
717.2550755819668
 31
0.0
  0
LINE
  5
318333EA
330
318324AF
100
AcDbEntity
  8
JISSEN
100
AcDbLine
 10
35.71386463320175
 20
413.6676241063748
 30
0.0
 11
35.71386463320175
 21
414.0053464462065
 31
0.0
  0
LINE
  5
318333EB
330
318324AF
100
AcDbEntity
  8
JISSEN
100
AcDbLine
 10
36.71386463320175
 20
412.9548361889897
 30
0.0
 11
36.71386463320175
 21
414.0053464462065
 31
0.0
  0
LINE
  5
318333EC
330
318324AF
100
AcDbEntity
  8
JISSEN
100
AcDbLine
 10
35.71386463320175
 20
407.3430687860381
 30
0.0
 11
35.28529320463031
 21
408.2465766889432
 31
0.0
  0
CIRCLE
  5
318333ED
330
318324AF
100
AcDbEntity
  8
SAISEN
100
AcDbCircle
 10
34.21386463320175
 20
410.5053464462065
 30
0.0
 40
2.5
  0
LINE
  5
318333EE
330
318324AF
100
AcDbEntity
  8
JISSEN
100
AcDbLine
 10
36.71386463320175
 20
392.0053464462064
 30
0.0
 11
36.71386463320175
 21
410.5053464462065
 31
0.0
  0
LINE
  5
318333EF
330
318324AF
100
AcDbEntity
  8
JISSEN
100
AcDbLine
 10
37.71386463320175
 20
392.0053464462064
 30
0.0
 11
36.71386463320175
 21
392.0053464462064
 31
0.0
  0
ARC
  5
318333F0
330
318324AF
100
AcDbEntity
  8
JISSEN
100
AcDbCircle
 10
34.21386463320175
 20
410.5053464462065
 30
0.0
 40
3.5
100
AcDbArc
 50
0.0
 51
295.3769335251529
  0
ARC
  5
318333F1
330
318324AF
100
AcDbEntity
  8
SAISEN
100
AcDbCircle
 10
358.9712239460825
 20
402.7627057590871
 30
0.0
 40
1.5
100
AcDbArc
 50
343.4526342617893
 51
10.24341371001063
  0
ARC
  5
318333F2
330
318324AF
100
AcDbEntity
  8
JISSEN
100
AcDbCircle
 10
358.9712239460825
 20
402.7627057590871
 30
0.0
 40
4.242640687119283
100
AcDbArc
 50
94.17142539113214
 51
180.0
  0
ARC
  5
318333F3
330
318324AF
100
AcDbEntity
  8
JISSEN
100
AcDbCircle
 10
355.6485832589633
 20
387.9253464462063
 30
0.0
 40
0.9200000000000001
100
AcDbArc
 50
179.9999999999978
 51
270.0
  0
LINE
  5
318333F4
330
318324AF
100
AcDbEntity
  8
JISSEN
100
AcDbLine
 10
358.5614487348552
 20
379.0053464462066
 30
0.0
 11
359.9261033381765
 21
379.6416953384716
 31
0.0
  0
LINE
  5
318333F5
330
318324AF
100
AcDbEntity
  8
JISSEN
100
AcDbLine
 10
355.6496868607256
 20
387.0053464462063
 30
0.0
 11
358.5614487348553
 21
379.0053464462066
 31
0.0
  0
LINE
  5
318333F6
330
318324AF
100
AcDbEntity
  8
JISSEN
100
AcDbLine
 10
357.0041972821833
 20
387.6695662490803
 30
0.0
 11
362.8587164601601
 21
401.0634700623723
 31
0.0
  0
LINE
  5
318333F7
330
318324AF
100
AcDbEntity
  8
JISSEN
100
AcDbLine
 10
352.7138646332018
 20
398.5201984143693
 30
0.0
 11
354.2138646332016
 21
398.5201984143693
 31
0.0
  0
LINE
  5
318333F8
330
318324AF
100
AcDbEntity
  8
JISSEN
100
AcDbLine
 10
354.7285832589631
 20
402.7627057590871
 30
0.0
 11
354.7285832589631
 21
387.9253464462063
 31
0.0
  0
ARC
  5
318333F9
330
318324AF
100
AcDbEntity
  8
SAISEN
100
AcDbCircle
 10
358.9712239460825
 20
402.7627057590871
 30
0.0
 40
1.5
100
AcDbArc
 50
107.9813139064695
 51
245.7147340653316
  0
LWPOLYLINE
  5
318333FA
330
318324AF
100
AcDbEntity
  8
JISSEN
100
AcDbPolyline
 90
        4
 70
     1
 43
0.0
 10
359.2138646332015
 20
417.0045409814027
 10
358.1328411221306
 20
397.3738110695756
 10
360.1298155256056
 20
397.2638418381279
 10
361.2108390366768
 20
416.894571749955
  0
ARC
  5
318333FB
330
318324AF
100
AcDbEntity
  8
JISSEN
100
AcDbCircle
 10
358.9712239460825
 20
402.7627057590871
 30
0.0
 40
4.242640687119283
100
AcDbArc
 50
336.3897040618553
 51
66.73123831488758
  0
LINE
  5
318333FC
330
318324AF
100
AcDbEntity
  8
JISSEN
100
AcDbLine
 10
352.7138646332017
 20
407.0053464462064
 30
0.0
 11
358.9712239460825
 21
407.0053464462064
 31
0.0
  0
ARC
  5
318333FD
330
318324AF
100
AcDbEntity
  8
JISSEN
100
AcDbCircle
 10
362.0534210807508
 20
415.4568609248827
 30
0.0
 40
1.0
100
AcDbArc
 50
24.99999999999825
 51
109.9999999999965
  0
ARC
  5
318333FE
330
318324AF
100
AcDbEntity
  8
JISSEN
100
AcDbCircle
 10
359.2138646332015
 20
415.4875246719321
 30
0.0
 40
1.5
100
AcDbArc
 50
180.0
 51
263.6602545730381
  0
LINE
  5
318333FF
330
318324AF
100
AcDbEntity
  8
JISSEN
100
AcDbLine
 10
362.9597288677874
 20
415.8794791866235
 30
0.0
 11
363.2088194721105
 21
415.3453026618188
 31
0.0
  0
LINE
  5
31833400
330
318324AF
100
AcDbEntity
  8
JISSEN
100
AcDbLine
 10
363.2088194721105
 20
415.3453026618188
 30
0.0
 11
361.0829143097423
 21
414.5715364618441
 31
0.0
  0
LINE
  5
31833401
330
318324AF
100
AcDbEntity
  8
JISSEN
100
AcDbLine
 10
361.1726152823884
 20
416.2004516045858
 30
0.0
 11
361.7114009374251
 21
416.3965535456687
 31
0.0
  0
LINE
  5
31833402
330
318324AF
100
AcDbEntity
  8
JISSEN
100
AcDbLine
 10
359.2138646332015
 20
428.0037315987616
 30
0.0
 11
359.2138646332015
 21
417.0045409814027
 31
0.0
  0
LINE
  5
31833403
330
318324AF
100
AcDbEntity
  8
JISSEN
100
AcDbLine
 10
357.7138646332016
 20
428.0037315987616
 30
0.0
 11
359.2138646332015
 21
428.0037315987616
 31
0.0
  0
LINE
  5
31833404
330
318324AF
100
AcDbEntity
  8
SAISEN
100
AcDbLine
 10
357.0684663604523
 20
629.7550755819671
 30
0.0
 11
360.0684663604523
 21
629.7550755819671
 31
0.0
  0
LINE
  5
31833405
330
318324AF
100
AcDbEntity
  8
SAISEN
100
AcDbLine
 10
360.0684663604523
 20
629.7550755819671
 30
0.0
 11
360.0684663604523
 21
630.2550755819671
 31
0.0
  0
LINE
  5
31833406
330
318324AF
100
AcDbEntity
  8
SAISEN
100
AcDbLine
 10
357.0684663604523
 20
629.7550755819671
 30
0.0
 11
357.0684663604523
 21
630.2550755819671
 31
0.0
  0
LINE
  5
31833407
330
318324AF
100
AcDbEntity
  8
JISSEN
100
AcDbLine
 10
357.5684663604523
 20
629.7550755819671
 30
0.0
 11
357.5684663604523
 21
627.2192133309014
 31
0.0
  0
ARC
  5
31833408
330
318324AF
100
AcDbEntity
  8
JISSEN
100
AcDbCircle
 10
358.5684663604523
 20
627.2192133309014
 30
0.0
 40
1.0
100
AcDbArc
 50
180.0
 51
270.0
  0
ARC
  5
31833409
330
318324AF
100
AcDbEntity
  8
JISSEN
100
AcDbCircle
 10
358.5684663604523
 20
627.2192133309014
 30
0.0
 40
1.0
100
AcDbArc
 50
270.0
 51
0.0
  0
LINE
  5
3183340A
330
318324AF
100
AcDbEntity
  8
JISSEN
100
AcDbLine
 10
359.5684663604523
 20
627.2192133309014
 30
0.0
 11
359.5684663604523
 21
629.7550755819671
 31
0.0
  0
LINE
  5
3183340B
330
318324AF
100
AcDbEntity
  8
JISSEN
100
AcDbLine
 10
359.5684663604523
 20
647.2909378330323
 30
0.0
 11
359.5684663604523
 21
644.7550755819668
 31
0.0
  0
ARC
  5
3183340C
330
318324AF
100
AcDbEntity
  8
JISSEN
100
AcDbCircle
 10
358.5684663604523
 20
647.2909378330323
 30
0.0
 40
1.0
100
AcDbArc
 50
0.0
 51
90.0
  0
ARC
  5
3183340D
330
318324AF
100
AcDbEntity
  8
JISSEN
100
AcDbCircle
 10
358.5684663604523
 20
647.2909378330323
 30
0.0
 40
1.0
100
AcDbArc
 50
90.0
 51
180.0
  0
LINE
  5
3183340E
330
318324AF
100
AcDbEntity
  8
JISSEN
100
AcDbLine
 10
357.5684663604523
 20
644.7550755819668
 30
0.0
 11
357.5684663604523
 21
647.2909378330323
 31
0.0
  0
LINE
  5
3183340F
330
318324AF
100
AcDbEntity
  8
SAISEN
100
AcDbLine
 10
357.0684663604523
 20
644.7550755819668
 30
0.0
 11
357.0684663604523
 21
644.2550755819667
 31
0.0
  0
LINE
  5
31833410
330
318324AF
100
AcDbEntity
  8
SAISEN
100
AcDbLine
 10
360.0684663604523
 20
644.7550755819668
 30
0.0
 11
360.0684663604523
 21
644.2550755819667
 31
0.0
  0
LINE
  5
31833411
330
318324AF
100
AcDbEntity
  8
SAISEN
100
AcDbLine
 10
357.0684663604523
 20
644.7550755819668
 30
0.0
 11
360.0684663604523
 21
644.7550755819668
 31
0.0
  0
LINE
  5
31833412
330
318324AF
100
AcDbEntity
  8
SAISEN
100
AcDbLine
 10
361.5684663604525
 20
644.2550755819667
 30
0.0
 11
353.0684663604523
 21
644.2550755819667
 31
0.0
  0
LINE
  5
31833413
330
318324AF
100
AcDbEntity
  8
SAISEN
100
AcDbLine
 10
352.0684663604523
 20
642.2550755819668
 30
0.0
 11
352.0684663604523
 21
632.2550755819668
 31
0.0
  0
LINE
  5
31833414
330
318324AF
100
AcDbEntity
  8
SAISEN
100
AcDbLine
 10
353.0684663604525
 20
632.2550755819668
 30
0.0
 11
353.0684663604523
 21
642.2550755819668
 31
0.0
  0
LINE
  5
31833415
330
318324AF
100
AcDbEntity
  8
SAISEN
100
AcDbLine
 10
361.5684663604525
 20
642.2550755819668
 30
0.0
 11
352.0684663604523
 21
642.2550755819668
 31
0.0
  0
LINE
  5
31833416
330
318324AF
100
AcDbEntity
  8
JISSEN
100
AcDbLine
 10
361.5684663604525
 20
643.2550755819668
 30
0.0
 11
351.0684663604525
 21
643.2550755819668
 31
0.0
  0
LINE
  5
31833417
330
318324AF
100
AcDbEntity
  8
SAISEN
100
AcDbLine
 10
353.0684663604523
 20
643.2550755819668
 30
0.0
 11
353.0684663604525
 21
644.2550755819667
 31
0.0
  0
LINE
  5
31833418
330
318324AF
100
AcDbEntity
  8
SAISEN
100
AcDbLine
 10
353.0684663604523
 20
631.2550755819668
 30
0.0
 11
353.0684663604525
 21
630.2550755819668
 31
0.0
  0
LINE
  5
31833419
330
318324AF
100
AcDbEntity
  8
JISSEN
100
AcDbLine
 10
361.5684663604525
 20
631.2550755819668
 30
0.0
 11
351.0684663604525
 21
631.2550755819668
 31
0.0
  0
LINE
  5
3183341A
330
318324AF
100
AcDbEntity
  8
SAISEN
100
AcDbLine
 10
361.5684663604525
 20
632.2550755819668
 30
0.0
 11
352.0684663604523
 21
632.2550755819668
 31
0.0
  0
LINE
  5
3183341B
330
318324AF
100
AcDbEntity
  8
SAISEN
100
AcDbLine
 10
353.0684663604525
 20
642.2550755819668
 30
0.0
 11
353.0684663604523
 21
632.2550755819668
 31
0.0
  0
LINE
  5
3183341C
330
318324AF
100
AcDbEntity
  8
SAISEN
100
AcDbLine
 10
352.0684663604523
 20
632.2550755819668
 30
0.0
 11
352.0684663604523
 21
642.2550755819668
 31
0.0
  0
LINE
  5
3183341D
330
318324AF
100
AcDbEntity
  8
SAISEN
100
AcDbLine
 10
361.5684663604525
 20
630.2550755819668
 30
0.0
 11
353.0684663604523
 21
630.2550755819668
 31
0.0
  0
LINE
  5
3183341E
330
318324AF
100
AcDbEntity
  8
JISSEN
100
AcDbLine
 10
361.5684663604525
 20
644.2550755819667
 30
0.0
 11
361.5684663604525
 21
630.2550755819668
 31
0.0
  0
LINE
  5
3183341F
330
318324AF
100
AcDbEntity
  8
JISSEN
100
AcDbLine
 10
437.1929230271444
 20
629.6995200264112
 30
0.0
 11
437.1929230271441
 21
507.2550755819668
 31
0.0
  0
LINE
  5
31833420
330
318324AF
100
AcDbEntity
  8
JISSEN
100
AcDbLine
 10
437.1929230271441
 20
642.5145853647387
 30
0.0
 11
437.1929230271441
 21
631.995565799195
 31
0.0
  0
LINE
  5
31833421
330
318324AF
100
AcDbEntity
  8
SAISEN
100
AcDbLine
 10
445.1929230271441
 20
632.2550755819671
 30
0.0
 11
445.1929230271441
 21
631.2550755819668
 31
0.0
  0
LINE
  5
31833422
330
318324AF
100
AcDbEntity
  8
SAISEN
100
AcDbLine
 10
445.1929230271441
 20
643.2550755819668
 30
0.0
 11
445.1929230271441
 21
642.2550755819671
 31
0.0
  0
LINE
  5
31833423
330
318324AF
100
AcDbEntity
  8
SAISEN
100
AcDbLine
 10
448.6929230271441
 20
631.2550755819668
 30
0.0
 11
444.1929230271441
 21
631.2550755819668
 31
0.0
  0
LINE
  5
31833424
330
318324AF
100
AcDbEntity
  8
SAISEN
100
AcDbLine
 10
448.6929230271441
 20
632.2550755819668
 30
0.0
 11
448.6929230271441
 21
630.2550755819668
 31
0.0
  0
LINE
  5
31833425
330
318324AF
100
AcDbEntity
  8
SAISEN
100
AcDbLine
 10
445.1929230271441
 20
632.2550755819668
 30
0.0
 11
448.6929230271441
 21
632.2550755819668
 31
0.0
  0
LINE
  5
31833426
330
318324AF
100
AcDbEntity
  8
SAISEN
100
AcDbLine
 10
448.6929230271441
 20
643.2550755819668
 30
0.0
 11
444.1929230271441
 21
643.2550755819668
 31
0.0
  0
LINE
  5
31833427
330
318324AF
100
AcDbEntity
  8
SAISEN
100
AcDbLine
 10
448.6929230271441
 20
642.2550755819668
 30
0.0
 11
448.6929230271441
 21
644.2550755819667
 31
0.0
  0
LINE
  5
31833428
330
318324AF
100
AcDbEntity
  8
SAISEN
100
AcDbLine
 10
445.1929230271441
 20
642.2550755819668
 30
0.0
 11
448.6929230271441
 21
642.2550755819668
 31
0.0
  0
ARC
  5
31833429
330
318324AF
100
AcDbEntity
  8
JISSEN
100
AcDbCircle
 10
434.1929230271443
 20
629.2550755819668
 30
0.0
 40
3.0
100
AcDbArc
 50
270.0
 51
0.0
  0
ARC
  5
3183342A
330
318324AF
100
AcDbEntity
  8
JISSEN
100
AcDbCircle
 10
434.1929230271443
 20
645.2550755819668
 30
0.0
 40
3.0
100
AcDbArc
 50
0.0000000000000127
 51
90.0
  0
ARC
  5
3183342B
330
318324AF
100
AcDbEntity
  8
JISSEN
100
AcDbCircle
 10
381.6929230271444
 20
637.2550755819668
 30
0.0
 40
72.49999999999976
100
AcDbArc
 50
5.54063766656526
 51
6.28834210454889
  0
ARC
  5
3183342C
330
318324AF
100
AcDbEntity
  8
JISSEN
100
AcDbCircle
 10
381.6929230271444
 20
637.2550755819668
 30
0.0
 40
70.49999999999975
100
AcDbArc
 50
5.69833191878324
 51
5.796277845860355
  0
LINE
  5
3183342D
330
318324AF
100
AcDbEntity
  8
SAISEN
100
AcDbLine
 10
447.1929230271443
 20
629.7550755819668
 30
0.0
 11
447.1929230271443
 21
630.2550755819668
 31
0.0
  0
LINE
  5
3183342E
330
318324AF
100
AcDbEntity
  8
SAISEN
100
AcDbLine
 10
450.1929230271441
 20
629.7550755819668
 30
0.0
 11
450.1929230271441
 21
630.2550755819668
 31
0.0
  0
LINE
  5
3183342F
330
318324AF
100
AcDbEntity
  8
SAISEN
100
AcDbLine
 10
447.1929230271443
 20
629.7550755819668
 30
0.0
 11
450.1929230271441
 21
629.7550755819668
 31
0.0
  0
LINE
  5
31833430
330
318324AF
100
AcDbEntity
  8
SAISEN
100
AcDbLine
 10
447.1929230271443
 20
644.7550755819668
 30
0.0
 11
450.1929230271441
 21
644.7550755819668
 31
0.0
  0
LINE
  5
31833431
330
318324AF
100
AcDbEntity
  8
SAISEN
100
AcDbLine
 10
450.1929230271441
 20
644.7550755819668
 30
0.0
 11
450.1929230271441
 21
644.2550755819667
 31
0.0
  0
LINE
  5
31833432
330
318324AF
100
AcDbEntity
  8
SAISEN
100
AcDbLine
 10
447.1929230271443
 20
644.7550755819668
 30
0.0
 11
447.1929230271443
 21
644.2550755819667
 31
0.0
  0
LINE
  5
31833433
330
318324AF
100
AcDbEntity
  8
JISSEN
100
AcDbLine
 10
468.6929230271442
 20
644.2550755819667
 30
0.0
 11
444.1929230271441
 21
644.2550755819667
 31
0.0
  0
ARC
  5
31833434
330
318324AF
100
AcDbEntity
  8
JISSEN
100
AcDbCircle
 10
468.6929230271442
 20
640.7550755819668
 30
0.0
 40
3.5
100
AcDbArc
 50
0.0
 51
90.0
  0
ARC
  5
31833435
330
318324AF
100
AcDbEntity
  8
JISSEN
100
AcDbCircle
 10
468.6929230271442
 20
633.7550755819668
 30
0.0
 40
3.5
100
AcDbArc
 50
270.0
 51
0.0
  0
LINE
  5
31833436
330
318324AF
100
AcDbEntity
  8
JISSEN
100
AcDbLine
 10
464.1929230271442
 20
630.2550755819668
 30
0.0
 11
464.1929230271442
 21
644.2550755819667
 31
0.0
  0
LINE
  5
31833437
330
318324AF
100
AcDbEntity
  8
JISSEN
100
AcDbLine
 10
435.1929230271442
 20
632.2550755819668
 30
0.0
 11
437.1929230271441
 21
632.2550755819668
 31
0.0
  0
LINE
  5
31833438
330
318324AF
100
AcDbEntity
  8
JISSEN
100
AcDbLine
 10
435.1929230271442
 20
642.2550755819668
 30
0.0
 11
435.1929230271442
 21
632.2550755819668
 31
0.0
  0
LINE
  5
31833439
330
318324AF
100
AcDbEntity
  8
JISSEN
100
AcDbLine
 10
437.1929230271441
 20
642.2550755819668
 30
0.0
 11
435.1929230271442
 21
642.2550755819668
 31
0.0
  0
LINE
  5
3183343A
330
318324AF
100
AcDbEntity
  8
JISSEN
100
AcDbLine
 10
437.1655548726506
 20
644.8030288723854
 30
0.0
 11
449.3410146076617
 21
648.1851010209993
 31
0.0
  0
LINE
  5
3183343B
330
318324AF
100
AcDbEntity
  8
JISSEN
100
AcDbLine
 10
437.1655548726506
 20
629.7071222915483
 30
0.0
 11
449.3410146076617
 21
626.3250501429342
 31
0.0
  0
ARC
  5
3183343C
330
318324AF
100
AcDbEntity
  8
JISSEN
100
AcDbCircle
 10
459.1929230271443
 20
637.2550755819668
 30
0.0
 40
25.0
100
AcDbArc
 50
168.8010810772578
 51
191.1989189227419
  0
ARC
  5
3183343D
330
318324AF
100
AcDbEntity
  8
JISSEN
100
AcDbCircle
 10
381.6929230271444
 20
637.2550755819668
 30
0.0
 40
72.49999999999976
100
AcDbArc
 50
353.7116578954509
 51
354.4593623334346
  0
LINE
  5
3183343E
330
318324AF
100
AcDbEntity
  8
JISSEN
100
AcDbLine
 10
438.0000887657371
 20
642.9591169879905
 30
0.0
 11
449.3074134134238
 21
646.100040501237
 31
0.0
  0
ARC
  5
3183343F
330
318324AF
100
AcDbEntity
  8
JISSEN
100
AcDbCircle
 10
381.6929230271444
 20
637.2550755819668
 30
0.0
 40
70.49999999999975
100
AcDbArc
 50
354.2037221541395
 51
354.3016680812166
  0
LINE
  5
31833440
330
318324AF
100
AcDbEntity
  8
JISSEN
100
AcDbLine
 10
438.0000887657371
 20
631.5510341759432
 30
0.0
 11
449.3074134134238
 21
628.410110662697
 31
0.0
  0
ARC
  5
31833441
330
318324AF
100
AcDbEntity
  8
JISSEN
100
AcDbCircle
 10
438.5353764933094
 20
641.0320811687308
 30
0.0
 40
2.0
100
AcDbArc
 50
105.52411099675
 51
142.3021603409671
  0
ARC
  5
31833442
330
318324AF
100
AcDbEntity
  8
JISSEN
100
AcDbCircle
 10
449.842701140996
 20
644.173004681977
 30
0.0
 40
2.0
100
AcDbArc
 50
5.796277845860574
 51
105.5241109967563
  0
ARC
  5
31833443
330
318324AF
100
AcDbEntity
  8
JISSEN
100
AcDbCircle
 10
449.842701140996
 20
630.3371464819568
 30
0.0
 40
2.0
100
AcDbArc
 50
254.4758890032436
 51
354.2037221541394
  0
ARC
  5
31833444
330
318324AF
100
AcDbEntity
  8
JISSEN
100
AcDbCircle
 10
450.277768130913
 20
644.8127883372948
 30
0.0
 40
3.5
100
AcDbArc
 50
6.288342104548155
 51
105.5241109967564
  0
ARC
  5
31833445
330
318324AF
100
AcDbEntity
  8
JISSEN
100
AcDbCircle
 10
450.277768130913
 20
629.697362826639
 30
0.0
 40
3.5
100
AcDbArc
 50
254.4758890032435
 51
353.7116578954518
  0
ARC
  5
31833446
330
318324AF
100
AcDbEntity
  8
JISSEN
100
AcDbCircle
 10
438.5353764933094
 20
633.4780699952029
 30
0.0
 40
2.0
100
AcDbArc
 50
217.6978396590326
 51
254.4758890032499
  0
ARC
  5
31833447
330
318324AF
100
AcDbEntity
  8
JISSEN
100
AcDbCircle
 10
438.102308395902
 20
633.0794349752531
 30
0.0
 40
3.5
100
AcDbArc
 50
191.1989189227418
 51
254.4758890032435
  0
ARC
  5
31833448
330
318324AF
100
AcDbEntity
  8
JISSEN
100
AcDbCircle
 10
438.102308395902
 20
641.4307161886805
 30
0.0
 40
3.5
100
AcDbArc
 50
105.5241109967564
 51
168.801081077258
  0
LINE
  5
31833449
330
318324AF
100
AcDbEntity
  8
JISSEN
100
AcDbLine
 10
437.1929230271441
 20
631.995565799195
 30
0.0
 11
437.1929230271441
 21
642.5145853647387
 31
0.0
  0
LINE
  5
3183344A
330
318324AF
100
AcDbEntity
  8
JISSEN
100
AcDbLine
 10
472.1929230271443
 20
633.7550755819668
 30
0.0
 11
472.1929230271443
 21
640.7550755819668
 31
0.0
  0
LINE
  5
3183344B
330
318324AF
100
AcDbEntity
  8
JISSEN
100
AcDbLine
 10
444.1929230271441
 20
630.2550755819668
 30
0.0
 11
468.6929230271442
 21
630.2550755819668
 31
0.0
  0
LINE
  5
3183344C
330
318324AF
100
AcDbEntity
  8
JISSEN
100
AcDbLine
 10
444.1929230271441
 20
644.2550755819667
 30
0.0
 11
444.1929230271441
 21
630.2550755819668
 31
0.0
  0
ARC
  5
3183344D
330
318324AF
100
AcDbEntity
  8
JISSEN
100
AcDbCircle
 10
426.611960054225
 20
628.2550755819668
 30
0.0
 40
2.0
100
AcDbArc
 50
197.9202131393929
 51
270.0
  0
ARC
  5
3183344E
330
318324AF
100
AcDbEntity
  8
JISSEN
100
AcDbCircle
 10
426.611960054225
 20
646.2550755819668
 30
0.0
 40
2.0
100
AcDbArc
 50
90.0
 51
162.079786860607
  0
LINE
  5
3183344F
330
318324AF
100
AcDbEntity
  8
JISSEN
100
AcDbLine
 10
426.611960054225
 20
626.2550755819668
 30
0.0
 11
434.1929230271443
 21
626.2550755819668
 31
0.0
  0
LINE
  5
31833450
330
318324AF
100
AcDbEntity
  8
JISSEN
100
AcDbLine
 10
426.611960054225
 20
648.2550755819667
 30
0.0
 11
434.1929230271443
 21
648.2550755819667
 31
0.0
  0
CIRCLE
  5
31833451
330
318324AF
100
AcDbEntity
  8
JISSEN
100
AcDbCircle
 10
428.1929230271441
 20
630.7550755819668
 30
0.0
 40
3.0
  0
ARC
  5
31833452
330
318324AF
100
AcDbEntity
  8
SAISEN
100
AcDbCircle
 10
428.1929230271441
 20
630.7550755819668
 30
0.0
 40
1.75
100
AcDbArc
 50
73.39845040097705
 51
106.6015495990229
  0
LINE
  5
31833453
330
318324AF
100
AcDbEntity
  8
SAISEN
100
AcDbLine
 10
427.6929230271441
 20
632.4321265650918
 30
0.0
 11
427.6929230271441
 21
631.2550755819668
 31
0.0
  0
LINE
  5
31833454
330
318324AF
100
AcDbEntity
  8
SAISEN
100
AcDbLine
 10
427.6929230271441
 20
631.2550755819668
 30
0.0
 11
426.5158720440195
 21
631.2550755819668
 31
0.0
  0
LINE
  5
31833455
330
318324AF
100
AcDbEntity
  8
SAISEN
100
AcDbLine
 10
426.5158720440195
 20
630.2550755819668
 30
0.0
 11
427.6929230271441
 21
630.2550755819668
 31
0.0
  0
LINE
  5
31833456
330
318324AF
100
AcDbEntity
  8
SAISEN
100
AcDbLine
 10
427.6929230271441
 20
630.2550755819668
 30
0.0
 11
427.6929230271441
 21
629.0780245988422
 31
0.0
  0
LINE
  5
31833457
330
318324AF
100
AcDbEntity
  8
SAISEN
100
AcDbLine
 10
428.6929230271441
 20
629.078024598842
 30
0.0
 11
428.6929230271441
 21
630.2550755819668
 31
0.0
  0
LINE
  5
31833458
330
318324AF
100
AcDbEntity
  8
SAISEN
100
AcDbLine
 10
428.6929230271441
 20
630.2550755819668
 30
0.0
 11
429.8699740102692
 21
630.2550755819668
 31
0.0
  0
LINE
  5
31833459
330
318324AF
100
AcDbEntity
  8
SAISEN
100
AcDbLine
 10
429.8699740102692
 20
631.2550755819668
 30
0.0
 11
428.6929230271441
 21
631.2550755819668
 31
0.0
  0
LINE
  5
3183345A
330
318324AF
100
AcDbEntity
  8
SAISEN
100
AcDbLine
 10
428.6929230271441
 20
631.2550755819668
 30
0.0
 11
428.6929230271441
 21
632.4321265650918
 31
0.0
  0
ARC
  5
3183345B
330
318324AF
100
AcDbEntity
  8
SAISEN
100
AcDbCircle
 10
428.1929230271441
 20
630.7550755819668
 30
0.0
 40
1.75
100
AcDbArc
 50
163.3984504009792
 51
196.6015495990206
  0
ARC
  5
3183345C
330
318324AF
100
AcDbEntity
  8
SAISEN
100
AcDbCircle
 10
428.1929230271441
 20
630.7550755819668
 30
0.0
 40
1.75
100
AcDbArc
 50
253.398450400977
 51
286.6015495990228
  0
ARC
  5
3183345D
330
318324AF
100
AcDbEntity
  8
SAISEN
100
AcDbCircle
 10
428.1929230271441
 20
630.7550755819668
 30
0.0
 40
1.75
100
AcDbArc
 50
343.3984504009791
 51
16.60154959902075
  0
ARC
  5
3183345E
330
318324AF
100
AcDbEntity
  8
SAISEN
100
AcDbCircle
 10
428.1929230271441
 20
643.7550755819668
 30
0.0
 40
1.75
100
AcDbArc
 50
343.3984504009791
 51
16.60154959902075
  0
ARC
  5
3183345F
330
318324AF
100
AcDbEntity
  8
SAISEN
100
AcDbCircle
 10
428.1929230271441
 20
643.7550755819668
 30
0.0
 40
1.75
100
AcDbArc
 50
253.398450400977
 51
286.6015495990228
  0
ARC
  5
31833460
330
318324AF
100
AcDbEntity
  8
SAISEN
100
AcDbCircle
 10
428.1929230271441
 20
643.7550755819668
 30
0.0
 40
1.75
100
AcDbArc
 50
163.3984504009792
 51
196.6015495990206
  0
LINE
  5
31833461
330
318324AF
100
AcDbEntity
  8
SAISEN
100
AcDbLine
 10
428.6929230271441
 20
644.2550755819667
 30
0.0
 11
428.6929230271441
 21
645.4321265650918
 31
0.0
  0
LINE
  5
31833462
330
318324AF
100
AcDbEntity
  8
SAISEN
100
AcDbLine
 10
429.8699740102692
 20
644.2550755819667
 30
0.0
 11
428.6929230271441
 21
644.2550755819667
 31
0.0
  0
LINE
  5
31833463
330
318324AF
100
AcDbEntity
  8
SAISEN
100
AcDbLine
 10
428.6929230271441
 20
643.2550755819668
 30
0.0
 11
429.8699740102692
 21
643.2550755819668
 31
0.0
  0
LINE
  5
31833464
330
318324AF
100
AcDbEntity
  8
SAISEN
100
AcDbLine
 10
428.6929230271441
 20
642.078024598842
 30
0.0
 11
428.6929230271441
 21
643.2550755819668
 31
0.0
  0
LINE
  5
31833465
330
318324AF
100
AcDbEntity
  8
SAISEN
100
AcDbLine
 10
427.6929230271441
 20
643.2550755819668
 30
0.0
 11
427.6929230271441
 21
642.0780245988423
 31
0.0
  0
LINE
  5
31833466
330
318324AF
100
AcDbEntity
  8
SAISEN
100
AcDbLine
 10
426.5158720440195
 20
643.2550755819668
 30
0.0
 11
427.6929230271441
 21
643.2550755819668
 31
0.0
  0
LINE
  5
31833467
330
318324AF
100
AcDbEntity
  8
SAISEN
100
AcDbLine
 10
427.6929230271441
 20
644.2550755819667
 30
0.0
 11
426.5158720440195
 21
644.2550755819667
 31
0.0
  0
LINE
  5
31833468
330
318324AF
100
AcDbEntity
  8
SAISEN
100
AcDbLine
 10
427.6929230271441
 20
645.4321265650918
 30
0.0
 11
427.6929230271441
 21
644.2550755819667
 31
0.0
  0
ARC
  5
31833469
330
318324AF
100
AcDbEntity
  8
SAISEN
100
AcDbCircle
 10
428.1929230271441
 20
643.7550755819668
 30
0.0
 40
1.75
100
AcDbArc
 50
73.39845040097705
 51
106.6015495990229
  0
CIRCLE
  5
3183346A
330
318324AF
100
AcDbEntity
  8
JISSEN
100
AcDbCircle
 10
428.1929230271441
 20
643.7550755819668
 30
0.0
 40
3.0
  0
ARC
  5
3183346B
330
318324AF
100
AcDbEntity
  8
JISSEN
100
AcDbCircle
 10
454.4429230271441
 20
637.2550755819668
 30
0.0
 40
31.24999999999994
100
AcDbArc
 50
162.0797868606075
 51
197.9202131393923
  0
INSERT
  5
3183346C
330
318324AF
100
AcDbEntity
  8
JISSEN
100
AcDbBlockReference
  2
X023
 10
359.2138646332017
 20
423.0053464462064
 30
0.0
 50
180.0
  0
LINE
  5
3183346D
330
318324AF
100
AcDbEntity
  8
JISSEN
100
AcDbLine
 10
357.7138646332016
 20
414.0053464462067
 30
0.0
 11
32.71386463320175
 21
414.0053464462065
 31
0.0
  0
LINE
  5
3183346E
330
318324AF
100
AcDbEntity
  8
JISSEN
100
AcDbLine
 10
437.1929230271441
 20
767.2550755819668
 30
0.0
 11
437.1929230271441
 21
644.8106311375227
 31
0.0
  0
LINE
  5
31833470
330
318324AF
100
AcDbEntity
  8
ITTEN
 48
3.0
100
AcDbLine
 10
96.56846636045248
 20
725.2550755819667
 30
0.0
 11
56.56846636045248
 21
725.2550755819667
 31
0.0
  0
LINE
  5
31833471
330
318324AF
100
AcDbEntity
  8
ITTEN
 48
3.0
100
AcDbLine
 10
76.56846636045248
 20
745.2550755819665
 30
0.0
 11
76.56846636045248
 21
705.2550755819667
 31
0.0
  0
LINE
  5
31833472
330
318324AF
100
AcDbEntity
  8
JISSEN
100
AcDbLine
 10
31.06846636045247
 20
747.2550755819668
 30
0.0
 11
29.06846636045247
 21
747.2550755819668
 31
0.0
  0
LINE
  5
31833473
330
318324AF
100
AcDbEntity
  8
JISSEN
100
AcDbLine
 10
29.06846636045247
 20
707.2550755819668
 30
0.0
 11
31.06846636045247
 21
707.2550755819668
 31
0.0
  0
LINE
  5
31833474
330
318324AF
100
AcDbEntity
  8
JISSEN
100
AcDbLine
 10
31.06846636045247
 20
537.2550755819668
 30
0.0
 11
29.06846636045247
 21
537.2550755819668
 31
0.0
  0
LINE
  5
31833475
330
318324AF
100
AcDbEntity
  8
JISSEN
100
AcDbLine
 10
29.06846636045247
 20
557.2550755819668
 30
0.0
 11
31.06846636045247
 21
557.2550755819668
 31
0.0
  0
LINE
  5
31833476
330
318324AF
100
AcDbEntity
  8
JISSEN
100
AcDbLine
 10
29.06846636045247
 20
527.2550755819668
 30
0.0
 11
31.06846636045247
 21
527.2550755819668
 31
0.0
  0
LINE
  5
31833477
330
318324AF
100
AcDbEntity
  8
JISSEN
100
AcDbLine
 10
31.06846636045247
 20
567.2550755819668
 30
0.0
 11
29.06846636045247
 21
567.2550755819668
 31
0.0
  0
ARC
  5
31833478
330
318324AF
100
AcDbEntity
  8
JISSEN
100
AcDbCircle
 10
33.06846636045246
 20
765.2550755819667
 30
0.0
 40
2.0
100
AcDbArc
 50
90.0
 51
180.0
  0
LINE
  5
31833479
330
318324AF
100
AcDbEntity
  8
JISSEN
100
AcDbLine
 10
31.06846636045247
 20
765.2550755819667
 30
0.0
 11
31.06846636045247
 21
509.2550755819669
 31
0.0
  0
LINE
  5
3183347A
330
318324AF
100
AcDbEntity
  8
JISSEN
100
AcDbLine
 10
33.06846636045246
 20
767.2550755819671
 30
0.0
 11
355.7138646332016
 21
767.2550755819668
 31
0.0
  0
ARC
  5
3183347B
330
318324AF
100
AcDbEntity
  8
JISSEN
100
AcDbCircle
 10
33.06846636045246
 20
509.2550755819669
 30
0.0
 40
2.0
100
AcDbArc
 50
180.0
 51
270.0
  0
LINE
  5
3183347C
330
318324AF
100
AcDbEntity
  8
JISSEN
100
AcDbLine
 10
33.06846636045246
 20
507.2550755819668
 30
0.0
 11
355.7138646332016
 21
507.2550755819667
 31
0.0
  0
LINE
  5
31833487
330
318324AF
100
AcDbEntity
  8
JISSEN
100
AcDbLine
 10
354.2138646332016
 20
379.0053464462066
 30
0.0
 11
352.7138646332017
 21
379.0053464462066
 31
0.0
  0
LINE
  5
31833488
330
318324AF
100
AcDbEntity
  8
JISSEN
100
AcDbLine
 10
354.2138646332016
 20
398.5201984143693
 30
0.0
 11
354.2138646332016
 21
379.0053464462066
 31
0.0
  0
LINE
  5
31833489
330
318324AF
100
AcDbEntity
  8
JISSEN
100
AcDbLine
 10
357.7138646332016
 20
414.0053464462066
 30
0.0
 11
357.7138646332016
 21
428.0037315987616
 31
0.0
  0
LINE
  5
3183348A
330
318324AF
100
AcDbEntity
  8
JISSEN
100
AcDbLine
 10
422.1929230271443
 20
510.2550755819668
 30
0.0
 11
422.1929230271443
 21
764.2550755819667
 31
0.0
  0
ARC
  5
3183348B
330
318324AF
100
AcDbEntity
  8
JISSEN
100
AcDbCircle
 10
425.1929230271441
 20
510.2550755819668
 30
0.0
 40
3.0
100
AcDbArc
 50
180.0
 51
270.0
  0
LINE
  5
3183348C
330
318324AF
100
AcDbEntity
  8
JISSEN
100
AcDbLine
 10
425.1929230271441
 20
767.2550755819667
 30
0.0
 11
437.1929230271441
 21
767.2550755819668
 31
0.0
  0
ARC
  5
3183348D
330
318324AF
100
AcDbEntity
  8
JISSEN
100
AcDbCircle
 10
425.1929230271441
 20
764.2550755819667
 30
0.0
 40
3.0
100
AcDbArc
 50
90.0
 51
180.0
  0
ARC
  5
3183348E
330
318324AF
100
AcDbEntity
  8
JISSEN
100
AcDbCircle
 10
35.71386463320175
 20
426.0053464462066
 30
0.0
 40
3.0
100
AcDbArc
 50
90.0
 51
180.0
  0
ARC
  5
3183348F
330
318324AF
100
AcDbEntity
  8
JISSEN
100
AcDbCircle
 10
354.7138646332017
 20
426.0053464462066
 30
0.0
 40
3.0
100
AcDbArc
 50
0.0000000000000127
 51
90.0
  0
LINE
  5
31833490
330
318324AF
100
AcDbEntity
  8
JISSEN
100
AcDbLine
 10
505.1929230271443
 20
509.2550755819669
 30
0.0
 11
437.1929230271441
 21
509.2550755819669
 31
0.0
  0
ARC
  5
31833491
330
318324AF
100
AcDbEntity
  8
JISSEN
100
AcDbCircle
 10
505.1929230271443
 20
511.2550755819668
 30
0.0
 40
2.0
100
AcDbArc
 50
270.0
 51
0.0
  0
LINE
  5
31833492
330
318324AF
100
AcDbEntity
  8
JISSEN
100
AcDbLine
 10
507.1929230271441
 20
763.2550755819667
 30
0.0
 11
507.1929230271441
 21
511.2550755819668
 31
0.0
  0
ARC
  5
31833493
330
318324AF
100
AcDbEntity
  8
JISSEN
100
AcDbCircle
 10
505.1929230271443
 20
763.2550755819667
 30
0.0
 40
2.0
100
AcDbArc
 50
0.0
 51
90.0
  0
LINE
  5
31833494
330
318324AF
100
AcDbEntity
  8
JISSEN
100
AcDbLine
 10
37.71386463320175
 20
346.0053464462065
 30
0.0
 11
37.71386463320175
 21
414.0053464462065
 31
0.0
  0
LINE
  5
31833495
330
318324AF
100
AcDbEntity
  8
JISSEN
100
AcDbLine
 10
39.71386463320175
 20
344.0053464462065
 30
0.0
 11
350.7138646332017
 21
344.0053464462065
 31
0.0
  0
ARC
  5
31833496
330
318324AF
100
AcDbEntity
  8
JISSEN
100
AcDbCircle
 10
39.71386463320175
 20
346.0053464462065
 30
0.0
 40
2.0
100
AcDbArc
 50
180.0
 51
270.0
  0
ARC
  5
31833497
330
318324AF
100
AcDbEntity
  8
JISSEN
100
AcDbCircle
 10
350.7138646332017
 20
346.0053464462065
 30
0.0
 40
2.0
100
AcDbArc
 50
270.0
 51
0.0
  0
LINE
  5
31833498
330
318324AF
100
AcDbEntity
  8
JISSEN
100
AcDbLine
 10
357.7138646332016
 20
426.0053464462066
 30
0.0
 11
357.7138646332016
 21
419.0053464462065
 31
0.0
  0
LINE
  5
31833499
330
318324AF
100
AcDbEntity
  8
JISSEN
100
AcDbLine
 10
35.71386463320175
 20
429.0053464462066
 30
0.0
 11
354.7138646332017
 21
429.0053464462066
 31
0.0
  0
LINE
  5
3183349A
330
318324AF
100
AcDbEntity
  8
JISSEN
100
AcDbLine
 10
352.7138646332017
 20
414.0053464462066
 30
0.0
 11
352.7138646332017
 21
346.0053464462065
 31
0.0
  0
LINE
  5
3183349B
330
318324AF
100
AcDbEntity
  8
JISSEN
100
AcDbLine
 10
32.71386463320175
 20
414.0053464462065
 30
0.0
 11
32.71386463320175
 21
426.0053464462066
 31
0.0
  0
LINE
  5
3183349C
330
318324AF
100
AcDbEntity
  8
JISSEN
100
AcDbLine
 10
352.7138646332017
 20
346.0053464462065
 30
0.0
 11
352.7138646332018
 21
414.0053464462066
 31
0.0
  0
LINE
  5
3183349D
330
318324AF
100
AcDbEntity
  8
JISSEN
100
AcDbLine
 10
37.71386463320175
 20
414.0053464462065
 30
0.0
 11
37.71386463320175
 21
346.0053464462065
 31
0.0
  0
LINE
  5
3183349E
330
318324AF
100
AcDbEntity
  8
JISSEN
100
AcDbLine
 10
437.1929230271441
 20
765.2550755819667
 30
0.0
 11
505.1929230271443
 21
765.2550755819667
 31
0.0
  0
LINE
  5
3183349F
330
318324AF
100
AcDbEntity
  8
JISSEN
100
AcDbLine
 10
437.1929230271441
 20
507.2550755819668
 30
0.0
 11
425.1929230271441
 21
507.2550755819668
 31
0.0
  0
TEXT
  5
318335E4
330
318324AF
100
AcDbEntity
  8
SUNPOU
100
AcDbText
 10
413.2715574118798
 20
6.503658421196404
 30
0.0
 40
9.0
  1
A4用紙、印刷尺度 1/3
  7
K
100
AcDbText
  0
TEXT
  5
318335E5
330
318324AF
100
AcDbEntity
  8
SUNPOU
100
AcDbText
 10
413.2715574118798
 20
21.5036584211964
 30
0.0
 40
9.0
  1
格納箱M
  7
K
100
AcDbText
  0
TEXT
  5
318335ED
330
318324AF
100
AcDbEntity
  8
WAKU
100
AcDbText
 10
97.31846636045247
 20
644.7550755819668
 30
0.0
 40
25.0
  1
スプリンクラーヘッド格納箱
 41
0.5
  7
K
 72
     4
 11
193.5684663604524
 21
657.2550755819668
 31
0.0
100
AcDbText
  0
LWPOLYLINE
  5
318335EE
330
318324AF
100
AcDbEntity
  8
JISSEN
100
AcDbPolyline
 90
        2
 70
     0
 43
0.0
 10
303.5684663604523
 20
692.2550755819668
 10
83.56846636045247
 20
692.2550755819668
  0
LWPOLYLINE
  5
318335EF
330
318324AF
100
AcDbEntity
  8
JISSEN
100
AcDbPolyline
 90
        4
 70
     0
 43
0.0
 10
83.56846636045247
 20
692.2550755819668
 10
83.56846636045247
 20
582.2550755819668
 10
303.5684663604523
 20
582.2550755819668
 10
303.5684663604523
 20
692.2550755819668
  0
ARC
  5
318335F4
330
318324AF
100
AcDbEntity
  8
SAISEN
100
AcDbCircle
 10
294.5684663604523
 20
685.2550755819668
 30
0.0
 40
1.75
100
AcDbArc
 50
343.3984504009791
 51
16.60154959902077
  0
ARC
  5
318335F5
330
318324AF
100
AcDbEntity
  8
SAISEN
100
AcDbCircle
 10
294.5684663604523
 20
685.2550755819668
 30
0.0
 40
1.75
100
AcDbArc
 50
73.39845040097705
 51
106.6015495990229
  0
ARC
  5
318335F6
330
318324AF
100
AcDbEntity
  8
SAISEN
100
AcDbCircle
 10
294.5684663604523
 20
685.2550755819668
 30
0.0
 40
1.75
100
AcDbArc
 50
163.3984504009792
 51
196.6015495990206
  0
LINE
  5
318335F7
330
318324AF
100
AcDbEntity
  8
SAISEN
100
AcDbLine
 10
295.0684663604523
 20
684.7550755819668
 30
0.0
 11
295.0684663604523
 21
683.578024598842
 31
0.0
  0
LINE
  5
318335F8
330
318324AF
100
AcDbEntity
  8
SAISEN
100
AcDbLine
 10
296.2455173435774
 20
684.7550755819668
 30
0.0
 11
295.0684663604523
 21
684.7550755819668
 31
0.0
  0
LINE
  5
318335F9
330
318324AF
100
AcDbEntity
  8
SAISEN
100
AcDbLine
 10
295.0684663604523
 20
685.7550755819667
 30
0.0
 11
296.2455173435774
 21
685.7550755819667
 31
0.0
  0
LINE
  5
318335FA
330
318324AF
100
AcDbEntity
  8
SAISEN
100
AcDbLine
 10
295.0684663604523
 20
686.9321265650918
 30
0.0
 11
295.0684663604523
 21
685.7550755819667
 31
0.0
  0
LINE
  5
318335FB
330
318324AF
100
AcDbEntity
  8
SAISEN
100
AcDbLine
 10
294.0684663604523
 20
685.7550755819667
 30
0.0
 11
294.0684663604523
 21
686.9321265650916
 31
0.0
  0
LINE
  5
318335FC
330
318324AF
100
AcDbEntity
  8
SAISEN
100
AcDbLine
 10
292.8914153773275
 20
685.7550755819667
 30
0.0
 11
294.0684663604523
 21
685.7550755819667
 31
0.0
  0
LINE
  5
318335FD
330
318324AF
100
AcDbEntity
  8
SAISEN
100
AcDbLine
 10
294.0684663604523
 20
684.7550755819668
 30
0.0
 11
292.8914153773275
 21
684.7550755819668
 31
0.0
  0
LINE
  5
318335FE
330
318324AF
100
AcDbEntity
  8
SAISEN
100
AcDbLine
 10
294.0684663604523
 20
683.578024598842
 30
0.0
 11
294.0684663604523
 21
684.7550755819668
 31
0.0
  0
ARC
  5
318335FF
330
318324AF
100
AcDbEntity
  8
SAISEN
100
AcDbCircle
 10
294.5684663604523
 20
685.2550755819668
 30
0.0
 40
1.75
100
AcDbArc
 50
253.398450400977
 51
286.6015495990228
  0
CIRCLE
  5
31833600
330
318324AF
100
AcDbEntity
  8
JISSEN
100
AcDbCircle
 10
294.5684663604523
 20
685.2550755819668
 30
0.0
 40
2.744610977126966
  0
ARC
  5
31833602
330
318324AF
100
AcDbEntity
  8
JISSEN
100
AcDbCircle
 10
355.7138646332016
 20
765.255075581967
 30
0.0
 40
2.0
100
AcDbArc
 50
0.000000000000007
 51
90.0
  0
ARC
  5
31833603
330
318324AF
100
AcDbEntity
  8
JISSEN
100
AcDbCircle
 10
355.7138646332016
 20
509.255075581967
 30
0.0
 40
2.0
100
AcDbArc
 50
270.0
 51
0.000000000000007
  0
LINE
  5
31833604
330
318324AF
100
AcDbEntity
  8
JISSEN
100
AcDbLine
 10
357.7138646332016
 20
765.255075581967
 30
0.0
 11
357.7138646332016
 21
509.255075581967
 31
0.0
  0
LINE
  5
31833605
330
318324AF
100
AcDbEntity
  8
ITTEN
 48
3.0
100
AcDbLine
 10
315.5684663604525
 20
725.2550755819667
 30
0.0
 11
275.5684663604524
 21
725.2550755819667
 31
0.0
  0
LINE
  5
31833606
330
318324AF
100
AcDbEntity
  8
ITTEN
 48
3.0
100
AcDbLine
 10
295.5684663604523
 20
745.2550755819665
 30
0.0
 11
295.5684663604523
 21
705.2550755819667
 31
0.0
  0
ENDSEC
  0
SECTION
  2
OBJECTS
  0
DICTIONARY
  5
318324A3
330
0
100
AcDbDictionary
281
     1
  3
ACAD_GROUP
350
318324A4
  3
ACAD_LAYOUT
350
3183277C
  3
ACAD_MLINESTYLE
350
318324A5
  3
ACAD_PLOTSETTINGS
350
3183277D
  3
ACAD_PLOTSTYLENAME
350
3183277A
  3
ACDBVARIABLEDICTIONARY
350
318335F1
  0
DICTIONARY
  5
31832D4E
330
318324AF
100
AcDbDictionary
280
     1
281
     1
  3
ACAD_LAYOUTSELFREF
360
31833631
  0
DICTIONARY
  5
31832D4C
330
318324AC
100
AcDbDictionary
280
     1
281
     1
  3
ACAD_LAYOUTSELFREF
360
31833630
  0
DICTIONARY
  5
318324A4
102
{ACAD_REACTORS
330
318324A3
102
}
330
318324A3
100
AcDbDictionary
281
     1
  0
DICTIONARY
  5
3183277C
102
{ACAD_REACTORS
330
318324A3
102
}
330
318324A3
100
AcDbDictionary
281
     1
  3
Model
350
31833637
  3
ﾚｲｱｳﾄ1
350
31833638
  0
DICTIONARY
  5
318324A5
102
{ACAD_REACTORS
330
318324A3
102
}
330
318324A3
100
AcDbDictionary
281
     1
  3
STANDARD
350
318324B2
  0
DICTIONARY
  5
3183277D
102
{ACAD_REACTORS
330
318324A3
102
}
330
318324A3
100
AcDbDictionary
281
     1
  0
ACDBDICTIONARYWDFLT
  5
3183277A
102
{ACAD_REACTORS
330
318324A3
102
}
330
318324A3
100
AcDbDictionary
281
     1
  3
Normal
350
3183277B
100
AcDbDictionaryWithDefault
340
3183277B
  0
DICTIONARY
  5
318335F1
102
{ACAD_REACTORS
330
318324A3
102
}
330
318324A3
100
AcDbDictionary
281
     1
  3
DIMASSOC
350
318335F2
  0
XRECORD
  5
31833631
102
{ACAD_REACTORS
330
31832D4E
102
}
330
31832D4E
100
AcDbXrecord
280
     1
340
318324AF
  0
XRECORD
  5
31833630
102
{ACAD_REACTORS
330
31832D4C
102
}
330
31832D4C
100
AcDbXrecord
280
     1
340
318324AC
  0
LAYOUT
  5
31833637
102
{ACAD_REACTORS
330
3183277C
102
}
330
3183277C
100
AcDbPlotSettings
  1

  2
\\Nt_honsya\GL-8300A
  4

  6

 40
0.0
 41
0.0
 42
0.0
 43
0.0
 44
0.0
 45
0.0
 46
0.0
 47
0.0
 48
0.0
 49
0.0
140
0.0
141
0.0
142
1.0
143
1.0
 70
  1712
 72
     0
 73
     0
 74
     0
  7

 75
     0
147
1.0
148
0.0
149
0.0
100
AcDbLayout
  1
Model
 70
     1
 71
     0
 10
0.0
 20
0.0
 11
12.0
 21
9.0
 12
0.0
 22
0.0
 32
0.0
 14
0.0
 24
0.0
 34
0.0
 15
0.0
 25
0.0
 35
0.0
146
0.0
 13
0.0
 23
0.0
 33
0.0
 16
1.0
 26
0.0
 36
0.0
 17
0.0
 27
1.0
 37
0.0
 76
     0
330
318324AF
  0
LAYOUT
  5
31833638
102
{ACAD_REACTORS
330
3183277C
102
}
330
3183277C
100
AcDbPlotSettings
  1

  2
\\Nt_honsya\GL-8300A
  4

  6

 40
0.0
 41
0.0
 42
0.0
 43
0.0
 44
0.0
 45
0.0
 46
0.0
 47
0.0
 48
0.0
 49
0.0
140
0.0
141
0.0
142
1.0
143
1.0
 70
   688
 72
     0
 73
     0
 74
     5
  7

 75
    16
147
1.0
148
0.0
149
0.0
100
AcDbLayout
  1
ﾚｲｱｳﾄ1
 70
     0
 71
     1
 10
0.0
 20
0.0
 11
12.0
 21
9.0
 12
0.0
 22
0.0
 32
0.0
 14
1.000000000000000E+20
 24
1.000000000000000E+20
 34
1.000000000000000E+20
 15
-1.000000000000000E+20
 25
-1.000000000000000E+20
 35
-1.000000000000000E+20
146
0.0
 13
0.0
 23
0.0
 33
0.0
 16
1.0
 26
0.0
 36
0.0
 17
0.0
 27
1.0
 37
0.0
 76
     0
330
318324AC
  0
MLINESTYLE
  5
318324B2
102
{ACAD_REACTORS
330
318324A5
102
}
330
318324A5
100
AcDbMlineStyle
  2
STANDARD
 70
     0
  3

 62
     0
 51
90.0
 52
90.0
 71
     2
 49
0.5
 62
   256
  6
BYLAYER
 49
-0.5
 62
   256
  6
BYLAYER
  0
ACDBPLACEHOLDER
  5
3183277B
102
{ACAD_REACTORS
330
3183277A
102
}
330
3183277A
  0
DICTIONARYVAR
  5
318335F2
102
{ACAD_REACTORS
330
318335F1
102
}
330
318335F1
100
DictionaryVariables
280
     0
  1
0
  0
ENDSEC
  0
EOF
