  0
SECTION
  2
HEADER
  9
$ACADVER
  1
AC1015
  9
$ACADMAINTVER
 70
    10
  9
$DWGCODEPAGE
  3
ANSI_932
  9
$INSBASE
 10
0.0
 20
0.0
 30
0.0
  9
$EXTMIN
 10
-0.016569780604641
 20
-0.0249919896307347
 30
-0.0015258207003583
  9
$EXTMAX
 10
543.0165701491457
 20
819.0249958033957
 30
0.0000000349246037
  9
$LIMMIN
 10
0.0
 20
0.0
  9
$LIMMAX
 10
542.9999978399998
 20
818.9999999999995
  9
$ORTHOMODE
 70
     1
  9
$REGENMODE
 70
     1
  9
$FILLMODE
 70
     1
  9
$QTEXTMODE
 70
     0
  9
$MIRRTEXT
 70
     0
  9
$LTSCALE
 40
5.0
  9
$ATTMODE
 70
     1
  9
$TEXTSIZE
 40
3.0
  9
$TRACEWID
 40
0.05
  9
$TEXTSTYLE
  7
K
  9
$CLAYER
  8
JISSEN
  9
$CELTYPE
  6
BYLAYER
  9
$CECOLOR
 62
   256
  9
$CELTSCALE
 40
1.0
  9
$DISPSILH
 70
     0
  9
$DIMSCALE
 40
3.0
  9
$DIMASZ
 40
3.0
  9
$DIMEXO
 40
0.75
  9
$DIMDLI
 40
6.0
  9
$DIMRND
 40
0.0
  9
$DIMDLE
 40
0.0
  9
$DIMEXE
 40
1.0
  9
$DIMTP
 40
495.0
  9
$DIMTM
 40
0.0
  9
$DIMTXT
 40
3.0
  9
$DIMCEN
 40
0.0
  9
$DIMTSZ
 40
0.0
  9
$DIMTOL
 70
     0
  9
$DIMLIM
 70
     0
  9
$DIMTIH
 70
     0
  9
$DIMTOH
 70
     0
  9
$DIMSE1
 70
     0
  9
$DIMSE2
 70
     0
  9
$DIMTAD
 70
     3
  9
$DIMZIN
 70
     8
  9
$DIMBLK
  1
ARROWANG
  9
$DIMASO
 70
     0
  9
$DIMSHO
 70
     0
  9
$DIMPOST
  1

  9
$DIMAPOST
  1

  9
$DIMALT
 70
     0
  9
$DIMALTD
 70
     2
  9
$DIMALTF
 40
25.4
  9
$DIMLFAC
 40
1.0
  9
$DIMTOFL
 70
     1
  9
$DIMTVP
 40
0.0
  9
$DIMTIX
 70
     1
  9
$DIMSOXD
 70
     0
  9
$DIMSAH
 70
     1
  9
$DIMBLK1
  1
ARROWANG
  9
$DIMBLK2
  1
ARROWANG
  9
$DIMSTYLE
  2
IMAO
  9
$DIMCLRD
 70
   256
  9
$DIMCLRE
 70
   256
  9
$DIMCLRT
 70
   256
  9
$DIMTFAC
 40
1.0
  9
$DIMGAP
 40
1.0
  9
$DIMJUST
 70
     0
  9
$DIMSD1
 70
     0
  9
$DIMSD2
 70
     0
  9
$DIMTOLJ
 70
     1
  9
$DIMTZIN
 70
     0
  9
$DIMALTZ
 70
     0
  9
$DIMALTTZ
 70
     0
  9
$DIMUPT
 70
     0
  9
$DIMDEC
 70
     2
  9
$DIMTDEC
 70
     2
  9
$DIMALTU
 70
     2
  9
$DIMALTTD
 70
     2
  9
$DIMTXSTY
  7
K
  9
$DIMAUNIT
 70
     0
  9
$DIMADEC
 70
     0
  9
$DIMALTRND
 40
0.0
  9
$DIMAZIN
 70
     0
  9
$DIMDSEP
 70
    46
  9
$DIMATFIT
 70
     3
  9
$DIMFRAC
 70
     0
  9
$DIMLDRBLK
  1
ARROWANG
  9
$DIMLUNIT
 70
     2
  9
$DIMLWD
 70
    -2
  9
$DIMLWE
 70
    -2
  9
$DIMTMOVE
 70
     0
  9
$LUNITS
 70
     2
  9
$LUPREC
 70
     2
  9
$SKETCHINC
 40
0.1
  9
$FILLETRAD
 40
0.0
  9
$AUNITS
 70
     0
  9
$AUPREC
 70
     2
  9
$MENU
  1
STDR12J
  9
$ELEVATION
 40
0.0
  9
$PELEVATION
 40
0.0
  9
$THICKNESS
 40
0.0
  9
$LIMCHECK
 70
     0
  9
$CHAMFERA
 40
0.0
  9
$CHAMFERB
 40
0.0
  9
$CHAMFERC
 40
0.0
  9
$CHAMFERD
 40
0.0
  9
$SKPOLY
 70
     0
  9
$TDCREATE
 40
2450694.750535185
  9
$TDUCREATE
 40
2450694.375535185
  9
$TDUPDATE
 40
2454760.571763865
  9
$TDUUPDATE
 40
2454760.196763865
  9
$TDINDWG
 40
0.1751215278
  9
$TDUSRTIMER
 40
0.1751215278
  9
$USRTIMER
 70
     1
  9
$ANGBASE
 50
0.0
  9
$ANGDIR
 70
     0
  9
$PDMODE
 70
     0
  9
$PDSIZE
 40
0.0
  9
$PLINEWID
 40
0.0
  9
$SPLFRAME
 70
     0
  9
$SPLINETYPE
 70
     6
  9
$SPLINESEGS
 70
     8
  9
$HANDSEED
  5
31832F23
  9
$SURFTAB1
 70
     6
  9
$SURFTAB2
 70
     6
  9
$SURFTYPE
 70
     6
  9
$SURFU
 70
     6
  9
$SURFV
 70
     6
  9
$UCSBASE
  2

  9
$UCSNAME
  2

  9
$UCSORG
 10
0.0
 20
0.0
 30
0.0
  9
$UCSXDIR
 10
1.0
 20
0.0
 30
0.0
  9
$UCSYDIR
 10
0.0
 20
1.0
 30
0.0
  9
$UCSORTHOREF
  2

  9
$UCSORTHOVIEW
 70
     0
  9
$UCSORGTOP
 10
0.0
 20
0.0
 30
0.0
  9
$UCSORGBOTTOM
 10
0.0
 20
0.0
 30
0.0
  9
$UCSORGLEFT
 10
0.0
 20
0.0
 30
0.0
  9
$UCSORGRIGHT
 10
0.0
 20
0.0
 30
0.0
  9
$UCSORGFRONT
 10
0.0
 20
0.0
 30
0.0
  9
$UCSORGBACK
 10
0.0
 20
0.0
 30
0.0
  9
$PUCSBASE
  2

  9
$PUCSNAME
  2

  9
$PUCSORG
 10
0.0
 20
0.0
 30
0.0
  9
$PUCSXDIR
 10
1.0
 20
0.0
 30
0.0
  9
$PUCSYDIR
 10
0.0
 20
1.0
 30
0.0
  9
$PUCSORTHOREF
  2

  9
$PUCSORTHOVIEW
 70
     0
  9
$PUCSORGTOP
 10
0.0
 20
0.0
 30
0.0
  9
$PUCSORGBOTTOM
 10
0.0
 20
0.0
 30
0.0
  9
$PUCSORGLEFT
 10
0.0
 20
0.0
 30
0.0
  9
$PUCSORGRIGHT
 10
0.0
 20
0.0
 30
0.0
  9
$PUCSORGFRONT
 10
0.0
 20
0.0
 30
0.0
  9
$PUCSORGBACK
 10
0.0
 20
0.0
 30
0.0
  9
$USERI1
 70
     4
  9
$USERI2
 70
     1
  9
$USERI3
 70
     1
  9
$USERI4
 70
     1
  9
$USERI5
 70
     1
  9
$USERR1
 40
1.0
  9
$USERR2
 40
3.0
  9
$USERR3
 40
3.0
  9
$USERR4
 40
1.5
  9
$USERR5
 40
10.0
  9
$WORLDVIEW
 70
     1
  9
$SHADEDGE
 70
     3
  9
$SHADEDIF
 70
    70
  9
$TILEMODE
 70
     1
  9
$MAXACTVP
 70
    16
  9
$PINSBASE
 10
0.0
 20
0.0
 30
0.0
  9
$PLIMCHECK
 70
     0
  9
$PEXTMIN
 10
1.000000000000000E+20
 20
1.000000000000000E+20
 30
1.000000000000000E+20
  9
$PEXTMAX
 10
-1.000000000000000E+20
 20
-1.000000000000000E+20
 30
-1.000000000000000E+20
  9
$PLIMMIN
 10
0.0
 20
0.0
  9
$PLIMMAX
 10
12.0
 20
9.0
  9
$UNITMODE
 70
     0
  9
$VISRETAIN
 70
     0
  9
$PLINEGEN
 70
     0
  9
$PSLTSCALE
 70
     0
  9
$TREEDEPTH
 70
     0
  9
$CMLSTYLE
  2
STANDARD
  9
$CMLJUST
 70
     0
  9
$CMLSCALE
 40
1.0
  9
$PROXYGRAPHICS
 70
     1
  9
$MEASUREMENT
 70
     0
  9
$CELWEIGHT
370
    -1
  9
$ENDCAPS
280
     0
  9
$JOINSTYLE
280
     0
  9
$LWDISPLAY
290
     0
  9
$INSUNITS
 70
     0
  9
$HYPERLINKBASE
  1

  9
$STYLESHEET
  1
aclt.ctb
  9
$XEDIT
290
     1
  9
$CEPSNTYPE
380
     0
  9
$PSTYLEMODE
290
     1
  9
$FINGERPRINTGUID
  2
{DCEE27B6-A85E-4C57-9B36-E2F0ECEE1DE5}
  9
$VERSIONGUID
  2
{985BFA77-519A-41DB-B581-BFD68A1DCCB3}
  9
$EXTNAMES
290
     1
  9
$PSVPSCALE
 40
0.0
  9
$OLESTARTUP
290
     0
  0
ENDSEC
  0
SECTION
  2
CLASSES
  0
CLASS
  1
LWPOLYLINE
  2
AcDbPolyline
  3
AutoCAD 2000
 90
    32768
280
     0
281
     1
  0
CLASS
  1
ACDBDICTIONARYWDFLT
  2
AcDbDictionaryWithDefault
  3
AutoCAD 2000
 90
        0
280
     0
281
     0
  0
CLASS
  1
ACDBPLACEHOLDER
  2
AcDbPlaceHolder
  3
AutoCAD 2000
 90
        0
280
     0
281
     0
  0
CLASS
  1
LAYOUT
  2
AcDbLayout
  3
AutoCAD 2000
 90
        0
280
     0
281
     0
  0
CLASS
  1
LONG_TRANSACTION
  2
AcDbLongTransaction
  3
AutoCAD 2000
 90
    32768
280
     0
281
     0
  0
CLASS
  1
LWPOLYLINE
  2
AcDbPolyline
  3
AutoCAD 2000
 90
    32768
280
     0
281
     1
  0
CLASS
  1
HATCH
  2
AcDbHatch
  3
AutoCAD 2000
 90
    32768
280
     0
281
     1
  0
CLASS
  1
XRECORD
  2
AcDbXrecord
  3
AutoCAD 2000
 90
    32768
280
     0
281
     0
  0
CLASS
  1
LONG_TRANSACTION
  2
AcDbLongTransaction
  3
AutoCAD 2000
 90
    32768
280
     0
281
     0
  0
CLASS
  1
LWPOLYLINE
  2
AcDbPolyline
  3
AutoCAD 2000
 90
    32768
280
     0
281
     1
  0
CLASS
  1
HATCH
  2
AcDbHatch
  3
AutoCAD 2000
 90
    32768
280
     0
281
     1
  0
CLASS
  1
XRECORD
  2
AcDbXrecord
  3
AutoCAD 2000
 90
    32768
280
     0
281
     0
  0
CLASS
  1
LONG_TRANSACTION
  2
AcDbLongTransaction
  3
AutoCAD 2000
 90
    32768
280
     0
281
     0
  0
CLASS
  1
LWPOLYLINE
  2
AcDbPolyline
  3
AutoCAD 2000
 90
    32768
280
     0
281
     1
  0
CLASS
  1
HATCH
  2
AcDbHatch
  3
AutoCAD 2000
 90
    32768
280
     0
281
     1
  0
CLASS
  1
XRECORD
  2
AcDbXrecord
  3
AutoCAD 2000
 90
    32768
280
     0
281
     0
  0
CLASS
  1
LONG_TRANSACTION
  2
AcDbLongTransaction
  3
AutoCAD 2000
 90
    32768
280
     0
281
     0
  0
CLASS
  1
LWPOLYLINE
  2
AcDbPolyline
  3
AutoCAD 2000
 90
    32768
280
     0
281
     1
  0
CLASS
  1
HATCH
  2
AcDbHatch
  3
AutoCAD 2000
 90
    32768
280
     0
281
     1
  0
CLASS
  1
XRECORD
  2
AcDbXrecord
  3
AutoCAD 2000
 90
    32768
280
     0
281
     0
  0
CLASS
  1
DICTIONARYVAR
  2
AcDbDictionaryVar
  3
AutoCAD 2000
 90
        0
280
     0
281
     0
  0
CLASS
  1
LONG_TRANSACTION
  2
AcDbLongTransaction
  3
AutoCAD 2000
 90
    32768
280
     0
281
     0
  0
CLASS
  1
LWPOLYLINE
  2
AcDbPolyline
  3
AutoCAD 2000
 90
    32768
280
     0
281
     1
  0
CLASS
  1
HATCH
  2
AcDbHatch
  3
AutoCAD 2000
 90
    32768
280
     0
281
     1
  0
CLASS
  1
XRECORD
  2
AcDbXrecord
  3
AutoCAD 2000
 90
    32768
280
     0
281
     0
  0
ENDSEC
  0
SECTION
  2
TABLES
  0
TABLE
  2
VPORT
  5
3183249F
330
0
100
AcDbSymbolTable
 70
    10
  0
VPORT
  5
318324C3
330
3183249F
100
AcDbSymbolTableRecord
100
AcDbViewportTableRecord
  2
2
 70
     0
 10
0.5
 20
0.0
 11
1.0
 21
1.0
 12
0.9240312421264802
 22
1.052650975462765
 13
0.0
 23
0.0
 14
1.0
 24
1.0
 15
10.0
 25
10.0
 16
0.0
 26
0.0
 36
1.0
 17
0.0
 27
0.0
 37
0.0
 40
2.105301950925533
 41
0.8778135048231511
 42
50.0
 43
0.0
 44
0.0
 50
0.0
 51
0.0
 71
     0
 72
   500
 73
     1
 74
     1
 75
     0
 76
     0
 77
     0
 78
     0
281
     0
 65
     1
110
0.0
120
0.0
130
0.0
111
1.0
121
0.0
131
0.0
112
0.0
122
1.0
132
0.0
 79
     0
146
0.0
  0
VPORT
  5
318324C4
330
3183249F
100
AcDbSymbolTableRecord
100
AcDbViewportTableRecord
  2
2
 70
     0
 10
0.0
 20
0.0
 11
0.5
 21
1.0
 12
0.9240312421264802
 22
1.052650975462765
 13
0.0
 23
0.0
 14
1.0
 24
1.0
 15
10.0
 25
10.0
 16
0.0
 26
0.0
 36
1.0
 17
0.0
 27
0.0
 37
0.0
 40
2.105301950925533
 41
0.8778135048231511
 42
50.0
 43
0.0
 44
0.0
 50
0.0
 51
0.0
 71
     0
 72
   500
 73
     1
 74
     1
 75
     0
 76
     0
 77
     0
 78
     0
281
     0
 65
     1
110
0.0
120
0.0
130
0.0
111
1.0
121
0.0
131
0.0
112
0.0
122
1.0
132
0.0
 79
     0
146
0.0
  0
VPORT
  5
318324C5
330
3183249F
100
AcDbSymbolTableRecord
100
AcDbViewportTableRecord
  2
3
 70
     0
 10
0.0
 20
0.5
 11
1.0
 21
1.0
 12
2.832169994473273
 22
1.052650975462765
 13
0.0
 23
0.0
 14
1.0
 24
1.0
 15
10.0
 25
10.0
 16
0.0
 26
0.0
 36
1.0
 17
0.0
 27
0.0
 37
0.0
 40
2.105301950925533
 41
3.571428571428571
 42
50.0
 43
0.0
 44
0.0
 50
0.0
 51
0.0
 71
     0
 72
   500
 73
     1
 74
     1
 75
     0
 76
     0
 77
     0
 78
     0
281
     0
 65
     1
110
0.0
120
0.0
130
0.0
111
1.0
121
0.0
131
0.0
112
0.0
122
1.0
132
0.0
 79
     0
146
0.0
  0
VPORT
  5
318324C6
330
3183249F
100
AcDbSymbolTableRecord
100
AcDbViewportTableRecord
  2
3
 70
     0
 10
0.0
 20
0.0
 11
1.0
 21
0.5
 12
2.856741679241311
 22
1.052650975462765
 13
0.0
 23
0.0
 14
1.0
 24
1.0
 15
10.0
 25
10.0
 16
0.0
 26
0.0
 36
1.0
 17
0.0
 27
0.0
 37
0.0
 40
2.105301950925533
 41
3.594771241830064
 42
50.0
 43
0.0
 44
0.0
 50
0.0
 51
0.0
 71
     0
 72
   500
 73
     1
 74
     1
 75
     0
 76
     0
 77
     0
 78
     0
281
     0
 65
     1
110
0.0
120
0.0
130
0.0
111
1.0
121
0.0
131
0.0
112
0.0
122
1.0
132
0.0
 79
     0
146
0.0
  0
VPORT
  5
318324C7
330
3183249F
100
AcDbSymbolTableRecord
100
AcDbViewportTableRecord
  2
4
 70
     0
 10
0.5
 20
0.0
 11
1.0
 21
0.5
 12
2.886857516709718
 22
1.052650975462765
 13
0.0
 23
0.0
 14
1.0
 24
1.0
 15
10.0
 25
10.0
 16
0.0
 26
0.0
 36
1.0
 17
0.0
 27
0.0
 37
0.0
 40
4.275207030309069
 41
1.784313725490195
 42
50.0
 43
0.0
 44
0.0
 50
0.0
 51
0.0
 71
     0
 72
   500
 73
     1
 74
     1
 75
     0
 76
     0
 77
     0
 78
     0
281
     0
 65
     1
110
0.0
120
0.0
130
0.0
111
1.0
121
0.0
131
0.0
112
0.0
122
1.0
132
0.0
 79
     0
146
0.0
  0
VPORT
  5
318324C8
330
3183249F
100
AcDbSymbolTableRecord
100
AcDbViewportTableRecord
  2
4
 70
     0
 10
0.5
 20
0.5
 11
1.0
 21
1.0
 12
2.862090274555523
 22
1.052650975462765
 13
0.0
 23
0.0
 14
1.0
 24
1.0
 15
10.0
 25
10.0
 16
0.0
 26
0.0
 36
1.0
 17
0.0
 27
0.0
 37
0.0
 40
4.275207030309069
 41
1.772727272727271
 42
50.0
 43
0.0
 44
0.0
 50
0.0
 51
0.0
 71
     0
 72
   500
 73
     1
 74
     1
 75
     0
 76
     0
 77
     0
 78
     0
281
     0
 65
     1
110
0.0
120
0.0
130
0.0
111
1.0
121
0.0
131
0.0
112
0.0
122
1.0
132
0.0
 79
     0
146
0.0
  0
VPORT
  5
318324C9
330
3183249F
100
AcDbSymbolTableRecord
100
AcDbViewportTableRecord
  2
4
 70
     0
 10
0.0
 20
0.5
 11
0.5
 21
1.0
 12
2.862090274555523
 22
1.052650975462765
 13
0.0
 23
0.0
 14
1.0
 24
1.0
 15
10.0
 25
10.0
 16
0.0
 26
0.0
 36
1.0
 17
0.0
 27
0.0
 37
0.0
 40
4.275207030309069
 41
1.772727272727271
 42
50.0
 43
0.0
 44
0.0
 50
0.0
 51
0.0
 71
     0
 72
   500
 73
     1
 74
     1
 75
     0
 76
     0
 77
     0
 78
     0
281
     0
 65
     1
110
0.0
120
0.0
130
0.0
111
1.0
121
0.0
131
0.0
112
0.0
122
1.0
132
0.0
 79
     0
146
0.0
  0
VPORT
  5
318324CA
330
3183249F
100
AcDbSymbolTableRecord
100
AcDbViewportTableRecord
  2
4
 70
     0
 10
0.0
 20
0.0
 11
0.5
 21
0.5
 12
2.886857516709718
 22
1.052650975462765
 13
0.0
 23
0.0
 14
1.0
 24
1.0
 15
10.0
 25
10.0
 16
0.0
 26
0.0
 36
1.0
 17
0.0
 27
0.0
 37
0.0
 40
4.275207030309069
 41
1.784313725490195
 42
50.0
 43
0.0
 44
0.0
 50
0.0
 51
0.0
 71
     0
 72
   500
 73
     1
 74
     1
 75
     0
 76
     0
 77
     0
 78
     0
281
     0
 65
     1
110
0.0
120
0.0
130
0.0
111
1.0
121
0.0
131
0.0
112
0.0
122
1.0
132
0.0
 79
     0
146
0.0
  0
VPORT
  5
31832F22
330
3183249F
100
AcDbSymbolTableRecord
100
AcDbViewportTableRecord
  2
*Active
 70
     0
 10
0.0
 20
0.0
 11
1.0
 21
1.0
 12
271.5000001842705
 22
409.5000019068825
 13
0.0
 23
0.0
 14
1.0
 24
1.0
 15
10.0
 25
10.0
 16
0.0
 26
0.0
 36
1.0
 17
0.0
 27
0.0
 37
0.0
 40
825.0503540039645
 41
1.537897310513447
 42
50.0
 43
0.0
 44
0.0
 50
0.0
 51
0.0
 71
     0
 72
   500
 73
     1
 74
     0
 75
     0
 76
     0
 77
     0
 78
     0
281
     0
 65
     1
110
0.0
120
0.0
130
0.0
111
1.0
121
0.0
131
0.0
112
0.0
122
1.0
132
0.0
 79
     0
146
0.0
  0
ENDTAB
  0
TABLE
  2
LTYPE
  5
3183249C
330
0
100
AcDbSymbolTable
 70
     3
  0
LTYPE
  5
318324A9
330
3183249C
100
AcDbSymbolTableRecord
100
AcDbLinetypeTableRecord
  2
BYBLOCK
 70
     0
  3

 72
    65
 73
     0
 40
0.0
  0
LTYPE
  5
318324AA
330
3183249C
100
AcDbSymbolTableRecord
100
AcDbLinetypeTableRecord
  2
BYLAYER
 70
     0
  3

 72
    65
 73
     0
 40
0.0
  0
LTYPE
  5
318324AB
330
3183249C
100
AcDbSymbolTableRecord
100
AcDbLinetypeTableRecord
  2
CONTINUOUS
 70
     0
  3
実線
 72
    65
 73
     0
 40
0.0
  0
LTYPE
  5
318324C0
330
3183249C
100
AcDbSymbolTableRecord
100
AcDbLinetypeTableRecord
  2
CENTER
 70
     0
  3
____ _ ____ _ ____ _ ____ _ ____ _ ____ _ ____
 72
    65
 73
     4
 40
2.0
 49
1.25
 74
     0
 49
-0.25
 74
     0
 49
0.25
 74
     0
 49
-0.25
 74
     0
  0
LTYPE
  5
318324C2
330
3183249C
100
AcDbSymbolTableRecord
100
AcDbLinetypeTableRecord
  2
HIDDEN
 70
     0
  3
_ _ _ _ _ _ _ _ _ _ _ _ _ _ _ _ _ _ _ _ _ _ _
 72
    65
 73
     2
 40
0.375
 49
0.25
 74
     0
 49
-0.125
 74
     0
  0
ENDTAB
  0
TABLE
  2
LAYER
  5
31832499
330
0
100
AcDbSymbolTable
 70
     7
  0
LAYER
  5
318324A6
330
31832499
100
AcDbSymbolTableRecord
100
AcDbLayerTableRecord
  2
0
 70
     0
 62
     7
  6
CONTINUOUS
370
    -3
390
3183277B
  0
LAYER
  5
318324CF
330
31832499
100
AcDbSymbolTableRecord
100
AcDbLayerTableRecord
  2
ITTEN
 70
     0
 62
     1
  6
CENTER
370
    -3
390
3183277B
  0
LAYER
  5
318324D2
330
31832499
100
AcDbSymbolTableRecord
100
AcDbLayerTableRecord
  2
SUNPOU
 70
     0
 62
     3
  6
CONTINUOUS
370
    -3
390
3183277B
  0
LAYER
  5
318324D4
330
31832499
100
AcDbSymbolTableRecord
100
AcDbLayerTableRecord
  2
SAISEN
 70
     0
 62
     4
  6
CONTINUOUS
370
    -3
390
3183277B
  0
LAYER
  5
318324D5
330
31832499
100
AcDbSymbolTableRecord
100
AcDbLayerTableRecord
  2
JISSEN
 70
     0
 62
     7
  6
CONTINUOUS
370
    -3
390
3183277B
  0
LAYER
  5
318324D9
330
31832499
100
AcDbSymbolTableRecord
100
AcDbLayerTableRecord
  2
WAKU
 70
     0
 62
     5
  6
CONTINUOUS
370
    -3
390
3183277B
  0
LAYER
  5
3183292E
330
31832499
100
AcDbSymbolTableRecord
100
AcDbLayerTableRecord
  2
2
 70
     0
 62
     2
  6
HIDDEN
370
    -3
390
3183277B
  0
ENDTAB
  0
TABLE
  2
STYLE
  5
3183249A
330
0
100
AcDbSymbolTable
 70
     3
  0
STYLE
  5
318324A7
330
3183249A
100
AcDbSymbolTableRecord
100
AcDbTextStyleTableRecord
  2
STANDARD
 70
     0
 40
0.0
 41
1.0
 50
0.0
 71
     0
 42
0.2
  3
ROMANS
  4
EXTFONT
  0
STYLE
  5
318324BE
330
3183249A
100
AcDbSymbolTableRecord
100
AcDbTextStyleTableRecord
  2
K
 70
     0
 40
0.0
 41
1.0
 50
0.0
 71
     0
 42
3.0
  3
ROMANS.shx
  4
bigfont.shx
  0
STYLE
  5
3183292F
330
3183249A
100
AcDbSymbolTableRecord
100
AcDbTextStyleTableRecord
  2
BIGFONT
 70
     0
 40
0.0
 41
1.0
 50
0.0
 71
     0
 42
9.0
  3
txt.shx
  4
bigfont
  0
ENDTAB
  0
TABLE
  2
VIEW
  5
3183249D
330
0
100
AcDbSymbolTable
 70
     0
  0
ENDTAB
  0
TABLE
  2
UCS
  5
3183249E
330
0
100
AcDbSymbolTable
 70
     0
  0
ENDTAB
  0
TABLE
  2
APPID
  5
318324A0
330
0
100
AcDbSymbolTable
 70
     1
  0
APPID
  5
318324A8
330
318324A0
100
AcDbSymbolTableRecord
100
AcDbRegAppTableRecord
  2
ACAD
 70
     0
  0
ENDTAB
  0
TABLE
  2
DIMSTYLE
  5
318324A1
330
0
100
AcDbSymbolTable
 70
     1
100
AcDbDimStyleTable
 71
     0
  0
DIMSTYLE
105
318324CD
330
318324A1
100
AcDbSymbolTableRecord
100
AcDbDimStyleTableRecord
  2
IMAO
 70
     0
 41
1.5
 42
0.75
 43
6.0
 44
1.0
 47
495.0
 73
     0
 74
     0
 77
     3
 78
     8
140
3.0
141
0.0
147
1.0
172
     1
173
     1
174
     1
176
   256
177
   256
178
   256
271
     2
272
     2
340
318324BE
341
318324B9
342
318324B9
343
318324B9
344
318324B9
  0
ENDTAB
  0
TABLE
  2
BLOCK_RECORD
  5
31832498
330
0
100
AcDbSymbolTable
 70
     3
  0
BLOCK_RECORD
  5
318324AF
102
{ACAD_XDICTIONARY
360
31832D4E
102
}
330
31832498
100
AcDbSymbolTableRecord
100
AcDbBlockTableRecord
  2
*MODEL_SPACE
340
31832F1E
  0
BLOCK_RECORD
  5
318324AC
102
{ACAD_XDICTIONARY
360
31832D4C
102
}
330
31832498
100
AcDbSymbolTableRecord
100
AcDbBlockTableRecord
  2
*PAPER_SPACE
340
31832F1F
  0
BLOCK_RECORD
  5
318324B9
330
31832498
100
AcDbSymbolTableRecord
100
AcDbBlockTableRecord
  2
ARROWANG
340
0
102
{BLKREFS
331
31832BEC
331
31832BED
331
31832BFA
331
31832BFB
331
31832C00
331
31832C01
331
31832C06
331
31832C07
102
}
  0
BLOCK_RECORD
  5
31832783
330
31832498
100
AcDbSymbolTableRecord
100
AcDbBlockTableRecord
  2
X023
340
0
102
{BLKREFS
331
31832C91
102
}
  0
BLOCK_RECORD
  5
31832911
330
31832498
100
AcDbSymbolTableRecord
100
AcDbBlockTableRecord
  2
A$C6C331840
340
0
102
{BLKREFS
331
31832B2F
102
}
  0
ENDTAB
  0
ENDSEC
  0
SECTION
  2
BLOCKS
  0
BLOCK
  5
318324DE
330
318324AF
100
AcDbEntity
  8
0
100
AcDbBlockBegin
  2
*MODEL_SPACE
 70
     0
 10
0.0
 20
0.0
 30
0.0
  3
*MODEL_SPACE
  1

  0
ENDBLK
  5
318324DF
330
318324AF
100
AcDbEntity
  8
0
100
AcDbBlockEnd
  0
BLOCK
  5
318324DC
330
318324AC
100
AcDbEntity
 67
     1
  8
0
100
AcDbBlockBegin
  2
*PAPER_SPACE
 70
     0
 10
0.0
 20
0.0
 30
0.0
  3
*PAPER_SPACE
  1

  0
ENDBLK
  5
318324DD
330
318324AC
100
AcDbEntity
 67
     1
  8
0
100
AcDbBlockEnd
  0
BLOCK
  5
1D
330
318324B9
100
AcDbEntity
  8
0
100
AcDbBlockBegin
  2
ARROWANG
 70
     0
 10
0.0
 20
0.0
 30
0.0
  3
ARROWANG
  1

  0
LINE
  5
1E
330
318324B9
100
AcDbEntity
  8
SUNPOU
100
AcDbLine
 10
0.0
 20
0.0
 30
0.0
 11
-1.499999999999956
 21
0.401923788646741
 31
0.0
  0
LINE
  5
1F
330
318324B9
100
AcDbEntity
  8
SUNPOU
100
AcDbLine
 10
0.0
 20
0.0
 30
0.0
 11
-1.500000000000027
 21
-0.4019237886467124
 31
0.0
  0
ENDBLK
  5
20
330
318324B9
100
AcDbEntity
  8
0
100
AcDbBlockEnd
  0
BLOCK
  5
3183278C
330
31832783
100
AcDbEntity
  8
0
100
AcDbBlockBegin
  2
X023
 70
     0
 10
0.0
 20
0.0
 30
0.0
  3
X023
  1

  0
ARC
  5
31832784
330
31832783
100
AcDbEntity
  8
2
100
AcDbCircle
 10
-2.141791044776055
 20
0.0
 30
0.0
 40
1.793321003826915
100
AcDbArc
 50
282.6193222934307
 51
77.38067770656854
  0
LINE
  5
31832785
330
31832783
100
AcDbEntity
  8
0
100
AcDbLine
 10
-1.499999999999943
 20
-3.0
 30
0.0
 11
0.0000000000001137
 21
-1.5
 31
0.0
  0
LINE
  5
31832786
330
31832783
100
AcDbEntity
  8
0
100
AcDbLine
 10
-1.499999999999943
 20
3.0
 30
0.0
 11
0.0
 21
1.499999999999943
 31
0.0
  0
LINE
  5
31832787
330
31832783
100
AcDbEntity
  8
0
100
AcDbLine
 10
0.0
 20
1.499999999999971
 30
0.0
 11
0.0000000000001137
 21
-1.500000000000027
 31
0.0
  0
LINE
  5
31832788
330
31832783
100
AcDbEntity
  8
0
100
AcDbLine
 10
-1.749999999999943
 20
-3.000000000000028
 30
0.0
 11
-1.749999999999943
 21
2.999999999999971
 31
0.0
  0
LINE
  5
31832789
330
31832783
100
AcDbEntity
  8
0
100
AcDbLine
 10
-1.499999999999943
 20
-3.000000000000028
 30
0.0
 11
-1.749999999999943
 21
-3.000000000000028
 31
0.0
  0
LINE
  5
3183278A
330
31832783
100
AcDbEntity
  8
0
100
AcDbLine
 10
-1.499999999999943
 20
2.999999999999971
 30
0.0
 11
-1.499999999999971
 21
-3.000000000000028
 31
0.0
  0
LINE
  5
3183278B
330
31832783
100
AcDbEntity
  8
0
100
AcDbLine
 10
-1.749999999999943
 20
2.999999999999971
 30
0.0
 11
-1.499999999999943
 21
2.999999999999971
 31
0.0
  0
ENDBLK
  5
3183278D
330
31832783
100
AcDbEntity
  8
0
100
AcDbBlockEnd
  0
BLOCK
  5
3183292C
330
31832911
100
AcDbEntity
  8
0
100
AcDbBlockBegin
  2
A$C6C331840
 70
     0
 10
0.0
 20
0.0
 30
0.0
  3
A$C6C331840
  1

  0
HATCH
  5
31832912
330
31832911
100
AcDbEntity
  8
SUNPOU
100
AcDbHatch
 10
0.0
 20
0.0
 30
0.0
210
0.0
220
0.0
230
1.0
  2
ANSI31
 70
     0
 71
     1
 91
       25
 92
        1
 93
        1
 72
     2
 10
12.53184591639649
 20
12.53173547622668
 40
12.53164556962024
 50
0.0
 51
360.0
 73
     1
 97
        1
330
31832916
 92
       16
 93
        1
 72
     2
 10
12.53184591639649
 20
12.53173547622668
 40
11.27848101265822
 50
0.0
 51
360.0
 73
     1
 97
        1
330
31832915
 92
        0
 93
        8
 72
     1
 10
8.222781319515718
 20
15.66634978856245
 11
8.222781319515718
 21
6.644606671220003
 72
     2
 10
7.357682664428066
 20
6.644606671220003
 40
0.8650986550876496
 50
360.0
 51
540.0
 73
     0
 72
     1
 10
6.492584009340419
 20
6.644606671220003
 11
6.492584009340419
 21
12.30373666794468
 72
     2
 10
6.399894867723901
 20
12.3037366679448
 40
0.0926891416165177
 50
359.9999999999297
 51
497.8965511292558
 73
     1
 72
     2
 10
5.689278115330552
 20
12.94590587830384
 40
0.8650986550875906
 50
42.10344887074495
 51
216.9530344301648
 73
     0
 72
     2
 10
-5.284534699545019
 20
21.20117248544544
 40
12.86712601722652
 50
323.0469655698341
 51
350.0531909868996
 73
     1
 72
     2
 10
8.241274535553754
 20
18.8291524630531
 40
0.8650986550876126
 50
189.9468090131003
 51
369.946809013093
 73
     0
 72
     2
 10
-5.284534699545531
 20
21.20117248544578
 40
14.5973233274023
 50
9.946809013100903
 51
22.28209173268171
 73
     0
 97
        1
330
31832913
 92
        0
 93
       35
 72
     1
 10
15.60796782050991
 20
15.66634978856245
 11
18.63581311331674
 21
15.66634978856245
 72
     2
 10
18.63581311331674
 20
16.59324120472786
 40
0.9268914161654038
 50
270.0
 51
450.0
 73
     1
 72
     1
 10
18.63581311331674
 20
17.52013262089326
 11
15.40505502803972
 21
17.52013262089326
 72
     2
 10
15.40505502803975
 20
17.64371814304853
 40
0.1235855221552811
 50
90.00000000001318
 51
196.8043978906328
 73
     0
 72
     2
 10
14.39943628149964
 20
17.9474165700285
 40
0.9268914161652283
 50
343.1956021093462
 51
388.6809552685447
 73
     1
 72
     1
 10
15.21260343968703
 20
18.39226134093882
 11
14.22030952330374
 21
19.64146761818426
 72
     2
 10
13.49452923058858
 20
19.06495164783541
 40
0.9268914161653219
 50
38.46150445227506
 51
218.4615044522804
 73
     1
 72
     1
 10
12.76874893787344
 20
18.48843567748645
 11
13.25925994684078
 21
17.87092767774639
 72
     2
 10
13.08991121187409
 20
17.73640728466499
 40
0.216274663771772
 50
321.5384955476948
 51
449.9999999999849
 73
     0
 72
     1
 10
13.08991121187415
 20
17.52013262089326
 11
10.2937903678289
 21
17.52013262089326
 72
     2
 10
10.2937903678289
 20
16.59324120472786
 40
0.9268914161654038
 50
90.0
 51
270.0
 73
     1
 72
     1
 10
10.2937903678289
 20
15.66634978856245
 11
13.32163566063556
 21
15.66634978856245
 72
     2
 10
13.32163566063552
 20
15.4500751247906
 40
0.2162746637718556
 50
270.0000000000075
 51
360.0000000000301
 73
     0
 72
     1
 10
13.53791032440747
 20
15.45007512479048
 11
13.53791032440747
 21
13.3491212481491
 72
     2
 10
13.32163566063552
 20
13.3491212481491
 40
0.2162746637719408
 50
360.0
 51
449.9999999999924
 73
     0
 72
     1
 10
13.32163566063556
 20
13.13284658437714
 11
10.448272270523
 21
13.13284658437714
 72
     2
 10
10.448272270523
 20
12.20595516821185
 40
0.9268914161652899
 50
90.0
 51
270.0
 73
     1
 72
     1
 10
10.448272270523
 20
11.27906375204644
 11
13.32163566063556
 21
11.27906375204644
 72
     2
 10
13.32163566063565
 20
11.06278908827471
 40
0.2162746637717419
 50
269.9999999999773
 51
360.0
 73
     0
 72
     1
 10
13.53791032440747
 20
11.06278908827471
 11
13.53791032440747
 21
8.343907600856367
 72
     2
 10
13.32163566063552
 20
8.343907600856255
 40
0.2162746637719408
 50
359.9999999999697
 51
449.9999999999924
 73
     0
 72
     1
 10
13.32163566063556
 20
8.127632937084397
 11
10.01572294297931
 21
8.127632937084397
 72
     2
 10
10.01572294297931
 20
7.200741520919108
 40
0.9268914161652899
 50
90.0
 51
270.0
 73
     1
 72
     1
 10
10.01572294297931
 20
6.273850104753933
 11
18.91388053816626
 21
6.273850104753933
 72
     2
 10
18.91388053816626
 20
7.200741520919108
 40
0.9268914161651764
 50
270.0
 51
450.0
 73
     1
 72
     1
 10
18.91388053816626
 20
8.127632937084397
 11
15.60796782050991
 21
8.127632937084397
 72
     2
 10
15.60796782050997
 20
8.343907600856255
 40
0.2162746637718556
 50
90.00000000001506
 51
180.00000000003
 73
     0
 72
     1
 10
15.39169315673805
 20
8.343907600856367
 11
15.39169315673805
 21
11.06278908827471
 72
     2
 10
15.60796782050984
 20
11.06278908827471
 40
0.2162746637717987
 50
180.0
 51
270.000000000015
 73
     0
 72
     1
 10
15.60796782050991
 20
11.27906375204644
 11
18.48133121062257
 21
11.27906375204644
 72
     2
 10
18.48133121062257
 20
12.20595516821185
 40
0.9268914161654038
 50
270.0
 51
450.0
 73
     1
 72
     1
 10
18.48133121062257
 20
13.13284658437714
 11
15.60796782050991
 21
13.13284658437714
 72
     2
 10
15.60796782050997
 20
13.34912124814899
 40
0.2162746637718556
 50
90.00000000001506
 51
180.00000000003
 73
     0
 72
     1
 10
15.39169315673805
 20
13.3491212481491
 11
15.39169315673805
 21
15.45007512479048
 72
     2
 10
15.60796782050997
 20
15.4500751247906
 40
0.2162746637719124
 50
179.9999999999698
 51
269.9999999999848
 73
     0
 97
        1
330
31832914
 92
        1
 93
       22
 72
     1
 10
34.38949077184847
 20
11.35121250929467
 11
38.66044812452232
 21
11.35121250929467
 72
     2
 10
38.66044812452225
 20
11.17056778742925
 40
0.1806447218654057
 50
270.000000000027
 51
360.0
 73
     0
 72
     1
 10
38.84109284638759
 20
11.17056778742925
 11
38.84109284638759
 21
6.706062518471298
 72
     2
 10
39.61528451152485
 20
6.706062518471298
 40
0.7741916651372664
 50
180.0
 51
360.0
 73
     1
 72
     1
 10
40.38947617666211
 20
6.706062518471298
 11
40.38947617666211
 21
11.17056778742925
 72
     2
 10
40.57012089852753
 20
11.17056778742925
 40
0.1806447218654057
 50
180.0
 51
270.0000000000088
 73
     0
 72
     1
 10
40.57012089852756
 20
11.35121250929467
 11
44.84107825120124
 21
11.35121250929467
 72
     2
 10
44.84107825120124
 20
12.12540417443187
 40
0.7741916651372094
 50
270.0
 51
450.0
 73
     1
 72
     1
 10
44.84107825120124
 20
12.89959583956919
 11
40.57012089852756
 21
12.89959583956919
 72
     2
 10
40.57012089852746
 20
13.08024056143449
 40
0.180644721865292
 50
89.99999999997298
 51
180.0
 73
     0
 72
     1
 10
40.38947617666211
 20
13.08024056143449
 11
40.38947617666211
 21
15.24328348818857
 72
     2
 10
40.5701208985275
 20
15.24328348818857
 40
0.1806447218653773
 50
180.0
 51
263.8776721144806
 73
     0
 72
     2
 10
32.43681569626875
 20
91.06887074647112
 40
76.0798977399904
 50
276.1223278855241
 51
278.834530717579
 73
     1
 72
     2
 10
44.00237061396928
 20
16.65659147162409
 40
0.7741916651372469
 50
278.8345307175777
 51
458.8345307175756
 73
     1
 72
     2
 10
32.43681569626954
 20
91.06887074647206
 40
74.53151440971669
 50
81.16546928242151
 51
87.87571083088893
 73
     0
 72
     2
 10
35.22819840908045
 20
15.81491702985386
 40
0.7741916651372272
 50
92.12428916911298
 51
272.1242891691126
 73
     1
 72
     2
 10
32.43681569626895
 20
91.06887074647309
 40
76.07989773999229
 50
272.1242891691115
 51
274.681121797401
 73
     1
 72
     2
 10
38.6604481245223
 20
15.06270825964065
 40
0.1806447218652288
 50
265.3188782025977
 51
360.0000000000361
 73
     0
 72
     1
 10
38.84109284638759
 20
15.06270825964054
 11
38.84109284638759
 21
13.08024056143449
 72
     2
 10
38.6604481245223
 20
13.08024056143449
 40
0.180644721865292
 50
360.0
 51
449.999999999991
 73
     0
 72
     1
 10
38.66044812452232
 20
12.89959583956919
 11
34.38949077184847
 21
12.89959583956919
 72
     2
 10
34.38949077184847
 20
12.12540417443187
 40
0.7741916651373231
 50
90.0
 51
270.0
 73
     1
 97
        1
330
31832917
 92
        1
 93
        8
 72
     1
 10
49.14462710271869
 20
14.18991528146455
 11
49.14462710271869
 21
6.654449740795371
 72
     2
 10
48.42204821525722
 20
6.654449740795371
 40
0.7225788874614523
 50
360.0
 51
540.0
 73
     0
 72
     1
 10
47.69946932779581
 20
6.654449740795371
 11
47.69946932779581
 21
11.38127232106943
 72
     2
 10
47.62205016128208
 20
11.38127232106943
 40
0.077419166513721
 50
0.0
 51
137.8965511292017
 73
     1
 72
     2
 10
47.02850321801025
 20
11.91764804059515
 40
0.7225788874614463
 50
42.10344887074898
 51
216.9530344301602
 73
     0
 72
     2
 10
37.86255964804879
 20
18.81290943720614
 40
10.7473448810434
 50
323.0469655698341
 51
350.0531909868996
 73
     1
 72
     2
 10
49.16007367334015
 20
16.83166535742793
 40
0.7225788874613937
 50
189.9468090130963
 51
369.9468090130958
 73
     0
 72
     2
 10
37.86255964804812
 20
18.81290943720637
 40
12.19250265596691
 50
9.946809013100393
 51
22.28209173268126
 73
     0
 97
        1
330
31832919
 92
        1
 93
       35
 72
     1
 10
55.31314882472159
 20
14.18991528146455
 11
57.8421749308367
 21
14.18991528146455
 72
     2
 10
57.8421749308367
 20
14.96410694660187
 40
0.7741916651373231
 50
270.0
 51
450.0
 73
     1
 72
     1
 10
57.8421749308367
 20
15.73829861173918
 11
55.14366468673049
 21
15.73829861173918
 72
     2
 10
55.14366468673053
 20
15.84152416709071
 40
0.1032255553515142
 50
90.00000000001577
 51
196.8043978906548
 73
     0
 72
     2
 10
54.30371554241965
 20
16.09519011628674
 40
0.774191665137203
 50
343.1956021093462
 51
388.6809552685448
 73
     1
 72
     1
 10
54.98291833279239
 20
16.46674940350453
 11
54.15409883351535
 21
17.51015650709132
 72
     2
 10
53.5478864514161
 20
17.02861805363453
 40
0.7741916651372486
 50
38.46150445227698
 51
218.4615044522757
 73
     1
 72
     1
 10
52.94167406931682
 20
16.54707960017776
 11
53.35137635825552
 21
16.03130230607769
 72
     2
 10
53.2099268024325
 20
15.91894333360436
 40
0.1806447218652899
 50
321.5384955476781
 51
449.9999999999818
 73
     0
 72
     1
 10
53.20992680243256
 20
15.73829861173918
 11
50.87444994460151
 21
15.73829861173918
 72
     2
 10
50.87444994460151
 20
14.96410694660187
 40
0.7741916651373231
 50
90.0
 51
270.0
 73
     1
 72
     1
 10
50.87444994460151
 20
14.18991528146455
 11
53.40347605071648
 21
14.18991528146455
 72
     2
 10
53.40347605071645
 20
14.00927055959914
 40
0.1806447218654057
 50
270.0000000000088
 51
360.0
 73
     0
 72
     1
 10
53.58412077258183
 20
14.00927055959914
 11
53.58412077258183
 21
12.25443611862147
 72
     2
 10
53.40347605071645
 20
12.25443611862147
 40
0.1806447218653773
 50
360.0
 51
449.999999999991
 73
     0
 72
     1
 10
53.40347605071648
 20
12.07379139675606
 11
51.00348188879095
 21
12.07379139675606
 72
     2
 10
51.00348188879095
 20
11.29959973161885
 40
0.7741916651372094
 50
90.0
 51
270.0
 73
     1
 72
     1
 10
51.00348188879095
 20
10.52540806648152
 11
53.40347605071648
 21
10.52540806648152
 72
     2
 10
53.4034760507165
 20
10.34476334461624
 40
0.180644721865292
 50
269.999999999991
 51
360.0
 73
     0
 72
     1
 10
53.58412077258183
 20
10.34476334461624
 11
53.58412077258183
 21
8.073801126880312
 72
     2
 10
53.40347605071645
 20
8.073801126880198
 40
0.1806447218653773
 50
359.9999999999639
 51
449.999999999991
 73
     0
 72
     1
 10
53.40347605071648
 20
7.893156405014906
 11
50.64219244506034
 21
7.893156405014906
 72
     2
 10
50.64219244506034
 20
7.118964739877696
 40
0.7741916651372094
 50
90.0
 51
270.0
 73
     1
 72
     1
 10
50.64219244506034
 20
6.344773074740487
 11
58.07443243037782
 21
6.344773074740487
 72
     2
 10
58.07443243037782
 20
7.118964739877696
 40
0.7741916651372094
 50
270.0
 51
450.0
 73
     1
 72
     1
 10
58.07443243037782
 20
7.893156405014906
 11
55.31314882472159
 21
7.893156405014906
 72
     2
 10
55.31314882472162
 20
8.073801126880198
 40
0.180644721865292
 50
90.000000000009
 51
180.000000000036
 73
     0
 72
     1
 10
55.13250410285627
 20
8.073801126880312
 11
55.13250410285627
 21
10.34476334461624
 72
     2
 10
55.31314882472156
 20
10.34476334461624
 40
0.180644721865292
 50
180.0
 51
270.0000000000088
 73
     0
 72
     1
 10
55.31314882472159
 20
10.52540806648152
 11
57.71314298664719
 21
10.52540806648152
 72
     2
 10
57.71314298664719
 20
11.29959973161885
 40
0.7741916651373231
 50
270.0
 51
450.0
 73
     1
 72
     1
 10
57.71314298664719
 20
12.07379139675606
 11
55.31314882472159
 21
12.07379139675606
 72
     2
 10
55.31314882472162
 20
12.25443611862147
 40
0.1806447218654057
 50
90.000000000009
 51
180.0
 73
     0
 72
     1
 10
55.13250410285627
 20
12.25443611862147
 11
55.13250410285627
 21
14.00927055959914
 72
     2
 10
55.31314882472162
 20
14.00927055959914
 40
0.1806447218653488
 50
180.0
 51
269.999999999991
 73
     0
 97
        1
330
31832918
 92
        1
 93
       15
 72
     1
 10
79.05464238784603
 20
15.46355741542981
 11
70.69799378521181
 21
15.38434747606844
 72
     2
 10
70.69065580522348
 20
16.15850436483037
 40
0.7741916651371599
 50
89.45692830627306
 51
269.4569283062731
 73
     0
 72
     1
 10
70.68331782523518
 20
16.9326612535923
 11
79.56326758088053
 21
17.01683139345617
 72
     2
 10
80.80674938311506
 20
17.36132706780448
 40
1.290319441895347
 50
164.5150768139665
 51
446.7188024496401
 73
     0
 72
     2
 10
79.85192384267836
 20
15.9872655476679
 40
1.032255553518832
 50
355.2289392455997
 51
360.0000000000251
 73
     0
 72
     1
 10
80.88417939619722
 20
15.98726554766743
 11
80.88417939619722
 21
15.48089899844717
 72
     2
 10
65.22797082866057
 20
16.25512544152172
 40
15.67534029280905
 50
2.831068584469747
 51
18.13257172327544
 73
     0
 72
     2
 10
78.65336846619894
 20
11.85858005958379
 40
1.548383330268938
 50
18.13257172329075
 51
25.77377377814393
 73
     0
 72
     2
 10
72.31075647761361
 20
14.9211375913776
 40
8.591676982623157
 50
25.77377377815694
 51
46.96130332327215
 73
     0
 72
     2
 10
70.852738176966
 20
17.10960492450396
 40
11.19448153122135
 50
49.15221128013666
 51
82.35478209661319
 73
     0
 72
     2
 10
72.2390391354979
 20
6.781942529480147
 40
0.7741916651372365
 50
82.35478209661145
 51
262.3547820966114
 73
     0
 72
     2
 10
70.85273817696593
 20
17.10960492450408
 40
9.646098200947019
 50
277.6452179033869
 51
310.6697278263859
 73
     1
 72
     2
 10
72.31075647761381
 20
14.9211375913776
 40
7.043293652348546
 50
313.2765557096138
 51
334.2262262218363
 73
     1
 72
     2
 10
65.2279708286635
 20
16.25512544152047
 40
14.12695696253144
 50
341.8674282767288
 51
355.6596123200733
 73
     1
 72
     2
 10
79.05708838117536
 20
15.20550511917576
 40
0.2580638883791134
 50
355.6596123200542
 51
450.5430716937036
 73
     1
 97
        1
330
3183291B
 92
        1
 93
        4
 72
     2
 10
83.55725848183613
 20
17.02861805363453
 40
0.7741916651372378
 50
180.0
 51
360.0
 73
     0
 72
     1
 10
84.33145014697339
 20
17.02861805363453
 11
84.33145014697339
 21
11.35121250929467
 72
     2
 10
83.55725848183613
 20
11.35121250929467
 40
0.7741916651372664
 50
360.0
 51
540.0
 73
     0
 72
     1
 10
82.78306681669889
 20
11.35121250929467
 11
82.78306681669889
 21
17.02861805363453
 97
        1
330
3183291C
 92
        1
 93
        8
 72
     1
 10
92.95078401883479
 20
17.02861805363453
 11
92.95078401883479
 21
11.69409862948054
 72
     2
 10
87.6155355924817
 20
12.13070954995328
 40
5.35308367829042
 50
4.67838429357078
 51
60.61116887564995
 73
     0
 72
     2
 10
85.03198360798114
 20
15.53354937126096
 40
9.603449162566713
 50
57.14160545648034
 51
86.1698445278378
 73
     0
 72
     2
 10
85.6217695888688
 20
6.724012467843976
 40
0.7741916651370855
 50
86.16984452783073
 51
266.1698445278334
 73
     0
 72
     2
 10
85.03198360798023
 20
15.53354937126117
 40
8.055065832292719
 50
273.8301554721672
 51
303.2058183250348
 73
     1
 72
     2
 10
87.61553559248175
 20
12.13070954995339
 40
3.804700348015821
 50
298.7117396778163
 51
354.4500787022754
 73
     1
 72
     1
 10
91.40240068856028
 20
11.76274558120927
 11
91.40240068856028
 21
17.02861805363453
 72
     2
 10
92.17659235369756
 20
17.02861805363453
 40
0.7741916651372664
 50
180.0
 51
360.0
 73
     0
 97
        1
330
3183291D
 92
        1
 93
        4
 72
     2
 10
81.36670297334772
 20
-16.26954932845228
 40
36.04571933727477
 50
292.2793779041676
 51
297.6775903109914
 73
     0
 72
     2
 10
97.75017635014794
 20
14.96604678300423
 40
0.7741916651373231
 50
297.6775903109887
 51
477.6775903109927
 73
     0
 72
     2
 10
81.36670297334536
 20
-16.26954932845183
 40
34.49733600700094
 50
62.32240968900454
 51
67.72062209582832
 73
     1
 72
     2
 10
94.73895495362674
 20
16.36882595743303
 40
0.7741916651371145
 50
112.2793779041711
 51
292.279377904166
 73
     0
 97
        1
330
3183291E
 92
        1
 93
        4
 72
     2
 10
94.23350690777596
 20
7.253602686091084
 40
0.7741916651373222
 50
85.68345463735569
 51
265.6834546373557
 73
     0
 72
     2
 10
93.43028823419322
 20
17.89496850205614
 40
9.897444885400826
 50
274.3165453626419
 51
345.476834384037
 73
     1
 72
     2
 10
103.7609268164414
 20
15.21882703536515
 40
0.7741916651372597
 50
194.5231656159601
 51
374.5231656159601
 73
     0
 72
     2
 10
93.43028823419313
 20
17.89496850205603
 40
11.44582821567537
 50
14.52316561596187
 51
85.68345463735722
 73
     0
 97
        1
330
3183291F
 92
        1
 93
       14
 72
     2
 10
105.5904151622516
 20
16.48147299515698
 40
9.16676702463746
 50
44.43529403939638
 51
79.12073388346748
 73
     0
 72
     2
 10
107.4666725480101
 20
6.719182388224907
 40
0.7741916651372554
 50
100.8792661165292
 51
280.8792661165293
 73
     1
 72
     2
 10
105.5904151622514
 20
16.48147299515732
 40
10.71515035491237
 50
280.8792661165333
 51
315.6092198911108
 73
     1
 72
     2
 10
105.4725804385429
 20
16.45797759817367
 40
10.78337363134773
 50
316.1364203100123
 51
355.6521717581451
 73
     1
 72
     2
 10
114.9383154866183
 20
15.73829861173908
 40
1.290319441895471
 50
355.6521717581441
 51
449.9999999999987
 73
     1
 72
     1
 10
114.9383154866183
 20
17.02861805363453
 11
109.1868629750238
 21
17.02861805363453
 72
     2
 10
109.186862975024
 20
15.99636250011826
 40
1.032255553516278
 50
90.00000000000948
 51
152.8690468028244
 73
     1
 72
     2
 10
103.2368996396687
 20
19.04516979608932
 40
5.653347607009949
 50
27.1309531971911
 51
62.78558091782517
 73
     0
 72
     2
 10
106.1763531061147
 20
13.32915069066348
 40
0.7741916651372789
 50
117.2144190821772
 51
297.2144190821773
 73
     1
 72
     2
 10
103.2368996396686
 20
19.0451697960891
 40
7.201730937284359
 50
297.2144190821773
 51
328.0768204089645
 73
     1
 72
     2
 10
109.7874926775894
 20
14.96410694660176
 40
0.5161277767582555
 50
211.9231795910215
 51
269.9999999999905
 73
     0
 72
     1
 10
109.7874926775894
 20
15.48023472336001
 11
114.0625114158136
 21
15.48023472336001
 72
     2
 10
114.0625114158136
 20
14.96410694660176
 40
0.5161277767582533
 50
270.0
 51
369.8656102025446
 73
     0
 72
     2
 10
105.4725804385425
 20
16.45797759817355
 40
9.234990301073482
 50
9.865610202551604
 51
43.81937100197871
 73
     0
 97
        1
330
31832921
 92
        1
 93
       11
 72
     2
 10
121.9053809278397
 20
13.12154781749518
 40
6.512784616994933
 50
1.952985583143863
 51
70.98548319695885
 73
     0
 72
     2
 10
119.3164573647644
 20
20.90661448536684
 40
14.71682634675851
 50
71.3310978399981
 51
88.66945227344725
 73
     0
 72
     2
 10
119.6402102429124
 20
6.967739138372734
 40
0.7741916651372175
 50
88.6694522734416
 51
268.6694522734437
 73
     0
 72
     2
 10
119.3164573647649
 20
20.9066144853674
 40
13.16844301648453
 50
271.3305477265499
 51
288.6477690067388
 73
     1
 72
     2
 10
121.9053809278397
 20
13.12154781749494
 40
4.964401286720303
 50
289.0662562538124
 51
350.340450413696
 73
     1
 72
     2
 10
126.5449927016156
 20
12.33185528513513
 40
0.2580638883791041
 50
350.3404504136951
 51
450.0
 73
     1
 72
     1
 10
126.5449927016156
 20
12.58991917351419
 11
117.8337630242588
 21
12.58991917351419
 72
     2
 10
117.8337630242588
 20
13.36411083865141
 40
0.7741916651372094
 50
90.0
 51
270.0
 73
     0
 72
     1
 10
117.8337630242588
 20
14.13830250378873
 11
127.3821268942848
 21
14.13830250378873
 72
     2
 10
127.3821268942848
 20
13.10604695027244
 40
1.032255553516278
 50
269.9999999999984
 51
360.0
 73
     0
 72
     1
 10
128.4143824478012
 20
13.10604695027244
 11
128.4143824478012
 21
12.89959583956919
 97
        1
330
31832922
 92
        1
 93
        4
 72
     1
 10
126.6079352291477
 20
17.13184360898606
 11
118.8660185777753
 21
17.13184360898606
 72
     2
 10
118.8660185777753
 20
16.35765194384885
 40
0.7741916651372094
 50
90.0
 51
270.0
 73
     1
 72
     1
 10
118.8660185777753
 20
15.58346027871151
 11
126.6079352291477
 21
15.58346027871151
 72
     2
 10
126.6079352291477
 20
16.35765194384885
 40
0.7741916651373231
 50
270.0
 51
450.0
 73
     1
 97
        1
330
31832923
 92
        1
 93
        4
 72
     2
 10
130.0909438612428
 20
11.86734028605292
 40
0.7741916651372094
 50
90.0
 51
270.0
 73
     1
 72
     1
 10
130.0909438612428
 20
11.0931486209156
 11
140.4134993964062
 21
11.0931486209156
 72
     2
 10
140.4134993964062
 20
11.86734028605292
 40
0.7741916651373231
 50
270.0
 51
450.0
 73
     1
 72
     1
 10
140.4134993964062
 20
12.64153195119013
 11
130.0909438612428
 21
12.64153195119013
 97
        1
330
31832924
 92
        1
 93
       53
 72
     1
 10
152.8798394818684
 20
12.07379139675606
 11
150.479845319943
 21
12.07379139675606
 72
     2
 10
166.6943157172011
 20
20.82483453205964
 40
18.4252491494554
 50
208.3559922914106
 51
225.364348212941
 73
     1
 72
     2
 10
153.2411289255991
 20
7.199450732635682
 40
0.7225788874614289
 50
314.6356517870533
 51
494.6356517870533
 73
     0
 72
     2
 10
166.6943157172019
 20
20.82483453206032
 40
19.87040692437928
 50
134.6356517870586
 51
144.6874491376689
 73
     0
 72
     1
 10
150.479845319943
 20
9.339016273145032
 11
150.479845319943
 21
6.654449740795371
 72
     2
 10
149.7572664324815
 20
6.654449740795371
 40
0.7225788874613671
 50
360.0
 51
540.0
 73
     0
 72
     1
 10
149.0346875450201
 20
6.654449740795371
 11
149.0346875450201
 21
9.339016273145032
 72
     2
 10
132.8202171477622
 20
20.82483453206042
 40
19.87040692437854
 50
35.31255086233293
 51
45.48745038578256
 73
     0
 72
     2
 10
146.244098252463
 20
7.170577517553509
 40
0.7225788874612932
 50
45.48745038577972
 51
225.4874503857796
 73
     0
 72
     2
 10
132.8202171477615
 20
20.82483453205941
 40
18.42524914945564
 50
314.5125496142207
 51
331.6440077085903
 73
     1
 72
     1
 10
149.0346875450201
 20
12.07379139675606
 11
146.9959828268254
 21
12.07379139675606
 72
     2
 10
146.9959828268254
 20
12.79637028421757
 40
0.7225788874615092
 50
90.0
 51
270.0
 73
     0
 72
     1
 10
146.9959828268254
 20
13.51894917167896
 11
149.0346875450201
 21
13.51894917167896
 72
     1
 10
149.0346875450201
 20
13.51894917167896
 11
149.0346875450201
 21
14.65443028054687
 72
     1
 10
149.0346875450201
 20
14.65443028054687
 11
147.4863042147457
 21
14.6544302805471
 72
     2
 10
139.2643887309904
 20
18.4055732294837
 40
9.037199104001759
 50
24.52423153182499
 51
28.01954061966569
 73
     0
 72
     2
 10
146.6044309359268
 20
14.49959194751953
 40
0.7225788874615105
 50
28.01954061967087
 51
166.4795610696769
 73
     0
 72
     2
 10
145.4734058853889
 20
14.9124941689256
 40
0.7225788874610606
 50
53.63158366668915
 51
89.99999999999552
 73
     0
 72
     1
 10
145.473405885389
 20
14.18991528146455
 11
145.0250286060185
 21
14.18991528146455
 72
     2
 10
145.0250286060183
 20
14.112496114951
 40
0.0774191665135504
 50
89.99999999978966
 51
204.2440804458701
 73
     1
 72
     2
 10
162.4198282913192
 20
21.94612028287656
 40
19.15475450707015
 50
204.2440804465079
 51
213.985300224826
 73
     1
 72
     2
 10
145.9379208811786
 20
10.83508473253663
 40
0.7225788874614453
 50
326.0146997751807
 51
506.0146997751719
 73
     0
 72
     2
 10
162.4198282913171
 20
21.94612028287451
 40
20.59991228199034
 50
146.0146997751758
 51
147.4879307467899
 73
     0
 72
     2
 10
144.9830844974685
 20
10.83252492858105
 40
0.0774191665136416
 50
32.51206925315226
 51
180.0
 73
     1
 72
     1
 10
144.9056653309549
 20
10.83252492858105
 11
144.9056653309549
 21
6.654449740795371
 72
     2
 10
144.1830864434934
 20
6.654449740795371
 40
0.7225788874614239
 50
360.0
 51
540.0
 73
     0
 72
     1
 10
143.4605075560321
 20
6.654449740795371
 11
143.4605075560321
 21
9.857709281921303
 72
     2
 10
143.3830883895184
 20
9.857709281921415
 40
0.0774191665136925
 50
359.9999999999158
 51
516.2910909798279
 73
     1
 72
     2
 10
140.1300138640842
 20
11.14100845642497
 40
3.419686994316477
 50
21.4792964262674
 51
33.16667395485419
 73
     0
 72
     2
 10
142.3766392248398
 20
9.647992972282962
 40
0.7225788874614615
 50
31.52494793504553
 51
215.891883716704
 73
     0
 72
     2
 10
130.2367744717797
 20
17.15236469183775
 40
13.55150261751694
 50
328.4994362659297
 51
346.9613336964119
 73
     1
 72
     2
 10
143.363469557743
 20
14.11249611495076
 40
0.0774191665137398
 50
346.9613336964254
 51
450.0
 73
     1
 72
     1
 10
143.363469557743
 20
14.18991528146455
 11
142.5314775578673
 21
14.18991528146455
 72
     2
 10
142.5314775578673
 20
14.91249416892606
 40
0.7225788874615092
 50
90.0
 51
270.0
 73
     0
 72
     1
 10
142.5314775578673
 20
15.63507305638744
 11
143.4605075560321
 21
15.63507305638744
 72
     1
 10
143.4605075560321
 20
15.63507305638744
 11
143.4605075560321
 21
17.08023083131013
 72
     2
 10
144.1830864434934
 20
17.08023083131013
 40
0.7225788874614523
 50
180.0
 51
360.0
 73
     0
 72
     1
 10
144.9056653309549
 20
17.08023083131013
 11
144.9056653309549
 21
15.63507305638744
 72
     1
 10
144.9056653309549
 20
15.63507305638744
 11
145.473405885389
 21
15.63507305638744
 72
     2
 10
145.4734058853889
 20
14.91249416892617
 40
0.7225788874612819
 50
270.0000000000066
 51
337.5375207416507
 73
     0
 72
     2
 10
139.2643887309866
 20
18.40557322948689
 40
7.592041329083699
 50
334.9295166386164
 51
349.0217472925315
 73
     1
 72
     2
 10
147.4268475441799
 20
16.82216694293116
 40
0.722578887461361
 50
190.9782527074639
 51
370.9782527074636
 73
     0
 72
     2
 10
139.2643887309888
 20
18.40557322948642
 40
9.037199104004344
 50
10.9782527074674
 51
14.78341658428063
 73
     0
 72
     1
 10
148.0024319915038
 20
16.09958805546978
 11
149.0346875450201
 21
16.09958805546978
 72
     1
 10
149.0346875450201
 20
16.09958805546978
 11
149.0346875450201
 21
17.08023083131013
 72
     2
 10
149.7572664324815
 20
17.08023083131013
 40
0.7225788874613386
 50
180.0
 51
360.0
 73
     0
 72
     1
 10
150.479845319943
 20
17.08023083131013
 11
150.479845319943
 21
16.09958805546978
 72
     1
 10
150.479845319943
 20
16.09958805546978
 11
152.7250011488409
 21
16.09958805546978
 72
     2
 10
152.7250011488409
 20
15.37700916800827
 40
0.7225788874615092
 50
270.0
 51
450.0
 73
     0
 72
     1
 10
152.7250011488409
 20
14.65443028054687
 11
150.479845319943
 21
14.65443028054687
 72
     1
 10
150.479845319943
 20
14.65443028054687
 11
150.479845319943
 21
13.51894917167896
 72
     1
 10
150.479845319943
 20
13.51894917167896
 11
152.8798394818684
 21
13.51894917167896
 72
     2
 10
152.8798394818684
 20
12.79637028421757
 40
0.7225788874613956
 50
270.0
 51
450.0
 73
     0
 97
        1
330
31832925
 92
        1
 93
       18
 72
     1
 10
155.6356331864811
 20
6.536026163344103
 11
160.5625980575068
 21
7.536561438971716
 72
     2
 10
160.2374534051335
 20
8.236321777136936
 40
0.7716110262535008
 50
294.9220052137667
 51
464.7637627083331
 73
     1
 72
     1
 10
160.0408205036176
 20
8.982457875899967
 11
159.4548709952234
 21
8.828039731316835
 72
     2
 10
159.3288242634824
 20
9.306332102318831
 40
0.4946224527266198
 50
75.2362372916739
 51
180.0
 73
     0
 72
     1
 10
158.8342018107558
 20
9.306332102318831
 11
158.8342018107557
 21
11.45844232867853
 72
     2
 10
159.3288242634823
 20
11.45844232867853
 40
0.4946224527266169
 50
180.0
 51
269.2527061231795
 73
     0
 72
     1
 10
159.3223732150155
 20
11.95302271113915
 11
160.0564647673354
 21
11.96259781834328
 72
     2
 10
160.0470406269664
 20
12.68511524663358
 40
0.7225788874613812
 50
270.7472938768251
 51
450.7472938768248
 73
     1
 72
     1
 10
160.0376164865974
 20
13.40763267492399
 11
155.4427199411991
 21
13.34769924172314
 72
     2
 10
155.4523965138994
 20
12.60582866803224
 40
0.7419336790897783
 50
90.74729387682484
 51
252.1576573741625
 73
     1
 72
     1
 10
155.2250688786465
 20
11.89957961109973
 11
156.7847449792878
 21
11.9199232124123
 72
     2
 10
156.7911960277546
 20
11.42534282995166
 40
0.4946224527265563
 50
269.2527061231795
 51
360.0
 73
     0
 72
     1
 10
157.2858184804811
 20
11.42534282995166
 11
157.2858184804811
 21
8.771374903724789
 72
     2
 10
156.7911960277546
 20
8.771374903724677
 40
0.49462245272656
 50
359.9999999999868
 51
441.4726877161698
 73
     0
 72
     1
 10
156.8645390642755
 20
8.282220357865071
 11
155.3676587240904
 21
8.057780555788554
 72
     2
 10
155.482073861063
 20
7.294699464247513
 40
0.771611026253448
 50
98.5273122838155
 51
179.9999999999915
 73
     1
 72
     1
 10
154.7104628348096
 20
7.294699464247628
 11
154.7104628348096
 21
7.292202802373026
 72
     2
 10
155.482073861063
 20
7.292202802372911
 40
0.7716110262534244
 50
179.9999999999915
 51
281.4791494176426
 73
     1
 97
        1
330
31832927
 92
        1
 93
       35
 72
     2
 10
163.9974342477125
 20
16.16918379128469
 40
0.0516127776757643
 50
270.7472938768348
 51
425.3037560024904
 73
     1
 72
     2
 10
165.9986398142543
 20
20.5208681622248
 40
4.738165983795641
 50
114.6962439975582
 51
124.7447906906921
 73
     0
 72
     2
 10
163.6659452679504
 20
17.15764999782402
 40
0.6451597209477212
 50
124.7447906906983
 51
304.7447906907023
 73
     0
 72
     2
 10
165.9986398142549
 20
20.52086816222503
 40
3.447846541900605
 50
235.2552093093068
 51
254.4100633419994
 73
     1
 72
     2
 10
164.898641728493
 20
16.57844448141189
 40
0.6451597209477356
 50
285.5899366580077
 51
394.0341302999766
 73
     0
 72
     2
 10
165.4760601095818
 20
16.18847021556985
 40
0.0516127776759143
 50
145.9658696999372
 51
270.74729387677
 73
     1
 72
     1
 10
165.4767332624651
 20
16.13686182783476
 11
165.6369297115398
 21
16.13895134673578
 72
     2
 10
165.6470270047923
 20
15.36482553071049
 40
0.7741916651371455
 50
269.2527061231741
 51
449.2527061231743
 73
     0
 72
     1
 10
165.6571242980449
 20
14.5906997146851
 11
163.0016017909706
 21
14.55606246459274
 72
     2
 10
163.004967555388
 20
14.29802052591765
 40
0.2580638883790482
 50
90.74729387682156
 51
186.8667955861607
 73
     1
 72
     2
 10
196.6888390399469
 20
18.35441169253305
 40
34.18530231836141
 50
186.8667955861635
 51
193.2804591616731
 73
     1
 72
     2
 10
172.898622268244
 20
13.93185139308548
 40
10.08239894342991
 50
199.8913601546174
 51
213.7795305643038
 73
     1
 72
     2
 10
164.6470010900282
 20
8.412140566925017
 40
0.1548383330274437
 50
213.7795305642779
 51
347.3542134402988
 73
     1
 72
     2
 10
153.2354198930824
 20
10.9725078197847
 40
11.85012224937602
 50
347.3542134403436
 51
354.3353366174935
 73
     1
 72
     2
 10
165.8018653378197
 20
9.802829179020136
 40
0.7741916651372094
 50
180.0
 51
360.0
 73
     0
 72
     1
 10
166.576057002957
 20
9.802829179020136
 11
166.576057002957
 21
9.214344928184344
 72
     2
 10
157.3313497396581
 20
10.11286098844345
 40
9.28826913340881
 50
5.551283092637619
 51
16.2380835267558
 73
     0
 72
     2
 10
163.4500214229484
 20
8.372935667819772
 40
2.927428527346235
 50
17.02967716514184
 51
20.89995805449079
 73
     0
 72
     2
 10
163.9827571477551
 20
8.075413908448579
 40
2.325269153935848
 50
18.73355423004626
 51
44.47925821960885
 73
     0
 72
     2
 10
165.0201905667186
 20
6.977556566041016
 40
0.8177916701765699
 50
40.52134616042772
 51
107.8431040350132
 73
     0
 72
     2
 10
165.5244281194899
 20
9.429720137241474
 40
3.317626910586662
 50
103.1509632605573
 51
120.7464615745525
 73
     0
 72
     2
 10
164.6199200127542
 20
7.909164998049049
 40
1.548383330274673
 50
120.7464615745522
 51
147.7173278579054
 73
     0
 72
     2
 10
173.8641704272579
 20
13.74922525377633
 40
12.48284580067427
 50
147.7173278579103
 51
161.9763825330148
 73
     0
 72
     2
 10
172.8986222682511
 20
13.93185139308661
 40
11.63078227371145
 50
159.6485284184458
 51
160.5599651718295
 73
     0
 72
     2
 10
196.6888390399469
 20
18.35441169253339
 40
35.73368564863595
 50
166.5797056495732
 51
173.4854501599816
 73
     0
 72
     2
 10
160.9294854755776
 20
14.27094902052886
 40
0.2580638883790736
 50
6.51454984004374
 51
90.7472938768468
 73
     1
 72
     1
 10
160.92611971116
 20
14.52899095920394
 11
155.489407095909
 21
14.45807731639627
 72
     2
 10
155.4793098026564
 20
15.23220313242165
 40
0.7741916651372587
 50
89.25270612317648
 51
269.2527061231785
 73
     0
 72
     1
 10
155.469212509404
 20
16.00632894844705
 11
160.7532181581581
 21
16.07525076125682
 72
     2
 10
160.7498523937406
 20
16.33329269993191
 40
0.2580638883790497
 50
270.7472938768467
 51
364.2803464377843
 73
     1
 72
     1
 10
161.0071964887775
 20
16.35255372884784
 11
160.9609209649413
 21
16.97083496688696
 72
     2
 10
161.7329532500524
 20
17.02861805363453
 40
0.7741916651372172
 50
175.7196535622327
 51
355.7196535622243
 73
     0
 72
     1
 10
162.5049855351634
 20
17.08640114038223
 11
162.5607747244498
 21
16.34100905917795
 72
     2
 10
162.8181188194867
 20
16.3602700880939
 40
0.2580638883789458
 50
184.2803464377861
 51
270.7472938768471
 73
     1
 72
     1
 10
162.8214845839043
 20
16.10222814941892
 11
163.998107400596
 21
16.11757540354972
 97
        1
330
31832926
 92
        1
 93
       22
 72
     2
 10
178.267847854385
 20
6.706062518471071
 40
0.7741916651372649
 50
324.2455986461042
 51
504.2455986461108
 73
     0
 72
     2
 10
168.9401454801888
 20
-0.0100102741650972
 40
10.71979221068113
 50
35.75440135389317
 51
40.77907381779229
 73
     1
 72
     2
 10
176.9402841143114
 20
6.890426833132096
 40
0.1548383330276135
 50
40.77907381774929
 51
93.6913859864215
 73
     1
 72
     1
 10
176.9303152697099
 20
7.044943924458833
 11
168.7702722661701
 21
6.518489537133633
 72
     2
 10
168.7204280431615
 20
7.291074993766526
 40
0.7741916651372504
 50
86.30861401354952
 51
266.3086140135495
 73
     0
 72
     1
 10
168.670583820153
 20
8.063660450399423
 11
169.6569183595565
 21
8.127294936812518
 72
     2
 10
169.6469495149549
 20
8.281812028139029
 40
0.1548383330273849
 50
273.6913859864687
 51
337.2702679200688
 73
     1
 72
     1
 10
169.7897627484369
 20
8.221984862761472
 11
170.6950117116733
 21
10.3829017427447
 72
     2
 10
170.5521984781911
 20
10.44272890812225
 40
0.1548383330274336
 50
337.270267920077
 51
450.000000000042
 73
     1
 72
     1
 10
170.5521984781911
 20
10.59756724114969
 11
168.2043002664034
 21
10.59756724114969
 72
     2
 10
168.2043002664034
 20
11.37175890628691
 40
0.7741916651372094
 50
90.0
 51
270.0
 73
     0
 72
     1
 10
168.2043002664034
 20
12.14595057142412
 11
178.0107280248085
 21
12.14595057142412
 72
     2
 10
178.0107280248085
 20
11.37175890628691
 40
0.7741916651372094
 50
270.0
 51
450.0
 73
     0
 72
     1
 10
178.0107280248085
 20
10.59756724114969
 11
172.5491503887562
 21
10.59756724114969
 72
     2
 10
172.5491503887564
 20
10.44272890812225
 40
0.1548383330274419
 50
90.00000000002101
 51
158.9993499433593
 73
     1
 72
     1
 10
172.4045969813384
 20
10.49821964409318
 11
171.6277065733801
 21
8.47441956835803
 72
     2
 10
171.7722599807981
 20
8.418928832387109
 40
0.1548383330275061
 50
158.9993499433669
 51
273.6913859864634
 73
     1
 72
     1
 10
171.7822288254
 20
8.264411741060371
 11
175.318271811925
 21
8.492543546642764
 72
     2
 10
175.3149488637245
 20
8.544049243751601
 40
0.0516127776757962
 50
273.6913859864898
 51
413.3051504477283
 73
     1
 72
     2
 10
168.9401454801823
 20
-0.0100102741621413
 40
10.71979221068265
 50
53.30515044767741
 51
53.98205344655686
 73
     1
 72
     2
 10
175.6990519999565
 20
9.286701402261996
 40
0.7741916651372139
 50
126.0179465534102
 51
306.0179465534103
 73
     0
 72
     2
 10
168.9401454801884
 20
-0.0100102741650972
 40
12.26817554095596
 50
306.0179465534083
 51
324.2455986461081
 73
     0
 97
        1
330
31832929
 92
        1
 93
       12
 72
     2
 10
159.7186597521951
 20
33.46393064567905
 40
20.4244793790098
 50
292.8374195160411
 51
309.1951240259329
 73
     1
 72
     2
 10
173.1075141456058
 20
17.02861805363453
 40
0.7741916651371975
 50
231.5580096528845
 51
308.4419903471155
 73
     0
 72
     2
 10
186.4963685390165
 20
33.46393064568018
 40
20.42447937901057
 50
230.8048759740695
 51
247.162580483961
 73
     1
 72
     2
 10
178.2687919131876
 20
13.92702615944926
 40
0.7741916651373049
 50
292.8374195160368
 51
465.4499948569647
 73
     0
 72
     2
 10
186.7872220560084
 20
33.23476632790471
 40
21.86963715393314
 50
113.5119284300992
 51
117.5690916262129
 73
     0
 72
     2
 10
176.64167513919
 20
13.8026003054897
 40
0.0516127776757951
 50
62.43090837378157
 51
176.7670415228836
 73
     1
 72
     2
 10
175.8171849735864
 20
13.84917223472609
 40
0.7741916651371833
 50
3.232958477212199
 51
90.00000000000841
 73
     0
 72
     1
 10
175.8171849735863
 20
13.07498056958888
 11
170.3978433176255
 21
13.07498056958888
 72
     2
 10
170.3978433176255
 20
13.84917223472609
 40
0.7741916651372094
 50
89.9999999999958
 51
176.7670415227877
 73
     0
 72
     2
 10
169.573353152022
 20
13.8026003054897
 40
0.0516127776758075
 50
3.232958477119811
 51
117.5690916261624
 73
     1
 72
     2
 10
159.4278062352036
 20
33.23476632790448
 40
21.86963715393289
 50
62.43090837378704
 51
66.48807156990071
 73
     0
 72
     2
 10
167.9462363780243
 20
13.92702615944926
 40
0.7741916651371775
 50
74.55000514303936
 51
247.1625804839558
 73
     0
 97
        1
330
31832928
 92
       16
 93
        6
 72
     1
 10
173.0753057758618
 20
16.14597510288194
 11
171.0654774773096
 21
14.71867502046778
 72
     1
 10
171.0654774773096
 20
14.71867502046778
 11
171.0929426123852
 21
14.62336389986329
 72
     1
 10
171.0929426123852
 20
14.62336389986329
 11
175.1220856788268
 21
14.62336389986329
 72
     1
 10
175.1220856788268
 20
14.62336389986329
 11
175.149550813902
 21
14.71867502046778
 72
     1
 10
175.149550813902
 20
14.71867502046778
 11
173.13972251535
 21
16.14597510288194
 72
     1
 10
173.13972251535
 20
16.14597510288194
 11
173.0753057758618
 21
16.14597510288194
 97
        1
330
3183292A
 92
        1
 93
       46
 72
     2
 10
182.7357379488036
 20
17.02861805363453
 40
0.7741916651371527
 50
180.0
 51
360.0
 73
     0
 72
     1
 10
183.5099296139409
 20
17.02861805363453
 11
183.5099296139409
 21
15.81571777825273
 72
     2
 10
183.6647679469684
 20
15.81571777825286
 40
0.1548383330275556
 50
180.000000000042
 51
270.000000000042
 73
     1
 72
     1
 10
183.6647679469685
 20
15.6608794452253
 11
185.0370608260554
 21
15.6608794452253
 72
     2
 10
185.0370608260554
 20
15.14475166846716
 40
0.5161277767581396
 50
269.9999999999937
 51
359.6204581346191
 73
     0
 72
     2
 10
186.1369942461681
 20
14.6397116760604
 40
0.7741916651373045
 50
221.0533172235639
 51
270.0000000000041
 73
     0
 72
     1
 10
186.1369942461683
 20
15.41390334119773
 11
187.200243217762
 21
15.41390334119773
 72
     2
 10
187.200243217762
 20
15.56874167422518
 40
0.1548383330274419
 50
270.0
 51
360.0
 73
     1
 72
     1
 10
187.3550815507894
 20
15.56874167422518
 11
187.3550815507894
 21
17.02861805363453
 72
     2
 10
188.1292732159265
 20
17.02861805363453
 40
0.7741916651371527
 50
180.0
 51
360.0
 73
     0
 72
     1
 10
188.9034648810636
 20
17.02861805363453
 11
188.9034648810636
 21
15.56874167422518
 72
     2
 10
189.058303214091
 20
15.56874167422518
 40
0.1548383330274419
 50
180.0
 51
270.0
 73
     1
 72
     1
 10
189.058303214091
 20
15.41390334119773
 11
190.6066865443657
 21
15.41390334119773
 72
     2
 10
190.6066865443657
 20
14.63971167606052
 40
0.7741916651372094
 50
270.0
 51
450.0
 73
     0
 72
     1
 10
190.6066865443657
 20
13.86552001092332
 11
189.058303214091
 21
13.86552001092332
 72
     2
 10
189.0583032140911
 20
13.71068167789576
 40
0.1548383330275556
 50
90.00000000002101
 51
180.0
 73
     1
 72
     1
 10
188.9034648810636
 20
13.71068167789576
 11
188.9034648810636
 21
8.04799473804246
 72
     2
 10
189.0583032140911
 20
8.04799473804246
 40
0.1548383330274987
 50
180.0
 51
269.9999999999789
 73
     1
 72
     1
 10
189.058303214091
 20
7.893156405014906
 11
190.8647504327448
 21
7.893156405014906
 72
     2
 10
190.8647504327448
 20
7.118964739877696
 40
0.7741916651372094
 50
270.0
 51
450.0
 73
     0
 72
     1
 10
190.8647504327448
 20
6.344773074740487
 11
185.0325065553775
 21
6.344773074740487
 72
     2
 10
185.0325065553775
 20
7.118964739877696
 40
0.7741916651372094
 50
90.0
 51
270.0
 73
     0
 72
     1
 10
185.0325065553775
 20
7.893156405014906
 11
187.200243217762
 21
7.893156405014906
 72
     2
 10
187.2002432177619
 20
8.04799473804246
 40
0.1548383330275556
 50
270.000000000021
 51
360.0
 73
     1
 72
     1
 10
187.3550815507894
 20
8.04799473804246
 11
187.3550815507894
 21
13.71068167789576
 72
     2
 10
187.2002432177619
 20
13.71068167789576
 40
0.1548383330274987
 50
0.0
 51
89.99999999997896
 73
     1
 72
     1
 10
187.200243217762
 20
13.86552001092332
 11
186.1369942461683
 21
13.86552001092332
 72
     2
 10
186.1369942461683
 20
14.63971167606052
 40
0.7741916651372094
 50
90.0
 51
178.7572795963296
 73
     0
 72
     2
 10
173.9545795507694
 20
20.13798667536935
 40
12.67152933537463
 50
25.80011007782389
 51
36.34303215226568
 73
     0
 72
     1
 10
184.1612863600951
 20
12.62860642093267
 11
186.2917543603782
 21
11.05878789440817
 72
     2
 10
185.8325046093526
 20
10.43552037515905
 40
0.7741916651372663
 50
306.3843518158318
 51
486.3843518158367
 73
     0
 72
     1
 10
185.3732548583271
 20
9.81225285591006
 11
183.7566178971735
 21
11.00345903781271
 72
     2
 10
183.6647679469684
 20
10.8788055339628
 40
0.1548383330275332
 50
53.61564818418461
 51
180.0
 73
     1
 72
     1
 10
183.5099296139409
 20
10.8788055339628
 11
183.5099296139409
 21
6.706062518471298
 72
     2
 10
182.7357379488036
 20
6.706062518471298
 40
0.7741916651372094
 50
360.0
 51
540.0
 73
     0
 72
     1
 10
181.9615462836665
 20
6.706062518471298
 11
181.9615462836665
 21
9.996005253723863
 72
     2
 10
181.806707950639
 20
9.996005253723753
 40
0.154838333027385
 50
0.0000000000420682
 51
127.7477654900522
 73
     1
 72
     2
 10
173.9545795507642
 20
20.13798667537435
 40
12.67152933538242
 50
52.2522345099609
 51
57.12148604690852
 73
     0
 72
     2
 10
180.413162953392
 20
10.14632294648845
 40
0.7741916651373283
 50
57.12148604690456
 51
237.1214860468999
 73
     0
 72
     2
 10
173.9545795507633
 20
20.1379866753732
 40
11.12314600510739
 50
302.8785139530977
 51
325.7037825309355
 73
     1
 72
     2
 10
183.0158878425166
 20
13.95765778192344
 40
0.1548383330274851
 50
325.7037825309157
 51
449.9999999999788
 73
     1
 72
     1
 10
183.0158878425166
 20
14.11249611495088
 11
180.6712268417711
 21
14.11249611495088
 72
     2
 10
180.6712268417711
 20
14.88668778008809
 40
0.7741916651372094
 50
90.0
 51
270.0
 73
     0
 72
     1
 10
180.6712268417711
 20
15.6608794452253
 11
181.806707950639
 21
15.6608794452253
 72
     2
 10
181.806707950639
 20
15.81571777825273
 40
0.1548383330274419
 50
270.0
 51
360.0
 73
     1
 72
     1
 10
181.9615462836665
 20
15.81571777825273
 11
181.9615462836665
 21
17.02861805363453
 97
        1
330
3183292B
 92
       16
 93
        1
 72
     2
 10
80.80674938311513
 20
17.36132706780438
 40
0.3870958325686231
 50
0.0
 51
360.0
 73
     1
 97
        1
330
31832920
 92
       33
 93
       16
 72
     2
 10
55.05483322635439
 20
20.0931267281362
 40
14.89875516665529
 50
291.0642306470731
 51
315.3513896006451
 73
     1
 72
     2
 10
65.83785014442378
 20
9.44156768677135
 40
0.2580638883790463
 50
224.6486103993358
 51
313.0250659891198
 73
     0
 72
     1
 10
66.01393184522368
 20
9.630226651914084
 11
69.47687163860786
 21
6.398149511421933
 72
     2
 10
70.00511674100761
 20
6.964126406850254
 40
0.7741916651372602
 50
226.9749340108826
 51
406.9749340108868
 73
     1
 72
     1
 10
70.53336184340739
 20
7.530103302278687
 11
67.01020656605185
 21
10.81838156114372
 72
     2
 10
67.18628826685176
 20
11.00704052628657
 40
0.2580638883791487
 50
133.0250659891072
 51
216.8320803032256
 73
     0
 72
     2
 10
55.05483322636033
 20
20.09312672813643
 40
14.89875516665056
 50
323.1679196967537
 51
324.0729534105684
 73
     1
 72
     2
 10
58.26159642546532
 20
17.4208240622105
 40
10.73775821432197
 50
325.5797402083253
 51
351.5603004662474
 73
     1
 72
     2
 10
67.86199699820314
 20
15.99636250011802
 40
1.032255553516409
 50
351.5603004662488
 51
449.9999999999984
 73
     1
 72
     1
 10
67.86199699820318
 20
17.02861805363453
 11
61.18385057535775
 21
17.02861805363453
 72
     2
 10
61.18385057535775
 20
16.25442638849722
 40
0.7741916651373231
 50
90.0
 51
270.0
 73
     1
 72
     1
 10
61.18385057535775
 20
15.48023472336001
 11
66.91805298041554
 21
15.48023472336001
 72
     2
 10
66.9180529804155
 20
15.22217083498093
 40
0.2580638883790698
 50
270.0000000000125
 51
374.25120207631
 73
     0
 72
     2
 10
58.26159642546553
 20
17.42082406221061
 40
9.189374884047275
 50
14.251202076293
 51
34.2947656351737
 73
     0
 72
     2
 10
55.05483322635427
 20
20.09312672813598
 40
13.35037183638063
 50
36.0154362736242
 51
68.84797155758054
 73
     0
 72
     2
 10
60.15159502184154
 20
6.920188054154777
 40
0.7741916651371782
 50
111.1520284424188
 51
289.4628757959033
 73
     1
 97
        1
330
3183291A
 75
     0
 76
     1
 52
315.0
 41
8.0
 77
     0
 78
     1
 53
0.0
 43
-98.32492648123301
 44
-613.4018424696987
 45
0.0000000000000003
 46
1.0
 79
     0
 98
        1
 10
-98.32492648123301
 20
-613.4018424696987
  0
LWPOLYLINE
  5
31832913
102
{ACAD_REACTORS
330
31832912
102
}
330
31832911
100
AcDbEntity
  8
SAISEN
100
AcDbPolyline
 90
        8
 70
     1
 43
0.0
 10
8.222781319515718
 20
15.66634978856245
 10
8.222781319515718
 20
6.644606671220003
 42
-1.0
 10
6.492584009340419
 20
6.644606671220003
 10
6.492584009340419
 20
12.30373666794468
 42
0.6866165717616584
 10
6.331125504589095
 20
12.36588207539887
 42
-0.9560347805192888
 10
4.997953079957908
 20
13.46596873844815
 42
0.1183853437574497
 10
7.389179579530605
 20
18.97858428347398
 42
-1.0
 10
9.093369491576908
 20
18.67972064263232
 42
-0.053874857749413
  0
LWPOLYLINE
  5
31832914
102
{ACAD_REACTORS
330
31832912
102
}
330
31832911
100
AcDbEntity
  8
SAISEN
100
AcDbPolyline
 90
       35
 70
     1
 43
0.0
 10
15.60796782050991
 20
15.66634978856245
 10
18.63581311331674
 20
15.66634978856245
 42
1.0
 10
18.63581311331674
 20
17.52013262089326
 10
15.40505502803972
 20
17.52013262089326
 42
-0.5029716470336553
 10
15.28674694021165
 20
17.67944736975198
 42
0.2011148424014987
 10
15.21260343968703
 20
18.39226134093882
 10
14.22030952330374
 20
19.64146761818426
 42
1.0
 10
12.76874893787344
 20
18.48843567748645
 10
13.25925994684078
 20
17.87092767774639
 42
-0.6276728463992863
 10
13.08991121187415
 20
17.52013262089326
 10
10.2937903678289
 20
17.52013262089326
 42
1.0
 10
10.2937903678289
 20
15.66634978856245
 10
13.32163566063556
 20
15.66634978856245
 42
-0.4142135623730951
 10
13.53791032440747
 20
15.45007512479048
 10
13.53791032440747
 20
13.3491212481491
 42
-0.4142135623730945
 10
13.32163566063556
 20
13.13284658437714
 10
10.448272270523
 20
13.13284658437714
 42
1.0
 10
10.448272270523
 20
11.27906375204644
 10
13.32163566063556
 20
11.27906375204644
 42
-0.4142135623730957
 10
13.53791032440747
 20
11.06278908827471
 10
13.53791032440747
 20
8.343907600856367
 42
-0.4142135623730957
 10
13.32163566063556
 20
8.127632937084397
 10
10.01572294297931
 20
8.127632937084397
 42
1.0
 10
10.01572294297931
 20
6.273850104753933
 10
18.91388053816626
 20
6.273850104753933
 42
1.0
 10
18.91388053816626
 20
8.127632937084397
 10
15.60796782050991
 20
8.127632937084397
 42
-0.4142135623730957
 10
15.39169315673805
 20
8.343907600856367
 10
15.39169315673805
 20
11.06278908827471
 42
-0.4142135623730955
 10
15.60796782050991
 20
11.27906375204644
 10
18.48133121062257
 20
11.27906375204644
 42
1.0
 10
18.48133121062257
 20
13.13284658437714
 10
15.60796782050991
 20
13.13284658437714
 42
-0.4142135623730945
 10
15.39169315673805
 20
13.3491212481491
 10
15.39169315673805
 20
15.45007512479048
 42
-0.4142135623731011
  0
CIRCLE
  5
31832915
102
{ACAD_REACTORS
330
31832912
102
}
330
31832911
100
AcDbEntity
  8
SAISEN
 62
     4
100
AcDbCircle
 10
12.53184591639649
 20
12.53173547622668
 30
0.0
 40
11.27848101265822
  0
CIRCLE
  5
31832916
102
{ACAD_REACTORS
330
31832912
102
}
330
31832911
100
AcDbEntity
  8
SAISEN
 62
     4
100
AcDbCircle
 10
12.53184591639649
 20
12.53173547622668
 30
0.0
 40
12.53164556962024
  0
LWPOLYLINE
  5
31832917
102
{ACAD_REACTORS
330
31832912
102
}
330
31832911
100
AcDbEntity
  8
SAISEN
100
AcDbPolyline
 90
       22
 70
     1
 43
0.0
 10
34.38949077184847
 20
11.35121250929467
 10
38.66044812452232
 20
11.35121250929467
 42
-0.4142135623730949
 10
38.84109284638759
 20
11.17056778742925
 10
38.84109284638759
 20
6.706062518471298
 42
1.0
 10
40.38947617666211
 20
6.706062518471298
 10
40.38947617666211
 20
11.17056778742925
 42
-0.4142135623730949
 10
40.57012089852756
 20
11.35121250929467
 10
44.84107825120124
 20
11.35121250929467
 42
1.0
 10
44.84107825120124
 20
12.89959583956919
 10
40.57012089852756
 20
12.89959583956919
 42
-0.4142135623730951
 10
40.38947617666211
 20
13.08024056143449
 10
40.38947617666211
 20
15.24328348818857
 42
-0.3832517545221522
 10
40.55085485859811
 20
15.42289789530355
 42
0.0118347698368547
 10
44.12127204503838
 20
15.89158481540619
 42
0.9999999999999992
 10
43.8834691829002
 20
17.42159812784199
 42
-0.0292873215554025
 10
35.19950117824484
 20
16.58857664706954
 42
1.0
 10
35.25689563991604
 20
15.04125741263806
 42
0.0111567498169039
 10
38.64570568613018
 20
15.24275041039436
 42
-0.4383507954394755
 10
38.84109284638759
 20
15.06270825964054
 10
38.84109284638759
 20
13.08024056143449
 42
-0.4142135623730949
 10
38.66044812452232
 20
12.89959583956919
 10
34.38949077184847
 20
12.89959583956919
 42
1.0
  0
LWPOLYLINE
  5
31832918
102
{ACAD_REACTORS
330
31832912
102
}
330
31832911
100
AcDbEntity
  8
SAISEN
100
AcDbPolyline
 90
       35
 70
     1
 43
0.0
 10
55.31314882472159
 20
14.18991528146455
 10
57.8421749308367
 20
14.18991528146455
 42
1.0
 10
57.8421749308367
 20
15.73829861173918
 10
55.14366468673049
 20
15.73829861173918
 42
-0.5029716470336553
 10
55.04484714034112
 20
15.87136721993727
 42
0.2011148424014987
 10
54.98291833279239
 20
16.46674940350453
 10
54.15409883351535
 20
17.51015650709132
 42
1.0
 10
52.94167406931682
 20
16.54707960017776
 10
53.35137635825552
 20
16.03130230607769
 42
-0.6276728463992863
 10
53.20992680243256
 20
15.73829861173918
 10
50.87444994460151
 20
15.73829861173918
 42
1.0
 10
50.87444994460151
 20
14.18991528146455
 10
53.40347605071648
 20
14.18991528146455
 42
-0.4142135623730951
 10
53.58412077258183
 20
14.00927055959914
 10
53.58412077258183
 20
12.25443611862147
 42
-0.4142135623730945
 10
53.40347605071648
 20
12.07379139675606
 10
51.00348188879095
 20
12.07379139675606
 42
1.0
 10
51.00348188879095
 20
10.52540806648152
 10
53.40347605071648
 20
10.52540806648152
 42
-0.4142135623730957
 10
53.58412077258183
 20
10.34476334461624
 10
53.58412077258183
 20
8.073801126880312
 42
-0.4142135623730957
 10
53.40347605071648
 20
7.893156405014906
 10
50.64219244506034
 20
7.893156405014906
 42
1.0
 10
50.64219244506034
 20
6.344773074740487
 10
58.07443243037782
 20
6.344773074740487
 42
1.0
 10
58.07443243037782
 20
7.893156405014906
 10
55.31314882472159
 20
7.893156405014906
 42
-0.4142135623730957
 10
55.13250410285627
 20
8.073801126880312
 10
55.13250410285627
 20
10.34476334461624
 42
-0.4142135623730955
 10
55.31314882472159
 20
10.52540806648152
 10
57.71314298664719
 20
10.52540806648152
 42
1.0
 10
57.71314298664719
 20
12.07379139675606
 10
55.31314882472159
 20
12.07379139675606
 42
-0.4142135623730945
 10
55.13250410285627
 20
12.25443611862147
 10
55.13250410285627
 20
14.00927055959914
 42
-0.4142135623731011
  0
LWPOLYLINE
  5
31832919
102
{ACAD_REACTORS
330
31832912
102
}
330
31832911
100
AcDbEntity
  8
SAISEN
100
AcDbPolyline
 90
        8
 70
     1
 43
0.0
 10
49.14462710271869
 20
14.18991528146455
 10
49.14462710271869
 20
6.654449740795371
 42
-1.0
 10
47.69946932779581
 20
6.654449740795371
 10
47.69946932779581
 20
11.38127232106943
 42
0.6866165717616584
 10
47.56461013451388
 20
11.43317964876552
 42
-0.9560347805192888
 10
46.4510697981384
 20
12.35203369208477
 42
0.1183853437574497
 10
48.44835620422407
 20
16.95647918983421
 42
-1.0
 10
49.87179114245625
 20
16.70685152502164
 42
-0.053874857749413
  0
LWPOLYLINE
  5
3183291A
102
{ACAD_REACTORS
330
31832912
102
}
330
31832911
100
AcDbEntity
  8
SAISEN
100
AcDbPolyline
 90
       17
 70
     0
 43
0.0
 10
60.40965891022064
 20
6.189934741712932
 42
0.1063712114884995
 10
65.65425573294266
 20
9.622923862729637
 42
-0.405938226823953
 10
66.01393184522368
 20
9.630226651914084
 10
69.47687163860786
 20
6.398149511421933
 42
1.0
 10
70.53336184340739
 20
7.530103302278687
 10
67.01020656605185
 20
10.81838156114372
 42
-0.3828982093648742
 10
66.97973500207502
 20
11.16174256019508
 42
0.0039489750640175
 10
67.11932000807671
 20
11.35121250929467
 42
0.1138496861554026
 10
68.8830741287274
 20
15.84485995464159
 42
0.45804529415744
 10
67.86199699820318
 20
17.02861805363453
 10
61.18385057535775
 20
17.02861805363453
 42
1.0
 10
61.18385057535775
 20
15.48023472336001
 10
66.91805298041554
 20
15.48023472336001
 42
-0.4890901285612313
 10
67.16817514492621
 20
15.15864231142018
 42
-0.0876802035349815
 10
65.8533964003146
 20
12.243065483304
 42
-0.1442471141632833
 10
59.87223272502919
 20
7.642219522643244
 42
0.9853669476710768
 10
60.40955259909452
 20
6.190235574396182
  0
LWPOLYLINE
  5
3183291B
102
{ACAD_REACTORS
330
31832912
102
}
330
31832911
100
AcDbEntity
  8
SAISEN
100
AcDbPolyline
 90
       15
 70
     1
 43
0.0
 10
79.05464238784603
 20
15.46355741542981
 10
70.69799378521181
 20
15.38434747606844
 42
-1.0
 10
70.68331782523518
 20
16.9326612535923
 10
79.56326758088053
 20
17.01683139345617
 42
-2.831910569060238
 10
80.8806026271667
 20
16.0731229067818
 42
-0.0208206875585603
 10
80.88417939619722
 20
15.98726554766743
 10
80.88417939619722
 20
15.48089899844717
 42
-0.0668647846844765
 10
80.1248574754255
 20
11.37669725933027
 42
-0.0333533933995328
 10
80.04771536670167
 20
11.18531364982231
 42
-0.0927123145957803
 10
78.17450856821685
 20
8.641541681314379
 42
-0.1458956791762012
 10
72.34203652436716
 20
6.014632766572048
 42
-1.0
 10
72.13604174662866
 20
7.549252292388246
 42
0.145102294197791
 10
77.13907870201977
 20
9.793244264628242
 42
0.091665638147642
 10
78.65336846619381
 20
11.85858005958584
 42
0.0602525101072688
 10
79.31441215095077
 20
15.18597442553937
 42
0.4394037110369716
  0
LWPOLYLINE
  5
3183291C
102
{ACAD_REACTORS
330
31832912
102
}
330
31832911
100
AcDbEntity
  8
SAISEN
100
AcDbPolyline
 90
        4
 70
     1
 43
0.0
 10
82.78306681669889
 20
17.02861805363453
 42
-1.0
 10
84.33145014697339
 20
17.02861805363453
 10
84.33145014697339
 20
11.35121250929467
 42
-1.0
 10
82.78306681669889
 20
11.35121250929467
  0
LWPOLYLINE
  5
3183291D
102
{ACAD_REACTORS
330
31832912
102
}
330
31832911
100
AcDbEntity
  8
SAISEN
100
AcDbPolyline
 90
        8
 70
     1
 43
0.0
 10
92.95078401883479
 20
17.02861805363453
 10
92.95078401883479
 20
11.69409862948054
 42
-0.2490165112722773
 10
90.24247530538112
 20
7.466516949773562
 42
-0.1273412802796108
 10
85.67348485379927
 20
5.951549999020471
 42
-1.000000000000005
 10
85.57005432393836
 20
7.496474936667596
 42
0.1288820830114853
 10
89.44332585705231
 20
8.793805672564531
 42
0.2481156621714279
 10
91.40240068856028
 20
11.76274558120927
 10
91.40240068856028
 20
17.02861805363453
 42
-1.0
  0
LWPOLYLINE
  5
3183291E
102
{ACAD_REACTORS
330
31832912
102
}
330
31832911
100
AcDbEntity
  8
SAISEN
100
AcDbPolyline
 90
        4
 70
     1
 43
0.0
 10
95.03246892113841
 20
17.08522129887761
 42
-0.0235585019510392
 10
98.10978505925232
 20
15.65165185205227
 42
-1.000000000000001
 10
97.39056764104358
 20
14.28044171395629
 42
0.0235585019510392
 10
94.44544098611507
 20
15.65243061598857
 42
-0.99999999999999
  0
LWPOLYLINE
  5
3183291F
102
{ACAD_REACTORS
330
31832912
102
}
330
31832911
100
AcDbEntity
  8
SAISEN
100
AcDbPolyline
 90
        4
 70
     1
 43
0.0
 10
94.29177774556412
 20
6.481607061860245
 42
-1.0
 10
94.17523606998779
 20
8.025598310321925
 42
0.3208737530023473
 10
103.0114734174199
 20
15.41297217968565
 42
-0.9999999999999952
 10
104.5103802154629
 20
15.02468189104466
 42
-0.3208737530023471
  0
CIRCLE
  5
31832920
102
{ACAD_REACTORS
330
31832912
102
}
330
31832911
100
AcDbEntity
  8
SAISEN
100
AcDbCircle
 10
80.80674938311513
 20
17.36132706780438
 30
0.0
 40
0.3870958325686231
  0
LWPOLYLINE
  5
31832921
102
{ACAD_REACTORS
330
31832912
102
}
330
31832911
100
AcDbEntity
  8
SAISEN
100
AcDbPolyline
 90
       14
 70
     1
 43
0.0
 10
112.1358677286515
 20
10.06378895923011
 42
-0.1525099745054455
 10
107.3205515475075
 20
7.479459566351464
 42
1.000000000000009
 10
107.6127935485128
 20
5.958905210098349
 42
0.1527087266791696
 10
113.2473036477015
 20
8.985707133702021
 42
0.1741491623156161
 10
116.2249216431421
 20
15.64047806109351
 42
0.4366181916758971
 10
114.9383154866183
 20
17.02861805363453
 10
109.1868629750238
 20
17.02861805363453
 42
0.2814124278005228
 10
108.2681900372697
 20
16.46709762861758
 42
-0.1568400336058553
 10
105.8222984239997
 20
14.01764035394136
 42
1.000000000000001
 10
106.5304077882295
 20
12.64066102738559
 42
0.1354825693697109
 10
109.3494251842109
 20
15.23702589645028
 42
-0.2589752263221756
 10
109.7874926775894
 20
15.48023472336001
 10
114.0625114158136
 20
15.48023472336001
 42
-0.4655939616553161
 10
114.5710068721235
 20
14.87567475306627
 42
-0.149244744637674
  0
LWPOLYLINE
  5
31832922
102
{ACAD_REACTORS
330
31832912
102
}
330
31832911
100
AcDbEntity
  8
SAISEN
100
AcDbPolyline
 90
       11
 70
     1
 43
0.0
 10
128.4143824478012
 20
12.89959583956919
 42
-0.3106637293672825
 10
124.0272963453567
 20
6.964126406850254
 42
-0.0757975034211305
 10
119.6581872455056
 20
6.193756217536815
 42
-1.0
 10
119.6222332403192
 20
7.741722059208766
 42
0.0757047635176025
 10
123.5270588277538
 20
8.429486338302695
 42
0.2739170351993261
 10
126.7993978055361
 20
12.2885538580856
 42
0.4645004032667825
 10
126.5449927016156
 20
12.58991917351419
 10
117.8337630242588
 20
12.58991917351419
 42
-1.0
 10
117.8337630242588
 20
14.13830250378873
 10
127.3821268942848
 20
14.13830250378873
 42
-0.4142135623731019
 10
128.4143824478012
 20
13.10604695027244
  0
LWPOLYLINE
  5
31832923
102
{ACAD_REACTORS
330
31832912
102
}
330
31832911
100
AcDbEntity
  8
SAISEN
100
AcDbPolyline
 90
        4
 70
     1
 43
0.0
 10
126.6079352291477
 20
17.13184360898606
 10
118.8660185777753
 20
17.13184360898606
 42
1.0
 10
118.8660185777753
 20
15.58346027871151
 10
126.6079352291477
 20
15.58346027871151
 42
1.0
  0
LWPOLYLINE
  5
31832924
102
{ACAD_REACTORS
330
31832912
102
}
330
31832911
100
AcDbEntity
  8
SAISEN
100
AcDbPolyline
 90
        4
 70
     1
 43
0.0
 10
130.0909438612428
 20
12.64153195119013
 42
1.0
 10
130.0909438612428
 20
11.0931486209156
 10
140.4134993964062
 20
11.0931486209156
 42
1.0
 10
140.4134993964062
 20
12.64153195119013
  0
LWPOLYLINE
  5
31832925
102
{ACAD_REACTORS
330
31832912
102
}
330
31832911
100
AcDbEntity
  8
SAISEN
100
AcDbPolyline
 90
       53
 70
     1
 43
0.0
 10
152.8798394818684
 20
12.07379139675606
 10
150.479845319943
 20
12.07379139675606
 42
0.0743494977705335
 10
153.7488099391294
 20
7.713629920376547
 42
-1.0
 10
152.7334479120689
 20
6.685271544894816
 42
-0.0438873845599916
 10
150.479845319943
 20
9.339016273145032
 10
150.479845319943
 20
6.654449740795371
 42
-1.0
 10
149.0346875450201
 20
6.654449740795371
 10
149.0346875450201
 20
9.339016273145032
 42
-0.044425566432872
 10
146.7506733614178
 20
6.655308745365347
 42
-1.0
 10
145.7375231435083
 20
7.685846289741674
 42
0.074889623148952
 10
149.0346875450201
 20
12.07379139675606
 10
146.9959828268254
 20
12.07379139675606
 42
-1.0
 10
146.9959828268254
 20
13.51894917167896
 10
149.0346875450201
 20
13.51894917167896
 10
149.0346875450201
 20
14.65443028054687
 10
147.4863042147457
 20
14.6544302805471
 42
-0.0152523455626472
 10
147.2423144943136
 20
14.16014413924165
 42
-0.6902403826681676
 10
145.9018771789566
 20
14.33065862584419
 42
-0.1600327065525932
 10
145.473405885389
 20
14.18991528146455
 10
145.0250286060185
 20
14.18991528146455
 42
0.5443354633598011
 10
144.9544374637401
 20
14.08070589671456
 42
0.0425297040123326
 10
146.5370695739775
 20
11.23899201462289
 42
-1.000000000000001
 10
145.3387721883798
 20
10.43117745045025
 42
-0.0064282713165093
 10
145.0483703964056
 20
10.87413596970793
 42
0.7500568622206073
 10
144.9056653309549
 20
10.83252492858105
 10
144.9056653309549
 20
6.654449740795371
 42
-1.0
 10
143.4605075560321
 20
6.654449740795371
 10
143.4605075560321
 20
9.857709281921303
 42
0.8118892076050451
 10
143.3122033942548
 20
9.888838766179331
 42
-0.0510400568211836
 10
142.9925745551751
 20
9.270178312099233
 42
-1.038853738921952
 10
141.7912602237309
 20
10.07161033933208
 42
0.0807299223725665
 10
143.4388927059173
 20
14.0950296882072
 42
0.4825507232976211
 10
143.363469557743
 20
14.18991528146455
 10
142.5314775578673
 20
14.18991528146455
 42
-1.0
 10
142.5314775578673
 20
15.63507305638744
 10
143.4605075560321
 20
15.63507305638744
 10
143.4605075560321
 20
17.08023083131013
 42
-1.0
 10
144.9056653309549
 20
17.08023083131013
 10
144.9056653309549
 20
15.63507305638744
 10
145.473405885389
 20
15.63507305638744
 42
-0.3035254725439783
 10
146.1411626683284
 20
15.18857590943627
 42
0.0615665677052705
 10
146.7174921852364
 20
16.95977226020851
 42
-1.0
 10
148.1362029031234
 20
16.68456162565382
 42
-0.0166046853614768
 10
148.0024319915038
 20
16.09958805546978
 10
149.0346875450201
 20
16.09958805546978
 10
149.0346875450201
 20
17.08023083131013
 42
-1.0
 10
150.479845319943
 20
17.08023083131013
 10
150.479845319943
 20
16.09958805546978
 10
152.7250011488409
 20
16.09958805546978
 42
-1.0
 10
152.7250011488409
 20
14.65443028054687
 10
150.479845319943
 20
14.65443028054687
 10
150.479845319943
 20
13.51894917167896
 10
152.8798394818684
 20
13.51894917167896
 42
-1.0
  0
LWPOLYLINE
  5
31832926
102
{ACAD_REACTORS
330
31832912
102
}
330
31832911
100
AcDbEntity
  8
SAISEN
100
AcDbPolyline
 90
       35
 70
     1
 43
0.0
 10
163.998107400596
 20
16.11757540354972
 42
0.7994078749809069
 10
164.0189984541473
 20
16.21607583560194
 42
-0.0438731735806829
 10
163.2982545130618
 20
16.62752305613662
 42
-1.0
 10
164.0336360228388
 20
17.68777693951141
 42
0.0837739739835673
 10
165.0720288216169
 20
17.19986863725988
 42
-0.5119692040613775
 10
165.4332883776492
 20
16.21735719822493
 42
0.6055107519491783
 10
165.4767332624651
 20
16.13686182783476
 10
165.6369297115398
 20
16.13895134673578
 42
-1.0
 10
165.6571242980449
 20
14.5906997146851
 10
163.0016017909706
 20
14.55606246459274
 42
0.4458536162710301
 10
162.7487548114919
 20
14.26716602299654
 42
0.0279921944070669
 10
163.4177448573589
 20
10.50143859369176
 42
0.0606728607395486
 10
164.5183020754211
 20
8.326050654543108
 42
0.6592200259122605
 10
164.7980833743386
 20
8.378242886440487
 42
0.030470320942106
 10
165.0276736726826
 20
9.802829179020136
 42
-1.0
 10
166.576057002957
 20
9.802829179020136
 10
166.576057002957
 20
9.214344928184344
 42
-0.0466637896147516
 10
166.2490915466926
 20
7.515588465641258
 42
-0.0168888916150345
 10
166.1848390159866
 20
7.328612673947872
 42
-0.1128117704920973
 10
165.6418463162355
 20
6.446211720481526
 42
-0.3024975898513547
 10
164.7696097843035
 20
6.199101373178563
 42
-0.0769260479074295
 10
163.8283245025865
 20
6.578425547309392
 42
-0.1182289009929937
 10
163.3108805166244
 20
7.082178580358344
 42
-0.0622972667805791
 10
161.993869630047
 20
9.886920466845595
 42
-0.0039769140334449
 10
161.9309070121337
 20
10.06089306739932
 42
-0.0301411173838843
 10
161.1858830651767
 20
14.30022779326838
 42
0.3850296683360234
 10
160.92611971116
 20
14.52899095920394
 10
155.489407095909
 20
14.45807731639627
 42
-1.0
 10
155.469212509404
 20
16.00632894844705
 10
160.7532181581581
 20
16.07525076125682
 42
0.4323918708266769
 10
161.0071964887775
 20
16.35255372884784
 10
160.9609209649413
 20
16.97083496688696
 42
-1.0
 10
162.5049855351634
 20
17.08640114038223
 10
162.5607747244498
 20
16.34100905917795
 42
0.3962659525886108
 10
162.8214845839043
 20
16.10222814941892
  0
LWPOLYLINE
  5
31832927
102
{ACAD_REACTORS
330
31832912
102
}
330
31832911
100
AcDbEntity
  8
SAISEN
100
AcDbPolyline
 90
       18
 70
     1
 43
0.0
 10
155.6356331864811
 20
6.536026163344103
 10
160.5625980575068
 20
7.536561438971716
 42
0.9150617575178047
 10
160.0408205036176
 20
8.982457875899967
 10
159.4548709952234
 20
8.828039731316835
 42
-0.4918646192181379
 10
158.8342018107558
 20
9.306332102318831
 10
158.8342018107557
 20
11.45844232867853
 42
-0.4103985717549125
 10
159.3223732150155
 20
11.95302271113915
 10
160.0564647673354
 20
11.96259781834328
 42
1.0
 10
160.0376164865974
 20
13.40763267492399
 10
155.4427199411991
 20
13.34769924172314
 42
0.8496409365451205
 10
155.2250688786465
 20
11.89957961109973
 10
156.7847449792878
 20
11.9199232124123
 42
-0.4180388721689203
 10
157.2858184804811
 20
11.42534282995166
 10
157.2858184804811
 20
8.771374903724789
 42
-0.3712644620077222
 10
156.8645390642755
 20
8.282220357865071
 10
155.3676587240904
 20
8.057780555788554
 42
0.3712644620077241
 10
154.7104628348096
 20
7.294699464247628
 10
154.7104628348096
 20
7.292202802373026
 42
0.4741888709078976
  0
LWPOLYLINE
  5
31832928
102
{ACAD_REACTORS
330
31832912
102
}
330
31832911
100
AcDbEntity
  8
SAISEN
100
AcDbPolyline
 90
       12
 70
     1
 43
0.0
 10
167.645758992686
 20
14.6405288400806
 42
0.0714953966147462
 10
172.6261821871519
 20
17.63499440553061
 42
-0.3486477685382974
 10
173.5888461040598
 20
17.63499440553061
 42
0.0714953966147458
 10
178.569269298526
 20
14.64052884008071
 42
-0.9375247296223454
 10
178.0625493735642
 20
13.18081121104796
 42
-0.0177045635089767
 10
176.6655624567038
 20
13.84835262653905
 42
0.5448562439575067
 10
176.5901445038396
 20
13.8055110510669
 42
-0.3977817593624567
 10
175.8171849735863
 20
13.07498056958888
 10
170.3978433176255
 20
13.07498056958888
 42
-0.3977817593624539
 10
169.6248837873723
 20
13.8055110510669
 42
0.544856243957455
 10
169.5494658345082
 20
13.84835262653905
 42
-0.0177045635089769
 10
168.1524789176479
 20
13.18081121104796
 42
-0.9375247296222683
  0
LWPOLYLINE
  5
31832929
102
{ACAD_REACTORS
330
31832912
102
}
330
31832911
100
AcDbEntity
  8
SAISEN
100
AcDbPolyline
 90
       22
 70
     1
 43
0.0
 10
178.8961269185461
 20
7.158432004516156
 42
-1.0
 10
177.6395687902238
 20
6.253693032426098
 42
0.021927783063709
 10
177.0575329110826
 20
6.991558574096416
 42
0.2350649554663871
 10
176.9303152697099
 20
7.044943924458833
 10
168.7702722661701
 20
6.518489537133633
 42
-1.0
 10
168.670583820153
 20
8.063660450399423
 10
169.6569183595565
 20
8.127294936812518
 42
0.2847578740297872
 10
169.7897627484369
 20
8.221984862761472
 10
170.6950117116733
 20
10.3829017427447
 42
0.5358006090657584
 10
170.5521984781911
 20
10.59756724114969
 10
168.2043002664034
 20
10.59756724114969
 42
-1.0
 10
168.2043002664034
 20
12.14595057142412
 10
178.0107280248085
 20
12.14595057142412
 42
-1.0
 10
178.0107280248085
 20
10.59756724114969
 10
172.5491503887562
 20
10.59756724114969
 42
0.3105051435850527
 10
172.4045969813384
 20
10.49821964409318
 10
171.6277065733801
 20
8.47441956835803
 42
0.5468718829383487
 10
171.7822288254
 20
8.264411741060371
 10
175.318271811925
 20
8.492543546642764
 42
0.6976989533440406
 10
175.345790237534
 20
8.585433884392159
 42
0.0029535551001564
 10
175.2437973946274
 20
8.660509755324369
 42
-1.000000000000001
 10
176.1543066052857
 20
9.912893049199622
 42
-0.0797012575166524
  0
LWPOLYLINE
  5
3183292A
102
{ACAD_REACTORS
330
31832912
102
}
330
31832911
100
AcDbEntity
  8
SAISEN
100
AcDbPolyline
 90
        6
 70
     1
 43
0.0
 10
173.0753057758618
 20
16.14597510288194
 10
171.0654774773096
 20
14.71867502046778
 10
171.0929426123852
 20
14.62336389986329
 10
175.1220856788268
 20
14.62336389986329
 10
175.149550813902
 20
14.71867502046778
 10
173.13972251535
 20
16.14597510288194
  0
LWPOLYLINE
  5
3183292B
102
{ACAD_REACTORS
330
31832912
102
}
330
31832911
100
AcDbEntity
  8
SAISEN
100
AcDbPolyline
 90
       46
 70
     1
 43
0.0
 10
181.9615462836665
 20
17.02861805363453
 42
-1.0
 10
183.5099296139409
 20
17.02861805363453
 10
183.5099296139409
 20
15.81571777825273
 42
0.414213562373093
 10
183.6647679469685
 20
15.6608794452253
 10
185.0370608260554
 20
15.6608794452253
 42
-0.4122746911688611
 10
185.5531772788161
 20
15.14817060557185
 42
-0.2168776885244659
 10
186.1369942461683
 20
15.41390334119773
 10
187.200243217762
 20
15.41390334119773
 42
0.4142135623730951
 10
187.3550815507894
 20
15.56874167422518
 10
187.3550815507894
 20
17.02861805363453
 42
-1.0
 10
188.9034648810636
 20
17.02861805363453
 10
188.9034648810636
 20
15.56874167422518
 42
0.4142135623730957
 10
189.058303214091
 20
15.41390334119773
 10
190.6066865443657
 20
15.41390334119773
 42
-1.0
 10
190.6066865443657
 20
13.86552001092332
 10
189.058303214091
 20
13.86552001092332
 42
0.4142135623730942
 10
188.9034648810636
 20
13.71068167789576
 10
188.9034648810636
 20
8.04799473804246
 42
0.4142135623730955
 10
189.058303214091
 20
7.893156405014906
 10
190.8647504327448
 20
7.893156405014906
 42
-1.0
 10
190.8647504327448
 20
6.344773074740487
 10
185.0325065553775
 20
6.344773074740487
 42
-1.0
 10
185.0325065553775
 20
7.893156405014906
 10
187.200243217762
 20
7.893156405014906
 42
0.4142135623730966
 10
187.3550815507894
 20
8.04799473804246
 10
187.3550815507894
 20
13.71068167789576
 42
0.4142135623730942
 10
187.200243217762
 20
13.86552001092332
 10
186.1369942461683
 20
13.86552001092332
 42
-0.4078750109712648
 10
185.362984678145
 20
14.622921113934
 42
-0.0460346531742509
 10
184.1612863600951
 20
12.62860642093267
 10
186.2917543603782
 20
11.05878789440817
 42
-0.9999999999999984
 10
185.3732548583271
 20
9.81225285591006
 10
183.7566178971735
 20
11.00345903781271
 42
0.6151099889490489
 10
183.5099296139409
 20
10.8788055339628
 10
183.5099296139409
 20
6.706062518471298
 42
-1.0
 10
181.9615462836665
 20
6.706062518471298
 10
181.9615462836665
 20
9.996005253723863
 42
0.6233400877170312
 10
181.7119180222989
 20
10.11843800612256
 42
-0.0212493152492001
 10
180.8334402942136
 20
9.496138594815873
 42
-0.9999999999999998
 10
179.9928856125701
 20
10.79650729816091
 42
0.0999246241034749
 10
183.1438052854704
 20
13.8704107925032
 42
0.6026211128375225
 10
183.0158878425166
 20
14.11249611495088
 10
180.6712268417711
 20
14.11249611495088
 42
-1.0
 10
180.6712268417711
 20
15.6608794452253
 10
181.806707950639
 20
15.6608794452253
 42
0.4142135623730943
 10
181.9615462836665
 20
15.81571777825273
  0
ENDBLK
  5
3183292D
330
31832911
100
AcDbEntity
  8
0
100
AcDbBlockEnd
  0
ENDSEC
  0
SECTION
  2
ENTITIES
  0
LWPOLYLINE
  5
3183276C
330
318324AF
100
AcDbEntity
  8
WAKU
100
AcDbPolyline
 90
        4
 70
     1
 43
0.0
 10
0.0
 20
0.0
 10
542.9999978399998
 20
0.0
 10
542.9999978399998
 20
818.9999999999995
 10
0.0
 20
818.9999999999995
  0
INSERT
  5
31832B2F
330
318324AF
100
AcDbEntity
  8
JISSEN
100
AcDbBlockReference
  2
A$C6C331840
 10
99.90578548635518
 20
594.5592446366114
 30
0.0
  0
ARC
  5
31832B41
330
318324AF
100
AcDbEntity
  8
SAISEN
100
AcDbCircle
 10
294.5684680749831
 20
450.6952340385759
 30
0.0
 40
1.840933641609659
100
AcDbArc
 50
202.565048168418
 51
337.4349518315394
  0
ARC
  5
31832B42
330
318324AF
100
AcDbEntity
  8
0
100
AcDbCircle
 10
295.5184680749828
 20
448.3212003128738
 30
0.0
 40
1.8
100
AcDbArc
 50
4.434705694905222
 51
50.70335010366171
  0
ARC
  5
31832B43
330
318324AF
100
AcDbEntity
  8
0
100
AcDbCircle
 10
293.6184680749828
 20
448.3212003128738
 30
0.0
 40
1.8
100
AcDbArc
 50
129.2964802390762
 51
175.5652943050946
  0
ARC
  5
31832B44
330
318324AF
100
AcDbEntity
  8
0
100
AcDbCircle
 10
294.5684680749827
 20
447.1603816362448
 30
0.0
 40
3.300000000000011
100
AcDbArc
 50
50.70342722060154
 51
129.2964802390762
  0
LINE
  5
31832B45
330
318324AF
100
AcDbEntity
  8
0
100
AcDbLine
 10
297.313079052108
 20
448.4603816362447
 30
0.0
 11
291.8238570978576
 21
448.4603816362447
 31
0.0
  0
LINE
  5
31832B46
330
318324AF
100
AcDbEntity
  8
0
100
AcDbLine
 10
95.31307905210814
 20
448.4603816362447
 30
0.0
 11
89.82385709785763
 21
448.4603816362447
 31
0.0
  0
ARC
  5
31832B47
330
318324AF
100
AcDbEntity
  8
0
100
AcDbCircle
 10
92.56846807498288
 20
447.1603816362448
 30
0.0
 40
3.300000000000011
100
AcDbArc
 50
50.70342722060154
 51
129.2964802390762
  0
ARC
  5
31832B48
330
318324AF
100
AcDbEntity
  8
0
100
AcDbCircle
 10
91.61846807498294
 20
448.3212003128738
 30
0.0
 40
1.8
100
AcDbArc
 50
129.2964802390762
 51
175.5652943050946
  0
ARC
  5
31832B49
330
318324AF
100
AcDbEntity
  8
0
100
AcDbCircle
 10
93.51846807498279
 20
448.3212003128738
 30
0.0
 40
1.8
100
AcDbArc
 50
4.434705694905222
 51
50.70335010366171
  0
ARC
  5
31832B4A
330
318324AF
100
AcDbEntity
  8
SAISEN
100
AcDbCircle
 10
92.56846807498323
 20
450.6952340385759
 30
0.0
 40
1.840933641609659
100
AcDbArc
 50
202.565048168418
 51
337.4349518315394
  0
TEXT
  5
31832B4B
330
318324AF
100
AcDbEntity
  8
SAISEN
100
AcDbText
 10
357.1918548114539
 20
111.0127348717775
 30
0.0
 40
9.0
  1
塗装色：マンセル　7.5BG 5/4.5
  7
K
 72
     4
 11
447.2775690971682
 21
114.8698777289204
 31
0.0
100
AcDbText
  0
TEXT
  5
31832B4C
330
318324AF
100
AcDbEntity
  8
SAISEN
100
AcDbText
 10
357.0785856866249
 20
125.8698777289203
 30
0.0
 40
9.0
  1
材　質：SPCC
  7
K
 72
     4
 11
395.8214428294821
 21
130.3698777289203
 31
0.0
100
AcDbText
  0
LINE
  5
31832B4D
330
318324AF
100
AcDbEntity
  8
SAISEN
100
AcDbLine
 10
354.2689855706021
 20
106.8698777289202
 30
0.0
 11
539.7289716197429
 21
106.8698777289202
 31
0.0
  0
LINE
  5
31832B4E
330
318324AF
100
AcDbEntity
  8
SAISEN
100
AcDbLine
 10
354.2689855706021
 20
138.8698777289202
 30
0.0
 11
539.7289716197429
 21
138.8698777289202
 31
0.0
  0
LINE
  5
31832BA6
330
318324AF
100
AcDbEntity
  8
JISSEN
100
AcDbLine
 10
365.3588007239644
 20
407.1246014391188
 30
0.0
 11
368.2956682225768
 21
399.055624302751
 31
0.0
  0
ARC
  5
31832BA7
330
318324AF
100
AcDbEntity
  8
SAISEN
100
AcDbCircle
 10
419.9580723393435
 20
587.44355626927
 30
0.0
 40
1.840933641609659
100
AcDbArc
 50
292.565048168416
 51
67.43495183154141
  0
ARC
  5
31832BA8
330
318324AF
100
AcDbEntity
  8
0
100
AcDbCircle
 10
422.3321060650457
 20
588.3935562692697
 30
0.0
 40
1.8
100
AcDbArc
 50
94.43470569490276
 51
140.7033501036629
  0
ARC
  5
31832BA9
330
318324AF
100
AcDbEntity
  8
0
100
AcDbCircle
 10
422.3321060650457
 20
586.4935562692696
 30
0.0
 40
1.8
100
AcDbArc
 50
219.2964802390731
 51
265.5652943050972
  0
ARC
  5
31832BAA
330
318324AF
100
AcDbEntity
  8
0
100
AcDbCircle
 10
423.4929247416746
 20
587.4435562692696
 30
0.0
 40
3.300000000000011
100
AcDbArc
 50
140.7034272206017
 51
219.2964802390731
  0
LINE
  5
31832BAB
330
318324AF
100
AcDbEntity
  8
0
100
AcDbLine
 10
422.1929247416746
 20
590.1881672463948
 30
0.0
 11
422.1929247416746
 21
584.6989452921445
 31
0.0
  0
ARC
  5
31832BAC
330
318324AF
100
AcDbEntity
  8
SAISEN
100
AcDbCircle
 10
419.9580723393435
 20
683.44355626927
 30
0.0
 40
1.840933641609659
100
AcDbArc
 50
292.565048168416
 51
67.43495183154141
  0
ARC
  5
31832BAD
330
318324AF
100
AcDbEntity
  8
0
100
AcDbCircle
 10
422.3321060650457
 20
684.3935562692696
 30
0.0
 40
1.8
100
AcDbArc
 50
94.43470569490276
 51
140.7033501036629
  0
ARC
  5
31832BAE
330
318324AF
100
AcDbEntity
  8
0
100
AcDbCircle
 10
422.3321060650457
 20
682.4935562692696
 30
0.0
 40
1.8
100
AcDbArc
 50
219.2964802390731
 51
265.5652943050972
  0
ARC
  5
31832BAF
330
318324AF
100
AcDbEntity
  8
0
100
AcDbCircle
 10
423.4929247416746
 20
683.4435562692696
 30
0.0
 40
3.300000000000011
100
AcDbArc
 50
140.7034272206017
 51
219.2964802390731
  0
LINE
  5
31832BB0
330
318324AF
100
AcDbEntity
  8
0
100
AcDbLine
 10
422.1929247416746
 20
686.1881672463948
 30
0.0
 11
422.1929247416746
 21
680.6989452921443
 31
0.0
  0
CIRCLE
  5
31832BB1
330
318324AF
100
AcDbEntity
  8
JISSEN
100
AcDbCircle
 10
294.5684680749827
 20
587.4435562692696
 30
0.0
 40
2.744610977126966
  0
ARC
  5
31832BB2
330
318324AF
100
AcDbEntity
  8
SAISEN
100
AcDbCircle
 10
294.5684680749827
 20
587.4435562692696
 30
0.0
 40
1.75
100
AcDbArc
 50
73.39845040097705
 51
106.6015495990229
  0
LINE
  5
31832BB3
330
318324AF
100
AcDbEntity
  8
SAISEN
100
AcDbLine
 10
294.0684680749829
 20
589.1206072523946
 30
0.0
 11
294.0684680749829
 21
587.9435562692697
 31
0.0
  0
LINE
  5
31832BB4
330
318324AF
100
AcDbEntity
  8
SAISEN
100
AcDbLine
 10
294.0684680749829
 20
587.9435562692697
 30
0.0
 11
292.8914170918579
 21
587.9435562692697
 31
0.0
  0
LINE
  5
31832BB5
330
318324AF
100
AcDbEntity
  8
SAISEN
100
AcDbLine
 10
292.8914170918579
 20
586.9435562692697
 30
0.0
 11
294.0684680749829
 21
586.9435562692697
 31
0.0
  0
LINE
  5
31832BB6
330
318324AF
100
AcDbEntity
  8
SAISEN
100
AcDbLine
 10
294.0684680749829
 20
586.9435562692697
 30
0.0
 11
294.0684680749829
 21
585.766505286145
 31
0.0
  0
LINE
  5
31832BB7
330
318324AF
100
AcDbEntity
  8
SAISEN
100
AcDbLine
 10
295.0684680749827
 20
585.7665052861447
 30
0.0
 11
295.0684680749827
 21
586.9435562692697
 31
0.0
  0
LINE
  5
31832BB8
330
318324AF
100
AcDbEntity
  8
SAISEN
100
AcDbLine
 10
295.0684680749827
 20
586.9435562692697
 30
0.0
 11
296.2455190581076
 21
586.9435562692697
 31
0.0
  0
LINE
  5
31832BB9
330
318324AF
100
AcDbEntity
  8
SAISEN
100
AcDbLine
 10
296.2455190581076
 20
587.9435562692697
 30
0.0
 11
295.0684680749827
 21
587.9435562692697
 31
0.0
  0
LINE
  5
31832BBA
330
318324AF
100
AcDbEntity
  8
SAISEN
100
AcDbLine
 10
295.0684680749827
 20
587.9435562692697
 30
0.0
 11
295.0684680749827
 21
589.1206072523946
 31
0.0
  0
ARC
  5
31832BBB
330
318324AF
100
AcDbEntity
  8
SAISEN
100
AcDbCircle
 10
294.5684680749827
 20
587.4435562692696
 30
0.0
 40
1.75
100
AcDbArc
 50
163.3984504009792
 51
196.6015495990206
  0
ARC
  5
31832BBC
330
318324AF
100
AcDbEntity
  8
SAISEN
100
AcDbCircle
 10
294.5684680749827
 20
587.4435562692696
 30
0.0
 40
1.75
100
AcDbArc
 50
253.398450400977
 51
286.6015495990228
  0
ARC
  5
31832BBD
330
318324AF
100
AcDbEntity
  8
SAISEN
100
AcDbCircle
 10
294.5684680749827
 20
587.4435562692696
 30
0.0
 40
1.75
100
AcDbArc
 50
343.3984504009791
 51
16.60154959902075
  0
CIRCLE
  5
31832BBE
330
318324AF
100
AcDbEntity
  8
JISSEN
100
AcDbCircle
 10
92.56846807498288
 20
587.4435562692696
 30
0.0
 40
2.744610977126966
  0
ARC
  5
31832BBF
330
318324AF
100
AcDbEntity
  8
SAISEN
100
AcDbCircle
 10
92.56846807498288
 20
587.4435562692696
 30
0.0
 40
1.75
100
AcDbArc
 50
73.39845040097705
 51
106.6015495990229
  0
LINE
  5
31832BC0
330
318324AF
100
AcDbEntity
  8
SAISEN
100
AcDbLine
 10
92.06846807498287
 20
589.1206072523946
 30
0.0
 11
92.06846807498287
 21
587.9435562692697
 31
0.0
  0
LINE
  5
31832BC1
330
318324AF
100
AcDbEntity
  8
SAISEN
100
AcDbLine
 10
92.06846807498287
 20
587.9435562692697
 30
0.0
 11
90.89141709185801
 21
587.9435562692697
 31
0.0
  0
LINE
  5
31832BC2
330
318324AF
100
AcDbEntity
  8
SAISEN
100
AcDbLine
 10
90.89141709185801
 20
586.9435562692697
 30
0.0
 11
92.06846807498287
 21
586.9435562692697
 31
0.0
  0
LINE
  5
31832BC3
330
318324AF
100
AcDbEntity
  8
SAISEN
100
AcDbLine
 10
92.06846807498287
 20
586.9435562692697
 30
0.0
 11
92.06846807498287
 21
585.766505286145
 31
0.0
  0
LINE
  5
31832BC4
330
318324AF
100
AcDbEntity
  8
SAISEN
100
AcDbLine
 10
93.06846807498287
 20
585.7665052861447
 30
0.0
 11
93.06846807498287
 21
586.9435562692697
 31
0.0
  0
LINE
  5
31832BC5
330
318324AF
100
AcDbEntity
  8
SAISEN
100
AcDbLine
 10
93.06846807498287
 20
586.9435562692697
 30
0.0
 11
94.24551905810778
 21
586.9435562692697
 31
0.0
  0
LINE
  5
31832BC6
330
318324AF
100
AcDbEntity
  8
SAISEN
100
AcDbLine
 10
94.24551905810778
 20
587.9435562692697
 30
0.0
 11
93.06846807498287
 21
587.9435562692697
 31
0.0
  0
LINE
  5
31832BC7
330
318324AF
100
AcDbEntity
  8
SAISEN
100
AcDbLine
 10
93.06846807498287
 20
587.9435562692697
 30
0.0
 11
93.06846807498287
 21
589.1206072523946
 31
0.0
  0
ARC
  5
31832BC8
330
318324AF
100
AcDbEntity
  8
SAISEN
100
AcDbCircle
 10
92.56846807498288
 20
587.4435562692696
 30
0.0
 40
1.75
100
AcDbArc
 50
163.3984504009792
 51
196.6015495990206
  0
ARC
  5
31832BC9
330
318324AF
100
AcDbEntity
  8
SAISEN
100
AcDbCircle
 10
92.56846807498288
 20
587.4435562692696
 30
0.0
 40
1.75
100
AcDbArc
 50
253.398450400977
 51
286.6015495990228
  0
ARC
  5
31832BCA
330
318324AF
100
AcDbEntity
  8
SAISEN
100
AcDbCircle
 10
92.56846807498288
 20
587.4435562692696
 30
0.0
 40
1.75
100
AcDbArc
 50
343.3984504009791
 51
16.60154959902075
  0
CIRCLE
  5
31832BCB
330
318324AF
100
AcDbEntity
  8
JISSEN
100
AcDbCircle
 10
92.56846807498288
 20
683.4435562692696
 30
0.0
 40
2.744610977126966
  0
ARC
  5
31832BCC
330
318324AF
100
AcDbEntity
  8
SAISEN
100
AcDbCircle
 10
92.56846807498288
 20
683.4435562692696
 30
0.0
 40
1.75
100
AcDbArc
 50
73.39845040097705
 51
106.6015495990229
  0
LINE
  5
31832BCD
330
318324AF
100
AcDbEntity
  8
SAISEN
100
AcDbLine
 10
92.06846807498287
 20
685.1206072523946
 30
0.0
 11
92.06846807498287
 21
683.9435562692697
 31
0.0
  0
LINE
  5
31832BCE
330
318324AF
100
AcDbEntity
  8
SAISEN
100
AcDbLine
 10
92.06846807498287
 20
683.9435562692697
 30
0.0
 11
90.89141709185801
 21
683.9435562692697
 31
0.0
  0
LINE
  5
31832BCF
330
318324AF
100
AcDbEntity
  8
SAISEN
100
AcDbLine
 10
90.89141709185801
 20
682.9435562692697
 30
0.0
 11
92.06846807498287
 21
682.9435562692697
 31
0.0
  0
LINE
  5
31832BD0
330
318324AF
100
AcDbEntity
  8
SAISEN
100
AcDbLine
 10
92.06846807498287
 20
682.9435562692697
 30
0.0
 11
92.06846807498287
 21
681.766505286145
 31
0.0
  0
LINE
  5
31832BD1
330
318324AF
100
AcDbEntity
  8
SAISEN
100
AcDbLine
 10
93.06846807498287
 20
681.7665052861447
 30
0.0
 11
93.06846807498287
 21
682.9435562692697
 31
0.0
  0
LINE
  5
31832BD2
330
318324AF
100
AcDbEntity
  8
SAISEN
100
AcDbLine
 10
93.06846807498287
 20
682.9435562692697
 30
0.0
 11
94.24551905810778
 21
682.9435562692697
 31
0.0
  0
LINE
  5
31832BD3
330
318324AF
100
AcDbEntity
  8
SAISEN
100
AcDbLine
 10
94.24551905810778
 20
683.9435562692697
 30
0.0
 11
93.06846807498287
 21
683.9435562692697
 31
0.0
  0
LINE
  5
31832BD4
330
318324AF
100
AcDbEntity
  8
SAISEN
100
AcDbLine
 10
93.06846807498287
 20
683.9435562692697
 30
0.0
 11
93.06846807498287
 21
685.1206072523946
 31
0.0
  0
ARC
  5
31832BD5
330
318324AF
100
AcDbEntity
  8
SAISEN
100
AcDbCircle
 10
92.56846807498288
 20
683.4435562692696
 30
0.0
 40
1.75
100
AcDbArc
 50
163.3984504009792
 51
196.6015495990206
  0
ARC
  5
31832BD6
330
318324AF
100
AcDbEntity
  8
SAISEN
100
AcDbCircle
 10
92.56846807498288
 20
683.4435562692696
 30
0.0
 40
1.75
100
AcDbArc
 50
253.398450400977
 51
286.6015495990228
  0
ARC
  5
31832BD7
330
318324AF
100
AcDbEntity
  8
SAISEN
100
AcDbCircle
 10
92.56846807498288
 20
683.4435562692696
 30
0.0
 40
1.75
100
AcDbArc
 50
343.3984504009791
 51
16.60154959902075
  0
LINE
  5
31832BE5
330
318324AF
100
AcDbEntity
  8
0
100
AcDbLine
 10
25.06846807498289
 20
420.4568777403236
 30
0.0
 11
25.06846807498289
 21
413.4603816362501
 31
0.0
  0
ARC
  5
31832BE6
330
318324AF
100
AcDbEntity
  8
0
100
AcDbCircle
 10
26.66846807498291
 20
416.9568777403236
 30
0.0
 40
4.200000000000017
100
AcDbArc
 50
179.9999999999999
 51
219.1667107161324
  0
ARC
  5
31832BE7
330
318324AF
100
AcDbEntity
  8
0
100
AcDbCircle
 10
25.19537608871781
 20
415.7568777403237
 30
0.0
 40
2.299999999999998
100
AcDbArc
 50
219.1667107161325
 51
266.8369616226736
  0
ARC
  5
31832BE8
330
318324AF
100
AcDbEntity
  8
0
100
AcDbCircle
 10
25.19537608871781
 20
418.1568777403238
 30
0.0
 40
2.299999999999998
100
AcDbArc
 50
93.16303837732641
 51
140.8332892838676
  0
ARC
  5
31832BE9
330
318324AF
100
AcDbEntity
  8
0
100
AcDbCircle
 10
26.66846807498291
 20
416.9568777403236
 30
0.0
 40
4.200000000000017
100
AcDbArc
 50
140.8332892838674
 51
180.0
  0
ARC
  5
31832BEA
330
318324AF
100
AcDbEntity
  8
SAISEN
100
AcDbCircle
 10
22.65436300835914
 20
416.9568777403236
 30
0.0
 40
2.025575541927546
100
AcDbArc
 50
279.1145210713242
 51
80.88547892867579
  0
TEXT
  5
31832BEB
330
318324AF
100
AcDbEntity
  8
SUNPOU
100
AcDbText
 10
402.9397387229145
 20
382.4603816362447
 30
0.0
 40
9.0
  1
105
 50
90.0
  7
K
 72
     1
 11
402.9397387229145
 21
395.9603816362447
 31
0.0
100
AcDbText
  0
INSERT
  5
31832BEC
330
318324AF
100
AcDbEntity
  8
SUNPOU
100
AcDbBlockReference
  2
ARROWANG
 10
407.4397387229145
 20
448.4603816362447
 30
0.0
 41
4.5
 42
4.5
 43
4.5
 50
90.0
  0
INSERT
  5
31832BED
330
318324AF
100
AcDbEntity
  8
SUNPOU
100
AcDbBlockReference
  2
ARROWANG
 10
407.4397387229145
 20
343.4603816362447
 30
0.0
 41
4.5
 42
4.5
 43
4.5
 50
270.0
  0
LINE
  5
31832BEE
330
318324AF
100
AcDbEntity
  8
SUNPOU
100
AcDbLine
 10
407.4397387229145
 20
343.4603816362447
 30
0.0
 11
407.4397387229145
 21
448.4603816362447
 31
0.0
  0
LINE
  5
31832BEF
330
318324AF
100
AcDbEntity
  8
SUNPOU
100
AcDbLine
 10
366.0684680749828
 20
448.4603816362447
 30
0.0
 11
410.4397387229147
 21
448.4603816362447
 31
0.0
  0
LINE
  5
31832BF0
330
318324AF
100
AcDbEntity
  8
SUNPOU
100
AcDbLine
 10
362.0684680749828
 20
343.4603816362447
 30
0.0
 11
410.4397387229147
 21
343.4603816362447
 31
0.0
  0
LINE
  5
31832BF1
330
318324AF
100
AcDbEntity
  8
JISSEN
100
AcDbLine
 10
19.06846807498287
 20
537.9435562692697
 30
0.0
 11
19.06846807498287
 21
577.9435562692697
 31
0.0
  0
LINE
  5
31832BF2
330
318324AF
100
AcDbEntity
  8
JISSEN
100
AcDbLine
 10
19.06846807498287
 20
692.9435562692697
 30
0.0
 11
19.06846807498287
 21
732.9435562692697
 31
0.0
  0
LINE
  5
31832BF3
330
318324AF
100
AcDbEntity
  8
JISSEN
100
AcDbLine
 10
19.06846807498287
 20
722.9435562692697
 30
0.0
 11
21.06846807498289
 21
722.9435562692697
 31
0.0
  0
LINE
  5
31832BF4
330
318324AF
100
AcDbEntity
  8
JISSEN
100
AcDbLine
 10
21.06846807498289
 20
702.9435562692697
 30
0.0
 11
19.06846807498287
 21
702.9435562692697
 31
0.0
  0
TEXT
  5
31832BF9
330
318324AF
100
AcDbEntity
  8
SUNPOU
100
AcDbText
 10
180.7113252178399
 20
478.2809605737432
 30
0.0
 40
9.0
  1
345
  7
K
 72
     1
 11
193.5684680749828
 21
478.2809605737432
 31
0.0
100
AcDbText
  0
INSERT
  5
31832BFA
330
318324AF
100
AcDbEntity
  8
SUNPOU
100
AcDbBlockReference
  2
ARROWANG
 10
366.0684680749826
 20
473.7809605737433
 30
0.0
 41
4.5
 42
4.5
 43
4.5
  0
INSERT
  5
31832BFB
330
318324AF
100
AcDbEntity
  8
SUNPOU
100
AcDbBlockReference
  2
ARROWANG
 10
21.06846807498289
 20
473.7809605737433
 30
0.0
 41
4.5
 42
4.5
 43
4.5
 50
180.0
  0
LINE
  5
31832BFC
330
318324AF
100
AcDbEntity
  8
SUNPOU
100
AcDbLine
 10
21.06846807498289
 20
473.7809605737433
 30
0.0
 11
366.0684680749826
 21
473.7809605737433
 31
0.0
  0
LINE
  5
31832BFD
330
318324AF
100
AcDbEntity
  8
SUNPOU
100
AcDbLine
 10
366.0684680749826
 20
448.4603816362447
 30
0.0
 11
366.0684680749826
 21
476.7809605737433
 31
0.0
  0
LINE
  5
31832BFE
330
318324AF
100
AcDbEntity
  8
SUNPOU
100
AcDbLine
 10
21.06846807498289
 20
448.4603816362447
 30
0.0
 11
21.06846807498289
 21
476.7809605737433
 31
0.0
  0
TEXT
  5
31832BFF
330
318324AF
100
AcDbEntity
  8
SUNPOU
100
AcDbText
 10
180.7113252178399
 20
320.6445187567152
 30
0.0
 40
9.0
  1
335
  7
K
 72
     1
 11
193.5684680749828
 21
320.6445187567152
 31
0.0
100
AcDbText
  0
INSERT
  5
31832C00
330
318324AF
100
AcDbEntity
  8
SUNPOU
100
AcDbBlockReference
  2
ARROWANG
 10
26.06846807498289
 20
316.1445187567152
 30
0.0
 41
4.5
 42
4.5
 43
4.5
 50
180.0
  0
INSERT
  5
31832C01
330
318324AF
100
AcDbEntity
  8
SUNPOU
100
AcDbBlockReference
  2
ARROWANG
 10
361.0684680749828
 20
316.1445187567152
 30
0.0
 41
4.5
 42
4.5
 43
4.5
  0
LINE
  5
31832C02
330
318324AF
100
AcDbEntity
  8
SUNPOU
100
AcDbLine
 10
26.06846807498289
 20
316.1445187567152
 30
0.0
 11
361.0684680749828
 21
316.1445187567152
 31
0.0
  0
LINE
  5
31832C03
330
318324AF
100
AcDbEntity
  8
SUNPOU
100
AcDbLine
 10
361.0684680749828
 20
342.4603816362446
 30
0.0
 11
361.0684680749828
 21
313.1445187567152
 31
0.0
  0
LINE
  5
31832C04
330
318324AF
100
AcDbEntity
  8
SUNPOU
100
AcDbLine
 10
26.06846807498289
 20
342.4603816362446
 30
0.0
 11
26.06846807498289
 21
313.1445187567152
 31
0.0
  0
TEXT
  5
31832C05
330
318324AF
100
AcDbEntity
  8
SUNPOU
100
AcDbText
 10
399.3378614015503
 20
622.5864134121268
 30
0.0
 40
9.0
  1
235
 50
90.0
  7
K
 72
     1
 11
399.3378614015503
 21
635.4435562692697
 31
0.0
100
AcDbText
  0
INSERT
  5
31832C06
330
318324AF
100
AcDbEntity
  8
SUNPOU
100
AcDbBlockReference
  2
ARROWANG
 10
403.8378614015504
 20
752.9435562692697
 30
0.0
 41
4.5
 42
4.5
 43
4.5
 50
90.0
  0
INSERT
  5
31832C07
330
318324AF
100
AcDbEntity
  8
SUNPOU
100
AcDbBlockReference
  2
ARROWANG
 10
403.8378614015504
 20
517.9435562692697
 30
0.0
 41
4.5
 42
4.5
 43
4.5
 50
270.0
  0
LINE
  5
31832C08
330
318324AF
100
AcDbEntity
  8
SUNPOU
100
AcDbLine
 10
403.8378614015504
 20
517.9435562692697
 30
0.0
 11
403.8378614015504
 21
752.9435562692697
 31
0.0
  0
LINE
  5
31832C09
330
318324AF
100
AcDbEntity
  8
SUNPOU
100
AcDbLine
 10
422.1929247416746
 20
752.9435562692697
 30
0.0
 11
400.8378614015502
 21
752.9435562692697
 31
0.0
  0
LINE
  5
31832C0A
330
318324AF
100
AcDbEntity
  8
SUNPOU
100
AcDbLine
 10
422.1929247416746
 20
517.9435562692697
 30
0.0
 11
400.8378614015502
 21
517.9435562692697
 31
0.0
  0
LINE
  5
31832C0B
330
318324AF
100
AcDbEntity
  8
JISSEN
100
AcDbLine
 10
24.06846807498288
 20
433.1226592964131
 30
0.0
 11
24.06846807498288
 21
433.4603816362446
 31
0.0
  0
LINE
  5
31832C0C
330
318324AF
100
AcDbEntity
  8
JISSEN
100
AcDbLine
 10
25.06846807498289
 20
432.4098713790277
 30
0.0
 11
25.06846807498289
 21
433.4603816362446
 31
0.0
  0
LINE
  5
31832C0D
330
318324AF
100
AcDbEntity
  8
JISSEN
100
AcDbLine
 10
24.06846807498288
 20
426.7981039760762
 30
0.0
 11
23.63989664641144
 21
427.7016118789815
 31
0.0
  0
CIRCLE
  5
31832C0E
330
318324AF
100
AcDbEntity
  8
SAISEN
100
AcDbCircle
 10
22.56846807498289
 20
429.9603816362447
 30
0.0
 40
2.5
  0
LINE
  5
31832C0F
330
318324AF
100
AcDbEntity
  8
JISSEN
100
AcDbLine
 10
25.06846807498289
 20
411.4603816362446
 30
0.0
 11
25.06846807498289
 21
429.9603816362447
 31
0.0
  0
LINE
  5
31832C10
330
318324AF
100
AcDbEntity
  8
JISSEN
100
AcDbLine
 10
26.06846807498289
 20
411.4603816362446
 30
0.0
 11
25.06846807498289
 21
411.4603816362446
 31
0.0
  0
ARC
  5
31832C11
330
318324AF
100
AcDbEntity
  8
JISSEN
100
AcDbCircle
 10
22.56846807498289
 20
429.9603816362447
 30
0.0
 40
3.5
100
AcDbArc
 50
0.0
 51
295.3769335251529
  0
ARC
  5
31832C12
330
318324AF
100
AcDbEntity
  8
SAISEN
100
AcDbCircle
 10
367.3258273878636
 20
422.2177409491253
 30
0.0
 40
1.5
100
AcDbArc
 50
343.4526342617893
 51
10.24341371001063
  0
ARC
  5
31832C13
330
318324AF
100
AcDbEntity
  8
JISSEN
100
AcDbCircle
 10
367.3258273878636
 20
422.2177409491253
 30
0.0
 40
4.242640687119283
100
AcDbArc
 50
94.17142539113214
 51
180.0
  0
ARC
  5
31832C14
330
318324AF
100
AcDbEntity
  8
JISSEN
100
AcDbCircle
 10
364.0031867007444
 20
407.3803816362446
 30
0.0
 40
0.9200000000000001
100
AcDbArc
 50
179.9999999999978
 51
270.0
  0
LINE
  5
31832C15
330
318324AF
100
AcDbEntity
  8
JISSEN
100
AcDbLine
 10
366.9160521766363
 20
398.4603816362448
 30
0.0
 11
368.2807067799576
 21
399.0967305285099
 31
0.0
  0
LINE
  5
31832C16
330
318324AF
100
AcDbEntity
  8
JISSEN
100
AcDbLine
 10
364.0042903025069
 20
406.4603816362446
 30
0.0
 11
366.9160521766365
 21
398.4603816362448
 31
0.0
  0
LINE
  5
31832C17
330
318324AF
100
AcDbEntity
  8
JISSEN
100
AcDbLine
 10
365.3588007239644
 20
407.1246014391186
 30
0.0
 11
371.2133199019413
 21
420.5185052524106
 31
0.0
  0
LINE
  5
31832C18
330
318324AF
100
AcDbEntity
  8
JISSEN
100
AcDbLine
 10
361.068468074983
 20
417.9752336044074
 30
0.0
 11
362.5684680749829
 21
417.9752336044074
 31
0.0
  0
LINE
  5
31832C19
330
318324AF
100
AcDbEntity
  8
JISSEN
100
AcDbLine
 10
363.0831867007443
 20
422.2177409491253
 30
0.0
 11
363.0831867007443
 21
407.3803816362446
 31
0.0
  0
ARC
  5
31832C1A
330
318324AF
100
AcDbEntity
  8
SAISEN
100
AcDbCircle
 10
367.3258273878636
 20
422.2177409491253
 30
0.0
 40
1.5
100
AcDbArc
 50
107.9813139064695
 51
245.7147340653316
  0
LWPOLYLINE
  5
31832C1B
330
318324AF
100
AcDbEntity
  8
JISSEN
100
AcDbPolyline
 90
        4
 70
     1
 43
0.0
 10
367.5684680749828
 20
436.459576171441
 10
366.4874445639118
 20
416.828846259614
 10
368.4844189673868
 20
416.7188770281661
 10
369.5654424784578
 20
436.3496069399932
  0
ARC
  5
31832C1C
330
318324AF
100
AcDbEntity
  8
JISSEN
100
AcDbCircle
 10
367.3258273878636
 20
422.2177409491253
 30
0.0
 40
4.242640687119283
100
AcDbArc
 50
336.3897040618553
 51
66.73123831488758
  0
LINE
  5
31832C1D
330
318324AF
100
AcDbEntity
  8
JISSEN
100
AcDbLine
 10
361.0684680749828
 20
426.4603816362447
 30
0.0
 11
367.3258273878636
 21
426.4603816362447
 31
0.0
  0
ARC
  5
31832C1E
330
318324AF
100
AcDbEntity
  8
JISSEN
100
AcDbCircle
 10
370.4080245225319
 20
434.911896114921
 30
0.0
 40
1.0
100
AcDbArc
 50
24.99999999999825
 51
109.9999999999965
  0
ARC
  5
31832C1F
330
318324AF
100
AcDbEntity
  8
JISSEN
100
AcDbCircle
 10
367.5684680749828
 20
434.9425598619705
 30
0.0
 40
1.5
100
AcDbArc
 50
180.0
 51
263.6602545730381
  0
LINE
  5
31832C20
330
318324AF
100
AcDbEntity
  8
JISSEN
100
AcDbLine
 10
371.3143323095687
 20
435.3345143766618
 30
0.0
 11
371.5634229138916
 21
434.8003378518572
 31
0.0
  0
LINE
  5
31832C21
330
318324AF
100
AcDbEntity
  8
JISSEN
100
AcDbLine
 10
371.5634229138916
 20
434.8003378518572
 30
0.0
 11
369.4375177515234
 21
434.0265716518823
 31
0.0
  0
LINE
  5
31832C22
330
318324AF
100
AcDbEntity
  8
JISSEN
100
AcDbLine
 10
369.5272187241694
 20
435.655486794624
 30
0.0
 11
370.0660043792063
 21
435.851588735707
 31
0.0
  0
LINE
  5
31832C23
330
318324AF
100
AcDbEntity
  8
JISSEN
100
AcDbLine
 10
367.5684680749828
 20
447.4587667887998
 30
0.0
 11
367.5684680749828
 21
436.459576171441
 31
0.0
  0
LINE
  5
31832C24
330
318324AF
100
AcDbEntity
  8
JISSEN
100
AcDbLine
 10
366.0684680749828
 20
447.4587667887998
 30
0.0
 11
367.5684680749828
 21
447.4587667887998
 31
0.0
  0
LINE
  5
31832C25
330
318324AF
100
AcDbEntity
  8
SAISEN
100
AcDbLine
 10
367.0684680749826
 20
627.9435562692698
 30
0.0
 11
370.0684680749826
 21
627.9435562692698
 31
0.0
  0
LINE
  5
31832C26
330
318324AF
100
AcDbEntity
  8
SAISEN
100
AcDbLine
 10
370.0684680749826
 20
627.9435562692698
 30
0.0
 11
370.0684680749826
 21
628.4435562692698
 31
0.0
  0
LINE
  5
31832C27
330
318324AF
100
AcDbEntity
  8
SAISEN
100
AcDbLine
 10
367.0684680749826
 20
627.9435562692698
 30
0.0
 11
367.0684680749826
 21
628.4435562692698
 31
0.0
  0
LINE
  5
31832C28
330
318324AF
100
AcDbEntity
  8
JISSEN
100
AcDbLine
 10
367.5684680749828
 20
627.9435562692698
 30
0.0
 11
367.5684680749828
 21
625.4076940182041
 31
0.0
  0
ARC
  5
31832C29
330
318324AF
100
AcDbEntity
  8
JISSEN
100
AcDbCircle
 10
368.5684680749826
 20
625.4076940182041
 30
0.0
 40
1.0
100
AcDbArc
 50
180.0
 51
270.0
  0
ARC
  5
31832C2A
330
318324AF
100
AcDbEntity
  8
JISSEN
100
AcDbCircle
 10
368.5684680749826
 20
625.4076940182041
 30
0.0
 40
1.0
100
AcDbArc
 50
270.0
 51
0.0
  0
LINE
  5
31832C2B
330
318324AF
100
AcDbEntity
  8
JISSEN
100
AcDbLine
 10
369.5684680749828
 20
625.4076940182041
 30
0.0
 11
369.5684680749828
 21
627.9435562692698
 31
0.0
  0
LINE
  5
31832C2C
330
318324AF
100
AcDbEntity
  8
JISSEN
100
AcDbLine
 10
369.5684680749828
 20
645.4794185203352
 30
0.0
 11
369.5684680749828
 21
642.9435562692697
 31
0.0
  0
ARC
  5
31832C2D
330
318324AF
100
AcDbEntity
  8
JISSEN
100
AcDbCircle
 10
368.5684680749826
 20
645.4794185203352
 30
0.0
 40
1.0
100
AcDbArc
 50
0.0
 51
90.0
  0
ARC
  5
31832C2E
330
318324AF
100
AcDbEntity
  8
JISSEN
100
AcDbCircle
 10
368.5684680749826
 20
645.4794185203352
 30
0.0
 40
1.0
100
AcDbArc
 50
90.0
 51
180.0
  0
LINE
  5
31832C2F
330
318324AF
100
AcDbEntity
  8
JISSEN
100
AcDbLine
 10
367.5684680749828
 20
642.9435562692697
 30
0.0
 11
367.5684680749828
 21
645.4794185203352
 31
0.0
  0
LINE
  5
31832C30
330
318324AF
100
AcDbEntity
  8
SAISEN
100
AcDbLine
 10
367.0684680749826
 20
642.9435562692697
 30
0.0
 11
367.0684680749826
 21
642.4435562692697
 31
0.0
  0
LINE
  5
31832C31
330
318324AF
100
AcDbEntity
  8
SAISEN
100
AcDbLine
 10
370.0684680749826
 20
642.9435562692697
 30
0.0
 11
370.0684680749826
 21
642.4435562692697
 31
0.0
  0
LINE
  5
31832C32
330
318324AF
100
AcDbEntity
  8
SAISEN
100
AcDbLine
 10
367.0684680749826
 20
642.9435562692697
 30
0.0
 11
370.0684680749826
 21
642.9435562692697
 31
0.0
  0
LINE
  5
31832C33
330
318324AF
100
AcDbEntity
  8
SAISEN
100
AcDbLine
 10
371.5684680749828
 20
642.4435562692697
 30
0.0
 11
363.0684680749826
 21
642.4435562692697
 31
0.0
  0
LINE
  5
31832C34
330
318324AF
100
AcDbEntity
  8
SAISEN
100
AcDbLine
 10
362.0684680749826
 20
640.4435562692697
 30
0.0
 11
362.0684680749828
 21
630.4435562692697
 31
0.0
  0
LINE
  5
31832C35
330
318324AF
100
AcDbEntity
  8
SAISEN
100
AcDbLine
 10
363.0684680749828
 20
630.4435562692697
 30
0.0
 11
363.0684680749826
 21
640.4435562692697
 31
0.0
  0
LINE
  5
31832C36
330
318324AF
100
AcDbEntity
  8
SAISEN
100
AcDbLine
 10
371.5684680749828
 20
640.4435562692697
 30
0.0
 11
362.0684680749826
 21
640.4435562692697
 31
0.0
  0
LINE
  5
31832C37
330
318324AF
100
AcDbEntity
  8
JISSEN
100
AcDbLine
 10
371.5684680749828
 20
641.4435562692696
 30
0.0
 11
361.0684680749828
 21
641.4435562692696
 31
0.0
  0
LINE
  5
31832C38
330
318324AF
100
AcDbEntity
  8
SAISEN
100
AcDbLine
 10
363.0684680749826
 20
641.4435562692696
 30
0.0
 11
363.0684680749828
 21
642.4435562692697
 31
0.0
  0
LINE
  5
31832C39
330
318324AF
100
AcDbEntity
  8
SAISEN
100
AcDbLine
 10
363.0684680749826
 20
629.4435562692697
 30
0.0
 11
363.0684680749828
 21
628.4435562692697
 31
0.0
  0
LINE
  5
31832C3A
330
318324AF
100
AcDbEntity
  8
JISSEN
100
AcDbLine
 10
371.5684680749828
 20
629.4435562692697
 30
0.0
 11
361.0684680749828
 21
629.4435562692697
 31
0.0
  0
LINE
  5
31832C3B
330
318324AF
100
AcDbEntity
  8
SAISEN
100
AcDbLine
 10
371.5684680749828
 20
630.4435562692697
 30
0.0
 11
362.0684680749826
 21
630.4435562692697
 31
0.0
  0
LINE
  5
31832C3C
330
318324AF
100
AcDbEntity
  8
SAISEN
100
AcDbLine
 10
363.0684680749828
 20
640.4435562692697
 30
0.0
 11
363.0684680749826
 21
630.4435562692697
 31
0.0
  0
LINE
  5
31832C3D
330
318324AF
100
AcDbEntity
  8
SAISEN
100
AcDbLine
 10
362.0684680749826
 20
630.4435562692697
 30
0.0
 11
362.0684680749828
 21
640.4435562692697
 31
0.0
  0
LINE
  5
31832C3E
330
318324AF
100
AcDbEntity
  8
SAISEN
100
AcDbLine
 10
371.5684680749828
 20
628.4435562692697
 30
0.0
 11
363.0684680749826
 21
628.4435562692697
 31
0.0
  0
LINE
  5
31832C3F
330
318324AF
100
AcDbEntity
  8
JISSEN
100
AcDbLine
 10
371.5684680749828
 20
642.4435562692697
 30
0.0
 11
371.5684680749828
 21
628.4435562692697
 31
0.0
  0
LINE
  5
31832C44
330
318324AF
100
AcDbEntity
  8
JISSEN
100
AcDbLine
 10
437.1929247416748
 20
627.8880007137139
 30
0.0
 11
437.1929247416746
 21
517.9435562692697
 31
0.0
  0
LINE
  5
31832C45
330
318324AF
100
AcDbEntity
  8
JISSEN
100
AcDbLine
 10
437.1929247416746
 20
640.7030660520414
 30
0.0
 11
437.1929247416746
 21
630.1840464864977
 31
0.0
  0
LINE
  5
31832C46
330
318324AF
100
AcDbEntity
  8
SAISEN
100
AcDbLine
 10
445.1929247416746
 20
630.4435562692698
 30
0.0
 11
445.1929247416746
 21
629.4435562692697
 31
0.0
  0
LINE
  5
31832C47
330
318324AF
100
AcDbEntity
  8
SAISEN
100
AcDbLine
 10
445.1929247416746
 20
641.4435562692696
 30
0.0
 11
445.1929247416746
 21
640.4435562692698
 31
0.0
  0
LINE
  5
31832C48
330
318324AF
100
AcDbEntity
  8
SAISEN
100
AcDbLine
 10
448.6929247416746
 20
629.4435562692697
 30
0.0
 11
444.1929247416746
 21
629.4435562692697
 31
0.0
  0
LINE
  5
31832C49
330
318324AF
100
AcDbEntity
  8
SAISEN
100
AcDbLine
 10
448.6929247416746
 20
630.4435562692697
 30
0.0
 11
448.6929247416746
 21
628.4435562692697
 31
0.0
  0
LINE
  5
31832C4A
330
318324AF
100
AcDbEntity
  8
SAISEN
100
AcDbLine
 10
445.1929247416746
 20
630.4435562692697
 30
0.0
 11
448.6929247416746
 21
630.4435562692697
 31
0.0
  0
LINE
  5
31832C4B
330
318324AF
100
AcDbEntity
  8
SAISEN
100
AcDbLine
 10
448.6929247416746
 20
641.4435562692696
 30
0.0
 11
444.1929247416746
 21
641.4435562692696
 31
0.0
  0
LINE
  5
31832C4C
330
318324AF
100
AcDbEntity
  8
SAISEN
100
AcDbLine
 10
448.6929247416746
 20
640.4435562692697
 30
0.0
 11
448.6929247416746
 21
642.4435562692697
 31
0.0
  0
LINE
  5
31832C4D
330
318324AF
100
AcDbEntity
  8
SAISEN
100
AcDbLine
 10
445.1929247416746
 20
640.4435562692697
 30
0.0
 11
448.6929247416746
 21
640.4435562692697
 31
0.0
  0
ARC
  5
31832C4E
330
318324AF
100
AcDbEntity
  8
JISSEN
100
AcDbCircle
 10
434.1929247416746
 20
627.4435562692697
 30
0.0
 40
3.0
100
AcDbArc
 50
270.0
 51
0.0
  0
ARC
  5
31832C4F
330
318324AF
100
AcDbEntity
  8
JISSEN
100
AcDbCircle
 10
434.1929247416746
 20
643.4435562692697
 30
0.0
 40
3.0
100
AcDbArc
 50
0.0000000000000127
 51
90.0
  0
ARC
  5
31832C50
330
318324AF
100
AcDbEntity
  8
JISSEN
100
AcDbCircle
 10
381.6929247416748
 20
635.4435562692697
 30
0.0
 40
72.49999999999976
100
AcDbArc
 50
5.54063766656526
 51
6.28834210454889
  0
ARC
  5
31832C51
330
318324AF
100
AcDbEntity
  8
JISSEN
100
AcDbCircle
 10
381.6929247416748
 20
635.4435562692697
 30
0.0
 40
70.49999999999975
100
AcDbArc
 50
5.69833191878324
 51
5.796277845860355
  0
LINE
  5
31832C52
330
318324AF
100
AcDbEntity
  8
SAISEN
100
AcDbLine
 10
447.1929247416746
 20
627.9435562692697
 30
0.0
 11
447.1929247416746
 21
628.4435562692697
 31
0.0
  0
LINE
  5
31832C53
330
318324AF
100
AcDbEntity
  8
SAISEN
100
AcDbLine
 10
450.1929247416746
 20
627.9435562692697
 30
0.0
 11
450.1929247416746
 21
628.4435562692697
 31
0.0
  0
LINE
  5
31832C54
330
318324AF
100
AcDbEntity
  8
SAISEN
100
AcDbLine
 10
447.1929247416746
 20
627.9435562692697
 30
0.0
 11
450.1929247416746
 21
627.9435562692697
 31
0.0
  0
LINE
  5
31832C55
330
318324AF
100
AcDbEntity
  8
SAISEN
100
AcDbLine
 10
447.1929247416746
 20
642.9435562692697
 30
0.0
 11
450.1929247416746
 21
642.9435562692697
 31
0.0
  0
LINE
  5
31832C56
330
318324AF
100
AcDbEntity
  8
SAISEN
100
AcDbLine
 10
450.1929247416746
 20
642.9435562692697
 30
0.0
 11
450.1929247416746
 21
642.4435562692697
 31
0.0
  0
LINE
  5
31832C57
330
318324AF
100
AcDbEntity
  8
SAISEN
100
AcDbLine
 10
447.1929247416746
 20
642.9435562692697
 30
0.0
 11
447.1929247416746
 21
642.4435562692697
 31
0.0
  0
LINE
  5
31832C58
330
318324AF
100
AcDbEntity
  8
JISSEN
100
AcDbLine
 10
468.6929247416746
 20
642.4435562692697
 30
0.0
 11
444.1929247416746
 21
642.4435562692697
 31
0.0
  0
ARC
  5
31832C59
330
318324AF
100
AcDbEntity
  8
JISSEN
100
AcDbCircle
 10
468.6929247416746
 20
638.9435562692697
 30
0.0
 40
3.5
100
AcDbArc
 50
0.0
 51
90.0
  0
ARC
  5
31832C5A
330
318324AF
100
AcDbEntity
  8
JISSEN
100
AcDbCircle
 10
468.6929247416746
 20
631.9435562692697
 30
0.0
 40
3.5
100
AcDbArc
 50
270.0
 51
0.0
  0
LINE
  5
31832C5B
330
318324AF
100
AcDbEntity
  8
JISSEN
100
AcDbLine
 10
464.1929247416746
 20
628.4435562692697
 30
0.0
 11
464.1929247416746
 21
642.4435562692697
 31
0.0
  0
LINE
  5
31832C5C
330
318324AF
100
AcDbEntity
  8
JISSEN
100
AcDbLine
 10
435.1929247416746
 20
630.4435562692697
 30
0.0
 11
437.1929247416746
 21
630.4435562692697
 31
0.0
  0
LINE
  5
31832C5D
330
318324AF
100
AcDbEntity
  8
JISSEN
100
AcDbLine
 10
435.1929247416746
 20
640.4435562692697
 30
0.0
 11
435.1929247416746
 21
630.4435562692697
 31
0.0
  0
LINE
  5
31832C5E
330
318324AF
100
AcDbEntity
  8
JISSEN
100
AcDbLine
 10
437.1929247416746
 20
640.4435562692697
 30
0.0
 11
435.1929247416746
 21
640.4435562692697
 31
0.0
  0
LINE
  5
31832C5F
330
318324AF
100
AcDbEntity
  8
JISSEN
100
AcDbLine
 10
437.1655565871812
 20
642.9915095596882
 30
0.0
 11
449.3410163221922
 21
646.3735817083022
 31
0.0
  0
LINE
  5
31832C60
330
318324AF
100
AcDbEntity
  8
JISSEN
100
AcDbLine
 10
437.1655565871812
 20
627.8956029788512
 30
0.0
 11
449.3410163221922
 21
624.5135308302373
 31
0.0
  0
ARC
  5
31832C61
330
318324AF
100
AcDbEntity
  8
JISSEN
100
AcDbCircle
 10
459.1929247416746
 20
635.4435562692697
 30
0.0
 40
25.0
100
AcDbArc
 50
168.8010810772578
 51
191.1989189227419
  0
ARC
  5
31832C62
330
318324AF
100
AcDbEntity
  8
JISSEN
100
AcDbCircle
 10
381.6929247416748
 20
635.4435562692697
 30
0.0
 40
72.49999999999976
100
AcDbArc
 50
353.7116578954509
 51
354.4593623334346
  0
LINE
  5
31832C63
330
318324AF
100
AcDbEntity
  8
JISSEN
100
AcDbLine
 10
438.0000904802677
 20
641.1475976752932
 30
0.0
 11
449.3074151279541
 21
644.2885211885397
 31
0.0
  0
ARC
  5
31832C64
330
318324AF
100
AcDbEntity
  8
JISSEN
100
AcDbCircle
 10
381.6929247416748
 20
635.4435562692697
 30
0.0
 40
70.49999999999975
100
AcDbArc
 50
354.2037221541395
 51
354.3016680812166
  0
LINE
  5
31832C65
330
318324AF
100
AcDbEntity
  8
JISSEN
100
AcDbLine
 10
438.0000904802677
 20
629.7395148632459
 30
0.0
 11
449.3074151279541
 21
626.5985913499998
 31
0.0
  0
ARC
  5
31832C66
330
318324AF
100
AcDbEntity
  8
JISSEN
100
AcDbCircle
 10
438.5353782078396
 20
639.2205618560334
 30
0.0
 40
2.0
100
AcDbArc
 50
105.52411099675
 51
142.3021603409671
  0
ARC
  5
31832C67
330
318324AF
100
AcDbEntity
  8
JISSEN
100
AcDbCircle
 10
449.8427028555263
 20
642.3614853692797
 30
0.0
 40
2.0
100
AcDbArc
 50
5.796277845860574
 51
105.5241109967563
  0
ARC
  5
31832C68
330
318324AF
100
AcDbEntity
  8
JISSEN
100
AcDbCircle
 10
449.8427028555263
 20
628.5256271692596
 30
0.0
 40
2.0
100
AcDbArc
 50
254.4758890032436
 51
354.2037221541394
  0
ARC
  5
31832C69
330
318324AF
100
AcDbEntity
  8
JISSEN
100
AcDbCircle
 10
450.2777698454433
 20
643.0012690245976
 30
0.0
 40
3.5
100
AcDbArc
 50
6.288342104548155
 51
105.5241109967564
  0
ARC
  5
31832C6A
330
318324AF
100
AcDbEntity
  8
JISSEN
100
AcDbCircle
 10
450.2777698454433
 20
627.8858435139417
 30
0.0
 40
3.5
100
AcDbArc
 50
254.4758890032435
 51
353.7116578954518
  0
ARC
  5
31832C6B
330
318324AF
100
AcDbEntity
  8
JISSEN
100
AcDbCircle
 10
438.5353782078396
 20
631.6665506825057
 30
0.0
 40
2.0
100
AcDbArc
 50
217.6978396590326
 51
254.4758890032499
  0
ARC
  5
31832C6C
330
318324AF
100
AcDbEntity
  8
JISSEN
100
AcDbCircle
 10
438.1023101104324
 20
631.2679156625561
 30
0.0
 40
3.5
100
AcDbArc
 50
191.1989189227418
 51
254.4758890032435
  0
ARC
  5
31832C6D
330
318324AF
100
AcDbEntity
  8
JISSEN
100
AcDbCircle
 10
438.1023101104324
 20
639.6191968759832
 30
0.0
 40
3.5
100
AcDbArc
 50
105.5241109967564
 51
168.801081077258
  0
LINE
  5
31832C6E
330
318324AF
100
AcDbEntity
  8
JISSEN
100
AcDbLine
 10
437.1929247416746
 20
630.1840464864977
 30
0.0
 11
437.1929247416746
 21
640.7030660520414
 31
0.0
  0
LINE
  5
31832C6F
330
318324AF
100
AcDbEntity
  8
JISSEN
100
AcDbLine
 10
472.1929247416746
 20
631.9435562692697
 30
0.0
 11
472.1929247416746
 21
638.9435562692697
 31
0.0
  0
LINE
  5
31832C70
330
318324AF
100
AcDbEntity
  8
JISSEN
100
AcDbLine
 10
444.1929247416746
 20
628.4435562692697
 30
0.0
 11
468.6929247416746
 21
628.4435562692697
 31
0.0
  0
LINE
  5
31832C71
330
318324AF
100
AcDbEntity
  8
JISSEN
100
AcDbLine
 10
444.1929247416746
 20
642.4435562692697
 30
0.0
 11
444.1929247416746
 21
628.4435562692697
 31
0.0
  0
ARC
  5
31832C72
330
318324AF
100
AcDbEntity
  8
JISSEN
100
AcDbCircle
 10
426.6119617687555
 20
626.4435562692697
 30
0.0
 40
2.0
100
AcDbArc
 50
197.9202131393929
 51
270.0
  0
ARC
  5
31832C73
330
318324AF
100
AcDbEntity
  8
JISSEN
100
AcDbCircle
 10
426.6119617687555
 20
644.4435562692697
 30
0.0
 40
2.0
100
AcDbArc
 50
90.0
 51
162.079786860607
  0
LINE
  5
31832C74
330
318324AF
100
AcDbEntity
  8
JISSEN
100
AcDbLine
 10
426.6119617687555
 20
624.4435562692697
 30
0.0
 11
434.1929247416746
 21
624.4435562692697
 31
0.0
  0
LINE
  5
31832C75
330
318324AF
100
AcDbEntity
  8
JISSEN
100
AcDbLine
 10
426.6119617687555
 20
646.4435562692697
 30
0.0
 11
434.1929247416746
 21
646.4435562692697
 31
0.0
  0
CIRCLE
  5
31832C76
330
318324AF
100
AcDbEntity
  8
JISSEN
100
AcDbCircle
 10
428.1929247416746
 20
628.9435562692696
 30
0.0
 40
3.0
  0
ARC
  5
31832C77
330
318324AF
100
AcDbEntity
  8
SAISEN
100
AcDbCircle
 10
428.1929247416746
 20
628.9435562692696
 30
0.0
 40
1.75
100
AcDbArc
 50
73.39845040097705
 51
106.6015495990229
  0
LINE
  5
31832C78
330
318324AF
100
AcDbEntity
  8
SAISEN
100
AcDbLine
 10
427.6929247416746
 20
630.6206072523946
 30
0.0
 11
427.6929247416746
 21
629.4435562692697
 31
0.0
  0
LINE
  5
31832C79
330
318324AF
100
AcDbEntity
  8
SAISEN
100
AcDbLine
 10
427.6929247416746
 20
629.4435562692697
 30
0.0
 11
426.5158737585498
 21
629.4435562692697
 31
0.0
  0
LINE
  5
31832C7A
330
318324AF
100
AcDbEntity
  8
SAISEN
100
AcDbLine
 10
426.5158737585498
 20
628.4435562692697
 30
0.0
 11
427.6929247416746
 21
628.4435562692697
 31
0.0
  0
LINE
  5
31832C7B
330
318324AF
100
AcDbEntity
  8
SAISEN
100
AcDbLine
 10
427.6929247416746
 20
628.4435562692697
 30
0.0
 11
427.6929247416746
 21
627.266505286145
 31
0.0
  0
LINE
  5
31832C7C
330
318324AF
100
AcDbEntity
  8
SAISEN
100
AcDbLine
 10
428.6929247416746
 20
627.2665052861447
 30
0.0
 11
428.6929247416746
 21
628.4435562692697
 31
0.0
  0
LINE
  5
31832C7D
330
318324AF
100
AcDbEntity
  8
SAISEN
100
AcDbLine
 10
428.6929247416746
 20
628.4435562692697
 30
0.0
 11
429.8699757247995
 21
628.4435562692697
 31
0.0
  0
LINE
  5
31832C7E
330
318324AF
100
AcDbEntity
  8
SAISEN
100
AcDbLine
 10
429.8699757247995
 20
629.4435562692697
 30
0.0
 11
428.6929247416746
 21
629.4435562692697
 31
0.0
  0
LINE
  5
31832C7F
330
318324AF
100
AcDbEntity
  8
SAISEN
100
AcDbLine
 10
428.6929247416746
 20
629.4435562692697
 30
0.0
 11
428.6929247416746
 21
630.6206072523946
 31
0.0
  0
ARC
  5
31832C80
330
318324AF
100
AcDbEntity
  8
SAISEN
100
AcDbCircle
 10
428.1929247416746
 20
628.9435562692696
 30
0.0
 40
1.75
100
AcDbArc
 50
163.3984504009792
 51
196.6015495990206
  0
ARC
  5
31832C81
330
318324AF
100
AcDbEntity
  8
SAISEN
100
AcDbCircle
 10
428.1929247416746
 20
628.9435562692696
 30
0.0
 40
1.75
100
AcDbArc
 50
253.398450400977
 51
286.6015495990228
  0
ARC
  5
31832C82
330
318324AF
100
AcDbEntity
  8
SAISEN
100
AcDbCircle
 10
428.1929247416746
 20
628.9435562692696
 30
0.0
 40
1.75
100
AcDbArc
 50
343.3984504009791
 51
16.60154959902075
  0
ARC
  5
31832C83
330
318324AF
100
AcDbEntity
  8
SAISEN
100
AcDbCircle
 10
428.1929247416746
 20
641.9435562692697
 30
0.0
 40
1.75
100
AcDbArc
 50
343.3984504009791
 51
16.60154959902075
  0
ARC
  5
31832C84
330
318324AF
100
AcDbEntity
  8
SAISEN
100
AcDbCircle
 10
428.1929247416746
 20
641.9435562692697
 30
0.0
 40
1.75
100
AcDbArc
 50
253.398450400977
 51
286.6015495990228
  0
ARC
  5
31832C85
330
318324AF
100
AcDbEntity
  8
SAISEN
100
AcDbCircle
 10
428.1929247416746
 20
641.9435562692697
 30
0.0
 40
1.75
100
AcDbArc
 50
163.3984504009792
 51
196.6015495990206
  0
LINE
  5
31832C86
330
318324AF
100
AcDbEntity
  8
SAISEN
100
AcDbLine
 10
428.6929247416746
 20
642.4435562692697
 30
0.0
 11
428.6929247416746
 21
643.6206072523946
 31
0.0
  0
LINE
  5
31832C87
330
318324AF
100
AcDbEntity
  8
SAISEN
100
AcDbLine
 10
429.8699757247995
 20
642.4435562692697
 30
0.0
 11
428.6929247416746
 21
642.4435562692697
 31
0.0
  0
LINE
  5
31832C88
330
318324AF
100
AcDbEntity
  8
SAISEN
100
AcDbLine
 10
428.6929247416746
 20
641.4435562692696
 30
0.0
 11
429.8699757247995
 21
641.4435562692696
 31
0.0
  0
LINE
  5
31832C89
330
318324AF
100
AcDbEntity
  8
SAISEN
100
AcDbLine
 10
428.6929247416746
 20
640.2665052861447
 30
0.0
 11
428.6929247416746
 21
641.4435562692696
 31
0.0
  0
LINE
  5
31832C8A
330
318324AF
100
AcDbEntity
  8
SAISEN
100
AcDbLine
 10
427.6929247416746
 20
641.4435562692696
 30
0.0
 11
427.6929247416746
 21
640.2665052861451
 31
0.0
  0
LINE
  5
31832C8B
330
318324AF
100
AcDbEntity
  8
SAISEN
100
AcDbLine
 10
426.5158737585498
 20
641.4435562692696
 30
0.0
 11
427.6929247416746
 21
641.4435562692696
 31
0.0
  0
LINE
  5
31832C8C
330
318324AF
100
AcDbEntity
  8
SAISEN
100
AcDbLine
 10
427.6929247416746
 20
642.4435562692697
 30
0.0
 11
426.5158737585498
 21
642.4435562692697
 31
0.0
  0
LINE
  5
31832C8D
330
318324AF
100
AcDbEntity
  8
SAISEN
100
AcDbLine
 10
427.6929247416746
 20
643.6206072523946
 30
0.0
 11
427.6929247416746
 21
642.4435562692697
 31
0.0
  0
ARC
  5
31832C8E
330
318324AF
100
AcDbEntity
  8
SAISEN
100
AcDbCircle
 10
428.1929247416746
 20
641.9435562692697
 30
0.0
 40
1.75
100
AcDbArc
 50
73.39845040097705
 51
106.6015495990229
  0
CIRCLE
  5
31832C8F
330
318324AF
100
AcDbEntity
  8
JISSEN
100
AcDbCircle
 10
428.1929247416746
 20
641.9435562692697
 30
0.0
 40
3.0
  0
ARC
  5
31832C90
330
318324AF
100
AcDbEntity
  8
JISSEN
100
AcDbCircle
 10
454.4429247416746
 20
635.4435562692697
 30
0.0
 40
31.24999999999994
100
AcDbArc
 50
162.0797868606075
 51
197.9202131393923
  0
INSERT
  5
31832C91
330
318324AF
100
AcDbEntity
  8
JISSEN
100
AcDbBlockReference
  2
X023
 10
367.5684680749828
 20
442.4603816362447
 30
0.0
 50
180.0
  0
LINE
  5
31832C92
330
318324AF
100
AcDbEntity
  8
JISSEN
100
AcDbLine
 10
366.0684680749828
 20
433.4603816362448
 30
0.0
 11
21.06846807498289
 21
433.4603816362446
 31
0.0
  0
LINE
  5
31832C93
330
318324AF
100
AcDbEntity
  8
JISSEN
100
AcDbLine
 10
437.1929247416746
 20
752.9435562692697
 30
0.0
 11
437.1929247416746
 21
642.9991118248254
 31
0.0
  0
LINE
  5
31832C9E
330
318324AF
100
AcDbEntity
  8
ITTEN
 48
3.0
100
AcDbLine
 10
69.06846807498289
 20
717.9435562692697
 30
0.0
 11
29.06846807498288
 21
717.9435562692697
 31
0.0
  0
LINE
  5
31832C9F
330
318324AF
100
AcDbEntity
  8
ITTEN
 48
3.0
100
AcDbLine
 10
124.0684680749827
 20
717.9435562692697
 30
0.0
 11
84.06846807498288
 21
717.9435562692697
 31
0.0
  0
LINE
  5
31832CA0
330
318324AF
100
AcDbEntity
  8
ITTEN
 48
3.0
100
AcDbLine
 10
179.0684680749827
 20
717.9435562692697
 30
0.0
 11
139.0684680749828
 21
717.9435562692697
 31
0.0
  0
LINE
  5
31832CA1
330
318324AF
100
AcDbEntity
  8
ITTEN
 48
3.0
100
AcDbLine
 10
234.0684680749828
 20
717.9435562692697
 30
0.0
 11
194.0684680749829
 21
717.9435562692697
 31
0.0
  0
LINE
  5
31832CA2
330
318324AF
100
AcDbEntity
  8
ITTEN
 48
3.0
100
AcDbLine
 10
289.0684680749827
 20
717.9435562692697
 30
0.0
 11
249.0684680749827
 21
717.9435562692697
 31
0.0
  0
LINE
  5
31832CA3
330
318324AF
100
AcDbEntity
  8
ITTEN
 48
3.0
100
AcDbLine
 10
49.06846807498289
 20
737.9435562692697
 30
0.0
 11
49.06846807498289
 21
697.9435562692697
 31
0.0
  0
LINE
  5
31832CA4
330
318324AF
100
AcDbEntity
  8
ITTEN
 48
3.0
100
AcDbLine
 10
104.0684680749828
 20
737.9435562692697
 30
0.0
 11
104.0684680749828
 21
697.9435562692697
 31
0.0
  0
LINE
  5
31832CA5
330
318324AF
100
AcDbEntity
  8
ITTEN
 48
3.0
100
AcDbLine
 10
159.0684680749828
 20
737.9435562692697
 30
0.0
 11
159.0684680749828
 21
697.9435562692697
 31
0.0
  0
LINE
  5
31832CA6
330
318324AF
100
AcDbEntity
  8
ITTEN
 48
3.0
100
AcDbLine
 10
214.0684680749827
 20
737.9435562692697
 30
0.0
 11
214.0684680749827
 21
697.9435562692697
 31
0.0
  0
LINE
  5
31832CA7
330
318324AF
100
AcDbEntity
  8
ITTEN
 48
3.0
100
AcDbLine
 10
269.0684680749829
 20
737.9435562692697
 30
0.0
 11
269.0684680749829
 21
697.9435562692697
 31
0.0
  0
LINE
  5
31832CA8
330
318324AF
100
AcDbEntity
  8
ITTEN
 48
3.0
100
AcDbLine
 10
69.06846807498289
 20
662.9435562692697
 30
0.0
 11
29.06846807498288
 21
662.9435562692697
 31
0.0
  0
LINE
  5
31832CA9
330
318324AF
100
AcDbEntity
  8
ITTEN
 48
3.0
100
AcDbLine
 10
124.0684680749827
 20
662.9435562692697
 30
0.0
 11
84.06846807498288
 21
662.9435562692697
 31
0.0
  0
LINE
  5
31832CAA
330
318324AF
100
AcDbEntity
  8
ITTEN
 48
3.0
100
AcDbLine
 10
179.0684680749827
 20
662.9435562692697
 30
0.0
 11
139.0684680749828
 21
662.9435562692697
 31
0.0
  0
LINE
  5
31832CAB
330
318324AF
100
AcDbEntity
  8
ITTEN
 48
3.0
100
AcDbLine
 10
234.0684680749828
 20
662.9435562692697
 30
0.0
 11
194.0684680749829
 21
662.9435562692697
 31
0.0
  0
LINE
  5
31832CAC
330
318324AF
100
AcDbEntity
  8
ITTEN
 48
3.0
100
AcDbLine
 10
289.0684680749827
 20
662.9435562692697
 30
0.0
 11
249.0684680749827
 21
662.9435562692697
 31
0.0
  0
LINE
  5
31832CAD
330
318324AF
100
AcDbEntity
  8
ITTEN
 48
3.0
100
AcDbLine
 10
49.06846807498289
 20
682.9435562692697
 30
0.0
 11
49.06846807498289
 21
642.9435562692697
 31
0.0
  0
LINE
  5
31832CAE
330
318324AF
100
AcDbEntity
  8
ITTEN
 48
3.0
100
AcDbLine
 10
104.0684680749828
 20
682.9435562692697
 30
0.0
 11
104.0684680749828
 21
642.9435562692697
 31
0.0
  0
LINE
  5
31832CAF
330
318324AF
100
AcDbEntity
  8
ITTEN
 48
3.0
100
AcDbLine
 10
159.0684680749828
 20
682.9435562692697
 30
0.0
 11
159.0684680749828
 21
642.9435562692697
 31
0.0
  0
LINE
  5
31832CB0
330
318324AF
100
AcDbEntity
  8
ITTEN
 48
3.0
100
AcDbLine
 10
214.0684680749827
 20
682.9435562692697
 30
0.0
 11
214.0684680749827
 21
642.9435562692697
 31
0.0
  0
LINE
  5
31832CB1
330
318324AF
100
AcDbEntity
  8
ITTEN
 48
3.0
100
AcDbLine
 10
269.0684680749829
 20
682.9435562692697
 30
0.0
 11
269.0684680749829
 21
642.9435562692697
 31
0.0
  0
LINE
  5
31832CB2
330
318324AF
100
AcDbEntity
  8
ITTEN
 48
3.0
100
AcDbLine
 10
69.06846807498289
 20
607.9435562692697
 30
0.0
 11
29.06846807498288
 21
607.9435562692697
 31
0.0
  0
LINE
  5
31832CB3
330
318324AF
100
AcDbEntity
  8
ITTEN
 48
3.0
100
AcDbLine
 10
124.0684680749827
 20
607.9435562692697
 30
0.0
 11
84.06846807498288
 21
607.9435562692697
 31
0.0
  0
LINE
  5
31832CB4
330
318324AF
100
AcDbEntity
  8
ITTEN
 48
3.0
100
AcDbLine
 10
179.0684680749827
 20
607.9435562692697
 30
0.0
 11
139.0684680749828
 21
607.9435562692697
 31
0.0
  0
LINE
  5
31832CB5
330
318324AF
100
AcDbEntity
  8
ITTEN
 48
3.0
100
AcDbLine
 10
234.0684680749828
 20
607.9435562692697
 30
0.0
 11
194.0684680749829
 21
607.9435562692697
 31
0.0
  0
LINE
  5
31832CB6
330
318324AF
100
AcDbEntity
  8
ITTEN
 48
3.0
100
AcDbLine
 10
289.0684680749827
 20
607.9435562692697
 30
0.0
 11
249.0684680749827
 21
607.9435562692697
 31
0.0
  0
LINE
  5
31832CB7
330
318324AF
100
AcDbEntity
  8
ITTEN
 48
3.0
100
AcDbLine
 10
49.06846807498289
 20
627.9435562692697
 30
0.0
 11
49.06846807498289
 21
587.9435562692697
 31
0.0
  0
LINE
  5
31832CB8
330
318324AF
100
AcDbEntity
  8
ITTEN
 48
3.0
100
AcDbLine
 10
104.0684680749828
 20
627.9435562692697
 30
0.0
 11
104.0684680749828
 21
587.9435562692697
 31
0.0
  0
LINE
  5
31832CB9
330
318324AF
100
AcDbEntity
  8
ITTEN
 48
3.0
100
AcDbLine
 10
159.0684680749828
 20
627.9435562692697
 30
0.0
 11
159.0684680749828
 21
587.9435562692697
 31
0.0
  0
LINE
  5
31832CBA
330
318324AF
100
AcDbEntity
  8
ITTEN
 48
3.0
100
AcDbLine
 10
214.0684680749827
 20
627.9435562692697
 30
0.0
 11
214.0684680749827
 21
587.9435562692697
 31
0.0
  0
LINE
  5
31832CBB
330
318324AF
100
AcDbEntity
  8
ITTEN
 48
3.0
100
AcDbLine
 10
269.0684680749829
 20
627.9435562692697
 30
0.0
 11
269.0684680749829
 21
587.9435562692697
 31
0.0
  0
LINE
  5
31832CBC
330
318324AF
100
AcDbEntity
  8
ITTEN
 48
3.0
100
AcDbLine
 10
289.0684680749827
 20
552.9435562692697
 30
0.0
 11
249.0684680749827
 21
552.9435562692697
 31
0.0
  0
LINE
  5
31832CBD
330
318324AF
100
AcDbEntity
  8
ITTEN
 48
3.0
100
AcDbLine
 10
269.0684680749829
 20
572.9435562692697
 30
0.0
 11
269.0684680749829
 21
532.9435562692697
 31
0.0
  0
LINE
  5
31832CBE
330
318324AF
100
AcDbEntity
  8
ITTEN
 48
3.0
100
AcDbLine
 10
234.0684680749828
 20
552.9435562692697
 30
0.0
 11
194.0684680749829
 21
552.9435562692697
 31
0.0
  0
LINE
  5
31832CBF
330
318324AF
100
AcDbEntity
  8
ITTEN
 48
3.0
100
AcDbLine
 10
214.0684680749827
 20
572.9435562692697
 30
0.0
 11
214.0684680749827
 21
532.9435562692697
 31
0.0
  0
LINE
  5
31832CC0
330
318324AF
100
AcDbEntity
  8
ITTEN
 48
3.0
100
AcDbLine
 10
179.0684680749827
 20
552.9435562692697
 30
0.0
 11
139.0684680749828
 21
552.9435562692697
 31
0.0
  0
LINE
  5
31832CC1
330
318324AF
100
AcDbEntity
  8
ITTEN
 48
3.0
100
AcDbLine
 10
159.0684680749828
 20
572.9435562692697
 30
0.0
 11
159.0684680749828
 21
532.9435562692697
 31
0.0
  0
LINE
  5
31832CC2
330
318324AF
100
AcDbEntity
  8
ITTEN
 48
3.0
100
AcDbLine
 10
124.0684680749827
 20
552.9435562692697
 30
0.0
 11
84.06846807498288
 21
552.9435562692697
 31
0.0
  0
LINE
  5
31832CC3
330
318324AF
100
AcDbEntity
  8
ITTEN
 48
3.0
100
AcDbLine
 10
104.0684680749828
 20
572.9435562692697
 30
0.0
 11
104.0684680749828
 21
532.9435562692697
 31
0.0
  0
LINE
  5
31832CC4
330
318324AF
100
AcDbEntity
  8
ITTEN
 48
3.0
100
AcDbLine
 10
69.06846807498289
 20
552.9435562692697
 30
0.0
 11
29.06846807498288
 21
552.9435562692697
 31
0.0
  0
LINE
  5
31832CC5
330
318324AF
100
AcDbEntity
  8
ITTEN
 48
3.0
100
AcDbLine
 10
49.06846807498289
 20
572.9435562692697
 30
0.0
 11
49.06846807498289
 21
532.9435562692697
 31
0.0
  0
LINE
  5
31832CC6
330
318324AF
100
AcDbEntity
  8
JISSEN
100
AcDbLine
 10
21.06846807498289
 20
732.9435562692697
 30
0.0
 11
19.06846807498287
 21
732.9435562692697
 31
0.0
  0
LINE
  5
31832CC7
330
318324AF
100
AcDbEntity
  8
JISSEN
100
AcDbLine
 10
19.06846807498287
 20
692.9435562692697
 30
0.0
 11
21.06846807498289
 21
692.9435562692697
 31
0.0
  0
LINE
  5
31832CC8
330
318324AF
100
AcDbEntity
  8
JISSEN
100
AcDbLine
 10
21.06846807498289
 20
547.9435562692697
 30
0.0
 11
19.06846807498287
 21
547.9435562692697
 31
0.0
  0
LINE
  5
31832CC9
330
318324AF
100
AcDbEntity
  8
JISSEN
100
AcDbLine
 10
19.06846807498287
 20
567.9435562692697
 30
0.0
 11
21.06846807498289
 21
567.9435562692697
 31
0.0
  0
LINE
  5
31832CCA
330
318324AF
100
AcDbEntity
  8
JISSEN
100
AcDbLine
 10
19.06846807498287
 20
537.9435562692697
 30
0.0
 11
21.06846807498289
 21
537.9435562692697
 31
0.0
  0
LINE
  5
31832CCB
330
318324AF
100
AcDbEntity
  8
JISSEN
100
AcDbLine
 10
21.06846807498289
 20
577.9435562692697
 30
0.0
 11
19.06846807498287
 21
577.9435562692697
 31
0.0
  0
ARC
  5
31832CFB
330
318324AF
100
AcDbEntity
  8
JISSEN
100
AcDbCircle
 10
23.06846807498287
 20
750.9435562692697
 30
0.0
 40
2.0
100
AcDbArc
 50
90.0
 51
180.0
  0
LINE
  5
31832CFC
330
318324AF
100
AcDbEntity
  8
JISSEN
100
AcDbLine
 10
21.06846807498289
 20
750.9435562692697
 30
0.0
 11
21.06846807498289
 21
519.9435562692697
 31
0.0
  0
LINE
  5
31832CFD
330
318324AF
100
AcDbEntity
  8
JISSEN
100
AcDbLine
 10
23.06846807498287
 20
752.9435562692697
 30
0.0
 11
364.0684680749826
 21
752.9435562692697
 31
0.0
  0
ARC
  5
31832CFE
330
318324AF
100
AcDbEntity
  8
JISSEN
100
AcDbCircle
 10
23.06846807498287
 20
519.9435562692697
 30
0.0
 40
2.0
100
AcDbArc
 50
180.0
 51
270.0
  0
LINE
  5
31832CFF
330
318324AF
100
AcDbEntity
  8
JISSEN
100
AcDbLine
 10
23.06846807498287
 20
517.9435562692697
 30
0.0
 11
364.0684680749826
 21
517.9435562692697
 31
0.0
  0
LWPOLYLINE
  5
31832D02
330
318324AF
100
AcDbEntity
  8
JISSEN
100
AcDbPolyline
 90
        4
 70
     0
 43
0.0
 10
83.56846807498289
 20
690.4435562692697
 10
83.56846807498289
 20
580.4435562692697
 10
303.5684680749827
 20
580.4435562692697
 10
303.5684680749827
 20
690.4435562692697
  0
LWPOLYLINE
  5
31832D04
330
318324AF
100
AcDbEntity
  8
JISSEN
100
AcDbPolyline
 90
        2
 70
     0
 43
0.0
 10
303.5684680749827
 20
690.4435562692697
 10
83.56846807498289
 20
690.4435562692697
  0
LINE
  5
31832D0E
330
318324AF
100
AcDbEntity
  8
JISSEN
100
AcDbLine
 10
362.5684680749829
 20
398.4603816362448
 30
0.0
 11
361.0684680749828
 21
398.4603816362448
 31
0.0
  0
LINE
  5
31832D0F
330
318324AF
100
AcDbEntity
  8
JISSEN
100
AcDbLine
 10
362.5684680749829
 20
417.9752336044074
 30
0.0
 11
362.5684680749829
 21
398.4603816362448
 31
0.0
  0
LINE
  5
31832D10
330
318324AF
100
AcDbEntity
  8
JISSEN
100
AcDbLine
 10
366.0684680749826
 20
433.4603816362448
 30
0.0
 11
366.0684680749828
 21
447.4587667887998
 31
0.0
  0
LINE
  5
31832D11
330
318324AF
100
AcDbEntity
  8
JISSEN
100
AcDbLine
 10
422.1929247416746
 20
520.9435562692696
 30
0.0
 11
422.1929247416746
 21
749.9435562692696
 31
0.0
  0
ARC
  5
31832D12
330
318324AF
100
AcDbEntity
  8
JISSEN
100
AcDbCircle
 10
425.1929247416746
 20
520.9435562692696
 30
0.0
 40
3.0
100
AcDbArc
 50
180.0
 51
270.0
  0
LINE
  5
31832D13
330
318324AF
100
AcDbEntity
  8
JISSEN
100
AcDbLine
 10
425.1929247416746
 20
752.9435562692697
 30
0.0
 11
437.1929247416746
 21
752.9435562692698
 31
0.0
  0
ARC
  5
31832D14
330
318324AF
100
AcDbEntity
  8
JISSEN
100
AcDbCircle
 10
425.1929247416746
 20
749.9435562692696
 30
0.0
 40
3.0
100
AcDbArc
 50
90.0
 51
180.0
  0
ARC
  5
31832D15
330
318324AF
100
AcDbEntity
  8
JISSEN
100
AcDbCircle
 10
24.06846807498288
 20
445.4603816362448
 30
0.0
 40
3.0
100
AcDbArc
 50
90.0
 51
180.0
  0
ARC
  5
31832D16
330
318324AF
100
AcDbEntity
  8
JISSEN
100
AcDbCircle
 10
363.0684680749828
 20
445.4603816362448
 30
0.0
 40
3.0
100
AcDbArc
 50
0.0000000000000127
 51
90.0
  0
LINE
  5
31832D17
330
318324AF
100
AcDbEntity
  8
JISSEN
100
AcDbLine
 10
525.1929247416747
 20
519.9435562692697
 30
0.0
 11
437.1929247416746
 21
519.9435562692697
 31
0.0
  0
ARC
  5
31832D18
330
318324AF
100
AcDbEntity
  8
JISSEN
100
AcDbCircle
 10
525.1929247416747
 20
521.9435562692697
 30
0.0
 40
2.0
100
AcDbArc
 50
270.0
 51
0.0
  0
LINE
  5
31832D19
330
318324AF
100
AcDbEntity
  8
JISSEN
100
AcDbLine
 10
527.1929247416746
 20
748.9435562692697
 30
0.0
 11
527.1929247416746
 21
521.9435562692697
 31
0.0
  0
ARC
  5
31832D1A
330
318324AF
100
AcDbEntity
  8
JISSEN
100
AcDbCircle
 10
525.1929247416747
 20
748.9435562692697
 30
0.0
 40
2.0
100
AcDbArc
 50
0.0
 51
90.0
  0
LINE
  5
31832D1B
330
318324AF
100
AcDbEntity
  8
JISSEN
100
AcDbLine
 10
26.06846807498289
 20
345.4603816362446
 30
0.0
 11
26.06846807498289
 21
433.4603816362446
 31
0.0
  0
LINE
  5
31832D1C
330
318324AF
100
AcDbEntity
  8
JISSEN
100
AcDbLine
 10
28.06846807498287
 20
343.4603816362447
 30
0.0
 11
359.0684680749828
 21
343.4603816362447
 31
0.0
  0
ARC
  5
31832D1D
330
318324AF
100
AcDbEntity
  8
JISSEN
100
AcDbCircle
 10
28.06846807498287
 20
345.4603816362446
 30
0.0
 40
2.0
100
AcDbArc
 50
180.0
 51
270.0
  0
ARC
  5
31832D1E
330
318324AF
100
AcDbEntity
  8
JISSEN
100
AcDbCircle
 10
359.0684680749828
 20
345.4603816362446
 30
0.0
 40
2.0
100
AcDbArc
 50
270.0
 51
0.0
  0
LINE
  5
31832D1F
330
318324AF
100
AcDbEntity
  8
JISSEN
100
AcDbLine
 10
366.0684680749828
 20
445.4603816362448
 30
0.0
 11
366.0684680749828
 21
438.4603816362449
 31
0.0
  0
LINE
  5
31832D20
330
318324AF
100
AcDbEntity
  8
JISSEN
100
AcDbLine
 10
24.06846807498288
 20
448.4603816362447
 30
0.0
 11
363.0684680749828
 21
448.4603816362447
 31
0.0
  0
LINE
  5
31832D21
330
318324AF
100
AcDbEntity
  8
JISSEN
100
AcDbLine
 10
361.0684680749828
 20
433.4603816362448
 30
0.0
 11
361.0684680749828
 21
345.4603816362446
 31
0.0
  0
LINE
  5
31832D22
330
318324AF
100
AcDbEntity
  8
JISSEN
100
AcDbLine
 10
21.06846807498289
 20
433.4603816362446
 30
0.0
 11
21.06846807498289
 21
445.4603816362448
 31
0.0
  0
LINE
  5
31832D23
330
318324AF
100
AcDbEntity
  8
JISSEN
100
AcDbLine
 10
361.0684680749828
 20
345.4603816362446
 30
0.0
 11
361.068468074983
 21
433.4603816362448
 31
0.0
  0
LINE
  5
31832D24
330
318324AF
100
AcDbEntity
  8
JISSEN
100
AcDbLine
 10
26.06846807498289
 20
433.4603816362446
 30
0.0
 11
26.06846807498289
 21
345.4603816362446
 31
0.0
  0
LINE
  5
31832D25
330
318324AF
100
AcDbEntity
  8
JISSEN
100
AcDbLine
 10
437.1929247416746
 20
750.9435562692697
 30
0.0
 11
525.1929247416747
 21
750.9435562692697
 31
0.0
  0
LINE
  5
31832D26
330
318324AF
100
AcDbEntity
  8
JISSEN
100
AcDbLine
 10
437.1929247416746
 20
517.9435562692697
 30
0.0
 11
425.1929247416746
 21
517.9435562692697
 31
0.0
  0
TEXT
  5
31832EC7
330
318324AF
100
AcDbEntity
  8
SUNPOU
100
AcDbText
 10
412.6629643112048
 20
5.772381838095042
 30
0.0
 40
9.0
  1
A4用紙、印刷尺度 1/3
  7
K
100
AcDbText
  0
TEXT
  5
31832EC8
330
318324AF
100
AcDbEntity
  8
SUNPOU
100
AcDbText
 10
412.6629643112048
 20
20.77238183809503
 30
0.0
 40
9.0
  1
格納箱S
  7
K
100
AcDbText
  0
ARC
  5
31832ECE
330
318324AF
100
AcDbEntity
  8
JISSEN
100
AcDbCircle
 10
364.0684680749826
 20
750.9435562692697
 30
0.0
 40
2.0
100
AcDbArc
 50
0.000000000000007
 51
90.0
  0
ARC
  5
31832ECF
330
318324AF
100
AcDbEntity
  8
JISSEN
100
AcDbCircle
 10
364.0684680749826
 20
519.9435562692697
 30
0.0
 40
2.0
100
AcDbArc
 50
270.0
 51
0.000000000000007
  0
LINE
  5
31832ED0
330
318324AF
100
AcDbEntity
  8
JISSEN
100
AcDbLine
 10
366.0684680749826
 20
750.9435562692697
 30
0.0
 11
366.0684680749826
 21
519.9435562692697
 31
0.0
  0
ARC
  5
31832ED1
330
318324AF
100
AcDbEntity
  8
SAISEN
100
AcDbCircle
 10
294.5684680749827
 20
683.4435562692696
 30
0.0
 40
1.75
100
AcDbArc
 50
343.3984504009791
 51
16.60154959902077
  0
ARC
  5
31832ED2
330
318324AF
100
AcDbEntity
  8
SAISEN
100
AcDbCircle
 10
294.5684680749827
 20
683.4435562692696
 30
0.0
 40
1.75
100
AcDbArc
 50
73.39845040097705
 51
106.6015495990229
  0
ARC
  5
31832ED3
330
318324AF
100
AcDbEntity
  8
SAISEN
100
AcDbCircle
 10
294.5684680749827
 20
683.4435562692696
 30
0.0
 40
1.75
100
AcDbArc
 50
163.3984504009792
 51
196.6015495990206
  0
LINE
  5
31832ED4
330
318324AF
100
AcDbEntity
  8
SAISEN
100
AcDbLine
 10
295.0684680749827
 20
682.9435562692697
 30
0.0
 11
295.0684680749827
 21
681.7665052861447
 31
0.0
  0
LINE
  5
31832ED5
330
318324AF
100
AcDbEntity
  8
SAISEN
100
AcDbLine
 10
296.2455190581076
 20
682.9435562692697
 30
0.0
 11
295.0684680749827
 21
682.9435562692697
 31
0.0
  0
LINE
  5
31832ED6
330
318324AF
100
AcDbEntity
  8
SAISEN
100
AcDbLine
 10
295.0684680749827
 20
683.9435562692697
 30
0.0
 11
296.2455190581076
 21
683.9435562692697
 31
0.0
  0
LINE
  5
31832ED7
330
318324AF
100
AcDbEntity
  8
SAISEN
100
AcDbLine
 10
295.0684680749827
 20
685.1206072523946
 30
0.0
 11
295.0684680749827
 21
683.9435562692697
 31
0.0
  0
LINE
  5
31832ED8
330
318324AF
100
AcDbEntity
  8
SAISEN
100
AcDbLine
 10
294.0684680749829
 20
683.9435562692697
 30
0.0
 11
294.0684680749829
 21
685.1206072523942
 31
0.0
  0
LINE
  5
31832ED9
330
318324AF
100
AcDbEntity
  8
SAISEN
100
AcDbLine
 10
292.8914170918579
 20
683.9435562692697
 30
0.0
 11
294.0684680749829
 21
683.9435562692697
 31
0.0
  0
LINE
  5
31832EDA
330
318324AF
100
AcDbEntity
  8
SAISEN
100
AcDbLine
 10
294.0684680749829
 20
682.9435562692697
 30
0.0
 11
292.8914170918579
 21
682.9435562692697
 31
0.0
  0
LINE
  5
31832EDB
330
318324AF
100
AcDbEntity
  8
SAISEN
100
AcDbLine
 10
294.0684680749829
 20
681.7665052861447
 30
0.0
 11
294.0684680749829
 21
682.9435562692697
 31
0.0
  0
ARC
  5
31832EDC
330
318324AF
100
AcDbEntity
  8
SAISEN
100
AcDbCircle
 10
294.5684680749827
 20
683.4435562692696
 30
0.0
 40
1.75
100
AcDbArc
 50
253.398450400977
 51
286.6015495990228
  0
CIRCLE
  5
31832EDD
330
318324AF
100
AcDbEntity
  8
JISSEN
100
AcDbCircle
 10
294.5684680749827
 20
683.4435562692696
 30
0.0
 40
2.744610977126966
  0
TEXT
  5
31832EDE
330
318324AF
100
AcDbEntity
  8
WAKU
100
AcDbText
 10
97.31846807498286
 20
642.9435562692697
 30
0.0
 40
25.0
  1
スプリンクラーヘッド格納箱
 41
0.5
  7
K
 72
     4
 11
193.5684680749828
 21
655.4435562692697
 31
0.0
100
AcDbText
  0
ENDSEC
  0
SECTION
  2
OBJECTS
  0
DICTIONARY
  5
318324A3
330
0
100
AcDbDictionary
281
     1
  3
ACAD_GROUP
350
318324A4
  3
ACAD_LAYOUT
350
3183277C
  3
ACAD_MLINESTYLE
350
318324A5
  3
ACAD_PLOTSETTINGS
350
3183277D
  3
ACAD_PLOTSTYLENAME
350
3183277A
  3
ACDBVARIABLEDICTIONARY
350
31832EB5
  0
DICTIONARY
  5
31832D4E
330
318324AF
100
AcDbDictionary
280
     1
281
     1
  3
ACAD_LAYOUTSELFREF
360
31832F18
  0
DICTIONARY
  5
31832D4C
330
318324AC
100
AcDbDictionary
280
     1
281
     1
  3
ACAD_LAYOUTSELFREF
360
31832F17
  0
DICTIONARY
  5
318324A4
102
{ACAD_REACTORS
330
318324A3
102
}
330
318324A3
100
AcDbDictionary
281
     1
  0
DICTIONARY
  5
3183277C
102
{ACAD_REACTORS
330
318324A3
102
}
330
318324A3
100
AcDbDictionary
281
     1
  3
Model
350
31832F1E
  3
ﾚｲｱｳﾄ1
350
31832F1F
  0
DICTIONARY
  5
318324A5
102
{ACAD_REACTORS
330
318324A3
102
}
330
318324A3
100
AcDbDictionary
281
     1
  3
STANDARD
350
318324B2
  0
DICTIONARY
  5
3183277D
102
{ACAD_REACTORS
330
318324A3
102
}
330
318324A3
100
AcDbDictionary
281
     1
  0
ACDBDICTIONARYWDFLT
  5
3183277A
102
{ACAD_REACTORS
330
318324A3
102
}
330
318324A3
100
AcDbDictionary
281
     1
  3
Normal
350
3183277B
100
AcDbDictionaryWithDefault
340
3183277B
  0
DICTIONARY
  5
31832EB5
102
{ACAD_REACTORS
330
318324A3
102
}
330
318324A3
100
AcDbDictionary
281
     1
  3
DIMASSOC
350
31832EB6
  0
XRECORD
  5
31832F18
102
{ACAD_REACTORS
330
31832D4E
102
}
330
31832D4E
100
AcDbXrecord
280
     1
340
318324AF
  0
XRECORD
  5
31832F17
102
{ACAD_REACTORS
330
31832D4C
102
}
330
31832D4C
100
AcDbXrecord
280
     1
340
318324AC
  0
LAYOUT
  5
31832F1E
102
{ACAD_REACTORS
330
3183277C
102
}
330
3183277C
100
AcDbPlotSettings
  1

  2
\\Nt_honsya\GL-8300A
  4

  6

 40
0.0
 41
0.0
 42
0.0
 43
0.0
 44
0.0
 45
0.0
 46
0.0
 47
0.0
 48
0.0
 49
0.0
140
0.0
141
0.0
142
1.0
143
1.0
 70
  1712
 72
     0
 73
     0
 74
     0
  7

 75
     0
147
1.0
148
0.0
149
0.0
100
AcDbLayout
  1
Model
 70
     1
 71
     0
 10
0.0
 20
0.0
 11
12.0
 21
9.0
 12
0.0
 22
0.0
 32
0.0
 14
0.0
 24
0.0
 34
0.0
 15
0.0
 25
0.0
 35
0.0
146
0.0
 13
0.0
 23
0.0
 33
0.0
 16
1.0
 26
0.0
 36
0.0
 17
0.0
 27
1.0
 37
0.0
 76
     0
330
318324AF
  0
LAYOUT
  5
31832F1F
102
{ACAD_REACTORS
330
3183277C
102
}
330
3183277C
100
AcDbPlotSettings
  1

  2
\\Nt_honsya\GL-8300A
  4

  6

 40
0.0
 41
0.0
 42
0.0
 43
0.0
 44
0.0
 45
0.0
 46
0.0
 47
0.0
 48
0.0
 49
0.0
140
0.0
141
0.0
142
1.0
143
1.0
 70
   688
 72
     0
 73
     0
 74
     5
  7

 75
    16
147
1.0
148
0.0
149
0.0
100
AcDbLayout
  1
ﾚｲｱｳﾄ1
 70
     0
 71
     1
 10
0.0
 20
0.0
 11
12.0
 21
9.0
 12
0.0
 22
0.0
 32
0.0
 14
1.000000000000000E+20
 24
1.000000000000000E+20
 34
1.000000000000000E+20
 15
-1.000000000000000E+20
 25
-1.000000000000000E+20
 35
-1.000000000000000E+20
146
0.0
 13
0.0
 23
0.0
 33
0.0
 16
1.0
 26
0.0
 36
0.0
 17
0.0
 27
1.0
 37
0.0
 76
     0
330
318324AC
  0
MLINESTYLE
  5
318324B2
102
{ACAD_REACTORS
330
318324A5
102
}
330
318324A5
100
AcDbMlineStyle
  2
STANDARD
 70
     0
  3

 62
     0
 51
90.0
 52
90.0
 71
     2
 49
0.5
 62
   256
  6
BYLAYER
 49
-0.5
 62
   256
  6
BYLAYER
  0
ACDBPLACEHOLDER
  5
3183277B
102
{ACAD_REACTORS
330
3183277A
102
}
330
3183277A
  0
DICTIONARYVAR
  5
31832EB6
102
{ACAD_REACTORS
330
31832EB5
102
}
330
31832EB5
100
DictionaryVariables
280
     0
  1
0
  0
ENDSEC
  0
EOF
