  0
SECTION
  2
HEADER
  9
$ACADVER
  1
AC1015
  9
$ACADMAINTVER
 70
    10
  9
$DWGCODEPAGE
  3
ANSI_932
  9
$INSBASE
 10
0.0
 20
0.0
 30
0.0
  9
$EXTMIN
 10
-0.0016887668955405
 20
-0.0267688837927835
 30
-0.0000000000000058
  9
$EXTMAX
 10
905.0565031942051
 20
682.527060919622
 30
0.0000000000000104
  9
$LIMMIN
 10
0.0
 20
0.0
  9
$LIMMAX
 10
180.9999992799999
 20
272.9999999999999
  9
$ORTHOMODE
 70
     1
  9
$REGENMODE
 70
     1
  9
$FILLMODE
 70
     1
  9
$QTEXTMODE
 70
     0
  9
$MIRRTEXT
 70
     0
  9
$LTSCALE
 40
5.0
  9
$ATTMODE
 70
     1
  9
$TEXTSIZE
 40
3.0
  9
$TRACEWID
 40
0.05
  9
$TEXTSTYLE
  7
K
  9
$CLAYER
  8
JISSEN
  9
$CELTYPE
  6
BYLAYER
  9
$CECOLOR
 62
   256
  9
$CELTSCALE
 40
1.0
  9
$DISPSILH
 70
     0
  9
$DIMSCALE
 40
2.5
  9
$DIMASZ
 40
3.0
  9
$DIMEXO
 40
0.75
  9
$DIMDLI
 40
6.0
  9
$DIMRND
 40
0.0
  9
$DIMDLE
 40
0.0
  9
$DIMEXE
 40
1.0
  9
$DIMTP
 40
495.0
  9
$DIMTM
 40
0.0
  9
$DIMTXT
 40
3.0
  9
$DIMCEN
 40
0.0
  9
$DIMTSZ
 40
0.0
  9
$DIMTOL
 70
     0
  9
$DIMLIM
 70
     0
  9
$DIMTIH
 70
     0
  9
$DIMTOH
 70
     0
  9
$DIMSE1
 70
     0
  9
$DIMSE2
 70
     0
  9
$DIMTAD
 70
     3
  9
$DIMZIN
 70
     8
  9
$DIMBLK
  1
ARROWANG
  9
$DIMASO
 70
     0
  9
$DIMSHO
 70
     0
  9
$DIMPOST
  1

  9
$DIMAPOST
  1

  9
$DIMALT
 70
     0
  9
$DIMALTD
 70
     2
  9
$DIMALTF
 40
25.4
  9
$DIMLFAC
 40
1.0
  9
$DIMTOFL
 70
     1
  9
$DIMTVP
 40
0.0
  9
$DIMTIX
 70
     1
  9
$DIMSOXD
 70
     0
  9
$DIMSAH
 70
     1
  9
$DIMBLK1
  1
ARROWANG
  9
$DIMBLK2
  1
ARROWANG
  9
$DIMSTYLE
  2
IMAO
  9
$DIMCLRD
 70
   256
  9
$DIMCLRE
 70
   256
  9
$DIMCLRT
 70
   256
  9
$DIMTFAC
 40
1.0
  9
$DIMGAP
 40
1.0
  9
$DIMJUST
 70
     0
  9
$DIMSD1
 70
     0
  9
$DIMSD2
 70
     0
  9
$DIMTOLJ
 70
     1
  9
$DIMTZIN
 70
     0
  9
$DIMALTZ
 70
     0
  9
$DIMALTTZ
 70
     0
  9
$DIMUPT
 70
     0
  9
$DIMDEC
 70
     2
  9
$DIMTDEC
 70
     2
  9
$DIMALTU
 70
     2
  9
$DIMALTTD
 70
     2
  9
$DIMTXSTY
  7
K
  9
$DIMAUNIT
 70
     0
  9
$DIMADEC
 70
     0
  9
$DIMALTRND
 40
0.0
  9
$DIMAZIN
 70
     0
  9
$DIMDSEP
 70
    46
  9
$DIMATFIT
 70
     3
  9
$DIMFRAC
 70
     0
  9
$DIMLDRBLK
  1
ARROWANG
  9
$DIMLUNIT
 70
     2
  9
$DIMLWD
 70
    -2
  9
$DIMLWE
 70
    -2
  9
$DIMTMOVE
 70
     0
  9
$LUNITS
 70
     2
  9
$LUPREC
 70
     2
  9
$SKETCHINC
 40
0.1
  9
$FILLETRAD
 40
0.0
  9
$AUNITS
 70
     0
  9
$AUPREC
 70
     2
  9
$MENU
  1
STDR12J
  9
$ELEVATION
 40
0.0
  9
$PELEVATION
 40
0.0
  9
$THICKNESS
 40
0.0
  9
$LIMCHECK
 70
     0
  9
$CHAMFERA
 40
0.0
  9
$CHAMFERB
 40
0.0
  9
$CHAMFERC
 40
0.0
  9
$CHAMFERD
 40
0.0
  9
$SKPOLY
 70
     0
  9
$TDCREATE
 40
2450694.750535185
  9
$TDUCREATE
 40
2450694.375535185
  9
$TDUPDATE
 40
2456085.414658206
  9
$TDUUPDATE
 40
2456085.039658205
  9
$TDINDWG
 40
0.1810014815
  9
$TDUSRTIMER
 40
0.1810012963
  9
$USRTIMER
 70
     1
  9
$ANGBASE
 50
0.0
  9
$ANGDIR
 70
     0
  9
$PDMODE
 70
     0
  9
$PDSIZE
 40
0.0
  9
$PLINEWID
 40
0.0
  9
$SPLFRAME
 70
     0
  9
$SPLINETYPE
 70
     6
  9
$SPLINESEGS
 70
     8
  9
$HANDSEED
  5
318345E6
  9
$SURFTAB1
 70
     6
  9
$SURFTAB2
 70
     6
  9
$SURFTYPE
 70
     6
  9
$SURFU
 70
     6
  9
$SURFV
 70
     6
  9
$UCSBASE
  2

  9
$UCSNAME
  2

  9
$UCSORG
 10
0.0
 20
0.0
 30
0.0
  9
$UCSXDIR
 10
1.0
 20
0.0
 30
0.0
  9
$UCSYDIR
 10
0.0
 20
1.0
 30
0.0
  9
$UCSORTHOREF
  2

  9
$UCSORTHOVIEW
 70
     0
  9
$UCSORGTOP
 10
0.0
 20
0.0
 30
0.0
  9
$UCSORGBOTTOM
 10
0.0
 20
0.0
 30
0.0
  9
$UCSORGLEFT
 10
0.0
 20
0.0
 30
0.0
  9
$UCSORGRIGHT
 10
0.0
 20
0.0
 30
0.0
  9
$UCSORGFRONT
 10
0.0
 20
0.0
 30
0.0
  9
$UCSORGBACK
 10
0.0
 20
0.0
 30
0.0
  9
$PUCSBASE
  2

  9
$PUCSNAME
  2

  9
$PUCSORG
 10
0.0
 20
0.0
 30
0.0
  9
$PUCSXDIR
 10
1.0
 20
0.0
 30
0.0
  9
$PUCSYDIR
 10
0.0
 20
1.0
 30
0.0
  9
$PUCSORTHOREF
  2

  9
$PUCSORTHOVIEW
 70
     0
  9
$PUCSORGTOP
 10
0.0
 20
0.0
 30
0.0
  9
$PUCSORGBOTTOM
 10
0.0
 20
0.0
 30
0.0
  9
$PUCSORGLEFT
 10
0.0
 20
0.0
 30
0.0
  9
$PUCSORGRIGHT
 10
0.0
 20
0.0
 30
0.0
  9
$PUCSORGFRONT
 10
0.0
 20
0.0
 30
0.0
  9
$PUCSORGBACK
 10
0.0
 20
0.0
 30
0.0
  9
$USERI1
 70
     4
  9
$USERI2
 70
     1
  9
$USERI3
 70
     1
  9
$USERI4
 70
     1
  9
$USERI5
 70
     1
  9
$USERR1
 40
1.0
  9
$USERR2
 40
3.0
  9
$USERR3
 40
3.0
  9
$USERR4
 40
1.5
  9
$USERR5
 40
10.0
  9
$WORLDVIEW
 70
     1
  9
$SHADEDGE
 70
     3
  9
$SHADEDIF
 70
    70
  9
$TILEMODE
 70
     1
  9
$MAXACTVP
 70
    16
  9
$PINSBASE
 10
0.0
 20
0.0
 30
0.0
  9
$PLIMCHECK
 70
     0
  9
$PEXTMIN
 10
1.000000000000000E+20
 20
1.000000000000000E+20
 30
1.000000000000000E+20
  9
$PEXTMAX
 10
-1.000000000000000E+20
 20
-1.000000000000000E+20
 30
-1.000000000000000E+20
  9
$PLIMMIN
 10
0.0
 20
0.0
  9
$PLIMMAX
 10
12.0
 20
9.0
  9
$UNITMODE
 70
     0
  9
$VISRETAIN
 70
     0
  9
$PLINEGEN
 70
     0
  9
$PSLTSCALE
 70
     0
  9
$TREEDEPTH
 70
     0
  9
$CMLSTYLE
  2
STANDARD
  9
$CMLJUST
 70
     0
  9
$CMLSCALE
 40
1.0
  9
$PROXYGRAPHICS
 70
     1
  9
$MEASUREMENT
 70
     0
  9
$CELWEIGHT
370
    -1
  9
$ENDCAPS
280
     0
  9
$JOINSTYLE
280
     0
  9
$LWDISPLAY
290
     0
  9
$INSUNITS
 70
     0
  9
$HYPERLINKBASE
  1

  9
$STYLESHEET
  1
pdf001.ctb
  9
$XEDIT
290
     1
  9
$CEPSNTYPE
380
     0
  9
$PSTYLEMODE
290
     1
  9
$FINGERPRINTGUID
  2
{E5228D24-DA15-4356-9063-6B42BC255E94}
  9
$VERSIONGUID
  2
{737C0EB9-33C6-4F6E-9CE5-CEAA2B0B3DA1}
  9
$EXTNAMES
290
     1
  9
$PSVPSCALE
 40
0.0
  9
$OLESTARTUP
290
     0
  0
ENDSEC
  0
SECTION
  2
CLASSES
  0
CLASS
  1
LWPOLYLINE
  2
AcDbPolyline
  3
AutoCAD 2000
 90
    32768
280
     0
281
     1
  0
CLASS
  1
ACDBDICTIONARYWDFLT
  2
AcDbDictionaryWithDefault
  3
AutoCAD 2000
 90
        0
280
     0
281
     0
  0
CLASS
  1
ACDBPLACEHOLDER
  2
AcDbPlaceHolder
  3
AutoCAD 2000
 90
        0
280
     0
281
     0
  0
CLASS
  1
LAYOUT
  2
AcDbLayout
  3
AutoCAD 2000
 90
        0
280
     0
281
     0
  0
CLASS
  1
DICTIONARYVAR
  2
AcDbDictionaryVar
  3
AutoCAD 2000
 90
        0
280
     0
281
     0
  0
CLASS
  1
LONG_TRANSACTION
  2
AcDbLongTransaction
  3
AutoCAD 2000
 90
    32768
280
     0
281
     0
  0
CLASS
  1
LWPOLYLINE
  2
AcDbPolyline
  3
AutoCAD 2000
 90
    32768
280
     0
281
     1
  0
CLASS
  1
HATCH
  2
AcDbHatch
  3
AutoCAD 2000
 90
    32768
280
     0
281
     1
  0
CLASS
  1
XRECORD
  2
AcDbXrecord
  3
AutoCAD 2000
 90
    32768
280
     0
281
     0
  0
CLASS
  1
LONG_TRANSACTION
  2
AcDbLongTransaction
  3
AutoCAD 2000
 90
    32768
280
     0
281
     0
  0
CLASS
  1
LWPOLYLINE
  2
AcDbPolyline
  3
AutoCAD 2000
 90
    32768
280
     0
281
     1
  0
CLASS
  1
HATCH
  2
AcDbHatch
  3
AutoCAD 2000
 90
    32768
280
     0
281
     1
  0
CLASS
  1
XRECORD
  2
AcDbXrecord
  3
AutoCAD 2000
 90
    32768
280
     0
281
     0
  0
ENDSEC
  0
SECTION
  2
TABLES
  0
TABLE
  2
VPORT
  5
3183249F
330
0
100
AcDbSymbolTable
 70
    10
  0
VPORT
  5
318324C3
330
3183249F
100
AcDbSymbolTableRecord
100
AcDbViewportTableRecord
  2
2
 70
     0
 10
0.5
 20
0.0
 11
1.0
 21
1.0
 12
0.9240312421264802
 22
1.052650975462765
 13
0.0
 23
0.0
 14
1.0
 24
1.0
 15
10.0
 25
10.0
 16
0.0
 26
0.0
 36
1.0
 17
0.0
 27
0.0
 37
0.0
 40
2.105301950925533
 41
0.8778135048231511
 42
50.0
 43
0.0
 44
0.0
 50
0.0
 51
0.0
 71
     0
 72
   500
 73
     1
 74
     1
 75
     0
 76
     0
 77
     0
 78
     0
281
     0
 65
     1
110
0.0
120
0.0
130
0.0
111
1.0
121
0.0
131
0.0
112
0.0
122
1.0
132
0.0
 79
     0
146
0.0
  0
VPORT
  5
318324C4
330
3183249F
100
AcDbSymbolTableRecord
100
AcDbViewportTableRecord
  2
2
 70
     0
 10
0.0
 20
0.0
 11
0.5
 21
1.0
 12
0.9240312421264802
 22
1.052650975462765
 13
0.0
 23
0.0
 14
1.0
 24
1.0
 15
10.0
 25
10.0
 16
0.0
 26
0.0
 36
1.0
 17
0.0
 27
0.0
 37
0.0
 40
2.105301950925533
 41
0.8778135048231511
 42
50.0
 43
0.0
 44
0.0
 50
0.0
 51
0.0
 71
     0
 72
   500
 73
     1
 74
     1
 75
     0
 76
     0
 77
     0
 78
     0
281
     0
 65
     1
110
0.0
120
0.0
130
0.0
111
1.0
121
0.0
131
0.0
112
0.0
122
1.0
132
0.0
 79
     0
146
0.0
  0
VPORT
  5
318324C5
330
3183249F
100
AcDbSymbolTableRecord
100
AcDbViewportTableRecord
  2
3
 70
     0
 10
0.0
 20
0.5
 11
1.0
 21
1.0
 12
2.832169994473273
 22
1.052650975462765
 13
0.0
 23
0.0
 14
1.0
 24
1.0
 15
10.0
 25
10.0
 16
0.0
 26
0.0
 36
1.0
 17
0.0
 27
0.0
 37
0.0
 40
2.105301950925533
 41
3.571428571428571
 42
50.0
 43
0.0
 44
0.0
 50
0.0
 51
0.0
 71
     0
 72
   500
 73
     1
 74
     1
 75
     0
 76
     0
 77
     0
 78
     0
281
     0
 65
     1
110
0.0
120
0.0
130
0.0
111
1.0
121
0.0
131
0.0
112
0.0
122
1.0
132
0.0
 79
     0
146
0.0
  0
VPORT
  5
318324C6
330
3183249F
100
AcDbSymbolTableRecord
100
AcDbViewportTableRecord
  2
3
 70
     0
 10
0.0
 20
0.0
 11
1.0
 21
0.5
 12
2.856741679241311
 22
1.052650975462765
 13
0.0
 23
0.0
 14
1.0
 24
1.0
 15
10.0
 25
10.0
 16
0.0
 26
0.0
 36
1.0
 17
0.0
 27
0.0
 37
0.0
 40
2.105301950925533
 41
3.594771241830064
 42
50.0
 43
0.0
 44
0.0
 50
0.0
 51
0.0
 71
     0
 72
   500
 73
     1
 74
     1
 75
     0
 76
     0
 77
     0
 78
     0
281
     0
 65
     1
110
0.0
120
0.0
130
0.0
111
1.0
121
0.0
131
0.0
112
0.0
122
1.0
132
0.0
 79
     0
146
0.0
  0
VPORT
  5
318324C7
330
3183249F
100
AcDbSymbolTableRecord
100
AcDbViewportTableRecord
  2
4
 70
     0
 10
0.5
 20
0.0
 11
1.0
 21
0.5
 12
2.886857516709718
 22
1.052650975462765
 13
0.0
 23
0.0
 14
1.0
 24
1.0
 15
10.0
 25
10.0
 16
0.0
 26
0.0
 36
1.0
 17
0.0
 27
0.0
 37
0.0
 40
4.275207030309069
 41
1.784313725490195
 42
50.0
 43
0.0
 44
0.0
 50
0.0
 51
0.0
 71
     0
 72
   500
 73
     1
 74
     1
 75
     0
 76
     0
 77
     0
 78
     0
281
     0
 65
     1
110
0.0
120
0.0
130
0.0
111
1.0
121
0.0
131
0.0
112
0.0
122
1.0
132
0.0
 79
     0
146
0.0
  0
VPORT
  5
318324C8
330
3183249F
100
AcDbSymbolTableRecord
100
AcDbViewportTableRecord
  2
4
 70
     0
 10
0.5
 20
0.5
 11
1.0
 21
1.0
 12
2.862090274555523
 22
1.052650975462765
 13
0.0
 23
0.0
 14
1.0
 24
1.0
 15
10.0
 25
10.0
 16
0.0
 26
0.0
 36
1.0
 17
0.0
 27
0.0
 37
0.0
 40
4.275207030309069
 41
1.772727272727271
 42
50.0
 43
0.0
 44
0.0
 50
0.0
 51
0.0
 71
     0
 72
   500
 73
     1
 74
     1
 75
     0
 76
     0
 77
     0
 78
     0
281
     0
 65
     1
110
0.0
120
0.0
130
0.0
111
1.0
121
0.0
131
0.0
112
0.0
122
1.0
132
0.0
 79
     0
146
0.0
  0
VPORT
  5
318324C9
330
3183249F
100
AcDbSymbolTableRecord
100
AcDbViewportTableRecord
  2
4
 70
     0
 10
0.0
 20
0.5
 11
0.5
 21
1.0
 12
2.862090274555523
 22
1.052650975462765
 13
0.0
 23
0.0
 14
1.0
 24
1.0
 15
10.0
 25
10.0
 16
0.0
 26
0.0
 36
1.0
 17
0.0
 27
0.0
 37
0.0
 40
4.275207030309069
 41
1.772727272727271
 42
50.0
 43
0.0
 44
0.0
 50
0.0
 51
0.0
 71
     0
 72
   500
 73
     1
 74
     1
 75
     0
 76
     0
 77
     0
 78
     0
281
     0
 65
     1
110
0.0
120
0.0
130
0.0
111
1.0
121
0.0
131
0.0
112
0.0
122
1.0
132
0.0
 79
     0
146
0.0
  0
VPORT
  5
318324CA
330
3183249F
100
AcDbSymbolTableRecord
100
AcDbViewportTableRecord
  2
4
 70
     0
 10
0.0
 20
0.0
 11
0.5
 21
0.5
 12
2.886857516709718
 22
1.052650975462765
 13
0.0
 23
0.0
 14
1.0
 24
1.0
 15
10.0
 25
10.0
 16
0.0
 26
0.0
 36
1.0
 17
0.0
 27
0.0
 37
0.0
 40
4.275207030309069
 41
1.784313725490195
 42
50.0
 43
0.0
 44
0.0
 50
0.0
 51
0.0
 71
     0
 72
   500
 73
     1
 74
     1
 75
     0
 76
     0
 77
     0
 78
     0
281
     0
 65
     1
110
0.0
120
0.0
130
0.0
111
1.0
121
0.0
131
0.0
112
0.0
122
1.0
132
0.0
 79
     0
146
0.0
  0
VPORT
  5
318345E5
330
3183249F
100
AcDbSymbolTableRecord
100
AcDbViewportTableRecord
  2
*Active
 70
     0
 10
0.0
 20
0.0
 11
1.0
 21
1.0
 12
452.5274072136547
 22
341.2501460179147
 13
0.0
 23
0.0
 14
1.0
 24
1.0
 15
10.0
 25
10.0
 16
0.0
 26
0.0
 36
1.0
 17
0.0
 27
0.0
 37
0.0
 40
687.7181715169338
 41
1.588383838383838
 42
50.0
 43
0.0
 44
0.0
 50
0.0
 51
0.0
 71
     0
 72
   500
 73
     1
 74
     0
 75
     0
 76
     0
 77
     0
 78
     0
281
     0
 65
     1
110
0.0
120
0.0
130
0.0
111
1.0
121
0.0
131
0.0
112
0.0
122
1.0
132
0.0
 79
     0
146
0.0
  0
ENDTAB
  0
TABLE
  2
LTYPE
  5
3183249C
330
0
100
AcDbSymbolTable
 70
     4
  0
LTYPE
  5
318324A9
330
3183249C
100
AcDbSymbolTableRecord
100
AcDbLinetypeTableRecord
  2
BYBLOCK
 70
     0
  3

 72
    65
 73
     0
 40
0.0
  0
LTYPE
  5
318324AA
330
3183249C
100
AcDbSymbolTableRecord
100
AcDbLinetypeTableRecord
  2
BYLAYER
 70
     0
  3

 72
    65
 73
     0
 40
0.0
  0
LTYPE
  5
318324AB
330
3183249C
100
AcDbSymbolTableRecord
100
AcDbLinetypeTableRecord
  2
CONTINUOUS
 70
     0
  3
実線
 72
    65
 73
     0
 40
0.0
  0
LTYPE
  5
31832AE1
330
3183249C
100
AcDbSymbolTableRecord
100
AcDbLinetypeTableRecord
  2
DASHED
 70
     0
  3
Dashed __ __ __ __ __ __ __ __ __ __ __ __ __ _
 72
    65
 73
     2
 40
0.75
 49
0.5
 74
     0
 49
-0.25
 74
     0
  0
LTYPE
  5
31832AEF
330
3183249C
100
AcDbSymbolTableRecord
100
AcDbLinetypeTableRecord
  2
PHANTOM
 70
     0
  3
_____ _ _ _____ _ _ _____ _ _ _____ _ _ ____
 72
    65
 73
     6
 40
2.5
 49
1.25
 74
     0
 49
-0.25
 74
     0
 49
0.25
 74
     0
 49
-0.25
 74
     0
 49
0.25
 74
     0
 49
-0.25
 74
     0
  0
LTYPE
  5
31833D5A
330
3183249C
100
AcDbSymbolTableRecord
100
AcDbLinetypeTableRecord
  2
CENTER
 70
     0
  3
____ _ ____ _ ____ _ ____ _ ____ _ ____ _ ____
 72
    65
 73
     4
 40
2.0
 49
1.25
 74
     0
 49
-0.25
 74
     0
 49
0.25
 74
     0
 49
-0.25
 74
     0
  0
ENDTAB
  0
TABLE
  2
LAYER
  5
31832499
102
{ACAD_XDICTIONARY
360
31833657
102
}
330
0
100
AcDbSymbolTable
 70
    13
  0
LAYER
  5
318324A6
330
31832499
100
AcDbSymbolTableRecord
100
AcDbLayerTableRecord
  2
0
 70
     0
 62
     7
  6
CONTINUOUS
370
    -3
390
318327C0
  0
LAYER
  5
318324D2
330
31832499
100
AcDbSymbolTableRecord
100
AcDbLayerTableRecord
  2
SUNPOU
 70
     0
 62
     3
  6
CONTINUOUS
370
    -3
390
318327C0
  0
LAYER
  5
318324D5
330
31832499
100
AcDbSymbolTableRecord
100
AcDbLayerTableRecord
  2
JISSEN
 70
     0
 62
     7
  6
CONTINUOUS
370
    -3
390
318327C0
  0
LAYER
  5
318324D9
330
31832499
100
AcDbSymbolTableRecord
100
AcDbLayerTableRecord
  2
WAKU
 70
     0
 62
     5
  6
CONTINUOUS
370
    -3
390
318327C0
  0
LAYER
  5
3183283F
330
31832499
100
AcDbSymbolTableRecord
100
AcDbLayerTableRecord
  2
SAISEN
 70
     0
 62
     4
  6
CONTINUOUS
370
    -3
390
318327C0
  0
LAYER
  5
31832AE2
330
31832499
100
AcDbSymbolTableRecord
100
AcDbLayerTableRecord
  2
TENSEN
 70
     0
 62
     3
  6
DASHED
370
    -3
390
318327C0
  0
LAYER
  5
31832AF0
330
31832499
100
AcDbSymbolTableRecord
100
AcDbLayerTableRecord
  2
NITEN
 70
     0
 62
     2
  6
PHANTOM
370
    -3
390
318327C0
  0
LAYER
  5
31832CC7
330
31832499
100
AcDbSymbolTableRecord
100
AcDbLayerTableRecord
  2
DEFPOINTS
 70
     0
 62
     7
  6
CONTINUOUS
290
     0
370
    -3
390
318327C0
  0
LAYER
  5
31833655
330
31832499
100
AcDbSymbolTableRecord
100
AcDbLayerTableRecord
  2
TEXT
 70
     0
 62
     3
  6
CONTINUOUS
370
    -3
390
318327C0
  0
LAYER
  5
31833680
330
31832499
100
AcDbSymbolTableRecord
100
AcDbLayerTableRecord
  2
HATCH
 70
     0
 62
     4
  6
CONTINUOUS
370
    -3
390
318327C0
  0
LAYER
  5
31833681
330
31832499
100
AcDbSymbolTableRecord
100
AcDbLayerTableRecord
  2
HOJO
 70
     0
 62
    14
  6
CONTINUOUS
370
    -3
390
318327C0
  0
LAYER
  5
31833D5B
330
31832499
100
AcDbSymbolTableRecord
100
AcDbLayerTableRecord
  2
ITTEN
 70
     0
 62
     1
  6
CENTER
370
    -3
390
318327C0
  0
LAYER
  5
31833D5C
330
31832499
100
AcDbSymbolTableRecord
100
AcDbLayerTableRecord
  2
HOJYO
 70
     0
 62
     7
  6
CONTINUOUS
370
    -3
390
318327C0
  0
ENDTAB
  0
TABLE
  2
STYLE
  5
3183249A
330
0
100
AcDbSymbolTable
 70
     4
  0
STYLE
  5
318324A7
330
3183249A
100
AcDbSymbolTableRecord
100
AcDbTextStyleTableRecord
  2
STANDARD
 70
     0
 40
0.0
 41
1.0
 50
0.0
 71
     0
 42
0.2
  3
ROMANS
  4
EXTFONT
  0
STYLE
  5
318324BE
330
3183249A
100
AcDbSymbolTableRecord
100
AcDbTextStyleTableRecord
  2
K
 70
     0
 40
0.0
 41
1.0
 50
0.0
 71
     0
 42
3.0
  3
ROMANS.shx
  4
bigfont.shx
  0
STYLE
  5
31833656
330
3183249A
100
AcDbSymbolTableRecord
100
AcDbTextStyleTableRecord
  2
BIGFONT
 70
     0
 40
0.0
 41
1.0
 50
0.0
 71
     0
 42
3.0
  3
txt.shx
  4
bigfont
  0
STYLE
  5
318340E2
330
3183249A
100
AcDbSymbolTableRecord
100
AcDbTextStyleTableRecord
  2
DIMENSION
 70
     0
 40
0.0
 41
1.0
 50
0.0
 71
     0
 42
2.5
  3
TXT
  4

  0
ENDTAB
  0
TABLE
  2
VIEW
  5
3183249D
330
0
100
AcDbSymbolTable
 70
     0
  0
ENDTAB
  0
TABLE
  2
UCS
  5
3183249E
330
0
100
AcDbSymbolTable
 70
     0
  0
ENDTAB
  0
TABLE
  2
APPID
  5
318324A0
330
0
100
AcDbSymbolTable
 70
     1
  0
APPID
  5
318324A8
330
318324A0
100
AcDbSymbolTableRecord
100
AcDbRegAppTableRecord
  2
ACAD
 70
     0
  0
ENDTAB
  0
TABLE
  2
DIMSTYLE
  5
318324A1
330
0
100
AcDbSymbolTable
 70
     2
100
AcDbDimStyleTable
 71
     0
  0
DIMSTYLE
105
318324CD
330
318324A1
100
AcDbSymbolTableRecord
100
AcDbDimStyleTableRecord
  2
IMAO
 70
     0
 41
1.5
 42
0.75
 43
6.0
 44
1.0
 47
495.0
 73
     0
 74
     0
 77
     3
 78
     8
140
3.0
141
0.0
147
1.0
172
     1
173
     1
174
     1
176
   256
177
   256
178
   256
271
     2
272
     2
340
318324BE
341
318324B9
342
318324B9
343
318324B9
344
318324B9
  0
DIMSTYLE
105
318340E3
330
318324A1
100
AcDbSymbolTableRecord
100
AcDbDimStyleTableRecord
  2
STANDARD
 70
     0
 41
2.0
 42
0.1
 43
10.0
 44
1.5
 73
     0
 74
     0
 78
     8
140
3.0
145
1.0
147
0.1
172
     1
176
   256
177
   256
178
   256
271
     2
272
     2
284
     8
340
318340E2
341
318340D8
342
318340D8
  0
ENDTAB
  0
TABLE
  2
BLOCK_RECORD
  5
31832498
330
0
100
AcDbSymbolTable
 70
     4
  0
BLOCK_RECORD
  5
318324AF
102
{ACAD_XDICTIONARY
360
318335CC
102
}
330
31832498
100
AcDbSymbolTableRecord
100
AcDbBlockTableRecord
  2
*MODEL_SPACE
340
31833651
  0
BLOCK_RECORD
  5
318324AC
102
{ACAD_XDICTIONARY
360
318335CA
102
}
330
31832498
100
AcDbSymbolTableRecord
100
AcDbBlockTableRecord
  2
*PAPER_SPACE
340
31833652
  0
BLOCK_RECORD
  5
318324B9
330
31832498
100
AcDbSymbolTableRecord
100
AcDbBlockTableRecord
  2
ARROWANG
340
0
  0
BLOCK_RECORD
  5
31832839
330
31832498
100
AcDbSymbolTableRecord
100
AcDbBlockTableRecord
  2
ARROW
340
0
  0
BLOCK_RECORD
  5
318340D8
330
31832498
100
AcDbSymbolTableRecord
100
AcDbBlockTableRecord
  2
AR_OPEN
340
0
  0
BLOCK_RECORD
  5
318340DE
330
31832498
100
AcDbSymbolTableRecord
100
AcDbBlockTableRecord
  2
A$CB243
340
0
102
{BLKREFS
331
31834458
331
3183459D
102
}
  0
ENDTAB
  0
ENDSEC
  0
SECTION
  2
BLOCKS
  0
BLOCK
  5
318324DE
330
318324AF
100
AcDbEntity
  8
0
100
AcDbBlockBegin
  2
*MODEL_SPACE
 70
     0
 10
0.0
 20
0.0
 30
0.0
  3
*MODEL_SPACE
  1

  0
ENDBLK
  5
318324DF
330
318324AF
100
AcDbEntity
  8
0
100
AcDbBlockEnd
  0
BLOCK
  5
318324DC
330
318324AC
100
AcDbEntity
 67
     1
  8
0
100
AcDbBlockBegin
  2
*PAPER_SPACE
 70
     0
 10
0.0
 20
0.0
 30
0.0
  3
*PAPER_SPACE
  1

  0
ENDBLK
  5
318324DD
330
318324AC
100
AcDbEntity
 67
     1
  8
0
100
AcDbBlockEnd
  0
BLOCK
  5
1D
330
318324B9
100
AcDbEntity
  8
0
100
AcDbBlockBegin
  2
ARROWANG
 70
     0
 10
0.0
 20
0.0
 30
0.0
  3
ARROWANG
  1

  0
LINE
  5
1E
330
318324B9
100
AcDbEntity
  8
SUNPOU
100
AcDbLine
 10
0.0
 20
0.0
 30
0.0
 11
-1.499999999999956
 21
0.401923788646741
 31
0.0
  0
LINE
  5
1F
330
318324B9
100
AcDbEntity
  8
SUNPOU
100
AcDbLine
 10
0.0
 20
0.0
 30
0.0
 11
-1.500000000000027
 21
-0.4019237886467124
 31
0.0
  0
ENDBLK
  5
20
330
318324B9
100
AcDbEntity
  8
0
100
AcDbBlockEnd
  0
BLOCK
  5
3183283D
330
31832839
100
AcDbEntity
  8
0
100
AcDbBlockBegin
  2
ARROW
 70
     0
 10
1.0
 20
0.5
 30
0.0
  3
ARROW
  1

  0
LINE
  5
3183283A
330
31832839
100
AcDbEntity
  8
0
100
AcDbLine
 10
1.0
 20
0.5
 30
0.0
 11
-0.5000000000000214
 21
0.0980762113533018
 31
0.0
  0
LINE
  5
3183283B
330
31832839
100
AcDbEntity
  8
0
100
AcDbLine
 10
0.0
 20
0.5
 30
0.0
 11
1.0
 21
0.5
 31
0.0
  0
LINE
  5
3183283C
330
31832839
100
AcDbEntity
  8
0
100
AcDbLine
 10
1.0
 20
0.5
 30
0.0
 11
-0.4999999999999575
 21
0.9019237886467408
 31
0.0
  0
ENDBLK
  5
3183283E
330
31832839
100
AcDbEntity
  8
0
100
AcDbBlockEnd
  0
BLOCK
  5
318340DC
330
318340D8
100
AcDbEntity
  8
0
100
AcDbBlockBegin
  2
AR_OPEN
 70
     0
 10
0.0
 20
0.0
 30
0.0
  3
AR_OPEN
  1

  0
LINE
  5
318340D9
330
318340D8
100
AcDbEntity
  8
0
 62
     0
100
AcDbLine
 10
-1.0
 20
0.0
 30
0.0
 11
0.0
 21
0.0
 31
0.0
  0
LINE
  5
318340DA
330
318340D8
100
AcDbEntity
  8
0
 62
     0
100
AcDbLine
 10
0.0
 20
0.0
 30
0.0
 11
-1.0
 21
0.2679491924311037
 31
0.0
  0
LINE
  5
318340DB
330
318340D8
100
AcDbEntity
  8
0
 62
     0
100
AcDbLine
 10
0.0
 20
0.0
 30
0.0
 11
-1.0
 21
-0.2679491924311037
 31
0.0
  0
ENDBLK
  5
318340DD
330
318340D8
100
AcDbEntity
  8
0
100
AcDbBlockEnd
  0
BLOCK
  5
318340E0
330
318340DE
100
AcDbEntity
  8
0
100
AcDbBlockBegin
  2
A$CB243
 70
     0
 10
0.0
 20
0.0
 30
0.0
  3
A$CB243
  1

  0
TEXT
  5
318340DF
330
318340DE
100
AcDbEntity
  8
JISSEN
100
AcDbText
 10
-0.5522164272435931
 20
0.0127586869241796
 30
0.0
 40
3.0
  1
E
  7
K
 72
     4
 11
0.947783572756407
 21
1.512758686924179
 31
0.0
100
AcDbText
  0
ENDBLK
  5
318340E1
330
318340DE
100
AcDbEntity
  8
0
100
AcDbBlockEnd
  0
ENDSEC
  0
SECTION
  2
ENTITIES
  0
TEXT
  5
31833B27
330
318324AF
100
AcDbEntity
  8
SUNPOU
100
AcDbText
 10
768.2116295403035
 20
346.4990095710813
 30
0.0
 40
6.0
  1
A4 用紙、印刷尺度：1/2
  7
K
100
AcDbText
  0
TEXT
  5
31833B28
330
318324AF
100
AcDbEntity
  8
SUNPOU
100
AcDbText
 10
768.2116295403035
 20
355.9990095710813
 30
0.0
 40
6.0
  1
防護板 R 取付状態（ヘッドはEPQR型）
  7
K
100
AcDbText
  0
LINE
  5
31833B2D
330
318324AF
100
AcDbEntity
  8
WAKU
100
AcDbLine
 10
904.9999963999999
 20
341.2499999999998
 30
0.0
 11
452.4999981999997
 21
341.2499999999998
 31
0.0
  0
TEXT
  5
31833B32
330
318324AF
100
AcDbEntity
  8
SUNPOU
100
AcDbText
 10
740.5488992852482
 20
14.7490095710815
 30
0.0
 40
6.0
  1
防護板 R 取付状態（断面図、ヘッドはEPQR型）
  7
K
100
AcDbText
  0
TEXT
  5
31833B33
330
318324AF
100
AcDbEntity
  8
SUNPOU
100
AcDbText
 10
740.5488992852482
 20
5.249009571081501
 30
0.0
 40
6.0
  1
A4 用紙、印刷尺度：1/2
  7
K
100
AcDbText
  0
LWPOLYLINE
  5
31833B34
330
318324AF
100
AcDbEntity
  8
WAKU
100
AcDbPolyline
 90
        4
 70
     1
 43
0.0
 10
452.4999981999997
 20
0.0
 10
904.9999963999999
 20
0.0
 10
904.9999963999999
 20
682.4999999999999
 10
452.4999981999997
 20
682.4999999999999
  0
TEXT
  5
31833B35
330
318324AF
100
AcDbEntity
  8
SUNPOU
100
AcDbText
 10
354.4599867505321
 20
5.249009571081501
 30
0.0
 40
6.0
  1
A4 用紙、印刷尺度：1/2
  7
K
100
AcDbText
  0
TEXT
  5
31833B36
330
318324AF
100
AcDbEntity
  8
SUNPOU
100
AcDbText
 10
354.4599867505321
 20
14.7490095710815
 30
0.0
 40
6.0
  1
防護板 R
  7
K
100
AcDbText
  0
LWPOLYLINE
  5
31833B37
330
318324AF
100
AcDbEntity
  8
WAKU
100
AcDbPolyline
 90
        4
 70
     1
 43
0.0
 10
0.0
 20
0.0
 10
452.4999981999997
 20
0.0
 10
452.4999981999997
 20
682.4999999999999
 10
0.0
 20
682.4999999999999
  0
CIRCLE
  5
31833DE5
330
318324AF
100
AcDbEntity
  8
JISSEN
100
AcDbCircle
 10
226.2499990999997
 20
286.8292574057426
 30
0.0
 40
199.1999999999999
  0
CIRCLE
  5
31833DE6
330
318324AF
100
AcDbEntity
  8
JISSEN
100
AcDbCircle
 10
226.2499990999997
 20
286.8292574057427
 30
0.0
 40
15.7
  0
CIRCLE
  5
31833E14
330
318324AF
100
AcDbEntity
  8
JISSEN
100
AcDbCircle
 10
226.2499990999997
 20
286.8292574057424
 30
0.0
 40
13.4
  0
CIRCLE
  5
31833E15
330
318324AF
100
AcDbEntity
  8
JISSEN
100
AcDbCircle
 10
226.2499990999997
 20
286.8292574057424
 30
0.0
 40
17.5
  0
LINE
  5
31833E17
330
318324AF
100
AcDbEntity
  8
JISSEN
100
AcDbLine
 10
44.24999909999974
 20
592.9087684190935
 30
0.0
 11
226.2499990999997
 21
592.9087684190932
 31
0.0
  0
ARC
  5
31833E1B
330
318324AF
100
AcDbEntity
  8
HOJYO
100
AcDbCircle
 10
210.3499990999996
 20
594.6087684190935
 30
0.0
 40
1.699999999999991
100
AcDbArc
 50
90.0
 51
270.0
  0
LINE
  5
31833E1C
330
318324AF
100
AcDbEntity
  8
0
100
AcDbLine
 10
210.3499990999996
 20
596.3087684190935
 30
0.0
 11
226.2499990999997
 21
596.3087684190935
 31
0.0
  0
LWPOLYLINE
  5
31833E2B
330
318324AF
100
AcDbEntity
  8
JISSEN
100
AcDbPolyline
 90
        3
 70
     0
 43
0.0
 10
44.24999909999974
 20
592.9087684190935
 42
0.4142135623730951
 10
26.24999909999974
 20
574.9087684190934
 10
26.24999909999974
 20
572.9087684190934
  0
LINE
  5
31833E2C
330
318324AF
100
AcDbEntity
  8
JISSEN
100
AcDbLine
 10
26.24999909999974
 20
572.9087684190934
 30
0.0
 11
426.2499990999999
 21
572.9087684190934
 31
0.0
  0
CIRCLE
  5
31833E32
330
318324AF
100
AcDbEntity
  8
JISSEN
100
AcDbCircle
 10
226.2499990999997
 20
286.8292574057426
 30
0.0
 40
200.0
  0
LWPOLYLINE
  5
31833E50
330
318324AF
100
AcDbEntity
  8
JISSEN
100
AcDbPolyline
 90
        3
 70
     0
 43
0.0
 10
408.2499990999996
 20
592.9087684190955
 42
-0.4142135623730951
 10
426.2499990999998
 20
574.9087684190957
 10
426.2499990999998
 20
572.9087684190957
  0
LINE
  5
31833E51
330
318324AF
100
AcDbEntity
  8
0
100
AcDbLine
 10
242.1499990999997
 20
596.3087684190936
 30
0.0
 11
226.2499990999996
 21
596.3087684190935
 31
0.0
  0
ARC
  5
31833E52
330
318324AF
100
AcDbEntity
  8
HOJYO
100
AcDbCircle
 10
242.1499990999997
 20
594.6087684190936
 30
0.0
 40
1.699999999999991
100
AcDbArc
 50
270.0000000000006
 51
90.00000000000063
  0
LINE
  5
31833E53
330
318324AF
100
AcDbEntity
  8
JISSEN
100
AcDbLine
 10
408.2499990999996
 20
592.9087684190955
 30
0.0
 11
226.2499990999996
 21
592.9087684190932
 31
0.0
  0
LINE
  5
31834252
330
318324AF
100
AcDbEntity
  8
NITEN
100
AcDbLine
 10
661.6785163904905
 20
542.317807154616
 30
0.0
 11
695.9558915028272
 21
542.317807154616
 31
0.0
  0
LINE
  5
31834253
330
318324AF
100
AcDbEntity
  8
NITEN
100
AcDbLine
 10
661.6785163904905
 20
542.317807154616
 30
0.0
 11
661.6785163904905
 21
546.3610119391725
 31
0.0
  0
LINE
  5
31834254
330
318324AF
100
AcDbEntity
  8
NITEN
100
AcDbLine
 10
695.9558915028273
 20
542.3178071546159
 30
0.0
 11
695.9558915028273
 21
546.3610119391725
 31
0.0
  0
LINE
  5
31834255
330
318324AF
100
AcDbEntity
  8
NITEN
100
AcDbLine
 10
701.1323004082164
 20
584.317807154616
 30
0.0
 11
656.5021074851015
 21
584.317807154616
 31
0.0
  0
LINE
  5
31834270
330
318324AF
100
AcDbEntity
  8
HOJYO
 62
     7
100
AcDbLine
 10
663.9172039466589
 20
539.4178071546159
 30
0.0
 11
630.502101445634
 21
539.4178071546159
 31
0.0
  0
ARC
  5
31834272
330
318324AF
100
AcDbEntity
  8
NITEN
100
AcDbCircle
 10
699.0971585003481
 20
556.0925210797618
 30
0.0
 40
3.139999999999999
100
AcDbArc
 50
117.10719728779
 51
180.0
  0
ARC
  5
31834273
330
318324AF
100
AcDbEntity
  8
NITEN
100
AcDbCircle
 10
694.5405912109549
 20
564.994076816667
 30
0.0
 40
6.86
100
AcDbArc
 50
297.1071972877899
 51
0.0
  0
LINE
  5
31834274
330
318324AF
100
AcDbEntity
  8
NITEN
100
AcDbLine
 10
701.4005912109548
 20
564.994076816667
 30
0.0
 11
701.4005912109548
 21
584.317807154616
 31
0.0
  0
ARC
  5
31834275
330
318324AF
100
AcDbEntity
  8
NITEN
100
AcDbCircle
 10
663.093816682363
 20
564.994076816667
 30
0.0
 40
6.86
100
AcDbArc
 50
180.0
 51
242.89280271221
  0
LINE
  5
31834276
330
318324AF
100
AcDbEntity
  8
NITEN
100
AcDbLine
 10
656.2338166823629
 20
564.994076816667
 30
0.0
 11
656.2338166823629
 21
584.317807154616
 31
0.0
  0
ARC
  5
31834277
330
318324AF
100
AcDbEntity
  8
NITEN
100
AcDbCircle
 10
658.5372493929699
 20
556.0925210797618
 30
0.0
 40
3.139999999999999
100
AcDbArc
 50
0.0
 51
62.89280271220997
  0
LINE
  5
31834278
330
318324AF
100
AcDbEntity
  8
NITEN
100
AcDbLine
 10
661.6772493929698
 20
546.3610119391725
 30
0.0
 11
661.6772493929698
 21
556.0925210797618
 31
0.0
  0
LINE
  5
31834279
330
318324AF
100
AcDbEntity
  8
NITEN
100
AcDbLine
 10
701.4005912109548
 20
584.317807154616
 30
0.0
 11
656.2338166823629
 21
584.317807154616
 31
0.0
  0
LINE
  5
3183427A
330
318324AF
100
AcDbEntity
  8
NITEN
100
AcDbLine
 10
695.9571585003478
 20
546.3610119391725
 30
0.0
 11
695.9571585003478
 21
556.0925210797616
 31
0.0
  0
LINE
  5
3183427B
330
318324AF
100
AcDbEntity
  8
NITEN
100
AcDbLine
 10
695.9558915028272
 20
542.3178071546159
 30
0.0
 11
695.9558915028272
 21
546.3610119391725
 31
0.0
  0
LINE
  5
3183427C
330
318324AF
100
AcDbEntity
  8
JISSEN
 62
     7
100
AcDbLine
 10
660.4260229917613
 20
480.5868861527484
 30
0.0
 11
697.2083849015562
 21
480.5868861527484
 31
0.0
  0
LINE
  5
3183427D
330
318324AF
100
AcDbEntity
  8
JISSEN
 62
     7
100
AcDbLine
 10
667.5258087963866
 20
483.6472164008405
 30
0.0
 11
669.9179242424984
 21
483.6472164008405
 31
0.0
  0
LINE
  5
3183427E
330
318324AF
100
AcDbEntity
  8
JISSEN
 62
     7
100
AcDbLine
 10
666.0863258257891
 20
483.3859688766192
 30
0.0
 11
664.3172039466589
 21
482.1472164008405
 31
0.0
  0
ARC
  5
3183427F
330
318324AF
100
AcDbEntity
  8
JISSEN
 62
     7
100
AcDbCircle
 10
666.9148971157394
 20
482.2026464404332
 30
0.0
 40
1.444569960407294
100
AcDbArc
 50
73.75821068707036
 51
124.9999999999973
  0
LINE
  5
31834280
330
318324AF
100
AcDbEntity
  8
JISSEN
 62
     7
100
AcDbLine
 10
695.2488564442462
 20
482.1472164008405
 30
0.0
 11
689.8264895486224
 21
482.1472164008405
 31
0.0
  0
LINE
  5
31834281
330
318324AF
100
AcDbEntity
  8
JISSEN
 62
     7
100
AcDbLine
 10
662.3855514490714
 20
482.1472164008405
 30
0.0
 11
660.1672039466588
 21
481.5528119790374
 31
0.0
  0
LINE
  5
31834282
330
318324AF
100
AcDbEntity
  8
JISSEN
 62
     7
100
AcDbLine
 10
660.1672039466588
 20
481.5528119790374
 30
0.0
 11
660.4260229917613
 21
480.5868861527484
 31
0.0
  0
LINE
  5
31834283
330
318324AF
100
AcDbEntity
  8
JISSEN
 62
     7
100
AcDbLine
 10
697.4672039466589
 20
481.5528119790374
 30
0.0
 11
697.2083849015562
 21
480.5868861527484
 31
0.0
  0
LINE
  5
31834284
330
318324AF
100
AcDbEntity
  8
JISSEN
 62
     7
100
AcDbLine
 10
695.2488564442462
 20
482.1472164008405
 30
0.0
 11
697.4672039466589
 21
481.5528119790374
 31
0.0
  0
LINE
  5
31834285
330
318324AF
100
AcDbEntity
  8
JISSEN
 62
     7
100
AcDbLine
 10
660.1672039466588
 20
481.5528119790374
 30
0.0
 11
697.4672039466589
 21
481.5528119790374
 31
0.0
  0
LINE
  5
31834286
330
318324AF
100
AcDbEntity
  8
JISSEN
 62
     7
100
AcDbLine
 10
676.1990285747592
 20
482.1472164008405
 30
0.0
 11
676.4250885005476
 21
483.6472164008404
 31
0.0
  0
LINE
  5
31834287
330
318324AF
100
AcDbEntity
  8
JISSEN
 62
     7
100
AcDbLine
 10
681.4353793185585
 20
482.1472164008405
 30
0.0
 11
681.2093193927703
 21
483.6472164008404
 31
0.0
  0
ARC
  5
31834288
330
318324AF
100
AcDbEntity
  8
JISSEN
 62
     7
100
AcDbCircle
 10
675.0602909106133
 20
482.4472164008405
 30
0.0
 40
0.2
100
AcDbArc
 50
5.744968843018656
 51
151.097435353046
  0
LINE
  5
31834289
330
318324AF
100
AcDbEntity
  8
JISSEN
 62
     7
100
AcDbLine
 10
674.4449397624016
 20
481.7464308143931
 30
0.0
 11
674.8852023318806
 21
482.5438807148215
 31
0.0
  0
LINE
  5
3183428A
330
318324AF
100
AcDbEntity
  8
JISSEN
 62
     7
100
AcDbLine
 10
675.3318037576427
 20
481.7464308143931
 30
0.0
 11
675.259286373004
 21
482.4672365393978
 31
0.0
  0
ARC
  5
3183428B
330
318324AF
100
AcDbEntity
  8
JISSEN
 62
     7
100
AcDbCircle
 10
675.0602909106133
 20
483.3472164008405
 30
0.0
 40
0.3
100
AcDbArc
 50
10.10088849854542
 51
149.3688239434094
  0
ARC
  5
3183428C
330
318324AF
100
AcDbEntity
  8
JISSEN
 62
     7
100
AcDbCircle
 10
670.9170254203777
 20
483.3472164008405
 30
0.0
 40
0.3
100
AcDbArc
 50
90.0
 51
136.8475862726866
  0
LINE
  5
3183428D
330
318324AF
100
AcDbEntity
  8
JISSEN
 62
     7
100
AcDbLine
 10
669.3808047110187
 20
482.1472164008405
 30
0.0
 11
670.6981643450586
 21
483.5523988311557
 31
0.0
  0
LINE
  5
3183428E
330
318324AF
100
AcDbEntity
  8
JISSEN
 62
     7
100
AcDbLine
 10
674.0010825556603
 20
482.1472164008405
 30
0.0
 11
674.8021514353572
 21
483.5000693082858
 31
0.0
  0
LINE
  5
3183428F
330
318324AF
100
AcDbEntity
  8
JISSEN
 62
     7
100
AcDbLine
 10
675.5787857332261
 20
482.1472164008405
 30
0.0
 11
675.3556410487345
 21
483.3998309987355
 31
0.0
  0
ARC
  5
31834290
330
318324AF
100
AcDbEntity
  8
JISSEN
 62
     7
100
AcDbCircle
 10
669.9179242424984
 20
482.3472164008405
 30
0.0
 40
0.3
100
AcDbArc
 50
105.0811026956631
 51
130.5351441776976
  0
ARC
  5
31834291
330
318324AF
100
AcDbEntity
  8
JISSEN
 62
     7
100
AcDbCircle
 10
669.9179242424984
 20
483.2472164008405
 30
0.0
 40
0.4
100
AcDbArc
 50
36.49434247471306
 51
127.2116074547733
  0
LINE
  5
31834292
330
318324AF
100
AcDbEntity
  8
JISSEN
 62
     7
100
AcDbLine
 10
669.2224456829322
 20
482.1472164008405
 30
0.0
 11
669.7229499389486
 21
482.5752186397665
 31
0.0
  0
LINE
  5
31834293
330
318324AF
100
AcDbEntity
  8
JISSEN
 62
     7
100
AcDbLine
 10
667.8079183446953
 20
482.1472164008405
 30
0.0
 11
669.6760200544586
 21
483.5657793676286
 31
0.0
  0
LINE
  5
31834294
330
318324AF
100
AcDbEntity
  8
JISSEN
 62
     7
100
AcDbLine
 10
670.413974578948
 20
483.2492633350504
 30
0.0
 11
670.2394904788798
 21
483.4851137644649
 31
0.0
  0
ARC
  5
31834295
330
318324AF
100
AcDbEntity
  8
JISSEN
 62
     7
100
AcDbCircle
 10
667.5258087963866
 20
483.2472164008405
 30
0.0
 40
0.4
100
AcDbArc
 50
90.0
 51
123.5149823134535
  0
LINE
  5
31834296
330
318324AF
100
AcDbEntity
  8
JISSEN
 62
     7
100
AcDbLine
 10
665.1403996873605
 20
482.1472164008405
 30
0.0
 11
667.3049467884561
 21
483.5807129877089
 31
0.0
  0
LINE
  5
31834297
330
318324AF
100
AcDbEntity
  8
JISSEN
 62
     7
100
AcDbLine
 10
676.4250885005476
 20
483.6472164008404
 30
0.0
 11
681.2093193927703
 21
483.6472164008404
 31
0.0
  0
LINE
  5
31834298
330
318324AF
100
AcDbEntity
  8
JISSEN
 62
     7
100
AcDbLine
 10
670.9170254203777
 20
483.6472164008405
 30
0.0
 11
675.0602909106133
 21
483.6472164008404
 31
0.0
  0
LINE
  5
31834299
330
318324AF
100
AcDbEntity
  8
JISSEN
 62
     7
100
AcDbLine
 10
686.71738247294
 20
483.6472164008404
 30
0.0
 11
682.5741169827047
 21
483.6472164008404
 31
0.0
  0
LINE
  5
3183429A
330
318324AF
100
AcDbEntity
  8
JISSEN
 62
     7
100
AcDbLine
 10
692.4940082059572
 20
482.1472164008405
 30
0.0
 11
690.3294611048614
 21
483.5807129877089
 31
0.0
  0
ARC
  5
3183429B
330
318324AF
100
AcDbEntity
  8
JISSEN
 62
     7
100
AcDbCircle
 10
690.1085990969309
 20
483.2472164008405
 30
0.0
 40
0.4
100
AcDbArc
 50
56.48501768654646
 51
90.0
  0
LINE
  5
3183429C
330
318324AF
100
AcDbEntity
  8
JISSEN
 62
     7
100
AcDbLine
 10
687.2204333143697
 20
483.2492633350504
 30
0.0
 11
687.3949174144379
 21
483.4851137644649
 31
0.0
  0
LINE
  5
3183429D
330
318324AF
100
AcDbEntity
  8
JISSEN
 62
     7
100
AcDbLine
 10
689.8264895486227
 20
482.1472164008405
 30
0.0
 11
687.9583878388591
 21
483.5657793676286
 31
0.0
  0
LINE
  5
3183429E
330
318324AF
100
AcDbEntity
  8
JISSEN
 62
     7
100
AcDbLine
 10
688.4119622103853
 20
482.1472164008405
 30
0.0
 11
687.9114579543693
 21
482.5752186397665
 31
0.0
  0
ARC
  5
3183429F
330
318324AF
100
AcDbEntity
  8
JISSEN
 62
     7
100
AcDbCircle
 10
687.7164836508195
 20
483.2472164008405
 30
0.0
 40
0.4
100
AcDbArc
 50
52.78839254522664
 51
143.5056575252843
  0
ARC
  5
318342A0
330
318324AF
100
AcDbEntity
  8
JISSEN
 62
     7
100
AcDbCircle
 10
687.7164836508195
 20
482.3472164008405
 30
0.0
 40
0.3
100
AcDbArc
 50
49.46485582230234
 51
74.91889730433678
  0
LINE
  5
318342A1
330
318324AF
100
AcDbEntity
  8
JISSEN
 62
     7
100
AcDbLine
 10
682.0556221600916
 20
482.1472164008405
 30
0.0
 11
682.2787668445831
 21
483.3998309987355
 31
0.0
  0
LINE
  5
318342A2
330
318324AF
100
AcDbEntity
  8
JISSEN
 62
     7
100
AcDbLine
 10
683.6333253376574
 20
482.1472164008405
 30
0.0
 11
682.8322564579607
 21
483.5000693082858
 31
0.0
  0
LINE
  5
318342A3
330
318324AF
100
AcDbEntity
  8
JISSEN
 62
     7
100
AcDbLine
 10
688.2536031822992
 20
482.1472164008405
 30
0.0
 11
686.9362435482594
 21
483.5523988311557
 31
0.0
  0
ARC
  5
318342A4
330
318324AF
100
AcDbEntity
  8
JISSEN
 62
     7
100
AcDbCircle
 10
686.71738247294
 20
483.3472164008405
 30
0.0
 40
0.3
100
AcDbArc
 50
43.15241372731336
 51
90.0
  0
ARC
  5
318342A5
330
318324AF
100
AcDbEntity
  8
JISSEN
 62
     7
100
AcDbCircle
 10
682.5741169827047
 20
483.3472164008405
 30
0.0
 40
0.3
100
AcDbArc
 50
30.63117605659055
 51
169.8991115014545
  0
LINE
  5
318342A6
330
318324AF
100
AcDbEntity
  8
JISSEN
 62
     7
100
AcDbLine
 10
682.3026041356747
 20
481.7464308143931
 30
0.0
 11
682.3751215203137
 21
482.4672365393978
 31
0.0
  0
LINE
  5
318342A7
330
318324AF
100
AcDbEntity
  8
JISSEN
 62
     7
100
AcDbLine
 10
683.1894681309163
 20
481.7464308143931
 30
0.0
 11
682.7492055614371
 21
482.5438807148215
 31
0.0
  0
ARC
  5
318342A8
330
318324AF
100
AcDbEntity
  8
JISSEN
 62
     7
100
AcDbCircle
 10
682.5741169827047
 20
482.4472164008405
 30
0.0
 40
0.2
100
AcDbArc
 50
28.90256464695113
 51
174.2550311569813
  0
ARC
  5
318342A9
330
318324AF
100
AcDbEntity
  8
JISSEN
 62
     7
100
AcDbCircle
 10
690.7195107775783
 20
482.2026464404332
 30
0.0
 40
1.444569960407294
100
AcDbArc
 50
55.00000000000263
 51
106.2417893129296
  0
LINE
  5
318342AA
330
318324AF
100
AcDbEntity
  8
JISSEN
 62
     7
100
AcDbLine
 10
691.5480820675284
 20
483.3859688766192
 30
0.0
 11
693.3172039466588
 21
482.1472164008405
 31
0.0
  0
LINE
  5
318342AB
330
318324AF
100
AcDbEntity
  8
JISSEN
 62
     7
100
AcDbLine
 10
690.1085990969309
 20
483.6472164008404
 30
0.0
 11
687.7164836508195
 21
483.6472164008404
 31
0.0
  0
LINE
  5
318342AC
330
318324AF
100
AcDbEntity
  8
JISSEN
 62
     7
100
AcDbLine
 10
673.046983450944
 20
481.7464308143931
 30
0.0
 11
675.537526693314
 21
481.7464308143931
 31
0.0
  0
LINE
  5
318342AD
330
318324AF
100
AcDbEntity
  8
JISSEN
 62
     7
100
AcDbLine
 10
673.3086016984138
 20
482.1472164008405
 30
0.0
 11
672.9904062501009
 21
481.9288869866593
 31
0.0
  0
LINE
  5
318342AE
330
318324AF
100
AcDbEntity
  8
JISSEN
 62
     7
100
AcDbLine
 10
675.847404148973
 20
482.1472164008405
 30
0.0
 11
675.621899580409
 21
481.7927538554327
 31
0.0
  0
ARC
  5
318342AF
330
318324AF
100
AcDbEntity
  8
JISSEN
 62
     7
100
AcDbCircle
 10
673.046983450944
 20
481.8464308143931
 30
0.0
 40
0.1
100
AcDbArc
 50
124.4559181407101
 51
270.0
  0
ARC
  5
318342B0
330
318324AF
100
AcDbEntity
  8
JISSEN
 62
     7
100
AcDbCircle
 10
675.537526693314
 20
481.8464308143931
 30
0.0
 40
0.1
100
AcDbArc
 50
270.0
 51
327.5359996091672
  0
LINE
  5
318342B1
330
318324AF
100
AcDbEntity
  8
JISSEN
 62
     7
100
AcDbLine
 10
674.0010825556603
 20
482.1472164008405
 30
0.0
 11
668.1647575605138
 21
482.1472164008405
 31
0.0
  0
LINE
  5
318342B2
330
318324AF
100
AcDbEntity
  8
JISSEN
 62
     7
100
AcDbLine
 10
666.306225176324
 20
482.1472164008405
 30
0.0
 11
665.3482319604076
 21
481.8441014992139
 31
0.0
  0
LINE
  5
318342B3
330
318324AF
100
AcDbEntity
  8
JISSEN
 62
     7
100
AcDbLine
 10
665.3633152560928
 20
481.7464308143931
 30
0.0
 11
667.101333937185
 21
481.7464308143931
 31
0.0
  0
LINE
  5
318342B4
330
318324AF
100
AcDbEntity
  8
JISSEN
 62
     7
100
AcDbLine
 10
667.1741208509338
 20
481.7601459111215
 30
0.0
 11
668.1647575605138
 21
482.1472164008405
 31
0.0
  0
ARC
  5
318342B5
330
318324AF
100
AcDbEntity
  8
JISSEN
 62
     7
100
AcDbCircle
 10
665.3633152560928
 20
481.7964308143931
 30
0.0
 40
0.05
100
AcDbArc
 50
107.5576892691885
 51
270.0
  0
ARC
  5
318342B6
330
318324AF
100
AcDbEntity
  8
JISSEN
 62
     7
100
AcDbCircle
 10
667.101333937185
 20
481.9464308143931
 30
0.0
 40
0.2
100
AcDbArc
 50
270.0
 51
291.3420289477831
  0
LINE
  5
318342B7
330
318324AF
100
AcDbEntity
  8
JISSEN
 62
     7
100
AcDbLine
 10
667.8079183446953
 20
482.1472164008405
 30
0.0
 11
662.3855514490714
 21
482.1472164008405
 31
0.0
  0
LINE
  5
318342B8
330
318324AF
100
AcDbEntity
  8
JISSEN
 62
     7
100
AcDbLine
 10
662.6561553122683
 20
482.1472164008405
 30
0.0
 11
661.2441704353122
 21
481.795690308408
 31
0.0
  0
LINE
  5
318342B9
330
318324AF
100
AcDbEntity
  8
JISSEN
 62
     7
100
AcDbLine
 10
661.2502100503779
 20
481.7464308143931
 30
0.0
 11
661.7888725536536
 21
481.7464308143931
 31
0.0
  0
LINE
  5
318342BA
330
318324AF
100
AcDbEntity
  8
JISSEN
 62
     7
100
AcDbLine
 10
661.8398128032254
 20
481.7530268563841
 30
0.0
 11
663.336425378638
 21
482.1472164008405
 31
0.0
  0
ARC
  5
318342BB
330
318324AF
100
AcDbEntity
  8
JISSEN
 62
     7
100
AcDbCircle
 10
661.2502100503779
 20
481.7714308143932
 30
0.0
 40
0.025
100
AcDbArc
 50
103.9800837763819
 51
270.0
  0
ARC
  5
318342BC
330
318324AF
100
AcDbEntity
  8
JISSEN
 62
     7
100
AcDbCircle
 10
661.7888725536536
 20
481.9464308143931
 30
0.0
 40
0.2
100
AcDbArc
 50
270.0
 51
284.7558834101996
  0
ARC
  5
318342BD
330
318324AF
100
AcDbEntity
  8
JISSEN
 62
     7
100
AcDbCircle
 10
682.0968812000037
 20
481.8464308143931
 30
0.0
 40
0.1
100
AcDbArc
 50
212.4640003908327
 51
270.0
  0
ARC
  5
318342BE
330
318324AF
100
AcDbEntity
  8
JISSEN
 62
     7
100
AcDbCircle
 10
684.5874244423737
 20
481.8464308143931
 30
0.0
 40
0.1
100
AcDbArc
 50
270.0
 51
55.54408185928989
  0
LINE
  5
318342BF
330
318324AF
100
AcDbEntity
  8
JISSEN
 62
     7
100
AcDbLine
 10
681.7870037443449
 20
482.1472164008405
 30
0.0
 11
682.0125083129087
 21
481.7927538554327
 31
0.0
  0
LINE
  5
318342C0
330
318324AF
100
AcDbEntity
  8
JISSEN
 62
     7
100
AcDbLine
 10
684.3258061949038
 20
482.1472164008405
 30
0.0
 11
684.6440016432166
 21
481.9288869866593
 31
0.0
  0
LINE
  5
318342C1
330
318324AF
100
AcDbEntity
  8
JISSEN
 62
     7
100
AcDbLine
 10
684.5874244423737
 20
481.7464308143931
 30
0.0
 11
682.0968812000037
 21
481.7464308143931
 31
0.0
  0
ARC
  5
318342C2
330
318324AF
100
AcDbEntity
  8
JISSEN
 62
     7
100
AcDbCircle
 10
690.5330739561327
 20
481.9464308143931
 30
0.0
 40
0.2
100
AcDbArc
 50
248.6579710522168
 51
270.0
  0
ARC
  5
318342C3
330
318324AF
100
AcDbEntity
  8
JISSEN
 62
     7
100
AcDbCircle
 10
692.2710926372249
 20
481.7964308143931
 30
0.0
 40
0.05
100
AcDbArc
 50
270.0
 51
72.44231073081144
  0
LINE
  5
318342C4
330
318324AF
100
AcDbEntity
  8
JISSEN
 62
     7
100
AcDbLine
 10
690.4602870423839
 20
481.7601459111214
 30
0.0
 11
689.4696503328041
 21
482.1472164008405
 31
0.0
  0
LINE
  5
318342C5
330
318324AF
100
AcDbEntity
  8
JISSEN
 62
     7
100
AcDbLine
 10
692.2710926372249
 20
481.7464308143931
 30
0.0
 11
690.5330739561327
 21
481.7464308143931
 31
0.0
  0
LINE
  5
318342C6
330
318324AF
100
AcDbEntity
  8
JISSEN
 62
     7
100
AcDbLine
 10
691.3281827169935
 20
482.1472164008405
 30
0.0
 11
692.2861759329098
 21
481.8441014992139
 31
0.0
  0
ARC
  5
318342C7
330
318324AF
100
AcDbEntity
  8
JISSEN
 62
     7
100
AcDbCircle
 10
695.8455353396641
 20
481.9464308143931
 30
0.0
 40
0.2
100
AcDbArc
 50
255.2441165898004
 51
270.0
  0
ARC
  5
318342C8
330
318324AF
100
AcDbEntity
  8
JISSEN
 62
     7
100
AcDbCircle
 10
696.3841978429395
 20
481.7714308143932
 30
0.0
 40
0.025
100
AcDbArc
 50
270.0
 51
76.01991622361808
  0
LINE
  5
318342C9
330
318324AF
100
AcDbEntity
  8
JISSEN
 62
     7
100
AcDbLine
 10
695.7945950900923
 20
481.7530268563841
 30
0.0
 11
694.2979825146799
 21
482.1472164008405
 31
0.0
  0
LINE
  5
318342CA
330
318324AF
100
AcDbEntity
  8
JISSEN
 62
     7
100
AcDbLine
 10
696.3841978429395
 20
481.7464308143931
 30
0.0
 11
695.8455353396641
 21
481.7464308143931
 31
0.0
  0
LINE
  5
318342CB
330
318324AF
100
AcDbEntity
  8
JISSEN
 62
     7
100
AcDbLine
 10
694.9782525810491
 20
482.1472164008405
 30
0.0
 11
696.3902374580055
 21
481.795690308408
 31
0.0
  0
LINE
  5
318342CC
330
318324AF
100
AcDbEntity
  8
JISSEN
 62
     7
100
AcDbLine
 10
682.0556221600916
 20
482.1472164008405
 30
0.0
 11
675.5787857332261
 21
482.1472164008405
 31
0.0
  0
LINE
  5
318342CD
330
318324AF
100
AcDbEntity
  8
JISSEN
 62
     7
100
AcDbLine
 10
689.4696503328041
 20
482.1472164008405
 30
0.0
 11
683.6333253376574
 21
482.1472164008405
 31
0.0
  0
LWPOLYLINE
  5
318342D0
330
318324AF
100
AcDbEntity
  8
SAISEN
 62
     7
100
AcDbPolyline
 90
        2
 70
     0
 43
0.0
 10
690.9311212848414
 20
542.317807154616
 10
690.6289060257395
 20
551.988212171912
  0
LWPOLYLINE
  5
318342D1
330
318324AF
100
AcDbEntity
  8
SAISEN
 62
     7
100
AcDbPolyline
 90
        2
 70
     0
 43
0.0
 10
666.7704932551353
 20
542.317807154616
 10
667.072708514237
 20
551.988212171912
  0
LINE
  5
318342D2
330
318324AF
100
AcDbEntity
  8
JISSEN
 62
     7
100
AcDbLine
 10
673.5672039466587
 20
483.7397625524818
 30
0.0
 11
673.5672039466587
 21
484.7944023503963
 31
0.0
  0
ARC
  5
318342D3
330
318324AF
100
AcDbEntity
  8
JISSEN
 62
     7
100
AcDbCircle
 10
673.3172039466589
 20
499.5095197765959
 30
0.0
 40
1.0
100
AcDbArc
 50
180.0
 51
264.9467518487493
  0
LINE
  5
318342D4
330
318324AF
100
AcDbEntity
  8
JISSEN
 62
     7
100
AcDbLine
 10
672.3172039466589
 20
498.9756785501342
 30
0.0
 11
672.1672039466588
 21
498.9756785501342
 31
0.0
  0
ARC
  5
318342D5
330
318324AF
100
AcDbEntity
  8
JISSEN
 62
     7
100
AcDbCircle
 10
675.0672039466588
 20
495.0968833634856
 30
0.0
 40
0.5
100
AcDbArc
 50
239.9999999999994
 51
342.582398465089
  0
ARC
  5
318342D6
330
318324AF
100
AcDbEntity
  8
JISSEN
 62
     7
100
AcDbCircle
 10
674.587439408531
 20
499.3617234303075
 30
0.0
 40
0.4866855046380603
100
AcDbArc
 50
298.1707402297495
 51
355.8150838748823
  0
LINE
  5
318342D7
330
318324AF
100
AcDbEntity
  8
JISSEN
 62
     7
100
AcDbLine
 10
674.817203946659
 20
496.5576194906691
 30
0.0
 11
674.817203946659
 21
498.9326884230601
 31
0.0
  0
ARC
  5
318342D8
330
318324AF
100
AcDbEntity
  8
JISSEN
 62
     7
100
AcDbCircle
 10
678.8164193911663
 20
495.3884131548525
 30
0.0
 40
1.6
100
AcDbArc
 50
133.0503615394687
 51
162.7537116970573
  0
ARC
  5
318342D9
330
318324AF
100
AcDbEntity
  8
JISSEN
 62
     7
100
AcDbCircle
 10
678.8164193911663
 20
495.3884131548525
 30
0.0
 40
1.6
100
AcDbArc
 50
17.3317314661468
 51
46.94963846053126
  0
ARC
  5
318342DA
330
318324AF
100
AcDbEntity
  8
JISSEN
 62
     7
100
AcDbCircle
 10
678.8164193911663
 20
495.3884131548525
 30
0.0
 40
1.6
100
AcDbArc
 50
17.33173146614369
 51
46.94963846053126
  0
LINE
  5
318342DB
330
318324AF
100
AcDbEntity
  8
JISSEN
 62
     7
100
AcDbLine
 10
676.0212100374446
 20
494.9472164008405
 30
0.0
 11
678.817203946659
 21
494.9472164008405
 31
0.0
  0
LINE
  5
318342DC
330
318324AF
100
AcDbEntity
  8
JISSEN
 62
     7
100
AcDbLine
 10
676.3727924616359
 20
494.9472164008405
 30
0.0
 11
677.3023233301747
 21
495.8767472693792
 31
0.0
  0
LINE
  5
318342DD
330
318324AF
100
AcDbEntity
  8
JISSEN
 62
     7
100
AcDbLine
 10
674.8172039466587
 20
498.372980066638
 30
0.0
 11
673.2291224226012
 21
498.5134065073741
 31
0.0
  0
ARC
  5
318342DE
330
318324AF
100
AcDbEntity
  8
JISSEN
 62
     7
100
AcDbCircle
 10
662.0672039466589
 20
489.4484803524199
 30
0.0
 40
12.49999999999999
100
AcDbArc
 50
343.7397952916901
 51
16.26020470830987
  0
LINE
  5
318342DF
330
318324AF
100
AcDbEntity
  8
JISSEN
 62
     7
100
AcDbLine
 10
684.0672039466589
 20
483.7397625524818
 30
0.0
 11
684.0672039466589
 21
484.7944023503963
 31
0.0
  0
ARC
  5
318342E0
330
318324AF
100
AcDbEntity
  8
JISSEN
 62
     7
100
AcDbCircle
 10
682.5672039466588
 20
495.0968833634856
 30
0.0
 40
0.5
100
AcDbArc
 50
197.4176015349109
 51
300.0000000000005
  0
ARC
  5
318342E1
330
318324AF
100
AcDbEntity
  8
JISSEN
 62
     7
100
AcDbCircle
 10
683.0469684847867
 20
499.3617234303075
 30
0.0
 40
0.4866855046380603
100
AcDbArc
 50
184.1849161251176
 51
241.8292597702504
  0
LINE
  5
318342E2
330
318324AF
100
AcDbEntity
  8
JISSEN
 62
     7
100
AcDbLine
 10
682.817203946659
 20
498.372980066638
 30
0.0
 11
684.4052854707165
 21
498.5134065073741
 31
0.0
  0
LINE
  5
318342E3
330
318324AF
100
AcDbEntity
  8
JISSEN
 62
     7
100
AcDbLine
 10
682.817203946659
 20
498.9326884230601
 30
0.0
 11
682.817203946659
 21
496.5576194906691
 31
0.0
  0
LINE
  5
318342E4
330
318324AF
100
AcDbEntity
  8
JISSEN
 62
     7
100
AcDbLine
 10
685.4672039466586
 20
498.9756785501342
 30
0.0
 11
685.3172039466588
 21
498.9756785501342
 31
0.0
  0
ARC
  5
318342E5
330
318324AF
100
AcDbEntity
  8
JISSEN
 62
     7
100
AcDbCircle
 10
684.3172039466587
 20
499.5095197765959
 30
0.0
 40
1.0
100
AcDbArc
 50
275.0532481512506
 51
0.0
  0
LINE
  5
318342E6
330
318324AF
100
AcDbEntity
  8
JISSEN
 62
     7
100
AcDbLine
 10
693.7246289047646
 20
496.0771127757943
 30
0.0
 11
684.0672039466589
 21
484.6568175054029
 31
0.0
  0
ARC
  5
318342E7
330
318324AF
100
AcDbEntity
  8
JISSEN
 62
     7
100
AcDbCircle
 10
695.5672039466588
 20
489.4484803524199
 30
0.0
 40
12.49999999999999
100
AcDbArc
 50
163.7397952916901
 51
196.2602047083098
  0
LINE
  5
318342E8
330
318324AF
100
AcDbEntity
  8
JISSEN
 62
     7
100
AcDbLine
 10
682.0901297382879
 20
494.9472164008405
 30
0.0
 11
675.5442781550295
 21
494.9472164008405
 31
0.0
  0
LINE
  5
318342E9
330
318324AF
100
AcDbEntity
  8
JISSEN
 62
     7
100
AcDbLine
 10
682.817203946659
 20
496.5576194906691
 30
0.0
 11
674.817203946659
 21
496.5576194906691
 31
0.0
  0
LINE
  5
318342EA
330
318324AF
100
AcDbEntity
  8
JISSEN
 62
     7
100
AcDbLine
 10
681.2616154316815
 20
494.9472164008405
 30
0.0
 11
680.3320845623718
 21
495.8767472701505
 31
0.0
  0
LINE
  5
318342EB
330
318324AF
100
AcDbEntity
  8
JISSEN
 62
     7
100
AcDbLine
 10
663.9097789885529
 20
496.0771127757943
 30
0.0
 11
673.5672039466587
 21
484.6568175054029
 31
0.0
  0
ARC
  5
318342EC
330
318324AF
100
AcDbEntity
  8
JISSEN
 62
     7
100
AcDbCircle
 10
686.8172039466587
 20
515.4484803524199
 30
0.0
 40
28.0
100
AcDbArc
 50
180.0
 51
202.0243128370433
  0
ARC
  5
318342ED
330
318324AF
100
AcDbEntity
  8
JISSEN
 62
     7
100
AcDbCircle
 10
686.8172039466587
 20
515.4484803524199
 30
0.0
 40
26.0
100
AcDbArc
 50
173.5656684449001
 51
203.8188413934547
  0
ARC
  5
318342EE
330
318324AF
100
AcDbEntity
  8
JISSEN
 62
     7
100
AcDbCircle
 10
673.8172039466587
 20
515.4484803524199
 30
0.0
 40
15.0
100
AcDbArc
 50
164.6555194736865
 51
180.0
  0
ARC
  5
318342EF
330
318324AF
100
AcDbEntity
  8
JISSEN
 62
     7
100
AcDbCircle
 10
668.3172039466588
 20
504.1226392989359
 30
0.0
 40
1.0
100
AcDbArc
 50
180.0
 51
274.9999999999997
  0
LINE
  5
318342F0
330
318324AF
100
AcDbEntity
  8
JISSEN
 62
     7
100
AcDbLine
 10
672.3172039466589
 20
501.944043089236
 30
0.0
 11
672.1672039466588
 21
501.944043089236
 31
0.0
  0
LINE
  5
318342F1
330
318324AF
100
AcDbEntity
  8
JISSEN
 62
     7
100
AcDbLine
 10
672.0345270230032
 20
503.444043089236
 30
0.0
 11
668.4043596894066
 21
503.1264446008441
 31
0.0
  0
LINE
  5
318342F2
330
318324AF
100
AcDbEntity
  8
JISSEN
 62
     7
100
AcDbLine
 10
667.3172039466587
 20
507.594043089236
 30
0.0
 11
667.3172039466587
 21
507.594043089236
 31
0.0
  0
LINE
  5
318342F3
330
318324AF
100
AcDbEntity
  8
JISSEN
 62
     7
100
AcDbLine
 10
667.3172039466587
 20
504.1226392989359
 30
0.0
 11
667.3172039466587
 21
507.5787637390625
 31
0.0
  0
LINE
  5
318342F4
330
318324AF
100
AcDbEntity
  8
JISSEN
 62
     7
100
AcDbLine
 10
673.7464703268101
 20
500.0602104872675
 30
0.0
 11
675.1265348294057
 21
500.0602104872675
 31
0.0
  0
ARC
  5
318342F5
330
318324AF
100
AcDbEntity
  8
JISSEN
 62
     7
100
AcDbCircle
 10
674.817203946659
 20
502.3326884230601
 30
0.0
 40
1.5
100
AcDbArc
 50
284.2500326978067
 51
0.0
  0
LWPOLYLINE
  5
318342F6
330
318324AF
100
AcDbEntity
  8
JISSEN
 62
     7
100
AcDbPolyline
 90
        2
 70
     0
 43
0.0
 10
676.6624983710453
 20
507.1668103644723
 42
-0.0047313531205596
 10
676.1922039466587
 20
507.197430855473
 42
-0.0263064786181953
  0
LINE
  5
318342F7
330
318324AF
100
AcDbEntity
  8
JISSEN
 62
     7
100
AcDbLine
 10
675.8172039466587
 20
507.5360668875867
 30
0.0
 11
676.1922039466587
 21
507.5360668875867
 31
0.0
  0
ARC
  5
318342F8
330
318324AF
100
AcDbEntity
  8
JISSEN
 62
     7
100
AcDbCircle
 10
676.1922039466587
 20
507.8360668875867
 30
0.0
 40
1.199999999999999
100
AcDbArc
 50
270.0
 51
291.4232972478952
  0
ARC
  5
318342F9
330
318324AF
100
AcDbEntity
  8
JISSEN
 62
     7
100
AcDbCircle
 10
678.8172039466587
 20
488.7391438166233
 30
0.0
 40
19.34838405080195
100
AcDbArc
 50
96.22224717315353
 51
97.42392958962902
  0
ARC
  5
318342FA
330
318324AF
100
AcDbEntity
  8
JISSEN
 62
     7
100
AcDbCircle
 10
678.8172039466585
 20
527.111527916511
 30
0.0
 40
19.34838405080195
100
AcDbArc
 50
262.5760704103709
 51
263.7573957713726
  0
ARC
  5
318342FB
330
318324AF
100
AcDbEntity
  8
JISSEN
 62
     7
100
AcDbCircle
 10
675.8172039466587
 20
509.0360668875867
 30
0.0
 40
1.5
100
AcDbArc
 50
180.0
 51
270.0
  0
LINE
  5
318342FC
330
318324AF
100
AcDbEntity
  8
JISSEN
 62
     7
100
AcDbLine
 10
676.1922039466587
 20
507.5360668875867
 30
0.0
 11
676.1922039466587
 21
503.0360668875867
 31
0.0
  0
LINE
  5
318342FD
330
318324AF
100
AcDbEntity
  8
JISSEN
 62
     7
100
AcDbLine
 10
671.3172039466587
 20
511.594043089236
 30
0.0
 11
670.9685809756681
 21
511.5635425314295
 31
0.0
  0
ARC
  5
318342FE
330
318324AF
100
AcDbEntity
  8
JISSEN
 62
     7
100
AcDbCircle
 10
678.8172039466587
 20
492.4078510392922
 30
0.0
 40
19.34838405080195
100
AcDbArc
 50
95.43647494168983
 51
97.42392958962902
  0
LINE
  5
318342FF
330
318324AF
100
AcDbEntity
  8
JISSEN
 62
     7
100
AcDbLine
 10
674.3172039466587
 20
511.4187313901565
 30
0.0
 11
676.3172039466589
 21
511.2434196910771
 31
0.0
  0
LINE
  5
31834300
330
318324AF
100
AcDbEntity
  8
JISSEN
 62
     7
100
AcDbLine
 10
674.3172039466587
 20
511.7693547883154
 30
0.0
 11
677.0080995973401
 21
512.0052275325986
 31
0.0
  0
LINE
  5
31834301
330
318324AF
100
AcDbEntity
  8
JISSEN
 62
     7
100
AcDbLine
 10
674.3172039466587
 20
511.8697382305735
 30
0.0
 11
677.0153150199298
 21
512.1062434488537
 31
0.0
  0
ARC
  5
31834302
330
318324AF
100
AcDbEntity
  8
JISSEN
 62
     7
100
AcDbCircle
 10
676.6113350169693
 20
515.1385608172936
 30
0.0
 40
0.6441310703106079
100
AcDbArc
 50
103.6591051852995
 51
180.0
  0
LWPOLYLINE
  5
31834303
330
318324AF
100
AcDbEntity
  8
JISSEN
 62
     7
100
AcDbPolyline
 90
        3
 70
     0
 43
0.0
 10
677.0672039466587
 20
515.8679712996765
 42
0.0069244247785686
 10
676.8019496202771
 20
515.8317814951353
 42
0.0222413121313502
 10
676.4592269150516
 20
515.7644745182704
 42
0.3154119100223803
  0
ARC
  5
31834304
330
318324AF
100
AcDbEntity
  8
JISSEN
 62
     7
100
AcDbCircle
 10
678.817203946659
 20
520.2776311898301
 30
0.0
 40
5.0
100
AcDbArc
 50
239.9999999999994
 51
243.679190178394
  0
LINE
  5
31834305
330
318324AF
100
AcDbEntity
  8
JISSEN
 62
     7
100
AcDbLine
 10
676.0902342549502
 20
516.4860668875867
 30
0.0
 11
676.6172039466587
 21
516.4860668875867
 31
0.0
  0
LINE
  5
31834306
330
318324AF
100
AcDbEntity
  8
JISSEN
 62
     7
100
AcDbLine
 10
675.5552479385401
 20
516.387419677306
 30
0.0
 11
676.3172039466589
 21
515.9475041709079
 31
0.0
  0
LINE
  5
31834307
330
318324AF
100
AcDbEntity
  8
JISSEN
 62
     7
100
AcDbLine
 10
675.9672039466588
 20
514.9821184718239
 30
0.0
 11
675.9672039466588
 21
515.1385608172936
 31
0.0
  0
ARC
  5
31834308
330
318324AF
100
AcDbEntity
  8
JISSEN
 62
     7
100
AcDbCircle
 10
684.8172039466588
 20
512.7860668875866
 30
0.0
 40
10.5
100
AcDbArc
 50
165.8509954910678
 51
180.0
  0
LINE
  5
31834309
330
318324AF
100
AcDbEntity
  8
JISSEN
 62
     7
100
AcDbLine
 10
675.817203946659
 20
514.9591783288879
 30
0.0
 11
675.817203946659
 21
512.0012220048831
 31
0.0
  0
LINE
  5
3183430A
330
318324AF
100
AcDbEntity
  8
JISSEN
 62
     7
100
AcDbLine
 10
680.567203946659
 20
515.763750048621
 30
0.0
 11
677.067203946659
 21
515.763750048621
 31
0.0
  0
ARC
  5
3183430B
330
318324AF
100
AcDbEntity
  8
JISSEN
 62
     7
100
AcDbCircle
 10
678.8172039466587
 20
495.8447867514055
 30
0.0
 40
19.34838405080195
100
AcDbArc
 50
94.70198339895151
 51
98.91979517631853
  0
ARC
  5
3183430C
330
318324AF
100
AcDbEntity
  8
JISSEN
 62
     7
100
AcDbCircle
 10
677.1172039466587
 20
517.7036001050502
 30
0.0
 40
0.3
100
AcDbArc
 50
99.59406822683856
 51
180.0
  0
LINE
  5
3183430D
330
318324AF
100
AcDbEntity
  8
JISSEN
 62
     7
100
AcDbLine
 10
676.8172039466588
 20
516.6860668875868
 30
0.0
 11
676.8172039466588
 21
519.4994040942047
 31
0.0
  0
ARC
  5
3183430E
330
318324AF
100
AcDbEntity
  8
JISSEN
 62
     7
100
AcDbCircle
 10
680.5172039466587
 20
517.7036001050502
 30
0.0
 40
0.3
100
AcDbArc
 50
0.0
 51
80.40593177313521
  0
LINE
  5
3183430F
330
318324AF
100
AcDbEntity
  8
JISSEN
 62
     7
100
AcDbLine
 10
680.8172039466588
 20
516.6860668875868
 30
0.0
 11
680.8172039466588
 21
519.4994040942047
 31
0.0
  0
LINE
  5
31834310
330
318324AF
100
AcDbEntity
  8
JISSEN
 62
     7
100
AcDbLine
 10
680.567203946659
 20
516.5469211887851
 30
0.0
 11
677.067203946659
 21
516.5469211887851
 31
0.0
  0
LINE
  5
31834311
330
318324AF
100
AcDbEntity
  8
JISSEN
 62
     7
100
AcDbLine
 10
677.067203946659
 20
518.2761205502171
 30
0.0
 11
680.567203946659
 21
518.2761205502171
 31
0.0
  0
LINE
  5
31834312
330
318324AF
100
AcDbEntity
  8
JISSEN
 62
     7
100
AcDbLine
 10
680.567203946659
 20
518.2761205502171
 30
0.0
 11
680.567203946659
 21
515.763750048621
 31
0.0
  0
LINE
  5
31834313
330
318324AF
100
AcDbEntity
  8
JISSEN
 62
     7
100
AcDbLine
 10
677.067203946659
 20
515.763750048621
 30
0.0
 11
677.067203946659
 21
518.2761205502171
 31
0.0
  0
ARC
  5
31834314
330
318324AF
100
AcDbEntity
  8
JISSEN
 62
     7
100
AcDbCircle
 10
676.0902342549502
 20
514.9860668875867
 30
0.0
 40
1.5
100
AcDbArc
 50
90.0
 51
165.8509954910678
  0
ARC
  5
31834315
330
318324AF
100
AcDbEntity
  8
JISSEN
 62
     7
100
AcDbCircle
 10
676.6172039466587
 20
516.6860668875868
 30
0.0
 40
0.2
100
AcDbArc
 50
270.0
 51
0.0
  0
LINE
  5
31834316
330
318324AF
100
AcDbEntity
  8
JISSEN
 62
     7
100
AcDbLine
 10
677.2765654913419
 20
515.763750048621
 30
0.0
 11
676.3172039466588
 21
502.3326884230601
 31
0.0
  0
LINE
  5
31834317
330
318324AF
100
AcDbEntity
  8
JISSEN
 62
     7
100
AcDbLine
 10
671.3172039466587
 20
507.7860668875867
 30
0.0
 11
671.3172039466587
 21
512.7860668875866
 31
0.0
  0
LINE
  5
31834318
330
318324AF
100
AcDbEntity
  8
JISSEN
 62
     7
100
AcDbLine
 10
674.3172039466587
 20
509.0360668875867
 30
0.0
 11
674.3172039466587
 21
512.7860668875866
 31
0.0
  0
LINE
  5
31834319
330
318324AF
100
AcDbEntity
  8
JISSEN
 62
     7
100
AcDbLine
 10
676.3172039466589
 20
507.925335866567
 30
0.0
 11
676.3172039466589
 21
511.594043089236
 31
0.0
  0
ARC
  5
3183431A
330
318324AF
100
AcDbEntity
  8
JISSEN
 62
     7
100
AcDbCircle
 10
671.3172039466587
 20
507.5787637390626
 30
0.0
 40
4.0
100
AcDbArc
 50
94.99999999999975
 51
180.0
  0
ARC
  5
3183431B
330
318324AF
100
AcDbEntity
  8
JISSEN
 62
     7
100
AcDbCircle
 10
682.8172039466587
 20
502.3326884230601
 30
0.0
 40
1.5
100
AcDbArc
 50
180.0
 51
255.7499673021932
  0
LINE
  5
3183431C
330
318324AF
100
AcDbEntity
  8
JISSEN
 62
     7
100
AcDbLine
 10
682.507873063912
 20
500.0602104872675
 30
0.0
 11
683.8879375665073
 21
500.0602104872675
 31
0.0
  0
LINE
  5
3183431D
330
318324AF
100
AcDbEntity
  8
JISSEN
 62
     7
100
AcDbLine
 10
685.3172039466588
 20
501.944043089236
 30
0.0
 11
685.4672039466588
 21
501.944043089236
 31
0.0
  0
LINE
  5
3183431E
330
318324AF
100
AcDbEntity
  8
JISSEN
 62
     7
100
AcDbLine
 10
681.8172039466587
 20
507.5360668875867
 30
0.0
 11
681.4422039466587
 21
507.5360668875867
 31
0.0
  0
ARC
  5
3183431F
330
318324AF
100
AcDbEntity
  8
JISSEN
 62
     7
100
AcDbCircle
 10
681.8172039466587
 20
509.0360668875867
 30
0.0
 40
1.5
100
AcDbArc
 50
270.0
 51
0.0
  0
LINE
  5
31834320
330
318324AF
100
AcDbEntity
  8
JISSEN
 62
     7
100
AcDbLine
 10
681.4422039466587
 20
507.5360668875867
 30
0.0
 11
681.4422039466587
 21
503.0360668875867
 31
0.0
  0
ARC
  5
31834321
330
318324AF
100
AcDbEntity
  8
JISSEN
 62
     7
100
AcDbCircle
 10
689.3172039466588
 20
504.1226392989359
 30
0.0
 40
1.0
100
AcDbArc
 50
265.0000000000003
 51
0.0
  0
LINE
  5
31834322
330
318324AF
100
AcDbEntity
  8
JISSEN
 62
     7
100
AcDbLine
 10
690.3172039466587
 20
507.594043089236
 30
0.0
 11
690.3172039466587
 21
507.594043089236
 31
0.0
  0
LINE
  5
31834323
330
318324AF
100
AcDbEntity
  8
JISSEN
 62
     7
100
AcDbLine
 10
690.3172039466589
 20
504.1226392989359
 30
0.0
 11
690.3172039466589
 21
507.5787637390625
 31
0.0
  0
LINE
  5
31834324
330
318324AF
100
AcDbEntity
  8
JISSEN
 62
     7
100
AcDbLine
 10
685.5998808703143
 20
503.444043089236
 30
0.0
 11
689.2300482039113
 21
503.1264446008441
 31
0.0
  0
LINE
  5
31834325
330
318324AF
100
AcDbEntity
  8
JISSEN
 62
     7
100
AcDbLine
 10
683.317203946659
 20
511.4187313901565
 30
0.0
 11
681.3172039466589
 21
511.2434196910771
 31
0.0
  0
ARC
  5
31834326
330
318324AF
100
AcDbEntity
  8
JISSEN
 62
     7
100
AcDbCircle
 10
681.0230728763481
 20
515.1385608172936
 30
0.0
 40
0.6441310703106079
100
AcDbArc
 50
0.0
 51
76.34089481470039
  0
ARC
  5
31834327
330
318324AF
100
AcDbEntity
  8
JISSEN
 62
     7
100
AcDbCircle
 10
678.817203946659
 20
520.2776311898301
 30
0.0
 40
5.0
100
AcDbArc
 50
296.3208098216045
 51
300.0000000000005
  0
LINE
  5
31834328
330
318324AF
100
AcDbEntity
  8
JISSEN
 62
     7
100
AcDbLine
 10
682.0791599547779
 20
516.3874196773058
 30
0.0
 11
681.3172039466589
 21
515.9475041709079
 31
0.0
  0
LINE
  5
31834329
330
318324AF
100
AcDbEntity
  8
JISSEN
 62
     7
100
AcDbLine
 10
681.5441736383673
 20
516.4860668875867
 30
0.0
 11
681.0172039466587
 21
516.4860668875867
 31
0.0
  0
LINE
  5
3183432A
330
318324AF
100
AcDbEntity
  8
JISSEN
 62
     7
100
AcDbLine
 10
681.6672039466588
 20
515.1385608172936
 30
0.0
 11
681.6672039466588
 21
514.9821184718239
 31
0.0
  0
ARC
  5
3183432B
330
318324AF
100
AcDbEntity
  8
JISSEN
 62
     7
100
AcDbCircle
 10
672.8172039466588
 20
512.7860668875866
 30
0.0
 40
10.5
100
AcDbArc
 50
0.0
 51
14.14900450893219
  0
LINE
  5
3183432C
330
318324AF
100
AcDbEntity
  8
JISSEN
 62
     7
100
AcDbLine
 10
681.8172039466589
 20
514.9591783288879
 30
0.0
 11
681.8172039466589
 21
512.0012220048831
 31
0.0
  0
LINE
  5
3183432D
330
318324AF
100
AcDbEntity
  8
JISSEN
 62
     7
100
AcDbLine
 10
686.317203946659
 20
511.594043089236
 30
0.0
 11
686.6658269176496
 21
511.5635425314295
 31
0.0
  0
ARC
  5
3183432E
330
318324AF
100
AcDbEntity
  8
JISSEN
 62
     7
100
AcDbCircle
 10
681.5441736383673
 20
514.9860668875867
 30
0.0
 40
1.5
100
AcDbArc
 50
14.14900450893219
 51
90.0
  0
LINE
  5
3183432F
330
318324AF
100
AcDbEntity
  8
JISSEN
 62
     7
100
AcDbLine
 10
683.3172039466587
 20
509.0360668875867
 30
0.0
 11
683.3172039466587
 21
512.7860668875866
 31
0.0
  0
LINE
  5
31834330
330
318324AF
100
AcDbEntity
  8
JISSEN
 62
     7
100
AcDbLine
 10
686.3172039466587
 20
507.7860668875867
 30
0.0
 11
686.3172039466587
 21
512.7860668875866
 31
0.0
  0
LINE
  5
31834331
330
318324AF
100
AcDbEntity
  8
JISSEN
 62
     7
100
AcDbLine
 10
681.3172039466589
 20
507.925335866567
 30
0.0
 11
681.3172039466589
 21
511.594043089236
 31
0.0
  0
ARC
  5
31834332
330
318324AF
100
AcDbEntity
  8
JISSEN
 62
     7
100
AcDbCircle
 10
686.3172039466587
 20
507.5787637390626
 30
0.0
 40
4.0
100
AcDbArc
 50
0.0
 51
85.00000000000026
  0
LINE
  5
31834334
330
318324AF
100
AcDbEntity
  8
JISSEN
 62
     7
100
AcDbLine
 10
681.3172039466589
 20
502.3326884230601
 30
0.0
 11
680.3578424019761
 21
515.763750048621
 31
0.0
  0
LWPOLYLINE
  5
31834335
330
318324AF
100
AcDbEntity
  8
JISSEN
 62
     7
100
AcDbPolyline
 90
        3
 70
     0
 43
0.0
 10
681.1751809782661
 20
515.7644745182704
 42
0.0222413121313491
 10
680.8324582730406
 20
515.8317814951353
 42
0.0069244247785704
 10
680.5672039466587
 20
515.8679712996765
 42
0.0155729562488785
  0
ARC
  5
31834336
330
318324AF
100
AcDbEntity
  8
JISSEN
 62
     7
100
AcDbCircle
 10
681.0172039466587
 20
516.6860668875868
 30
0.0
 40
0.2
100
AcDbArc
 50
180.0
 51
270.0
  0
LWPOLYLINE
  5
31834337
330
318324AF
100
AcDbEntity
  8
JISSEN
 62
     7
100
AcDbPolyline
 90
        2
 70
     0
 43
0.0
 10
681.4422039466587
 20
507.197430855473
 42
-0.0047313531205585
 10
680.9719095222722
 20
507.1668103644723
 42
-0.0078363086204064
  0
ARC
  5
31834338
330
318324AF
100
AcDbEntity
  8
JISSEN
 62
     7
100
AcDbCircle
 10
681.4422039466587
 20
507.8360668875867
 30
0.0
 40
1.199999999999999
100
AcDbArc
 50
248.576702752118
 51
270.0
  0
ARC
  5
31834339
330
318324AF
100
AcDbEntity
  8
JISSEN
 62
     7
100
AcDbCircle
 10
678.8172039466587
 20
495.8447867514055
 30
0.0
 40
19.34838405080195
100
AcDbArc
 50
81.08020482368146
 51
85.29801660104849
  0
LINE
  5
3183433A
330
318324AF
100
AcDbEntity
  8
JISSEN
 62
     7
100
AcDbLine
 10
683.317203946659
 20
511.8697382305735
 30
0.0
 11
680.6190928733879
 21
512.1062434488537
 31
0.0
  0
LINE
  5
3183433B
330
318324AF
100
AcDbEntity
  8
JISSEN
 62
     7
100
AcDbLine
 10
683.317203946659
 20
511.7693547883154
 30
0.0
 11
680.6263082959776
 21
512.0052275325986
 31
0.0
  0
ARC
  5
3183433C
330
318324AF
100
AcDbEntity
  8
JISSEN
 62
     7
100
AcDbCircle
 10
678.8172039466587
 20
492.4078510392922
 30
0.0
 40
19.34838405080195
100
AcDbArc
 50
82.57607041037097
 51
84.56352505831018
  0
ARC
  5
3183433D
330
318324AF
100
AcDbEntity
  8
JISSEN
 62
     7
100
AcDbCircle
 10
678.8172039466587
 20
488.7391438166233
 30
0.0
 40
19.34838405080195
100
AcDbArc
 50
82.57607041037097
 51
83.77775282684648
  0
ARC
  5
3183433E
330
318324AF
100
AcDbEntity
  8
JISSEN
 62
     7
100
AcDbCircle
 10
678.8172039466585
 20
527.111527916511
 30
0.0
 40
19.34838405080195
100
AcDbArc
 50
276.2426042286274
 51
277.423929589629
  0
ARC
  5
31834374
330
318324AF
100
AcDbEntity
  8
JISSEN
 62
     7
100
AcDbCircle
 10
684.8172039466588
 20
512.7860668875866
 30
0.0
 40
13.5
100
AcDbArc
 50
150.5778828941536
 51
180.0
  0
ARC
  5
31834375
330
318324AF
100
AcDbEntity
  8
JISSEN
 62
     7
100
AcDbCircle
 10
672.8172039466588
 20
512.7860668875866
 30
0.0
 40
13.5
100
AcDbArc
 50
0.0
 51
29.42211710584637
  0
ARC
  5
31834379
330
318324AF
100
AcDbEntity
  8
JISSEN
 62
     7
100
AcDbCircle
 10
673.8169051833142
 20
515.6468431078754
 30
0.0
 40
11.0
100
AcDbArc
 50
159.9515331044591
 51
177.7128202082922
  0
ARC
  5
3183437A
330
318324AF
100
AcDbEntity
  8
JISSEN
 62
     7
100
AcDbCircle
 10
673.7704621774246
 20
516.7558803985285
 30
0.0
 40
17.0
100
AcDbArc
 50
170.9913296209116
 51
184.7012200115897
  0
ARC
  5
3183437B
330
318324AF
100
AcDbEntity
  8
JISSEN
 62
     7
100
AcDbCircle
 10
671.60841085731
 20
516.4084688961393
 30
0.0
 40
10.80551655320168
100
AcDbArc
 50
163.829289112461
 51
169.5833810006706
  0
LINE
  5
3183437E
330
318324AF
100
AcDbEntity
  8
JISSEN
 62
     7
100
AcDbLine
 10
665.8661620294351
 20
550.8187830999079
 30
0.0
 11
667.9286346530286
 21
552.8178071546157
 31
0.0
  0
LINE
  5
3183437F
330
318324AF
100
AcDbEntity
  8
JISSEN
 62
     7
100
AcDbLine
 10
691.8354525105416
 20
550.8187830999079
 30
0.0
 11
689.7729798869481
 21
552.8178071546157
 31
0.0
  0
LINE
  5
31834380
330
318324AF
100
AcDbEntity
  8
JISSEN
 62
     7
100
AcDbLine
 10
691.8354525105416
 20
550.8187830999079
 30
0.0
 11
665.8661620294351
 21
550.8187830999079
 31
0.0
  0
LINE
  5
31834381
330
318324AF
100
AcDbEntity
  8
JISSEN
 62
     7
100
AcDbLine
 10
689.7729798869481
 20
552.8178071546157
 30
0.0
 11
667.9286346530289
 21
552.8178071546157
 31
0.0
  0
LINE
  5
31834382
330
318324AF
100
AcDbEntity
  8
JISSEN
 62
     7
100
AcDbLine
 10
667.9286346530286
 20
552.8178071546157
 30
0.0
 11
689.7729798869481
 21
552.8178071546157
 31
0.0
  0
LINE
  5
31834383
330
318324AF
100
AcDbEntity
  8
JISSEN
 62
     7
100
AcDbLine
 10
692.1011212848412
 20
542.317807154616
 30
0.0
 11
691.8354525105416
 21
550.8187830999079
 31
0.0
  0
LINE
  5
31834384
330
318324AF
100
AcDbEntity
  8
JISSEN
 62
     7
100
AcDbLine
 10
665.6004932551352
 20
542.317807154616
 30
0.0
 11
665.8661620294351
 21
550.8187830999079
 31
0.0
  0
ARC
  5
31834385
330
318324AF
100
AcDbEntity
  8
JISSEN
 62
     7
100
AcDbCircle
 10
670.8172039466587
 20
515.4484803524199
 30
0.0
 40
28.0
100
AcDbArc
 50
337.9756871629567
 51
0.0
  0
ARC
  5
31834386
330
318324AF
100
AcDbEntity
  8
JISSEN
 62
     7
100
AcDbCircle
 10
683.8172039466587
 20
515.4484803524199
 30
0.0
 40
15.0
100
AcDbArc
 50
0.0
 51
15.34448052631341
  0
ARC
  5
31834387
330
318324AF
100
AcDbEntity
  8
JISSEN
 62
     7
100
AcDbCircle
 10
670.8172039466587
 20
515.4484803524199
 30
0.0
 40
26.0
100
AcDbArc
 50
336.1811586065452
 51
0.7891762481359019
  0
ARC
  5
31834388
330
318324AF
100
AcDbEntity
  8
JISSEN
 62
     7
100
AcDbCircle
 10
686.0259970360075
 20
516.4084688961393
 30
0.0
 40
10.80551655320168
100
AcDbArc
 50
356.8068888039093
 51
16.17071088753898
  0
ARC
  5
31834389
330
318324AF
100
AcDbEntity
  8
JISSEN
 62
     7
100
AcDbCircle
 10
683.8175027100032
 20
515.6468431078754
 30
0.0
 40
11.0
100
AcDbArc
 50
357.041823221448
 51
20.04846689554082
  0
ARC
  5
3183438A
330
318324AF
100
AcDbEntity
  8
JISSEN
 62
     7
100
AcDbCircle
 10
683.8639457158929
 20
516.7558803985285
 30
0.0
 40
17.0
100
AcDbArc
 50
355.2987799884102
 51
9.008670379088396
  0
ARC
  5
3183438B
330
318324AF
100
AcDbEntity
  8
JISSEN
 62
     7
100
AcDbCircle
 10
670.8172039466587
 20
515.4484803524199
 30
0.0
 40
24.0
100
AcDbArc
 50
300.0000000000005
 51
0.0
  0
ARC
  5
3183438C
330
318324AF
100
AcDbEntity
  8
JISSEN
 62
     7
100
AcDbCircle
 10
670.8172039466587
 20
515.4484803524199
 30
0.0
 40
30.0
100
AcDbArc
 50
319.7809012554465
 51
0.0
  0
ARC
  5
3183438D
330
318324AF
100
AcDbEntity
  8
JISSEN
 62
     7
100
AcDbCircle
 10
686.8172039466587
 20
515.4484803524199
 30
0.0
 40
30.0
100
AcDbArc
 50
180.0
 51
220.2190987445535
  0
ARC
  5
3183438E
330
318324AF
100
AcDbEntity
  8
JISSEN
 62
     7
100
AcDbCircle
 10
686.8172039466587
 20
515.4484803524199
 30
0.0
 40
24.0
100
AcDbArc
 50
178.4782525524655
 51
239.9999999999994
  0
ARC
  5
3183438F
330
318324AF
100
AcDbEntity
  8
JISSEN
 62
     7
100
AcDbCircle
 10
684.8172039466588
 20
507.7860668875867
 30
0.0
 40
13.5
100
AcDbArc
 50
180.0
 51
222.2054464037349
  0
ARC
  5
31834390
330
318324AF
100
AcDbEntity
  8
JISSEN
 62
     7
100
AcDbCircle
 10
672.8172039466588
 20
507.7860668875867
 30
0.0
 40
13.5
100
AcDbArc
 50
317.794553596265
 51
0.0
  0
LINE
  5
31834391
330
318324AF
100
AcDbEntity
  8
JISSEN
 62
     7
100
AcDbLine
 10
682.4479731774281
 20
500.878842269214
 30
0.0
 11
682.5615806182279
 21
499.3262072449495
 31
0.0
  0
LINE
  5
31834392
330
318324AF
100
AcDbEntity
  8
JISSEN
 62
     7
100
AcDbLine
 10
675.0728272750897
 20
499.3262072449495
 30
0.0
 11
675.1864347158896
 21
500.878842269214
 31
0.0
  0
LINE
  5
31834393
330
318324AF
100
AcDbEntity
  8
JISSEN
 62
     7
100
AcDbLine
 10
672.3172039466589
 20
502.6870473739937
 30
0.0
 11
672.3172039466589
 21
498.9756785501342
 31
0.0
  0
LINE
  5
31834394
330
318324AF
100
AcDbEntity
  8
JISSEN
 62
     7
100
AcDbLine
 10
672.1672039466588
 20
501.944043089236
 30
0.0
 11
672.1672039466588
 21
498.9756785501342
 31
0.0
  0
LINE
  5
31834395
330
318324AF
100
AcDbEntity
  8
JISSEN
 62
     7
100
AcDbLine
 10
685.3172039466588
 20
502.6870473739937
 30
0.0
 11
685.3172039466588
 21
498.9756785501342
 31
0.0
  0
LINE
  5
31834396
330
318324AF
100
AcDbEntity
  8
JISSEN
 62
     7
100
AcDbLine
 10
685.4672039466586
 20
501.944043089236
 30
0.0
 11
685.4672039466586
 21
498.9756785501342
 31
0.0
  0
LINE
  5
318343A8
330
318324AF
100
AcDbEntity
  8
HOJYO
 62
     7
100
AcDbLine
 10
729.8656031903849
 20
539.4178071546159
 30
0.0
 11
693.7172039466588
 21
539.4178071546159
 31
0.0
  0
ELLIPSE
  5
318343AA
330
318324AF
100
AcDbEntity
  8
0
 62
     7
100
AcDbEllipse
 10
662.9172039466588
 20
540.867807154616
 30
0.0
 11
-1.717863489897861
 21
0.0
 31
0.0
210
0.0
220
0.0
230
1.0
 40
0.844071725446723
 41
4.712388980384689
 42
7.853981633974482
  0
ELLIPSE
  5
318343AC
330
318324AF
100
AcDbEntity
  8
0
 62
     7
100
AcDbEllipse
 10
694.7172039466588
 20
540.867807154616
 30
0.0
 11
1.717863489897861
 21
0.0
 31
0.0
210
0.0
220
0.0
230
-1.0
 40
0.844071725446723
 41
4.712388980384689
 42
7.853981633974482
  0
LWPOLYLINE
  5
318343C0
330
318324AF
100
AcDbEntity
  8
JISSEN
100
AcDbPolyline
 90
        3
 70
     0
 43
0.0
 10
478.8172039466585
 20
519.417807154616
 10
478.8172039466585
 20
521.4178071546159
 42
-0.4142135623730951
 10
496.8172039466585
 20
539.4178071546159
  0
LINE
  5
318343C2
330
318324AF
100
AcDbEntity
  8
JISSEN
100
AcDbLine
 10
496.8172039466585
 20
539.4178071546159
 30
0.0
 11
693.7172039466588
 21
539.4178071546159
 31
0.0
  0
LWPOLYLINE
  5
318343C4
330
318324AF
100
AcDbEntity
  8
JISSEN
100
AcDbPolyline
 90
        3
 70
     0
 43
0.0
 10
496.8172039466585
 20
539.4178071546159
 42
0.4142135623730951
 10
478.8172039466585
 20
521.4178071546159
 10
478.8172039466585
 20
519.417807154616
  0
LWPOLYLINE
  5
318343C5
330
318324AF
100
AcDbEntity
  8
JISSEN
100
AcDbPolyline
 90
        3
 70
     0
 43
0.0
 10
878.8172039466589
 20
519.417807154616
 10
878.8172039466589
 20
521.4178071546159
 42
0.4142135623730951
 10
860.8172039466589
 20
539.4178071546159
  0
LINE
  5
318343C6
330
318324AF
100
AcDbEntity
  8
JISSEN
100
AcDbLine
 10
860.8172039466589
 20
539.4178071546159
 30
0.0
 11
694.7172039466586
 21
539.4178071546157
 31
0.0
  0
LINE
  5
318343D1
330
318324AF
100
AcDbEntity
  8
JISSEN
100
AcDbLine
 10
478.8172039466585
 20
519.417807154616
 30
0.0
 11
878.8172039466589
 21
519.417807154616
 31
0.0
  0
LWPOLYLINE
  5
318343D2
330
318324AF
100
AcDbEntity
  8
NITEN
100
AcDbPolyline
 90
        2
 70
     0
 43
0.0
 10
698.2836006233297
 20
605.1555248057618
 42
0.5195636805304642
 10
678.7836006233294
 20
605.1555248057621
 42
0.5882352941176295
  0
ARC
  5
318343D3
330
318324AF
100
AcDbEntity
  8
NITEN
100
AcDbCircle
 10
688.5336006233294
 20
612.0055248057619
 30
0.0
 40
11.91574588517227
100
AcDbArc
 50
215.0905003001246
 51
324.9094996998753
  0
LINE
  5
318343D4
330
318324AF
100
AcDbEntity
  8
NITEN
100
AcDbLine
 10
698.2836006233294
 20
584.317807154616
 30
0.0
 11
698.2836006233294
 21
605.1555248057618
 31
0.0
  0
ARC
  5
318343D5
330
318324AF
100
AcDbEntity
  8
NITEN
100
AcDbCircle
 10
669.0336006233296
 20
598.3055248057617
 30
0.0
 40
11.91574588517225
100
AcDbArc
 50
35.09050030012462
 51
144.9094996998807
  0
LINE
  5
318343D6
330
318324AF
100
AcDbEntity
  8
NITEN
100
AcDbLine
 10
659.2836006233294
 20
605.1555248057616
 30
0.0
 11
659.2836006233294
 21
584.317807154616
 31
0.0
  0
LINE
  5
318343D8
330
318324AF
100
AcDbEntity
  8
NITEN
100
AcDbLine
 10
659.2836006233294
 20
243.9055248057615
 30
0.0
 11
659.2836006233294
 21
223.0678071546159
 31
0.0
  0
ARC
  5
318343D9
330
318324AF
100
AcDbEntity
  8
NITEN
100
AcDbCircle
 10
669.0336006233296
 20
237.0555248057616
 30
0.0
 40
11.91574588517225
100
AcDbArc
 50
35.09050030012462
 51
144.9094996998807
  0
LINE
  5
318343DA
330
318324AF
100
AcDbEntity
  8
NITEN
100
AcDbLine
 10
698.2836006233294
 20
223.0678071546159
 30
0.0
 11
698.2836006233294
 21
243.9055248057617
 31
0.0
  0
ARC
  5
318343DB
330
318324AF
100
AcDbEntity
  8
NITEN
100
AcDbCircle
 10
688.5336006233294
 20
250.7555248057618
 30
0.0
 40
11.91574588517227
100
AcDbArc
 50
215.0905003001246
 51
324.9094996998753
  0
LWPOLYLINE
  5
318343DC
330
318324AF
100
AcDbEntity
  8
NITEN
100
AcDbPolyline
 90
        2
 70
     0
 43
0.0
 10
698.2836006233297
 20
243.9055248057618
 42
0.5195636805304642
 10
678.7836006233294
 20
243.9055248057619
 42
0.5882352941176295
  0
LINE
  5
318343DD
330
318324AF
100
AcDbEntity
  8
JISSEN
100
AcDbLine
 10
700.6542448777667
 20
158.167807154616
 30
0.0
 11
878.8172039466589
 21
158.1678071546158
 31
0.0
  0
LINE
  5
318343DE
330
318324AF
100
AcDbEntity
  8
HOJYO
 62
     7
100
AcDbLine
 10
673.0583765803494
 20
158.1678071546157
 30
0.0
 11
663.4834725417284
 21
158.1678071546158
 31
0.0
  0
LINE
  5
318343DF
330
318324AF
100
AcDbEntity
  8
JISSEN
100
AcDbLine
 10
684.576031312968
 20
158.1678071546159
 30
0.0
 11
694.1509353515889
 21
158.1678071546159
 31
0.0
  0
LINE
  5
318343E0
330
318324AF
100
AcDbEntity
  8
JISSEN
100
AcDbLine
 10
663.4834725417285
 20
158.1678071546158
 30
0.0
 11
673.0583765803494
 21
158.1678071546158
 31
0.0
  0
LINE
  5
318343E1
330
318324AF
100
AcDbEntity
  8
HOJYO
 62
     7
100
AcDbLine
 10
656.9801630155507
 20
158.1678071546158
 30
0.0
 11
653.4876709669856
 21
158.1678071546158
 31
0.0
  0
HATCH
  5
318343E2
330
318324AF
100
AcDbEntity
  8
HATCH
100
AcDbHatch
 10
0.0
 20
0.0
 30
0.0
210
0.0
220
0.0
230
1.0
  2
ANSI31
 70
     0
 71
     0
 91
        1
 92
        7
 72
     1
 73
     1
 93
        6
 10
825.2527739089559
 20
178.1678071546158
 42
0.0
 10
694.7172039466586
 20
178.1678071546157
 42
-0.1585270315396793
 10
693.7172039466586
 20
178.493034446129
 42
0.0
 10
693.7172039466586
 20
177.3678071546158
 42
0.0
 10
696.3172039466585
 20
177.3678071546157
 42
0.0
 10
825.2527739089559
 20
177.3678071546158
 42
0.0
 97
        0
 75
     0
 76
     1
 52
90.0
 41
20.0
 77
     0
 78
     1
 53
135.0
 43
396.8172053866587
 44
-694.8332714468953
 45
-1.767766952966368
 46
-1.767766952966368
 79
     0
 47
0.1046947054605585
 98
        1
 10
745.4260636791773
 20
177.7216238814304
  0
HATCH
  5
318343E3
330
318324AF
100
AcDbEntity
  8
HATCH
100
AcDbHatch
 10
0.0
 20
0.0
 30
0.0
210
0.0
220
0.0
230
1.0
  2
ANSI31
 70
     0
 71
     0
 91
        1
 92
        7
 72
     1
 73
     1
 93
        8
 10
860.8172039466589
 20
178.1678071546158
 42
0.0
 10
825.2527739089559
 20
178.1678071546157
 42
0.0
 10
825.2527739089559
 20
177.3678071546159
 42
0.0
 10
860.8172039466589
 20
177.3678071546158
 42
-0.4142135623730948
 10
878.0172039466588
 20
160.1678071546158
 42
0.0
 10
878.0172039466588
 20
158.1678071546158
 42
0.0
 10
878.8172039466589
 20
158.1678071546158
 42
0.0
 10
878.8172039466589
 20
160.1678071546158
 42
0.414213562373096
 97
        0
 75
     0
 76
     1
 52
90.0
 41
20.0
 77
     0
 78
     1
 53
135.0
 43
396.8172053866587
 44
-694.8332714468953
 45
-1.767766952966368
 46
-1.767766952966368
 79
     0
 47
0.056326125273082
 98
        1
 10
860.4125147737272
 20
177.6051830219413
  0
LINE
  5
318343E4
330
318324AF
100
AcDbEntity
  8
JISSEN
100
AcDbLine
 10
860.8172039466589
 20
177.3678071546158
 30
0.0
 11
696.1388071445535
 21
177.3678071546158
 31
0.0
  0
LWPOLYLINE
  5
318343E5
330
318324AF
100
AcDbEntity
  8
JISSEN
100
AcDbPolyline
 90
        3
 70
     0
 43
0.0
 10
878.0172039466588
 20
158.1678071546158
 10
878.0172039466588
 20
160.1678071546158
 42
0.4142135623730967
 10
860.8172039466589
 20
177.3678071546158
 42
0.4142135623730967
  0
LINE
  5
318343E6
330
318324AF
100
AcDbEntity
  8
JISSEN
100
AcDbLine
 10
860.8172039466589
 20
178.1678071546158
 30
0.0
 11
694.7172039466586
 21
178.1678071546157
 31
0.0
  0
LWPOLYLINE
  5
318343E7
330
318324AF
100
AcDbEntity
  8
JISSEN
100
AcDbPolyline
 90
        3
 70
     0
 43
0.0
 10
878.8172039466589
 20
158.1678071546158
 10
878.8172039466589
 20
160.1678071546158
 42
0.4142135623730951
 10
860.8172039466589
 20
178.1678071546158
  0
LWPOLYLINE
  5
318343E8
330
318324AF
100
AcDbEntity
  8
JISSEN
100
AcDbPolyline
 90
        3
 70
     0
 43
0.0
 10
496.8172039466585
 20
178.1678071546158
 42
0.4142135623730951
 10
478.8172039466585
 20
160.1678071546158
 10
478.8172039466585
 20
158.1678071546158
  0
LINE
  5
318343E9
330
318324AF
100
AcDbEntity
  8
JISSEN
100
AcDbLine
 10
478.8172039466585
 20
158.1678071546158
 30
0.0
 11
656.9801630155507
 21
158.1678071546158
 31
0.0
  0
LINE
  5
318343EA
330
318324AF
100
AcDbEntity
  8
JISSEN
100
AcDbLine
 10
496.8172039466585
 20
178.1678071546158
 30
0.0
 11
662.9172039466584
 21
178.1678071546157
 31
0.0
  0
LINE
  5
318343EB
330
318324AF
100
AcDbEntity
  8
JISSEN
100
AcDbLine
 10
496.8172039466585
 20
177.3678071546158
 30
0.0
 11
661.495600748764
 21
177.3678071546158
 31
0.0
  0
LWPOLYLINE
  5
318343EC
330
318324AF
100
AcDbEntity
  8
JISSEN
100
AcDbPolyline
 90
        3
 70
     0
 43
0.0
 10
478.8172039466585
 20
158.1678071546158
 10
478.8172039466585
 20
160.1678071546158
 42
-0.4142135623730951
 10
496.8172039466585
 20
178.1678071546158
  0
LWPOLYLINE
  5
318343ED
330
318324AF
100
AcDbEntity
  8
JISSEN
100
AcDbPolyline
 90
        3
 70
     0
 43
0.0
 10
479.6172039466587
 20
158.1678071546158
 10
479.6172039466587
 20
160.1678071546158
 42
-0.4142135623730967
 10
496.8172039466585
 20
177.3678071546158
 42
-0.4142135623730967
  0
LINE
  5
318343EE
330
318324AF
100
AcDbEntity
  8
HOJYO
 62
     7
100
AcDbLine
 10
664.6172039466587
 20
178.8678071546159
 30
0.0
 11
664.6172039466587
 21
179.8678071546158
 31
0.0
  0
LINE
  5
318343EF
330
318324AF
100
AcDbEntity
  8
0
 62
     7
100
AcDbLine
 10
663.9172039466589
 20
178.1678071546158
 30
0.0
 11
664.6172039466587
 21
178.8678071546159
 31
0.0
  0
ARC
  5
318343F0
330
318324AF
100
AcDbEntity
  8
JISSEN
 62
     7
100
AcDbCircle
 10
662.9172039466588
 20
179.8678071546158
 30
0.0
 40
1.7
100
AcDbArc
 50
0.0
 51
44.90087215597164
  0
LINE
  5
318343F1
330
318324AF
100
AcDbEntity
  8
HOJYO
 62
     7
100
AcDbLine
 10
664.9172039466589
 20
181.0678071546158
 30
0.0
 11
663.9172039466589
 21
181.0678071546158
 31
0.0
  0
LINE
  5
318343F2
330
318324AF
100
AcDbEntity
  8
HOJYO
 62
     7
100
AcDbLine
 10
663.9172039466589
 20
177.3678071546158
 30
0.0
 11
663.9172039466589
 21
178.4388063393909
 31
0.0
  0
LINE
  5
318343F3
330
318324AF
100
AcDbEntity
  8
HOJYO
 62
     7
100
AcDbLine
 10
661.317203946659
 20
176.3678071546158
 30
0.0
 11
661.317203946659
 21
177.3678071546158
 31
0.0
  0
LINE
  5
318343F4
330
318324AF
100
AcDbEntity
  8
0
 62
     7
100
AcDbLine
 10
661.317203946659
 20
176.3678071546158
 30
0.0
 11
663.1172039466587
 21
174.5678071546159
 31
0.0
  0
LINE
  5
318343F5
330
318324AF
100
AcDbEntity
  8
HOJYO
 62
     7
100
AcDbLine
 10
696.3172039466587
 20
177.3678071546158
 30
0.0
 11
693.7172039466588
 21
177.3678071546158
 31
0.0
  0
LINE
  5
318343F6
330
318324AF
100
AcDbEntity
  8
HOJYO
 62
     7
100
AcDbLine
 10
693.7172039466588
 20
181.0678071546159
 30
0.0
 11
692.1011212848413
 21
181.0678071546159
 31
0.0
  0
LINE
  5
318343F7
330
318324AF
100
AcDbEntity
  8
NITEN
100
AcDbLine
 10
701.1323004082164
 20
223.0678071546159
 30
0.0
 11
656.5021074851015
 21
223.0678071546159
 31
0.0
  0
LINE
  5
318343F8
330
318324AF
100
AcDbEntity
  8
NITEN
100
AcDbLine
 10
695.9558915028273
 20
181.0678071546159
 30
0.0
 11
695.9558915028273
 21
185.1110119391725
 31
0.0
  0
LINE
  5
318343F9
330
318324AF
100
AcDbEntity
  8
NITEN
100
AcDbLine
 10
661.6785163904905
 20
181.0678071546159
 30
0.0
 11
661.6785163904905
 21
185.1110119391725
 31
0.0
  0
LINE
  5
318343FA
330
318324AF
100
AcDbEntity
  8
NITEN
100
AcDbLine
 10
661.6785163904905
 20
181.0678071546159
 30
0.0
 11
695.9558915028272
 21
181.0678071546159
 31
0.0
  0
LINE
  5
318343FB
330
318324AF
100
AcDbEntity
  8
HOJYO
 62
     7
100
AcDbLine
 10
656.9801630155507
 20
158.1678071546158
 30
0.0
 11
622.4795505938923
 21
158.1678071546158
 31
0.0
  0
LINE
  5
318343FC
330
318324AF
100
AcDbEntity
  8
HOJYO
 62
     7
100
AcDbLine
 10
694.1509353515889
 20
158.1678071546158
 30
0.0
 11
684.576031312968
 21
158.1678071546158
 31
0.0
  0
LINE
  5
318343FD
330
318324AF
100
AcDbEntity
  8
HOJYO
 62
     7
100
AcDbLine
 10
665.6004932551354
 20
181.0678071546159
 30
0.0
 11
663.9172039466589
 21
181.0678071546159
 31
0.0
  0
HATCH
  5
318343FE
330
318324AF
100
AcDbEntity
  8
HATCH
 62
     7
100
AcDbHatch
 10
0.0
 20
0.0
 30
0.0
210
0.0
220
0.0
230
1.0
  2
SOLID
 70
     1
 71
     0
 91
        1
 92
        5
 93
        2
 72
     3
 10
694.7172039466588
 20
179.6178071546158
 11
1.717863489897861
 21
0.0
 40
0.844071725446723
 50
-173.0056281390879
 51
173.0056281390879
 73
     1
 72
     1
 10
693.0172039466587
 20
179.8263714023935
 11
693.0172039466589
 21
179.4092429068384
 97
        0
 75
     0
 76
     1
 47
0.0226447881067531
 98
        1
 10
695.1440210322918
 20
180.021712382399
  0
LINE
  5
318343FF
330
318324AF
100
AcDbEntity
  8
HOJYO
 62
     7
100
AcDbLine
 10
693.7172039466588
 20
180.7968079698411
 30
0.0
 11
693.7172039466588
 21
181.0678071546159
 31
0.0
  0
ELLIPSE
  5
31834400
330
318324AF
100
AcDbEntity
  8
0
 62
     7
100
AcDbEllipse
 10
694.7172039466588
 20
179.6178071546158
 30
0.0
 11
1.717863489897861
 21
0.0
 31
0.0
210
0.0
220
0.0
230
-1.0
 40
0.844071725446723
 41
0.0
 42
6.283185307179586
  0
LINE
  5
31834401
330
318324AF
100
AcDbEntity
  8
HOJYO
 62
     7
100
AcDbLine
 10
663.9172039466589
 20
180.7968079698408
 30
0.0
 11
663.9172039466589
 21
181.0678071546159
 31
0.0
  0
ELLIPSE
  5
31834402
330
318324AF
100
AcDbEntity
  8
0
 62
     7
100
AcDbEllipse
 10
662.9172039466588
 20
179.6178071546158
 30
0.0
 11
-1.717863489897861
 21
0.0
 31
0.0
210
0.0
220
0.0
230
1.0
 40
0.844071725446723
 41
0.0
 42
6.283185307179586
  0
HATCH
  5
31834403
330
318324AF
100
AcDbEntity
  8
HATCH
 62
     7
100
AcDbHatch
 10
0.0
 20
0.0
 30
0.0
210
0.0
220
0.0
230
1.0
  2
SOLID
 70
     1
 71
     0
 91
        1
 92
        5
 93
        2
 72
     3
 10
662.9172039466588
 20
179.6178071546158
 11
-1.717863489897861
 21
0.0
 40
0.844071725446723
 50
186.994371860912
 51
533.0056281390879
 73
     1
 72
     1
 10
664.6172039466587
 20
179.4092429068388
 11
664.6172039466587
 21
179.8263714023932
 97
        0
 75
     0
 76
     1
 47
0.0336526711245875
 98
        1
 10
662.9853825852478
 20
179.6096548448928
  0
LINE
  5
31834404
330
318324AF
100
AcDbEntity
  8
HOJYO
 62
     7
100
AcDbLine
 10
729.8656031903849
 20
178.1678071546159
 30
0.0
 11
693.7172039466588
 21
178.1678071546158
 31
0.0
  0
LINE
  5
31834405
330
318324AF
100
AcDbEntity
  8
HOJYO
 62
     7
100
AcDbLine
 10
729.5447011563153
 20
177.3678071546158
 30
0.0
 11
693.7172039466591
 21
177.3678071546158
 31
0.0
  0
LINE
  5
31834406
330
318324AF
100
AcDbEntity
  8
HOJYO
 62
     7
100
AcDbLine
 10
673.0583765803494
 20
158.1678071546158
 30
0.0
 11
663.4834725417285
 21
158.1678071546158
 31
0.0
  0
LINE
  5
31834407
330
318324AF
100
AcDbEntity
  8
JISSEN
 62
     7
100
AcDbLine
 10
685.4672039466586
 20
140.6940430892359
 30
0.0
 11
685.4672039466586
 21
137.7256785501341
 31
0.0
  0
LINE
  5
31834408
330
318324AF
100
AcDbEntity
  8
JISSEN
 62
     7
100
AcDbLine
 10
685.3172039466588
 20
141.4370473739936
 30
0.0
 11
685.3172039466588
 21
137.7256785501341
 31
0.0
  0
LINE
  5
31834409
330
318324AF
100
AcDbEntity
  8
JISSEN
 62
     7
100
AcDbLine
 10
672.1672039466588
 20
140.6940430892359
 30
0.0
 11
672.1672039466588
 21
137.7256785501341
 31
0.0
  0
LINE
  5
3183440A
330
318324AF
100
AcDbEntity
  8
JISSEN
 62
     7
100
AcDbLine
 10
672.3172039466589
 20
141.4370473739937
 30
0.0
 11
672.3172039466589
 21
137.7256785501341
 31
0.0
  0
LINE
  5
3183440B
330
318324AF
100
AcDbEntity
  8
JISSEN
 62
     7
100
AcDbLine
 10
675.0728272750897
 20
138.0762072449495
 30
0.0
 11
675.1864347158896
 21
139.628842269214
 31
0.0
  0
LINE
  5
3183440C
330
318324AF
100
AcDbEntity
  8
JISSEN
 62
     7
100
AcDbLine
 10
682.4479731774281
 20
139.628842269214
 30
0.0
 11
682.5615806182279
 21
138.0762072449495
 31
0.0
  0
ARC
  5
3183440D
330
318324AF
100
AcDbEntity
  8
JISSEN
 62
     7
100
AcDbCircle
 10
672.8172039466588
 20
146.5360668875866
 30
0.0
 40
13.5
100
AcDbArc
 50
317.794553596265
 51
0.0
  0
ARC
  5
3183440E
330
318324AF
100
AcDbEntity
  8
JISSEN
 62
     7
100
AcDbCircle
 10
684.8172039466588
 20
146.5360668875866
 30
0.0
 40
13.5
100
AcDbArc
 50
180.0
 51
222.2054464037349
  0
ARC
  5
3183440F
330
318324AF
100
AcDbEntity
  8
JISSEN
 62
     7
100
AcDbCircle
 10
686.8172039466587
 20
154.1984803524198
 30
0.0
 40
24.0
100
AcDbArc
 50
178.4782525524655
 51
239.9999999999994
  0
ARC
  5
31834410
330
318324AF
100
AcDbEntity
  8
JISSEN
 62
     7
100
AcDbCircle
 10
686.8172039466587
 20
154.1984803524198
 30
0.0
 40
30.0
100
AcDbArc
 50
180.0
 51
220.2190987445535
  0
ARC
  5
31834411
330
318324AF
100
AcDbEntity
  8
JISSEN
 62
     7
100
AcDbCircle
 10
670.8172039466587
 20
154.1984803524198
 30
0.0
 40
30.0
100
AcDbArc
 50
319.7809012554465
 51
0.0
  0
ARC
  5
31834412
330
318324AF
100
AcDbEntity
  8
JISSEN
 62
     7
100
AcDbCircle
 10
670.8172039466587
 20
154.1984803524198
 30
0.0
 40
24.0
100
AcDbArc
 50
300.0000000000005
 51
0.0
  0
ARC
  5
31834413
330
318324AF
100
AcDbEntity
  8
JISSEN
 62
     7
100
AcDbCircle
 10
683.8639457158929
 20
155.5058803985284
 30
0.0
 40
17.0
100
AcDbArc
 50
355.2987799884102
 51
65.54885719277021
  0
ARC
  5
31834414
330
318324AF
100
AcDbEntity
  8
JISSEN
 62
     7
100
AcDbCircle
 10
683.8175027100032
 20
154.3968431078752
 30
0.0
 40
11.0
100
AcDbArc
 50
357.041823221448
 51
68.50766469264492
  0
ARC
  5
31834415
330
318324AF
100
AcDbEntity
  8
JISSEN
 62
     7
100
AcDbCircle
 10
686.0259970360075
 20
155.1584688961392
 30
0.0
 40
10.80551655320168
100
AcDbArc
 50
356.8068888039093
 51
63.94281872591996
  0
ARC
  5
31834416
330
318324AF
100
AcDbEntity
  8
JISSEN
 62
     7
100
AcDbCircle
 10
670.8172039466587
 20
154.1984803524198
 30
0.0
 40
26.0
100
AcDbArc
 50
336.1811586065452
 51
0.7891762481359019
  0
ARC
  5
31834417
330
318324AF
100
AcDbEntity
  8
JISSEN
 62
     7
100
AcDbCircle
 10
683.8172039466587
 20
154.1984803524198
 30
0.0
 40
15.0
100
AcDbArc
 50
0.0
 51
53.31701119963433
  0
ARC
  5
31834418
330
318324AF
100
AcDbEntity
  8
JISSEN
 62
     7
100
AcDbCircle
 10
670.8172039466587
 20
154.1984803524198
 30
0.0
 40
28.0
100
AcDbArc
 50
337.9756871629567
 51
0.0
  0
LINE
  5
31834419
330
318324AF
100
AcDbEntity
  8
JISSEN
 62
     7
100
AcDbLine
 10
665.4780262178515
 20
177.1490577992002
 30
0.0
 11
665.8661620294351
 21
189.5687830999078
 31
0.0
  0
LINE
  5
3183441A
330
318324AF
100
AcDbEntity
  8
JISSEN
 62
     7
100
AcDbLine
 10
692.2235883221251
 20
177.1490577992002
 30
0.0
 11
691.8354525105416
 21
189.5687830999078
 31
0.0
  0
LINE
  5
3183441B
330
318324AF
100
AcDbEntity
  8
JISSEN
 62
     7
100
AcDbLine
 10
667.9286346530286
 20
191.5678071546158
 30
0.0
 11
689.7729798869481
 21
191.5678071546158
 31
0.0
  0
LINE
  5
3183441C
330
318324AF
100
AcDbEntity
  8
JISSEN
 62
     7
100
AcDbLine
 10
689.7729798869481
 20
191.5678071546158
 30
0.0
 11
667.9286346530289
 21
191.5678071546158
 31
0.0
  0
LINE
  5
3183441D
330
318324AF
100
AcDbEntity
  8
JISSEN
 62
     7
100
AcDbLine
 10
691.8354525105416
 20
189.5687830999078
 30
0.0
 11
665.8661620294351
 21
189.5687830999078
 31
0.0
  0
LINE
  5
3183441E
330
318324AF
100
AcDbEntity
  8
JISSEN
 62
     7
100
AcDbLine
 10
691.8354525105416
 20
189.5687830999078
 30
0.0
 11
689.7729798869481
 21
191.5678071546158
 31
0.0
  0
LINE
  5
3183441F
330
318324AF
100
AcDbEntity
  8
JISSEN
 62
     7
100
AcDbLine
 10
665.8661620294351
 20
189.5687830999078
 30
0.0
 11
667.9286346530286
 21
191.5678071546158
 31
0.0
  0
LINE
  5
31834420
330
318324AF
100
AcDbEntity
  8
JISSEN
 62
     7
100
AcDbLine
 10
692.2235883221251
 20
177.1490577992002
 30
0.0
 11
665.4780262178515
 21
177.1490577992002
 31
0.0
  0
LINE
  5
31834421
330
318324AF
100
AcDbEntity
  8
JISSEN
 62
     7
100
AcDbLine
 10
667.3508072699883
 20
176.0678071546158
 30
0.0
 11
665.4780262178515
 21
177.1490577992002
 31
0.0
  0
ARC
  5
31834422
330
318324AF
100
AcDbEntity
  8
JISSEN
 62
     7
100
AcDbCircle
 10
671.60841085731
 20
155.1584688961392
 30
0.0
 40
10.80551655320168
100
AcDbArc
 50
116.05718127408
 51
169.5833810006706
  0
ARC
  5
31834423
330
318324AF
100
AcDbEntity
  8
JISSEN
 62
     7
100
AcDbCircle
 10
673.7704621774246
 20
155.5058803985284
 30
0.0
 40
17.0
100
AcDbArc
 50
114.4511428072297
 51
184.7012200115897
  0
ARC
  5
31834424
330
318324AF
100
AcDbEntity
  8
JISSEN
 62
     7
100
AcDbCircle
 10
673.8169051833142
 20
154.3968431078752
 30
0.0
 40
11.0
100
AcDbArc
 50
111.492335307355
 51
177.7128202082922
  0
ARC
  5
31834425
330
318324AF
100
AcDbEntity
  8
JISSEN
 62
     7
100
AcDbCircle
 10
667.8433332237341
 20
162.2180107991345
 30
0.0
 40
5.0
100
AcDbArc
 50
107.4111121485172
 51
126.6829888003656
  0
LINE
  5
31834426
330
318324AF
100
AcDbEntity
  8
JISSEN
 62
     7
100
AcDbLine
 10
670.3508072699882
 20
163.1390691083085
 30
0.0
 11
670.3508072699882
 21
160.5390691083085
 31
0.0
  0
LINE
  5
31834427
330
318324AF
100
AcDbEntity
  8
JISSEN
 62
     7
100
AcDbLine
 10
687.3508072699883
 20
163.1390691083085
 30
0.0
 11
687.3508072699883
 21
160.5390691083085
 31
0.0
  0
ARC
  5
31834428
330
318324AF
100
AcDbEntity
  8
JISSEN
 62
     7
100
AcDbCircle
 10
672.8172039466588
 20
151.5360668875866
 30
0.0
 40
13.5
100
AcDbArc
 50
0.0
 51
41.82741212370976
  0
ARC
  5
31834429
330
318324AF
100
AcDbEntity
  8
JISSEN
 62
     7
100
AcDbCircle
 10
684.8172039466588
 20
151.5360668875866
 30
0.0
 40
13.5
100
AcDbArc
 50
138.1725878762902
 51
180.0
  0
LINE
  5
3183442A
330
318324AF
100
AcDbEntity
  8
JISSEN
 62
     7
100
AcDbLine
 10
680.1008072699882
 20
165.4678071546157
 30
0.0
 11
686.8508072699882
 21
165.4678071546157
 31
0.0
  0
LINE
  5
3183442B
330
318324AF
100
AcDbEntity
  8
JISSEN
 62
     7
100
AcDbLine
 10
680.3508072699883
 20
168.0678071546158
 30
0.0
 11
688.1508072699885
 21
168.0678071546158
 31
0.0
  0
LINE
  5
3183442C
330
318324AF
100
AcDbEntity
  8
JISSEN
 62
     7
100
AcDbLine
 10
667.3508072699883
 20
176.0678071546158
 30
0.0
 11
690.3508072699882
 21
176.0678071546158
 31
0.0
  0
LINE
  5
3183442D
330
318324AF
100
AcDbEntity
  8
JISSEN
 62
     7
100
AcDbLine
 10
687.2008072699882
 20
163.7489068708695
 30
0.0
 11
680.3147926178692
 21
163.7489068708696
 31
0.0
  0
LINE
  5
3183442E
330
318324AF
100
AcDbEntity
  8
JISSEN
 62
     7
100
AcDbLine
 10
687.3508072699883
 20
162.8390691083085
 30
0.0
 11
678.8508072699883
 21
162.8390691083085
 31
0.0
  0
LINE
  5
3183442F
330
318324AF
100
AcDbEntity
  8
JISSEN
 62
     7
100
AcDbLine
 10
685.9508072699879
 20
163.1390691083088
 30
0.0
 11
680.5395512747477
 21
163.1390691083087
 31
0.0
  0
LINE
  5
31834430
330
318324AF
100
AcDbEntity
  8
JISSEN
 62
     7
100
AcDbLine
 10
681.5508072699883
 20
169.5422601843166
 30
0.0
 11
680.1008072699882
 21
169.5422601843166
 31
0.0
  0
LINE
  5
31834431
330
318324AF
100
AcDbEntity
  8
JISSEN
 62
     7
100
AcDbLine
 10
676.1508072699885
 20
171.5422601843166
 30
0.0
 11
681.5508072699883
 21
171.5422601843166
 31
0.0
  0
ARC
  5
31834432
330
318324AF
100
AcDbEntity
  8
JISSEN
 62
     7
100
AcDbCircle
 10
691.3508072699883
 20
171.8902872063361
 30
0.0
 40
1.0
100
AcDbArc
 50
180.0
 51
245.3756816478326
  0
LINE
  5
31834433
330
318324AF
100
AcDbEntity
  8
JISSEN
 62
     7
100
AcDbLine
 10
688.1508072699885
 20
174.5678071546158
 30
0.0
 11
688.1508072699885
 21
168.0678071546158
 31
0.0
  0
LINE
  5
31834434
330
318324AF
100
AcDbEntity
  8
JISSEN
 62
     7
100
AcDbLine
 10
682.5672039466588
 20
174.5678071546158
 30
0.0
 11
682.5672039466589
 21
168.0678071546158
 31
0.0
  0
LINE
  5
31834435
330
318324AF
100
AcDbEntity
  8
JISSEN
 62
     7
100
AcDbLine
 10
681.1922039466587
 20
174.5678071546158
 30
0.0
 11
690.3508072699882
 21
174.5678071546158
 31
0.0
  0
LINE
  5
31834436
330
318324AF
100
AcDbEntity
  8
JISSEN
 62
     7
100
AcDbLine
 10
690.3508072699882
 20
171.8902872063361
 30
0.0
 11
690.3508072699882
 21
176.0678071546158
 31
0.0
  0
LINE
  5
31834437
330
318324AF
100
AcDbEntity
  8
JISSEN
 62
     7
100
AcDbLine
 10
690.3508072699882
 20
176.0678071546158
 30
0.0
 11
692.2235883221251
 21
177.1490577992002
 31
0.0
  0
LINE
  5
31834438
330
318324AF
100
AcDbEntity
  8
JISSEN
 62
     7
100
AcDbLine
 10
681.1922039466587
 20
174.5678071546158
 30
0.0
 11
681.192203946659
 21
176.0678071546158
 31
0.0
  0
ARC
  5
31834439
330
318324AF
100
AcDbEntity
  8
JISSEN
 62
     7
100
AcDbCircle
 10
689.7910746695834
 20
162.2180107991345
 30
0.0
 40
5.0
100
AcDbArc
 50
53.31701119963433
 51
72.58888785148278
  0
LINE
  5
3183443A
330
318324AF
100
AcDbEntity
  8
JISSEN
 62
     7
100
AcDbLine
 10
686.8508072699882
 20
168.0678071546158
 30
0.0
 11
686.8508072699882
 21
165.4678071546157
 31
0.0
  0
LINE
  5
3183443B
330
318324AF
100
AcDbEntity
  8
JISSEN
 62
     7
100
AcDbLine
 10
681.8508072699883
 20
171.2422601843167
 30
0.0
 11
681.8508072699883
 21
169.8422601843166
 31
0.0
  0
ARC
  5
3183443C
330
318324AF
100
AcDbEntity
  8
JISSEN
 62
     7
100
AcDbCircle
 10
681.5508072699883
 20
171.2422601843167
 30
0.0
 40
0.3
100
AcDbArc
 50
0.0
 51
90.0
  0
ARC
  5
3183443D
330
318324AF
100
AcDbEntity
  8
JISSEN
 62
     7
100
AcDbCircle
 10
681.5508072699883
 20
169.8422601843166
 30
0.0
 40
0.3
100
AcDbArc
 50
270.0
 51
0.0
  0
LINE
  5
3183443E
330
318324AF
100
AcDbEntity
  8
JISSEN
 62
     7
100
AcDbLine
 10
687.2008072699882
 20
163.7489068708696
 30
0.0
 11
686.144537280858
 21
163.1390691083085
 31
0.0
  0
LINE
  5
3183443F
330
318324AF
100
AcDbEntity
  8
JISSEN
 62
     7
100
AcDbLine
 10
687.2008072699882
 20
163.7489068708696
 30
0.0
 11
687.2008072699882
 21
164.1656706454021
 31
0.0
  0
ARC
  5
31834440
330
318324AF
100
AcDbEntity
  8
JISSEN
 62
     7
100
AcDbCircle
 10
687.7008072699882
 20
164.1656706454021
 30
0.0
 40
0.5
100
AcDbArc
 50
68.84536973466878
 51
180.0
  0
LINE
  5
31834441
330
318324AF
100
AcDbEntity
  8
JISSEN
 62
     7
100
AcDbLine
 10
684.8508072699887
 20
163.1390691083085
 30
0.0
 11
687.3508072699883
 21
163.1390691083085
 31
0.0
  0
ARC
  5
31834442
330
318324AF
100
AcDbEntity
  8
JISSEN
 62
     7
100
AcDbCircle
 10
666.3508072699883
 20
171.8902872063361
 30
0.0
 40
1.0
100
AcDbArc
 50
294.6243183521673
 51
0.0
  0
LINE
  5
31834443
330
318324AF
100
AcDbEntity
  8
JISSEN
 62
     7
100
AcDbLine
 10
675.0672039466588
 20
174.5678071546158
 30
0.0
 11
675.0672039466589
 21
168.0678071546158
 31
0.0
  0
LINE
  5
31834444
330
318324AF
100
AcDbEntity
  8
JISSEN
 62
     7
100
AcDbLine
 10
669.5508072699883
 20
174.5678071546158
 30
0.0
 11
669.5508072699883
 21
168.0678071546158
 31
0.0
  0
LINE
  5
31834445
330
318324AF
100
AcDbEntity
  8
JISSEN
 62
     7
100
AcDbLine
 10
667.3508072699883
 20
174.5678071546158
 30
0.0
 11
676.4422039466587
 21
174.5678071546158
 31
0.0
  0
LINE
  5
31834446
330
318324AF
100
AcDbEntity
  8
JISSEN
 62
     7
100
AcDbLine
 10
676.4422039466587
 20
174.5678071546158
 30
0.0
 11
676.4422039466589
 21
176.0678071546158
 31
0.0
  0
LINE
  5
31834447
330
318324AF
100
AcDbEntity
  8
JISSEN
 62
     7
100
AcDbLine
 10
667.3508072699883
 20
171.8902872063361
 30
0.0
 11
667.3508072699883
 21
176.0678071546158
 31
0.0
  0
LINE
  5
31834448
330
318324AF
100
AcDbEntity
  8
JISSEN
 62
     7
100
AcDbLine
 10
670.8508072699883
 20
165.4678071546157
 30
0.0
 11
677.6008072699883
 21
165.4678071546157
 31
0.0
  0
LINE
  5
31834449
330
318324AF
100
AcDbEntity
  8
JISSEN
 62
     7
100
AcDbLine
 10
669.5508072699883
 20
168.0678071546158
 30
0.0
 11
677.3508072699883
 21
168.0678071546158
 31
0.0
  0
LINE
  5
3183444A
330
318324AF
100
AcDbEntity
  8
JISSEN
 62
     7
100
AcDbLine
 10
677.162063265229
 20
163.1390691083085
 30
0.0
 11
671.7508072699883
 21
163.1390691083084
 31
0.0
  0
LINE
  5
3183444B
330
318324AF
100
AcDbEntity
  8
JISSEN
 62
     7
100
AcDbLine
 10
677.3868219221076
 20
163.7489068708696
 30
0.0
 11
670.5008072699883
 21
163.7489068708695
 31
0.0
  0
LINE
  5
3183444C
330
318324AF
100
AcDbEntity
  8
JISSEN
 62
     7
100
AcDbLine
 10
670.3508072699882
 20
162.8390691083085
 30
0.0
 11
678.8508072699883
 21
162.8390691083085
 31
0.0
  0
LINE
  5
3183444D
330
318324AF
100
AcDbEntity
  8
JISSEN
 62
     7
100
AcDbLine
 10
677.3508072699883
 20
168.0678071546158
 30
0.0
 11
677.3508072699883
 21
165.4678071546157
 31
0.0
  0
LINE
  5
3183444E
330
318324AF
100
AcDbEntity
  8
JISSEN
 62
     7
100
AcDbLine
 10
677.6008072699883
 20
169.5422601843166
 30
0.0
 11
677.6008072699883
 21
165.5783148451948
 31
0.0
  0
LINE
  5
3183444F
330
318324AF
100
AcDbEntity
  8
JISSEN
 62
     7
100
AcDbLine
 10
680.3508072699883
 20
168.0678071546158
 30
0.0
 11
680.3508072699883
 21
165.4678071546157
 31
0.0
  0
LINE
  5
31834450
330
318324AF
100
AcDbEntity
  8
JISSEN
 62
     7
100
AcDbLine
 10
680.1008072699882
 20
169.5422601843166
 30
0.0
 11
680.1008072699882
 21
165.5783148451948
 31
0.0
  0
LINE
  5
31834451
330
318324AF
100
AcDbEntity
  8
JISSEN
 62
     7
100
AcDbLine
 10
677.6008072699883
 20
169.5422601843166
 30
0.0
 11
676.1508072699885
 21
169.5422601843166
 31
0.0
  0
LINE
  5
31834452
330
318324AF
100
AcDbEntity
  8
JISSEN
 62
     7
100
AcDbLine
 10
675.8508072699883
 20
169.8422601843166
 30
0.0
 11
675.8508072699883
 21
171.2422601843167
 31
0.0
  0
ARC
  5
31834453
330
318324AF
100
AcDbEntity
  8
JISSEN
 62
     7
100
AcDbCircle
 10
676.1508072699885
 20
171.2422601843167
 30
0.0
 40
0.3
100
AcDbArc
 50
90.0
 51
180.0
  0
ARC
  5
31834454
330
318324AF
100
AcDbEntity
  8
JISSEN
 62
     7
100
AcDbCircle
 10
676.1508072699885
 20
169.8422601843166
 30
0.0
 40
0.3
100
AcDbArc
 50
180.0
 51
270.0
  0
ARC
  5
31834455
330
318324AF
100
AcDbEntity
  8
JISSEN
 62
     7
100
AcDbCircle
 10
670.6008072699883
 20
165.5783148451948
 30
0.0
 40
7.0
100
AcDbArc
 50
336.9632903547661
 51
0.0
  0
ARC
  5
31834456
330
318324AF
100
AcDbEntity
  8
JISSEN
 62
     7
100
AcDbCircle
 10
687.1008072699883
 20
165.5783148451948
 30
0.0
 40
7.0
100
AcDbArc
 50
180.0
 51
203.0367096452338
  0
LINE
  5
31834457
330
318324AF
100
AcDbEntity
  8
JISSEN
 62
     7
100
AcDbLine
 10
670.8508072699883
 20
168.0678071546158
 30
0.0
 11
670.8508072699883
 21
165.4678071546157
 31
0.0
  0
INSERT
  5
31834458
330
318324AF
100
AcDbEntity
  8
SUNPOU
 62
     7
100
AcDbBlockReference
  2
A$CB243
 10
673.1840231379683
 20
172.9229255608908
 30
0.0
 50
180.0
  0
LINE
  5
31834459
330
318324AF
100
AcDbEntity
  8
JISSEN
 62
     7
100
AcDbLine
 10
670.5008072699883
 20
163.7489068708696
 30
0.0
 11
671.5570772591186
 21
163.1390691083085
 31
0.0
  0
LINE
  5
3183445A
330
318324AF
100
AcDbEntity
  8
JISSEN
 62
     7
100
AcDbLine
 10
670.5008072699883
 20
163.7489068708696
 30
0.0
 11
670.5008072699883
 21
164.1656706454021
 31
0.0
  0
ARC
  5
3183445B
330
318324AF
100
AcDbEntity
  8
JISSEN
 62
     7
100
AcDbCircle
 10
670.0008072699883
 20
164.1656706454021
 30
0.0
 40
0.5
100
AcDbArc
 50
0.0
 51
111.1546302653312
  0
LINE
  5
3183445C
330
318324AF
100
AcDbEntity
  8
JISSEN
 62
     7
100
AcDbLine
 10
672.8508072699878
 20
163.1390691083085
 30
0.0
 11
670.3508072699882
 21
163.1390691083085
 31
0.0
  0
LINE
  5
3183445D
330
318324AF
100
AcDbEntity
  8
JISSEN
 62
     7
100
AcDbLine
 10
670.3508072699882
 20
160.5390691083085
 30
0.0
 11
687.3508072699883
 21
160.5390691083085
 31
0.0
  0
LINE
  5
3183445E
330
318324AF
100
AcDbEntity
  8
JISSEN
 62
     7
100
AcDbLine
 10
683.8072441661529
 20
159.464328171471
 30
0.0
 11
673.8943703738236
 21
159.464328171471
 31
0.0
  0
ARC
  5
3183445F
330
318324AF
100
AcDbEntity
  8
JISSEN
 62
     7
100
AcDbCircle
 10
678.8172039466585
 20
165.8615279165109
 30
0.0
 40
19.34838405080195
100
AcDbArc
 50
276.2426042286274
 51
277.423929589629
  0
ARC
  5
31834460
330
318324AF
100
AcDbEntity
  8
JISSEN
 62
     7
100
AcDbCircle
 10
678.8172039466587
 20
127.4891438166232
 30
0.0
 40
19.34838405080195
100
AcDbArc
 50
82.57607041037097
 51
83.77775282684648
  0
ARC
  5
31834461
330
318324AF
100
AcDbEntity
  8
JISSEN
 62
     7
100
AcDbCircle
 10
678.8172039466587
 20
131.1578510392921
 30
0.0
 40
19.34838405080195
100
AcDbArc
 50
82.57607041037097
 51
84.56352505831018
  0
LINE
  5
31834462
330
318324AF
100
AcDbEntity
  8
JISSEN
 62
     7
100
AcDbLine
 10
683.317203946659
 20
150.5193547883153
 30
0.0
 11
680.6263082959776
 21
150.7552275325986
 31
0.0
  0
LINE
  5
31834463
330
318324AF
100
AcDbEntity
  8
JISSEN
 62
     7
100
AcDbLine
 10
683.317203946659
 20
150.6197382305734
 30
0.0
 11
680.6190928733879
 21
150.8562434488536
 31
0.0
  0
ARC
  5
31834464
330
318324AF
100
AcDbEntity
  8
JISSEN
 62
     7
100
AcDbCircle
 10
678.8172039466587
 20
134.5947867514055
 30
0.0
 40
19.34838405080195
100
AcDbArc
 50
81.08020482368146
 51
85.29801660104849
  0
ARC
  5
31834465
330
318324AF
100
AcDbEntity
  8
JISSEN
 62
     7
100
AcDbCircle
 10
681.4422039466587
 20
146.5860668875867
 30
0.0
 40
1.199999999999999
100
AcDbArc
 50
248.576702752118
 51
270.0
  0
LWPOLYLINE
  5
31834466
330
318324AF
100
AcDbEntity
  8
JISSEN
 62
     7
100
AcDbPolyline
 90
        2
 70
     0
 43
0.0
 10
681.4422039466587
 20
145.9474308554729
 42
-0.0047313531205585
 10
680.9719095222722
 20
145.9168103644723
 42
-0.0078363086204064
  0
ARC
  5
31834467
330
318324AF
100
AcDbEntity
  8
JISSEN
 62
     7
100
AcDbCircle
 10
681.0172039466587
 20
155.4360668875866
 30
0.0
 40
0.2
100
AcDbArc
 50
180.0
 51
270.0
  0
LWPOLYLINE
  5
31834468
330
318324AF
100
AcDbEntity
  8
JISSEN
 62
     7
100
AcDbPolyline
 90
        3
 70
     0
 43
0.0
 10
681.1751809782661
 20
154.5144745182702
 42
0.0222413121313491
 10
680.8324582730406
 20
154.5817814951352
 42
0.0069244247785704
 10
680.5672039466587
 20
154.6179712996764
 42
0.0155729562488785
  0
LINE
  5
31834469
330
318324AF
100
AcDbEntity
  8
JISSEN
 62
     7
100
AcDbLine
 10
681.3172039466589
 20
141.08268842306
 30
0.0
 11
680.3578424019761
 21
154.5137500486209
 31
0.0
  0
ARC
  5
3183446A
330
318324AF
100
AcDbEntity
  8
JISSEN
 62
     7
100
AcDbCircle
 10
678.8172039466587
 20
170.6952016791515
 30
0.0
 40
10.93848722979607
100
AcDbArc
 50
255.6397940472947
 51
284.3602059527052
  0
ARC
  5
3183446B
330
318324AF
100
AcDbEntity
  8
JISSEN
 62
     7
100
AcDbCircle
 10
686.3172039466587
 20
146.3287637390625
 30
0.0
 40
4.0
100
AcDbArc
 50
0.0
 51
85.00000000000026
  0
LINE
  5
3183446C
330
318324AF
100
AcDbEntity
  8
JISSEN
 62
     7
100
AcDbLine
 10
681.3172039466589
 20
146.675335866567
 30
0.0
 11
681.3172039466589
 21
150.3440430892359
 31
0.0
  0
LINE
  5
3183446D
330
318324AF
100
AcDbEntity
  8
JISSEN
 62
     7
100
AcDbLine
 10
686.3172039466587
 20
146.5360668875866
 30
0.0
 11
686.3172039466587
 21
151.5360668875866
 31
0.0
  0
LINE
  5
3183446E
330
318324AF
100
AcDbEntity
  8
JISSEN
 62
     7
100
AcDbLine
 10
683.3172039466587
 20
147.7860668875866
 30
0.0
 11
683.3172039466587
 21
151.5360668875866
 31
0.0
  0
ARC
  5
3183446F
330
318324AF
100
AcDbEntity
  8
JISSEN
 62
     7
100
AcDbCircle
 10
681.5441736383673
 20
153.7360668875867
 30
0.0
 40
1.5
100
AcDbArc
 50
14.14900450893219
 51
90.0
  0
LINE
  5
31834470
330
318324AF
100
AcDbEntity
  8
JISSEN
 62
     7
100
AcDbLine
 10
686.317203946659
 20
150.3440430892359
 30
0.0
 11
686.6658269176496
 21
150.3135425314295
 31
0.0
  0
LINE
  5
31834471
330
318324AF
100
AcDbEntity
  8
JISSEN
 62
     7
100
AcDbLine
 10
681.8172039466589
 20
153.7091783288877
 30
0.0
 11
681.8172039466589
 21
150.751222004883
 31
0.0
  0
ARC
  5
31834472
330
318324AF
100
AcDbEntity
  8
JISSEN
 62
     7
100
AcDbCircle
 10
672.8172039466588
 20
151.5360668875866
 30
0.0
 40
10.5
100
AcDbArc
 50
0.0
 51
14.14900450893219
  0
LINE
  5
31834473
330
318324AF
100
AcDbEntity
  8
JISSEN
 62
     7
100
AcDbLine
 10
681.6672039466588
 20
153.8885608172935
 30
0.0
 11
681.6672039466588
 21
153.7321184718238
 31
0.0
  0
LINE
  5
31834474
330
318324AF
100
AcDbEntity
  8
JISSEN
 62
     7
100
AcDbLine
 10
681.5441736383673
 20
155.2360668875867
 30
0.0
 11
681.0172039466587
 21
155.2360668875867
 31
0.0
  0
LINE
  5
31834475
330
318324AF
100
AcDbEntity
  8
JISSEN
 62
     7
100
AcDbLine
 10
682.0791599547779
 20
155.1374196773058
 30
0.0
 11
681.3172039466589
 21
154.6975041709077
 31
0.0
  0
ARC
  5
31834476
330
318324AF
100
AcDbEntity
  8
JISSEN
 62
     7
100
AcDbCircle
 10
678.817203946659
 20
159.02763118983
 30
0.0
 40
5.0
100
AcDbArc
 50
296.3208098216045
 51
300.0000000000005
  0
ARC
  5
31834477
330
318324AF
100
AcDbEntity
  8
JISSEN
 62
     7
100
AcDbCircle
 10
681.0230728763481
 20
153.8885608172935
 30
0.0
 40
0.6441310703106079
100
AcDbArc
 50
0.0
 51
76.34089481470039
  0
LINE
  5
31834478
330
318324AF
100
AcDbEntity
  8
JISSEN
 62
     7
100
AcDbLine
 10
683.317203946659
 20
150.1687313901564
 30
0.0
 11
681.3172039466589
 21
149.993419691077
 31
0.0
  0
LINE
  5
31834479
330
318324AF
100
AcDbEntity
  8
JISSEN
 62
     7
100
AcDbLine
 10
685.5998808703143
 20
142.1940430892359
 30
0.0
 11
689.2300482039113
 21
141.8764446008441
 31
0.0
  0
LINE
  5
3183447A
330
318324AF
100
AcDbEntity
  8
JISSEN
 62
     7
100
AcDbLine
 10
690.3172039466589
 20
142.8726392989358
 30
0.0
 11
690.3172039466589
 21
146.3287637390625
 31
0.0
  0
LINE
  5
3183447B
330
318324AF
100
AcDbEntity
  8
JISSEN
 62
     7
100
AcDbLine
 10
690.3172039466587
 20
146.3440430892359
 30
0.0
 11
690.3172039466587
 21
146.3440430892359
 31
0.0
  0
ARC
  5
3183447C
330
318324AF
100
AcDbEntity
  8
JISSEN
 62
     7
100
AcDbCircle
 10
689.3172039466588
 20
142.8726392989359
 30
0.0
 40
1.0
100
AcDbArc
 50
265.0000000000003
 51
0.0
  0
LINE
  5
3183447D
330
318324AF
100
AcDbEntity
  8
JISSEN
 62
     7
100
AcDbLine
 10
681.4422039466587
 20
146.2860668875866
 30
0.0
 11
681.4422039466587
 21
141.7860668875866
 31
0.0
  0
ARC
  5
3183447E
330
318324AF
100
AcDbEntity
  8
JISSEN
 62
     7
100
AcDbCircle
 10
681.8172039466587
 20
147.7860668875866
 30
0.0
 40
1.5
100
AcDbArc
 50
270.0
 51
0.0
  0
LINE
  5
3183447F
330
318324AF
100
AcDbEntity
  8
JISSEN
 62
     7
100
AcDbLine
 10
681.8172039466587
 20
146.2860668875866
 30
0.0
 11
681.4422039466587
 21
146.2860668875866
 31
0.0
  0
LINE
  5
31834480
330
318324AF
100
AcDbEntity
  8
JISSEN
 62
     7
100
AcDbLine
 10
685.3172039466588
 20
140.6940430892359
 30
0.0
 11
685.4672039466588
 21
140.6940430892359
 31
0.0
  0
LINE
  5
31834481
330
318324AF
100
AcDbEntity
  8
JISSEN
 62
     7
100
AcDbLine
 10
682.507873063912
 20
138.8102104872674
 30
0.0
 11
683.8879375665073
 21
138.8102104872674
 31
0.0
  0
ARC
  5
31834482
330
318324AF
100
AcDbEntity
  8
JISSEN
 62
     7
100
AcDbCircle
 10
682.8172039466587
 20
141.0826884230601
 30
0.0
 40
1.5
100
AcDbArc
 50
180.0
 51
255.7499673021932
  0
ARC
  5
31834483
330
318324AF
100
AcDbEntity
  8
JISSEN
 62
     7
100
AcDbCircle
 10
671.3172039466587
 20
146.3287637390625
 30
0.0
 40
4.0
100
AcDbArc
 50
94.99999999999975
 51
180.0
  0
LINE
  5
31834484
330
318324AF
100
AcDbEntity
  8
JISSEN
 62
     7
100
AcDbLine
 10
676.3172039466589
 20
146.675335866567
 30
0.0
 11
676.3172039466589
 21
150.3440430892359
 31
0.0
  0
LINE
  5
31834485
330
318324AF
100
AcDbEntity
  8
JISSEN
 62
     7
100
AcDbLine
 10
674.3172039466587
 20
147.7860668875866
 30
0.0
 11
674.3172039466587
 21
151.5360668875866
 31
0.0
  0
LINE
  5
31834486
330
318324AF
100
AcDbEntity
  8
JISSEN
 62
     7
100
AcDbLine
 10
671.3172039466587
 20
146.5360668875866
 30
0.0
 11
671.3172039466587
 21
151.5360668875866
 31
0.0
  0
LINE
  5
31834487
330
318324AF
100
AcDbEntity
  8
JISSEN
 62
     7
100
AcDbLine
 10
677.2765654913419
 20
154.5137500486209
 30
0.0
 11
676.3172039466588
 21
141.08268842306
 31
0.0
  0
ARC
  5
31834488
330
318324AF
100
AcDbEntity
  8
JISSEN
 62
     7
100
AcDbCircle
 10
676.6172039466587
 20
155.4360668875866
 30
0.0
 40
0.2
100
AcDbArc
 50
270.0
 51
0.0
  0
ARC
  5
31834489
330
318324AF
100
AcDbEntity
  8
JISSEN
 62
     7
100
AcDbCircle
 10
676.0902342549502
 20
153.7360668875867
 30
0.0
 40
1.5
100
AcDbArc
 50
90.0
 51
165.8509954910678
  0
LINE
  5
3183448A
330
318324AF
100
AcDbEntity
  8
JISSEN
 62
     7
100
AcDbLine
 10
677.067203946659
 20
154.5137500486209
 30
0.0
 11
677.067203946659
 21
157.0261205502171
 31
0.0
  0
LINE
  5
3183448B
330
318324AF
100
AcDbEntity
  8
JISSEN
 62
     7
100
AcDbLine
 10
680.567203946659
 20
157.0261205502171
 30
0.0
 11
680.567203946659
 21
154.5137500486209
 31
0.0
  0
LINE
  5
3183448C
330
318324AF
100
AcDbEntity
  8
JISSEN
 62
     7
100
AcDbLine
 10
677.067203946659
 20
157.0261205502171
 30
0.0
 11
680.567203946659
 21
157.0261205502171
 31
0.0
  0
LINE
  5
3183448D
330
318324AF
100
AcDbEntity
  8
JISSEN
 62
     7
100
AcDbLine
 10
680.567203946659
 20
155.296921188785
 30
0.0
 11
677.067203946659
 21
155.296921188785
 31
0.0
  0
LINE
  5
3183448E
330
318324AF
100
AcDbEntity
  8
JISSEN
 62
     7
100
AcDbLine
 10
680.8172039466588
 20
155.4360668875866
 30
0.0
 11
680.8172039466588
 21
158.2494040942045
 31
0.0
  0
ARC
  5
3183448F
330
318324AF
100
AcDbEntity
  8
JISSEN
 62
     7
100
AcDbCircle
 10
680.5172039466587
 20
156.4536001050502
 30
0.0
 40
0.3
100
AcDbArc
 50
0.0
 51
80.40593177313521
  0
LINE
  5
31834490
330
318324AF
100
AcDbEntity
  8
JISSEN
 62
     7
100
AcDbLine
 10
676.8172039466588
 20
155.4360668875866
 30
0.0
 11
676.8172039466588
 21
158.2494040942045
 31
0.0
  0
ARC
  5
31834491
330
318324AF
100
AcDbEntity
  8
JISSEN
 62
     7
100
AcDbCircle
 10
677.1172039466587
 20
156.4536001050502
 30
0.0
 40
0.3
100
AcDbArc
 50
99.59406822683856
 51
180.0
  0
ARC
  5
31834492
330
318324AF
100
AcDbEntity
  8
JISSEN
 62
     7
100
AcDbCircle
 10
678.8172039466587
 20
134.5947867514055
 30
0.0
 40
19.34838405080195
100
AcDbArc
 50
94.70198339895151
 51
98.91979517631853
  0
LINE
  5
31834493
330
318324AF
100
AcDbEntity
  8
JISSEN
 62
     7
100
AcDbLine
 10
680.567203946659
 20
154.5137500486209
 30
0.0
 11
677.067203946659
 21
154.5137500486209
 31
0.0
  0
LINE
  5
31834494
330
318324AF
100
AcDbEntity
  8
JISSEN
 62
     7
100
AcDbLine
 10
675.817203946659
 20
153.7091783288877
 30
0.0
 11
675.817203946659
 21
150.751222004883
 31
0.0
  0
ARC
  5
31834495
330
318324AF
100
AcDbEntity
  8
JISSEN
 62
     7
100
AcDbCircle
 10
684.8172039466588
 20
151.5360668875866
 30
0.0
 40
10.5
100
AcDbArc
 50
165.8509954910678
 51
180.0
  0
LINE
  5
31834496
330
318324AF
100
AcDbEntity
  8
JISSEN
 62
     7
100
AcDbLine
 10
675.9672039466588
 20
153.7321184718238
 30
0.0
 11
675.9672039466588
 21
153.8885608172935
 31
0.0
  0
LINE
  5
31834497
330
318324AF
100
AcDbEntity
  8
JISSEN
 62
     7
100
AcDbLine
 10
675.5552479385401
 20
155.1374196773059
 30
0.0
 11
676.3172039466589
 21
154.6975041709077
 31
0.0
  0
LINE
  5
31834498
330
318324AF
100
AcDbEntity
  8
JISSEN
 62
     7
100
AcDbLine
 10
676.0902342549502
 20
155.2360668875867
 30
0.0
 11
676.6172039466587
 21
155.2360668875867
 31
0.0
  0
ARC
  5
31834499
330
318324AF
100
AcDbEntity
  8
JISSEN
 62
     7
100
AcDbCircle
 10
678.817203946659
 20
159.02763118983
 30
0.0
 40
5.0
100
AcDbArc
 50
239.9999999999994
 51
243.679190178394
  0
LWPOLYLINE
  5
3183449A
330
318324AF
100
AcDbEntity
  8
JISSEN
 62
     7
100
AcDbPolyline
 90
        3
 70
     0
 43
0.0
 10
677.0672039466587
 20
154.6179712996764
 42
0.0069244247785686
 10
676.8019496202771
 20
154.5817814951352
 42
0.0222413121313502
 10
676.4592269150516
 20
154.5144745182702
 42
0.3154119100223803
  0
ARC
  5
3183449B
330
318324AF
100
AcDbEntity
  8
JISSEN
 62
     7
100
AcDbCircle
 10
676.6113350169693
 20
153.8885608172935
 30
0.0
 40
0.6441310703106079
100
AcDbArc
 50
103.6591051852995
 51
180.0
  0
LINE
  5
3183449C
330
318324AF
100
AcDbEntity
  8
JISSEN
 62
     7
100
AcDbLine
 10
674.3172039466587
 20
150.6197382305734
 30
0.0
 11
677.0153150199298
 21
150.8562434488536
 31
0.0
  0
LINE
  5
3183449D
330
318324AF
100
AcDbEntity
  8
JISSEN
 62
     7
100
AcDbLine
 10
674.3172039466587
 20
150.5193547883153
 30
0.0
 11
677.0080995973401
 21
150.7552275325986
 31
0.0
  0
LINE
  5
3183449E
330
318324AF
100
AcDbEntity
  8
JISSEN
 62
     7
100
AcDbLine
 10
674.3172039466587
 20
150.1687313901564
 30
0.0
 11
676.3172039466589
 21
149.993419691077
 31
0.0
  0
ARC
  5
3183449F
330
318324AF
100
AcDbEntity
  8
JISSEN
 62
     7
100
AcDbCircle
 10
678.8172039466587
 20
131.1578510392921
 30
0.0
 40
19.34838405080195
100
AcDbArc
 50
95.43647494168983
 51
97.42392958962902
  0
LINE
  5
318344A0
330
318324AF
100
AcDbEntity
  8
JISSEN
 62
     7
100
AcDbLine
 10
671.3172039466587
 20
150.3440430892359
 30
0.0
 11
670.9685809756681
 21
150.3135425314295
 31
0.0
  0
LINE
  5
318344A1
330
318324AF
100
AcDbEntity
  8
JISSEN
 62
     7
100
AcDbLine
 10
676.1922039466587
 20
146.2860668875866
 30
0.0
 11
676.1922039466587
 21
141.7860668875866
 31
0.0
  0
ARC
  5
318344A2
330
318324AF
100
AcDbEntity
  8
JISSEN
 62
     7
100
AcDbCircle
 10
675.8172039466587
 20
147.7860668875866
 30
0.0
 40
1.5
100
AcDbArc
 50
180.0
 51
270.0
  0
ARC
  5
318344A3
330
318324AF
100
AcDbEntity
  8
JISSEN
 62
     7
100
AcDbCircle
 10
678.8172039466585
 20
165.8615279165109
 30
0.0
 40
19.34838405080195
100
AcDbArc
 50
262.5760704103709
 51
263.7573957713726
  0
ARC
  5
318344A4
330
318324AF
100
AcDbEntity
  8
JISSEN
 62
     7
100
AcDbCircle
 10
678.8172039466587
 20
127.4891438166232
 30
0.0
 40
19.34838405080195
100
AcDbArc
 50
96.22224717315353
 51
97.42392958962902
  0
ARC
  5
318344A5
330
318324AF
100
AcDbEntity
  8
JISSEN
 62
     7
100
AcDbCircle
 10
676.1922039466587
 20
146.5860668875867
 30
0.0
 40
1.199999999999999
100
AcDbArc
 50
270.0
 51
291.4232972478952
  0
LINE
  5
318344A6
330
318324AF
100
AcDbEntity
  8
JISSEN
 62
     7
100
AcDbLine
 10
675.8172039466587
 20
146.2860668875866
 30
0.0
 11
676.1922039466587
 21
146.2860668875866
 31
0.0
  0
LWPOLYLINE
  5
318344A7
330
318324AF
100
AcDbEntity
  8
JISSEN
 62
     7
100
AcDbPolyline
 90
        2
 70
     0
 43
0.0
 10
676.6624983710453
 20
145.9168103644723
 42
-0.0047313531205596
 10
676.1922039466587
 20
145.9474308554729
 42
-0.0263064786181953
  0
ARC
  5
318344A8
330
318324AF
100
AcDbEntity
  8
JISSEN
 62
     7
100
AcDbCircle
 10
674.817203946659
 20
141.0826884230601
 30
0.0
 40
1.5
100
AcDbArc
 50
284.2500326978067
 51
0.0
  0
LINE
  5
318344A9
330
318324AF
100
AcDbEntity
  8
JISSEN
 62
     7
100
AcDbLine
 10
673.7464703268101
 20
138.8102104872674
 30
0.0
 11
675.1265348294057
 21
138.8102104872674
 31
0.0
  0
LINE
  5
318344AA
330
318324AF
100
AcDbEntity
  8
JISSEN
 62
     7
100
AcDbLine
 10
667.3172039466587
 20
142.8726392989358
 30
0.0
 11
667.3172039466587
 21
146.3287637390625
 31
0.0
  0
LINE
  5
318344AB
330
318324AF
100
AcDbEntity
  8
JISSEN
 62
     7
100
AcDbLine
 10
667.3172039466587
 20
146.3440430892359
 30
0.0
 11
667.3172039466587
 21
146.3440430892359
 31
0.0
  0
LINE
  5
318344AC
330
318324AF
100
AcDbEntity
  8
JISSEN
 62
     7
100
AcDbLine
 10
672.0345270230032
 20
142.1940430892359
 30
0.0
 11
668.4043596894066
 21
141.8764446008441
 31
0.0
  0
LINE
  5
318344AD
330
318324AF
100
AcDbEntity
  8
JISSEN
 62
     7
100
AcDbLine
 10
672.3172039466589
 20
140.6940430892359
 30
0.0
 11
672.1672039466588
 21
140.6940430892359
 31
0.0
  0
ARC
  5
318344AE
330
318324AF
100
AcDbEntity
  8
JISSEN
 62
     7
100
AcDbCircle
 10
668.3172039466588
 20
142.8726392989358
 30
0.0
 40
1.0
100
AcDbArc
 50
180.0
 51
274.9999999999997
  0
ARC
  5
318344AF
330
318324AF
100
AcDbEntity
  8
JISSEN
 62
     7
100
AcDbCircle
 10
673.8172039466587
 20
154.1984803524198
 30
0.0
 40
15.0
100
AcDbArc
 50
126.6829888003656
 51
180.0
  0
ARC
  5
318344B0
330
318324AF
100
AcDbEntity
  8
JISSEN
 62
     7
100
AcDbCircle
 10
686.8172039466587
 20
154.1984803524198
 30
0.0
 40
26.0
100
AcDbArc
 50
173.5656684449001
 51
203.8188413934547
  0
ARC
  5
318344B1
330
318324AF
100
AcDbEntity
  8
JISSEN
 62
     7
100
AcDbCircle
 10
686.8172039466587
 20
154.1984803524198
 30
0.0
 40
28.0
100
AcDbArc
 50
180.0
 51
202.0243128370433
  0
LINE
  5
318344B2
330
318324AF
100
AcDbEntity
  8
JISSEN
 62
     7
100
AcDbLine
 10
663.9097789885529
 20
134.8271127757942
 30
0.0
 11
673.5672039466587
 21
123.4068175054029
 31
0.0
  0
LINE
  5
318344B3
330
318324AF
100
AcDbEntity
  8
JISSEN
 62
     7
100
AcDbLine
 10
681.2616154316815
 20
133.6972164008404
 30
0.0
 11
680.3320845623718
 21
134.6267472701505
 31
0.0
  0
LINE
  5
318344B4
330
318324AF
100
AcDbEntity
  8
JISSEN
 62
     7
100
AcDbLine
 10
682.817203946659
 20
135.307619490669
 30
0.0
 11
674.817203946659
 21
135.307619490669
 31
0.0
  0
LINE
  5
318344B5
330
318324AF
100
AcDbEntity
  8
JISSEN
 62
     7
100
AcDbLine
 10
682.0901297382879
 20
133.6972164008404
 30
0.0
 11
675.5442781550295
 21
133.6972164008404
 31
0.0
  0
ARC
  5
318344B6
330
318324AF
100
AcDbEntity
  8
JISSEN
 62
     7
100
AcDbCircle
 10
695.5672039466588
 20
128.1984803524198
 30
0.0
 40
12.49999999999999
100
AcDbArc
 50
163.7397952916901
 51
196.2602047083098
  0
LINE
  5
318344B7
330
318324AF
100
AcDbEntity
  8
JISSEN
 62
     7
100
AcDbLine
 10
693.7246289047646
 20
134.8271127757942
 30
0.0
 11
684.0672039466589
 21
123.4068175054029
 31
0.0
  0
ARC
  5
318344B8
330
318324AF
100
AcDbEntity
  8
JISSEN
 62
     7
100
AcDbCircle
 10
684.3172039466587
 20
138.2595197765957
 30
0.0
 40
1.0
100
AcDbArc
 50
275.0532481512506
 51
0.0
  0
LINE
  5
318344B9
330
318324AF
100
AcDbEntity
  8
JISSEN
 62
     7
100
AcDbLine
 10
685.4672039466586
 20
137.7256785501341
 30
0.0
 11
685.3172039466588
 21
137.7256785501341
 31
0.0
  0
LINE
  5
318344BA
330
318324AF
100
AcDbEntity
  8
JISSEN
 62
     7
100
AcDbLine
 10
682.817203946659
 20
137.68268842306
 30
0.0
 11
682.817203946659
 21
135.307619490669
 31
0.0
  0
LINE
  5
318344BB
330
318324AF
100
AcDbEntity
  8
JISSEN
 62
     7
100
AcDbLine
 10
682.817203946659
 20
137.1229800666379
 30
0.0
 11
684.4052854707165
 21
137.263406507374
 31
0.0
  0
ARC
  5
318344BC
330
318324AF
100
AcDbEntity
  8
JISSEN
 62
     7
100
AcDbCircle
 10
683.0469684847867
 20
138.1117234303075
 30
0.0
 40
0.4866855046380603
100
AcDbArc
 50
184.1849161251176
 51
241.8292597702504
  0
ARC
  5
318344BD
330
318324AF
100
AcDbEntity
  8
JISSEN
 62
     7
100
AcDbCircle
 10
682.5672039466588
 20
133.8468833634855
 30
0.0
 40
0.5
100
AcDbArc
 50
197.4176015349109
 51
300.0000000000005
  0
LINE
  5
318344BE
330
318324AF
100
AcDbEntity
  8
JISSEN
 62
     7
100
AcDbLine
 10
684.0672039466589
 20
122.4897625524818
 30
0.0
 11
684.0672039466589
 21
123.5444023503962
 31
0.0
  0
ARC
  5
318344BF
330
318324AF
100
AcDbEntity
  8
JISSEN
 62
     7
100
AcDbCircle
 10
662.0672039466589
 20
128.1984803524198
 30
0.0
 40
12.49999999999999
100
AcDbArc
 50
343.7397952916901
 51
16.26020470830987
  0
LINE
  5
318344C0
330
318324AF
100
AcDbEntity
  8
JISSEN
 62
     7
100
AcDbLine
 10
674.8172039466587
 20
137.1229800666379
 30
0.0
 11
673.2291224226012
 21
137.263406507374
 31
0.0
  0
LINE
  5
318344C1
330
318324AF
100
AcDbEntity
  8
JISSEN
 62
     7
100
AcDbLine
 10
676.3727924616359
 20
133.6972164008404
 30
0.0
 11
677.3023233301747
 21
134.6267472693791
 31
0.0
  0
LINE
  5
318344C2
330
318324AF
100
AcDbEntity
  8
JISSEN
 62
     7
100
AcDbLine
 10
676.0212100374446
 20
133.6972164008404
 30
0.0
 11
678.817203946659
 21
133.6972164008404
 31
0.0
  0
ARC
  5
318344C3
330
318324AF
100
AcDbEntity
  8
JISSEN
 62
     7
100
AcDbCircle
 10
678.8164193911663
 20
134.1384131548523
 30
0.0
 40
1.6
100
AcDbArc
 50
17.33173146614369
 51
46.94963846053126
  0
ARC
  5
318344C4
330
318324AF
100
AcDbEntity
  8
JISSEN
 62
     7
100
AcDbCircle
 10
678.8164193911663
 20
134.1384131548523
 30
0.0
 40
1.6
100
AcDbArc
 50
17.3317314661468
 51
46.94963846053126
  0
ARC
  5
318344C5
330
318324AF
100
AcDbEntity
  8
JISSEN
 62
     7
100
AcDbCircle
 10
678.8164193911663
 20
134.1384131548523
 30
0.0
 40
1.6
100
AcDbArc
 50
133.0503615394687
 51
162.7537116970573
  0
LINE
  5
318344C6
330
318324AF
100
AcDbEntity
  8
JISSEN
 62
     7
100
AcDbLine
 10
674.817203946659
 20
135.307619490669
 30
0.0
 11
674.817203946659
 21
137.68268842306
 31
0.0
  0
ARC
  5
318344C7
330
318324AF
100
AcDbEntity
  8
JISSEN
 62
     7
100
AcDbCircle
 10
674.587439408531
 20
138.1117234303075
 30
0.0
 40
0.4866855046380603
100
AcDbArc
 50
298.1707402297495
 51
355.8150838748823
  0
ARC
  5
318344C8
330
318324AF
100
AcDbEntity
  8
JISSEN
 62
     7
100
AcDbCircle
 10
675.0672039466588
 20
133.8468833634855
 30
0.0
 40
0.5
100
AcDbArc
 50
239.9999999999994
 51
342.582398465089
  0
LINE
  5
318344C9
330
318324AF
100
AcDbEntity
  8
JISSEN
 62
     7
100
AcDbLine
 10
672.3172039466589
 20
137.7256785501342
 30
0.0
 11
672.1672039466588
 21
137.7256785501341
 31
0.0
  0
ARC
  5
318344CA
330
318324AF
100
AcDbEntity
  8
JISSEN
 62
     7
100
AcDbCircle
 10
673.3172039466589
 20
138.2595197765957
 30
0.0
 40
1.0
100
AcDbArc
 50
180.0
 51
264.9467518487493
  0
LINE
  5
318344CB
330
318324AF
100
AcDbEntity
  8
JISSEN
 62
     7
100
AcDbLine
 10
673.5672039466587
 20
122.4897625524818
 30
0.0
 11
673.5672039466587
 21
123.5444023503962
 31
0.0
  0
LWPOLYLINE
  5
318344CC
330
318324AF
100
AcDbEntity
  8
SAISEN
 62
     7
100
AcDbPolyline
 90
        2
 70
     0
 43
0.0
 10
666.6272899403812
 20
176.485530079628
 10
667.072708514237
 20
190.7382121719118
  0
LWPOLYLINE
  5
318344CD
330
318324AF
100
AcDbEntity
  8
SAISEN
 62
     7
100
AcDbPolyline
 90
        2
 70
     0
 43
0.0
 10
691.0743245995959
 20
176.485530079628
 10
690.6289060257395
 20
190.7382121719118
  0
LINE
  5
318344CE
330
318324AF
100
AcDbEntity
  8
JISSEN
 62
     7
100
AcDbLine
 10
666.8618940101241
 20
164.8656706454022
 30
0.0
 11
670.8508072699883
 21
165.4678071546157
 31
0.0
  0
LINE
  5
318344CF
330
318324AF
100
AcDbEntity
  8
JISSEN
 62
     7
100
AcDbLine
 10
686.8508072699882
 20
165.4678071546157
 30
0.0
 11
690.7725138831938
 21
164.8656706454022
 31
0.0
  0
LINE
  5
318344D0
330
318324AF
100
AcDbEntity
  8
JISSEN
 62
     7
100
AcDbLine
 10
689.4696503328041
 20
120.8972164008404
 30
0.0
 11
683.6333253376574
 21
120.8972164008404
 31
0.0
  0
LINE
  5
318344D1
330
318324AF
100
AcDbEntity
  8
JISSEN
 62
     7
100
AcDbLine
 10
682.0556221600916
 20
120.8972164008404
 30
0.0
 11
675.5787857332261
 21
120.8972164008404
 31
0.0
  0
LINE
  5
318344D2
330
318324AF
100
AcDbEntity
  8
JISSEN
 62
     7
100
AcDbLine
 10
694.9782525810491
 20
120.8972164008404
 30
0.0
 11
696.3902374580055
 21
120.5456903084079
 31
0.0
  0
LINE
  5
318344D3
330
318324AF
100
AcDbEntity
  8
JISSEN
 62
     7
100
AcDbLine
 10
696.3841978429395
 20
120.496430814393
 30
0.0
 11
695.8455353396641
 21
120.496430814393
 31
0.0
  0
LINE
  5
318344D4
330
318324AF
100
AcDbEntity
  8
JISSEN
 62
     7
100
AcDbLine
 10
695.7945950900923
 20
120.503026856384
 30
0.0
 11
694.2979825146799
 21
120.8972164008404
 31
0.0
  0
ARC
  5
318344D5
330
318324AF
100
AcDbEntity
  8
JISSEN
 62
     7
100
AcDbCircle
 10
696.3841978429395
 20
120.521430814393
 30
0.0
 40
0.025
100
AcDbArc
 50
270.0
 51
76.01991622361808
  0
ARC
  5
318344D6
330
318324AF
100
AcDbEntity
  8
JISSEN
 62
     7
100
AcDbCircle
 10
695.8455353396641
 20
120.6964308143931
 30
0.0
 40
0.2
100
AcDbArc
 50
255.2441165898004
 51
270.0
  0
LINE
  5
318344D7
330
318324AF
100
AcDbEntity
  8
JISSEN
 62
     7
100
AcDbLine
 10
691.3281827169935
 20
120.8972164008404
 30
0.0
 11
692.2861759329098
 21
120.5941014992138
 31
0.0
  0
LINE
  5
318344D8
330
318324AF
100
AcDbEntity
  8
JISSEN
 62
     7
100
AcDbLine
 10
692.2710926372249
 20
120.496430814393
 30
0.0
 11
690.5330739561327
 21
120.496430814393
 31
0.0
  0
LINE
  5
318344D9
330
318324AF
100
AcDbEntity
  8
JISSEN
 62
     7
100
AcDbLine
 10
690.4602870423839
 20
120.5101459111214
 30
0.0
 11
689.4696503328041
 21
120.8972164008404
 31
0.0
  0
ARC
  5
318344DA
330
318324AF
100
AcDbEntity
  8
JISSEN
 62
     7
100
AcDbCircle
 10
692.2710926372249
 20
120.5464308143931
 30
0.0
 40
0.05
100
AcDbArc
 50
270.0
 51
72.44231073081144
  0
ARC
  5
318344DB
330
318324AF
100
AcDbEntity
  8
JISSEN
 62
     7
100
AcDbCircle
 10
690.5330739561327
 20
120.6964308143931
 30
0.0
 40
0.2
100
AcDbArc
 50
248.6579710522168
 51
270.0
  0
LINE
  5
318344DC
330
318324AF
100
AcDbEntity
  8
JISSEN
 62
     7
100
AcDbLine
 10
684.5874244423737
 20
120.496430814393
 30
0.0
 11
682.0968812000037
 21
120.496430814393
 31
0.0
  0
LINE
  5
318344DD
330
318324AF
100
AcDbEntity
  8
JISSEN
 62
     7
100
AcDbLine
 10
684.3258061949038
 20
120.8972164008404
 30
0.0
 11
684.6440016432166
 21
120.6788869866592
 31
0.0
  0
LINE
  5
318344DE
330
318324AF
100
AcDbEntity
  8
JISSEN
 62
     7
100
AcDbLine
 10
681.7870037443449
 20
120.8972164008404
 30
0.0
 11
682.0125083129087
 21
120.5427538554325
 31
0.0
  0
ARC
  5
318344DF
330
318324AF
100
AcDbEntity
  8
JISSEN
 62
     7
100
AcDbCircle
 10
684.5874244423737
 20
120.5964308143931
 30
0.0
 40
0.1
100
AcDbArc
 50
270.0
 51
55.54408185928989
  0
ARC
  5
318344E0
330
318324AF
100
AcDbEntity
  8
JISSEN
 62
     7
100
AcDbCircle
 10
682.0968812000037
 20
120.5964308143931
 30
0.0
 40
0.1
100
AcDbArc
 50
212.4640003908327
 51
270.0
  0
ARC
  5
318344E1
330
318324AF
100
AcDbEntity
  8
JISSEN
 62
     7
100
AcDbCircle
 10
661.7888725536536
 20
120.6964308143931
 30
0.0
 40
0.2
100
AcDbArc
 50
270.0
 51
284.7558834101996
  0
ARC
  5
318344E2
330
318324AF
100
AcDbEntity
  8
JISSEN
 62
     7
100
AcDbCircle
 10
661.2502100503779
 20
120.521430814393
 30
0.0
 40
0.025
100
AcDbArc
 50
103.9800837763819
 51
270.0
  0
LINE
  5
318344E3
330
318324AF
100
AcDbEntity
  8
JISSEN
 62
     7
100
AcDbLine
 10
661.8398128032254
 20
120.503026856384
 30
0.0
 11
663.336425378638
 21
120.8972164008404
 31
0.0
  0
LINE
  5
318344E4
330
318324AF
100
AcDbEntity
  8
JISSEN
 62
     7
100
AcDbLine
 10
661.2502100503779
 20
120.496430814393
 30
0.0
 11
661.7888725536536
 21
120.496430814393
 31
0.0
  0
LINE
  5
318344E5
330
318324AF
100
AcDbEntity
  8
JISSEN
 62
     7
100
AcDbLine
 10
662.6561553122683
 20
120.8972164008404
 30
0.0
 11
661.2441704353122
 21
120.5456903084079
 31
0.0
  0
LINE
  5
318344E6
330
318324AF
100
AcDbEntity
  8
JISSEN
 62
     7
100
AcDbLine
 10
667.8079183446953
 20
120.8972164008404
 30
0.0
 11
662.3855514490714
 21
120.8972164008404
 31
0.0
  0
ARC
  5
318344E7
330
318324AF
100
AcDbEntity
  8
JISSEN
 62
     7
100
AcDbCircle
 10
667.101333937185
 20
120.6964308143931
 30
0.0
 40
0.2
100
AcDbArc
 50
270.0
 51
291.3420289477831
  0
ARC
  5
318344E8
330
318324AF
100
AcDbEntity
  8
JISSEN
 62
     7
100
AcDbCircle
 10
665.3633152560928
 20
120.5464308143931
 30
0.0
 40
0.05
100
AcDbArc
 50
107.5576892691885
 51
270.0
  0
LINE
  5
318344E9
330
318324AF
100
AcDbEntity
  8
JISSEN
 62
     7
100
AcDbLine
 10
667.1741208509338
 20
120.5101459111214
 30
0.0
 11
668.1647575605138
 21
120.8972164008404
 31
0.0
  0
LINE
  5
318344EA
330
318324AF
100
AcDbEntity
  8
JISSEN
 62
     7
100
AcDbLine
 10
665.3633152560928
 20
120.496430814393
 30
0.0
 11
667.101333937185
 21
120.496430814393
 31
0.0
  0
LINE
  5
318344EB
330
318324AF
100
AcDbEntity
  8
JISSEN
 62
     7
100
AcDbLine
 10
666.306225176324
 20
120.8972164008404
 30
0.0
 11
665.3482319604076
 21
120.5941014992138
 31
0.0
  0
LINE
  5
318344EC
330
318324AF
100
AcDbEntity
  8
JISSEN
 62
     7
100
AcDbLine
 10
674.0010825556603
 20
120.8972164008404
 30
0.0
 11
668.1647575605138
 21
120.8972164008404
 31
0.0
  0
ARC
  5
318344ED
330
318324AF
100
AcDbEntity
  8
JISSEN
 62
     7
100
AcDbCircle
 10
675.537526693314
 20
120.5964308143931
 30
0.0
 40
0.1
100
AcDbArc
 50
270.0
 51
327.5359996091672
  0
ARC
  5
318344EE
330
318324AF
100
AcDbEntity
  8
JISSEN
 62
     7
100
AcDbCircle
 10
673.046983450944
 20
120.5964308143931
 30
0.0
 40
0.1
100
AcDbArc
 50
124.4559181407101
 51
270.0
  0
LINE
  5
318344EF
330
318324AF
100
AcDbEntity
  8
JISSEN
 62
     7
100
AcDbLine
 10
675.847404148973
 20
120.8972164008404
 30
0.0
 11
675.621899580409
 21
120.5427538554325
 31
0.0
  0
LINE
  5
318344F0
330
318324AF
100
AcDbEntity
  8
JISSEN
 62
     7
100
AcDbLine
 10
673.3086016984138
 20
120.8972164008404
 30
0.0
 11
672.9904062501009
 21
120.6788869866592
 31
0.0
  0
LINE
  5
318344F1
330
318324AF
100
AcDbEntity
  8
JISSEN
 62
     7
100
AcDbLine
 10
673.046983450944
 20
120.496430814393
 30
0.0
 11
675.537526693314
 21
120.496430814393
 31
0.0
  0
LINE
  5
318344F2
330
318324AF
100
AcDbEntity
  8
JISSEN
 62
     7
100
AcDbLine
 10
690.1085990969309
 20
122.3972164008404
 30
0.0
 11
687.7164836508195
 21
122.3972164008404
 31
0.0
  0
LINE
  5
318344F3
330
318324AF
100
AcDbEntity
  8
JISSEN
 62
     7
100
AcDbLine
 10
691.5480820675284
 20
122.1359688766192
 30
0.0
 11
693.3172039466588
 21
120.8972164008404
 31
0.0
  0
ARC
  5
318344F4
330
318324AF
100
AcDbEntity
  8
JISSEN
 62
     7
100
AcDbCircle
 10
690.7195107775783
 20
120.9526464404331
 30
0.0
 40
1.444569960407294
100
AcDbArc
 50
55.00000000000263
 51
106.2417893129296
  0
ARC
  5
318344F5
330
318324AF
100
AcDbEntity
  8
JISSEN
 62
     7
100
AcDbCircle
 10
682.5741169827047
 20
121.1972164008404
 30
0.0
 40
0.2
100
AcDbArc
 50
28.90256464695113
 51
174.2550311569813
  0
LINE
  5
318344F6
330
318324AF
100
AcDbEntity
  8
JISSEN
 62
     7
100
AcDbLine
 10
683.1894681309163
 20
120.496430814393
 30
0.0
 11
682.7492055614371
 21
121.2938807148215
 31
0.0
  0
LINE
  5
318344F7
330
318324AF
100
AcDbEntity
  8
JISSEN
 62
     7
100
AcDbLine
 10
682.3026041356747
 20
120.496430814393
 30
0.0
 11
682.3751215203137
 21
121.2172365393978
 31
0.0
  0
ARC
  5
318344F8
330
318324AF
100
AcDbEntity
  8
JISSEN
 62
     7
100
AcDbCircle
 10
682.5741169827047
 20
122.0972164008404
 30
0.0
 40
0.3
100
AcDbArc
 50
30.63117605659055
 51
169.8991115014545
  0
ARC
  5
318344F9
330
318324AF
100
AcDbEntity
  8
JISSEN
 62
     7
100
AcDbCircle
 10
686.71738247294
 20
122.0972164008404
 30
0.0
 40
0.3
100
AcDbArc
 50
43.15241372731336
 51
90.0
  0
LINE
  5
318344FA
330
318324AF
100
AcDbEntity
  8
JISSEN
 62
     7
100
AcDbLine
 10
688.2536031822992
 20
120.8972164008404
 30
0.0
 11
686.9362435482594
 21
122.3023988311556
 31
0.0
  0
LINE
  5
318344FB
330
318324AF
100
AcDbEntity
  8
JISSEN
 62
     7
100
AcDbLine
 10
683.6333253376574
 20
120.8972164008404
 30
0.0
 11
682.8322564579607
 21
122.2500693082857
 31
0.0
  0
LINE
  5
318344FC
330
318324AF
100
AcDbEntity
  8
JISSEN
 62
     7
100
AcDbLine
 10
682.0556221600916
 20
120.8972164008404
 30
0.0
 11
682.2787668445831
 21
122.1498309987354
 31
0.0
  0
ARC
  5
318344FD
330
318324AF
100
AcDbEntity
  8
JISSEN
 62
     7
100
AcDbCircle
 10
687.7164836508195
 20
121.0972164008404
 30
0.0
 40
0.3
100
AcDbArc
 50
49.46485582230234
 51
74.91889730433678
  0
ARC
  5
318344FE
330
318324AF
100
AcDbEntity
  8
JISSEN
 62
     7
100
AcDbCircle
 10
687.7164836508195
 20
121.9972164008404
 30
0.0
 40
0.4
100
AcDbArc
 50
52.78839254522664
 51
143.5056575252843
  0
LINE
  5
318344FF
330
318324AF
100
AcDbEntity
  8
JISSEN
 62
     7
100
AcDbLine
 10
688.4119622103853
 20
120.8972164008404
 30
0.0
 11
687.9114579543693
 21
121.3252186397664
 31
0.0
  0
LINE
  5
31834500
330
318324AF
100
AcDbEntity
  8
JISSEN
 62
     7
100
AcDbLine
 10
689.8264895486227
 20
120.8972164008404
 30
0.0
 11
687.9583878388591
 21
122.3157793676285
 31
0.0
  0
LINE
  5
31834501
330
318324AF
100
AcDbEntity
  8
JISSEN
 62
     7
100
AcDbLine
 10
687.2204333143697
 20
121.9992633350503
 30
0.0
 11
687.3949174144379
 21
122.2351137644648
 31
0.0
  0
ARC
  5
31834502
330
318324AF
100
AcDbEntity
  8
JISSEN
 62
     7
100
AcDbCircle
 10
690.1085990969309
 20
121.9972164008404
 30
0.0
 40
0.4
100
AcDbArc
 50
56.48501768654646
 51
90.0
  0
LINE
  5
31834503
330
318324AF
100
AcDbEntity
  8
JISSEN
 62
     7
100
AcDbLine
 10
692.4940082059572
 20
120.8972164008404
 30
0.0
 11
690.3294611048614
 21
122.3307129877089
 31
0.0
  0
LINE
  5
31834504
330
318324AF
100
AcDbEntity
  8
JISSEN
 62
     7
100
AcDbLine
 10
686.71738247294
 20
122.3972164008404
 30
0.0
 11
682.5741169827047
 21
122.3972164008404
 31
0.0
  0
LINE
  5
31834505
330
318324AF
100
AcDbEntity
  8
JISSEN
 62
     7
100
AcDbLine
 10
670.9170254203777
 20
122.3972164008404
 30
0.0
 11
675.0602909106133
 21
122.3972164008404
 31
0.0
  0
LINE
  5
31834506
330
318324AF
100
AcDbEntity
  8
JISSEN
 62
     7
100
AcDbLine
 10
676.4250885005476
 20
122.3972164008404
 30
0.0
 11
681.2093193927703
 21
122.3972164008404
 31
0.0
  0
LINE
  5
31834507
330
318324AF
100
AcDbEntity
  8
JISSEN
 62
     7
100
AcDbLine
 10
665.1403996873605
 20
120.8972164008404
 30
0.0
 11
667.3049467884561
 21
122.3307129877089
 31
0.0
  0
ARC
  5
31834508
330
318324AF
100
AcDbEntity
  8
JISSEN
 62
     7
100
AcDbCircle
 10
667.5258087963866
 20
121.9972164008404
 30
0.0
 40
0.4
100
AcDbArc
 50
90.0
 51
123.5149823134535
  0
LINE
  5
31834509
330
318324AF
100
AcDbEntity
  8
JISSEN
 62
     7
100
AcDbLine
 10
670.413974578948
 20
121.9992633350503
 30
0.0
 11
670.2394904788798
 21
122.2351137644648
 31
0.0
  0
LINE
  5
3183450A
330
318324AF
100
AcDbEntity
  8
JISSEN
 62
     7
100
AcDbLine
 10
667.8079183446953
 20
120.8972164008404
 30
0.0
 11
669.6760200544586
 21
122.3157793676285
 31
0.0
  0
LINE
  5
3183450B
330
318324AF
100
AcDbEntity
  8
JISSEN
 62
     7
100
AcDbLine
 10
669.2224456829322
 20
120.8972164008404
 30
0.0
 11
669.7229499389486
 21
121.3252186397664
 31
0.0
  0
ARC
  5
3183450C
330
318324AF
100
AcDbEntity
  8
JISSEN
 62
     7
100
AcDbCircle
 10
669.9179242424984
 20
121.9972164008404
 30
0.0
 40
0.4
100
AcDbArc
 50
36.49434247471306
 51
127.2116074547733
  0
ARC
  5
3183450D
330
318324AF
100
AcDbEntity
  8
JISSEN
 62
     7
100
AcDbCircle
 10
669.9179242424984
 20
121.0972164008404
 30
0.0
 40
0.3
100
AcDbArc
 50
105.0811026956631
 51
130.5351441776976
  0
LINE
  5
3183450E
330
318324AF
100
AcDbEntity
  8
JISSEN
 62
     7
100
AcDbLine
 10
675.5787857332261
 20
120.8972164008404
 30
0.0
 11
675.3556410487345
 21
122.1498309987354
 31
0.0
  0
LINE
  5
3183450F
330
318324AF
100
AcDbEntity
  8
JISSEN
 62
     7
100
AcDbLine
 10
674.0010825556603
 20
120.8972164008404
 30
0.0
 11
674.8021514353572
 21
122.2500693082857
 31
0.0
  0
LINE
  5
31834510
330
318324AF
100
AcDbEntity
  8
JISSEN
 62
     7
100
AcDbLine
 10
669.3808047110187
 20
120.8972164008404
 30
0.0
 11
670.6981643450586
 21
122.3023988311556
 31
0.0
  0
ARC
  5
31834511
330
318324AF
100
AcDbEntity
  8
JISSEN
 62
     7
100
AcDbCircle
 10
670.9170254203777
 20
122.0972164008404
 30
0.0
 40
0.3
100
AcDbArc
 50
90.0
 51
136.8475862726866
  0
ARC
  5
31834512
330
318324AF
100
AcDbEntity
  8
JISSEN
 62
     7
100
AcDbCircle
 10
675.0602909106133
 20
122.0972164008404
 30
0.0
 40
0.3
100
AcDbArc
 50
10.10088849854542
 51
149.3688239434094
  0
LINE
  5
31834513
330
318324AF
100
AcDbEntity
  8
JISSEN
 62
     7
100
AcDbLine
 10
675.3318037576427
 20
120.496430814393
 30
0.0
 11
675.259286373004
 21
121.2172365393978
 31
0.0
  0
LINE
  5
31834514
330
318324AF
100
AcDbEntity
  8
JISSEN
 62
     7
100
AcDbLine
 10
674.4449397624016
 20
120.496430814393
 30
0.0
 11
674.8852023318806
 21
121.2938807148215
 31
0.0
  0
ARC
  5
31834515
330
318324AF
100
AcDbEntity
  8
JISSEN
 62
     7
100
AcDbCircle
 10
675.0602909106133
 20
121.1972164008404
 30
0.0
 40
0.2
100
AcDbArc
 50
5.744968843018656
 51
151.097435353046
  0
LINE
  5
31834516
330
318324AF
100
AcDbEntity
  8
JISSEN
 62
     7
100
AcDbLine
 10
681.4353793185585
 20
120.8972164008404
 30
0.0
 11
681.2093193927703
 21
122.3972164008404
 31
0.0
  0
LINE
  5
31834517
330
318324AF
100
AcDbEntity
  8
JISSEN
 62
     7
100
AcDbLine
 10
676.1990285747592
 20
120.8972164008404
 30
0.0
 11
676.4250885005476
 21
122.3972164008404
 31
0.0
  0
LINE
  5
31834518
330
318324AF
100
AcDbEntity
  8
JISSEN
 62
     7
100
AcDbLine
 10
660.1672039466588
 20
120.3028119790374
 30
0.0
 11
697.4672039466589
 21
120.3028119790374
 31
0.0
  0
LINE
  5
31834519
330
318324AF
100
AcDbEntity
  8
JISSEN
 62
     7
100
AcDbLine
 10
695.2488564442462
 20
120.8972164008404
 30
0.0
 11
697.4672039466589
 21
120.3028119790374
 31
0.0
  0
LINE
  5
3183451A
330
318324AF
100
AcDbEntity
  8
JISSEN
 62
     7
100
AcDbLine
 10
697.4672039466589
 20
120.3028119790374
 30
0.0
 11
697.2083849015562
 21
119.3368861527483
 31
0.0
  0
LINE
  5
3183451B
330
318324AF
100
AcDbEntity
  8
JISSEN
 62
     7
100
AcDbLine
 10
660.1672039466588
 20
120.3028119790374
 30
0.0
 11
660.4260229917613
 21
119.3368861527483
 31
0.0
  0
LINE
  5
3183451C
330
318324AF
100
AcDbEntity
  8
JISSEN
 62
     7
100
AcDbLine
 10
662.3855514490714
 20
120.8972164008404
 30
0.0
 11
660.1672039466588
 21
120.3028119790374
 31
0.0
  0
LINE
  5
3183451D
330
318324AF
100
AcDbEntity
  8
JISSEN
 62
     7
100
AcDbLine
 10
695.2488564442462
 20
120.8972164008404
 30
0.0
 11
689.8264895486224
 21
120.8972164008404
 31
0.0
  0
ARC
  5
3183451E
330
318324AF
100
AcDbEntity
  8
JISSEN
 62
     7
100
AcDbCircle
 10
666.9148971157394
 20
120.9526464404331
 30
0.0
 40
1.444569960407294
100
AcDbArc
 50
73.75821068707036
 51
124.9999999999973
  0
LINE
  5
3183451F
330
318324AF
100
AcDbEntity
  8
JISSEN
 62
     7
100
AcDbLine
 10
666.0863258257891
 20
122.1359688766192
 30
0.0
 11
664.3172039466589
 21
120.8972164008404
 31
0.0
  0
LINE
  5
31834520
330
318324AF
100
AcDbEntity
  8
JISSEN
 62
     7
100
AcDbLine
 10
667.5258087963866
 20
122.3972164008404
 30
0.0
 11
669.9179242424984
 21
122.3972164008404
 31
0.0
  0
LINE
  5
31834521
330
318324AF
100
AcDbEntity
  8
JISSEN
 62
     7
100
AcDbLine
 10
660.4260229917613
 20
119.3368861527483
 30
0.0
 11
697.2083849015562
 21
119.3368861527483
 31
0.0
  0
LINE
  5
31834522
330
318324AF
100
AcDbEntity
  8
NITEN
100
AcDbLine
 10
695.9558915028272
 20
181.0678071546159
 30
0.0
 11
695.9558915028272
 21
185.1110119391725
 31
0.0
  0
LINE
  5
31834523
330
318324AF
100
AcDbEntity
  8
NITEN
100
AcDbLine
 10
695.9571585003478
 20
185.1110119391725
 30
0.0
 11
695.9571585003478
 21
194.8425210797616
 31
0.0
  0
LINE
  5
31834524
330
318324AF
100
AcDbEntity
  8
NITEN
100
AcDbLine
 10
701.4005912109548
 20
223.0678071546159
 30
0.0
 11
656.2338166823629
 21
223.0678071546159
 31
0.0
  0
LINE
  5
31834525
330
318324AF
100
AcDbEntity
  8
NITEN
100
AcDbLine
 10
661.6772493929698
 20
185.1110119391725
 30
0.0
 11
661.6772493929698
 21
194.8425210797616
 31
0.0
  0
ARC
  5
31834526
330
318324AF
100
AcDbEntity
  8
NITEN
100
AcDbCircle
 10
658.5372493929699
 20
194.8425210797616
 30
0.0
 40
3.139999999999999
100
AcDbArc
 50
0.0
 51
62.89280271220997
  0
LINE
  5
31834527
330
318324AF
100
AcDbEntity
  8
NITEN
100
AcDbLine
 10
656.2338166823629
 20
203.744076816667
 30
0.0
 11
656.2338166823629
 21
223.0678071546159
 31
0.0
  0
ARC
  5
31834528
330
318324AF
100
AcDbEntity
  8
NITEN
100
AcDbCircle
 10
663.093816682363
 20
203.744076816667
 30
0.0
 40
6.86
100
AcDbArc
 50
180.0
 51
242.89280271221
  0
LINE
  5
31834529
330
318324AF
100
AcDbEntity
  8
NITEN
100
AcDbLine
 10
701.4005912109548
 20
203.7440768166669
 30
0.0
 11
701.4005912109548
 21
223.0678071546159
 31
0.0
  0
ARC
  5
3183452A
330
318324AF
100
AcDbEntity
  8
NITEN
100
AcDbCircle
 10
694.5405912109549
 20
203.7440768166669
 30
0.0
 40
6.86
100
AcDbArc
 50
297.1071972877899
 51
0.0
  0
ARC
  5
3183452B
330
318324AF
100
AcDbEntity
  8
NITEN
100
AcDbCircle
 10
699.0971585003481
 20
194.8425210797616
 30
0.0
 40
3.139999999999999
100
AcDbArc
 50
117.10719728779
 51
180.0
  0
LINE
  5
3183452C
330
318324AF
100
AcDbEntity
  8
HOJYO
 62
     7
100
AcDbLine
 10
663.9172039466589
 20
177.3678071546158
 30
0.0
 11
630.1811994115642
 21
177.3678071546158
 31
0.0
  0
LINE
  5
3183452D
330
318324AF
100
AcDbEntity
  8
HOJYO
 62
     7
100
AcDbLine
 10
663.9172039466589
 20
178.1678071546158
 30
0.0
 11
630.502101445634
 21
178.1678071546158
 31
0.0
  0
LINE
  5
3183452E
330
318324AF
100
AcDbEntity
  8
HOJYO
 62
     7
100
AcDbLine
 10
694.5172039466588
 20
174.5678071546159
 30
0.0
 11
663.1172039466587
 21
174.5678071546159
 31
0.0
  0
LINE
  5
3183452F
330
318324AF
100
AcDbEntity
  8
HOJYO
 62
     7
100
AcDbLine
 10
692.7172039466588
 20
181.0678071546158
 30
0.0
 11
693.7172039466588
 21
181.0678071546158
 31
0.0
  0
ARC
  5
31834530
330
318324AF
100
AcDbEntity
  8
JISSEN
 62
     7
100
AcDbCircle
 10
694.7172039466588
 20
179.8678071546158
 30
0.0
 40
1.7
100
AcDbArc
 50
135.0991278440283
 51
180.0
  0
LINE
  5
31834531
330
318324AF
100
AcDbEntity
  8
0
 62
     7
100
AcDbLine
 10
693.7172039466588
 20
178.1678071546158
 30
0.0
 11
693.0172039466587
 21
178.8678071546159
 31
0.0
  0
LINE
  5
31834532
330
318324AF
100
AcDbEntity
  8
HOJYO
 62
     7
100
AcDbLine
 10
693.0172039466587
 20
178.8678071546159
 30
0.0
 11
693.0172039466587
 21
179.8678071546158
 31
0.0
  0
LINE
  5
31834533
330
318324AF
100
AcDbEntity
  8
HOJYO
 62
     7
100
AcDbLine
 10
663.9172039466589
 20
177.3678071546158
 30
0.0
 11
661.317203946659
 21
177.3678071546158
 31
0.0
  0
LINE
  5
31834534
330
318324AF
100
AcDbEntity
  8
0
 62
     7
100
AcDbLine
 10
696.3172039466587
 20
176.3678071546158
 30
0.0
 11
694.5172039466588
 21
174.5678071546159
 31
0.0
  0
LINE
  5
31834535
330
318324AF
100
AcDbEntity
  8
HOJYO
 62
     7
100
AcDbLine
 10
696.3172039466587
 20
176.3678071546158
 30
0.0
 11
696.3172039466587
 21
177.3678071546158
 31
0.0
  0
LINE
  5
31834536
330
318324AF
100
AcDbEntity
  8
HOJYO
 62
     7
100
AcDbLine
 10
693.7172039466588
 20
177.3678071546158
 30
0.0
 11
693.7172039466588
 21
178.438806339391
 31
0.0
  0
LINE
  5
31834537
330
318324AF
100
AcDbEntity
  8
0
 62
     7
100
AcDbLine
 10
693.7172039466588
 20
178.1678071546158
 30
0.0
 11
693.0172039466587
 21
178.8678071546159
 31
0.0
  0
LINE
  5
31834538
330
318324AF
100
AcDbEntity
  8
HOJYO
 62
     7
100
AcDbLine
 10
692.2172039466588
 20
174.5678071546159
 30
0.0
 11
692.2172039466588
 21
180.5678071546158
 31
0.0
  0
LINE
  5
31834539
330
318324AF
100
AcDbEntity
  8
HOJYO
 62
     7
100
AcDbLine
 10
692.2172039466588
 20
180.5678071546158
 30
0.0
 11
692.7172039466588
 21
181.0678071546158
 31
0.0
  0
LINE
  5
3183453A
330
318324AF
100
AcDbEntity
  8
HOJYO
 62
     7
100
AcDbLine
 10
665.4172039466589
 20
180.5678071546158
 30
0.0
 11
664.9172039466589
 21
181.0678071546158
 31
0.0
  0
LINE
  5
3183453B
330
318324AF
100
AcDbEntity
  8
HOJYO
 62
     7
100
AcDbLine
 10
665.4172039466589
 20
174.5678071546159
 30
0.0
 11
665.4172039466589
 21
180.5678071546158
 31
0.0
  0
HATCH
  5
3183455C
330
318324AF
100
AcDbEntity
  8
HATCH
100
AcDbHatch
 10
0.0
 20
0.0
 30
0.0
210
0.0
220
0.0
230
1.0
  2
ANSI31
 70
     0
 71
     0
 91
        1
 92
        7
 72
     1
 73
     1
 93
        6
 10
532.4488406310208
 20
178.1678071546158
 42
0.0
 10
662.9844105933182
 20
178.1678071546157
 42
0.1585270315396793
 10
663.9844105933182
 20
178.493034446129
 42
0.0
 10
663.9844105933182
 20
177.3678071546158
 42
0.0
 10
661.3844105933183
 20
177.3678071546157
 42
0.0
 10
532.4488406310208
 20
177.3678071546158
 42
0.0
 97
        0
 75
     0
 76
     1
 52
90.0
 41
20.0
 77
     0
 78
     1
 53
135.0
 43
-193.5277171660959
 44
885.930257314256
 45
-1.767766952966368
 46
-1.767766952966368
 79
     0
 47
0.1046947054605585
 98
        1
 10
612.2755508607995
 20
177.7216238814304
  0
HATCH
  5
31834563
330
318324AF
100
AcDbEntity
  8
HATCH
100
AcDbHatch
 10
0.0
 20
0.0
 30
0.0
210
0.0
220
0.0
230
1.0
  2
ANSI31
 70
     0
 71
     0
 91
        1
 92
        7
 72
     1
 73
     1
 93
        8
 10
496.8844105933166
 20
178.1678071546365
 42
0.0
 10
532.4488406310197
 20
178.1678071546323
 42
0.0
 10
532.4488406310195
 20
177.3678071546326
 42
0.0
 10
496.8844105933166
 20
177.3678071546365
 42
0.4142135623730948
 10
479.6844105933148
 20
160.1678071546384
 42
0.0
 10
479.6844105933145
 20
158.1678071546384
 42
0.0
 10
478.8844105933144
 20
158.1678071546385
 42
0.0
 10
478.8844105933146
 20
160.1678071546385
 42
-0.414213562373096
 97
        0
 75
     0
 76
     1
 52
90.0
 41
20.0
 77
     0
 78
     1
 53
135.0
 43
-193.5277171660959
 44
885.930257314256
 45
-1.767766952966368
 46
-1.767766952966368
 79
     0
 47
0.056326125273082
 98
        1
 10
497.2890997662484
 20
177.6051830219619
  0
LINE
  5
31834569
330
318324AF
100
AcDbEntity
  8
TENSEN
100
AcDbLine
 10
692.2235883221251
 20
538.3990577992003
 30
0.0
 11
665.4780262178515
 21
538.3990577992002
 31
0.0
  0
LINE
  5
3183456A
330
318324AF
100
AcDbEntity
  8
TENSEN
100
AcDbLine
 10
667.3508072699883
 20
537.3178071546158
 30
0.0
 11
665.4780262178515
 21
538.3990577992002
 31
0.0
  0
ARC
  5
3183456B
330
318324AF
100
AcDbEntity
  8
TENSEN
100
AcDbCircle
 10
671.60841085731
 20
516.4084688961393
 30
0.0
 40
10.80551655320168
100
AcDbArc
 50
116.05718127408
 51
163.829289112461
  0
ARC
  5
3183456C
330
318324AF
100
AcDbEntity
  8
TENSEN
100
AcDbCircle
 10
667.8433332237341
 20
523.4680107991346
 30
0.0
 40
5.0
100
AcDbArc
 50
107.4111121485172
 51
126.6829888003656
  0
LINE
  5
3183456D
330
318324AF
100
AcDbEntity
  8
TENSEN
100
AcDbLine
 10
670.3508072699882
 20
524.3890691083086
 30
0.0
 11
670.3508072699882
 21
521.7890691083087
 31
0.0
  0
LINE
  5
3183456E
330
318324AF
100
AcDbEntity
  8
TENSEN
100
AcDbLine
 10
687.3508072699883
 20
524.3890691083086
 30
0.0
 11
687.3508072699883
 21
521.7890691083087
 31
0.0
  0
LINE
  5
3183456F
330
318324AF
100
AcDbEntity
  8
TENSEN
100
AcDbLine
 10
680.1008072699882
 20
526.7178071546159
 30
0.0
 11
686.8508072699882
 21
526.7178071546159
 31
0.0
  0
LINE
  5
31834570
330
318324AF
100
AcDbEntity
  8
TENSEN
100
AcDbLine
 10
680.3508072699883
 20
529.3178071546158
 30
0.0
 11
688.1508072699885
 21
529.3178071546158
 31
0.0
  0
LINE
  5
31834571
330
318324AF
100
AcDbEntity
  8
TENSEN
100
AcDbLine
 10
667.3508072699883
 20
537.3178071546158
 30
0.0
 11
690.3508072699882
 21
537.3178071546158
 31
0.0
  0
LINE
  5
31834572
330
318324AF
100
AcDbEntity
  8
TENSEN
100
AcDbLine
 10
687.2008072699882
 20
524.9989068708696
 30
0.0
 11
680.3147926178692
 21
524.9989068708696
 31
0.0
  0
LINE
  5
31834573
330
318324AF
100
AcDbEntity
  8
TENSEN
100
AcDbLine
 10
687.3508072699883
 20
524.0890691083087
 30
0.0
 11
678.8508072699883
 21
524.0890691083087
 31
0.0
  0
LINE
  5
31834574
330
318324AF
100
AcDbEntity
  8
TENSEN
100
AcDbLine
 10
685.9508072699879
 20
524.3890691083088
 30
0.0
 11
680.5395512747477
 21
524.3890691083088
 31
0.0
  0
LINE
  5
31834575
330
318324AF
100
AcDbEntity
  8
TENSEN
100
AcDbLine
 10
681.5508072699883
 20
530.7922601843167
 30
0.0
 11
680.1008072699882
 21
530.7922601843167
 31
0.0
  0
LINE
  5
31834576
330
318324AF
100
AcDbEntity
  8
TENSEN
100
AcDbLine
 10
676.1508072699885
 20
532.7922601843168
 30
0.0
 11
681.5508072699883
 21
532.7922601843168
 31
0.0
  0
ARC
  5
31834577
330
318324AF
100
AcDbEntity
  8
TENSEN
100
AcDbCircle
 10
691.3508072699883
 20
533.140287206336
 30
0.0
 40
1.0
100
AcDbArc
 50
180.0
 51
245.3756816478326
  0
LINE
  5
31834578
330
318324AF
100
AcDbEntity
  8
TENSEN
100
AcDbLine
 10
688.1508072699885
 20
535.8178071546157
 30
0.0
 11
688.1508072699885
 21
529.3178071546158
 31
0.0
  0
LINE
  5
31834579
330
318324AF
100
AcDbEntity
  8
TENSEN
100
AcDbLine
 10
682.5672039466588
 20
535.8178071546157
 30
0.0
 11
682.5672039466589
 21
529.3178071546158
 31
0.0
  0
LINE
  5
3183457A
330
318324AF
100
AcDbEntity
  8
TENSEN
100
AcDbLine
 10
681.1922039466587
 20
535.8178071546157
 30
0.0
 11
690.3508072699882
 21
535.8178071546157
 31
0.0
  0
LINE
  5
3183457B
330
318324AF
100
AcDbEntity
  8
TENSEN
100
AcDbLine
 10
690.3508072699882
 20
533.140287206336
 30
0.0
 11
690.3508072699882
 21
537.3178071546158
 31
0.0
  0
LINE
  5
3183457C
330
318324AF
100
AcDbEntity
  8
TENSEN
100
AcDbLine
 10
690.3508072699882
 20
537.3178071546158
 30
0.0
 11
692.2235883221251
 21
538.3990577992003
 31
0.0
  0
LINE
  5
3183457D
330
318324AF
100
AcDbEntity
  8
TENSEN
100
AcDbLine
 10
681.1922039466587
 20
535.8178071546157
 30
0.0
 11
681.192203946659
 21
537.3178071546158
 31
0.0
  0
ARC
  5
3183457E
330
318324AF
100
AcDbEntity
  8
TENSEN
100
AcDbCircle
 10
689.7910746695834
 20
523.4680107991346
 30
0.0
 40
5.0
100
AcDbArc
 50
53.31701119963433
 51
72.58888785148278
  0
LINE
  5
3183457F
330
318324AF
100
AcDbEntity
  8
TENSEN
100
AcDbLine
 10
686.8508072699882
 20
529.3178071546158
 30
0.0
 11
686.8508072699882
 21
526.7178071546159
 31
0.0
  0
LINE
  5
31834580
330
318324AF
100
AcDbEntity
  8
TENSEN
100
AcDbLine
 10
681.8508072699883
 20
532.4922601843167
 30
0.0
 11
681.8508072699883
 21
531.0922601843167
 31
0.0
  0
ARC
  5
31834581
330
318324AF
100
AcDbEntity
  8
TENSEN
100
AcDbCircle
 10
681.5508072699883
 20
532.4922601843167
 30
0.0
 40
0.3
100
AcDbArc
 50
0.0
 51
90.0
  0
ARC
  5
31834582
330
318324AF
100
AcDbEntity
  8
TENSEN
100
AcDbCircle
 10
681.5508072699883
 20
531.0922601843167
 30
0.0
 40
0.3
100
AcDbArc
 50
270.0
 51
0.0
  0
LINE
  5
31834583
330
318324AF
100
AcDbEntity
  8
TENSEN
100
AcDbLine
 10
687.2008072699882
 20
524.9989068708696
 30
0.0
 11
686.144537280858
 21
524.3890691083086
 31
0.0
  0
LINE
  5
31834584
330
318324AF
100
AcDbEntity
  8
TENSEN
100
AcDbLine
 10
687.2008072699882
 20
524.9989068708696
 30
0.0
 11
687.2008072699882
 21
525.4156706454023
 31
0.0
  0
ARC
  5
31834585
330
318324AF
100
AcDbEntity
  8
TENSEN
100
AcDbCircle
 10
687.7008072699882
 20
525.4156706454023
 30
0.0
 40
0.5
100
AcDbArc
 50
68.84536973466878
 51
180.0
  0
LINE
  5
31834586
330
318324AF
100
AcDbEntity
  8
TENSEN
100
AcDbLine
 10
684.8508072699887
 20
524.3890691083086
 30
0.0
 11
687.3508072699883
 21
524.3890691083086
 31
0.0
  0
ARC
  5
31834587
330
318324AF
100
AcDbEntity
  8
TENSEN
100
AcDbCircle
 10
666.3508072699883
 20
533.140287206336
 30
0.0
 40
1.0
100
AcDbArc
 50
294.6243183521673
 51
0.0
  0
LINE
  5
31834588
330
318324AF
100
AcDbEntity
  8
TENSEN
100
AcDbLine
 10
675.0672039466588
 20
535.8178071546157
 30
0.0
 11
675.0672039466589
 21
529.3178071546158
 31
0.0
  0
LINE
  5
31834589
330
318324AF
100
AcDbEntity
  8
TENSEN
100
AcDbLine
 10
669.5508072699883
 20
535.8178071546157
 30
0.0
 11
669.5508072699883
 21
529.3178071546158
 31
0.0
  0
LINE
  5
3183458A
330
318324AF
100
AcDbEntity
  8
TENSEN
100
AcDbLine
 10
667.3508072699883
 20
535.8178071546157
 30
0.0
 11
676.4422039466587
 21
535.8178071546157
 31
0.0
  0
LINE
  5
3183458B
330
318324AF
100
AcDbEntity
  8
TENSEN
100
AcDbLine
 10
676.4422039466587
 20
535.8178071546157
 30
0.0
 11
676.4422039466589
 21
537.3178071546158
 31
0.0
  0
LINE
  5
3183458C
330
318324AF
100
AcDbEntity
  8
TENSEN
100
AcDbLine
 10
667.3508072699883
 20
533.140287206336
 30
0.0
 11
667.3508072699883
 21
537.3178071546158
 31
0.0
  0
LINE
  5
3183458D
330
318324AF
100
AcDbEntity
  8
TENSEN
100
AcDbLine
 10
670.8508072699883
 20
526.7178071546159
 30
0.0
 11
677.6008072699883
 21
526.7178071546159
 31
0.0
  0
LINE
  5
3183458E
330
318324AF
100
AcDbEntity
  8
TENSEN
100
AcDbLine
 10
669.5508072699883
 20
529.3178071546158
 30
0.0
 11
677.3508072699883
 21
529.3178071546158
 31
0.0
  0
LINE
  5
3183458F
330
318324AF
100
AcDbEntity
  8
TENSEN
100
AcDbLine
 10
677.162063265229
 20
524.3890691083086
 30
0.0
 11
671.7508072699883
 21
524.3890691083085
 31
0.0
  0
LINE
  5
31834590
330
318324AF
100
AcDbEntity
  8
TENSEN
100
AcDbLine
 10
677.3868219221076
 20
524.9989068708696
 30
0.0
 11
670.5008072699883
 21
524.9989068708696
 31
0.0
  0
LINE
  5
31834591
330
318324AF
100
AcDbEntity
  8
TENSEN
100
AcDbLine
 10
670.3508072699882
 20
524.0890691083087
 30
0.0
 11
678.8508072699883
 21
524.0890691083087
 31
0.0
  0
LINE
  5
31834592
330
318324AF
100
AcDbEntity
  8
TENSEN
100
AcDbLine
 10
677.3508072699883
 20
529.3178071546158
 30
0.0
 11
677.3508072699883
 21
526.7178071546159
 31
0.0
  0
LINE
  5
31834593
330
318324AF
100
AcDbEntity
  8
TENSEN
100
AcDbLine
 10
677.6008072699883
 20
530.7922601843167
 30
0.0
 11
677.6008072699883
 21
526.8283148451948
 31
0.0
  0
LINE
  5
31834594
330
318324AF
100
AcDbEntity
  8
TENSEN
100
AcDbLine
 10
680.3508072699883
 20
529.3178071546158
 30
0.0
 11
680.3508072699883
 21
526.7178071546159
 31
0.0
  0
LINE
  5
31834595
330
318324AF
100
AcDbEntity
  8
TENSEN
100
AcDbLine
 10
680.1008072699882
 20
530.7922601843167
 30
0.0
 11
680.1008072699882
 21
526.8283148451948
 31
0.0
  0
LINE
  5
31834596
330
318324AF
100
AcDbEntity
  8
TENSEN
100
AcDbLine
 10
677.6008072699883
 20
530.7922601843167
 30
0.0
 11
676.1508072699885
 21
530.7922601843167
 31
0.0
  0
LINE
  5
31834597
330
318324AF
100
AcDbEntity
  8
TENSEN
100
AcDbLine
 10
675.8508072699883
 20
531.0922601843167
 30
0.0
 11
675.8508072699883
 21
532.4922601843167
 31
0.0
  0
ARC
  5
31834598
330
318324AF
100
AcDbEntity
  8
TENSEN
100
AcDbCircle
 10
676.1508072699885
 20
532.4922601843167
 30
0.0
 40
0.3
100
AcDbArc
 50
90.0
 51
180.0
  0
ARC
  5
31834599
330
318324AF
100
AcDbEntity
  8
TENSEN
100
AcDbCircle
 10
676.1508072699885
 20
531.0922601843167
 30
0.0
 40
0.3
100
AcDbArc
 50
180.0
 51
270.0
  0
ARC
  5
3183459A
330
318324AF
100
AcDbEntity
  8
TENSEN
100
AcDbCircle
 10
670.6008072699883
 20
526.8283148451948
 30
0.0
 40
7.0
100
AcDbArc
 50
336.9632903547661
 51
0.0
  0
ARC
  5
3183459B
330
318324AF
100
AcDbEntity
  8
TENSEN
100
AcDbCircle
 10
687.1008072699883
 20
526.8283148451948
 30
0.0
 40
7.0
100
AcDbArc
 50
180.0
 51
203.0367096452338
  0
LINE
  5
3183459C
330
318324AF
100
AcDbEntity
  8
TENSEN
100
AcDbLine
 10
670.8508072699883
 20
529.3178071546158
 30
0.0
 11
670.8508072699883
 21
526.7178071546159
 31
0.0
  0
INSERT
  5
3183459D
330
318324AF
100
AcDbEntity
  8
TENSEN
100
AcDbBlockReference
  2
A$CB243
 10
673.1840231379683
 20
534.1729255608908
 30
0.0
 50
180.0
  0
LINE
  5
3183459E
330
318324AF
100
AcDbEntity
  8
TENSEN
100
AcDbLine
 10
670.5008072699883
 20
524.9989068708696
 30
0.0
 11
671.5570772591186
 21
524.3890691083086
 31
0.0
  0
LINE
  5
3183459F
330
318324AF
100
AcDbEntity
  8
TENSEN
100
AcDbLine
 10
670.5008072699883
 20
524.9989068708696
 30
0.0
 11
670.5008072699883
 21
525.4156706454023
 31
0.0
  0
ARC
  5
318345A0
330
318324AF
100
AcDbEntity
  8
TENSEN
100
AcDbCircle
 10
670.0008072699883
 20
525.4156706454023
 30
0.0
 40
0.5
100
AcDbArc
 50
0.0
 51
111.1546302653312
  0
LINE
  5
318345A1
330
318324AF
100
AcDbEntity
  8
TENSEN
100
AcDbLine
 10
672.8508072699878
 20
524.3890691083086
 30
0.0
 11
670.3508072699882
 21
524.3890691083086
 31
0.0
  0
LINE
  5
318345A2
330
318324AF
100
AcDbEntity
  8
TENSEN
100
AcDbLine
 10
670.3508072699882
 20
521.7890691083087
 30
0.0
 11
687.3508072699883
 21
521.7890691083087
 31
0.0
  0
LINE
  5
318345A3
330
318324AF
100
AcDbEntity
  8
TENSEN
100
AcDbLine
 10
683.8072441661529
 20
520.7143281714711
 30
0.0
 11
673.8943703738236
 21
520.7143281714711
 31
0.0
  0
ARC
  5
318345A5
330
318324AF
100
AcDbEntity
  8
TENSEN
100
AcDbCircle
 10
678.8172039466587
 20
531.9452016791514
 30
0.0
 40
10.93848722979607
100
AcDbArc
 50
255.6397940472947
 51
284.3602059527052
  0
LINE
  5
318345AA
330
318324AF
100
AcDbEntity
  8
TENSEN
100
AcDbLine
 10
680.8172039466588
 20
519.417807154616
 30
0.0
 11
680.8172039466588
 21
519.4994040942047
 31
0.0
  0
LINE
  5
318345AC
330
318324AF
100
AcDbEntity
  8
TENSEN
100
AcDbLine
 10
676.8172039466586
 20
519.417807154616
 30
0.0
 11
676.8172039466588
 21
519.4994040942047
 31
0.0
  0
LINE
  5
318345AF
330
318324AF
100
AcDbEntity
  8
TENSEN
100
AcDbLine
 10
666.8618940101241
 20
526.1156706454023
 30
0.0
 11
670.8508072699883
 21
526.7178071546159
 31
0.0
  0
LINE
  5
318345B0
330
318324AF
100
AcDbEntity
  8
TENSEN
100
AcDbLine
 10
686.8508072699882
 20
526.7178071546159
 30
0.0
 11
690.7725138831938
 21
526.1156706454023
 31
0.0
  0
ARC
  5
318345B7
330
318324AF
100
AcDbEntity
  8
TENSEN
100
AcDbCircle
 10
683.8639457158929
 20
516.7558803985285
 30
0.0
 40
17.0
100
AcDbArc
 50
9.008670379088835
 51
65.54885719277021
  0
ARC
  5
318345B8
330
318324AF
100
AcDbEntity
  8
TENSEN
100
AcDbCircle
 10
683.8175027100032
 20
515.6468431078754
 30
0.0
 40
11.0
100
AcDbArc
 50
20.04846689554082
 51
68.50766469264492
  0
ARC
  5
318345B9
330
318324AF
100
AcDbEntity
  8
TENSEN
100
AcDbCircle
 10
686.0259970360075
 20
516.4084688961393
 30
0.0
 40
10.80551655320168
100
AcDbArc
 50
16.17071088753898
 51
63.94281872591996
  0
ARC
  5
318345BA
330
318324AF
100
AcDbEntity
  8
TENSEN
100
AcDbCircle
 10
683.8172039466587
 20
515.4484803524199
 30
0.0
 40
15.0
100
AcDbArc
 50
15.34448052631341
 51
53.31701119963433
  0
LINE
  5
318345BB
330
318324AF
100
AcDbEntity
  8
TENSEN
100
AcDbLine
 10
665.4780262178515
 20
538.3990577992002
 30
0.0
 11
665.6004932551362
 21
542.317807154616
 31
0.0
  0
LINE
  5
318345BC
330
318324AF
100
AcDbEntity
  8
TENSEN
100
AcDbLine
 10
692.2235883221251
 20
538.3990577992003
 30
0.0
 11
692.1011212848412
 21
542.317807154616
 31
0.0
  0
ARC
  5
318345BD
330
318324AF
100
AcDbEntity
  8
TENSEN
100
AcDbCircle
 10
673.7704621774246
 20
516.7558803985285
 30
0.0
 40
17.0
100
AcDbArc
 50
114.4511428072297
 51
170.9913296209112
  0
ARC
  5
318345BE
330
318324AF
100
AcDbEntity
  8
TENSEN
100
AcDbCircle
 10
673.8169051833142
 20
515.6468431078754
 30
0.0
 40
11.0
100
AcDbArc
 50
111.492335307355
 51
159.9515331044591
  0
ARC
  5
318345BF
330
318324AF
100
AcDbEntity
  8
TENSEN
100
AcDbCircle
 10
672.8172039466588
 20
512.7860668875866
 30
0.0
 40
13.5
100
AcDbArc
 50
29.42211710584637
 51
41.82741212370976
  0
ARC
  5
318345C0
330
318324AF
100
AcDbEntity
  8
TENSEN
100
AcDbCircle
 10
684.8172039466588
 20
512.7860668875866
 30
0.0
 40
13.5
100
AcDbArc
 50
138.1725878762902
 51
150.5778828941536
  0
ARC
  5
318345C3
330
318324AF
100
AcDbEntity
  8
TENSEN
100
AcDbCircle
 10
673.8172039466587
 20
515.4484803524199
 30
0.0
 40
15.0
100
AcDbArc
 50
126.6829888003656
 51
164.6555194736865
  0
LWPOLYLINE
  5
318345C5
330
318324AF
100
AcDbEntity
  8
TENSEN
100
AcDbPolyline
 90
        2
 70
     0
 43
0.0
 10
666.6272899403812
 20
537.7355300796279
 10
666.7704932551353
 20
542.317807154616
  0
LWPOLYLINE
  5
318345C6
330
318324AF
100
AcDbEntity
  8
TENSEN
100
AcDbPolyline
 90
        2
 70
     0
 43
0.0
 10
691.0743245995959
 20
537.7355300796279
 10
690.9311212848414
 20
542.317807154616
  0
LINE
  5
318345D6
330
318324AF
100
AcDbEntity
  8
JISSEN
100
AcDbLine
 10
662.9172039466588
 20
542.317807154616
 30
0.0
 11
694.7172039466588
 21
542.317807154616
 31
0.0
  0
ENDSEC
  0
SECTION
  2
OBJECTS
  0
DICTIONARY
  5
318324A3
330
0
100
AcDbDictionary
281
     1
  3
ACAD_GROUP
350
318324A4
  3
ACAD_LAYOUT
350
318327C1
  3
ACAD_MLINESTYLE
350
318324A5
  3
ACAD_PLOTSETTINGS
350
318327C2
  3
ACAD_PLOTSTYLENAME
350
318327BF
  3
ACDBVARIABLEDICTIONARY
350
318335E4
  0
DICTIONARY
  5
31833657
330
31832499
100
AcDbDictionary
280
     1
281
     1
  3
ACAD_LAYERSTATES
360
31833658
  0
DICTIONARY
  5
318335CC
330
318324AF
100
AcDbDictionary
280
     1
281
     1
  3
ACAD_LAYOUTSELFREF
360
3183364C
  0
DICTIONARY
  5
318335CA
330
318324AC
100
AcDbDictionary
280
     1
281
     1
  3
ACAD_LAYOUTSELFREF
360
3183364B
  0
DICTIONARY
  5
318324A4
102
{ACAD_REACTORS
330
318324A3
102
}
330
318324A3
100
AcDbDictionary
281
     1
  0
DICTIONARY
  5
318327C1
102
{ACAD_REACTORS
330
318324A3
102
}
330
318324A3
100
AcDbDictionary
281
     1
  3
Model
350
31833651
  3
ﾚｲｱｳﾄ1
350
31833652
  0
DICTIONARY
  5
318324A5
102
{ACAD_REACTORS
330
318324A3
102
}
330
318324A3
100
AcDbDictionary
281
     1
  3
STANDARD
350
318324B2
  0
DICTIONARY
  5
318327C2
102
{ACAD_REACTORS
330
318324A3
102
}
330
318324A3
100
AcDbDictionary
281
     1
  0
ACDBDICTIONARYWDFLT
  5
318327BF
102
{ACAD_REACTORS
330
318324A3
102
}
330
318324A3
100
AcDbDictionary
281
     1
  3
Normal
350
318327C0
100
AcDbDictionaryWithDefault
340
318327C0
  0
DICTIONARY
  5
318335E4
102
{ACAD_REACTORS
330
318324A3
102
}
330
318324A3
100
AcDbDictionary
281
     1
  3
DIMASSOC
350
318335E5
  3
SORTENTS
350
3183453F
  0
DICTIONARY
  5
31833658
102
{ACAD_REACTORS
330
31833657
102
}
330
31833657
100
AcDbDictionary
281
     1
  0
XRECORD
  5
3183364C
102
{ACAD_REACTORS
330
318335CC
102
}
330
318335CC
100
AcDbXrecord
280
     1
340
318324AF
  0
XRECORD
  5
3183364B
102
{ACAD_REACTORS
330
318335CA
102
}
330
318335CA
100
AcDbXrecord
280
     1
340
318324AC
  0
LAYOUT
  5
31833651
102
{ACAD_REACTORS
330
318327C1
102
}
330
318327C1
100
AcDbPlotSettings
  1

  2
none_device
  4
none_user_media
  6

 40
0.0
 41
0.0
 42
0.0
 43
0.0
 44
0.0
 45
0.0
 46
0.0
 47
0.0
 48
0.0
 49
0.0
140
0.0
141
0.0
142
1.0
143
1.0
 70
 11952
 72
     0
 73
     1
 74
     0
  7

 75
    16
147
1.0
148
5894.103363618244
149
7972.725924343065
100
AcDbLayout
  1
Model
 70
     1
 71
     0
 10
0.0
 20
0.0
 11
12.0
 21
9.0
 12
0.0
 22
0.0
 32
0.0
 14
0.0
 24
0.0
 34
0.0
 15
0.0
 25
0.0
 35
0.0
146
0.0
 13
0.0
 23
0.0
 33
0.0
 16
1.0
 26
0.0
 36
0.0
 17
0.0
 27
1.0
 37
0.0
 76
     0
330
318324AF
  0
LAYOUT
  5
31833652
102
{ACAD_REACTORS
330
318327C1
102
}
330
318327C1
100
AcDbPlotSettings
  1

  2
\\Nt_honsya\GL-8300A
  4

  6

 40
0.0
 41
0.0
 42
0.0
 43
0.0
 44
0.0
 45
0.0
 46
0.0
 47
0.0
 48
0.0
 49
0.0
140
0.0
141
0.0
142
1.0
143
1.0
 70
   688
 72
     0
 73
     0
 74
     5
  7
pdf001.ctb
 75
    16
147
1.0
148
0.0
149
0.0
100
AcDbLayout
  1
ﾚｲｱｳﾄ1
 70
     0
 71
     1
 10
0.0
 20
0.0
 11
12.0
 21
9.0
 12
0.0
 22
0.0
 32
0.0
 14
1.000000000000000E+20
 24
1.000000000000000E+20
 34
1.000000000000000E+20
 15
-1.000000000000000E+20
 25
-1.000000000000000E+20
 35
-1.000000000000000E+20
146
0.0
 13
0.0
 23
0.0
 33
0.0
 16
1.0
 26
0.0
 36
0.0
 17
0.0
 27
1.0
 37
0.0
 76
     0
330
318324AC
  0
MLINESTYLE
  5
318324B2
102
{ACAD_REACTORS
330
318324A5
102
}
330
318324A5
100
AcDbMlineStyle
  2
STANDARD
 70
     0
  3

 62
     0
 51
90.0
 52
90.0
 71
     2
 49
0.5
 62
   256
  6
BYLAYER
 49
-0.5
 62
   256
  6
BYLAYER
  0
ACDBPLACEHOLDER
  5
318327C0
102
{ACAD_REACTORS
330
318327BF
102
}
330
318327BF
  0
DICTIONARYVAR
  5
318335E5
102
{ACAD_REACTORS
330
318335E4
102
}
330
318335E4
100
DictionaryVariables
280
     0
  1
0
  0
DICTIONARYVAR
  5
3183453F
102
{ACAD_REACTORS
330
318335E4
102
}
330
318335E4
100
DictionaryVariables
280
     0
  1
96
  0
ENDSEC
  0
EOF
