  0
SECTION
  2
HEADER
  9
$ACADVER
  1
AC1015
  9
$ACADMAINTVER
 70
    10
  9
$DWGCODEPAGE
  3
ANSI_932
  9
$INSBASE
 10
0.0
 20
0.0
 30
0.0
  9
$EXTMIN
 10
-0.0035483795695654
 20
-1.295510510776921
 30
-0.000000000000013
  9
$EXTMAX
 10
1357.514662545404
 20
681.2528522037503
 30
0.0000000000000023
  9
$LIMMIN
 10
0.0
 20
0.0
  9
$LIMMAX
 10
180.9999992799999
 20
272.9999999999999
  9
$ORTHOMODE
 70
     0
  9
$REGENMODE
 70
     1
  9
$FILLMODE
 70
     1
  9
$QTEXTMODE
 70
     0
  9
$MIRRTEXT
 70
     0
  9
$LTSCALE
 40
5.0
  9
$ATTMODE
 70
     1
  9
$TEXTSIZE
 40
3.0
  9
$TRACEWID
 40
0.05
  9
$TEXTSTYLE
  7
K
  9
$CLAYER
  8
JISSEN
  9
$CELTYPE
  6
BYLAYER
  9
$CECOLOR
 62
   256
  9
$CELTSCALE
 40
1.0
  9
$DISPSILH
 70
     0
  9
$DIMSCALE
 40
2.5
  9
$DIMASZ
 40
3.0
  9
$DIMEXO
 40
0.75
  9
$DIMDLI
 40
6.0
  9
$DIMRND
 40
0.0
  9
$DIMDLE
 40
0.0
  9
$DIMEXE
 40
1.0
  9
$DIMTP
 40
495.0
  9
$DIMTM
 40
0.0
  9
$DIMTXT
 40
3.0
  9
$DIMCEN
 40
0.0
  9
$DIMTSZ
 40
0.0
  9
$DIMTOL
 70
     0
  9
$DIMLIM
 70
     0
  9
$DIMTIH
 70
     0
  9
$DIMTOH
 70
     0
  9
$DIMSE1
 70
     0
  9
$DIMSE2
 70
     0
  9
$DIMTAD
 70
     3
  9
$DIMZIN
 70
     8
  9
$DIMBLK
  1
ARROWANG
  9
$DIMASO
 70
     0
  9
$DIMSHO
 70
     0
  9
$DIMPOST
  1

  9
$DIMAPOST
  1

  9
$DIMALT
 70
     0
  9
$DIMALTD
 70
     2
  9
$DIMALTF
 40
25.4
  9
$DIMLFAC
 40
1.0
  9
$DIMTOFL
 70
     1
  9
$DIMTVP
 40
0.0
  9
$DIMTIX
 70
     1
  9
$DIMSOXD
 70
     0
  9
$DIMSAH
 70
     1
  9
$DIMBLK1
  1
ARROWANG
  9
$DIMBLK2
  1
ARROWANG
  9
$DIMSTYLE
  2
IMAO
  9
$DIMCLRD
 70
   256
  9
$DIMCLRE
 70
   256
  9
$DIMCLRT
 70
   256
  9
$DIMTFAC
 40
1.0
  9
$DIMGAP
 40
1.0
  9
$DIMJUST
 70
     0
  9
$DIMSD1
 70
     0
  9
$DIMSD2
 70
     0
  9
$DIMTOLJ
 70
     1
  9
$DIMTZIN
 70
     0
  9
$DIMALTZ
 70
     0
  9
$DIMALTTZ
 70
     0
  9
$DIMUPT
 70
     0
  9
$DIMDEC
 70
     2
  9
$DIMTDEC
 70
     2
  9
$DIMALTU
 70
     2
  9
$DIMALTTD
 70
     2
  9
$DIMTXSTY
  7
K
  9
$DIMAUNIT
 70
     0
  9
$DIMADEC
 70
     0
  9
$DIMALTRND
 40
0.0
  9
$DIMAZIN
 70
     0
  9
$DIMDSEP
 70
    46
  9
$DIMATFIT
 70
     3
  9
$DIMFRAC
 70
     0
  9
$DIMLDRBLK
  1
ARROWANG
  9
$DIMLUNIT
 70
     2
  9
$DIMLWD
 70
    -2
  9
$DIMLWE
 70
    -2
  9
$DIMTMOVE
 70
     0
  9
$LUNITS
 70
     2
  9
$LUPREC
 70
     2
  9
$SKETCHINC
 40
0.1
  9
$FILLETRAD
 40
0.0
  9
$AUNITS
 70
     0
  9
$AUPREC
 70
     2
  9
$MENU
  1
STDR12J
  9
$ELEVATION
 40
0.0
  9
$PELEVATION
 40
0.0
  9
$THICKNESS
 40
0.0
  9
$LIMCHECK
 70
     0
  9
$CHAMFERA
 40
0.0
  9
$CHAMFERB
 40
0.0
  9
$CHAMFERC
 40
0.0
  9
$CHAMFERD
 40
0.0
  9
$SKPOLY
 70
     0
  9
$TDCREATE
 40
2450694.750535185
  9
$TDUCREATE
 40
2450694.375535185
  9
$TDUPDATE
 40
2456085.415173264
  9
$TDUUPDATE
 40
2456085.040173264
  9
$TDINDWG
 40
0.1486598958
  9
$TDUSRTIMER
 40
0.1486597106
  9
$USRTIMER
 70
     1
  9
$ANGBASE
 50
0.0
  9
$ANGDIR
 70
     0
  9
$PDMODE
 70
     0
  9
$PDSIZE
 40
0.0
  9
$PLINEWID
 40
0.0
  9
$SPLFRAME
 70
     0
  9
$SPLINETYPE
 70
     6
  9
$SPLINESEGS
 70
     8
  9
$HANDSEED
  5
31833687
  9
$SURFTAB1
 70
     6
  9
$SURFTAB2
 70
     6
  9
$SURFTYPE
 70
     6
  9
$SURFU
 70
     6
  9
$SURFV
 70
     6
  9
$UCSBASE
  2

  9
$UCSNAME
  2

  9
$UCSORG
 10
0.0
 20
0.0
 30
0.0
  9
$UCSXDIR
 10
1.0
 20
0.0
 30
0.0
  9
$UCSYDIR
 10
0.0
 20
1.0
 30
0.0
  9
$UCSORTHOREF
  2

  9
$UCSORTHOVIEW
 70
     0
  9
$UCSORGTOP
 10
0.0
 20
0.0
 30
0.0
  9
$UCSORGBOTTOM
 10
0.0
 20
0.0
 30
0.0
  9
$UCSORGLEFT
 10
0.0
 20
0.0
 30
0.0
  9
$UCSORGRIGHT
 10
0.0
 20
0.0
 30
0.0
  9
$UCSORGFRONT
 10
0.0
 20
0.0
 30
0.0
  9
$UCSORGBACK
 10
0.0
 20
0.0
 30
0.0
  9
$PUCSBASE
  2

  9
$PUCSNAME
  2

  9
$PUCSORG
 10
0.0
 20
0.0
 30
0.0
  9
$PUCSXDIR
 10
1.0
 20
0.0
 30
0.0
  9
$PUCSYDIR
 10
0.0
 20
1.0
 30
0.0
  9
$PUCSORTHOREF
  2

  9
$PUCSORTHOVIEW
 70
     0
  9
$PUCSORGTOP
 10
0.0
 20
0.0
 30
0.0
  9
$PUCSORGBOTTOM
 10
0.0
 20
0.0
 30
0.0
  9
$PUCSORGLEFT
 10
0.0
 20
0.0
 30
0.0
  9
$PUCSORGRIGHT
 10
0.0
 20
0.0
 30
0.0
  9
$PUCSORGFRONT
 10
0.0
 20
0.0
 30
0.0
  9
$PUCSORGBACK
 10
0.0
 20
0.0
 30
0.0
  9
$USERI1
 70
     4
  9
$USERI2
 70
     1
  9
$USERI3
 70
     1
  9
$USERI4
 70
     1
  9
$USERI5
 70
     1
  9
$USERR1
 40
1.0
  9
$USERR2
 40
3.0
  9
$USERR3
 40
3.0
  9
$USERR4
 40
1.5
  9
$USERR5
 40
10.0
  9
$WORLDVIEW
 70
     1
  9
$SHADEDGE
 70
     3
  9
$SHADEDIF
 70
    70
  9
$TILEMODE
 70
     1
  9
$MAXACTVP
 70
    16
  9
$PINSBASE
 10
0.0
 20
0.0
 30
0.0
  9
$PLIMCHECK
 70
     0
  9
$PEXTMIN
 10
1.000000000000000E+20
 20
1.000000000000000E+20
 30
1.000000000000000E+20
  9
$PEXTMAX
 10
-1.000000000000000E+20
 20
-1.000000000000000E+20
 30
-1.000000000000000E+20
  9
$PLIMMIN
 10
0.0
 20
0.0
  9
$PLIMMAX
 10
12.0
 20
9.0
  9
$UNITMODE
 70
     0
  9
$VISRETAIN
 70
     0
  9
$PLINEGEN
 70
     0
  9
$PSLTSCALE
 70
     0
  9
$TREEDEPTH
 70
     0
  9
$CMLSTYLE
  2
STANDARD
  9
$CMLJUST
 70
     0
  9
$CMLSCALE
 40
1.0
  9
$PROXYGRAPHICS
 70
     1
  9
$MEASUREMENT
 70
     0
  9
$CELWEIGHT
370
    -1
  9
$ENDCAPS
280
     0
  9
$JOINSTYLE
280
     0
  9
$LWDISPLAY
290
     0
  9
$INSUNITS
 70
     0
  9
$HYPERLINKBASE
  1

  9
$STYLESHEET
  1
pdf001.ctb
  9
$XEDIT
290
     1
  9
$CEPSNTYPE
380
     0
  9
$PSTYLEMODE
290
     1
  9
$FINGERPRINTGUID
  2
{E5228D24-DA15-4356-9063-6B42BC255E94}
  9
$VERSIONGUID
  2
{ED20BE1A-ABAA-4214-8B61-A2E6C4CD4AE9}
  9
$EXTNAMES
290
     1
  9
$PSVPSCALE
 40
0.0
  9
$OLESTARTUP
290
     0
  0
ENDSEC
  0
SECTION
  2
CLASSES
  0
CLASS
  1
LWPOLYLINE
  2
AcDbPolyline
  3
AutoCAD 2000
 90
    32768
280
     0
281
     1
  0
CLASS
  1
ACDBDICTIONARYWDFLT
  2
AcDbDictionaryWithDefault
  3
AutoCAD 2000
 90
        0
280
     0
281
     0
  0
CLASS
  1
ACDBPLACEHOLDER
  2
AcDbPlaceHolder
  3
AutoCAD 2000
 90
        0
280
     0
281
     0
  0
CLASS
  1
LAYOUT
  2
AcDbLayout
  3
AutoCAD 2000
 90
        0
280
     0
281
     0
  0
CLASS
  1
DICTIONARYVAR
  2
AcDbDictionaryVar
  3
AutoCAD 2000
 90
        0
280
     0
281
     0
  0
CLASS
  1
LONG_TRANSACTION
  2
AcDbLongTransaction
  3
AutoCAD 2000
 90
    32768
280
     0
281
     0
  0
CLASS
  1
LWPOLYLINE
  2
AcDbPolyline
  3
AutoCAD 2000
 90
    32768
280
     0
281
     1
  0
CLASS
  1
HATCH
  2
AcDbHatch
  3
AutoCAD 2000
 90
    32768
280
     0
281
     1
  0
CLASS
  1
XRECORD
  2
AcDbXrecord
  3
AutoCAD 2000
 90
    32768
280
     0
281
     0
  0
CLASS
  1
LONG_TRANSACTION
  2
AcDbLongTransaction
  3
AutoCAD 2000
 90
    32768
280
     0
281
     0
  0
CLASS
  1
LWPOLYLINE
  2
AcDbPolyline
  3
AutoCAD 2000
 90
    32768
280
     0
281
     1
  0
CLASS
  1
HATCH
  2
AcDbHatch
  3
AutoCAD 2000
 90
    32768
280
     0
281
     1
  0
CLASS
  1
XRECORD
  2
AcDbXrecord
  3
AutoCAD 2000
 90
    32768
280
     0
281
     0
  0
ENDSEC
  0
SECTION
  2
TABLES
  0
TABLE
  2
VPORT
  5
3183249F
330
0
100
AcDbSymbolTable
 70
    10
  0
VPORT
  5
318324C3
330
3183249F
100
AcDbSymbolTableRecord
100
AcDbViewportTableRecord
  2
2
 70
     0
 10
0.5
 20
0.0
 11
1.0
 21
1.0
 12
0.9240312421264802
 22
1.052650975462765
 13
0.0
 23
0.0
 14
1.0
 24
1.0
 15
10.0
 25
10.0
 16
0.0
 26
0.0
 36
1.0
 17
0.0
 27
0.0
 37
0.0
 40
2.105301950925533
 41
0.8778135048231511
 42
50.0
 43
0.0
 44
0.0
 50
0.0
 51
0.0
 71
     0
 72
   500
 73
     1
 74
     1
 75
     0
 76
     0
 77
     0
 78
     0
281
     0
 65
     1
110
0.0
120
0.0
130
0.0
111
1.0
121
0.0
131
0.0
112
0.0
122
1.0
132
0.0
 79
     0
146
0.0
  0
VPORT
  5
318324C4
330
3183249F
100
AcDbSymbolTableRecord
100
AcDbViewportTableRecord
  2
2
 70
     0
 10
0.0
 20
0.0
 11
0.5
 21
1.0
 12
0.9240312421264802
 22
1.052650975462765
 13
0.0
 23
0.0
 14
1.0
 24
1.0
 15
10.0
 25
10.0
 16
0.0
 26
0.0
 36
1.0
 17
0.0
 27
0.0
 37
0.0
 40
2.105301950925533
 41
0.8778135048231511
 42
50.0
 43
0.0
 44
0.0
 50
0.0
 51
0.0
 71
     0
 72
   500
 73
     1
 74
     1
 75
     0
 76
     0
 77
     0
 78
     0
281
     0
 65
     1
110
0.0
120
0.0
130
0.0
111
1.0
121
0.0
131
0.0
112
0.0
122
1.0
132
0.0
 79
     0
146
0.0
  0
VPORT
  5
318324C5
330
3183249F
100
AcDbSymbolTableRecord
100
AcDbViewportTableRecord
  2
3
 70
     0
 10
0.0
 20
0.5
 11
1.0
 21
1.0
 12
2.832169994473273
 22
1.052650975462765
 13
0.0
 23
0.0
 14
1.0
 24
1.0
 15
10.0
 25
10.0
 16
0.0
 26
0.0
 36
1.0
 17
0.0
 27
0.0
 37
0.0
 40
2.105301950925533
 41
3.571428571428571
 42
50.0
 43
0.0
 44
0.0
 50
0.0
 51
0.0
 71
     0
 72
   500
 73
     1
 74
     1
 75
     0
 76
     0
 77
     0
 78
     0
281
     0
 65
     1
110
0.0
120
0.0
130
0.0
111
1.0
121
0.0
131
0.0
112
0.0
122
1.0
132
0.0
 79
     0
146
0.0
  0
VPORT
  5
318324C6
330
3183249F
100
AcDbSymbolTableRecord
100
AcDbViewportTableRecord
  2
3
 70
     0
 10
0.0
 20
0.0
 11
1.0
 21
0.5
 12
2.856741679241311
 22
1.052650975462765
 13
0.0
 23
0.0
 14
1.0
 24
1.0
 15
10.0
 25
10.0
 16
0.0
 26
0.0
 36
1.0
 17
0.0
 27
0.0
 37
0.0
 40
2.105301950925533
 41
3.594771241830064
 42
50.0
 43
0.0
 44
0.0
 50
0.0
 51
0.0
 71
     0
 72
   500
 73
     1
 74
     1
 75
     0
 76
     0
 77
     0
 78
     0
281
     0
 65
     1
110
0.0
120
0.0
130
0.0
111
1.0
121
0.0
131
0.0
112
0.0
122
1.0
132
0.0
 79
     0
146
0.0
  0
VPORT
  5
318324C7
330
3183249F
100
AcDbSymbolTableRecord
100
AcDbViewportTableRecord
  2
4
 70
     0
 10
0.5
 20
0.0
 11
1.0
 21
0.5
 12
2.886857516709718
 22
1.052650975462765
 13
0.0
 23
0.0
 14
1.0
 24
1.0
 15
10.0
 25
10.0
 16
0.0
 26
0.0
 36
1.0
 17
0.0
 27
0.0
 37
0.0
 40
4.275207030309069
 41
1.784313725490195
 42
50.0
 43
0.0
 44
0.0
 50
0.0
 51
0.0
 71
     0
 72
   500
 73
     1
 74
     1
 75
     0
 76
     0
 77
     0
 78
     0
281
     0
 65
     1
110
0.0
120
0.0
130
0.0
111
1.0
121
0.0
131
0.0
112
0.0
122
1.0
132
0.0
 79
     0
146
0.0
  0
VPORT
  5
318324C8
330
3183249F
100
AcDbSymbolTableRecord
100
AcDbViewportTableRecord
  2
4
 70
     0
 10
0.5
 20
0.5
 11
1.0
 21
1.0
 12
2.862090274555523
 22
1.052650975462765
 13
0.0
 23
0.0
 14
1.0
 24
1.0
 15
10.0
 25
10.0
 16
0.0
 26
0.0
 36
1.0
 17
0.0
 27
0.0
 37
0.0
 40
4.275207030309069
 41
1.772727272727271
 42
50.0
 43
0.0
 44
0.0
 50
0.0
 51
0.0
 71
     0
 72
   500
 73
     1
 74
     1
 75
     0
 76
     0
 77
     0
 78
     0
281
     0
 65
     1
110
0.0
120
0.0
130
0.0
111
1.0
121
0.0
131
0.0
112
0.0
122
1.0
132
0.0
 79
     0
146
0.0
  0
VPORT
  5
318324C9
330
3183249F
100
AcDbSymbolTableRecord
100
AcDbViewportTableRecord
  2
4
 70
     0
 10
0.0
 20
0.5
 11
0.5
 21
1.0
 12
2.862090274555523
 22
1.052650975462765
 13
0.0
 23
0.0
 14
1.0
 24
1.0
 15
10.0
 25
10.0
 16
0.0
 26
0.0
 36
1.0
 17
0.0
 27
0.0
 37
0.0
 40
4.275207030309069
 41
1.772727272727271
 42
50.0
 43
0.0
 44
0.0
 50
0.0
 51
0.0
 71
     0
 72
   500
 73
     1
 74
     1
 75
     0
 76
     0
 77
     0
 78
     0
281
     0
 65
     1
110
0.0
120
0.0
130
0.0
111
1.0
121
0.0
131
0.0
112
0.0
122
1.0
132
0.0
 79
     0
146
0.0
  0
VPORT
  5
318324CA
330
3183249F
100
AcDbSymbolTableRecord
100
AcDbViewportTableRecord
  2
4
 70
     0
 10
0.0
 20
0.0
 11
0.5
 21
0.5
 12
2.886857516709718
 22
1.052650975462765
 13
0.0
 23
0.0
 14
1.0
 24
1.0
 15
10.0
 25
10.0
 16
0.0
 26
0.0
 36
1.0
 17
0.0
 27
0.0
 37
0.0
 40
4.275207030309069
 41
1.784313725490195
 42
50.0
 43
0.0
 44
0.0
 50
0.0
 51
0.0
 71
     0
 72
   500
 73
     1
 74
     1
 75
     0
 76
     0
 77
     0
 78
     0
281
     0
 65
     1
110
0.0
120
0.0
130
0.0
111
1.0
121
0.0
131
0.0
112
0.0
122
1.0
132
0.0
 79
     0
146
0.0
  0
VPORT
  5
31833686
330
3183249F
100
AcDbSymbolTableRecord
100
AcDbViewportTableRecord
  2
*Active
 70
     0
 10
0.0
 20
0.0
 11
1.0
 21
1.0
 12
678.7555570829172
 22
339.9786708464867
 13
0.0
 23
0.0
 14
1.0
 24
1.0
 15
10.0
 25
10.0
 16
0.0
 26
0.0
 36
1.0
 17
0.0
 27
0.0
 37
0.0
 40
858.724864144802
 41
1.588383838383838
 42
50.0
 43
0.0
 44
0.0
 50
0.0
 51
0.0
 71
     0
 72
   500
 73
     1
 74
     0
 75
     0
 76
     0
 77
     0
 78
     0
281
     0
 65
     1
110
0.0
120
0.0
130
0.0
111
1.0
121
0.0
131
0.0
112
0.0
122
1.0
132
0.0
 79
     0
146
0.0
  0
ENDTAB
  0
TABLE
  2
LTYPE
  5
3183249C
330
0
100
AcDbSymbolTable
 70
     3
  0
LTYPE
  5
318324A9
330
3183249C
100
AcDbSymbolTableRecord
100
AcDbLinetypeTableRecord
  2
BYBLOCK
 70
     0
  3

 72
    65
 73
     0
 40
0.0
  0
LTYPE
  5
318324AA
330
3183249C
100
AcDbSymbolTableRecord
100
AcDbLinetypeTableRecord
  2
BYLAYER
 70
     0
  3

 72
    65
 73
     0
 40
0.0
  0
LTYPE
  5
318324AB
330
3183249C
100
AcDbSymbolTableRecord
100
AcDbLinetypeTableRecord
  2
CONTINUOUS
 70
     0
  3
実線
 72
    65
 73
     0
 40
0.0
  0
LTYPE
  5
31832AE1
330
3183249C
100
AcDbSymbolTableRecord
100
AcDbLinetypeTableRecord
  2
DASHED
 70
     0
  3
Dashed __ __ __ __ __ __ __ __ __ __ __ __ __ _
 72
    65
 73
     2
 40
0.75
 49
0.5
 74
     0
 49
-0.25
 74
     0
  0
LTYPE
  5
31832AEF
330
3183249C
100
AcDbSymbolTableRecord
100
AcDbLinetypeTableRecord
  2
PHANTOM
 70
     0
  3
_____ _ _ _____ _ _ _____ _ _ _____ _ _ ____
 72
    65
 73
     6
 40
2.5
 49
1.25
 74
     0
 49
-0.25
 74
     0
 49
0.25
 74
     0
 49
-0.25
 74
     0
 49
0.25
 74
     0
 49
-0.25
 74
     0
  0
ENDTAB
  0
TABLE
  2
LAYER
  5
31832499
102
{ACAD_XDICTIONARY
360
31833657
102
}
330
0
100
AcDbSymbolTable
 70
     9
  0
LAYER
  5
318324A6
330
31832499
100
AcDbSymbolTableRecord
100
AcDbLayerTableRecord
  2
0
 70
     0
 62
     7
  6
CONTINUOUS
370
    -3
390
318327C0
  0
LAYER
  5
318324D2
330
31832499
100
AcDbSymbolTableRecord
100
AcDbLayerTableRecord
  2
SUNPOU
 70
     0
 62
     3
  6
CONTINUOUS
370
    -3
390
318327C0
  0
LAYER
  5
318324D5
330
31832499
100
AcDbSymbolTableRecord
100
AcDbLayerTableRecord
  2
JISSEN
 70
     0
 62
     7
  6
CONTINUOUS
370
    -3
390
318327C0
  0
LAYER
  5
318324D9
330
31832499
100
AcDbSymbolTableRecord
100
AcDbLayerTableRecord
  2
WAKU
 70
     0
 62
     5
  6
CONTINUOUS
370
    -3
390
318327C0
  0
LAYER
  5
3183283F
330
31832499
100
AcDbSymbolTableRecord
100
AcDbLayerTableRecord
  2
SAISEN
 70
     0
 62
     4
  6
CONTINUOUS
370
    -3
390
318327C0
  0
LAYER
  5
31832AE2
330
31832499
100
AcDbSymbolTableRecord
100
AcDbLayerTableRecord
  2
TENSEN
 70
     0
 62
     3
  6
DASHED
370
    -3
390
318327C0
  0
LAYER
  5
31832AF0
330
31832499
100
AcDbSymbolTableRecord
100
AcDbLayerTableRecord
  2
NITEN
 70
     0
 62
     2
  6
PHANTOM
370
    -3
390
318327C0
  0
LAYER
  5
31832CC7
330
31832499
100
AcDbSymbolTableRecord
100
AcDbLayerTableRecord
  2
DEFPOINTS
 70
     0
 62
     7
  6
CONTINUOUS
290
     0
370
    -3
390
318327C0
  0
LAYER
  5
31833655
330
31832499
100
AcDbSymbolTableRecord
100
AcDbLayerTableRecord
  2
TEXT
 70
     0
 62
     3
  6
CONTINUOUS
370
    -3
390
318327C0
  0
ENDTAB
  0
TABLE
  2
STYLE
  5
3183249A
330
0
100
AcDbSymbolTable
 70
     3
  0
STYLE
  5
318324A7
330
3183249A
100
AcDbSymbolTableRecord
100
AcDbTextStyleTableRecord
  2
STANDARD
 70
     0
 40
0.0
 41
1.0
 50
0.0
 71
     0
 42
0.2
  3
ROMANS
  4
EXTFONT
  0
STYLE
  5
318324BE
330
3183249A
100
AcDbSymbolTableRecord
100
AcDbTextStyleTableRecord
  2
K
 70
     0
 40
0.0
 41
1.0
 50
0.0
 71
     0
 42
3.0
  3
ROMANS.shx
  4
bigfont.shx
  0
STYLE
  5
31833656
330
3183249A
100
AcDbSymbolTableRecord
100
AcDbTextStyleTableRecord
  2
BIGFONT
 70
     0
 40
0.0
 41
1.0
 50
0.0
 71
     0
 42
3.0
  3
txt.shx
  4
bigfont
  0
ENDTAB
  0
TABLE
  2
VIEW
  5
3183249D
330
0
100
AcDbSymbolTable
 70
     0
  0
ENDTAB
  0
TABLE
  2
UCS
  5
3183249E
330
0
100
AcDbSymbolTable
 70
     0
  0
ENDTAB
  0
TABLE
  2
APPID
  5
318324A0
330
0
100
AcDbSymbolTable
 70
     1
  0
APPID
  5
318324A8
330
318324A0
100
AcDbSymbolTableRecord
100
AcDbRegAppTableRecord
  2
ACAD
 70
     0
  0
ENDTAB
  0
TABLE
  2
DIMSTYLE
  5
318324A1
330
0
100
AcDbSymbolTable
 70
     1
100
AcDbDimStyleTable
 71
     0
  0
DIMSTYLE
105
318324CD
330
318324A1
100
AcDbSymbolTableRecord
100
AcDbDimStyleTableRecord
  2
IMAO
 70
     0
 41
1.5
 42
0.75
 43
6.0
 44
1.0
 47
495.0
 73
     0
 74
     0
 77
     3
 78
     8
140
3.0
141
0.0
147
1.0
172
     1
173
     1
174
     1
176
   256
177
   256
178
   256
271
     2
272
     2
340
318324BE
341
318324B9
342
318324B9
343
318324B9
344
318324B9
  0
ENDTAB
  0
TABLE
  2
BLOCK_RECORD
  5
31832498
330
0
100
AcDbSymbolTable
 70
     2
  0
BLOCK_RECORD
  5
318324AF
102
{ACAD_XDICTIONARY
360
318335CC
102
}
330
31832498
100
AcDbSymbolTableRecord
100
AcDbBlockTableRecord
  2
*MODEL_SPACE
340
31833651
  0
BLOCK_RECORD
  5
318324AC
102
{ACAD_XDICTIONARY
360
318335CA
102
}
330
31832498
100
AcDbSymbolTableRecord
100
AcDbBlockTableRecord
  2
*PAPER_SPACE
340
31833652
  0
BLOCK_RECORD
  5
318324B9
330
31832498
100
AcDbSymbolTableRecord
100
AcDbBlockTableRecord
  2
ARROWANG
340
0
  0
BLOCK_RECORD
  5
31832839
330
31832498
100
AcDbSymbolTableRecord
100
AcDbBlockTableRecord
  2
ARROW
340
0
102
{BLKREFS
331
31833571
331
318335A2
102
}
  0
ENDTAB
  0
ENDSEC
  0
SECTION
  2
BLOCKS
  0
BLOCK
  5
318324DE
330
318324AF
100
AcDbEntity
  8
0
100
AcDbBlockBegin
  2
*MODEL_SPACE
 70
     0
 10
0.0
 20
0.0
 30
0.0
  3
*MODEL_SPACE
  1

  0
ENDBLK
  5
318324DF
330
318324AF
100
AcDbEntity
  8
0
100
AcDbBlockEnd
  0
BLOCK
  5
318324DC
330
318324AC
100
AcDbEntity
 67
     1
  8
0
100
AcDbBlockBegin
  2
*PAPER_SPACE
 70
     0
 10
0.0
 20
0.0
 30
0.0
  3
*PAPER_SPACE
  1

  0
ENDBLK
  5
318324DD
330
318324AC
100
AcDbEntity
 67
     1
  8
0
100
AcDbBlockEnd
  0
BLOCK
  5
1D
330
318324B9
100
AcDbEntity
  8
0
100
AcDbBlockBegin
  2
ARROWANG
 70
     0
 10
0.0
 20
0.0
 30
0.0
  3
ARROWANG
  1

  0
LINE
  5
1E
330
318324B9
100
AcDbEntity
  8
SUNPOU
100
AcDbLine
 10
0.0
 20
0.0
 30
0.0
 11
-1.499999999999956
 21
0.401923788646741
 31
0.0
  0
LINE
  5
1F
330
318324B9
100
AcDbEntity
  8
SUNPOU
100
AcDbLine
 10
0.0
 20
0.0
 30
0.0
 11
-1.500000000000027
 21
-0.4019237886467124
 31
0.0
  0
ENDBLK
  5
20
330
318324B9
100
AcDbEntity
  8
0
100
AcDbBlockEnd
  0
BLOCK
  5
3183283D
330
31832839
100
AcDbEntity
  8
0
100
AcDbBlockBegin
  2
ARROW
 70
     0
 10
1.0
 20
0.5
 30
0.0
  3
ARROW
  1

  0
LINE
  5
3183283A
330
31832839
100
AcDbEntity
  8
0
100
AcDbLine
 10
1.0
 20
0.5
 30
0.0
 11
-0.5000000000000214
 21
0.0980762113533018
 31
0.0
  0
LINE
  5
3183283B
330
31832839
100
AcDbEntity
  8
0
100
AcDbLine
 10
0.0
 20
0.5
 30
0.0
 11
1.0
 21
0.5
 31
0.0
  0
LINE
  5
3183283C
330
31832839
100
AcDbEntity
  8
0
100
AcDbLine
 10
1.0
 20
0.5
 30
0.0
 11
-0.4999999999999575
 21
0.9019237886467408
 31
0.0
  0
ENDBLK
  5
3183283E
330
31832839
100
AcDbEntity
  8
0
100
AcDbBlockEnd
  0
ENDSEC
  0
SECTION
  2
ENTITIES
  0
LWPOLYLINE
  5
3183277D
330
318324AF
100
AcDbEntity
  8
WAKU
100
AcDbPolyline
 90
        4
 70
     1
 43
0.0
 10
0.0
 20
-1.294302090607742
 10
452.4999981999997
 20
-1.294302090607742
 10
452.4999981999997
 20
681.2056979093921
 10
0.0
 20
681.2056979093921
  0
TEXT
  5
318327DC
330
318324AF
100
AcDbEntity
  8
SUNPOU
100
AcDbText
 10
358.169134658115
 20
13.45470748047375
 30
0.0
 40
6.0
  1
防護板 A
  7
K
100
AcDbText
  0
TEXT
  5
318327DD
330
318324AF
100
AcDbEntity
  8
SUNPOU
100
AcDbText
 10
358.169134658115
 20
3.954707480473757
 30
0.0
 40
6.0
  1
A4 用紙、印刷尺度：1/2
  7
K
100
AcDbText
  0
LINE
  5
318327DE
330
318324AF
100
AcDbEntity
  8
JISSEN
100
AcDbLine
 10
46.24999909999996
 20
591.6144663284857
 30
0.0
 11
406.2499991
 21
591.6144663284857
 31
0.0
  0
LINE
  5
318327DF
330
318324AF
100
AcDbEntity
  8
JISSEN
100
AcDbLine
 10
26.24999909999996
 20
571.6144663284857
 30
0.0
 11
426.2499990999998
 21
571.6144663284857
 31
0.0
  0
ARC
  5
318327E0
330
318324AF
100
AcDbEntity
  8
JISSEN
100
AcDbCircle
 10
406.2499991
 20
571.6144663284857
 30
0.0
 40
19.99999999999998
100
AcDbArc
 50
0.0
 51
90.0
  0
ARC
  5
318327E1
330
318324AF
100
AcDbEntity
  8
JISSEN
100
AcDbCircle
 10
46.24999909999996
 20
571.6144663284857
 30
0.0
 40
19.99999999999998
100
AcDbArc
 50
90.0
 51
180.0
  0
CIRCLE
  5
3183282A
330
318324AF
100
AcDbEntity
  8
JISSEN
100
AcDbCircle
 10
224.6364763627166
 20
285.5349553151348
 30
0.0
 40
11.5
  0
CIRCLE
  5
3183282B
330
318324AF
100
AcDbEntity
  8
JISSEN
100
AcDbCircle
 10
224.6364763627166
 20
285.5349553151348
 30
0.0
 40
200.0
  0
CIRCLE
  5
3183282C
330
318324AF
100
AcDbEntity
  8
JISSEN
100
AcDbCircle
 10
224.6364763627166
 20
285.5349553151348
 30
0.0
 40
199.1999999999999
  0
LWPOLYLINE
  5
3183282D
330
318324AF
100
AcDbEntity
  8
WAKU
100
AcDbPolyline
 90
        4
 70
     1
 43
0.0
 10
452.4999981999997
 20
-1.294302090607742
 10
904.9999963999999
 20
-1.294302090607742
 10
904.9999963999999
 20
681.2056979093921
 10
452.4999981999997
 20
681.2056979093921
  0
TEXT
  5
3183282E
330
318324AF
100
AcDbEntity
  8
SUNPOU
100
AcDbText
 10
740.5488992852482
 20
3.954707480473756
 30
0.0
 40
6.0
  1
A4 用紙、印刷尺度：1/2
  7
K
100
AcDbText
  0
TEXT
  5
3183282F
330
318324AF
100
AcDbEntity
  8
SUNPOU
100
AcDbText
 10
740.5488992852482
 20
13.45470748047374
 30
0.0
 40
6.0
  1
防護板 A 取付状態（断面図、ヘッドはMFJ  型）
  7
K
100
AcDbText
  0
LINE
  5
31832831
330
318324AF
100
AcDbEntity
  8
SUNPOU
100
AcDbLine
 10
885.6913119124797
 20
19.45462704664328
 30
0.0
 11
889.6913119124796
 21
19.45462704664328
 31
0.0
  0
ARC
  5
31832835
330
318324AF
100
AcDbEntity
  8
JISSEN
100
AcDbCircle
 10
498.7499972999998
 20
543.0574313525186
 30
0.0
 40
19.99999999999998
100
AcDbArc
 50
90.0
 51
180.0
  0
ARC
  5
31832836
330
318324AF
100
AcDbEntity
  8
JISSEN
100
AcDbCircle
 10
858.7499972999998
 20
543.0574313525186
 30
0.0
 40
19.99999999999998
100
AcDbArc
 50
0.0
 51
90.0
  0
LINE
  5
31832837
330
318324AF
100
AcDbEntity
  8
JISSEN
100
AcDbLine
 10
478.7499972999998
 20
543.0574313525186
 30
0.0
 11
878.7499972999997
 21
543.0574313525186
 31
0.0
  0
LINE
  5
31832838
330
318324AF
100
AcDbEntity
  8
JISSEN
100
AcDbLine
 10
498.7499972999998
 20
563.0574313525186
 30
0.0
 11
858.7499972999998
 21
563.0574313525186
 31
0.0
  0
LINE
  5
31832922
330
318324AF
100
AcDbEntity
  8
JISSEN
100
AcDbLine
 10
690.4999972999968
 20
533.5574313525158
 30
0.0
 11
691.9999972999966
 21
535.0574313525148
 31
0.0
  0
LINE
  5
31832923
330
318324AF
100
AcDbEntity
  8
JISSEN
100
AcDbLine
 10
691.9999972999969
 20
536.5574313525154
 30
0.0
 11
678.7499972999999
 21
536.5574313525178
 31
0.0
  0
LINE
  5
31832924
330
318324AF
100
AcDbEntity
  8
JISSEN
100
AcDbLine
 10
678.7499972999998
 20
539.1715490301792
 30
0.0
 11
691.2999972999974
 21
539.1715490301772
 31
0.0
1001
ACAD
1000
ASC_BOUNDS
1002
{
1070
    19
1002
}
  0
LINE
  5
31832925
330
318324AF
100
AcDbEntity
  8
JISSEN
100
AcDbLine
 10
691.9999972999966
 20
535.0574313525148
 30
0.0
 11
678.7499972999998
 21
535.0574313525148
 31
0.0
  0
LINE
  5
31832926
330
318324AF
100
AcDbEntity
  8
JISSEN
100
AcDbLine
 10
678.7499972999998
 20
540.9215490301793
 30
0.0
 11
693.2792003166015
 21
540.9215490301792
 31
0.0
1001
ACAD
1000
ASC_BOUNDS
1002
{
1070
    19
1002
}
  0
LINE
  5
31832927
330
318324AF
100
AcDbEntity
  8
TENSEN
 48
1.5
100
AcDbLine
 10
679.7499972999998
 20
561.7574313525186
 30
0.0
 11
705.2499972999997
 21
561.7574313525186
 31
0.0
  0
LINE
  5
31832928
330
318324AF
100
AcDbEntity
  8
TENSEN
 48
1.5
100
AcDbLine
 10
705.2499972999997
 20
554.7574313525187
 30
0.0
 11
679.7499972999998
 21
554.7574313525187
 31
0.0
  0
LINE
  5
31832929
330
318324AF
100
AcDbEntity
  8
TENSEN
 48
1.5
100
AcDbLine
 10
704.2499972999998
 20
553.7574313525186
 30
0.0
 11
678.7499972999998
 21
553.7574313525186
 31
0.0
  0
LINE
  5
3183292A
330
318324AF
100
AcDbEntity
  8
TENSEN
 48
1.5
100
AcDbLine
 10
705.0999972999997
 20
562.2574313525186
 30
0.0
 11
678.7499972999998
 21
562.2574313525186
 31
0.0
  0
LINE
  5
3183292C
330
318324AF
100
AcDbEntity
  8
TENSEN
 48
1.5
100
AcDbLine
 10
669.2907642999998
 20
564.4981983525187
 30
0.0
 11
669.3394926875755
 21
566.0574313525186
 31
0.0
  0
LINE
  5
3183292D
330
318324AF
100
AcDbEntity
  8
JISSEN
100
AcDbLine
 10
668.584852578635
 20
579.0922857078493
 30
0.0
 11
668.1774926550257
 21
566.0574313525184
 31
0.0
  0
LINE
  5
3183292E
330
318324AF
100
AcDbEntity
  8
JISSEN
100
AcDbLine
 10
688.9151420213647
 20
579.0922857078493
 30
0.0
 11
689.322501944974
 21
566.0574313525184
 31
0.0
  0
LINE
  5
3183292F
330
318324AF
100
AcDbEntity
  8
TENSEN
 48
1.5
100
AcDbLine
 10
688.2092302999997
 20
564.4981983525187
 30
0.0
 11
688.1605019124241
 21
566.0574313525186
 31
0.0
  0
LINE
  5
31832930
330
318324AF
100
AcDbEntity
  8
JISSEN
100
AcDbLine
 10
664.2207942833981
 20
540.9215490301792
 30
0.0
 11
659.6781286580148
 21
543.0574313525186
 31
0.0
1001
ACAD
1000
ASC_BOUNDS
1002
{
1070
    19
1002
}
  0
LINE
  5
31832931
330
318324AF
100
AcDbEntity
  8
JISSEN
100
AcDbLine
 10
669.8044584732316
 20
538.7029095071783
 30
0.0
 11
669.1542664537299
 21
537.6159403335186
 31
0.0
  0
LINE
  5
31832932
330
318324AF
100
AcDbEntity
  8
JISSEN
100
AcDbLine
 10
669.2259034780337
 20
537.3400671862166
 30
0.0
 11
670.0618532635553
 21
536.857431352517
 31
0.0
  0
LINE
  5
31832933
330
318324AF
100
AcDbEntity
  8
JISSEN
100
AcDbLine
 10
665.4999973000033
 20
535.0574313525148
 30
0.0
 11
678.7499972999999
 21
535.0574313525148
 31
0.0
  0
LINE
  5
31832934
330
318324AF
100
AcDbEntity
  8
JISSEN
100
AcDbLine
 10
678.7499972999999
 20
539.1715490301792
 30
0.0
 11
666.1999973000026
 21
539.1715490301772
 31
0.0
1001
ACAD
1000
ASC_BOUNDS
1002
{
1070
    19
1002
}
  0
LINE
  5
31832935
330
318324AF
100
AcDbEntity
  8
JISSEN
100
AcDbLine
 10
675.7499973000038
 20
533.5574313525171
 30
0.0
 11
666.9999973000033
 21
533.5574313525158
 31
0.0
  0
LINE
  5
31832936
330
318324AF
100
AcDbEntity
  8
JISSEN
100
AcDbLine
 10
665.4999973000029
 20
536.5574313525154
 30
0.0
 11
678.7499972999999
 21
536.5574313525178
 31
0.0
  0
LINE
  5
31832937
330
318324AF
100
AcDbEntity
  8
JISSEN
100
AcDbLine
 10
678.7499972999998
 20
540.9215490301793
 30
0.0
 11
664.2207942833981
 21
540.9215490301792
 31
0.0
1001
ACAD
1000
ASC_BOUNDS
1002
{
1070
    19
1002
}
  0
LINE
  5
31832938
330
318324AF
100
AcDbEntity
  8
JISSEN
100
AcDbLine
 10
665.4999973000029
 20
536.557431352515
 30
0.0
 11
665.4999973000033
 21
535.0574313525148
 31
0.0
  0
LINE
  5
31832939
330
318324AF
100
AcDbEntity
  8
JISSEN
100
AcDbLine
 10
666.9999973000033
 20
533.5574313525158
 30
0.0
 11
665.4999973000033
 21
535.0574313525148
 31
0.0
  0
ARC
  5
3183293A
330
318324AF
100
AcDbEntity
  8
JISSEN
100
AcDbCircle
 10
669.3259034780338
 20
537.5132722669737
 30
0.0
 40
0.2
100
AcDbArc
 50
149.1134150964243
 51
240.0000000000083
  0
ARC
  5
3183293B
330
318324AF
100
AcDbEntity
  8
JISSEN
100
AcDbCircle
 10
666.1999973000026
 20
539.371549030177
 30
0.0
 40
0.2
100
AcDbArc
 50
180.000000000013
 51
270.0000000000065
1001
ACAD
1000
ASC_BOUNDS
1002
{
1070
    19
1002
}
  0
LINE
  5
3183293C
330
318324AF
100
AcDbEntity
  8
JISSEN
100
AcDbLine
 10
665.9999973000021
 20
540.9215490301793
 30
0.0
 11
665.9999973000025
 21
539.3715490301758
 31
0.0
1001
ACAD
1000
ASC_BOUNDS
1002
{
1070
    19
1002
}
  0
LINE
  5
3183293D
330
318324AF
100
AcDbEntity
  8
JISSEN
100
AcDbLine
 10
681.7499972999963
 20
533.5574313525171
 30
0.0
 11
678.7499972999962
 21
533.5574313525178
 31
0.0
  0
LINE
  5
3183293E
330
318324AF
100
AcDbEntity
  8
JISSEN
100
AcDbLine
 10
676.2499972999998
 20
536.5574313525173
 30
0.0
 11
676.2499973000001
 21
539.1715490301788
 31
0.0
  0
LINE
  5
3183293F
330
318324AF
100
AcDbEntity
  8
JISSEN
100
AcDbLine
 10
670.3350583443124
 20
536.9306364332741
 30
0.0
 11
670.6274794841874
 21
537.4371247047453
 31
0.0
  0
LINE
  5
31832940
330
318324AF
100
AcDbEntity
  8
JISSEN
100
AcDbLine
 10
670.6274794841872
 20
539.171549030178
 30
0.0
 11
670.6274794841878
 21
536.5574313525163
 31
0.0
  0
LINE
  5
31832941
330
318324AF
100
AcDbEntity
  8
JISSEN
100
AcDbLine
 10
672.499997300003
 20
536.5574313525167
 30
0.0
 11
672.4999973000024
 21
539.1715490301783
 31
0.0
  0
ARC
  5
31832942
330
318324AF
100
AcDbEntity
  8
JISSEN
100
AcDbCircle
 10
670.1618532635554
 20
537.030636433274
 30
0.0
 40
0.2
100
AcDbArc
 50
240.0000000000083
 51
330.0000000000082
  0
LINE
  5
31832943
330
318324AF
100
AcDbEntity
  8
JISSEN
100
AcDbLine
 10
675.7499973000035
 20
533.5574313525171
 30
0.0
 11
678.7499973000035
 21
533.5574313525178
 31
0.0
  0
LINE
  5
31832944
330
318324AF
100
AcDbEntity
  8
JISSEN
100
AcDbLine
 10
672.4999973000027
 20
537.7037710257789
 30
0.0
 11
676.2499972999998
 21
537.9759672218226
 31
0.0
  0
ARC
  5
31832945
330
318324AF
100
AcDbEntity
  8
JISSEN
100
AcDbCircle
 10
670.6626435947491
 20
538.1895691744557
 30
0.0
 40
1.0
100
AcDbArc
 50
100.8935918178694
 51
149.1134150964153
  0
LINE
  5
31832946
330
318324AF
100
AcDbEntity
  8
JISSEN
100
AcDbLine
 10
681.2499972999997
 20
536.5574313525173
 30
0.0
 11
681.2499972999997
 21
539.1715490301788
 31
0.0
  0
LINE
  5
31832947
330
318324AF
100
AcDbEntity
  8
JISSEN
100
AcDbLine
 10
687.1649362556876
 20
536.9306364332741
 30
0.0
 11
686.8725151158123
 21
537.4371247047453
 31
0.0
  0
LINE
  5
31832948
330
318324AF
100
AcDbEntity
  8
JISSEN
100
AcDbLine
 10
684.9999972999968
 20
536.5574313525167
 30
0.0
 11
684.9999972999975
 21
539.1715490301783
 31
0.0
  0
LINE
  5
31832949
330
318324AF
100
AcDbEntity
  8
JISSEN
100
AcDbLine
 10
686.8725151158128
 20
539.171549030178
 30
0.0
 11
686.8725151158122
 21
536.5574313525163
 31
0.0
  0
LINE
  5
3183294A
330
318324AF
100
AcDbEntity
  8
JISSEN
100
AcDbLine
 10
688.2740911219659
 20
537.3400671862166
 30
0.0
 11
687.4381413364446
 21
536.857431352517
 31
0.0
  0
LINE
  5
3183294B
330
318324AF
100
AcDbEntity
  8
JISSEN
100
AcDbLine
 10
681.7499972999963
 20
533.5574313525171
 30
0.0
 11
690.4999972999968
 21
533.5574313525158
 31
0.0
  0
ARC
  5
3183294C
330
318324AF
100
AcDbEntity
  8
JISSEN
100
AcDbCircle
 10
687.3381413364445
 20
537.030636433274
 30
0.0
 40
0.2
100
AcDbArc
 50
209.9999999999916
 51
299.9999999999916
  0
LINE
  5
3183294D
330
318324AF
100
AcDbEntity
  8
JISSEN
100
AcDbLine
 10
684.999997299997
 20
537.7037710257789
 30
0.0
 11
681.2499972999997
 21
537.9759672218226
 31
0.0
  0
ARC
  5
3183294E
330
318324AF
100
AcDbEntity
  8
JISSEN
100
AcDbCircle
 10
688.1740911219659
 20
537.5132722669737
 30
0.0
 40
0.2
100
AcDbArc
 50
299.9999999999916
 51
30.88658490357568
  0
ARC
  5
3183294F
330
318324AF
100
AcDbEntity
  8
JISSEN
100
AcDbCircle
 10
686.8373510052507
 20
538.1895691744557
 30
0.0
 40
1.0
100
AcDbArc
 50
30.88658490358461
 51
79.10640818213057
  0
LINE
  5
31832950
330
318324AF
100
AcDbEntity
  8
JISSEN
100
AcDbLine
 10
687.6955361267682
 20
538.7029095071783
 30
0.0
 11
688.3457281462701
 21
537.6159403335186
 31
0.0
  0
ARC
  5
31832951
330
318324AF
100
AcDbEntity
  8
TENSEN
 48
1.5
100
AcDbCircle
 10
669.6296402999998
 20
552.0074313525186
 30
0.0
 40
0.25
100
AcDbArc
 50
90.0
 51
181.9943680000009
  0
LINE
  5
31832952
330
318324AF
100
AcDbEntity
  8
TENSEN
 48
1.5
100
AcDbLine
 10
671.5688312999998
 20
552.2574313525186
 30
0.0
 11
669.2538402999997
 21
552.2574313525186
 31
0.0
  0
ARC
  5
31832953
330
318324AF
100
AcDbEntity
  8
TENSEN
 48
1.5
100
AcDbCircle
 10
670.1801863
 20
545.9144273525187
 30
0.0
 40
1.0
100
AcDbArc
 50
182.1404320000006
 51
216.8971619999968
  0
LINE
  5
31832954
330
318324AF
100
AcDbEntity
  8
TENSEN
 48
1.5
100
AcDbLine
 10
652.3999972999997
 20
562.2574313525186
 30
0.0
 11
678.7499972999998
 21
562.2574313525186
 31
0.0
  0
LINE
  5
31832955
330
318324AF
100
AcDbEntity
  8
TENSEN
 48
1.5
100
AcDbLine
 10
653.2499972999998
 20
553.7574313525186
 30
0.0
 11
678.7499972999998
 21
553.7574313525186
 31
0.0
  0
LINE
  5
31832956
330
318324AF
100
AcDbEntity
  8
TENSEN
 48
1.5
100
AcDbLine
 10
652.2499972999997
 20
554.7574313525187
 30
0.0
 11
677.7499972999997
 21
554.7574313525187
 31
0.0
  0
LINE
  5
31832957
330
318324AF
100
AcDbEntity
  8
TENSEN
 48
1.5
100
AcDbLine
 10
677.7499972999997
 20
561.7574313525186
 30
0.0
 11
652.2499972999997
 21
561.7574313525186
 31
0.0
  0
LINE
  5
31832958
330
318324AF
100
AcDbEntity
  8
TENSEN
 48
1.5
100
AcDbLine
 10
678.7499972999998
 20
564.4981983525187
 30
0.0
 11
668.1287642999998
 21
564.4981983525187
 31
0.0
  0
LINE
  5
31832959
330
318324AF
100
AcDbEntity
  8
TENSEN
 48
1.5
100
AcDbLine
 10
654.1499972999997
 20
553.7574313525186
 30
0.0
 11
654.2812302999998
 21
552.2574313525186
 31
0.0
  0
LINE
  5
3183295A
330
318324AF
100
AcDbEntity
  8
TENSEN
 48
1.5
100
AcDbLine
 10
657.9915212999998
 20
545.2367603525186
 30
0.0
 11
659.3796202999998
 21
544.5065473525187
 31
0.0
  0
ARC
  5
3183295B
330
318324AF
100
AcDbEntity
  8
TENSEN
 48
1.5
100
AcDbCircle
 10
658.8680782999999
 20
546.0643303525188
 30
0.0
 40
0.5
100
AcDbArc
 50
185.0389269999976
 51
279.3495549999978
  0
LINE
  5
3183295C
330
318324AF
100
AcDbEntity
  8
TENSEN
 48
1.5
100
AcDbLine
 10
658.8441882999998
 20
545.8349813525186
 30
0.0
 11
658.2760803
 21
552.0755633525189
 31
0.0
  0
LINE
  5
3183295D
330
318324AF
100
AcDbEntity
  8
TENSEN
 48
1.5
100
AcDbLine
 10
654.2812302999998
 20
552.2574313525186
 30
0.0
 11
654.8297774929961
 21
545.9875044888883
 31
0.0
  0
LINE
  5
3183295E
330
318324AF
100
AcDbEntity
  8
TENSEN
 48
1.5
100
AcDbLine
 10
654.5116732999997
 20
551.8368673525186
 30
0.0
 11
655.0995032999998
 21
546.3746183525187
 31
0.0
  0
LINE
  5
3183295F
330
318324AF
100
AcDbEntity
  8
TENSEN
 48
1.5
100
AcDbLine
 10
655.6265062999998
 20
546.3183293525187
 30
0.0
 11
654.9945752999998
 21
552.1903673525185
 31
0.0
  0
LINE
  5
31832960
330
318324AF
100
AcDbEntity
  8
TENSEN
 48
1.5
100
AcDbLine
 10
656.7768352999999
 20
551.8197443525187
 30
0.0
 11
657.3025372999998
 21
546.2647983525187
 31
0.0
  0
LINE
  5
31832961
330
318324AF
100
AcDbEntity
  8
TENSEN
 48
1.5
100
AcDbLine
 10
657.8392562999997
 20
552.0398643525187
 30
0.0
 11
658.3700102999999
 21
546.0204143525187
 31
0.0
  0
LINE
  5
31832962
330
318324AF
100
AcDbEntity
  8
TENSEN
 48
1.5
100
AcDbLine
 10
657.8850902999999
 20
544.5781683525185
 30
0.0
 11
656.3732312999998
 21
545.2775593525188
 31
0.0
  0
ARC
  5
31832963
330
318324AF
100
AcDbEntity
  8
TENSEN
 48
1.5
100
AcDbCircle
 10
658.5967542999997
 20
546.3872793525187
 30
0.0
 40
1.3
100
AcDbArc
 50
185.4061849999995
 51
242.2532619999987
  0
ARC
  5
31832964
330
318324AF
100
AcDbEntity
  8
TENSEN
 48
1.5
100
AcDbCircle
 10
657.7904232999998
 20
545.4827893525187
 30
0.0
 40
1.0
100
AcDbArc
 50
245.174594999999
 51
270.0
  0
LINE
  5
31832965
330
318324AF
100
AcDbEntity
  8
TENSEN
 48
1.5
100
AcDbLine
 10
657.7904232999998
 20
544.4827893525188
 30
0.0
 11
657.8640982999997
 21
544.4827893525188
 31
0.0
  0
ARC
  5
31832966
330
318324AF
100
AcDbEntity
  8
TENSEN
 48
1.5
100
AcDbCircle
 10
657.8640982999997
 20
544.5327893525186
 30
0.0
 40
0.05
100
AcDbArc
 50
270.0
 51
65.17459499999917
  0
ARC
  5
31832967
330
318324AF
100
AcDbEntity
  8
TENSEN
 48
1.5
100
AcDbCircle
 10
656.4914662999997
 20
546.5244173525186
 30
0.0
 40
1.399999999999999
100
AcDbArc
 50
186.1423570000026
 51
245.174594999999
  0
ARC
  5
31832968
330
318324AF
100
AcDbEntity
  8
TENSEN
 48
1.5
100
AcDbCircle
 10
656.2958766295371
 20
546.3046059266551
 30
0.0
 40
1.5
100
AcDbArc
 50
192.2044646308252
 51
249.9999999999963
  0
LINE
  5
31832969
330
318324AF
100
AcDbEntity
  8
TENSEN
 48
1.5
100
AcDbLine
 10
655.9036702999998
 20
545.2537893525186
 30
0.0
 11
657.3705683
 21
544.5751973525188
 31
0.0
  0
ARC
  5
3183296A
330
318324AF
100
AcDbEntity
  8
TENSEN
 48
1.5
100
AcDbCircle
 10
656.9190422999999
 20
546.4574283525187
 30
0.0
 40
1.3
100
AcDbArc
 50
186.1423570000026
 51
245.174594999999
  0
ARC
  5
3183296B
330
318324AF
100
AcDbEntity
  8
TENSEN
 48
1.5
100
AcDbCircle
 10
658.0769032999998
 20
552.0574313525187
 30
0.0
 40
0.2
100
AcDbArc
 50
5.20155900000078
 51
90.0
  0
LINE
  5
3183296C
330
318324AF
100
AcDbEntity
  8
TENSEN
 48
1.5
100
AcDbLine
 10
658.0769032999998
 20
552.2574313525186
 30
0.0
 11
657.1750562999998
 21
552.2574313525186
 31
0.0
  0
ARC
  5
3183296D
330
318324AF
100
AcDbEntity
  8
TENSEN
 48
1.5
100
AcDbCircle
 10
657.1750562999998
 20
551.8574313525188
 30
0.0
 40
0.4
100
AcDbArc
 50
90.0
 51
185.4061849999995
  0
ARC
  5
3183296E
330
318324AF
100
AcDbEntity
  8
TENSEN
 48
1.5
100
AcDbCircle
 10
658.0384832999998
 20
552.0574313525187
 30
0.0
 40
0.2
100
AcDbArc
 50
90.0
 51
185.0389269999976
  0
ARC
  5
3183296F
330
318324AF
100
AcDbEntity
  8
TENSEN
 48
1.5
100
AcDbCircle
 10
654.8951492999997
 20
552.1796673525186
 30
0.0
 40
0.1
100
AcDbArc
 50
6.142357000002697
 51
87.28209800000014
  0
ARC
  5
31832970
330
318324AF
100
AcDbEntity
  8
TENSEN
 48
1.5
100
AcDbCircle
 10
654.9093763
 20
551.8796673525185
 30
0.0
 40
0.4
100
AcDbArc
 50
91.35885500000069
 51
186.1423570000026
  0
LINE
  5
31832971
330
318324AF
100
AcDbEntity
  8
TENSEN
 48
1.5
100
AcDbLine
 10
668.9540502999998
 20
551.9462263525187
 30
0.0
 11
669.1808842999997
 21
545.8770783525189
 31
0.0
  0
LINE
  5
31832972
330
318324AF
100
AcDbEntity
  8
TENSEN
 48
1.5
100
AcDbLine
 10
662.6437572999998
 20
551.9378393525187
 30
0.0
 11
663.0364002999997
 21
545.9382083525187
 31
0.0
  0
LINE
  5
31832973
330
318324AF
100
AcDbEntity
  8
TENSEN
 48
1.5
100
AcDbLine
 10
662.2481202999997
 20
546.1308763525187
 30
0.0
 11
661.8440863
 21
551.8829063525187
 31
0.0
  0
LINE
  5
31832974
330
318324AF
100
AcDbEntity
  8
TENSEN
 48
1.5
100
AcDbLine
 10
664.1289762999997
 20
552.0714453525187
 30
0.0
 11
664.5727832999997
 21
545.7531793525187
 31
0.0
  0
LINE
  5
31832975
330
318324AF
100
AcDbEntity
  8
TENSEN
 48
1.5
100
AcDbLine
 10
663.4355462999998
 20
545.5643303525188
 30
0.0
 11
664.6356982999998
 21
545.5643303525188
 31
0.0
  0
LINE
  5
31832976
330
318324AF
100
AcDbEntity
  8
TENSEN
 48
1.5
100
AcDbLine
 10
665.6723622999997
 20
544.4605523525186
 30
0.0
 11
663.9567292999998
 21
544.4605523525186
 31
0.0
  0
ARC
  5
31832977
330
318324AF
100
AcDbEntity
  8
TENSEN
 48
1.5
100
AcDbCircle
 10
663.9567292999998
 20
544.8105523525188
 30
0.0
 40
0.35
100
AcDbArc
 50
234.6729320000024
 51
270.0
  0
LINE
  5
31832978
330
318324AF
100
AcDbEntity
  8
TENSEN
 48
1.5
100
AcDbLine
 10
659.5658462999997
 20
544.4605523525186
 30
0.0
 11
660.5621653
 21
544.4605523525186
 31
0.0
  0
ARC
  5
31832979
330
318324AF
100
AcDbEntity
  8
TENSEN
 48
1.5
100
AcDbCircle
 10
663.4451702999997
 20
546.2149593525188
 30
0.0
 40
1.199999999999999
100
AcDbArc
 50
184.0179690000025
 51
234.6729320000024
  0
ARC
  5
3183297A
330
318324AF
100
AcDbEntity
  8
TENSEN
 48
1.5
100
AcDbCircle
 10
660.5621653
 20
544.5605523525188
 30
0.0
 40
0.1
100
AcDbArc
 50
270.0
 51
62.25326199999877
  0
LINE
  5
3183297B
330
318324AF
100
AcDbEntity
  8
TENSEN
 48
1.5
100
AcDbLine
 10
663.7543442999997
 20
544.5250003525186
 30
0.0
 11
662.7512782999997
 21
545.2359223525187
 31
0.0
  0
ARC
  5
3183297C
330
318324AF
100
AcDbEntity
  8
TENSEN
 48
1.5
100
AcDbCircle
 10
663.4355462999998
 20
545.9643303525187
 30
0.0
 40
0.4
100
AcDbArc
 50
183.7443619999993
 51
270.0
  0
ARC
  5
3183297D
330
318324AF
100
AcDbEntity
  8
TENSEN
 48
1.5
100
AcDbCircle
 10
659.3421292999997
 20
545.8803113525187
 30
0.0
 40
0.5
100
AcDbArc
 50
185.2015590000007
 51
242.2532619999987
  0
LINE
  5
3183297E
330
318324AF
100
AcDbEntity
  8
TENSEN
 48
1.5
100
AcDbLine
 10
660.6087222999998
 20
544.6490543525186
 30
0.0
 11
659.1093472999999
 21
545.4378043525188
 31
0.0
  0
ARC
  5
3183297F
330
318324AF
100
AcDbEntity
  8
TENSEN
 48
1.5
100
AcDbCircle
 10
659.5658462999997
 20
544.8605523525186
 30
0.0
 40
0.4
100
AcDbArc
 50
242.2532619999987
 51
270.0
  0
ARC
  5
31832980
330
318324AF
100
AcDbEntity
  8
TENSEN
 48
1.5
100
AcDbCircle
 10
665.6723622999997
 20
544.6105523525186
 30
0.0
 40
0.15
100
AcDbArc
 50
270.0
 51
54.6729320000024
  0
ARC
  5
31832981
330
318324AF
100
AcDbEntity
  8
TENSEN
 48
1.5
100
AcDbCircle
 10
664.9718002999998
 20
545.7812073525186
 30
0.0
 40
0.4
100
AcDbArc
 50
184.0179690000025
 51
234.6729320000024
  0
LINE
  5
31832982
330
318324AF
100
AcDbEntity
  8
TENSEN
 48
1.5
100
AcDbLine
 10
664.7405032999999
 20
545.4548613525187
 30
0.0
 11
665.7590982999997
 21
544.7329323525186
 31
0.0
  0
ARC
  5
31832983
330
318324AF
100
AcDbEntity
  8
TENSEN
 48
1.5
100
AcDbCircle
 10
663.9294672999998
 20
552.0574313525187
 30
0.0
 40
0.2
100
AcDbArc
 50
4.017969000002583
 51
90.0
  0
ARC
  5
31832984
330
318324AF
100
AcDbEntity
  8
TENSEN
 48
1.5
100
AcDbCircle
 10
662.9431162999998
 20
551.9574313525187
 30
0.0
 40
0.3
100
AcDbArc
 50
90.0
 51
183.7443619999993
  0
ARC
  5
31832985
330
318324AF
100
AcDbEntity
  8
TENSEN
 48
1.5
100
AcDbCircle
 10
662.1932252999997
 20
551.9074313525186
 30
0.0
 40
0.35
100
AcDbArc
 50
90.0
 51
184.0179690000025
  0
LINE
  5
31832986
330
318324AF
100
AcDbEntity
  8
TENSEN
 48
1.5
100
AcDbLine
 10
662.1932252999997
 20
552.2574313525186
 30
0.0
 11
662.9431162999998
 21
552.2574313525186
 31
0.0
  0
LINE
  5
31832987
330
318324AF
100
AcDbEntity
  8
TENSEN
 48
1.5
100
AcDbLine
 10
662.9431162999998
 20
552.2574313525186
 30
0.0
 11
663.9294672999998
 21
552.2574313525186
 31
0.0
  0
ARC
  5
31832988
330
318324AF
100
AcDbEntity
  8
TENSEN
 48
1.5
100
AcDbCircle
 10
669.2538402999997
 20
551.9574313525187
 30
0.0
 40
0.3
100
AcDbArc
 50
90.0
 51
182.1404320000006
  0
LINE
  5
31832989
330
318324AF
100
AcDbEntity
  8
TENSEN
 48
1.5
100
AcDbLine
 10
652.2499972999997
 20
562.1074313525188
 30
0.0
 11
652.2499972999997
 21
554.7574313525187
 31
0.0
  0
LINE
  5
3183298A
330
318324AF
100
AcDbEntity
  8
TENSEN
 48
1.5
100
AcDbLine
 10
653.2499972999998
 20
553.7574313525186
 30
0.0
 11
654.1499972999997
 21
553.7574313525186
 31
0.0
  0
LINE
  5
3183298B
330
318324AF
100
AcDbEntity
  8
TENSEN
 48
1.5
100
AcDbLine
 10
652.2499972999997
 20
554.7574313525187
 30
0.0
 11
653.2499972999998
 21
553.7574313525186
 31
0.0
  0
LINE
  5
3183298C
330
318324AF
100
AcDbEntity
  8
TENSEN
 48
1.5
100
AcDbLine
 10
652.2499972999997
 20
562.1074313525188
 30
0.0
 11
652.3999972999997
 21
562.2574313525186
 31
0.0
  0
LINE
  5
3183298D
330
318324AF
100
AcDbEntity
  8
TENSEN
 48
1.5
100
AcDbLine
 10
667.0499972999997
 20
562.2574313525186
 30
0.0
 11
667.8499972999998
 21
563.0574313525186
 31
0.0
  0
LINE
  5
3183298E
330
318324AF
100
AcDbEntity
  8
TENSEN
 48
1.5
100
AcDbLine
 10
667.8499972999998
 20
563.0574313525185
 30
0.0
 11
669.2907642999998
 21
564.4981983525187
 31
0.0
  0
ARC
  5
3183298F
330
318324AF
100
AcDbEntity
  8
TENSEN
 48
1.5
100
AcDbCircle
 10
678.7499972999998
 20
554.7574313525187
 30
0.0
 40
1.0
100
AcDbArc
 50
180.0
 51
270.0
  0
ARC
  5
31832990
330
318324AF
100
AcDbEntity
  8
TENSEN
 48
1.5
100
AcDbCircle
 10
678.7499972999998
 20
554.7574313525187
 30
0.0
 40
1.0
100
AcDbArc
 50
270.0
 51
0.0
  0
ARC
  5
31832991
330
318324AF
100
AcDbEntity
  8
TENSEN
 48
1.5
100
AcDbCircle
 10
679.7499972999998
 20
551.7574313525186
 30
0.0
 40
0.5
100
AcDbArc
 50
0.0
 51
90.0
  0
ARC
  5
31832992
330
318324AF
100
AcDbEntity
  8
TENSEN
 48
1.5
100
AcDbCircle
 10
679.7499972999998
 20
546.0643303525188
 30
0.0
 40
0.5
100
AcDbArc
 50
270.0
 51
0.0
  0
ARC
  5
31832993
330
318324AF
100
AcDbEntity
  8
TENSEN
 48
1.5
100
AcDbCircle
 10
679.7499972999998
 20
544.9605523525185
 30
0.0
 40
0.5
100
AcDbArc
 50
270.0
 51
0.0
  0
LINE
  5
31832994
330
318324AF
100
AcDbEntity
  8
TENSEN
 48
1.5
100
AcDbLine
 10
677.2499972999997
 20
551.7574313525186
 30
0.0
 11
677.2499972999997
 21
544.9605523525185
 31
0.0
  0
LINE
  5
31832995
330
318324AF
100
AcDbEntity
  8
TENSEN
 48
1.5
100
AcDbLine
 10
669.3797922999997
 20
551.9987303525185
 30
0.0
 11
669.5937702999997
 21
545.8538903525187
 31
0.0
  0
LINE
  5
31832996
330
318324AF
100
AcDbEntity
  8
TENSEN
 48
1.5
100
AcDbLine
 10
672.0081442999997
 20
545.6581553525187
 30
0.0
 11
671.7686922999997
 21
552.0649013525187
 31
0.0
  0
LINE
  5
31832997
330
318324AF
100
AcDbEntity
  8
TENSEN
 48
1.5
100
AcDbLine
 10
670.1711382999998
 20
544.4605523525186
 30
0.0
 11
672.4400672999998
 21
544.4605523525186
 31
0.0
  0
ARC
  5
31832998
330
318324AF
100
AcDbEntity
  8
TENSEN
 48
1.5
100
AcDbCircle
 10
672.3079352999998
 20
545.6693593525186
 30
0.0
 40
0.3
100
AcDbArc
 50
182.1404320000006
 51
216.8971619999968
  0
ARC
  5
31832999
330
318324AF
100
AcDbEntity
  8
TENSEN
 48
1.5
100
AcDbCircle
 10
672.4400672999998
 20
544.6605523525187
 30
0.0
 40
0.2
100
AcDbArc
 50
270.0
 51
36.89716199999679
  0
LINE
  5
3183299A
330
318324AF
100
AcDbEntity
  8
TENSEN
 48
1.5
100
AcDbLine
 10
672.6000102999997
 20
544.7806293525188
 30
0.0
 11
672.0680202999998
 21
545.4892453525186
 31
0.0
  0
ARC
  5
3183299B
330
318324AF
100
AcDbEntity
  8
TENSEN
 48
1.5
100
AcDbCircle
 10
669.8935882999998
 20
545.8643303525186
 30
0.0
 40
0.3
100
AcDbArc
 50
181.9943680000009
 51
270.0
  0
LINE
  5
3183299C
330
318324AF
100
AcDbEntity
  8
TENSEN
 48
1.5
100
AcDbLine
 10
669.3804722999998
 20
545.3140463525187
 30
0.0
 11
669.9312232999998
 21
544.5804383525187
 31
0.0
  0
LINE
  5
3183299D
330
318324AF
100
AcDbEntity
  8
TENSEN
 48
1.5
100
AcDbLine
 10
669.8935882999998
 20
545.5643303525188
 30
0.0
 11
672.0269212999998
 21
545.5643303525188
 31
0.0
  0
ARC
  5
3183299E
330
318324AF
100
AcDbEntity
  8
TENSEN
 48
1.5
100
AcDbCircle
 10
670.1711382999998
 20
544.7605523525187
 30
0.0
 40
0.3
100
AcDbArc
 50
216.8971619999968
 51
270.0
  0
LINE
  5
3183299F
330
318324AF
100
AcDbEntity
  8
TENSEN
 48
1.5
100
AcDbLine
 10
677.7499972999997
 20
545.5643303525188
 30
0.0
 11
678.7499972999998
 21
545.5643303525188
 31
0.0
  0
LINE
  5
318329A0
330
318324AF
100
AcDbEntity
  8
TENSEN
 48
1.5
100
AcDbLine
 10
678.7499972999998
 20
544.4605523525186
 30
0.0
 11
677.7499972999997
 21
544.4605523525186
 31
0.0
  0
ARC
  5
318329A1
330
318324AF
100
AcDbEntity
  8
TENSEN
 48
1.5
100
AcDbCircle
 10
677.7499972999997
 20
544.9605523525185
 30
0.0
 40
0.5
100
AcDbArc
 50
180.0
 51
270.0
  0
ARC
  5
318329A2
330
318324AF
100
AcDbEntity
  8
TENSEN
 48
1.5
100
AcDbCircle
 10
677.7499972999997
 20
546.0643303525188
 30
0.0
 40
0.5
100
AcDbArc
 50
180.0
 51
270.0
  0
LINE
  5
318329A3
330
318324AF
100
AcDbEntity
  8
TENSEN
 48
1.5
100
AcDbLine
 10
678.7499972999998
 20
544.4605523525186
 30
0.0
 11
679.7499972999998
 21
544.4605523525186
 31
0.0
  0
LINE
  5
318329A4
330
318324AF
100
AcDbEntity
  8
TENSEN
 48
1.5
100
AcDbLine
 10
679.7499972999998
 20
545.5643303525188
 30
0.0
 11
678.7499972999998
 21
545.5643303525188
 31
0.0
  0
ARC
  5
318329A5
330
318324AF
100
AcDbEntity
  8
TENSEN
 48
1.5
100
AcDbCircle
 10
671.5688312999998
 20
552.0574313525187
 30
0.0
 40
0.2
100
AcDbArc
 50
2.140432000000609
 51
90.0
  0
LINE
  5
318329A6
330
318324AF
100
AcDbEntity
  8
TENSEN
 48
1.5
100
AcDbLine
 10
678.7499972999998
 20
552.2574313525186
 30
0.0
 11
677.7499972999997
 21
552.2574313525186
 31
0.0
  0
ARC
  5
318329A7
330
318324AF
100
AcDbEntity
  8
TENSEN
 48
1.5
100
AcDbCircle
 10
677.7499972999997
 20
551.7574313525186
 30
0.0
 40
0.5
100
AcDbArc
 50
90.0
 51
180.0
  0
LINE
  5
318329A8
330
318324AF
100
AcDbEntity
  8
TENSEN
 48
1.5
100
AcDbLine
 10
678.7499972999998
 20
552.2574313525186
 30
0.0
 11
679.7499972999998
 21
552.2574313525186
 31
0.0
  0
LINE
  5
318329A9
330
318324AF
100
AcDbEntity
  8
TENSEN
 48
1.5
100
AcDbLine
 10
688.5459442999997
 20
551.9462263525187
 30
0.0
 11
688.3191102999997
 21
545.8770783525189
 31
0.0
  0
LINE
  5
318329AA
330
318324AF
100
AcDbEntity
  8
TENSEN
 48
1.5
100
AcDbLine
 10
688.1202022999997
 20
551.9987303525185
 30
0.0
 11
687.9062242999999
 21
545.8538903525187
 31
0.0
  0
LINE
  5
318329AB
330
318324AF
100
AcDbEntity
  8
TENSEN
 48
1.5
100
AcDbLine
 10
685.4918502999999
 20
545.6581553525187
 30
0.0
 11
685.7313022999997
 21
552.0649013525187
 31
0.0
  0
LINE
  5
318329AC
330
318324AF
100
AcDbEntity
  8
TENSEN
 48
1.5
100
AcDbLine
 10
680.2499972999997
 20
551.7574313525186
 30
0.0
 11
680.2499972999997
 21
544.9605523525185
 31
0.0
  0
LINE
  5
318329AD
330
318324AF
100
AcDbEntity
  8
TENSEN
 48
1.5
100
AcDbLine
 10
684.8999842999997
 20
544.7806293525188
 30
0.0
 11
685.4319742999997
 21
545.4892453525186
 31
0.0
  0
LINE
  5
318329AE
330
318324AF
100
AcDbEntity
  8
TENSEN
 48
1.5
100
AcDbLine
 10
687.3288562999999
 20
544.4605523525186
 30
0.0
 11
685.0599272999998
 21
544.4605523525186
 31
0.0
  0
ARC
  5
318329AF
330
318324AF
100
AcDbEntity
  8
TENSEN
 48
1.5
100
AcDbCircle
 10
685.0599272999998
 20
544.6605523525187
 30
0.0
 40
0.2
100
AcDbArc
 50
143.102838000003
 51
270.0
  0
ARC
  5
318329B0
330
318324AF
100
AcDbEntity
  8
TENSEN
 48
1.5
100
AcDbCircle
 10
687.3198082999997
 20
545.9144273525187
 30
0.0
 40
1.0
100
AcDbArc
 50
323.1028380000032
 51
357.8595679999994
  0
ARC
  5
318329B1
330
318324AF
100
AcDbEntity
  8
TENSEN
 48
1.5
100
AcDbCircle
 10
687.3288562999999
 20
544.7605523525187
 30
0.0
 40
0.3
100
AcDbArc
 50
270.0
 51
323.1028380000032
  0
ARC
  5
318329B2
330
318324AF
100
AcDbEntity
  8
TENSEN
 48
1.5
100
AcDbCircle
 10
685.1920592999999
 20
545.6693593525186
 30
0.0
 40
0.3
100
AcDbArc
 50
323.1028380000032
 51
357.8595679999994
  0
LINE
  5
318329B3
330
318324AF
100
AcDbEntity
  8
TENSEN
 48
1.5
100
AcDbLine
 10
687.6064062999999
 20
545.5643303525188
 30
0.0
 11
685.4730732999999
 21
545.5643303525188
 31
0.0
  0
LINE
  5
318329B4
330
318324AF
100
AcDbEntity
  8
TENSEN
 48
1.5
100
AcDbLine
 10
688.1195222999997
 20
545.3140463525187
 30
0.0
 11
687.5687712999996
 21
544.5804383525187
 31
0.0
  0
ARC
  5
318329B5
330
318324AF
100
AcDbEntity
  8
TENSEN
 48
1.5
100
AcDbCircle
 10
687.6064062999999
 20
545.8643303525186
 30
0.0
 40
0.3
100
AcDbArc
 50
270.0
 51
358.005631999999
  0
ARC
  5
318329B6
330
318324AF
100
AcDbEntity
  8
TENSEN
 48
1.5
100
AcDbCircle
 10
688.2461542999997
 20
551.9574313525187
 30
0.0
 40
0.3
100
AcDbArc
 50
357.8595679999994
 51
90.0
  0
ARC
  5
318329B7
330
318324AF
100
AcDbEntity
  8
TENSEN
 48
1.5
100
AcDbCircle
 10
687.8703542999998
 20
552.0074313525186
 30
0.0
 40
0.25
100
AcDbArc
 50
358.005631999999
 51
90.0
  0
ARC
  5
318329B8
330
318324AF
100
AcDbEntity
  8
TENSEN
 48
1.5
100
AcDbCircle
 10
685.9311632999999
 20
552.0574313525187
 30
0.0
 40
0.2
100
AcDbArc
 50
90.0
 51
177.8595679999994
  0
LINE
  5
318329B9
330
318324AF
100
AcDbEntity
  8
TENSEN
 48
1.5
100
AcDbLine
 10
685.9311632999999
 20
552.2574313525186
 30
0.0
 11
688.2461542999997
 21
552.2574313525186
 31
0.0
  0
LINE
  5
318329BA
330
318324AF
100
AcDbEntity
  8
TENSEN
 48
1.5
100
AcDbLine
 10
678.7499972999998
 20
564.4981983525187
 30
0.0
 11
689.3712302999999
 21
564.4981983525187
 31
0.0
  0
LINE
  5
318329BB
330
318324AF
100
AcDbEntity
  8
TENSEN
 48
1.5
100
AcDbLine
 10
677.7499972999997
 20
561.7574313525186
 30
0.0
 11
677.7499972999997
 21
554.7574313525187
 31
0.0
  0
LINE
  5
318329BC
330
318324AF
100
AcDbEntity
  8
TENSEN
 48
1.5
100
AcDbLine
 10
679.7499972999998
 20
561.7574313525186
 30
0.0
 11
679.7499972999998
 21
554.7574313525187
 31
0.0
  0
ARC
  5
318329BD
330
318324AF
100
AcDbEntity
  8
TENSEN
 48
1.5
100
AcDbCircle
 10
678.7499972999998
 20
561.0074313525187
 30
0.0
 40
1.25
100
AcDbArc
 50
90.0
 51
143.1301019999993
  0
ARC
  5
318329BE
330
318324AF
100
AcDbEntity
  8
TENSEN
 48
1.5
100
AcDbCircle
 10
678.7499972999998
 20
561.0074313525187
 30
0.0
 40
1.25
100
AcDbArc
 50
36.86989800000061
 51
90.0
  0
LINE
  5
318329BF
330
318324AF
100
AcDbEntity
  8
TENSEN
 48
1.5
100
AcDbLine
 10
689.6499972999999
 20
563.0574313525185
 30
0.0
 11
688.2092302999997
 21
564.4981983525187
 31
0.0
  0
LINE
  5
318329C0
330
318324AF
100
AcDbEntity
  8
TENSEN
 48
1.5
100
AcDbLine
 10
690.4499972999997
 20
562.2574313525186
 30
0.0
 11
689.6499972999999
 21
563.0574313525186
 31
0.0
  0
LINE
  5
318329C1
330
318324AF
100
AcDbEntity
  8
JISSEN
100
AcDbLine
 10
668.4880732999999
 20
578.9955063525224
 30
0.0
 11
669.7499972999998
 21
580.2574313525223
 31
0.0
  0
LINE
  5
318329C2
330
318324AF
100
AcDbEntity
  8
JISSEN
100
AcDbLine
 10
668.4880732999999
 20
578.9955063525224
 30
0.0
 11
678.7499972999998
 21
578.9955063525224
 31
0.0
  0
LINE
  5
318329C3
330
318324AF
100
AcDbEntity
  8
JISSEN
100
AcDbLine
 10
687.7499972999998
 20
580.2574313525223
 30
0.0
 11
678.7499972999998
 21
580.2574313525223
 31
0.0
  0
LINE
  5
318329C4
330
318324AF
100
AcDbEntity
  8
JISSEN
100
AcDbLine
 10
689.0119212999997
 20
578.9955063525224
 30
0.0
 11
678.7499972999998
 21
578.9955063525224
 31
0.0
  0
LINE
  5
318329C5
330
318324AF
100
AcDbEntity
  8
JISSEN
100
AcDbLine
 10
669.7499972999998
 20
580.2574313525223
 30
0.0
 11
678.7499972999998
 21
580.2574313525223
 31
0.0
  0
LINE
  5
318329C6
330
318324AF
100
AcDbEntity
  8
JISSEN
100
AcDbLine
 10
689.0119212999997
 20
578.9955063525224
 30
0.0
 11
687.7499972999998
 21
580.2574313525223
 31
0.0
  0
LINE
  5
318329C8
330
318324AF
100
AcDbEntity
  8
JISSEN
100
AcDbLine
 10
693.2792003166015
 20
540.9215490301792
 30
0.0
 11
697.8218659419852
 21
543.0574313525186
 31
0.0
1001
ACAD
1000
ASC_BOUNDS
1002
{
1070
    19
1002
}
  0
LINE
  5
318329C9
330
318324AF
100
AcDbEntity
  8
JISSEN
100
AcDbLine
 10
691.9999972999969
 20
536.557431352515
 30
0.0
 11
691.9999972999966
 21
535.0574313525148
 31
0.0
  0
LINE
  5
318329CA
330
318324AF
100
AcDbEntity
  8
JISSEN
100
AcDbLine
 10
691.4999972999977
 20
540.9215490301793
 30
0.0
 11
691.4999972999972
 21
539.3715490301758
 31
0.0
1001
ACAD
1000
ASC_BOUNDS
1002
{
1070
    19
1002
}
  0
ARC
  5
318329CB
330
318324AF
100
AcDbEntity
  8
JISSEN
100
AcDbCircle
 10
691.2999972999974
 20
539.371549030177
 30
0.0
 40
0.2
100
AcDbArc
 50
269.9999999999934
 51
359.9999999999868
1001
ACAD
1000
ASC_BOUNDS
1002
{
1070
    19
1002
}
  0
LINE
  5
318329CC
330
318324AF
100
AcDbEntity
  8
TENSEN
 48
1.5
100
AcDbLine
 10
703.3499972999996
 20
553.7574313525186
 30
0.0
 11
703.2187642999997
 21
552.2574313525186
 31
0.0
  0
LINE
  5
318329CD
330
318324AF
100
AcDbEntity
  8
TENSEN
 48
1.5
100
AcDbLine
 10
701.5963242999996
 20
545.2537893525186
 30
0.0
 11
700.1294262999997
 21
544.5751973525188
 31
0.0
  0
ARC
  5
318329CE
330
318324AF
100
AcDbEntity
  8
TENSEN
 48
1.5
100
AcDbCircle
 10
700.5809522999998
 20
546.4574283525187
 30
0.0
 40
1.3
100
AcDbArc
 50
294.8254050000008
 51
353.8576429999971
  0
LINE
  5
318329CF
330
318324AF
100
AcDbEntity
  8
TENSEN
 48
1.5
100
AcDbLine
 10
698.6558062999996
 20
545.8349813525186
 30
0.0
 11
699.2239142999997
 21
552.0755633525189
 31
0.0
  0
LINE
  5
318329D0
330
318324AF
100
AcDbEntity
  8
TENSEN
 48
1.5
100
AcDbLine
 10
695.2518742999997
 20
546.1308763525187
 30
0.0
 11
695.6559082999997
 21
551.8829063525187
 31
0.0
  0
LINE
  5
318329D1
330
318324AF
100
AcDbEntity
  8
TENSEN
 48
1.5
100
AcDbLine
 10
699.6607382999997
 20
552.0398643525187
 30
0.0
 11
699.1299842999997
 21
546.0204143525187
 31
0.0
  0
LINE
  5
318329D2
330
318324AF
100
AcDbEntity
  8
TENSEN
 48
1.5
100
AcDbLine
 10
700.7231592999998
 20
551.8197443525187
 30
0.0
 11
700.1974572999999
 21
546.2647983525187
 31
0.0
  0
LINE
  5
318329D3
330
318324AF
100
AcDbEntity
  8
TENSEN
 48
1.5
100
AcDbLine
 10
693.3710182999996
 20
552.0714453525187
 30
0.0
 11
692.9272112999997
 21
545.7531793525187
 31
0.0
  0
LINE
  5
318329D4
330
318324AF
100
AcDbEntity
  8
TENSEN
 48
1.5
100
AcDbLine
 10
694.8562372999997
 20
551.9378393525187
 30
0.0
 11
694.4635942999997
 21
545.9382083525187
 31
0.0
  0
LINE
  5
318329D5
330
318324AF
100
AcDbEntity
  8
TENSEN
 48
1.5
100
AcDbLine
 10
691.8276322999997
 20
544.4605523525186
 30
0.0
 11
693.5432652999998
 21
544.4605523525186
 31
0.0
  0
LINE
  5
318329D6
330
318324AF
100
AcDbEntity
  8
TENSEN
 48
1.5
100
AcDbLine
 10
692.7594912999997
 20
545.4548613525187
 30
0.0
 11
691.7408962999997
 21
544.7329323525186
 31
0.0
  0
ARC
  5
318329D7
330
318324AF
100
AcDbEntity
  8
TENSEN
 48
1.5
100
AcDbCircle
 10
691.8276322999997
 20
544.6105523525186
 30
0.0
 40
0.15
100
AcDbArc
 50
125.3270679999975
 51
270.0
  0
ARC
  5
318329D8
330
318324AF
100
AcDbEntity
  8
TENSEN
 48
1.5
100
AcDbCircle
 10
694.0644482999996
 20
545.9643303525187
 30
0.0
 40
0.4
100
AcDbArc
 50
270.0
 51
356.2556380000005
  0
ARC
  5
318329D9
330
318324AF
100
AcDbEntity
  8
TENSEN
 48
1.5
100
AcDbCircle
 10
693.5432652999998
 20
544.8105523525188
 30
0.0
 40
0.35
100
AcDbArc
 50
270.0
 51
305.3270679999976
  0
ARC
  5
318329DA
330
318324AF
100
AcDbEntity
  8
TENSEN
 48
1.5
100
AcDbCircle
 10
692.5281942999996
 20
545.7812073525186
 30
0.0
 40
0.4
100
AcDbArc
 50
305.3270679999976
 51
355.9820309999973
  0
LINE
  5
318329DB
330
318324AF
100
AcDbEntity
  8
TENSEN
 48
1.5
100
AcDbLine
 10
693.7456502999999
 20
544.5250003525186
 30
0.0
 11
694.7487162999997
 21
545.2359223525187
 31
0.0
  0
LINE
  5
318329DC
330
318324AF
100
AcDbEntity
  8
TENSEN
 48
1.5
100
AcDbLine
 10
694.0644482999996
 20
545.5643303525188
 30
0.0
 11
692.8642962999997
 21
545.5643303525188
 31
0.0
  0
ARC
  5
318329DD
330
318324AF
100
AcDbEntity
  8
TENSEN
 48
1.5
100
AcDbCircle
 10
694.0548242999997
 20
546.2149593525188
 30
0.0
 40
1.199999999999999
100
AcDbArc
 50
305.3270679999976
 51
355.9820309999973
  0
ARC
  5
318329DE
330
318324AF
100
AcDbEntity
  8
TENSEN
 48
1.5
100
AcDbCircle
 10
698.6319162999997
 20
546.0643303525188
 30
0.0
 40
0.5
100
AcDbArc
 50
260.6504450000021
 51
354.9610730000022
  0
ARC
  5
318329DF
330
318324AF
100
AcDbEntity
  8
TENSEN
 48
1.5
100
AcDbCircle
 10
698.1578652999997
 20
545.8803113525187
 30
0.0
 40
0.5
100
AcDbArc
 50
297.7467380000011
 51
354.7984409999991
  0
ARC
  5
318329E0
330
318324AF
100
AcDbEntity
  8
TENSEN
 48
1.5
100
AcDbCircle
 10
699.6358962999996
 20
544.5327893525186
 30
0.0
 40
0.05
100
AcDbArc
 50
114.8254050000008
 51
270.0
  0
LINE
  5
318329E1
330
318324AF
100
AcDbEntity
  8
TENSEN
 48
1.5
100
AcDbLine
 10
699.7095712999999
 20
544.4827893525188
 30
0.0
 11
699.6358962999996
 21
544.4827893525188
 31
0.0
  0
ARC
  5
318329E2
330
318324AF
100
AcDbEntity
  8
TENSEN
 48
1.5
100
AcDbCircle
 10
699.7095712999999
 20
545.4827893525187
 30
0.0
 40
1.0
100
AcDbArc
 50
270.0
 51
294.8254050000008
  0
ARC
  5
318329E3
330
318324AF
100
AcDbEntity
  8
TENSEN
 48
1.5
100
AcDbCircle
 10
698.9032402999996
 20
546.3872793525187
 30
0.0
 40
1.3
100
AcDbArc
 50
297.7467380000011
 51
354.5938150000003
  0
LINE
  5
318329E4
330
318324AF
100
AcDbEntity
  8
TENSEN
 48
1.5
100
AcDbLine
 10
699.6149042999997
 20
544.5781683525185
 30
0.0
 11
701.1267632999999
 21
545.2775593525188
 31
0.0
  0
LINE
  5
318329E5
330
318324AF
100
AcDbEntity
  8
TENSEN
 48
1.5
100
AcDbLine
 10
697.9341482999997
 20
544.4605523525186
 30
0.0
 11
696.9378292999997
 21
544.4605523525186
 31
0.0
  0
ARC
  5
318329E6
330
318324AF
100
AcDbEntity
  8
TENSEN
 48
1.5
100
AcDbCircle
 10
697.9341482999997
 20
544.8605523525186
 30
0.0
 40
0.4
100
AcDbArc
 50
270.0
 51
297.7467380000011
  0
ARC
  5
318329E7
330
318324AF
100
AcDbEntity
  8
TENSEN
 48
1.5
100
AcDbCircle
 10
696.9378292999997
 20
544.5605523525188
 30
0.0
 40
0.1
100
AcDbArc
 50
117.7467380000011
 51
270.0
  0
LINE
  5
318329E8
330
318324AF
100
AcDbEntity
  8
TENSEN
 48
1.5
100
AcDbLine
 10
699.5084732999997
 20
545.2367603525186
 30
0.0
 11
698.1203742999999
 21
544.5065473525187
 31
0.0
  0
LINE
  5
318329E9
330
318324AF
100
AcDbEntity
  8
TENSEN
 48
1.5
100
AcDbLine
 10
696.8912722999997
 20
544.6490543525186
 30
0.0
 11
698.3906472999997
 21
545.4378043525188
 31
0.0
  0
ARC
  5
318329EA
330
318324AF
100
AcDbEntity
  8
TENSEN
 48
1.5
100
AcDbCircle
 10
695.3067692999996
 20
551.9074313525186
 30
0.0
 40
0.35
100
AcDbArc
 50
355.9820309999973
 51
90.0
  0
ARC
  5
318329EB
330
318324AF
100
AcDbEntity
  8
TENSEN
 48
1.5
100
AcDbCircle
 10
693.5705272999999
 20
552.0574313525187
 30
0.0
 40
0.2
100
AcDbArc
 50
90.0
 51
175.9820309999974
  0
LINE
  5
318329EC
330
318324AF
100
AcDbEntity
  8
TENSEN
 48
1.5
100
AcDbLine
 10
694.5568782999997
 20
552.2574313525186
 30
0.0
 11
693.5705272999999
 21
552.2574313525186
 31
0.0
  0
LINE
  5
318329ED
330
318324AF
100
AcDbEntity
  8
TENSEN
 48
1.5
100
AcDbLine
 10
695.3067692999996
 20
552.2574313525186
 30
0.0
 11
694.5568782999997
 21
552.2574313525186
 31
0.0
  0
ARC
  5
318329EE
330
318324AF
100
AcDbEntity
  8
TENSEN
 48
1.5
100
AcDbCircle
 10
694.5568782999997
 20
551.9574313525187
 30
0.0
 40
0.3
100
AcDbArc
 50
356.2556380000005
 51
90.0
  0
ARC
  5
318329EF
330
318324AF
100
AcDbEntity
  8
TENSEN
 48
1.5
100
AcDbCircle
 10
699.4615112999999
 20
552.0574313525187
 30
0.0
 40
0.2
100
AcDbArc
 50
354.9610730000022
 51
90.0
  0
ARC
  5
318329F0
330
318324AF
100
AcDbEntity
  8
TENSEN
 48
1.5
100
AcDbCircle
 10
700.3249382999999
 20
551.8574313525188
 30
0.0
 40
0.4
100
AcDbArc
 50
354.5938150000003
 51
90.0
  0
LINE
  5
318329F1
330
318324AF
100
AcDbEntity
  8
TENSEN
 48
1.5
100
AcDbLine
 10
699.4230912999999
 20
552.2574313525186
 30
0.0
 11
700.3249382999999
 21
552.2574313525186
 31
0.0
  0
ARC
  5
318329F2
330
318324AF
100
AcDbEntity
  8
TENSEN
 48
1.5
100
AcDbCircle
 10
699.4230912999999
 20
552.0574313525187
 30
0.0
 40
0.2
100
AcDbArc
 50
90.0
 51
174.7984409999991
  0
LINE
  5
318329F3
330
318324AF
100
AcDbEntity
  8
TENSEN
 48
1.5
100
AcDbLine
 10
702.9883212999997
 20
551.8368673525186
 30
0.0
 11
702.4004912999997
 21
546.3746183525187
 31
0.0
  0
LINE
  5
318329F4
330
318324AF
100
AcDbEntity
  8
TENSEN
 48
1.5
100
AcDbLine
 10
703.2187642999997
 20
552.2574313525186
 30
0.0
 11
702.6702171070037
 21
545.987504488889
 31
0.0
  0
LINE
  5
318329F5
330
318324AF
100
AcDbEntity
  8
TENSEN
 48
1.5
100
AcDbLine
 10
701.8734882999997
 20
546.3183293525187
 30
0.0
 11
702.5054192999999
 21
552.1903673525185
 31
0.0
  0
ARC
  5
318329F6
330
318324AF
100
AcDbEntity
  8
TENSEN
 48
1.5
100
AcDbCircle
 10
701.2041179704628
 20
546.3046059266551
 30
0.0
 40
1.5
100
AcDbArc
 50
290.0000000000037
 51
347.7955353691925
  0
ARC
  5
318329F7
330
318324AF
100
AcDbEntity
  8
TENSEN
 48
1.5
100
AcDbCircle
 10
701.0085282999997
 20
546.5244173525186
 30
0.0
 40
1.399999999999999
100
AcDbArc
 50
294.8254050000008
 51
353.8576429999971
  0
ARC
  5
318329F8
330
318324AF
100
AcDbEntity
  8
TENSEN
 48
1.5
100
AcDbCircle
 10
702.6048452999997
 20
552.1796673525186
 30
0.0
 40
0.1
100
AcDbArc
 50
92.71790199999987
 51
173.8576429999973
  0
ARC
  5
318329F9
330
318324AF
100
AcDbEntity
  8
TENSEN
 48
1.5
100
AcDbCircle
 10
702.5906182999997
 20
551.8796673525185
 30
0.0
 40
0.4
100
AcDbArc
 50
353.8576429999971
 51
88.64114499999931
  0
LINE
  5
318329FA
330
318324AF
100
AcDbEntity
  8
TENSEN
 48
1.5
100
AcDbLine
 10
705.2499972999997
 20
562.1074313525188
 30
0.0
 11
705.2499972999997
 21
554.7574313525187
 31
0.0
  0
LINE
  5
318329FB
330
318324AF
100
AcDbEntity
  8
TENSEN
 48
1.5
100
AcDbLine
 10
704.2499972999998
 20
553.7574313525186
 30
0.0
 11
703.3499972999996
 21
553.7574313525186
 31
0.0
  0
LINE
  5
318329FC
330
318324AF
100
AcDbEntity
  8
TENSEN
 48
1.5
100
AcDbLine
 10
705.2499972999997
 20
554.7574313525187
 30
0.0
 11
704.2499972999998
 21
553.7574313525186
 31
0.0
  0
LINE
  5
318329FD
330
318324AF
100
AcDbEntity
  8
TENSEN
 48
1.5
100
AcDbLine
 10
705.2499972999997
 20
562.1074313525188
 30
0.0
 11
705.0999972999997
 21
562.2574313525186
 31
0.0
  0
LINE
  5
31832ADD
330
318324AF
100
AcDbEntity
  8
TENSEN
 48
1.5
100
AcDbLine
 10
701.7171481854511
 20
544.8950669954763
 30
0.0
 11
697.8218659419852
 21
543.0574313525186
 31
0.0
  0
LINE
  5
31832ADE
330
318324AF
100
AcDbEntity
  8
TENSEN
 48
1.5
100
AcDbLine
 10
655.7828464145485
 20
544.8950669954763
 30
0.0
 11
659.6781286580148
 21
543.0574313525186
 31
0.0
  0
LWPOLYLINE
  5
31832BDA
330
318324AF
100
AcDbEntity
  8
NITEN
100
AcDbPolyline
 90
        2
 70
     0
 43
0.0
 10
695.7499138619839
 20
628.8951490036644
 42
0.5882352941176295
 10
678.7499138619836
 20
628.8951490036647
 42
0.5882352941176295
  0
LWPOLYLINE
  5
31832BDB
330
318324AF
100
AcDbEntity
  8
NITEN
100
AcDbPolyline
 90
        5
 70
     0
 43
0.0
 10
695.7499138619838
 20
608.0574313525186
 10
695.7499138619838
 20
628.8951490036644
 42
-0.5882352941176476
 10
678.7499138619836
 20
628.8951490036644
 42
0.5882352941176477
 10
661.7499138619836
 20
628.8951490036643
 10
661.7499138619836
 20
608.0574313525186
  0
LWPOLYLINE
  5
31832BE1
330
318324AF
100
AcDbEntity
  8
NITEN
100
AcDbPolyline
 90
       15
 70
     1
 43
0.0
 10
664.7499138619837
 20
567.5574313525186
 42
0.4142135623730927
 10
666.2499138619836
 20
566.0574313525186
 10
689.3439650329802
 20
566.0574313525186
 10
691.2499138619838
 20
566.0574313525186
 42
0.4142135623730925
 10
692.7499138619838
 20
567.5574313525186
 10
692.7499138619838
 20
578.6034473787366
 42
-0.4142135623730943
 10
697.7499138619838
 20
583.6034473787366
 42
0.4142135623730951
 10
699.7499138619838
 20
585.6034473787366
 10
699.7499138619835
 20
606.0574313525186
 42
0.4142135623730949
 10
697.7499138619838
 20
608.0574313525186
 10
659.7499138619837
 20
608.0574313525186
 42
0.4142135623730951
 10
657.7499138619836
 20
606.0574313525186
 10
657.7499138619836
 20
585.6034473787366
 42
0.4142135623730951
 10
659.7499138619837
 20
583.6034473787366
 42
-0.4142135623730961
 10
664.7499138619837
 20
578.6034473787366
  0
LINE
  5
31833378
330
318324AF
100
AcDbEntity
  8
JISSEN
100
AcDbLine
 10
652.2499972999997
 20
566.0574313525186
 30
0.0
 11
705.2499972999997
 21
566.0574313525186
 31
0.0
  0
LINE
  5
31833379
330
318324AF
100
AcDbEntity
  8
JISSEN
100
AcDbLine
 10
705.2499972999997
 20
566.0574313525186
 30
0.0
 11
705.2499972999997
 21
563.0574313525186
 31
0.0
  0
LINE
  5
3183337A
330
318324AF
100
AcDbEntity
  8
JISSEN
100
AcDbLine
 10
652.2499972999997
 20
566.0574313525186
 30
0.0
 11
652.2499972999997
 21
563.0574313525186
 31
0.0
  0
LINE
  5
3183337B
330
318324AF
100
AcDbEntity
  8
TENSEN
 48
1.5
100
AcDbLine
 10
689.322501944974
 20
566.0574313525184
 30
0.0
 11
689.4087162999997
 21
563.2987123525188
 31
0.0
  0
LINE
  5
3183337C
330
318324AF
100
AcDbEntity
  8
SAISEN
100
AcDbLine
 10
688.160501912424
 20
566.0574313525186
 30
0.0
 11
687.7167304532664
 21
580.2574313525223
 31
0.0
  0
LINE
  5
3183337D
330
318324AF
100
AcDbEntity
  8
SAISEN
100
AcDbLine
 10
669.3394926875757
 20
566.0574313525186
 30
0.0
 11
669.7832641467331
 21
580.2574313525223
 31
0.0
  0
LINE
  5
3183337E
330
318324AF
100
AcDbEntity
  8
TENSEN
 48
1.5
100
AcDbLine
 10
668.1774926550257
 20
566.0574313525184
 30
0.0
 11
668.0912782999999
 21
563.2987123525188
 31
0.0
  0
LINE
  5
3183337F
330
318324AF
100
AcDbEntity
  8
JISSEN
100
AcDbLine
 10
1105.148668555237
 20
381.1773151706089
 30
0.0
 11
1104.890025490159
 21
372.9011581706095
 31
0.0
  0
LINE
  5
31833380
330
318324AF
100
AcDbEntity
  8
SAISEN
100
AcDbLine
 10
1108.634668652886
 20
381.1773151706093
 30
0.0
 11
1109.965983030358
 21
423.7773151706203
 31
0.0
  0
LINE
  5
31833381
330
318324AF
100
AcDbEntity
  8
SAISEN
100
AcDbLine
 10
1165.097696327432
 20
381.1773151706093
 30
0.0
 11
1163.766381949959
 21
423.7773151706203
 31
0.0
  0
LINE
  5
31833382
330
318324AF
100
AcDbEntity
  8
JISSEN
100
AcDbLine
 10
1168.583696425082
 20
381.1773151706089
 30
0.0
 11
1168.842339490159
 21
372.9011581706095
 31
0.0
  0
LINE
  5
31833383
102
{ACAD_REACTORS
330
31833596
102
}
330
318324AF
100
AcDbEntity
  8
JISSEN
100
AcDbLine
 10
1057.366182490159
 20
381.1773151706093
 30
0.0
 11
1057.366182490159
 21
372.1773151706093
 31
0.0
  0
LINE
  5
31833384
102
{ACAD_REACTORS
330
31833596
102
}
330
318324AF
100
AcDbEntity
  8
JISSEN
100
AcDbLine
 10
1216.366182490159
 20
381.1773151706093
 30
0.0
 11
1216.366182490159
 21
372.1773151706093
 31
0.0
  0
LWPOLYLINE
  5
31833386
330
318324AF
100
AcDbEntity
  8
NITEN
100
AcDbPolyline
 90
       15
 70
     1
 43
0.0
 10
1094.865932176112
 20
392.6089618877919
 42
0.4142135623730927
 10
1099.365932176111
 20
388.1089618877919
 10
1168.648085689101
 20
388.1089618877919
 10
1174.365932176111
 20
388.1089618877919
 42
0.4142135623730925
 10
1178.865932176111
 20
392.6089618877919
 10
1178.865932176111
 20
425.7470099664458
 42
-0.4142135623730943
 10
1193.865932176111
 20
440.7470099664458
 42
0.4142135623730951
 10
1199.865932176111
 20
446.7470099664458
 10
1199.865932176111
 20
508.1089618877919
 42
0.4142135623730949
 10
1193.865932176111
 20
514.1089618877919
 10
1079.865932176111
 20
514.1089618877919
 42
0.4142135623730951
 10
1073.865932176111
 20
508.1089618877919
 10
1073.865932176111
 20
446.7470099664458
 42
0.4142135623730951
 10
1079.865932176111
 20
440.7470099664458
 42
-0.4142135623730961
 10
1094.865932176112
 20
425.7470099664458
  0
LWPOLYLINE
  5
31833387
330
318324AF
100
AcDbEntity
  8
NITEN
100
AcDbPolyline
 90
        5
 70
     0
 43
0.0
 10
1187.865932176111
 20
514.1089618877919
 10
1187.865932176111
 20
576.6221148412296
 42
-0.5882352941176476
 10
1136.865932176111
 20
576.6221148412296
 42
0.5882352941176477
 10
1085.865932176112
 20
576.6221148412284
 10
1085.865932176112
 20
514.1089618877919
  0
LWPOLYLINE
  5
31833388
330
318324AF
100
AcDbEntity
  8
NITEN
100
AcDbPolyline
 90
        2
 70
     0
 43
0.0
 10
1187.865932176112
 20
576.6221148412296
 42
0.5882352941176295
 10
1136.865932176111
 20
576.6221148412301
 42
0.5882352941176295
  0
LINE
  5
31833389
330
318324AF
100
AcDbEntity
  8
JISSEN
100
AcDbLine
 10
1067.964729833805
 20
317.6902220994828
 30
0.0
 11
1079.650576564203
 21
312.1773151706093
 31
0.0
  0
LINE
  5
3183338A
330
318324AF
100
AcDbEntity
  8
JISSEN
100
AcDbLine
 10
1205.767635146513
 20
317.6902220994828
 30
0.0
 11
1194.081788416115
 21
312.1773151706093
 31
0.0
  0
LINE
  5
3183338B
330
318324AF
100
AcDbEntity
  8
JISSEN
100
AcDbLine
 10
1216.366182490159
 20
369.3273151706098
 30
0.0
 11
1215.916182490158
 21
369.7773151706095
 31
0.0
  0
LINE
  5
3183338C
330
318324AF
100
AcDbEntity
  8
JISSEN
100
AcDbLine
 10
1216.366182490159
 20
347.2773151706095
 30
0.0
 11
1213.36618249016
 21
344.2773151706095
 31
0.0
  0
LINE
  5
3183338D
330
318324AF
100
AcDbEntity
  8
JISSEN
100
AcDbLine
 10
1213.36618249016
 20
344.2773151706095
 30
0.0
 11
1210.666182490159
 21
344.2773151706095
 31
0.0
  0
LINE
  5
3183338E
330
318324AF
100
AcDbEntity
  8
JISSEN
100
AcDbLine
 10
1216.366182490159
 20
369.3273151706098
 30
0.0
 11
1216.366182490159
 21
347.2773151706095
 31
0.0
  0
ARC
  5
3183338F
330
318324AF
100
AcDbEntity
  8
JISSEN
100
AcDbCircle
 10
1208.388045490158
 20
338.6440231706096
 30
0.0
 40
1.199999999999999
100
AcDbArc
 50
353.8576429999971
 51
88.64114499999931
  0
ARC
  5
31833390
330
318324AF
100
AcDbEntity
  8
JISSEN
100
AcDbCircle
 10
1208.430726490159
 20
339.5440231706098
 30
0.0
 40
0.3
100
AcDbArc
 50
92.71790199999987
 51
173.8576429999973
  0
ARC
  5
31833391
330
318324AF
100
AcDbEntity
  8
JISSEN
100
AcDbCircle
 10
1203.641775490159
 20
322.5782731706098
 30
0.0
 40
4.199999999999998
100
AcDbArc
 50
294.8254050000008
 51
353.8576429999971
  0
ARC
  5
31833392
330
318324AF
100
AcDbEntity
  8
JISSEN
100
AcDbCircle
 10
1204.228544501548
 20
321.9188388930195
 30
0.0
 40
4.5
100
AcDbArc
 50
290.0000000000037
 51
347.7955353691925
  0
LINE
  5
31833393
330
318324AF
100
AcDbEntity
  8
JISSEN
100
AcDbLine
 10
1206.236655490158
 20
321.9600091706096
 30
0.0
 11
1208.132448490159
 21
339.5761231706096
 31
0.0
  0
LINE
  5
31833394
330
318324AF
100
AcDbEntity
  8
JISSEN
100
AcDbLine
 10
1210.272483490159
 20
339.7773151706095
 30
0.0
 11
1208.62684191117
 21
320.9675345797206
 31
0.0
  0
LINE
  5
31833395
330
318324AF
100
AcDbEntity
  8
JISSEN
100
AcDbLine
 10
1209.581154490159
 20
338.5156231706095
 30
0.0
 11
1207.817664490159
 21
322.1288761706097
 31
0.0
  0
ARC
  5
31833396
330
318324AF
100
AcDbEntity
  8
JISSEN
100
AcDbCircle
 10
1198.885464490158
 20
339.1773151706097
 30
0.0
 40
0.6000000000000001
100
AcDbArc
 50
90.0
 51
174.7984409999991
  0
LINE
  5
31833397
330
318324AF
100
AcDbEntity
  8
JISSEN
100
AcDbLine
 10
1198.885464490158
 20
339.7773151706095
 30
0.0
 11
1201.591005490159
 21
339.7773151706095
 31
0.0
  0
ARC
  5
31833398
330
318324AF
100
AcDbEntity
  8
JISSEN
100
AcDbCircle
 10
1201.591005490159
 20
338.5773151706099
 30
0.0
 40
1.199999999999999
100
AcDbArc
 50
354.5938150000003
 51
90.0
  0
ARC
  5
31833399
330
318324AF
100
AcDbEntity
  8
JISSEN
100
AcDbCircle
 10
1199.000724490159
 20
339.1773151706097
 30
0.0
 40
0.6000000000000001
100
AcDbArc
 50
354.9610730000022
 51
90.0
  0
ARC
  5
3183339A
330
318324AF
100
AcDbEntity
  8
JISSEN
100
AcDbCircle
 10
1184.286825490158
 20
338.8773151706097
 30
0.0
 40
0.9
100
AcDbArc
 50
356.2556380000005
 51
90.0
  0
LINE
  5
3183339B
330
318324AF
100
AcDbEntity
  8
JISSEN
100
AcDbLine
 10
1186.536498490158
 20
339.7773151706095
 30
0.0
 11
1184.286825490158
 21
339.7773151706095
 31
0.0
  0
LINE
  5
3183339C
330
318324AF
100
AcDbEntity
  8
JISSEN
100
AcDbLine
 10
1184.286825490158
 20
339.7773151706095
 30
0.0
 11
1181.327772490159
 21
339.7773151706095
 31
0.0
  0
ARC
  5
3183339D
330
318324AF
100
AcDbEntity
  8
JISSEN
100
AcDbCircle
 10
1181.327772490159
 20
339.1773151706097
 30
0.0
 40
0.6000000000000001
100
AcDbArc
 50
90.0
 51
175.9820309999974
  0
ARC
  5
3183339E
330
318324AF
100
AcDbEntity
  8
JISSEN
100
AcDbCircle
 10
1186.536498490158
 20
338.7273151706098
 30
0.0
 40
1.049999999999998
100
AcDbArc
 50
355.9820309999973
 51
90.0
  0
LINE
  5
3183339F
330
318324AF
100
AcDbEntity
  8
JISSEN
100
AcDbLine
 10
1191.290007490159
 20
316.9521841706098
 30
0.0
 11
1195.788132490158
 21
319.3184341706099
 31
0.0
  0
LINE
  5
318333A0
330
318324AF
100
AcDbEntity
  8
JISSEN
100
AcDbLine
 10
1199.141610490159
 20
318.7153021706095
 30
0.0
 11
1194.977313490159
 21
316.5246631706096
 31
0.0
  0
ARC
  5
318333A1
330
318324AF
100
AcDbEntity
  8
JISSEN
100
AcDbCircle
 10
1191.429678490159
 20
316.68667817061
 30
0.0
 40
0.3
100
AcDbArc
 50
117.7467380000011
 51
270.0
  0
ARC
  5
318333A2
330
318324AF
100
AcDbEntity
  8
JISSEN
100
AcDbCircle
 10
1194.418635490158
 20
317.5866781706098
 30
0.0
 40
1.199999999999999
100
AcDbArc
 50
270.0
 51
297.7467380000011
  0
LINE
  5
318333A3
330
318324AF
100
AcDbEntity
  8
JISSEN
100
AcDbLine
 10
1194.418635490158
 20
316.3866781706095
 30
0.0
 11
1191.429678490159
 21
316.3866781706095
 31
0.0
  0
LINE
  5
318333A4
330
318324AF
100
AcDbEntity
  8
JISSEN
100
AcDbLine
 10
1199.460903490159
 20
316.7395261706094
 30
0.0
 11
1203.996480490159
 21
318.8376991706098
 31
0.0
  0
ARC
  5
318333A5
330
318324AF
100
AcDbEntity
  8
JISSEN
100
AcDbCircle
 10
1197.325911490158
 20
322.1668591706096
 30
0.0
 40
3.9
100
AcDbArc
 50
297.7467380000011
 51
354.5938150000003
  0
ARC
  5
318333A6
330
318324AF
100
AcDbEntity
  8
JISSEN
100
AcDbCircle
 10
1199.744904490158
 20
319.4533891706099
 30
0.0
 40
3.0
100
AcDbArc
 50
270.0
 51
294.8254050000008
  0
LINE
  5
318333A7
330
318324AF
100
AcDbEntity
  8
JISSEN
100
AcDbLine
 10
1199.744904490158
 20
316.4533891706099
 30
0.0
 11
1199.523879490159
 21
316.4533891706099
 31
0.0
  0
ARC
  5
318333A8
330
318324AF
100
AcDbEntity
  8
JISSEN
100
AcDbCircle
 10
1199.523879490159
 20
316.6033891706098
 30
0.0
 40
0.15
100
AcDbArc
 50
114.8254050000008
 51
270.0
  0
ARC
  5
318333A9
330
318324AF
100
AcDbEntity
  8
JISSEN
100
AcDbCircle
 10
1195.089786490159
 20
320.6459551706099
 30
0.0
 40
1.5
100
AcDbArc
 50
297.7467380000011
 51
354.7984409999991
  0
ARC
  5
318333AA
330
318324AF
100
AcDbEntity
  8
JISSEN
100
AcDbCircle
 10
1196.511939490159
 20
321.19801217061
 30
0.0
 40
1.5
100
AcDbArc
 50
260.6504450000021
 51
354.9610730000022
  0
ARC
  5
318333AB
330
318324AF
100
AcDbEntity
  8
JISSEN
100
AcDbCircle
 10
1182.780663490158
 20
321.6498991706099
 30
0.0
 40
3.599999999999998
100
AcDbArc
 50
305.3270679999976
 51
355.9820309999973
  0
LINE
  5
318333AC
330
318324AF
100
AcDbEntity
  8
JISSEN
100
AcDbLine
 10
1182.809535490159
 20
319.69801217061
 30
0.0
 11
1179.209079490159
 21
319.69801217061
 31
0.0
  0
LINE
  5
318333AD
330
318324AF
100
AcDbEntity
  8
JISSEN
100
AcDbLine
 10
1181.853141490159
 20
316.5800221706098
 30
0.0
 11
1184.862339490159
 21
318.7127881706097
 31
0.0
  0
ARC
  5
318333AE
330
318324AF
100
AcDbEntity
  8
JISSEN
100
AcDbCircle
 10
1178.20077349016
 20
320.3486431706095
 30
0.0
 40
1.199999999999999
100
AcDbArc
 50
305.3270679999976
 51
355.9820309999973
  0
ARC
  5
318333AF
330
318324AF
100
AcDbEntity
  8
JISSEN
100
AcDbCircle
 10
1181.245986490158
 20
317.4366781706098
 30
0.0
 40
1.049999999999998
100
AcDbArc
 50
270.0
 51
305.3270679999976
  0
ARC
  5
318333B0
330
318324AF
100
AcDbEntity
  8
JISSEN
100
AcDbCircle
 10
1182.809535490159
 20
320.8980121706096
 30
0.0
 40
1.199999999999999
100
AcDbArc
 50
270.0
 51
356.2556380000005
  0
ARC
  5
318333B1
330
318324AF
100
AcDbEntity
  8
JISSEN
100
AcDbCircle
 10
1176.09908749016
 20
316.8366781706098
 30
0.0
 40
0.45
100
AcDbArc
 50
125.3270679999975
 51
270.0
  0
LINE
  5
318333B2
330
318324AF
100
AcDbEntity
  8
JISSEN
100
AcDbLine
 10
1178.894664490159
 20
319.3696051706097
 30
0.0
 11
1175.838879490159
 21
317.2038181706099
 31
0.0
  0
LINE
  5
318333B3
330
318324AF
100
AcDbEntity
  8
JISSEN
100
AcDbLine
 10
1176.09908749016
 20
316.3866781706095
 30
0.0
 11
1181.245986490158
 21
316.3866781706095
 31
0.0
  0
LINE
  5
318333B4
330
318324AF
100
AcDbEntity
  8
JISSEN
100
AcDbLine
 10
1185.184902490159
 20
338.8185391706097
 30
0.0
 11
1184.006973490159
 21
320.8196461706096
 31
0.0
  0
LINE
  5
318333B5
330
318324AF
100
AcDbEntity
  8
JISSEN
100
AcDbLine
 10
1180.729245490159
 20
339.2193571706096
 30
0.0
 11
1179.397824490159
 21
320.2645591706096
 31
0.0
  0
LINE
  5
318333B6
330
318324AF
100
AcDbEntity
  8
JISSEN
100
AcDbLine
 10
1202.785668490158
 20
338.4642541706099
 30
0.0
 11
1201.208562490159
 21
321.7994161706096
 31
0.0
  0
LINE
  5
318333B7
330
318324AF
100
AcDbEntity
  8
JISSEN
100
AcDbLine
 10
1199.598405490158
 20
339.1246141706098
 30
0.0
 11
1198.006143490159
 21
321.0662641706097
 31
0.0
  0
LINE
  5
318333B8
330
318324AF
100
AcDbEntity
  8
JISSEN
100
AcDbLine
 10
1186.371813490158
 20
321.3976501706097
 30
0.0
 11
1187.583915490159
 21
338.6537401706096
 31
0.0
  0
LINE
  5
318333B9
330
318324AF
100
AcDbEntity
  8
JISSEN
100
AcDbLine
 10
1196.583609490158
 20
320.5099651706093
 30
0.0
 11
1198.287933490159
 21
339.2317111706097
 31
0.0
  0
ARC
  5
318333BA
330
318324AF
100
AcDbEntity
  8
JISSEN
100
AcDbCircle
 10
1202.359047490158
 20
322.3773061706097
 30
0.0
 40
3.9
100
AcDbArc
 50
294.8254050000008
 51
353.8576429999971
  0
LINE
  5
318333BB
330
318324AF
100
AcDbEntity
  8
JISSEN
100
AcDbLine
 10
1205.405163490159
 20
318.7663891706098
 30
0.0
 11
1201.004469490159
 21
316.7306131706098
 31
0.0
  0
LINE
  5
318333BC
330
318324AF
100
AcDbEntity
  8
JISSEN
100
AcDbLine
 10
1210.666182490159
 20
344.2773151706095
 30
0.0
 11
1210.272483490159
 21
339.7773151706095
 31
0.0
  0
ARC
  5
318333BD
330
318324AF
100
AcDbEntity
  8
JISSEN
100
AcDbCircle
 10
1174.516182490152
 20
301.1196682035852
 30
0.0
 40
0.6000000000000001
100
AcDbArc
 50
269.9999999999934
 51
359.9999999999868
1001
ACAD
1000
ASC_BOUNDS
1002
{
1070
    19
1002
}
  0
LINE
  5
318333BE
330
318324AF
100
AcDbEntity
  8
JISSEN
100
AcDbLine
 10
1175.116182490153
 20
305.7696682035917
 30
0.0
 11
1175.116182490151
 21
301.1196682035814
 31
0.0
1001
ACAD
1000
ASC_BOUNDS
1002
{
1070
    19
1002
}
  0
LINE
  5
318333BF
330
318324AF
100
AcDbEntity
  8
JISSEN
100
AcDbLine
 10
1176.616182490151
 20
292.6773151705985
 30
0.0
 11
1176.616182490149
 21
288.1773151705985
 31
0.0
  0
LINE
  5
318333C0
330
318324AF
100
AcDbEntity
  8
JISSEN
100
AcDbLine
 10
1180.453791539965
 20
305.7696682035912
 30
0.0
 11
1194.081788416115
 21
312.1773151706093
 31
0.0
1001
ACAD
1000
ASC_BOUNDS
1002
{
1070
    19
1002
}
  0
LINE
  5
318333C1
330
318324AF
100
AcDbEntity
  8
JISSEN
100
AcDbLine
 10
1167.651954490158
 20
419.9915401706205
 30
0.0
 11
1163.866182490159
 21
423.7773151706208
 31
0.0
  0
LINE
  5
318333C2
330
318324AF
100
AcDbEntity
  8
JISSEN
100
AcDbLine
 10
1109.866182490159
 20
423.7773151706208
 30
0.0
 11
1136.86618249016
 21
423.7773151706203
 31
0.0
  0
LINE
  5
318333C3
330
318324AF
100
AcDbEntity
  8
JISSEN
100
AcDbLine
 10
1167.651954490158
 20
419.9915401706205
 30
0.0
 11
1136.86618249016
 21
419.9915401706205
 31
0.0
  0
LINE
  5
318333C4
330
318324AF
100
AcDbEntity
  8
JISSEN
100
AcDbLine
 10
1163.866182490159
 20
423.7773151706208
 30
0.0
 11
1136.86618249016
 21
423.7773151706203
 31
0.0
  0
LINE
  5
318333C5
330
318324AF
100
AcDbEntity
  8
JISSEN
100
AcDbLine
 10
1106.080410490159
 20
419.9915401706205
 30
0.0
 11
1136.86618249016
 21
419.9915401706205
 31
0.0
  0
LINE
  5
318333C6
330
318324AF
100
AcDbEntity
  8
JISSEN
100
AcDbLine
 10
1106.080410490159
 20
419.9915401706205
 30
0.0
 11
1109.866182490159
 21
423.7773151706208
 31
0.0
  0
LINE
  5
318333C7
330
318324AF
100
AcDbEntity
  8
JISSEN
100
AcDbLine
 10
1171.966182490159
 20
369.7773151706095
 30
0.0
 11
1169.566182490159
 21
372.1773151706093
 31
0.0
  0
LINE
  5
318333C8
330
318324AF
100
AcDbEntity
  8
JISSEN
100
AcDbLine
 10
1169.566182490159
 20
372.177315170609
 30
0.0
 11
1165.24388149016
 21
376.4996161706095
 31
0.0
  0
ARC
  5
318333C9
330
318324AF
100
AcDbEntity
  8
JISSEN
100
AcDbCircle
 10
1136.86618249016
 20
366.0273151706095
 30
0.0
 40
3.75
100
AcDbArc
 50
36.86989800000061
 51
90.0
  0
ARC
  5
318333CA
330
318324AF
100
AcDbEntity
  8
JISSEN
100
AcDbCircle
 10
1136.86618249016
 20
366.0273151706095
 30
0.0
 40
3.75
100
AcDbArc
 50
90.0
 51
143.1301019999993
  0
LINE
  5
318333CB
330
318324AF
100
AcDbEntity
  8
JISSEN
100
AcDbLine
 10
1139.866182490159
 20
368.2773151706095
 30
0.0
 11
1139.866182490159
 21
347.2773151706095
 31
0.0
  0
LINE
  5
318333CC
330
318324AF
100
AcDbEntity
  8
JISSEN
100
AcDbLine
 10
1133.866182490159
 20
368.2773151706095
 30
0.0
 11
1133.866182490159
 21
347.2773151706095
 31
0.0
  0
LINE
  5
318333CD
330
318324AF
100
AcDbEntity
  8
JISSEN
100
AcDbLine
 10
1136.86618249016
 20
376.4996161706095
 30
0.0
 11
1168.729881490158
 21
376.4996161706095
 31
0.0
  0
LINE
  5
318333CE
330
318324AF
100
AcDbEntity
  8
JISSEN
100
AcDbLine
 10
1158.409680490158
 20
339.7773151706095
 30
0.0
 11
1165.35465349016
 21
339.7773151706095
 31
0.0
  0
ARC
  5
318333CF
330
318324AF
100
AcDbEntity
  8
JISSEN
100
AcDbCircle
 10
1158.409680490158
 20
339.1773151706097
 30
0.0
 40
0.6000000000000001
100
AcDbArc
 50
90.0
 51
177.8595679999994
  0
ARC
  5
318333D0
330
318324AF
100
AcDbEntity
  8
JISSEN
100
AcDbCircle
 10
1164.227253490158
 20
339.0273151706095
 30
0.0
 40
0.75
100
AcDbArc
 50
358.005631999999
 51
90.0
  0
ARC
  5
318333D1
330
318324AF
100
AcDbEntity
  8
JISSEN
100
AcDbCircle
 10
1165.35465349016
 20
338.8773151706097
 30
0.0
 40
0.9
100
AcDbArc
 50
357.8595679999994
 51
90.0
  0
ARC
  5
318333D2
330
318324AF
100
AcDbEntity
  8
JISSEN
100
AcDbCircle
 10
1163.435409490158
 20
320.5980121706098
 30
0.0
 40
0.9
100
AcDbArc
 50
270.0
 51
358.005631999999
  0
LINE
  5
318333D3
330
318324AF
100
AcDbEntity
  8
JISSEN
100
AcDbLine
 10
1164.974757490159
 20
318.9471601706098
 30
0.0
 11
1163.322504490158
 21
316.7463361706097
 31
0.0
  0
LINE
  5
318333D4
330
318324AF
100
AcDbEntity
  8
JISSEN
100
AcDbLine
 10
1163.435409490158
 20
319.69801217061
 30
0.0
 11
1157.035410490159
 21
319.69801217061
 31
0.0
  0
ARC
  5
318333D5
330
318324AF
100
AcDbEntity
  8
JISSEN
100
AcDbCircle
 10
1156.192368490159
 20
320.0130991706095
 30
0.0
 40
0.9
100
AcDbArc
 50
323.1028380000032
 51
357.8595679999994
  0
ARC
  5
318333D6
330
318324AF
100
AcDbEntity
  8
JISSEN
100
AcDbCircle
 10
1162.60275949016
 20
317.2866781706098
 30
0.0
 40
0.9
100
AcDbArc
 50
270.0
 51
323.1028380000032
  0
ARC
  5
318333D7
330
318324AF
100
AcDbEntity
  8
JISSEN
100
AcDbCircle
 10
1162.575615490158
 20
320.7483031706097
 30
0.0
 40
3.0
100
AcDbArc
 50
323.1028380000032
 51
357.8595679999994
  0
ARC
  5
318333D8
330
318324AF
100
AcDbEntity
  8
JISSEN
100
AcDbCircle
 10
1155.795972490159
 20
316.9866781706097
 30
0.0
 40
0.6000000000000001
100
AcDbArc
 50
143.102838000003
 51
270.0
  0
LINE
  5
318333D9
330
318324AF
100
AcDbEntity
  8
JISSEN
100
AcDbLine
 10
1162.60275949016
 20
316.3866781706095
 30
0.0
 11
1155.795972490159
 21
316.3866781706095
 31
0.0
  0
LINE
  5
318333DA
330
318324AF
100
AcDbEntity
  8
JISSEN
100
AcDbLine
 10
1155.316143490159
 20
317.3469091706098
 30
0.0
 11
1156.912113490159
 21
319.4727571706095
 31
0.0
  0
LINE
  5
318333DB
330
318324AF
100
AcDbEntity
  8
JISSEN
100
AcDbLine
 10
1141.366182490159
 20
338.2773151706095
 30
0.0
 11
1141.366182490159
 21
317.8866781706095
 31
0.0
  0
LINE
  5
318333DC
330
318324AF
100
AcDbEntity
  8
JISSEN
100
AcDbLine
 10
1157.09174149016
 20
319.9794871706097
 30
0.0
 11
1157.81009749016
 21
339.1997251706097
 31
0.0
  0
LINE
  5
318333DD
330
318324AF
100
AcDbEntity
  8
JISSEN
100
AcDbLine
 10
1164.976797490159
 20
339.0012121706096
 30
0.0
 11
1164.334863490159
 21
320.5666921706098
 31
0.0
  0
LINE
  5
318333DE
330
318324AF
100
AcDbEntity
  8
JISSEN
100
AcDbLine
 10
1166.254023490159
 20
338.8437001706096
 30
0.0
 11
1165.573521490159
 21
320.6362561706098
 31
0.0
  0
LINE
  5
318333DF
330
318324AF
100
AcDbEntity
  8
JISSEN
100
AcDbLine
 10
1136.86618249016
 20
339.7773151706095
 30
0.0
 11
1139.866182490159
 21
339.7773151706095
 31
0.0
  0
ARC
  5
318333E0
330
318324AF
100
AcDbEntity
  8
JISSEN
100
AcDbCircle
 10
1133.866182490159
 20
338.2773151706095
 30
0.0
 40
1.5
100
AcDbArc
 50
90.0
 51
180.0
  0
LINE
  5
318333E1
330
318324AF
100
AcDbEntity
  8
JISSEN
100
AcDbLine
 10
1136.86618249016
 20
339.7773151706095
 30
0.0
 11
1133.866182490159
 21
339.7773151706095
 31
0.0
  0
ARC
  5
318333E2
330
318324AF
100
AcDbEntity
  8
JISSEN
100
AcDbCircle
 10
1115.322684490159
 20
339.1773151706097
 30
0.0
 40
0.6000000000000001
100
AcDbArc
 50
2.140432000000609
 51
90.0
  0
LINE
  5
318333E3
330
318324AF
100
AcDbEntity
  8
JISSEN
100
AcDbLine
 10
1139.866182490159
 20
319.69801217061
 30
0.0
 11
1136.86618249016
 21
319.69801217061
 31
0.0
  0
LINE
  5
318333E4
330
318324AF
100
AcDbEntity
  8
JISSEN
100
AcDbLine
 10
1136.86618249016
 20
316.3866781706095
 30
0.0
 11
1139.866182490159
 21
316.3866781706095
 31
0.0
  0
ARC
  5
318333E5
330
318324AF
100
AcDbEntity
  8
JISSEN
100
AcDbCircle
 10
1133.866182490159
 20
321.19801217061
 30
0.0
 40
1.5
100
AcDbArc
 50
180.0
 51
270.0
  0
ARC
  5
318333E6
330
318324AF
100
AcDbEntity
  8
JISSEN
100
AcDbCircle
 10
1133.866182490159
 20
317.8866781706095
 30
0.0
 40
1.5
100
AcDbArc
 50
180.0
 51
270.0
  0
LINE
  5
318333E7
330
318324AF
100
AcDbEntity
  8
JISSEN
100
AcDbLine
 10
1136.86618249016
 20
316.3866781706095
 30
0.0
 11
1133.866182490159
 21
316.3866781706095
 31
0.0
  0
LINE
  5
318333E8
330
318324AF
100
AcDbEntity
  8
JISSEN
100
AcDbLine
 10
1133.866182490159
 20
319.69801217061
 30
0.0
 11
1136.86618249016
 21
319.69801217061
 31
0.0
  0
ARC
  5
318333E9
330
318324AF
100
AcDbEntity
  8
JISSEN
100
AcDbCircle
 10
1111.12960549016
 20
317.2866781706098
 30
0.0
 40
0.9
100
AcDbArc
 50
216.8971619999968
 51
270.0
  0
LINE
  5
318333EA
330
318324AF
100
AcDbEntity
  8
JISSEN
100
AcDbLine
 10
1110.29695549016
 20
319.69801217061
 30
0.0
 11
1116.696954490159
 21
319.69801217061
 31
0.0
  0
LINE
  5
318333EB
330
318324AF
100
AcDbEntity
  8
JISSEN
100
AcDbLine
 10
1108.757607490159
 20
318.9471601706098
 30
0.0
 11
1110.409860490159
 21
316.7463361706097
 31
0.0
  0
ARC
  5
318333EC
330
318324AF
100
AcDbEntity
  8
JISSEN
100
AcDbCircle
 10
1110.29695549016
 20
320.5980121706098
 30
0.0
 40
0.9
100
AcDbArc
 50
181.9943680000009
 51
270.0
  0
LINE
  5
318333ED
330
318324AF
100
AcDbEntity
  8
JISSEN
100
AcDbLine
 10
1118.41622149016
 20
317.3469091706098
 30
0.0
 11
1116.820251490159
 21
319.4727571706095
 31
0.0
  0
ARC
  5
318333EE
330
318324AF
100
AcDbEntity
  8
JISSEN
100
AcDbCircle
 10
1117.936392490159
 20
316.9866781706097
 30
0.0
 40
0.6000000000000001
100
AcDbArc
 50
270.0
 51
36.89716199999679
  0
ARC
  5
318333EF
330
318324AF
100
AcDbEntity
  8
JISSEN
100
AcDbCircle
 10
1117.53999649016
 20
320.0130991706095
 30
0.0
 40
0.9
100
AcDbArc
 50
182.1404320000006
 51
216.8971619999968
  0
LINE
  5
318333F0
330
318324AF
100
AcDbEntity
  8
JISSEN
100
AcDbLine
 10
1111.12960549016
 20
316.3866781706095
 30
0.0
 11
1117.936392490159
 21
316.3866781706095
 31
0.0
  0
LINE
  5
318333F1
330
318324AF
100
AcDbEntity
  8
JISSEN
100
AcDbLine
 10
1116.64062349016
 20
319.9794871706097
 30
0.0
 11
1115.922267490158
 21
339.1997251706097
 31
0.0
  0
LINE
  5
318333F2
330
318324AF
100
AcDbEntity
  8
JISSEN
100
AcDbLine
 10
1108.755567490159
 20
339.0012121706096
 30
0.0
 11
1109.397501490158
 21
320.5666921706098
 31
0.0
  0
LINE
  5
318333F3
330
318324AF
100
AcDbEntity
  8
JISSEN
100
AcDbLine
 10
1132.366182490158
 20
338.2773151706095
 30
0.0
 11
1132.366182490158
 21
317.8866781706095
 31
0.0
  0
ARC
  5
318333F4
330
318324AF
100
AcDbEntity
  8
JISSEN
100
AcDbCircle
 10
1139.866182490159
 20
317.8866781706095
 30
0.0
 40
1.5
100
AcDbArc
 50
270.0
 51
0.0
  0
ARC
  5
318333F5
330
318324AF
100
AcDbEntity
  8
JISSEN
100
AcDbCircle
 10
1139.866182490159
 20
321.19801217061
 30
0.0
 40
1.5
100
AcDbArc
 50
270.0
 51
0.0
  0
ARC
  5
318333F6
330
318324AF
100
AcDbEntity
  8
JISSEN
100
AcDbCircle
 10
1139.866182490159
 20
338.2773151706095
 30
0.0
 40
1.5
100
AcDbArc
 50
0.0
 51
90.0
  0
ARC
  5
318333F7
330
318324AF
100
AcDbEntity
  8
JISSEN
100
AcDbCircle
 10
1136.86618249016
 20
347.2773151706095
 30
0.0
 40
3.0
100
AcDbArc
 50
270.0
 51
0.0
  0
ARC
  5
318333F8
330
318324AF
100
AcDbEntity
  8
JISSEN
100
AcDbCircle
 10
1136.86618249016
 20
347.2773151706095
 30
0.0
 40
3.0
100
AcDbArc
 50
180.0
 51
270.0
  0
LINE
  5
318333F9
330
318324AF
100
AcDbEntity
  8
JISSEN
100
AcDbLine
 10
1104.166182490158
 20
372.177315170609
 30
0.0
 11
1108.488483490159
 21
376.4996161706095
 31
0.0
  0
LINE
  5
318333FA
330
318324AF
100
AcDbEntity
  8
JISSEN
100
AcDbLine
 10
1101.766182490159
 20
369.7773151706095
 30
0.0
 11
1104.166182490158
 21
372.1773151706093
 31
0.0
  0
LINE
  5
318333FB
330
318324AF
100
AcDbEntity
  8
JISSEN
100
AcDbLine
 10
1057.366182490159
 20
369.3273151706098
 30
0.0
 11
1057.816182490159
 21
369.7773151706095
 31
0.0
  0
LINE
  5
318333FC
330
318324AF
100
AcDbEntity
  8
JISSEN
100
AcDbLine
 10
1057.366182490159
 20
347.2773151706095
 30
0.0
 11
1060.366182490158
 21
344.2773151706095
 31
0.0
  0
LINE
  5
318333FD
330
318324AF
100
AcDbEntity
  8
JISSEN
100
AcDbLine
 10
1060.366182490158
 20
344.2773151706095
 30
0.0
 11
1063.066182490159
 21
344.2773151706095
 31
0.0
  0
LINE
  5
318333FE
330
318324AF
100
AcDbEntity
  8
JISSEN
100
AcDbLine
 10
1057.366182490159
 20
369.3273151706098
 30
0.0
 11
1057.366182490159
 21
347.2773151706095
 31
0.0
  0
ARC
  5
318333FF
330
318324AF
100
AcDbEntity
  8
JISSEN
100
AcDbCircle
 10
1108.377711490159
 20
338.8773151706097
 30
0.0
 40
0.9
100
AcDbArc
 50
90.0
 51
182.1404320000006
  0
LINE
  5
31833400
330
318324AF
100
AcDbEntity
  8
JISSEN
100
AcDbLine
 10
1089.44553949016
 20
339.7773151706095
 30
0.0
 11
1092.404592490159
 21
339.7773151706095
 31
0.0
  0
LINE
  5
31833401
330
318324AF
100
AcDbEntity
  8
JISSEN
100
AcDbLine
 10
1087.195866490159
 20
339.7773151706095
 30
0.0
 11
1089.44553949016
 21
339.7773151706095
 31
0.0
  0
ARC
  5
31833402
330
318324AF
100
AcDbEntity
  8
JISSEN
100
AcDbCircle
 10
1087.195866490159
 20
338.7273151706098
 30
0.0
 40
1.049999999999998
100
AcDbArc
 50
90.0
 51
184.0179690000025
  0
ARC
  5
31833403
330
318324AF
100
AcDbEntity
  8
JISSEN
100
AcDbCircle
 10
1089.44553949016
 20
338.8773151706097
 30
0.0
 40
0.9
100
AcDbArc
 50
90.0
 51
183.7443619999993
  0
ARC
  5
31833404
330
318324AF
100
AcDbEntity
  8
JISSEN
100
AcDbCircle
 10
1092.404592490159
 20
339.1773151706097
 30
0.0
 40
0.6000000000000001
100
AcDbArc
 50
4.017969000002583
 51
90.0
  0
LINE
  5
31833405
330
318324AF
100
AcDbEntity
  8
JISSEN
100
AcDbLine
 10
1094.837700490159
 20
319.3696051706097
 30
0.0
 11
1097.893485490158
 21
317.2038181706099
 31
0.0
  0
ARC
  5
31833406
330
318324AF
100
AcDbEntity
  8
JISSEN
100
AcDbCircle
 10
1095.53159149016
 20
320.3486431706095
 30
0.0
 40
1.199999999999999
100
AcDbArc
 50
184.0179690000025
 51
234.6729320000024
  0
ARC
  5
31833407
330
318324AF
100
AcDbEntity
  8
JISSEN
100
AcDbCircle
 10
1097.633277490159
 20
316.8366781706098
 30
0.0
 40
0.45
100
AcDbArc
 50
270.0
 51
54.6729320000024
  0
ARC
  5
31833408
330
318324AF
100
AcDbEntity
  8
JISSEN
100
AcDbCircle
 10
1079.313729490158
 20
317.5866781706098
 30
0.0
 40
1.199999999999999
100
AcDbArc
 50
242.2532619999987
 51
270.0
  0
LINE
  5
31833409
330
318324AF
100
AcDbEntity
  8
JISSEN
100
AcDbLine
 10
1082.44235749016
 20
316.9521841706098
 30
0.0
 11
1077.944232490159
 21
319.3184341706099
 31
0.0
  0
ARC
  5
3183340A
330
318324AF
100
AcDbEntity
  8
JISSEN
100
AcDbCircle
 10
1078.642578490158
 20
320.6459551706099
 30
0.0
 40
1.5
100
AcDbArc
 50
185.2015590000007
 51
242.2532619999987
  0
ARC
  5
3183340B
330
318324AF
100
AcDbEntity
  8
JISSEN
100
AcDbCircle
 10
1090.92282949016
 20
320.8980121706096
 30
0.0
 40
1.199999999999999
100
AcDbArc
 50
183.7443619999993
 51
270.0
  0
LINE
  5
3183340C
330
318324AF
100
AcDbEntity
  8
JISSEN
100
AcDbLine
 10
1091.879223490159
 20
316.5800221706098
 30
0.0
 11
1088.870025490159
 21
318.7127881706097
 31
0.0
  0
ARC
  5
3183340D
330
318324AF
100
AcDbEntity
  8
JISSEN
100
AcDbCircle
 10
1082.302686490159
 20
316.68667817061
 30
0.0
 40
0.3
100
AcDbArc
 50
270.0
 51
62.25326199999877
  0
ARC
  5
3183340E
330
318324AF
100
AcDbEntity
  8
JISSEN
100
AcDbCircle
 10
1090.951701490159
 20
321.6498991706099
 30
0.0
 40
3.599999999999998
100
AcDbArc
 50
184.0179690000025
 51
234.6729320000024
  0
LINE
  5
3183340F
330
318324AF
100
AcDbEntity
  8
JISSEN
100
AcDbLine
 10
1079.313729490158
 20
316.3866781706095
 30
0.0
 11
1082.302686490159
 21
316.3866781706095
 31
0.0
  0
ARC
  5
31833410
330
318324AF
100
AcDbEntity
  8
JISSEN
100
AcDbCircle
 10
1092.486378490159
 20
317.4366781706098
 30
0.0
 40
1.049999999999998
100
AcDbArc
 50
234.6729320000024
 51
270.0
  0
LINE
  5
31833411
330
318324AF
100
AcDbEntity
  8
JISSEN
100
AcDbLine
 10
1097.633277490159
 20
316.3866781706095
 30
0.0
 11
1092.486378490159
 21
316.3866781706095
 31
0.0
  0
LINE
  5
31833412
330
318324AF
100
AcDbEntity
  8
JISSEN
100
AcDbLine
 10
1090.92282949016
 20
319.69801217061
 30
0.0
 11
1094.523285490158
 21
319.69801217061
 31
0.0
  0
LINE
  5
31833413
330
318324AF
100
AcDbEntity
  8
JISSEN
100
AcDbLine
 10
1093.003119490159
 20
339.2193571706096
 30
0.0
 11
1094.334540490159
 21
320.2645591706096
 31
0.0
  0
LINE
  5
31833414
330
318324AF
100
AcDbEntity
  8
JISSEN
100
AcDbLine
 10
1087.360551490159
 20
321.3976501706097
 30
0.0
 11
1086.148449490159
 21
338.6537401706096
 31
0.0
  0
LINE
  5
31833415
330
318324AF
100
AcDbEntity
  8
JISSEN
100
AcDbLine
 10
1088.547462490159
 20
338.8185391706097
 30
0.0
 11
1089.725391490159
 21
320.8196461706096
 31
0.0
  0
LINE
  5
31833416
330
318324AF
100
AcDbEntity
  8
JISSEN
100
AcDbLine
 10
1107.478341490159
 20
338.8437001706096
 30
0.0
 11
1108.158843490158
 21
320.6362561706098
 31
0.0
  0
ARC
  5
31833417
330
318324AF
100
AcDbEntity
  8
JISSEN
100
AcDbCircle
 10
1065.344319490159
 20
338.6440231706096
 30
0.0
 40
1.199999999999999
100
AcDbArc
 50
91.35885500000069
 51
186.1423570000026
  0
ARC
  5
31833418
330
318324AF
100
AcDbEntity
  8
JISSEN
100
AcDbCircle
 10
1065.301638490159
 20
339.5440231706098
 30
0.0
 40
0.3
100
AcDbArc
 50
6.142357000002697
 51
87.28209800000014
  0
ARC
  5
31833419
330
318324AF
100
AcDbEntity
  8
JISSEN
100
AcDbCircle
 10
1074.731640490159
 20
339.1773151706097
 30
0.0
 40
0.6000000000000001
100
AcDbArc
 50
90.0
 51
185.0389269999976
  0
ARC
  5
3183341A
330
318324AF
100
AcDbEntity
  8
JISSEN
100
AcDbCircle
 10
1072.141359490158
 20
338.5773151706099
 30
0.0
 40
1.199999999999999
100
AcDbArc
 50
90.0
 51
185.4061849999995
  0
LINE
  5
3183341B
330
318324AF
100
AcDbEntity
  8
JISSEN
100
AcDbLine
 10
1074.846900490159
 20
339.7773151706095
 30
0.0
 11
1072.141359490158
 21
339.7773151706095
 31
0.0
  0
ARC
  5
3183341C
330
318324AF
100
AcDbEntity
  8
JISSEN
100
AcDbCircle
 10
1074.846900490159
 20
339.1773151706097
 30
0.0
 40
0.6000000000000001
100
AcDbArc
 50
5.20155900000078
 51
90.0
  0
ARC
  5
3183341D
330
318324AF
100
AcDbEntity
  8
JISSEN
100
AcDbCircle
 10
1071.373317490158
 20
322.3773061706097
 30
0.0
 40
3.9
100
AcDbArc
 50
186.1423570000026
 51
245.174594999999
  0
LINE
  5
3183341E
330
318324AF
100
AcDbEntity
  8
JISSEN
100
AcDbLine
 10
1068.32720149016
 20
318.7663891706098
 30
0.0
 11
1072.72789549016
 21
316.7306131706098
 31
0.0
  0
ARC
  5
3183341F
330
318324AF
100
AcDbEntity
  8
JISSEN
100
AcDbCircle
 10
1069.503820478771
 20
321.9188388930195
 30
0.0
 40
4.5
100
AcDbArc
 50
192.2044646308252
 51
249.9999999999963
  0
ARC
  5
31833420
330
318324AF
100
AcDbEntity
  8
JISSEN
100
AcDbCircle
 10
1070.090589490159
 20
322.5782731706098
 30
0.0
 40
4.199999999999998
100
AcDbArc
 50
186.1423570000026
 51
245.174594999999
  0
ARC
  5
31833421
330
318324AF
100
AcDbEntity
  8
JISSEN
100
AcDbCircle
 10
1074.208485490159
 20
316.6033891706098
 30
0.0
 40
0.15
100
AcDbArc
 50
270.0
 51
65.17459499999917
  0
LINE
  5
31833422
330
318324AF
100
AcDbEntity
  8
JISSEN
100
AcDbLine
 10
1073.98746049016
 20
316.4533891706099
 30
0.0
 11
1074.208485490159
 21
316.4533891706099
 31
0.0
  0
ARC
  5
31833423
330
318324AF
100
AcDbEntity
  8
JISSEN
100
AcDbCircle
 10
1073.98746049016
 20
319.4533891706099
 30
0.0
 40
3.0
100
AcDbArc
 50
245.174594999999
 51
270.0
  0
ARC
  5
31833424
330
318324AF
100
AcDbEntity
  8
JISSEN
100
AcDbCircle
 10
1076.40645349016
 20
322.1668591706096
 30
0.0
 40
3.9
100
AcDbArc
 50
185.4061849999995
 51
242.2532619999987
  0
LINE
  5
31833425
330
318324AF
100
AcDbEntity
  8
JISSEN
100
AcDbLine
 10
1074.27146149016
 20
316.7395261706094
 30
0.0
 11
1069.735884490158
 21
318.8376991706098
 31
0.0
  0
LINE
  5
31833426
330
318324AF
100
AcDbEntity
  8
JISSEN
100
AcDbLine
 10
1074.133959490159
 20
339.1246141706098
 30
0.0
 11
1075.726221490159
 21
321.0662641706097
 31
0.0
  0
LINE
  5
31833427
330
318324AF
100
AcDbEntity
  8
JISSEN
100
AcDbLine
 10
1070.946696490159
 20
338.4642541706099
 30
0.0
 11
1072.523802490158
 21
321.7994161706096
 31
0.0
  0
LINE
  5
31833428
330
318324AF
100
AcDbEntity
  8
JISSEN
100
AcDbLine
 10
1067.495709490158
 20
321.9600091706096
 30
0.0
 11
1065.599916490159
 21
339.5761231706096
 31
0.0
  0
LINE
  5
31833429
330
318324AF
100
AcDbEntity
  8
JISSEN
100
AcDbLine
 10
1064.151210490159
 20
338.5156231706095
 30
0.0
 11
1065.91470049016
 21
322.1288761706097
 31
0.0
  0
LINE
  5
3183342A
330
318324AF
100
AcDbEntity
  8
JISSEN
100
AcDbLine
 10
1063.459881490159
 20
339.7773151706095
 30
0.0
 11
1065.105523069149
 21
320.9675345797188
 31
0.0
  0
LINE
  5
3183342B
330
318324AF
100
AcDbEntity
  8
JISSEN
100
AcDbLine
 10
1077.148755490159
 20
320.5099651706093
 30
0.0
 11
1075.444431490159
 21
339.2317111706097
 31
0.0
  0
ARC
  5
3183342C
330
318324AF
100
AcDbEntity
  8
JISSEN
100
AcDbCircle
 10
1077.220425490158
 20
321.19801217061
 30
0.0
 40
1.5
100
AcDbArc
 50
185.0389269999976
 51
279.3495549999978
  0
LINE
  5
3183342D
330
318324AF
100
AcDbEntity
  8
JISSEN
100
AcDbLine
 10
1074.59075449016
 20
318.7153021706095
 30
0.0
 11
1078.75505149016
 21
316.5246631706096
 31
0.0
  0
LINE
  5
3183342E
330
318324AF
100
AcDbEntity
  8
JISSEN
100
AcDbLine
 10
1063.066182490159
 20
344.2773151706095
 30
0.0
 11
1063.459881490159
 21
339.7773151706095
 31
0.0
  0
LINE
  5
3183342F
330
318324AF
100
AcDbEntity
  8
JISSEN
100
AcDbLine
 10
1136.86618249016
 20
376.4996161706095
 30
0.0
 11
1105.002483490159
 21
376.4996161706095
 31
0.0
  0
LINE
  5
31833430
330
318324AF
100
AcDbEntity
  8
JISSEN
100
AcDbLine
 10
1133.866182490159
 20
368.2773151706095
 30
0.0
 11
1057.366182490159
 21
368.2773151706095
 31
0.0
  0
LINE
  5
31833431
330
318324AF
100
AcDbEntity
  8
JISSEN
100
AcDbLine
 10
1057.366182490159
 20
347.2773151706095
 30
0.0
 11
1133.866182490159
 21
347.2773151706095
 31
0.0
  0
LINE
  5
31833432
330
318324AF
100
AcDbEntity
  8
JISSEN
100
AcDbLine
 10
1060.366182490158
 20
344.2773151706095
 30
0.0
 11
1136.86618249016
 21
344.2773151706095
 31
0.0
  0
LINE
  5
31833433
330
318324AF
100
AcDbEntity
  8
JISSEN
100
AcDbLine
 10
1057.816182490159
 20
369.7773151706095
 30
0.0
 11
1136.86618249016
 21
369.7773151706095
 31
0.0
  0
ARC
  5
31833434
330
318324AF
100
AcDbEntity
  8
JISSEN
100
AcDbCircle
 10
1111.156749490159
 20
320.7483031706097
 30
0.0
 40
3.0
100
AcDbArc
 50
182.1404320000006
 51
216.8971619999968
  0
LINE
  5
31833435
330
318324AF
100
AcDbEntity
  8
JISSEN
100
AcDbLine
 10
1115.322684490159
 20
339.7773151706095
 30
0.0
 11
1108.377711490159
 21
339.7773151706095
 31
0.0
  0
ARC
  5
31833436
330
318324AF
100
AcDbEntity
  8
JISSEN
100
AcDbCircle
 10
1109.505111490159
 20
339.0273151706095
 30
0.0
 40
0.75
100
AcDbArc
 50
90.0
 51
181.9943680000009
  0
LINE
  5
31833437
330
318324AF
100
AcDbEntity
  8
JISSEN
100
AcDbLine
 10
1163.702798970465
 20
299.1137496345888
 30
0.0
 11
1165.653375028969
 21
295.8528421136092
 31
0.0
  0
ARC
  5
31833438
330
318324AF
100
AcDbEntity
  8
JISSEN
100
AcDbCircle
 10
1161.128243605912
 20
297.5737286364207
 30
0.0
 40
3.0
100
AcDbArc
 50
30.88658490358461
 51
79.10640818213057
  0
ARC
  5
31833439
330
318324AF
100
AcDbEntity
  8
JISSEN
100
AcDbCircle
 10
1165.138463956058
 20
295.5448379139745
 30
0.0
 40
0.6000000000000001
100
AcDbArc
 50
299.9999999999916
 51
30.88658490357568
  0
LINE
  5
3183343A
330
318324AF
100
AcDbEntity
  8
JISSEN
100
AcDbLine
 10
1155.61618249015
 20
296.1163341903901
 30
0.0
 11
1144.366182490158
 21
296.9329227785215
 31
0.0
  0
ARC
  5
3183343B
330
318324AF
100
AcDbEntity
  8
JISSEN
100
AcDbCircle
 10
1162.630614599492
 20
294.0969304128756
 30
0.0
 40
0.6000000000000001
100
AcDbArc
 50
209.9999999999916
 51
299.9999999999916
  0
LINE
  5
3183343C
330
318324AF
100
AcDbEntity
  8
JISSEN
100
AcDbLine
 10
1145.866182490149
 20
283.6773151706053
 30
0.0
 11
1172.11618249015
 21
283.6773151706008
 31
0.0
  0
LINE
  5
3183343D
330
318324AF
100
AcDbEntity
  8
JISSEN
100
AcDbLine
 10
1165.438463956058
 20
295.0252226717036
 30
0.0
 11
1162.930614599493
 21
293.5773151706051
 31
0.0
  0
LINE
  5
3183343E
330
318324AF
100
AcDbEntity
  8
JISSEN
100
AcDbLine
 10
1161.233735937597
 20
300.5196682035878
 30
0.0
 11
1161.233735937597
 21
292.6773151706024
 31
0.0
  0
LINE
  5
3183343F
330
318324AF
100
AcDbEntity
  8
JISSEN
100
AcDbLine
 10
1155.61618249015
 20
292.6773151706036
 30
0.0
 11
1155.616182490153
 21
300.5196682035883
 31
0.0
  0
LINE
  5
31833440
330
318324AF
100
AcDbEntity
  8
JISSEN
100
AcDbLine
 10
1162.110999357223
 20
293.7969304128758
 30
0.0
 11
1161.233735937597
 21
295.3163952272893
 31
0.0
  0
LINE
  5
31833441
330
318324AF
100
AcDbEntity
  8
JISSEN
100
AcDbLine
 10
1144.366182490158
 20
292.6773151706056
 30
0.0
 11
1144.366182490158
 21
300.5196682035901
 31
0.0
  0
ARC
  5
31833442
330
318324AF
100
AcDbEntity
  8
JISSEN
100
AcDbCircle
 10
1112.604121374407
 20
297.5737286364207
 30
0.0
 40
3.0
100
AcDbArc
 50
100.8935918178694
 51
149.1134150964153
  0
LINE
  5
31833443
330
318324AF
100
AcDbEntity
  8
JISSEN
100
AcDbLine
 10
1118.116182490168
 20
296.1163341903901
 30
0.0
 11
1129.366182490158
 21
296.9329227785215
 31
0.0
  0
LINE
  5
31833444
330
318324AF
100
AcDbEntity
  8
JISSEN
100
AcDbLine
 10
1127.866182490169
 20
283.6773151706053
 30
0.0
 11
1136.866182490169
 21
283.677315170607
 31
0.0
  0
ARC
  5
31833445
330
318324AF
100
AcDbEntity
  8
JISSEN
100
AcDbCircle
 10
1111.101750380826
 20
294.0969304128756
 30
0.0
 40
0.6000000000000001
100
AcDbArc
 50
240.0000000000083
 51
330.0000000000082
  0
LINE
  5
31833446
330
318324AF
100
AcDbEntity
  8
JISSEN
100
AcDbLine
 10
1118.116182490168
 20
292.6773151706036
 30
0.0
 11
1118.116182490167
 21
300.5196682035883
 31
0.0
  0
LINE
  5
31833447
330
318324AF
100
AcDbEntity
  8
JISSEN
100
AcDbLine
 10
1112.498629042721
 20
300.5196682035878
 30
0.0
 11
1112.498629042723
 21
292.6773151706024
 31
0.0
  0
LINE
  5
31833448
330
318324AF
100
AcDbEntity
  8
JISSEN
100
AcDbLine
 10
1111.621365623096
 20
293.7969304128758
 30
0.0
 11
1112.498629042723
 21
295.3163952272893
 31
0.0
  0
LINE
  5
31833449
330
318324AF
100
AcDbEntity
  8
JISSEN
100
AcDbLine
 10
1129.366182490158
 20
292.6773151706056
 30
0.0
 11
1129.366182490159
 21
300.5196682035901
 31
0.0
  0
LINE
  5
3183344A
330
318324AF
100
AcDbEntity
  8
JISSEN
100
AcDbLine
 10
1145.866182490149
 20
283.6773151706053
 30
0.0
 11
1136.866182490149
 21
283.677315170607
 31
0.0
  0
LINE
  5
3183344B
330
318324AF
100
AcDbEntity
  8
JISSEN
100
AcDbLine
 10
1098.616182490166
 20
305.7696682035917
 30
0.0
 11
1098.616182490167
 21
301.1196682035814
 31
0.0
1001
ACAD
1000
ASC_BOUNDS
1002
{
1070
    19
1002
}
  0
ARC
  5
3183344C
330
318324AF
100
AcDbEntity
  8
JISSEN
100
AcDbCircle
 10
1099.216182490168
 20
301.1196682035852
 30
0.0
 40
0.6000000000000001
100
AcDbArc
 50
180.000000000013
 51
270.0000000000065
1001
ACAD
1000
ASC_BOUNDS
1002
{
1070
    19
1002
}
  0
ARC
  5
3183344D
330
318324AF
100
AcDbEntity
  8
JISSEN
100
AcDbCircle
 10
1108.593901024261
 20
295.5448379139745
 30
0.0
 40
0.6000000000000001
100
AcDbArc
 50
149.1134150964243
 51
240.0000000000083
  0
LINE
  5
3183344E
330
318324AF
100
AcDbEntity
  8
JISSEN
100
AcDbLine
 10
1101.61618249017
 20
283.6773151706008
 30
0.0
 11
1097.11618249017
 21
288.1773151705985
 31
0.0
  0
LINE
  5
3183344F
330
318324AF
100
AcDbEntity
  8
JISSEN
100
AcDbLine
 10
1097.116182490169
 20
292.6773151705985
 30
0.0
 11
1097.11618249017
 21
288.1773151705985
 31
0.0
  0
LINE
  5
31833450
330
318324AF
100
AcDbEntity
  8
JISSEN
100
AcDbLine
 10
1136.86618249016
 20
305.7696682035917
 30
0.0
 11
1093.278573440354
 21
305.7696682035912
 31
0.0
1001
ACAD
1000
ASC_BOUNDS
1002
{
1070
    19
1002
}
  0
LINE
  5
31833451
330
318324AF
100
AcDbEntity
  8
JISSEN
100
AcDbLine
 10
1097.116182490169
 20
292.6773151706001
 30
0.0
 11
1136.86618249016
 21
292.677315170607
 31
0.0
  0
LINE
  5
31833452
330
318324AF
100
AcDbEntity
  8
JISSEN
100
AcDbLine
 10
1127.866182490169
 20
283.6773151706053
 30
0.0
 11
1101.61618249017
 21
283.6773151706008
 31
0.0
  0
LINE
  5
31833453
330
318324AF
100
AcDbEntity
  8
JISSEN
100
AcDbLine
 10
1136.86618249016
 20
300.5196682035911
 30
0.0
 11
1099.216182490168
 21
300.5196682035856
 31
0.0
1001
ACAD
1000
ASC_BOUNDS
1002
{
1070
    19
1002
}
  0
LINE
  5
31833454
330
318324AF
100
AcDbEntity
  8
JISSEN
100
AcDbLine
 10
1097.11618249017
 20
288.1773151705985
 30
0.0
 11
1136.86618249016
 21
288.1773151705985
 31
0.0
  0
LINE
  5
31833455
330
318324AF
100
AcDbEntity
  8
JISSEN
100
AcDbLine
 10
1108.29390102426
 20
295.0252226717036
 30
0.0
 11
1110.801750380826
 21
293.5773151706051
 31
0.0
  0
LINE
  5
31833456
330
318324AF
100
AcDbEntity
  8
JISSEN
100
AcDbLine
 10
1110.029566009855
 20
299.1137496345888
 30
0.0
 11
1108.078989951349
 21
295.8528421136092
 31
0.0
  0
LINE
  5
31833457
330
318324AF
100
AcDbEntity
  8
JISSEN
100
AcDbLine
 10
1093.278573440354
 20
305.7696682035912
 30
0.0
 11
1079.650576564203
 21
312.1773151706093
 31
0.0
1001
ACAD
1000
ASC_BOUNDS
1002
{
1070
    19
1002
}
  0
LINE
  5
31833458
330
318324AF
100
AcDbEntity
  8
JISSEN
100
AcDbLine
 10
1165.24388149016
 20
376.4996161706095
 30
0.0
 11
1165.097696327432
 21
381.1773151706093
 31
0.0
  0
LINE
  5
31833459
330
318324AF
100
AcDbEntity
  8
JISSEN
100
AcDbLine
 10
1167.361616654254
 20
420.2818782366014
 30
0.0
 11
1168.583696425082
 21
381.1773151706089
 31
0.0
  0
LINE
  5
3183345A
330
318324AF
100
AcDbEntity
  8
JISSEN
100
AcDbLine
 10
1106.370748326064
 20
420.2818782366014
 30
0.0
 11
1105.148668555237
 21
381.1773151706089
 31
0.0
  0
LINE
  5
3183345B
330
318324AF
100
AcDbEntity
  8
JISSEN
100
AcDbLine
 10
1108.488483490159
 20
376.4996161706095
 30
0.0
 11
1108.634668652886
 21
381.1773151706093
 31
0.0
  0
LINE
  5
3183345C
330
318324AF
100
AcDbEntity
  8
JISSEN
100
AcDbLine
 10
1215.916182490158
 20
369.7773151706095
 30
0.0
 11
1136.86618249016
 21
369.7773151706095
 31
0.0
  0
LINE
  5
3183345D
330
318324AF
100
AcDbEntity
  8
JISSEN
100
AcDbLine
 10
1213.36618249016
 20
344.2773151706095
 30
0.0
 11
1136.86618249016
 21
344.2773151706095
 31
0.0
  0
LINE
  5
3183345E
330
318324AF
100
AcDbEntity
  8
JISSEN
100
AcDbLine
 10
1216.366182490159
 20
347.2773151706095
 30
0.0
 11
1139.866182490159
 21
347.2773151706095
 31
0.0
  0
LINE
  5
3183345F
330
318324AF
100
AcDbEntity
  8
JISSEN
100
AcDbLine
 10
1139.866182490159
 20
368.2773151706095
 30
0.0
 11
1216.366182490159
 21
368.2773151706095
 31
0.0
  0
LINE
  5
31833460
330
318324AF
100
AcDbEntity
  8
JISSEN
100
AcDbLine
 10
1136.86618249016
 20
305.7696682035917
 30
0.0
 11
1180.453791539965
 21
305.7696682035912
 31
0.0
1001
ACAD
1000
ASC_BOUNDS
1002
{
1070
    19
1002
}
  0
LINE
  5
31833461
330
318324AF
100
AcDbEntity
  8
JISSEN
100
AcDbLine
 10
1176.616182490149
 20
288.1773151705985
 30
0.0
 11
1136.86618249016
 21
288.1773151705985
 31
0.0
  0
LINE
  5
31833462
330
318324AF
100
AcDbEntity
  8
JISSEN
100
AcDbLine
 10
1136.86618249016
 20
300.5196682035911
 30
0.0
 11
1174.516182490152
 21
300.5196682035856
 31
0.0
1001
ACAD
1000
ASC_BOUNDS
1002
{
1070
    19
1002
}
  0
LINE
  5
31833463
330
318324AF
100
AcDbEntity
  8
JISSEN
100
AcDbLine
 10
1176.616182490151
 20
292.6773151706001
 30
0.0
 11
1136.86618249016
 21
292.677315170607
 31
0.0
  0
LINE
  5
31833464
330
318324AF
100
AcDbEntity
  8
JISSEN
100
AcDbLine
 10
1172.11618249015
 20
283.6773151706008
 30
0.0
 11
1176.616182490149
 21
288.1773151705985
 31
0.0
  0
ARC
  5
31833467
330
318324AF
100
AcDbEntity
  8
JISSEN
100
AcDbCircle
 10
1275.066715805744
 20
312.1773151706093
 30
0.0
 40
59.99999999999996
100
AcDbArc
 50
0.0
 51
90.0
  0
ARC
  5
31833468
330
318324AF
100
AcDbEntity
  8
JISSEN
100
AcDbCircle
 10
987.2891989629232
 20
312.1773151706093
 30
0.0
 40
59.99999999999996
100
AcDbArc
 50
90.0
 51
180.0
  0
LWPOLYLINE
  5
31833469
330
318324AF
100
AcDbEntity
  8
JISSEN
 62
     0
100
AcDbPolyline
 90
       43
 70
     0
 43
0.0
 10
1011.657589577336
 20
378.1773151706096
 10
1012.836050285296
 20
376.8542951918103
 10
1013.79413074551
 20
375.369064698137
 10
1014.191300891573
 20
373.8957182305398
 10
1013.90234740763
 20
372.4348216812819
 10
1013.04908413324
 20
370.9824136913618
 10
1011.815081696824
 20
369.5334010889641
 10
1010.3839107268
 20
368.0826907022723
 10
1008.93914185159
 20
366.6251893594708
 10
1007.664345699611
 20
365.1558038887429
 10
1006.743092899281
 20
363.6694411182733
 10
1006.358954079023
 20
362.1610078762456
 10
1006.635159526853
 20
360.6251280324526
 10
1007.453578169199
 20
359.0552936231254
 10
1008.635738592086
 20
357.4447137261036
 10
1010.00316938154
 20
355.7865974192271
 10
1011.377399123589
 20
354.0741537803353
 10
1012.579956404257
 20
352.3005918872685
 10
1013.432369809573
 20
350.4591208178669
 10
1013.756167925562
 20
348.5429496499697
 10
1013.431803235246
 20
346.5503806502074
 10
1012.575423809627
 20
344.5000888403758
 10
1011.362101616705
 20
342.41584243106
 10
1009.966908624482
 20
340.3214096328454
 10
1008.564916800955
 20
338.2405586563181
 10
1007.331198114125
 20
336.1970577120632
 10
1006.44082453199
 20
334.2146750106671
 10
1006.06886802255
 20
332.3171787627154
 10
1006.331476646703
 20
330.5204144419316
 10
1007.109102836931
 20
328.8085365745913
 10
1008.223275118613
 20
327.1577769501102
 10
1009.495522017137
 20
325.5443673579013
 10
1010.747372057876
 20
323.9445395873801
 10
1011.800353766215
 20
322.3345254279605
 10
1012.475995667533
 20
320.6905566690561
 10
1012.595826287214
 20
318.9888651000823
 10
1012.048655065732
 20
317.208229106734
 10
1010.992415103949
 20
315.3376134598338
 10
1009.65232041783
 20
313.3685295264862
 10
1008.25358502333
 20
311.2924886737946
 10
1007.02142293641
 20
309.1010022688627
 10
1006.181048173029
 20
306.7855816787939
 10
1006.125541937575
 20
306.1773151706097
  0
LWPOLYLINE
  5
3183346A
330
318324AF
100
AcDbEntity
  8
JISSEN
 62
     0
100
AcDbPolyline
 90
       43
 70
     0
 43
0.0
 10
1017.657589577336
 20
378.1773151706096
 10
1018.836050285298
 20
376.8542951918103
 10
1019.794130745509
 20
375.369064698137
 10
1020.191300891574
 20
373.8957182305398
 10
1019.90234740763
 20
372.4348216812819
 10
1019.049084133239
 20
370.9824136913618
 10
1017.815081696823
 20
369.5334010889641
 10
1016.3839107268
 20
368.0826907022723
 10
1014.93914185159
 20
366.6251893594708
 10
1013.664345699611
 20
365.1558038887429
 10
1012.743092899282
 20
363.6694411182733
 10
1012.358954079022
 20
362.1610078762456
 10
1012.635159526853
 20
360.6251280324526
 10
1013.453578169199
 20
359.0552936231254
 10
1014.635738592086
 20
357.4447137261036
 10
1016.003169381541
 20
355.7865974192271
 10
1017.377399123589
 20
354.0741537803353
 10
1018.579956404257
 20
352.3005918872685
 10
1019.432369809573
 20
350.4591208178669
 10
1019.756167925562
 20
348.5429496499697
 10
1019.431803235246
 20
346.5503806502074
 10
1018.575423809627
 20
344.5000888403758
 10
1017.362101616705
 20
342.41584243106
 10
1015.966908624482
 20
340.3214096328454
 10
1014.564916800955
 20
338.2405586563181
 10
1013.331198114125
 20
336.1970577120632
 10
1012.44082453199
 20
334.2146750106671
 10
1012.06886802255
 20
332.3171787627154
 10
1012.331476646703
 20
330.5204144419316
 10
1013.109102836931
 20
328.8085365745913
 10
1014.223275118614
 20
327.1577769501102
 10
1015.495522017137
 20
325.5443673579013
 10
1016.747372057876
 20
323.9445395873801
 10
1017.800353766215
 20
322.3345254279605
 10
1018.475995667533
 20
320.6905566690561
 10
1018.595826287214
 20
318.9888651000823
 10
1018.048655065731
 20
317.208229106734
 10
1016.99241510395
 20
315.3376134598338
 10
1015.65232041783
 20
313.3685295264862
 10
1014.25358502333
 20
311.2924886737946
 10
1013.021422936409
 20
309.1010022688627
 10
1012.181048173029
 20
306.7855816787939
 10
1012.125541937575
 20
306.1773151706097
  0
LWPOLYLINE
  5
3183346B
330
318324AF
100
AcDbEntity
  8
JISSEN
 62
     0
100
AcDbPolyline
 90
       43
 70
     0
 43
0.0
 10
1256.444025979851
 20
378.1773151706096
 10
1257.622486687812
 20
376.8542951918103
 10
1258.580567148025
 20
375.369064698137
 10
1258.977737294089
 20
373.8957182305398
 10
1258.688783810146
 20
372.4348216812819
 10
1257.835520535754
 20
370.9824136913618
 10
1256.601518099339
 20
369.5334010889641
 10
1255.170347129316
 20
368.0826907022723
 10
1253.725578254105
 20
366.6251893594708
 10
1252.450782102126
 20
365.1558038887429
 10
1251.529529301797
 20
363.6694411182733
 10
1251.145390481538
 20
362.1610078762456
 10
1251.421595929367
 20
360.6251280324526
 10
1252.240014571714
 20
359.0552936231254
 10
1253.422174994601
 20
357.4447137261036
 10
1254.789605784056
 20
355.7865974192271
 10
1256.163835526105
 20
354.0741537803353
 10
1257.366392806773
 20
352.3005918872685
 10
1258.21880621209
 20
350.4591208178669
 10
1258.542604328078
 20
348.5429496499697
 10
1258.218239637761
 20
346.5503806502074
 10
1257.361860212142
 20
344.5000888403758
 10
1256.14853801922
 20
342.41584243106
 10
1254.753345026998
 20
340.3214096328454
 10
1253.351353203471
 20
338.2405586563181
 10
1252.117634516641
 20
336.1970577120632
 10
1251.227260934506
 20
334.2146750106671
 10
1250.855304425066
 20
332.3171787627154
 10
1251.117913049218
 20
330.5204144419316
 10
1251.895539239447
 20
328.8085365745913
 10
1253.009711521129
 20
327.1577769501102
 10
1254.281958419652
 20
325.5443673579013
 10
1255.53380846039
 20
323.9445395873801
 10
1256.58679016873
 20
322.3345254279605
 10
1257.262432070048
 20
320.6905566690561
 10
1257.382262689729
 20
318.9888651000823
 10
1256.835091468247
 20
317.208229106734
 10
1255.778851506466
 20
315.3376134598338
 10
1254.438756820346
 20
313.3685295264862
 10
1253.040021425846
 20
311.2924886737946
 10
1251.807859338926
 20
309.1010022688627
 10
1250.967484575544
 20
306.7855816787939
 10
1250.91197834009
 20
306.1773151706097
  0
LWPOLYLINE
  5
3183346C
330
318324AF
100
AcDbEntity
  8
JISSEN
 62
     0
100
AcDbPolyline
 90
       43
 70
     0
 43
0.0
 10
1250.444025979851
 20
378.1773151706096
 10
1251.622486687812
 20
376.8542951918103
 10
1252.580567148025
 20
375.369064698137
 10
1252.977737294089
 20
373.8957182305398
 10
1252.688783810146
 20
372.4348216812819
 10
1251.835520535755
 20
370.9824136913618
 10
1250.601518099339
 20
369.5334010889641
 10
1249.170347129316
 20
368.0826907022723
 10
1247.725578254105
 20
366.6251893594708
 10
1246.450782102126
 20
365.1558038887429
 10
1245.529529301797
 20
363.6694411182733
 10
1245.145390481538
 20
362.1610078762456
 10
1245.421595929367
 20
360.6251280324526
 10
1246.240014571714
 20
359.0552936231254
 10
1247.422174994601
 20
357.4447137261036
 10
1248.789605784056
 20
355.7865974192271
 10
1250.163835526105
 20
354.0741537803353
 10
1251.366392806774
 20
352.3005918872685
 10
1252.21880621209
 20
350.4591208178669
 10
1252.542604328078
 20
348.5429496499697
 10
1252.218239637761
 20
346.5503806502074
 10
1251.361860212142
 20
344.5000888403758
 10
1250.14853801922
 20
342.41584243106
 10
1248.753345026998
 20
340.3214096328454
 10
1247.351353203471
 20
338.2405586563181
 10
1246.11763451664
 20
336.1970577120632
 10
1245.227260934504
 20
334.2146750106671
 10
1244.855304425066
 20
332.3171787627154
 10
1245.117913049218
 20
330.5204144419316
 10
1245.895539239445
 20
328.8085365745913
 10
1247.009711521129
 20
327.1577769501102
 10
1248.281958419652
 20
325.5443673579013
 10
1249.533808460391
 20
323.9445395873801
 10
1250.586790168731
 20
322.3345254279605
 10
1251.262432070048
 20
320.6905566690561
 10
1251.382262689729
 20
318.9888651000823
 10
1250.835091468247
 20
317.208229106734
 10
1249.778851506466
 20
315.3376134598338
 10
1248.438756820346
 20
313.3685295264862
 10
1247.040021425846
 20
311.2924886737946
 10
1245.807859338926
 20
309.1010022688627
 10
1244.967484575544
 20
306.7855816787939
 10
1244.911978340089
 20
306.1773151706097
  0
LINE
  5
3183346F
330
318324AF
100
AcDbEntity
  8
JISSEN
100
AcDbLine
 10
1014.849738098778
 20
312.1773151706093
 30
0.0
 11
1079.650576564203
 21
312.1773151706093
 31
0.0
  0
LINE
  5
31833470
102
{ACAD_REACTORS
330
31833596
102
}
330
318324AF
100
AcDbEntity
  8
JISSEN
100
AcDbLine
 10
1019.751067016722
 20
372.1773151706093
 30
0.0
 11
1252.537503419237
 21
372.1773151706093
 31
0.0
  0
LINE
  5
31833472
330
318324AF
100
AcDbEntity
  8
JISSEN
100
AcDbLine
 10
689.0119212999998
 20
237.7455063525228
 30
0.0
 11
678.7499972999999
 21
237.7455063525228
 31
0.0
  0
LINE
  5
31833473
330
318324AF
100
AcDbEntity
  8
JISSEN
100
AcDbLine
 10
669.7499972999999
 20
239.0074313525229
 30
0.0
 11
678.7499972999999
 21
239.0074313525228
 31
0.0
  0
LINE
  5
31833474
330
318324AF
100
AcDbEntity
  8
JISSEN
100
AcDbLine
 10
689.0119212999998
 20
237.7455063525228
 30
0.0
 11
687.7499972999998
 21
239.0074313525229
 31
0.0
  0
LINE
  5
31833475
330
318324AF
100
AcDbEntity
  8
JISSEN
100
AcDbLine
 10
693.2792003166017
 20
199.6715490301796
 30
0.0
 11
701.8046029258393
 21
203.6800449718901
 31
0.0
1001
ACAD
1000
ASC_BOUNDS
1002
{
1070
    19
1002
}
  0
LINE
  5
31833476
330
318324AF
100
AcDbEntity
  8
JISSEN
100
AcDbLine
 10
691.9999972999971
 20
195.3074313525154
 30
0.0
 11
691.9999972999968
 21
193.8074313525154
 31
0.0
  0
LINE
  5
31833477
330
318324AF
100
AcDbEntity
  8
JISSEN
100
AcDbLine
 10
691.4999972999977
 20
199.6715490301799
 30
0.0
 11
691.4999972999975
 21
198.1215490301764
 31
0.0
1001
ACAD
1000
ASC_BOUNDS
1002
{
1070
    19
1002
}
  0
ARC
  5
31833478
330
318324AF
100
AcDbEntity
  8
JISSEN
100
AcDbCircle
 10
691.2999972999974
 20
198.1215490301776
 30
0.0
 40
0.2
100
AcDbArc
 50
269.9999999999934
 51
359.9999999999868
1001
ACAD
1000
ASC_BOUNDS
1002
{
1070
    19
1002
}
  0
LINE
  5
31833479
330
318324AF
100
AcDbEntity
  8
JISSEN
100
AcDbLine
 10
703.3499972999997
 20
212.5074313525191
 30
0.0
 11
703.2187642999997
 21
211.0074313525191
 31
0.0
  0
LINE
  5
3183347A
330
318324AF
100
AcDbEntity
  8
JISSEN
100
AcDbLine
 10
701.5963242999998
 20
204.0037893525191
 30
0.0
 11
700.1294263000001
 21
203.3251973525191
 31
0.0
  0
ARC
  5
3183347B
330
318324AF
100
AcDbEntity
  8
JISSEN
100
AcDbCircle
 10
700.5809522999998
 20
205.2074283525191
 30
0.0
 40
1.3
100
AcDbArc
 50
294.8254050000008
 51
353.8576429999971
  0
LINE
  5
3183347C
330
318324AF
100
AcDbEntity
  8
JISSEN
100
AcDbLine
 10
698.6558062999996
 20
204.5849813525191
 30
0.0
 11
699.2239142999997
 21
210.8255633525192
 31
0.0
  0
LINE
  5
3183347D
330
318324AF
100
AcDbEntity
  8
JISSEN
100
AcDbLine
 10
695.2518742999998
 20
204.8808763525191
 30
0.0
 11
695.6559082999997
 21
210.6329063525191
 31
0.0
  0
LINE
  5
3183347E
330
318324AF
100
AcDbEntity
  8
JISSEN
100
AcDbLine
 10
699.6607382999997
 20
210.7898643525191
 30
0.0
 11
699.1299842999997
 21
204.7704143525192
 31
0.0
  0
LINE
  5
3183347F
330
318324AF
100
AcDbEntity
  8
JISSEN
100
AcDbLine
 10
700.7231592999999
 20
210.5697443525193
 30
0.0
 11
700.1974572999999
 21
205.0147983525191
 31
0.0
  0
LINE
  5
31833480
330
318324AF
100
AcDbEntity
  8
JISSEN
100
AcDbLine
 10
693.3710182999998
 20
210.8214453525191
 30
0.0
 11
692.9272112999997
 21
204.5031793525192
 31
0.0
  0
LINE
  5
31833481
330
318324AF
100
AcDbEntity
  8
JISSEN
100
AcDbLine
 10
694.8562373000002
 20
210.6878393525192
 30
0.0
 11
694.4635942999998
 21
204.6882083525191
 31
0.0
  0
LINE
  5
31833482
330
318324AF
100
AcDbEntity
  8
JISSEN
100
AcDbLine
 10
691.8276323000001
 20
203.2105523525191
 30
0.0
 11
693.5432652999998
 21
203.2105523525191
 31
0.0
  0
LINE
  5
31833483
330
318324AF
100
AcDbEntity
  8
JISSEN
100
AcDbLine
 10
692.7594912999998
 20
204.2048613525191
 30
0.0
 11
691.7408962999997
 21
203.4829323525193
 31
0.0
  0
ARC
  5
31833484
330
318324AF
100
AcDbEntity
  8
JISSEN
100
AcDbCircle
 10
691.8276323000001
 20
203.3605523525191
 30
0.0
 40
0.15
100
AcDbArc
 50
125.3270679999975
 51
270.0
  0
ARC
  5
31833485
330
318324AF
100
AcDbEntity
  8
JISSEN
100
AcDbCircle
 10
694.0644482999998
 20
204.7143303525191
 30
0.0
 40
0.4
100
AcDbArc
 50
270.0
 51
356.2556380000005
  0
ARC
  5
31833486
330
318324AF
100
AcDbEntity
  8
JISSEN
100
AcDbCircle
 10
693.5432652999998
 20
203.5605523525192
 30
0.0
 40
0.35
100
AcDbArc
 50
270.0
 51
305.3270679999976
  0
ARC
  5
31833487
330
318324AF
100
AcDbEntity
  8
JISSEN
100
AcDbCircle
 10
692.5281943000001
 20
204.5312073525191
 30
0.0
 40
0.4
100
AcDbArc
 50
305.3270679999976
 51
355.9820309999973
  0
LINE
  5
31833488
330
318324AF
100
AcDbEntity
  8
JISSEN
100
AcDbLine
 10
693.7456502999999
 20
203.2750003525191
 30
0.0
 11
694.7487162999998
 21
203.9859223525192
 31
0.0
  0
LINE
  5
31833489
330
318324AF
100
AcDbEntity
  8
JISSEN
100
AcDbLine
 10
694.0644482999998
 20
204.3143303525193
 30
0.0
 11
692.8642962999997
 21
204.3143303525193
 31
0.0
  0
ARC
  5
3183348A
330
318324AF
100
AcDbEntity
  8
JISSEN
100
AcDbCircle
 10
694.0548242999998
 20
204.9649593525193
 30
0.0
 40
1.199999999999999
100
AcDbArc
 50
305.3270679999976
 51
355.9820309999973
  0
ARC
  5
3183348B
330
318324AF
100
AcDbEntity
  8
JISSEN
100
AcDbCircle
 10
698.6319162999998
 20
204.8143303525193
 30
0.0
 40
0.5
100
AcDbArc
 50
260.6504450000021
 51
354.9610730000022
  0
ARC
  5
3183348C
330
318324AF
100
AcDbEntity
  8
JISSEN
100
AcDbCircle
 10
698.1578653
 20
204.6303113525193
 30
0.0
 40
0.5
100
AcDbArc
 50
297.7467380000011
 51
354.7984409999991
  0
ARC
  5
3183348D
330
318324AF
100
AcDbEntity
  8
JISSEN
100
AcDbCircle
 10
699.6358962999996
 20
203.2827893525191
 30
0.0
 40
0.05
100
AcDbArc
 50
114.8254050000008
 51
270.0
  0
LINE
  5
3183348E
330
318324AF
100
AcDbEntity
  8
JISSEN
100
AcDbLine
 10
699.7095713
 20
203.2327893525192
 30
0.0
 11
699.6358962999996
 21
203.2327893525192
 31
0.0
  0
ARC
  5
3183348F
330
318324AF
100
AcDbEntity
  8
JISSEN
100
AcDbCircle
 10
699.7095713
 20
204.2327893525192
 30
0.0
 40
1.0
100
AcDbArc
 50
270.0
 51
294.8254050000008
  0
ARC
  5
31833490
330
318324AF
100
AcDbEntity
  8
JISSEN
100
AcDbCircle
 10
698.9032403
 20
205.1372793525191
 30
0.0
 40
1.3
100
AcDbArc
 50
297.7467380000011
 51
354.5938150000003
  0
LINE
  5
31833491
330
318324AF
100
AcDbEntity
  8
JISSEN
100
AcDbLine
 10
699.6149042999998
 20
203.3281683525191
 30
0.0
 11
701.1267632999999
 21
204.0275593525191
 31
0.0
  0
LINE
  5
31833492
330
318324AF
100
AcDbEntity
  8
JISSEN
100
AcDbLine
 10
697.9341482999998
 20
203.2105523525191
 30
0.0
 11
696.9378293000001
 21
203.2105523525191
 31
0.0
  0
ARC
  5
31833493
330
318324AF
100
AcDbEntity
  8
JISSEN
100
AcDbCircle
 10
697.9341482999998
 20
203.6105523525193
 30
0.0
 40
0.4
100
AcDbArc
 50
270.0
 51
297.7467380000011
  0
ARC
  5
31833494
330
318324AF
100
AcDbEntity
  8
JISSEN
100
AcDbCircle
 10
696.9378293000001
 20
203.3105523525192
 30
0.0
 40
0.1
100
AcDbArc
 50
117.7467380000011
 51
270.0
  0
LINE
  5
31833495
330
318324AF
100
AcDbEntity
  8
JISSEN
100
AcDbLine
 10
699.5084732999998
 20
203.986760352519
 30
0.0
 11
698.1203743
 21
203.2565473525191
 31
0.0
  0
LINE
  5
31833496
330
318324AF
100
AcDbEntity
  8
JISSEN
100
AcDbLine
 10
696.8912722999998
 20
203.3990543525191
 30
0.0
 11
698.3906472999997
 21
204.1878043525192
 31
0.0
  0
ARC
  5
31833497
330
318324AF
100
AcDbEntity
  8
JISSEN
100
AcDbCircle
 10
695.3067692999998
 20
210.6574313525191
 30
0.0
 40
0.35
100
AcDbArc
 50
355.9820309999973
 51
90.0
  0
ARC
  5
31833498
330
318324AF
100
AcDbEntity
  8
JISSEN
100
AcDbCircle
 10
693.5705272999999
 20
210.8074313525191
 30
0.0
 40
0.2
100
AcDbArc
 50
90.0
 51
175.9820309999974
  0
LINE
  5
31833499
330
318324AF
100
AcDbEntity
  8
JISSEN
100
AcDbLine
 10
694.5568782999998
 20
211.0074313525191
 30
0.0
 11
693.5705272999999
 21
211.0074313525191
 31
0.0
  0
LINE
  5
3183349A
330
318324AF
100
AcDbEntity
  8
JISSEN
100
AcDbLine
 10
695.3067692999998
 20
211.0074313525191
 30
0.0
 11
694.5568782999998
 21
211.0074313525191
 31
0.0
  0
ARC
  5
3183349B
330
318324AF
100
AcDbEntity
  8
JISSEN
100
AcDbCircle
 10
694.5568782999998
 20
210.7074313525191
 30
0.0
 40
0.3
100
AcDbArc
 50
356.2556380000005
 51
90.0
  0
ARC
  5
3183349C
330
318324AF
100
AcDbEntity
  8
JISSEN
100
AcDbCircle
 10
699.4615113
 20
210.8074313525191
 30
0.0
 40
0.2
100
AcDbArc
 50
354.9610730000022
 51
90.0
  0
ARC
  5
3183349D
330
318324AF
100
AcDbEntity
  8
JISSEN
100
AcDbCircle
 10
700.3249382999999
 20
210.6074313525193
 30
0.0
 40
0.4
100
AcDbArc
 50
354.5938150000003
 51
90.0
  0
LINE
  5
3183349E
330
318324AF
100
AcDbEntity
  8
JISSEN
100
AcDbLine
 10
699.4230912999999
 20
211.0074313525191
 30
0.0
 11
700.3249382999999
 21
211.0074313525191
 31
0.0
  0
ARC
  5
3183349F
330
318324AF
100
AcDbEntity
  8
JISSEN
100
AcDbCircle
 10
699.4230912999999
 20
210.8074313525191
 30
0.0
 40
0.2
100
AcDbArc
 50
90.0
 51
174.7984409999991
  0
LINE
  5
318334A0
330
318324AF
100
AcDbEntity
  8
JISSEN
100
AcDbLine
 10
702.9883212999997
 20
210.5868673525191
 30
0.0
 11
702.4004912999998
 21
205.1246183525191
 31
0.0
  0
LINE
  5
318334A1
330
318324AF
100
AcDbEntity
  8
JISSEN
100
AcDbLine
 10
703.2187642999997
 20
211.0074313525191
 30
0.0
 11
702.6984103000001
 21
205.0597543525193
 31
0.0
  0
LINE
  5
318334A2
330
318324AF
100
AcDbEntity
  8
JISSEN
100
AcDbLine
 10
701.8734882999997
 20
205.0683293525191
 30
0.0
 11
702.5054192999999
 21
210.9403673525191
 31
0.0
  0
ARC
  5
318334A3
330
318324AF
100
AcDbEntity
  8
JISSEN
100
AcDbCircle
 10
701.2041179704628
 20
205.0546059266558
 30
0.0
 40
1.5
100
AcDbArc
 50
290.0000000000037
 51
354.9999999999998
  0
ARC
  5
318334A4
330
318324AF
100
AcDbEntity
  8
JISSEN
100
AcDbCircle
 10
701.0085282999998
 20
205.2744173525191
 30
0.0
 40
1.399999999999999
100
AcDbArc
 50
294.8254050000008
 51
353.8576429999971
  0
ARC
  5
318334A5
330
318324AF
100
AcDbEntity
  8
JISSEN
100
AcDbCircle
 10
702.6048452999998
 20
210.9296673525193
 30
0.0
 40
0.1
100
AcDbArc
 50
92.71790199999987
 51
173.8576429999973
  0
ARC
  5
318334A6
330
318324AF
100
AcDbEntity
  8
JISSEN
100
AcDbCircle
 10
702.5906182999997
 20
210.6296673525192
 30
0.0
 40
0.4
100
AcDbArc
 50
353.8576429999971
 51
88.64114499999931
  0
LINE
  5
318334A7
330
318324AF
100
AcDbEntity
  8
JISSEN
100
AcDbLine
 10
705.2499972999998
 20
220.8574313525193
 30
0.0
 11
705.2499972999998
 21
213.5074313525191
 31
0.0
  0
LINE
  5
318334A8
330
318324AF
100
AcDbEntity
  8
JISSEN
100
AcDbLine
 10
704.2499972999998
 20
212.5074313525191
 30
0.0
 11
703.3499972999997
 21
212.5074313525191
 31
0.0
  0
LINE
  5
318334A9
330
318324AF
100
AcDbEntity
  8
JISSEN
100
AcDbLine
 10
705.2499972999998
 20
213.5074313525191
 30
0.0
 11
704.2499972999998
 21
212.5074313525191
 31
0.0
  0
LINE
  5
318334AA
330
318324AF
100
AcDbEntity
  8
JISSEN
100
AcDbLine
 10
705.2499972999998
 20
220.8574313525193
 30
0.0
 11
705.0999972999997
 21
221.0074313525191
 31
0.0
  0
ARC
  5
318334AB
330
318324AF
100
AcDbEntity
  8
JISSEN
100
AcDbCircle
 10
498.7499973
 20
201.8074313525191
 30
0.0
 40
19.99999999999998
100
AcDbArc
 50
90.0
 51
180.0
  0
ARC
  5
318334AC
330
318324AF
100
AcDbEntity
  8
JISSEN
100
AcDbCircle
 10
858.7499972999998
 20
201.8074313525191
 30
0.0
 40
19.99999999999998
100
AcDbArc
 50
0.0
 51
90.0
  0
LINE
  5
318334AD
330
318324AF
100
AcDbEntity
  8
JISSEN
100
AcDbLine
 10
478.7499973
 20
201.8074313525191
 30
0.0
 11
878.7499972999999
 21
201.8074313525191
 31
0.0
  0
LINE
  5
318334AE
102
{ACAD_REACTORS
330
3183356C
102
}
330
318324AF
100
AcDbEntity
  8
JISSEN
100
AcDbLine
 10
498.7499973
 20
221.8074313525191
 30
0.0
 11
858.7499972999998
 21
221.8074313525191
 31
0.0
  0
LINE
  5
318334AF
330
318324AF
100
AcDbEntity
  8
JISSEN
100
AcDbLine
 10
690.4999972999968
 20
192.3074313525161
 30
0.0
 11
691.9999972999968
 21
193.8074313525154
 31
0.0
  0
LINE
  5
318334B0
330
318324AF
100
AcDbEntity
  8
JISSEN
100
AcDbLine
 10
691.9999972999971
 20
195.3074313525159
 30
0.0
 11
678.7499972999999
 21
195.3074313525183
 31
0.0
  0
LINE
  5
318334B1
330
318324AF
100
AcDbEntity
  8
JISSEN
100
AcDbLine
 10
678.7499972999999
 20
197.9215490301796
 30
0.0
 11
691.2999972999974
 21
197.9215490301779
 31
0.0
1001
ACAD
1000
ASC_BOUNDS
1002
{
1070
    19
1002
}
  0
LINE
  5
318334B2
330
318324AF
100
AcDbEntity
  8
JISSEN
100
AcDbLine
 10
691.9999972999968
 20
193.8074313525154
 30
0.0
 11
678.7499972999999
 21
193.8074313525154
 31
0.0
  0
LINE
  5
318334B3
330
318324AF
100
AcDbEntity
  8
JISSEN
100
AcDbLine
 10
678.7499972999999
 20
199.6715490301799
 30
0.0
 11
693.2792003166017
 21
199.6715490301796
 31
0.0
1001
ACAD
1000
ASC_BOUNDS
1002
{
1070
    19
1002
}
  0
LINE
  5
318334B4
330
318324AF
100
AcDbEntity
  8
JISSEN
100
AcDbLine
 10
679.7499972999998
 20
220.5074313525191
 30
0.0
 11
705.2499972999998
 21
220.5074313525191
 31
0.0
  0
LINE
  5
318334B5
330
318324AF
100
AcDbEntity
  8
JISSEN
100
AcDbLine
 10
705.2499972999998
 20
213.5074313525191
 30
0.0
 11
679.7499972999998
 21
213.5074313525191
 31
0.0
  0
LINE
  5
318334B6
330
318324AF
100
AcDbEntity
  8
JISSEN
100
AcDbLine
 10
704.2499972999998
 20
212.5074313525191
 30
0.0
 11
678.7499972999999
 21
212.5074313525191
 31
0.0
  0
LINE
  5
318334B7
330
318324AF
100
AcDbEntity
  8
JISSEN
100
AcDbLine
 10
705.0999972999997
 20
221.0074313525191
 30
0.0
 11
678.7499972999999
 21
221.0074313525191
 31
0.0
  0
LINE
  5
318334B8
330
318324AF
100
AcDbEntity
  8
SAISEN
100
AcDbLine
 10
669.2907642999998
 20
223.2481983525191
 30
0.0
 11
669.7832641467331
 21
239.0074313525228
 31
0.0
  0
LINE
  5
318334B9
330
318324AF
100
AcDbEntity
  8
JISSEN
100
AcDbLine
 10
668.5848525786351
 20
237.8422857078497
 30
0.0
 11
668.0912783
 21
222.0487123525191
 31
0.0
  0
LINE
  5
318334BA
330
318324AF
100
AcDbEntity
  8
JISSEN
100
AcDbLine
 10
688.9151420213647
 20
237.8422857078497
 30
0.0
 11
689.4087162999999
 21
222.0487123525191
 31
0.0
  0
LINE
  5
318334BB
330
318324AF
100
AcDbEntity
  8
SAISEN
100
AcDbLine
 10
688.2092302999999
 20
223.2481983525191
 30
0.0
 11
687.7167304532665
 21
239.0074313525228
 31
0.0
  0
LINE
  5
318334BC
330
318324AF
100
AcDbEntity
  8
JISSEN
100
AcDbLine
 10
664.2207942833983
 20
199.6715490301796
 30
0.0
 11
655.6953916741605
 21
203.6800449718901
 31
0.0
1001
ACAD
1000
ASC_BOUNDS
1002
{
1070
    19
1002
}
  0
LINE
  5
318334BD
330
318324AF
100
AcDbEntity
  8
JISSEN
100
AcDbLine
 10
669.8044584732316
 20
197.4529095071789
 30
0.0
 11
669.1542664537299
 21
196.3659403335189
 31
0.0
  0
LINE
  5
318334BE
330
318324AF
100
AcDbEntity
  8
JISSEN
100
AcDbLine
 10
669.2259034780339
 20
196.0900671862171
 30
0.0
 11
670.0618532635553
 21
195.6074313525176
 31
0.0
  0
LINE
  5
318334BF
330
318324AF
100
AcDbEntity
  8
JISSEN
100
AcDbLine
 10
665.4999973000033
 20
193.8074313525154
 30
0.0
 11
678.7499972999999
 21
193.8074313525154
 31
0.0
  0
LINE
  5
318334C0
330
318324AF
100
AcDbEntity
  8
JISSEN
100
AcDbLine
 10
678.7499972999999
 20
197.9215490301796
 30
0.0
 11
666.1999973000026
 21
197.9215490301779
 31
0.0
1001
ACAD
1000
ASC_BOUNDS
1002
{
1070
    19
1002
}
  0
LINE
  5
318334C1
330
318324AF
100
AcDbEntity
  8
JISSEN
100
AcDbLine
 10
675.7499973000038
 20
192.3074313525177
 30
0.0
 11
666.9999973000033
 21
192.3074313525161
 31
0.0
  0
LINE
  5
318334C2
330
318324AF
100
AcDbEntity
  8
JISSEN
100
AcDbLine
 10
665.499997300003
 20
195.3074313525159
 30
0.0
 11
678.7499972999999
 21
195.3074313525183
 31
0.0
  0
LINE
  5
318334C3
330
318324AF
100
AcDbEntity
  8
JISSEN
100
AcDbLine
 10
678.7499972999999
 20
199.6715490301799
 30
0.0
 11
664.2207942833983
 21
199.6715490301796
 31
0.0
1001
ACAD
1000
ASC_BOUNDS
1002
{
1070
    19
1002
}
  0
LINE
  5
318334C4
330
318324AF
100
AcDbEntity
  8
JISSEN
100
AcDbLine
 10
665.499997300003
 20
195.3074313525154
 30
0.0
 11
665.4999973000033
 21
193.8074313525154
 31
0.0
  0
LINE
  5
318334C5
330
318324AF
100
AcDbEntity
  8
JISSEN
100
AcDbLine
 10
666.9999973000033
 20
192.3074313525161
 30
0.0
 11
665.4999973000033
 21
193.8074313525154
 31
0.0
  0
ARC
  5
318334C6
330
318324AF
100
AcDbEntity
  8
JISSEN
100
AcDbCircle
 10
669.3259034780339
 20
196.2632722669741
 30
0.0
 40
0.2
100
AcDbArc
 50
149.1134150964243
 51
240.0000000000083
  0
ARC
  5
318334C7
330
318324AF
100
AcDbEntity
  8
JISSEN
100
AcDbCircle
 10
666.1999973000026
 20
198.1215490301776
 30
0.0
 40
0.2
100
AcDbArc
 50
180.000000000013
 51
270.0000000000065
1001
ACAD
1000
ASC_BOUNDS
1002
{
1070
    19
1002
}
  0
LINE
  5
318334C8
330
318324AF
100
AcDbEntity
  8
JISSEN
100
AcDbLine
 10
665.9999973000021
 20
199.6715490301799
 30
0.0
 11
665.9999973000027
 21
198.1215490301764
 31
0.0
1001
ACAD
1000
ASC_BOUNDS
1002
{
1070
    19
1002
}
  0
LINE
  5
318334C9
330
318324AF
100
AcDbEntity
  8
JISSEN
100
AcDbLine
 10
681.7499972999963
 20
192.3074313525177
 30
0.0
 11
678.7499972999962
 21
192.3074313525183
 31
0.0
  0
LINE
  5
318334CA
330
318324AF
100
AcDbEntity
  8
JISSEN
100
AcDbLine
 10
676.2499972999998
 20
195.3074313525178
 30
0.0
 11
676.2499973000002
 21
197.9215490301793
 31
0.0
  0
LINE
  5
318334CB
330
318324AF
100
AcDbEntity
  8
JISSEN
100
AcDbLine
 10
670.3350583443126
 20
195.6806364332745
 30
0.0
 11
670.6274794841874
 21
196.1871247047458
 31
0.0
  0
LINE
  5
318334CC
330
318324AF
100
AcDbEntity
  8
JISSEN
100
AcDbLine
 10
670.6274794841872
 20
197.9215490301784
 30
0.0
 11
670.6274794841878
 21
195.3074313525168
 31
0.0
  0
LINE
  5
318334CD
330
318324AF
100
AcDbEntity
  8
JISSEN
100
AcDbLine
 10
672.4999973000032
 20
195.3074313525172
 30
0.0
 11
672.4999973000027
 21
197.9215490301788
 31
0.0
  0
ARC
  5
318334CE
330
318324AF
100
AcDbEntity
  8
JISSEN
100
AcDbCircle
 10
670.1618532635554
 20
195.7806364332745
 30
0.0
 40
0.2
100
AcDbArc
 50
240.0000000000083
 51
330.0000000000082
  0
LINE
  5
318334CF
330
318324AF
100
AcDbEntity
  8
JISSEN
100
AcDbLine
 10
675.7499973000038
 20
192.3074313525177
 30
0.0
 11
678.7499973000036
 21
192.3074313525183
 31
0.0
  0
LINE
  5
318334D0
330
318324AF
100
AcDbEntity
  8
JISSEN
100
AcDbLine
 10
672.4999973000027
 20
196.4537710257794
 30
0.0
 11
676.2499972999998
 21
196.725967221823
 31
0.0
  0
ARC
  5
318334D1
330
318324AF
100
AcDbEntity
  8
JISSEN
100
AcDbCircle
 10
670.6626435947491
 20
196.9395691744561
 30
0.0
 40
1.0
100
AcDbArc
 50
100.8935918178694
 51
149.1134150964153
  0
LINE
  5
318334D2
330
318324AF
100
AcDbEntity
  8
JISSEN
100
AcDbLine
 10
681.2499972999999
 20
195.3074313525178
 30
0.0
 11
681.2499972999999
 21
197.9215490301793
 31
0.0
  0
LINE
  5
318334D3
330
318324AF
100
AcDbEntity
  8
JISSEN
100
AcDbLine
 10
687.1649362556877
 20
195.6806364332745
 30
0.0
 11
686.8725151158123
 21
196.1871247047458
 31
0.0
  0
LINE
  5
318334D4
330
318324AF
100
AcDbEntity
  8
JISSEN
100
AcDbLine
 10
684.999997299997
 20
195.3074313525172
 30
0.0
 11
684.9999972999977
 21
197.9215490301788
 31
0.0
  0
LINE
  5
318334D5
330
318324AF
100
AcDbEntity
  8
JISSEN
100
AcDbLine
 10
686.8725151158129
 20
197.9215490301784
 30
0.0
 11
686.8725151158123
 21
195.3074313525168
 31
0.0
  0
LINE
  5
318334D6
330
318324AF
100
AcDbEntity
  8
JISSEN
100
AcDbLine
 10
688.2740911219662
 20
196.0900671862171
 30
0.0
 11
687.4381413364446
 21
195.6074313525176
 31
0.0
  0
LINE
  5
318334D7
330
318324AF
100
AcDbEntity
  8
JISSEN
100
AcDbLine
 10
681.7499972999963
 20
192.3074313525177
 30
0.0
 11
690.4999972999968
 21
192.3074313525161
 31
0.0
  0
ARC
  5
318334D8
330
318324AF
100
AcDbEntity
  8
JISSEN
100
AcDbCircle
 10
687.3381413364445
 20
195.7806364332745
 30
0.0
 40
0.2
100
AcDbArc
 50
209.9999999999916
 51
299.9999999999916
  0
LINE
  5
318334D9
330
318324AF
100
AcDbEntity
  8
JISSEN
100
AcDbLine
 10
684.9999972999973
 20
196.4537710257794
 30
0.0
 11
681.2499972999999
 21
196.725967221823
 31
0.0
  0
ARC
  5
318334DA
330
318324AF
100
AcDbEntity
  8
JISSEN
100
AcDbCircle
 10
688.1740911219663
 20
196.2632722669741
 30
0.0
 40
0.2
100
AcDbArc
 50
299.9999999999916
 51
30.88658490357568
  0
ARC
  5
318334DB
330
318324AF
100
AcDbEntity
  8
JISSEN
100
AcDbCircle
 10
686.8373510052507
 20
196.9395691744561
 30
0.0
 40
1.0
100
AcDbArc
 50
30.88658490358461
 51
79.10640818213057
  0
LINE
  5
318334DC
330
318324AF
100
AcDbEntity
  8
JISSEN
100
AcDbLine
 10
687.6955361267682
 20
197.4529095071789
 30
0.0
 11
688.3457281462702
 21
196.3659403335189
 31
0.0
  0
ARC
  5
318334DD
330
318324AF
100
AcDbEntity
  8
JISSEN
100
AcDbCircle
 10
669.6296402999998
 20
210.7574313525191
 30
0.0
 40
0.25
100
AcDbArc
 50
90.0
 51
181.9943680000009
  0
LINE
  5
318334DE
330
318324AF
100
AcDbEntity
  8
JISSEN
100
AcDbLine
 10
671.5688313000002
 20
211.0074313525191
 30
0.0
 11
669.2538403
 21
211.0074313525191
 31
0.0
  0
ARC
  5
318334DF
330
318324AF
100
AcDbEntity
  8
JISSEN
100
AcDbCircle
 10
670.1801863000001
 20
204.6644273525191
 30
0.0
 40
1.0
100
AcDbArc
 50
182.1404320000006
 51
216.8971619999968
  0
LINE
  5
318334E0
330
318324AF
100
AcDbEntity
  8
JISSEN
100
AcDbLine
 10
652.3999973000001
 20
221.0074313525191
 30
0.0
 11
678.7499972999999
 21
221.0074313525191
 31
0.0
  0
LINE
  5
318334E1
330
318324AF
100
AcDbEntity
  8
JISSEN
100
AcDbLine
 10
653.2499972999999
 20
212.5074313525191
 30
0.0
 11
678.7499972999999
 21
212.5074313525191
 31
0.0
  0
LINE
  5
318334E2
330
318324AF
100
AcDbEntity
  8
JISSEN
100
AcDbLine
 10
652.2499972999999
 20
213.5074313525191
 30
0.0
 11
677.7499972999999
 21
213.5074313525191
 31
0.0
  0
LINE
  5
318334E3
330
318324AF
100
AcDbEntity
  8
JISSEN
100
AcDbLine
 10
677.7499972999999
 20
220.5074313525191
 30
0.0
 11
652.2499972999999
 21
220.5074313525191
 31
0.0
  0
LINE
  5
318334E4
330
318324AF
100
AcDbEntity
  8
JISSEN
100
AcDbLine
 10
678.7499972999999
 20
223.2481983525191
 30
0.0
 11
668.1287643000001
 21
223.2481983525191
 31
0.0
  0
LINE
  5
318334E5
330
318324AF
100
AcDbEntity
  8
JISSEN
100
AcDbLine
 10
654.1499973000001
 20
212.5074313525191
 30
0.0
 11
654.2812303000001
 21
211.0074313525191
 31
0.0
  0
LINE
  5
318334E6
330
318324AF
100
AcDbEntity
  8
JISSEN
100
AcDbLine
 10
657.9915212999999
 20
203.986760352519
 30
0.0
 11
659.3796203000001
 21
203.2565473525191
 31
0.0
  0
ARC
  5
318334E7
330
318324AF
100
AcDbEntity
  8
JISSEN
100
AcDbCircle
 10
658.8680783
 20
204.8143303525193
 30
0.0
 40
0.5
100
AcDbArc
 50
185.0389269999976
 51
279.3495549999978
  0
LINE
  5
318334E8
330
318324AF
100
AcDbEntity
  8
JISSEN
100
AcDbLine
 10
658.8441883000001
 20
204.5849813525191
 30
0.0
 11
658.2760803000001
 21
210.8255633525192
 31
0.0
  0
LINE
  5
318334E9
330
318324AF
100
AcDbEntity
  8
JISSEN
100
AcDbLine
 10
654.2812303000001
 20
211.0074313525191
 30
0.0
 11
654.8015842999998
 21
205.0597543525193
 31
0.0
  0
LINE
  5
318334EA
330
318324AF
100
AcDbEntity
  8
JISSEN
100
AcDbLine
 10
654.5116733000001
 20
210.5868673525191
 30
0.0
 11
655.0995033
 21
205.1246183525191
 31
0.0
  0
LINE
  5
318334EB
330
318324AF
100
AcDbEntity
  8
JISSEN
100
AcDbLine
 10
655.6265063000002
 20
205.0683293525191
 30
0.0
 11
654.9945753000002
 21
210.9403673525191
 31
0.0
  0
LINE
  5
318334EC
330
318324AF
100
AcDbEntity
  8
JISSEN
100
AcDbLine
 10
656.7768352999999
 20
210.5697443525193
 30
0.0
 11
657.3025373000001
 21
205.0147983525191
 31
0.0
  0
LINE
  5
318334ED
330
318324AF
100
AcDbEntity
  8
JISSEN
100
AcDbLine
 10
657.8392562999997
 20
210.7898643525191
 30
0.0
 11
658.3700103000002
 21
204.7704143525192
 31
0.0
  0
LINE
  5
318334EE
330
318324AF
100
AcDbEntity
  8
JISSEN
100
AcDbLine
 10
657.8850902999999
 20
203.3281683525191
 30
0.0
 11
656.3732313000001
 21
204.0275593525191
 31
0.0
  0
ARC
  5
318334EF
330
318324AF
100
AcDbEntity
  8
JISSEN
100
AcDbCircle
 10
658.5967542999999
 20
205.1372793525191
 30
0.0
 40
1.3
100
AcDbArc
 50
185.4061849999995
 51
242.2532619999987
  0
ARC
  5
318334F0
330
318324AF
100
AcDbEntity
  8
JISSEN
100
AcDbCircle
 10
657.7904232999999
 20
204.2327893525192
 30
0.0
 40
1.0
100
AcDbArc
 50
245.174594999999
 51
270.0
  0
LINE
  5
318334F1
330
318324AF
100
AcDbEntity
  8
JISSEN
100
AcDbLine
 10
657.7904232999999
 20
203.2327893525192
 30
0.0
 11
657.8640983000001
 21
203.2327893525192
 31
0.0
  0
ARC
  5
318334F2
330
318324AF
100
AcDbEntity
  8
JISSEN
100
AcDbCircle
 10
657.8640983000001
 20
203.2827893525191
 30
0.0
 40
0.05
100
AcDbArc
 50
270.0
 51
65.17459499999917
  0
ARC
  5
318334F3
330
318324AF
100
AcDbEntity
  8
JISSEN
100
AcDbCircle
 10
656.4914662999999
 20
205.2744173525191
 30
0.0
 40
1.399999999999999
100
AcDbArc
 50
186.1423570000026
 51
245.174594999999
  0
ARC
  5
318334F4
330
318324AF
100
AcDbEntity
  8
JISSEN
100
AcDbCircle
 10
656.2958766295373
 20
205.0546059266558
 30
0.0
 40
1.5
100
AcDbArc
 50
185.0
 51
249.9999999999963
  0
LINE
  5
318334F5
330
318324AF
100
AcDbEntity
  8
JISSEN
100
AcDbLine
 10
655.9036702999999
 20
204.0037893525191
 30
0.0
 11
657.3705683
 21
203.3251973525191
 31
0.0
  0
ARC
  5
318334F6
330
318324AF
100
AcDbEntity
  8
JISSEN
100
AcDbCircle
 10
656.9190423000001
 20
205.2074283525191
 30
0.0
 40
1.3
100
AcDbArc
 50
186.1423570000026
 51
245.174594999999
  0
ARC
  5
318334F7
330
318324AF
100
AcDbEntity
  8
JISSEN
100
AcDbCircle
 10
658.0769033
 20
210.8074313525191
 30
0.0
 40
0.2
100
AcDbArc
 50
5.20155900000078
 51
90.0
  0
LINE
  5
318334F8
330
318324AF
100
AcDbEntity
  8
JISSEN
100
AcDbLine
 10
658.0769033
 20
211.0074313525191
 30
0.0
 11
657.1750563000001
 21
211.0074313525191
 31
0.0
  0
ARC
  5
318334F9
330
318324AF
100
AcDbEntity
  8
JISSEN
100
AcDbCircle
 10
657.1750563000001
 20
210.6074313525193
 30
0.0
 40
0.4
100
AcDbArc
 50
90.0
 51
185.4061849999995
  0
ARC
  5
318334FA
330
318324AF
100
AcDbEntity
  8
JISSEN
100
AcDbCircle
 10
658.0384832999998
 20
210.8074313525191
 30
0.0
 40
0.2
100
AcDbArc
 50
90.0
 51
185.0389269999976
  0
ARC
  5
318334FB
330
318324AF
100
AcDbEntity
  8
JISSEN
100
AcDbCircle
 10
654.8951492999999
 20
210.9296673525193
 30
0.0
 40
0.1
100
AcDbArc
 50
6.142357000002697
 51
87.28209800000014
  0
ARC
  5
318334FC
330
318324AF
100
AcDbEntity
  8
JISSEN
100
AcDbCircle
 10
654.9093763000001
 20
210.6296673525192
 30
0.0
 40
0.4
100
AcDbArc
 50
91.35885500000069
 51
186.1423570000026
  0
LINE
  5
318334FD
330
318324AF
100
AcDbEntity
  8
JISSEN
100
AcDbLine
 10
668.9540502999998
 20
210.6962263525191
 30
0.0
 11
669.1808842999998
 21
204.6270783525192
 31
0.0
  0
LINE
  5
318334FE
330
318324AF
100
AcDbEntity
  8
JISSEN
100
AcDbLine
 10
662.6437572999998
 20
210.6878393525192
 30
0.0
 11
663.0364003000002
 21
204.6882083525191
 31
0.0
  0
LINE
  5
318334FF
330
318324AF
100
AcDbEntity
  8
JISSEN
100
AcDbLine
 10
662.2481202999997
 20
204.8808763525191
 30
0.0
 11
661.8440863000001
 21
210.6329063525191
 31
0.0
  0
LINE
  5
31833500
330
318324AF
100
AcDbEntity
  8
JISSEN
100
AcDbLine
 10
664.1289763000002
 20
210.8214453525191
 30
0.0
 11
664.5727832999998
 21
204.5031793525192
 31
0.0
  0
LINE
  5
31833501
330
318324AF
100
AcDbEntity
  8
JISSEN
100
AcDbLine
 10
663.4355462999999
 20
204.3143303525193
 30
0.0
 11
664.6356983000003
 21
204.3143303525193
 31
0.0
  0
LINE
  5
31833502
330
318324AF
100
AcDbEntity
  8
JISSEN
100
AcDbLine
 10
665.6723622999997
 20
203.2105523525191
 30
0.0
 11
663.9567293000001
 21
203.2105523525191
 31
0.0
  0
ARC
  5
31833503
330
318324AF
100
AcDbEntity
  8
JISSEN
100
AcDbCircle
 10
663.9567293000001
 20
203.5605523525192
 30
0.0
 40
0.35
100
AcDbArc
 50
234.6729320000024
 51
270.0
  0
LINE
  5
31833504
330
318324AF
100
AcDbEntity
  8
JISSEN
100
AcDbLine
 10
659.5658463000002
 20
203.2105523525191
 30
0.0
 11
660.5621653
 21
203.2105523525191
 31
0.0
  0
ARC
  5
31833505
330
318324AF
100
AcDbEntity
  8
JISSEN
100
AcDbCircle
 10
663.4451702999999
 20
204.9649593525193
 30
0.0
 40
1.199999999999999
100
AcDbArc
 50
184.0179690000025
 51
234.6729320000024
  0
ARC
  5
31833506
330
318324AF
100
AcDbEntity
  8
JISSEN
100
AcDbCircle
 10
660.5621653
 20
203.3105523525192
 30
0.0
 40
0.1
100
AcDbArc
 50
270.0
 51
62.25326199999877
  0
LINE
  5
31833507
330
318324AF
100
AcDbEntity
  8
JISSEN
100
AcDbLine
 10
663.7543443000001
 20
203.2750003525191
 30
0.0
 11
662.7512782999997
 21
203.9859223525192
 31
0.0
  0
ARC
  5
31833508
330
318324AF
100
AcDbEntity
  8
JISSEN
100
AcDbCircle
 10
663.4355462999999
 20
204.7143303525191
 30
0.0
 40
0.4
100
AcDbArc
 50
183.7443619999993
 51
270.0
  0
ARC
  5
31833509
330
318324AF
100
AcDbEntity
  8
JISSEN
100
AcDbCircle
 10
659.3421293
 20
204.6303113525193
 30
0.0
 40
0.5
100
AcDbArc
 50
185.2015590000007
 51
242.2532619999987
  0
LINE
  5
3183350A
330
318324AF
100
AcDbEntity
  8
JISSEN
100
AcDbLine
 10
660.6087223000002
 20
203.3990543525191
 30
0.0
 11
659.1093473000001
 21
204.1878043525192
 31
0.0
  0
ARC
  5
3183350B
330
318324AF
100
AcDbEntity
  8
JISSEN
100
AcDbCircle
 10
659.5658463000002
 20
203.6105523525193
 30
0.0
 40
0.4
100
AcDbArc
 50
242.2532619999987
 51
270.0
  0
ARC
  5
3183350C
330
318324AF
100
AcDbEntity
  8
JISSEN
100
AcDbCircle
 10
665.6723622999997
 20
203.3605523525191
 30
0.0
 40
0.15
100
AcDbArc
 50
270.0
 51
54.6729320000024
  0
ARC
  5
3183350D
330
318324AF
100
AcDbEntity
  8
JISSEN
100
AcDbCircle
 10
664.9718002999998
 20
204.5312073525191
 30
0.0
 40
0.4
100
AcDbArc
 50
184.0179690000025
 51
234.6729320000024
  0
LINE
  5
3183350E
330
318324AF
100
AcDbEntity
  8
JISSEN
100
AcDbLine
 10
664.7405033
 20
204.2048613525191
 30
0.0
 11
665.7590983000001
 21
203.4829323525193
 31
0.0
  0
ARC
  5
3183350F
330
318324AF
100
AcDbEntity
  8
JISSEN
100
AcDbCircle
 10
663.9294673000001
 20
210.8074313525191
 30
0.0
 40
0.2
100
AcDbArc
 50
4.017969000002583
 51
90.0
  0
ARC
  5
31833510
330
318324AF
100
AcDbEntity
  8
JISSEN
100
AcDbCircle
 10
662.9431162999999
 20
210.7074313525191
 30
0.0
 40
0.3
100
AcDbArc
 50
90.0
 51
183.7443619999993
  0
ARC
  5
31833511
330
318324AF
100
AcDbEntity
  8
JISSEN
100
AcDbCircle
 10
662.1932253000001
 20
210.6574313525191
 30
0.0
 40
0.35
100
AcDbArc
 50
90.0
 51
184.0179690000025
  0
LINE
  5
31833512
330
318324AF
100
AcDbEntity
  8
JISSEN
100
AcDbLine
 10
662.1932253000001
 20
211.0074313525191
 30
0.0
 11
662.9431162999999
 21
211.0074313525191
 31
0.0
  0
LINE
  5
31833513
330
318324AF
100
AcDbEntity
  8
JISSEN
100
AcDbLine
 10
662.9431162999999
 20
211.0074313525191
 30
0.0
 11
663.9294673000001
 21
211.0074313525191
 31
0.0
  0
ARC
  5
31833514
330
318324AF
100
AcDbEntity
  8
JISSEN
100
AcDbCircle
 10
669.2538403
 20
210.7074313525191
 30
0.0
 40
0.3
100
AcDbArc
 50
90.0
 51
182.1404320000006
  0
LINE
  5
31833515
330
318324AF
100
AcDbEntity
  8
JISSEN
100
AcDbLine
 10
652.2499972999999
 20
220.8574313525193
 30
0.0
 11
652.2499972999999
 21
213.5074313525191
 31
0.0
  0
LINE
  5
31833516
330
318324AF
100
AcDbEntity
  8
JISSEN
100
AcDbLine
 10
653.2499972999999
 20
212.5074313525191
 30
0.0
 11
654.1499973000001
 21
212.5074313525191
 31
0.0
  0
LINE
  5
31833517
330
318324AF
100
AcDbEntity
  8
JISSEN
100
AcDbLine
 10
652.2499972999999
 20
213.5074313525191
 30
0.0
 11
653.2499972999999
 21
212.5074313525191
 31
0.0
  0
LINE
  5
31833518
330
318324AF
100
AcDbEntity
  8
JISSEN
100
AcDbLine
 10
652.2499972999999
 20
220.8574313525193
 30
0.0
 11
652.3999973000001
 21
221.0074313525191
 31
0.0
  0
LINE
  5
31833519
330
318324AF
100
AcDbEntity
  8
JISSEN
100
AcDbLine
 10
667.0499973
 20
221.0074313525191
 30
0.0
 11
668.0912783
 21
222.0487123525191
 31
0.0
  0
LINE
  5
3183351A
330
318324AF
100
AcDbEntity
  8
SAISEN
100
AcDbLine
 10
668.0912783
 20
222.0487123525191
 30
0.0
 11
669.2907642999998
 21
223.2481983525191
 31
0.0
  0
ARC
  5
3183351B
330
318324AF
100
AcDbEntity
  8
JISSEN
100
AcDbCircle
 10
678.7499972999999
 20
213.5074313525191
 30
0.0
 40
1.0
100
AcDbArc
 50
180.0
 51
270.0
  0
ARC
  5
3183351C
330
318324AF
100
AcDbEntity
  8
JISSEN
100
AcDbCircle
 10
678.7499972999999
 20
213.5074313525191
 30
0.0
 40
1.0
100
AcDbArc
 50
270.0
 51
0.0
  0
ARC
  5
3183351D
330
318324AF
100
AcDbEntity
  8
JISSEN
100
AcDbCircle
 10
679.7499972999998
 20
210.5074313525191
 30
0.0
 40
0.5
100
AcDbArc
 50
0.0
 51
90.0
  0
ARC
  5
3183351E
330
318324AF
100
AcDbEntity
  8
JISSEN
100
AcDbCircle
 10
679.7499972999998
 20
204.8143303525193
 30
0.0
 40
0.5
100
AcDbArc
 50
270.0
 51
0.0
  0
ARC
  5
3183351F
330
318324AF
100
AcDbEntity
  8
JISSEN
100
AcDbCircle
 10
679.7499972999998
 20
203.7105523525192
 30
0.0
 40
0.5
100
AcDbArc
 50
270.0
 51
0.0
  0
LINE
  5
31833520
330
318324AF
100
AcDbEntity
  8
JISSEN
100
AcDbLine
 10
677.2499972999999
 20
210.5074313525191
 30
0.0
 11
677.2499972999999
 21
203.7105523525192
 31
0.0
  0
LINE
  5
31833521
330
318324AF
100
AcDbEntity
  8
JISSEN
100
AcDbLine
 10
669.3797922999997
 20
210.7487303525191
 30
0.0
 11
669.5937703000002
 21
204.6038903525191
 31
0.0
  0
LINE
  5
31833522
330
318324AF
100
AcDbEntity
  8
JISSEN
100
AcDbLine
 10
672.0081443
 20
204.4081553525192
 30
0.0
 11
671.7686923
 21
210.8149013525192
 31
0.0
  0
LINE
  5
31833523
330
318324AF
100
AcDbEntity
  8
JISSEN
100
AcDbLine
 10
670.1711383000001
 20
203.2105523525191
 30
0.0
 11
672.4400673000001
 21
203.2105523525191
 31
0.0
  0
ARC
  5
31833524
330
318324AF
100
AcDbEntity
  8
JISSEN
100
AcDbCircle
 10
672.3079352999998
 20
204.4193593525191
 30
0.0
 40
0.3
100
AcDbArc
 50
182.1404320000006
 51
216.8971619999968
  0
ARC
  5
31833525
330
318324AF
100
AcDbEntity
  8
JISSEN
100
AcDbCircle
 10
672.4400673000001
 20
203.4105523525191
 30
0.0
 40
0.2
100
AcDbArc
 50
270.0
 51
36.89716199999679
  0
LINE
  5
31833526
330
318324AF
100
AcDbEntity
  8
JISSEN
100
AcDbLine
 10
672.6000102999998
 20
203.5306293525191
 30
0.0
 11
672.0680202999999
 21
204.2392453525191
 31
0.0
  0
ARC
  5
31833527
330
318324AF
100
AcDbEntity
  8
JISSEN
100
AcDbCircle
 10
669.8935882999998
 20
204.6143303525191
 30
0.0
 40
0.3
100
AcDbArc
 50
181.9943680000009
 51
270.0
  0
LINE
  5
31833528
330
318324AF
100
AcDbEntity
  8
JISSEN
100
AcDbLine
 10
669.3804722999998
 20
204.0640463525192
 30
0.0
 11
669.9312233000001
 21
203.3304383525191
 31
0.0
  0
LINE
  5
31833529
330
318324AF
100
AcDbEntity
  8
JISSEN
100
AcDbLine
 10
669.8935882999998
 20
204.3143303525193
 30
0.0
 11
672.0269212999999
 21
204.3143303525193
 31
0.0
  0
ARC
  5
3183352A
330
318324AF
100
AcDbEntity
  8
JISSEN
100
AcDbCircle
 10
670.1711383000001
 20
203.5105523525191
 30
0.0
 40
0.3
100
AcDbArc
 50
216.8971619999968
 51
270.0
  0
LINE
  5
3183352B
330
318324AF
100
AcDbEntity
  8
JISSEN
100
AcDbLine
 10
677.7499972999999
 20
204.3143303525193
 30
0.0
 11
678.7499972999999
 21
204.3143303525193
 31
0.0
  0
LINE
  5
3183352C
330
318324AF
100
AcDbEntity
  8
JISSEN
100
AcDbLine
 10
678.7499972999999
 20
203.2105523525191
 30
0.0
 11
677.7499972999999
 21
203.2105523525191
 31
0.0
  0
ARC
  5
3183352D
330
318324AF
100
AcDbEntity
  8
JISSEN
100
AcDbCircle
 10
677.7499972999999
 20
203.7105523525192
 30
0.0
 40
0.5
100
AcDbArc
 50
180.0
 51
270.0
  0
ARC
  5
3183352E
330
318324AF
100
AcDbEntity
  8
JISSEN
100
AcDbCircle
 10
677.7499972999999
 20
204.8143303525193
 30
0.0
 40
0.5
100
AcDbArc
 50
180.0
 51
270.0
  0
LINE
  5
3183352F
330
318324AF
100
AcDbEntity
  8
JISSEN
100
AcDbLine
 10
678.7499972999999
 20
203.2105523525191
 30
0.0
 11
679.7499972999998
 21
203.2105523525191
 31
0.0
  0
LINE
  5
31833530
330
318324AF
100
AcDbEntity
  8
JISSEN
100
AcDbLine
 10
679.7499972999998
 20
204.3143303525193
 30
0.0
 11
678.7499972999999
 21
204.3143303525193
 31
0.0
  0
ARC
  5
31833531
330
318324AF
100
AcDbEntity
  8
JISSEN
100
AcDbCircle
 10
671.5688313000002
 20
210.8074313525191
 30
0.0
 40
0.2
100
AcDbArc
 50
2.140432000000609
 51
90.0
  0
LINE
  5
31833532
330
318324AF
100
AcDbEntity
  8
JISSEN
100
AcDbLine
 10
678.7499972999999
 20
211.0074313525191
 30
0.0
 11
677.7499972999999
 21
211.0074313525191
 31
0.0
  0
ARC
  5
31833533
330
318324AF
100
AcDbEntity
  8
JISSEN
100
AcDbCircle
 10
677.7499972999999
 20
210.5074313525191
 30
0.0
 40
0.5
100
AcDbArc
 50
90.0
 51
180.0
  0
LINE
  5
31833534
330
318324AF
100
AcDbEntity
  8
JISSEN
100
AcDbLine
 10
678.7499972999999
 20
211.0074313525191
 30
0.0
 11
679.7499972999998
 21
211.0074313525191
 31
0.0
  0
LINE
  5
31833535
330
318324AF
100
AcDbEntity
  8
JISSEN
100
AcDbLine
 10
688.5459443000002
 20
210.6962263525191
 30
0.0
 11
688.3191102999999
 21
204.6270783525192
 31
0.0
  0
LINE
  5
31833536
330
318324AF
100
AcDbEntity
  8
JISSEN
100
AcDbLine
 10
688.1202023
 20
210.7487303525191
 30
0.0
 11
687.9062242999999
 21
204.6038903525191
 31
0.0
  0
LINE
  5
31833537
330
318324AF
100
AcDbEntity
  8
JISSEN
100
AcDbLine
 10
685.4918503
 20
204.4081553525192
 30
0.0
 11
685.7313022999999
 21
210.8149013525192
 31
0.0
  0
LINE
  5
31833538
330
318324AF
100
AcDbEntity
  8
JISSEN
100
AcDbLine
 10
680.2499972999998
 20
210.5074313525191
 30
0.0
 11
680.2499972999998
 21
203.7105523525192
 31
0.0
  0
LINE
  5
31833539
330
318324AF
100
AcDbEntity
  8
JISSEN
100
AcDbLine
 10
684.8999842999999
 20
203.5306293525191
 30
0.0
 11
685.4319742999998
 21
204.2392453525191
 31
0.0
  0
LINE
  5
3183353A
330
318324AF
100
AcDbEntity
  8
JISSEN
100
AcDbLine
 10
687.3288562999999
 20
203.2105523525191
 30
0.0
 11
685.0599272999998
 21
203.2105523525191
 31
0.0
  0
ARC
  5
3183353B
330
318324AF
100
AcDbEntity
  8
JISSEN
100
AcDbCircle
 10
685.0599272999998
 20
203.4105523525191
 30
0.0
 40
0.2
100
AcDbArc
 50
143.102838000003
 51
270.0
  0
ARC
  5
3183353C
330
318324AF
100
AcDbEntity
  8
JISSEN
100
AcDbCircle
 10
687.3198082999997
 20
204.6644273525191
 30
0.0
 40
1.0
100
AcDbArc
 50
323.1028380000032
 51
357.8595679999994
  0
ARC
  5
3183353D
330
318324AF
100
AcDbEntity
  8
JISSEN
100
AcDbCircle
 10
687.3288562999999
 20
203.5105523525191
 30
0.0
 40
0.3
100
AcDbArc
 50
270.0
 51
323.1028380000032
  0
ARC
  5
3183353E
330
318324AF
100
AcDbEntity
  8
JISSEN
100
AcDbCircle
 10
685.1920593
 20
204.4193593525191
 30
0.0
 40
0.3
100
AcDbArc
 50
323.1028380000032
 51
357.8595679999994
  0
LINE
  5
3183353F
330
318324AF
100
AcDbEntity
  8
JISSEN
100
AcDbLine
 10
687.6064062999999
 20
204.3143303525193
 30
0.0
 11
685.4730732999999
 21
204.3143303525193
 31
0.0
  0
LINE
  5
31833540
330
318324AF
100
AcDbEntity
  8
JISSEN
100
AcDbLine
 10
688.1195222999999
 20
204.0640463525192
 30
0.0
 11
687.5687712999996
 21
203.3304383525191
 31
0.0
  0
ARC
  5
31833541
330
318324AF
100
AcDbEntity
  8
JISSEN
100
AcDbCircle
 10
687.6064062999999
 20
204.6143303525191
 30
0.0
 40
0.3
100
AcDbArc
 50
270.0
 51
358.005631999999
  0
ARC
  5
31833542
330
318324AF
100
AcDbEntity
  8
JISSEN
100
AcDbCircle
 10
688.2461542999999
 20
210.7074313525191
 30
0.0
 40
0.3
100
AcDbArc
 50
357.8595679999994
 51
90.0
  0
ARC
  5
31833543
330
318324AF
100
AcDbEntity
  8
JISSEN
100
AcDbCircle
 10
687.8703542999999
 20
210.7574313525191
 30
0.0
 40
0.25
100
AcDbArc
 50
358.005631999999
 51
90.0
  0
ARC
  5
31833544
330
318324AF
100
AcDbEntity
  8
JISSEN
100
AcDbCircle
 10
685.9311632999999
 20
210.8074313525191
 30
0.0
 40
0.2
100
AcDbArc
 50
90.0
 51
177.8595679999994
  0
LINE
  5
31833545
330
318324AF
100
AcDbEntity
  8
JISSEN
100
AcDbLine
 10
685.9311632999999
 20
211.0074313525191
 30
0.0
 11
688.2461542999999
 21
211.0074313525191
 31
0.0
  0
LINE
  5
31833546
330
318324AF
100
AcDbEntity
  8
JISSEN
100
AcDbLine
 10
678.7499972999999
 20
223.2481983525191
 30
0.0
 11
689.3712302999999
 21
223.2481983525191
 31
0.0
  0
LINE
  5
31833547
330
318324AF
100
AcDbEntity
  8
JISSEN
100
AcDbLine
 10
677.7499972999999
 20
220.5074313525191
 30
0.0
 11
677.7499972999999
 21
213.5074313525191
 31
0.0
  0
LINE
  5
31833548
330
318324AF
100
AcDbEntity
  8
JISSEN
100
AcDbLine
 10
679.7499972999998
 20
220.5074313525191
 30
0.0
 11
679.7499972999998
 21
213.5074313525191
 31
0.0
  0
ARC
  5
31833549
330
318324AF
100
AcDbEntity
  8
JISSEN
100
AcDbCircle
 10
678.7499972999999
 20
219.7574313525191
 30
0.0
 40
1.25
100
AcDbArc
 50
90.0
 51
143.1301019999993
  0
ARC
  5
3183354A
330
318324AF
100
AcDbEntity
  8
JISSEN
100
AcDbCircle
 10
678.7499972999999
 20
219.7574313525191
 30
0.0
 40
1.25
100
AcDbArc
 50
36.86989800000061
 51
90.0
  0
LINE
  5
3183354B
330
318324AF
100
AcDbEntity
  8
SAISEN
100
AcDbLine
 10
689.4087162999999
 20
222.0487123525191
 30
0.0
 11
688.2092302999999
 21
223.2481983525191
 31
0.0
  0
LINE
  5
3183354C
330
318324AF
100
AcDbEntity
  8
JISSEN
100
AcDbLine
 10
690.4499972999997
 20
221.0074313525191
 30
0.0
 11
689.4087162999999
 21
222.0487123525191
 31
0.0
  0
LINE
  5
3183354D
330
318324AF
100
AcDbEntity
  8
JISSEN
100
AcDbLine
 10
668.4880732999999
 20
237.7455063525228
 30
0.0
 11
669.7499972999999
 21
239.0074313525229
 31
0.0
  0
LINE
  5
3183354E
330
318324AF
100
AcDbEntity
  8
JISSEN
100
AcDbLine
 10
668.4880732999999
 20
237.7455063525228
 30
0.0
 11
678.7499972999999
 21
237.7455063525228
 31
0.0
  0
LINE
  5
3183354F
330
318324AF
100
AcDbEntity
  8
JISSEN
100
AcDbLine
 10
687.7499972999998
 20
239.0074313525229
 30
0.0
 11
678.7499972999999
 21
239.0074313525228
 31
0.0
  0
LINE
  5
31833550
330
318324AF
100
AcDbEntity
  8
WAKU
100
AcDbLine
 10
904.9999963999999
 20
339.9556979093921
 30
0.0
 11
452.4999981999997
 21
339.9556979093921
 31
0.0
  0
LWPOLYLINE
  5
31833551
330
318324AF
100
AcDbEntity
  8
NITEN
100
AcDbPolyline
 90
       15
 70
     1
 43
0.0
 10
664.7499972999999
 20
226.3074313525185
 42
0.4142135623730927
 10
666.2499972999998
 20
224.8074313525186
 10
689.3440484709965
 20
224.8074313525186
 10
691.2499972999999
 20
224.8074313525186
 42
0.4142135623730925
 10
692.7499972999998
 20
226.3074313525185
 10
692.7499972999998
 20
237.3534473787366
 42
-0.4142135623730943
 10
697.7499972999999
 20
242.3534473787366
 42
0.4142135623730951
 10
699.7499972999999
 20
244.3534473787365
 10
699.7499972999998
 20
264.8074313525185
 42
0.4142135623730949
 10
697.7499972999999
 20
266.8074313525185
 10
659.7499972999998
 20
266.8074313525185
 42
0.4142135623730951
 10
657.7499972999999
 20
264.8074313525185
 10
657.7499972999999
 20
244.3534473787365
 42
0.4142135623730951
 10
659.7499972999998
 20
242.3534473787366
 42
-0.4142135623730961
 10
664.7499972999999
 20
237.3534473787366
  0
LWPOLYLINE
  5
31833552
330
318324AF
100
AcDbEntity
  8
NITEN
100
AcDbPolyline
 90
        5
 70
     0
 43
0.0
 10
695.7499972999999
 20
266.8074313525185
 10
695.7499972999999
 20
287.6451490036645
 42
-0.5882352941176476
 10
678.7499972999999
 20
287.6451490036645
 42
0.5882352941176477
 10
661.7499972999999
 20
287.6451490036641
 10
661.7499972999999
 20
266.8074313525185
  0
LWPOLYLINE
  5
31833553
330
318324AF
100
AcDbEntity
  8
NITEN
100
AcDbPolyline
 90
        2
 70
     0
 43
0.0
 10
695.7499973000001
 20
287.6451490036645
 42
0.5882352941176295
 10
678.7499972999999
 20
287.6451490036647
 42
0.5882352941176295
  0
TEXT
  5
31833558
330
318324AF
100
AcDbEntity
  8
SUNPOU
100
AcDbText
 10
768.2116295403035
 20
354.7047074804737
 30
0.0
 40
6.0
  1
防護板 A 取付状態（ヘッドはMFJ  型）
  7
K
100
AcDbText
  0
TEXT
  5
31833559
330
318324AF
100
AcDbEntity
  8
SUNPOU
100
AcDbText
 10
768.2116295403035
 20
345.2047074804736
 30
0.0
 40
6.0
  1
A4 用紙、尺度：1/2
  7
K
100
AcDbText
  0
LINE
  5
3183355A
102
{ACAD_REACTORS
330
3183356C
102
}
330
318324AF
100
AcDbEntity
  8
JISSEN
100
AcDbLine
 10
705.2499972999998
 20
224.8074313525186
 30
0.0
 11
705.2499972999998
 21
221.8074313525185
 31
0.0
  0
LINE
  5
3183355B
102
{ACAD_REACTORS
330
3183356C
102
}
330
318324AF
100
AcDbEntity
  8
JISSEN
100
AcDbLine
 10
652.2499972999999
 20
224.8074313525186
 30
0.0
 11
705.2499972999998
 21
224.8074313525186
 31
0.0
  0
LINE
  5
3183355C
102
{ACAD_REACTORS
330
3183356C
102
}
330
318324AF
100
AcDbEntity
  8
JISSEN
100
AcDbLine
 10
652.2499972999999
 20
224.8074313525186
 30
0.0
 11
652.2499972999999
 21
221.8074313525185
 31
0.0
  0
LINE
  5
3183355F
102
{ACAD_REACTORS
330
3183356C
102
}
330
318324AF
100
AcDbEntity
  8
JISSEN
100
AcDbLine
 10
690.2499972999999
 20
224.8074313525186
 30
0.0
 11
690.2499972999999
 21
221.0074313525191
 31
0.0
  0
LINE
  5
31833560
102
{ACAD_REACTORS
330
3183356C
102
}
330
318324AF
100
AcDbEntity
  8
JISSEN
100
AcDbLine
 10
667.2499972999998
 20
224.8074313525186
 30
0.0
 11
667.2499972999998
 21
221.0074313525191
 31
0.0
  0
ARC
  5
31833561
330
318324AF
100
AcDbEntity
  8
JISSEN
100
AcDbCircle
 10
498.7499973
 20
201.8074313525191
 30
0.0
 40
19.19999999999998
100
AcDbArc
 50
90.0
 51
180.0
  0
LINE
  5
31833562
330
318324AF
100
AcDbEntity
  8
JISSEN
100
AcDbLine
 10
498.7499973
 20
221.0074313525191
 30
0.0
 11
858.7499972999998
 21
221.0074313525191
 31
0.0
  0
ARC
  5
31833563
330
318324AF
100
AcDbEntity
  8
JISSEN
100
AcDbCircle
 10
858.7499972999998
 20
201.8074313525191
 30
0.0
 40
19.19999999999998
100
AcDbArc
 50
0.0
 51
90.0
  0
HATCH
  5
3183356C
330
318324AF
100
AcDbEntity
  8
JISSEN
100
AcDbHatch
 10
0.0
 20
0.0
 30
0.0
210
0.0
220
0.0
230
1.0
  2
SOLID
 70
     1
 71
     1
 91
        2
 92
        7
 72
     0
 73
     1
 93
        4
 10
705.2499972999998
 20
224.8074313525186
 10
690.2499972999999
 20
224.8074313525186
 10
690.2499973000001
 20
221.8074313525191
 10
705.2499972999998
 20
221.8074313525191
 97
        4
330
3183355B
330
3183355F
330
318334AE
330
3183355A
 92
        7
 72
     0
 73
     1
 93
        4
 10
667.2499973000001
 20
224.8074313525186
 10
652.2499972999999
 20
224.8074313525186
 10
652.2499972999999
 20
221.8074313525191
 10
667.2499972999998
 20
221.8074313525191
 97
        4
330
3183355B
330
3183355C
330
318334AE
330
31833560
 75
     0
 76
     1
 47
0.0792997910233656
 98
        2
 10
692.4362373354726
 20
223.0817565246661
 10
664.9761899552412
 20
223.8747550786755
  0
LINE
  5
3183356E
330
318324AF
100
AcDbEntity
  8
SUNPOU
  6
ByBlock
100
AcDbLine
 10
728.6552030781495
 20
257.2126371306686
 30
0.0
 11
754.4953397337017
 21
257.2126371306686
 31
0.0
  0
TEXT
  5
3183356F
330
318324AF
100
AcDbEntity
  8
SUNPOU
  6
ByBlock
100
AcDbText
 10
732.9955374806671
 20
257.9419557452979
 30
0.0
 40
6.0
  1
ゴム材
  7
K
100
AcDbText
  0
LINE
  5
31833570
330
318324AF
100
AcDbEntity
  8
SUNPOU
  6
ByBlock
100
AcDbLine
 10
705.2499973000005
 20
224.8074313525191
 30
0.0
 11
728.6552030781495
 21
257.2126371306686
 31
0.0
  0
INSERT
  5
31833571
330
318324AF
100
AcDbEntity
  8
SUNPOU
  6
ByBlock
100
AcDbBlockReference
  2
ARROW
 10
705.2499973000003
 20
224.8074313525191
 30
0.0
 41
3.000000000000018
 42
3.0
 43
3.0
 50
234.1606667725374
  0
LWPOLYLINE
  5
31833572
330
318324AF
100
AcDbEntity
  8
WAKU
100
AcDbPolyline
 90
        4
 70
     1
 43
0.0
 10
904.9999963999999
 20
-1.294302090607742
 10
1357.499994599999
 20
-1.294302090607742
 10
1357.499994599999
 20
681.2056979093921
 10
904.9999963999999
 20
681.2056979093921
  0
LINE
  5
31833573
102
{ACAD_REACTORS
330
31833596
102
}
330
318324AF
100
AcDbEntity
  8
JISSEN
100
AcDbLine
 10
1057.366182490159
 20
381.1773151706093
 30
0.0
 11
1216.366182490159
 21
381.1773151706093
 31
0.0
  0
LINE
  5
31833574
330
318324AF
100
AcDbEntity
  8
JISSEN
100
AcDbLine
 10
1018.02280285158
 20
369.7773151706093
 30
0.0
 11
1250.809239254095
 21
369.7773151706093
 31
0.0
  0
LINE
  5
31833575
330
318324AF
100
AcDbEntity
  8
JISSEN
100
AcDbLine
 10
1194.081788416115
 20
312.1773151706093
 30
0.0
 11
1247.636174501293
 21
312.1773151706093
 31
0.0
  0
LINE
  5
31833576
330
318324AF
100
AcDbEntity
  8
JISSEN
100
AcDbLine
 10
1253.636174501293
 20
312.1773151706093
 30
0.0
 11
1335.066715805744
 21
312.1773151706093
 31
0.0
  0
LINE
  5
31833577
330
318324AF
100
AcDbEntity
  8
JISSEN
100
AcDbLine
 10
927.2891989629233
 20
312.1773151706093
 30
0.0
 11
1008.849738098777
 21
312.1773151706093
 31
0.0
  0
ARC
  5
31833578
330
318324AF
100
AcDbEntity
  8
JISSEN
100
AcDbCircle
 10
987.2891989629232
 20
312.1773151706093
 30
0.0
 40
57.59999999999996
100
AcDbArc
 50
90.0
 51
180.0
  0
ARC
  5
31833579
330
318324AF
100
AcDbEntity
  8
JISSEN
100
AcDbCircle
 10
1275.066715805744
 20
312.1773151706093
 30
0.0
 40
57.59999999999996
100
AcDbArc
 50
0.0
 51
90.0
  0
LINE
  5
3183357A
330
318324AF
100
AcDbEntity
  8
JISSEN
100
AcDbLine
 10
1275.066715805744
 20
372.1773151706092
 30
0.0
 11
1258.537503419237
 21
372.1773151706092
 31
0.0
  0
LINE
  5
3183357C
330
318324AF
100
AcDbEntity
  8
JISSEN
100
AcDbLine
 10
1275.066715805744
 20
369.7773151706092
 30
0.0
 11
1256.809239254095
 21
369.7773151706092
 31
0.0
  0
LINE
  5
3183357D
330
318324AF
100
AcDbEntity
  8
JISSEN
100
AcDbLine
 10
987.2891989629232
 20
372.1773151706092
 30
0.0
 11
1013.751067016722
 21
372.1773151706092
 31
0.0
  0
LINE
  5
3183357E
330
318324AF
100
AcDbEntity
  8
JISSEN
100
AcDbLine
 10
987.2891989629232
 20
369.7773151706092
 30
0.0
 11
1012.02280285158
 21
369.7773151706092
 31
0.0
  0
LINE
  5
3183358C
102
{ACAD_REACTORS
330
31833596
102
}
330
318324AF
100
AcDbEntity
  8
JISSEN
100
AcDbLine
 10
1171.36618249016
 20
381.1773151706093
 30
0.0
 11
1171.36618249016
 21
372.1773151706093
 31
0.0
  0
LINE
  5
3183358D
102
{ACAD_REACTORS
330
31833596
102
}
330
318324AF
100
AcDbEntity
  8
JISSEN
100
AcDbLine
 10
1102.366182490158
 20
381.1773151706093
 30
0.0
 11
1102.366182490158
 21
372.1773151706093
 31
0.0
  0
HATCH
  5
31833596
330
318324AF
100
AcDbEntity
  8
JISSEN
100
AcDbHatch
 10
0.0
 20
0.0
 30
0.0
210
0.0
220
0.0
230
1.0
  2
SOLID
 70
     1
 71
     1
 91
        2
 92
        7
 72
     0
 73
     1
 93
        4
 10
1216.366182490159
 20
381.1773151706093
 10
1171.36618249016
 20
381.1773151706093
 10
1171.36618249016
 20
372.1773151706093
 10
1216.366182490159
 20
372.1773151706093
 97
        4
330
31833573
330
3183358C
330
31833470
330
31833384
 92
        7
 72
     0
 73
     1
 93
        4
 10
1102.366182490158
 20
381.1773151706093
 10
1057.366182490159
 20
381.1773151706093
 10
1057.366182490159
 20
372.1773151706093
 10
1102.366182490158
 20
372.1773151706093
 97
        4
330
31833573
330
31833383
330
31833470
330
3183358D
 75
     0
 76
     1
 47
0.2245759345941743
 98
        2
 10
1182.64846737716
 20
376.5638567315718
 10
1086.901289961806
 20
377.9113101542005
  0
LINE
  5
3183359A
330
318324AF
100
AcDbEntity
  8
SUNPOU
100
AcDbLine
 10
1338.191310112478
 20
29.45462704664328
 30
0.0
 11
1342.191310112479
 21
29.45462704664328
 31
0.0
  0
TEXT
  5
3183359B
330
318324AF
100
AcDbEntity
  8
SUNPOU
100
AcDbText
 10
1193.048897485248
 20
23.45470748047375
 30
0.0
 40
6.0
  1
防護板 A 取付状態（断面図、ヘッドはMFJ  型）
  7
K
100
AcDbText
  0
TEXT
  5
3183359C
330
318324AF
100
AcDbEntity
  8
SUNPOU
100
AcDbText
 10
1193.048897485248
 20
3.954707480473756
 30
0.0
 40
6.0
  1
A4 用紙、印刷尺度：1/2
  7
K
100
AcDbText
  0
TEXT
  5
3183359D
330
318324AF
100
AcDbEntity
  8
SUNPOU
100
AcDbText
 10
1193.048897485248
 20
13.45470748047374
 30
0.0
 40
6.0
  1
実寸：3/1
  7
K
100
AcDbText
  0
INSERT
  5
318335A2
330
318324AF
100
AcDbEntity
  8
SUNPOU
  6
ByBlock
100
AcDbBlockReference
  2
ARROW
 10
1216.366182490159
 20
381.1773151706097
 30
0.0
 41
3.000000000000018
 42
3.0
 43
3.0
 50
234.1606667725374
  0
LINE
  5
318335A3
330
318324AF
100
AcDbEntity
  8
SUNPOU
  6
ByBlock
100
AcDbLine
 10
1216.366182490159
 20
381.1773151706099
 30
0.0
 11
1239.771388268309
 21
413.5825209487594
 31
0.0
  0
TEXT
  5
318335A4
330
318324AF
100
AcDbEntity
  8
SUNPOU
  6
ByBlock
100
AcDbText
 10
1244.111722670827
 20
414.3118395633888
 30
0.0
 40
12.0
  1
ゴム材
  7
K
100
AcDbText
  0
LINE
  5
318335A5
330
318324AF
100
AcDbEntity
  8
SUNPOU
  6
ByBlock
100
AcDbLine
 10
1239.771388268309
 20
413.5825209487594
 30
0.0
 11
1287.111327176896
 21
413.5825209487596
 31
0.0
  0
LINE
  5
31833667
330
318324AF
100
AcDbEntity
  8
TEXT
100
AcDbLine
 10
1341.291310112478
 20
29.45462704664328
 30
0.0
 11
1341.291310112478
 21
23.45462704664328
 31
0.0
  0
LINE
  5
31833668
330
318324AF
100
AcDbEntity
  8
TEXT
100
AcDbLine
 10
1339.091310112479
 20
29.45462704664328
 30
0.0
 11
1339.091310112479
 21
23.45462704664328
 31
0.0
  0
LINE
  5
31833669
330
318324AF
100
AcDbEntity
  8
TEXT
100
AcDbLine
 10
1340.191310112479
 20
29.45462704664328
 30
0.0
 11
1340.191310112479
 21
23.45462704664328
 31
0.0
  0
LINE
  5
3183366A
330
318324AF
100
AcDbEntity
  8
TEXT
100
AcDbLine
 10
1337.991310112479
 20
23.45462704664328
 30
0.0
 11
1342.391310112478
 21
23.45462704664328
 31
0.0
  0
LINE
  5
3183366B
330
318324AF
100
AcDbEntity
  8
TEXT
100
AcDbLine
 10
1337.991310112479
 20
29.45462704664328
 30
0.0
 11
1342.391310112478
 21
29.45462704664328
 31
0.0
  0
LINE
  5
3183366D
330
318324AF
100
AcDbEntity
  8
TEXT
100
AcDbLine
 10
884.4563134735333
 20
360.7046270466432
 30
0.0
 11
888.8563134735329
 21
360.7046270466432
 31
0.0
  0
LINE
  5
3183366E
330
318324AF
100
AcDbEntity
  8
TEXT
100
AcDbLine
 10
884.4563134735333
 20
354.7046270466432
 30
0.0
 11
888.8563134735329
 21
354.7046270466432
 31
0.0
  0
LINE
  5
3183366F
330
318324AF
100
AcDbEntity
  8
TEXT
100
AcDbLine
 10
886.6563134735331
 20
360.7046270466432
 30
0.0
 11
886.6563134735331
 21
354.7046270466432
 31
0.0
  0
LINE
  5
31833670
330
318324AF
100
AcDbEntity
  8
TEXT
100
AcDbLine
 10
885.5563134735332
 20
360.7046270466432
 30
0.0
 11
885.5563134735332
 21
354.7046270466432
 31
0.0
  0
LINE
  5
31833671
330
318324AF
100
AcDbEntity
  8
TEXT
100
AcDbLine
 10
887.756313473533
 20
360.7046270466432
 30
0.0
 11
887.756313473533
 21
354.7046270466432
 31
0.0
  0
LINE
  5
31833672
330
318324AF
100
AcDbEntity
  8
TEXT
100
AcDbLine
 10
885.4913119124798
 20
19.45462704664328
 30
0.0
 11
889.8913119124795
 21
19.45462704664328
 31
0.0
  0
LINE
  5
31833673
330
318324AF
100
AcDbEntity
  8
TEXT
100
AcDbLine
 10
885.4913119124798
 20
13.45462704664328
 30
0.0
 11
889.8913119124795
 21
13.45462704664328
 31
0.0
  0
LINE
  5
31833674
330
318324AF
100
AcDbEntity
  8
TEXT
100
AcDbLine
 10
887.6913119124797
 20
19.45462704664328
 30
0.0
 11
887.6913119124797
 21
13.45462704664328
 31
0.0
  0
LINE
  5
31833675
330
318324AF
100
AcDbEntity
  8
TEXT
100
AcDbLine
 10
886.5913119124797
 20
19.45462704664328
 30
0.0
 11
886.5913119124797
 21
13.45462704664328
 31
0.0
  0
LINE
  5
31833676
330
318324AF
100
AcDbEntity
  8
TEXT
100
AcDbLine
 10
888.7913119124796
 20
19.45462704664328
 30
0.0
 11
888.7913119124796
 21
13.45462704664328
 31
0.0
  0
LINE
  5
31833677
330
318324AF
100
AcDbEntity
  8
SUNPOU
100
AcDbLine
 10
885.6913119124797
 20
19.45462704664328
 30
0.0
 11
889.6913119124796
 21
19.45462704664328
 31
0.0
  0
ENDSEC
  0
SECTION
  2
OBJECTS
  0
DICTIONARY
  5
318324A3
330
0
100
AcDbDictionary
281
     1
  3
ACAD_GROUP
350
318324A4
  3
ACAD_LAYOUT
350
318327C1
  3
ACAD_MLINESTYLE
350
318324A5
  3
ACAD_PLOTSETTINGS
350
318327C2
  3
ACAD_PLOTSTYLENAME
350
318327BF
  3
ACDBVARIABLEDICTIONARY
350
318335E4
  0
DICTIONARY
  5
31833657
330
31832499
100
AcDbDictionary
280
     1
281
     1
  3
ACAD_LAYERSTATES
360
31833658
  0
DICTIONARY
  5
318335CC
330
318324AF
100
AcDbDictionary
280
     1
281
     1
  3
ACAD_LAYOUTSELFREF
360
3183364C
  0
DICTIONARY
  5
318335CA
330
318324AC
100
AcDbDictionary
280
     1
281
     1
  3
ACAD_LAYOUTSELFREF
360
3183364B
  0
DICTIONARY
  5
318324A4
102
{ACAD_REACTORS
330
318324A3
102
}
330
318324A3
100
AcDbDictionary
281
     1
  0
DICTIONARY
  5
318327C1
102
{ACAD_REACTORS
330
318324A3
102
}
330
318324A3
100
AcDbDictionary
281
     1
  3
Model
350
31833651
  3
ﾚｲｱｳﾄ1
350
31833652
  0
DICTIONARY
  5
318324A5
102
{ACAD_REACTORS
330
318324A3
102
}
330
318324A3
100
AcDbDictionary
281
     1
  3
STANDARD
350
318324B2
  0
DICTIONARY
  5
318327C2
102
{ACAD_REACTORS
330
318324A3
102
}
330
318324A3
100
AcDbDictionary
281
     1
  0
ACDBDICTIONARYWDFLT
  5
318327BF
102
{ACAD_REACTORS
330
318324A3
102
}
330
318324A3
100
AcDbDictionary
281
     1
  3
Normal
350
318327C0
100
AcDbDictionaryWithDefault
340
318327C0
  0
DICTIONARY
  5
318335E4
102
{ACAD_REACTORS
330
318324A3
102
}
330
318324A3
100
AcDbDictionary
281
     1
  3
DIMASSOC
350
318335E5
  0
DICTIONARY
  5
31833658
102
{ACAD_REACTORS
330
31833657
102
}
330
31833657
100
AcDbDictionary
281
     1
  0
XRECORD
  5
3183364C
102
{ACAD_REACTORS
330
318335CC
102
}
330
318335CC
100
AcDbXrecord
280
     1
340
318324AF
  0
XRECORD
  5
3183364B
102
{ACAD_REACTORS
330
318335CA
102
}
330
318335CA
100
AcDbXrecord
280
     1
340
318324AC
  0
LAYOUT
  5
31833651
102
{ACAD_REACTORS
330
318327C1
102
}
330
318327C1
100
AcDbPlotSettings
  1

  2
\\Nt_honsya\GL-8300A
  4

  6

 40
0.0
 41
0.0
 42
0.0
 43
0.0
 44
0.0
 45
0.0
 46
0.0
 47
0.0
 48
0.0
 49
0.0
140
0.0
141
0.0
142
1.0
143
1.0
 70
 11952
 72
     0
 73
     1
 74
     0
  7

 75
     0
147
1.0
148
5178.615227287686
149
13182.33470417579
100
AcDbLayout
  1
Model
 70
     1
 71
     0
 10
0.0
 20
0.0
 11
12.0
 21
9.0
 12
0.0
 22
0.0
 32
0.0
 14
0.0
 24
0.0
 34
0.0
 15
0.0
 25
0.0
 35
0.0
146
0.0
 13
0.0
 23
0.0
 33
0.0
 16
1.0
 26
0.0
 36
0.0
 17
0.0
 27
1.0
 37
0.0
 76
     0
330
318324AF
  0
LAYOUT
  5
31833652
102
{ACAD_REACTORS
330
318327C1
102
}
330
318327C1
100
AcDbPlotSettings
  1

  2
\\Nt_honsya\GL-8300A
  4

  6

 40
0.0
 41
0.0
 42
0.0
 43
0.0
 44
0.0
 45
0.0
 46
0.0
 47
0.0
 48
0.0
 49
0.0
140
0.0
141
0.0
142
1.0
143
1.0
 70
   688
 72
     0
 73
     0
 74
     5
  7
pdf001.ctb
 75
    16
147
1.0
148
0.0
149
0.0
100
AcDbLayout
  1
ﾚｲｱｳﾄ1
 70
     0
 71
     1
 10
0.0
 20
0.0
 11
12.0
 21
9.0
 12
0.0
 22
0.0
 32
0.0
 14
1.000000000000000E+20
 24
1.000000000000000E+20
 34
1.000000000000000E+20
 15
-1.000000000000000E+20
 25
-1.000000000000000E+20
 35
-1.000000000000000E+20
146
0.0
 13
0.0
 23
0.0
 33
0.0
 16
1.0
 26
0.0
 36
0.0
 17
0.0
 27
1.0
 37
0.0
 76
     0
330
318324AC
  0
MLINESTYLE
  5
318324B2
102
{ACAD_REACTORS
330
318324A5
102
}
330
318324A5
100
AcDbMlineStyle
  2
STANDARD
 70
     0
  3

 62
     0
 51
90.0
 52
90.0
 71
     2
 49
0.5
 62
   256
  6
BYLAYER
 49
-0.5
 62
   256
  6
BYLAYER
  0
ACDBPLACEHOLDER
  5
318327C0
102
{ACAD_REACTORS
330
318327BF
102
}
330
318327BF
  0
DICTIONARYVAR
  5
318335E5
102
{ACAD_REACTORS
330
318335E4
102
}
330
318335E4
100
DictionaryVariables
280
     0
  1
0
  0
ENDSEC
  0
EOF
