  0
SECTION
  2
HEADER
  9
$ACADVER
  1
AC1015
  9
$ACADMAINTVER
 70
    10
  9
$DWGCODEPAGE
  3
ANSI_932
  9
$INSBASE
 10
0.0
 20
0.0
 30
0.0
  9
$EXTMIN
 10
0.0
 20
0.0
 30
0.0
  9
$EXTMAX
 10
452.4999981999997
 20
682.4999999999999
 30
0.0
  9
$LIMMIN
 10
0.0
 20
0.0
  9
$LIMMAX
 10
452.4999981999997
 20
682.4999999999999
  9
$ORTHOMODE
 70
     1
  9
$REGENMODE
 70
     1
  9
$FILLMODE
 70
     1
  9
$QTEXTMODE
 70
     0
  9
$MIRRTEXT
 70
     0
  9
$LTSCALE
 40
5.0
  9
$ATTMODE
 70
     1
  9
$TEXTSIZE
 40
7.5
  9
$TRACEWID
 40
0.05
  9
$TEXTSTYLE
  7
STANDARD
  9
$CLAYER
  8
JISSEN
  9
$CELTYPE
  6
BYLAYER
  9
$CECOLOR
 62
   256
  9
$CELTSCALE
 40
1.0
  9
$DISPSILH
 70
     0
  9
$DIMSCALE
 40
2.5
  9
$DIMASZ
 40
3.0
  9
$DIMEXO
 40
0.75
  9
$DIMDLI
 40
6.0
  9
$DIMRND
 40
0.0
  9
$DIMDLE
 40
0.0
  9
$DIMEXE
 40
1.0
  9
$DIMTP
 40
495.0
  9
$DIMTM
 40
0.0
  9
$DIMTXT
 40
3.0
  9
$DIMCEN
 40
0.0
  9
$DIMTSZ
 40
0.0
  9
$DIMTOL
 70
     0
  9
$DIMLIM
 70
     0
  9
$DIMTIH
 70
     0
  9
$DIMTOH
 70
     0
  9
$DIMSE1
 70
     0
  9
$DIMSE2
 70
     0
  9
$DIMTAD
 70
     3
  9
$DIMZIN
 70
     8
  9
$DIMBLK
  1
ARROWANG
  9
$DIMASO
 70
     0
  9
$DIMSHO
 70
     0
  9
$DIMPOST
  1

  9
$DIMAPOST
  1

  9
$DIMALT
 70
     0
  9
$DIMALTD
 70
     2
  9
$DIMALTF
 40
25.4
  9
$DIMLFAC
 40
1.0
  9
$DIMTOFL
 70
     1
  9
$DIMTVP
 40
0.0
  9
$DIMTIX
 70
     1
  9
$DIMSOXD
 70
     0
  9
$DIMSAH
 70
     1
  9
$DIMBLK1
  1
ARROWANG
  9
$DIMBLK2
  1
ARROWANG
  9
$DIMSTYLE
  2
IMAO
  9
$DIMCLRD
 70
   256
  9
$DIMCLRE
 70
   256
  9
$DIMCLRT
 70
   256
  9
$DIMTFAC
 40
1.0
  9
$DIMGAP
 40
1.0
  9
$DIMJUST
 70
     0
  9
$DIMSD1
 70
     0
  9
$DIMSD2
 70
     0
  9
$DIMTOLJ
 70
     1
  9
$DIMTZIN
 70
     0
  9
$DIMALTZ
 70
     0
  9
$DIMALTTZ
 70
     0
  9
$DIMUPT
 70
     0
  9
$DIMDEC
 70
     2
  9
$DIMTDEC
 70
     2
  9
$DIMALTU
 70
     2
  9
$DIMALTTD
 70
     2
  9
$DIMTXSTY
  7
K
  9
$DIMAUNIT
 70
     0
  9
$DIMADEC
 70
     0
  9
$DIMALTRND
 40
0.0
  9
$DIMAZIN
 70
     0
  9
$DIMDSEP
 70
    46
  9
$DIMATFIT
 70
     3
  9
$DIMFRAC
 70
     0
  9
$DIMLDRBLK
  1
ARROWANG
  9
$DIMLUNIT
 70
     2
  9
$DIMLWD
 70
    -2
  9
$DIMLWE
 70
    -2
  9
$DIMTMOVE
 70
     0
  9
$LUNITS
 70
     2
  9
$LUPREC
 70
     2
  9
$SKETCHINC
 40
0.1
  9
$FILLETRAD
 40
15.0
  9
$AUNITS
 70
     0
  9
$AUPREC
 70
     2
  9
$MENU
  1
STDR12J
  9
$ELEVATION
 40
0.0
  9
$PELEVATION
 40
0.0
  9
$THICKNESS
 40
0.0
  9
$LIMCHECK
 70
     0
  9
$CHAMFERA
 40
1.0
  9
$CHAMFERB
 40
1.0
  9
$CHAMFERC
 40
0.0
  9
$CHAMFERD
 40
0.0
  9
$SKPOLY
 70
     0
  9
$TDCREATE
 40
2450694.750535185
  9
$TDUCREATE
 40
2450694.375535185
  9
$TDUPDATE
 40
2455101.735757048
  9
$TDUUPDATE
 40
2455101.360757048
  9
$TDINDWG
 40
0.4789196065
  9
$TDUSRTIMER
 40
0.4789192593
  9
$USRTIMER
 70
     1
  9
$ANGBASE
 50
0.0
  9
$ANGDIR
 70
     0
  9
$PDMODE
 70
     0
  9
$PDSIZE
 40
0.0
  9
$PLINEWID
 40
0.0
  9
$SPLFRAME
 70
     0
  9
$SPLINETYPE
 70
     6
  9
$SPLINESEGS
 70
     8
  9
$HANDSEED
  5
31835629
  9
$SURFTAB1
 70
     6
  9
$SURFTAB2
 70
     6
  9
$SURFTYPE
 70
     6
  9
$SURFU
 70
     6
  9
$SURFV
 70
     6
  9
$UCSBASE
  2

  9
$UCSNAME
  2

  9
$UCSORG
 10
0.0
 20
0.0
 30
0.0
  9
$UCSXDIR
 10
1.0
 20
0.0
 30
0.0
  9
$UCSYDIR
 10
0.0
 20
1.0
 30
0.0
  9
$UCSORTHOREF
  2

  9
$UCSORTHOVIEW
 70
     0
  9
$UCSORGTOP
 10
0.0
 20
0.0
 30
0.0
  9
$UCSORGBOTTOM
 10
0.0
 20
0.0
 30
0.0
  9
$UCSORGLEFT
 10
0.0
 20
0.0
 30
0.0
  9
$UCSORGRIGHT
 10
0.0
 20
0.0
 30
0.0
  9
$UCSORGFRONT
 10
0.0
 20
0.0
 30
0.0
  9
$UCSORGBACK
 10
0.0
 20
0.0
 30
0.0
  9
$PUCSBASE
  2

  9
$PUCSNAME
  2

  9
$PUCSORG
 10
0.0
 20
0.0
 30
0.0
  9
$PUCSXDIR
 10
1.0
 20
0.0
 30
0.0
  9
$PUCSYDIR
 10
0.0
 20
1.0
 30
0.0
  9
$PUCSORTHOREF
  2

  9
$PUCSORTHOVIEW
 70
     0
  9
$PUCSORGTOP
 10
0.0
 20
0.0
 30
0.0
  9
$PUCSORGBOTTOM
 10
0.0
 20
0.0
 30
0.0
  9
$PUCSORGLEFT
 10
0.0
 20
0.0
 30
0.0
  9
$PUCSORGRIGHT
 10
0.0
 20
0.0
 30
0.0
  9
$PUCSORGFRONT
 10
0.0
 20
0.0
 30
0.0
  9
$PUCSORGBACK
 10
0.0
 20
0.0
 30
0.0
  9
$USERI1
 70
     4
  9
$USERI2
 70
     1
  9
$USERI3
 70
     1
  9
$USERI4
 70
     1
  9
$USERI5
 70
     1
  9
$USERR1
 40
1.0
  9
$USERR2
 40
3.0
  9
$USERR3
 40
3.0
  9
$USERR4
 40
1.5
  9
$USERR5
 40
10.0
  9
$WORLDVIEW
 70
     1
  9
$SHADEDGE
 70
     3
  9
$SHADEDIF
 70
    70
  9
$TILEMODE
 70
     1
  9
$MAXACTVP
 70
    16
  9
$PINSBASE
 10
0.0
 20
0.0
 30
0.0
  9
$PLIMCHECK
 70
     0
  9
$PEXTMIN
 10
1.000000000000000E+20
 20
1.000000000000000E+20
 30
1.000000000000000E+20
  9
$PEXTMAX
 10
-1.000000000000000E+20
 20
-1.000000000000000E+20
 30
-1.000000000000000E+20
  9
$PLIMMIN
 10
0.0
 20
0.0
  9
$PLIMMAX
 10
12.0
 20
9.0
  9
$UNITMODE
 70
     0
  9
$VISRETAIN
 70
     0
  9
$PLINEGEN
 70
     0
  9
$PSLTSCALE
 70
     0
  9
$TREEDEPTH
 70
     0
  9
$CMLSTYLE
  2
STANDARD
  9
$CMLJUST
 70
     0
  9
$CMLSCALE
 40
1.0
  9
$PROXYGRAPHICS
 70
     1
  9
$MEASUREMENT
 70
     0
  9
$CELWEIGHT
370
    -1
  9
$ENDCAPS
280
     0
  9
$JOINSTYLE
280
     0
  9
$LWDISPLAY
290
     0
  9
$INSUNITS
 70
     0
  9
$HYPERLINKBASE
  1

  9
$STYLESHEET
  1
aclt.ctb
  9
$XEDIT
290
     1
  9
$CEPSNTYPE
380
     0
  9
$PSTYLEMODE
290
     1
  9
$FINGERPRINTGUID
  2
{66710F49-AE06-4EF0-8763-8658C3560B55}
  9
$VERSIONGUID
  2
{C028CACF-0EDE-45BA-B6E6-24E464242837}
  9
$EXTNAMES
290
     1
  9
$PSVPSCALE
 40
0.0
  9
$OLESTARTUP
290
     0
  0
ENDSEC
  0
SECTION
  2
CLASSES
  0
CLASS
  1
LWPOLYLINE
  2
AcDbPolyline
  3
AutoCAD 2000
 90
    32768
280
     0
281
     1
  0
CLASS
  1
HATCH
  2
AcDbHatch
  3
AutoCAD 2000
 90
    32768
280
     0
281
     1
  0
CLASS
  1
ACDBDICTIONARYWDFLT
  2
AcDbDictionaryWithDefault
  3
AutoCAD 2000
 90
        0
280
     0
281
     0
  0
CLASS
  1
ACDBPLACEHOLDER
  2
AcDbPlaceHolder
  3
AutoCAD 2000
 90
        0
280
     0
281
     0
  0
CLASS
  1
LAYOUT
  2
AcDbLayout
  3
AutoCAD 2000
 90
        0
280
     0
281
     0
  0
CLASS
  1
LONG_TRANSACTION
  2
AcDbLongTransaction
  3
AutoCAD 2000
 90
    32768
280
     0
281
     0
  0
CLASS
  1
LWPOLYLINE
  2
AcDbPolyline
  3
AutoCAD 2000
 90
    32768
280
     0
281
     1
  0
CLASS
  1
HATCH
  2
AcDbHatch
  3
AutoCAD 2000
 90
    32768
280
     0
281
     1
  0
CLASS
  1
XRECORD
  2
AcDbXrecord
  3
AutoCAD 2000
 90
    32768
280
     0
281
     0
  0
CLASS
  1
LONG_TRANSACTION
  2
AcDbLongTransaction
  3
AutoCAD 2000
 90
    32768
280
     0
281
     0
  0
CLASS
  1
LWPOLYLINE
  2
AcDbPolyline
  3
AutoCAD 2000
 90
    32768
280
     0
281
     1
  0
CLASS
  1
HATCH
  2
AcDbHatch
  3
AutoCAD 2000
 90
    32768
280
     0
281
     1
  0
CLASS
  1
XRECORD
  2
AcDbXrecord
  3
AutoCAD 2000
 90
    32768
280
     0
281
     0
  0
CLASS
  1
LONG_TRANSACTION
  2
AcDbLongTransaction
  3
AutoCAD 2000
 90
    32768
280
     0
281
     0
  0
CLASS
  1
LWPOLYLINE
  2
AcDbPolyline
  3
AutoCAD 2000
 90
    32768
280
     0
281
     1
  0
CLASS
  1
HATCH
  2
AcDbHatch
  3
AutoCAD 2000
 90
    32768
280
     0
281
     1
  0
CLASS
  1
XRECORD
  2
AcDbXrecord
  3
AutoCAD 2000
 90
    32768
280
     0
281
     0
  0
CLASS
  1
LONG_TRANSACTION
  2
AcDbLongTransaction
  3
AutoCAD 2000
 90
    32768
280
     0
281
     0
  0
CLASS
  1
LWPOLYLINE
  2
AcDbPolyline
  3
AutoCAD 2000
 90
    32768
280
     0
281
     1
  0
CLASS
  1
HATCH
  2
AcDbHatch
  3
AutoCAD 2000
 90
    32768
280
     0
281
     1
  0
CLASS
  1
XRECORD
  2
AcDbXrecord
  3
AutoCAD 2000
 90
    32768
280
     0
281
     0
  0
CLASS
  1
LONG_TRANSACTION
  2
AcDbLongTransaction
  3
AutoCAD 2000
 90
    32768
280
     0
281
     0
  0
CLASS
  1
LWPOLYLINE
  2
AcDbPolyline
  3
AutoCAD 2000
 90
    32768
280
     0
281
     1
  0
CLASS
  1
HATCH
  2
AcDbHatch
  3
AutoCAD 2000
 90
    32768
280
     0
281
     1
  0
CLASS
  1
XRECORD
  2
AcDbXrecord
  3
AutoCAD 2000
 90
    32768
280
     0
281
     0
  0
CLASS
  1
LONG_TRANSACTION
  2
AcDbLongTransaction
  3
AutoCAD 2000
 90
    32768
280
     0
281
     0
  0
CLASS
  1
LWPOLYLINE
  2
AcDbPolyline
  3
AutoCAD 2000
 90
    32768
280
     0
281
     1
  0
CLASS
  1
HATCH
  2
AcDbHatch
  3
AutoCAD 2000
 90
    32768
280
     0
281
     1
  0
CLASS
  1
XRECORD
  2
AcDbXrecord
  3
AutoCAD 2000
 90
    32768
280
     0
281
     0
  0
CLASS
  1
LONG_TRANSACTION
  2
AcDbLongTransaction
  3
AutoCAD 2000
 90
    32768
280
     0
281
     0
  0
CLASS
  1
LWPOLYLINE
  2
AcDbPolyline
  3
AutoCAD 2000
 90
    32768
280
     0
281
     1
  0
CLASS
  1
HATCH
  2
AcDbHatch
  3
AutoCAD 2000
 90
    32768
280
     0
281
     1
  0
CLASS
  1
XRECORD
  2
AcDbXrecord
  3
AutoCAD 2000
 90
    32768
280
     0
281
     0
  0
CLASS
  1
DICTIONARYVAR
  2
AcDbDictionaryVar
  3
AutoCAD 2000
 90
        0
280
     0
281
     0
  0
CLASS
  1
LONG_TRANSACTION
  2
AcDbLongTransaction
  3
AutoCAD 2000
 90
    32768
280
     0
281
     0
  0
CLASS
  1
LWPOLYLINE
  2
AcDbPolyline
  3
AutoCAD 2000
 90
    32768
280
     0
281
     1
  0
CLASS
  1
HATCH
  2
AcDbHatch
  3
AutoCAD 2000
 90
    32768
280
     0
281
     1
  0
CLASS
  1
XRECORD
  2
AcDbXrecord
  3
AutoCAD 2000
 90
    32768
280
     0
281
     0
  0
CLASS
  1
LONG_TRANSACTION
  2
AcDbLongTransaction
  3
AutoCAD 2000
 90
    32768
280
     0
281
     0
  0
CLASS
  1
LWPOLYLINE
  2
AcDbPolyline
  3
AutoCAD 2000
 90
    32768
280
     0
281
     1
  0
CLASS
  1
HATCH
  2
AcDbHatch
  3
AutoCAD 2000
 90
    32768
280
     0
281
     1
  0
CLASS
  1
XRECORD
  2
AcDbXrecord
  3
AutoCAD 2000
 90
    32768
280
     0
281
     0
  0
CLASS
  1
LONG_TRANSACTION
  2
AcDbLongTransaction
  3
AutoCAD 2000
 90
    32768
280
     0
281
     0
  0
CLASS
  1
LWPOLYLINE
  2
AcDbPolyline
  3
AutoCAD 2000
 90
    32768
280
     0
281
     1
  0
CLASS
  1
HATCH
  2
AcDbHatch
  3
AutoCAD 2000
 90
    32768
280
     0
281
     1
  0
CLASS
  1
XRECORD
  2
AcDbXrecord
  3
AutoCAD 2000
 90
    32768
280
     0
281
     0
  0
CLASS
  1
LONG_TRANSACTION
  2
AcDbLongTransaction
  3
AutoCAD 2000
 90
    32768
280
     0
281
     0
  0
CLASS
  1
LWPOLYLINE
  2
AcDbPolyline
  3
AutoCAD 2000
 90
    32768
280
     0
281
     1
  0
CLASS
  1
HATCH
  2
AcDbHatch
  3
AutoCAD 2000
 90
    32768
280
     0
281
     1
  0
CLASS
  1
XRECORD
  2
AcDbXrecord
  3
AutoCAD 2000
 90
    32768
280
     0
281
     0
  0
ENDSEC
  0
SECTION
  2
TABLES
  0
TABLE
  2
VPORT
  5
3183249F
330
0
100
AcDbSymbolTable
 70
    10
  0
VPORT
  5
318324C3
330
3183249F
100
AcDbSymbolTableRecord
100
AcDbViewportTableRecord
  2
2
 70
     0
 10
0.5
 20
0.0
 11
1.0
 21
1.0
 12
0.9240312421264802
 22
1.052650975462764
 13
0.0
 23
0.0
 14
1.0
 24
1.0
 15
10.0
 25
10.0
 16
0.0
 26
0.0
 36
1.0
 17
0.0
 27
0.0
 37
0.0
 40
2.105301950925533
 41
0.8778135048231511
 42
50.0
 43
0.0
 44
0.0
 50
0.0
 51
0.0
 71
     0
 72
   500
 73
     1
 74
     1
 75
     0
 76
     0
 77
     0
 78
     0
281
     0
 65
     1
110
0.0
120
0.0
130
0.0
111
1.0
121
0.0
131
0.0
112
0.0
122
1.0
132
0.0
 79
     0
146
0.0
  0
VPORT
  5
318324C4
330
3183249F
100
AcDbSymbolTableRecord
100
AcDbViewportTableRecord
  2
2
 70
     0
 10
0.0
 20
0.0
 11
0.5
 21
1.0
 12
0.9240312421264802
 22
1.052650975462764
 13
0.0
 23
0.0
 14
1.0
 24
1.0
 15
10.0
 25
10.0
 16
0.0
 26
0.0
 36
1.0
 17
0.0
 27
0.0
 37
0.0
 40
2.105301950925533
 41
0.8778135048231511
 42
50.0
 43
0.0
 44
0.0
 50
0.0
 51
0.0
 71
     0
 72
   500
 73
     1
 74
     1
 75
     0
 76
     0
 77
     0
 78
     0
281
     0
 65
     1
110
0.0
120
0.0
130
0.0
111
1.0
121
0.0
131
0.0
112
0.0
122
1.0
132
0.0
 79
     0
146
0.0
  0
VPORT
  5
318324C5
330
3183249F
100
AcDbSymbolTableRecord
100
AcDbViewportTableRecord
  2
3
 70
     0
 10
0.0
 20
0.5
 11
1.0
 21
1.0
 12
2.832169994473273
 22
1.052650975462764
 13
0.0
 23
0.0
 14
1.0
 24
1.0
 15
10.0
 25
10.0
 16
0.0
 26
0.0
 36
1.0
 17
0.0
 27
0.0
 37
0.0
 40
2.105301950925533
 41
3.571428571428571
 42
50.0
 43
0.0
 44
0.0
 50
0.0
 51
0.0
 71
     0
 72
   500
 73
     1
 74
     1
 75
     0
 76
     0
 77
     0
 78
     0
281
     0
 65
     1
110
0.0
120
0.0
130
0.0
111
1.0
121
0.0
131
0.0
112
0.0
122
1.0
132
0.0
 79
     0
146
0.0
  0
VPORT
  5
318324C6
330
3183249F
100
AcDbSymbolTableRecord
100
AcDbViewportTableRecord
  2
3
 70
     0
 10
0.0
 20
0.0
 11
1.0
 21
0.5
 12
2.856741679241311
 22
1.052650975462764
 13
0.0
 23
0.0
 14
1.0
 24
1.0
 15
10.0
 25
10.0
 16
0.0
 26
0.0
 36
1.0
 17
0.0
 27
0.0
 37
0.0
 40
2.105301950925533
 41
3.594771241830064
 42
50.0
 43
0.0
 44
0.0
 50
0.0
 51
0.0
 71
     0
 72
   500
 73
     1
 74
     1
 75
     0
 76
     0
 77
     0
 78
     0
281
     0
 65
     1
110
0.0
120
0.0
130
0.0
111
1.0
121
0.0
131
0.0
112
0.0
122
1.0
132
0.0
 79
     0
146
0.0
  0
VPORT
  5
318324C7
330
3183249F
100
AcDbSymbolTableRecord
100
AcDbViewportTableRecord
  2
4
 70
     0
 10
0.5
 20
0.0
 11
1.0
 21
0.5
 12
2.886857516709718
 22
1.052650975462764
 13
0.0
 23
0.0
 14
1.0
 24
1.0
 15
10.0
 25
10.0
 16
0.0
 26
0.0
 36
1.0
 17
0.0
 27
0.0
 37
0.0
 40
4.275207030309068
 41
1.784313725490195
 42
50.0
 43
0.0
 44
0.0
 50
0.0
 51
0.0
 71
     0
 72
   500
 73
     1
 74
     1
 75
     0
 76
     0
 77
     0
 78
     0
281
     0
 65
     1
110
0.0
120
0.0
130
0.0
111
1.0
121
0.0
131
0.0
112
0.0
122
1.0
132
0.0
 79
     0
146
0.0
  0
VPORT
  5
318324C8
330
3183249F
100
AcDbSymbolTableRecord
100
AcDbViewportTableRecord
  2
4
 70
     0
 10
0.5
 20
0.5
 11
1.0
 21
1.0
 12
2.862090274555523
 22
1.052650975462764
 13
0.0
 23
0.0
 14
1.0
 24
1.0
 15
10.0
 25
10.0
 16
0.0
 26
0.0
 36
1.0
 17
0.0
 27
0.0
 37
0.0
 40
4.275207030309068
 41
1.77272727272727
 42
50.0
 43
0.0
 44
0.0
 50
0.0
 51
0.0
 71
     0
 72
   500
 73
     1
 74
     1
 75
     0
 76
     0
 77
     0
 78
     0
281
     0
 65
     1
110
0.0
120
0.0
130
0.0
111
1.0
121
0.0
131
0.0
112
0.0
122
1.0
132
0.0
 79
     0
146
0.0
  0
VPORT
  5
318324C9
330
3183249F
100
AcDbSymbolTableRecord
100
AcDbViewportTableRecord
  2
4
 70
     0
 10
0.0
 20
0.5
 11
0.5
 21
1.0
 12
2.862090274555523
 22
1.052650975462764
 13
0.0
 23
0.0
 14
1.0
 24
1.0
 15
10.0
 25
10.0
 16
0.0
 26
0.0
 36
1.0
 17
0.0
 27
0.0
 37
0.0
 40
4.275207030309068
 41
1.77272727272727
 42
50.0
 43
0.0
 44
0.0
 50
0.0
 51
0.0
 71
     0
 72
   500
 73
     1
 74
     1
 75
     0
 76
     0
 77
     0
 78
     0
281
     0
 65
     1
110
0.0
120
0.0
130
0.0
111
1.0
121
0.0
131
0.0
112
0.0
122
1.0
132
0.0
 79
     0
146
0.0
  0
VPORT
  5
318324CA
330
3183249F
100
AcDbSymbolTableRecord
100
AcDbViewportTableRecord
  2
4
 70
     0
 10
0.0
 20
0.0
 11
0.5
 21
0.5
 12
2.886857516709718
 22
1.052650975462764
 13
0.0
 23
0.0
 14
1.0
 24
1.0
 15
10.0
 25
10.0
 16
0.0
 26
0.0
 36
1.0
 17
0.0
 27
0.0
 37
0.0
 40
4.275207030309068
 41
1.784313725490195
 42
50.0
 43
0.0
 44
0.0
 50
0.0
 51
0.0
 71
     0
 72
   500
 73
     1
 74
     1
 75
     0
 76
     0
 77
     0
 78
     0
281
     0
 65
     1
110
0.0
120
0.0
130
0.0
111
1.0
121
0.0
131
0.0
112
0.0
122
1.0
132
0.0
 79
     0
146
0.0
  0
VPORT
  5
31835607
330
3183249F
100
AcDbSymbolTableRecord
100
AcDbViewportTableRecord
  2
*Active
 70
     0
 10
0.0
 20
0.0
 11
1.0
 21
1.0
 12
226.2500022608687
 22
341.2500047674982
 13
0.0
 23
0.0
 14
1.0
 24
1.0
 15
10.0
 25
10.0
 16
0.0
 26
0.0
 36
1.0
 17
0.0
 27
0.0
 37
0.0
 40
686.8680895514062
 41
2.007438894792773
 42
50.0
 43
0.0
 44
0.0
 50
0.0
 51
0.0
 71
     0
 72
   500
 73
     1
 74
     0
 75
     0
 76
     0
 77
     0
 78
     0
281
     0
 65
     1
110
0.0
120
0.0
130
0.0
111
1.0
121
0.0
131
0.0
112
0.0
122
1.0
132
0.0
 79
     0
146
0.0
  0
ENDTAB
  0
TABLE
  2
LTYPE
  5
3183249C
330
0
100
AcDbSymbolTable
 70
     3
  0
LTYPE
  5
318324A9
330
3183249C
100
AcDbSymbolTableRecord
100
AcDbLinetypeTableRecord
  2
BYBLOCK
 70
     0
  3

 72
    65
 73
     0
 40
0.0
  0
LTYPE
  5
318324AA
330
3183249C
100
AcDbSymbolTableRecord
100
AcDbLinetypeTableRecord
  2
BYLAYER
 70
     0
  3

 72
    65
 73
     0
 40
0.0
  0
LTYPE
  5
318324AB
330
3183249C
100
AcDbSymbolTableRecord
100
AcDbLinetypeTableRecord
  2
CONTINUOUS
 70
     0
  3
実線
 72
    65
 73
     0
 40
0.0
  0
LTYPE
  5
318324C2
330
3183249C
100
AcDbSymbolTableRecord
100
AcDbLinetypeTableRecord
  2
HIDDEN
 70
     0
  3
_ _ _ _ _ _ _ _ _ _ _ _ _ _ _ _ _ _ _ _ _ _ _
 72
    65
 73
     2
 40
0.375
 49
0.25
 74
     0
 49
-0.125
 74
     0
  0
LTYPE
  5
31834663
330
3183249C
100
AcDbSymbolTableRecord
100
AcDbLinetypeTableRecord
  2
CENTER
 70
     0
  3
____ _ ____ _ ____ _ ____ _ ____ _ ____ _ ____
 72
    65
 73
     4
 40
2.0
 49
1.25
 74
     0
 49
-0.25
 74
     0
 49
0.25
 74
     0
 49
-0.25
 74
     0
  0
ENDTAB
  0
TABLE
  2
LAYER
  5
31832499
102
{ACAD_XDICTIONARY
360
31833AFE
102
}
330
0
100
AcDbSymbolTable
 70
    10
  0
LAYER
  5
318324A6
330
31832499
100
AcDbSymbolTableRecord
100
AcDbLayerTableRecord
  2
0
 70
     0
 62
     7
  6
CONTINUOUS
370
    -3
390
31832E14
  0
LAYER
  5
318324D2
330
31832499
100
AcDbSymbolTableRecord
100
AcDbLayerTableRecord
  2
SUNPOU
 70
     0
 62
     3
  6
CONTINUOUS
370
    -3
390
31832E14
  0
LAYER
  5
318324D3
330
31832499
100
AcDbSymbolTableRecord
100
AcDbLayerTableRecord
  2
TEXT
 70
     0
 62
     3
  6
CONTINUOUS
370
    -3
390
31832E14
  0
LAYER
  5
318324D4
330
31832499
100
AcDbSymbolTableRecord
100
AcDbLayerTableRecord
  2
SAISEN
 70
     0
 62
     4
  6
CONTINUOUS
370
    -3
390
31832E14
  0
LAYER
  5
318324D5
330
31832499
100
AcDbSymbolTableRecord
100
AcDbLayerTableRecord
  2
JISSEN
 70
     0
 62
     7
  6
CONTINUOUS
370
    -3
390
31832E14
  0
LAYER
  5
318324D7
330
31832499
100
AcDbSymbolTableRecord
100
AcDbLayerTableRecord
  2
TENSEN
 70
     0
 62
     2
  6
HIDDEN
370
    -3
390
31832E14
  0
LAYER
  5
318324D9
330
31832499
100
AcDbSymbolTableRecord
100
AcDbLayerTableRecord
  2
WAKU
 70
     0
 62
     5
  6
CONTINUOUS
370
    -3
390
31832E14
  0
LAYER
  5
31834664
330
31832499
100
AcDbSymbolTableRecord
100
AcDbLayerTableRecord
  2
ITTEN
 70
     0
 62
     1
  6
CENTER
370
    -3
390
31832E14
  0
LAYER
  5
31834665
330
31832499
100
AcDbSymbolTableRecord
100
AcDbLayerTableRecord
  2
HATCH
 70
     0
 62
     4
  6
CONTINUOUS
370
    -3
390
31832E14
  0
LAYER
  5
31834666
330
31832499
100
AcDbSymbolTableRecord
100
AcDbLayerTableRecord
  2
1
 70
     0
 62
     6
  6
CONTINUOUS
370
    -3
390
31832E14
  0
ENDTAB
  0
TABLE
  2
STYLE
  5
3183249A
330
0
100
AcDbSymbolTable
 70
     4
  0
STYLE
  5
318324A7
330
3183249A
100
AcDbSymbolTableRecord
100
AcDbTextStyleTableRecord
  2
STANDARD
 70
     0
 40
0.0
 41
1.0
 50
0.0
 71
     0
 42
7.5
  3
ROMANS.shx
  4
bigfont.shx
  0
STYLE
  5
318324BE
330
3183249A
100
AcDbSymbolTableRecord
100
AcDbTextStyleTableRecord
  2
K
 70
     0
 40
0.0
 41
1.0
 50
0.0
 71
     0
 42
3.0
  3
ROMANS
  4
EXTFONT
  0
STYLE
  5
31832694
330
3183249A
100
AcDbSymbolTableRecord
100
AcDbTextStyleTableRecord
  2
ROMANS
 70
     0
 40
0.0
 41
0.8
 50
0.0
 71
     0
 42
55.0
  3
romans
  4

  0
STYLE
  5
31833C4F
330
3183249A
100
AcDbSymbolTableRecord
100
AcDbTextStyleTableRecord
  2
BIGFONT
 70
     0
 40
3.5
 41
0.75
 50
15.0
 71
     0
 42
3.5
  3
SIMPLEX
  4
BIGFONT
  0
ENDTAB
  0
TABLE
  2
VIEW
  5
3183249D
330
0
100
AcDbSymbolTable
 70
     0
  0
ENDTAB
  0
TABLE
  2
UCS
  5
3183249E
330
0
100
AcDbSymbolTable
 70
     0
  0
ENDTAB
  0
TABLE
  2
APPID
  5
318324A0
330
0
100
AcDbSymbolTable
 70
     1
  0
APPID
  5
318324A8
330
318324A0
100
AcDbSymbolTableRecord
100
AcDbRegAppTableRecord
  2
ACAD
 70
     0
  0
ENDTAB
  0
TABLE
  2
DIMSTYLE
  5
318324A1
330
0
100
AcDbSymbolTable
 70
     1
100
AcDbDimStyleTable
 71
     0
  0
DIMSTYLE
105
318324CD
330
318324A1
100
AcDbSymbolTableRecord
100
AcDbDimStyleTableRecord
  2
IMAO
 70
     0
 41
1.5
 42
0.75
 43
6.0
 44
1.0
 47
495.0
 73
     0
 74
     0
 77
     3
 78
     8
140
3.0
141
0.0
147
1.0
172
     1
173
     1
174
     1
176
   256
177
   256
178
   256
271
     2
272
     2
340
318324BE
341
318324B9
342
318324B9
343
318324B9
344
318324B9
  0
ENDTAB
  0
TABLE
  2
BLOCK_RECORD
  5
31832498
330
0
100
AcDbSymbolTable
 70
     7
  0
BLOCK_RECORD
  5
318324AF
102
{ACAD_XDICTIONARY
360
31832E50
102
}
330
31832498
100
AcDbSymbolTableRecord
100
AcDbBlockTableRecord
  2
*MODEL_SPACE
340
31834F3A
  0
BLOCK_RECORD
  5
318324AC
102
{ACAD_XDICTIONARY
360
31832E4E
102
}
330
31832498
100
AcDbSymbolTableRecord
100
AcDbBlockTableRecord
  2
*PAPER_SPACE
340
31834F3B
  0
BLOCK_RECORD
  5
318324B9
330
31832498
100
AcDbSymbolTableRecord
100
AcDbBlockTableRecord
  2
ARROWANG
340
0
  0
BLOCK_RECORD
  5
31833B76
330
31832498
100
AcDbSymbolTableRecord
100
AcDbBlockTableRecord
  2
A$C6D2828F9
340
0
102
{BLKREFS
331
31834C91
331
31835202
102
}
  0
BLOCK_RECORD
  5
31834597
330
31832498
100
AcDbSymbolTableRecord
100
AcDbBlockTableRecord
  2
*X2
340
0
102
{BLKREFS
331
31834DC5
102
}
  0
BLOCK_RECORD
  5
318345B9
330
31832498
100
AcDbSymbolTableRecord
100
AcDbBlockTableRecord
  2
*X3
340
0
102
{BLKREFS
331
31834BA3
102
}
  0
BLOCK_RECORD
  5
31834606
330
31832498
100
AcDbSymbolTableRecord
100
AcDbBlockTableRecord
  2
*X4
340
0
102
{BLKREFS
331
31834AEF
331
31834B79
102
}
  0
BLOCK_RECORD
  5
3183460E
330
31832498
100
AcDbSymbolTableRecord
100
AcDbBlockTableRecord
  2
*X5
340
0
102
{BLKREFS
331
31834C74
102
}
  0
BLOCK_RECORD
  5
3183465B
330
31832498
100
AcDbSymbolTableRecord
100
AcDbBlockTableRecord
  2
*X6
340
0
102
{BLKREFS
331
31834BD5
331
31834C05
102
}
  0
ENDTAB
  0
ENDSEC
  0
SECTION
  2
BLOCKS
  0
BLOCK
  5
318324DE
330
318324AF
100
AcDbEntity
  8
0
100
AcDbBlockBegin
  2
*MODEL_SPACE
 70
     0
 10
0.0
 20
0.0
 30
0.0
  3
*MODEL_SPACE
  1

  0
ENDBLK
  5
318324DF
330
318324AF
100
AcDbEntity
  8
0
100
AcDbBlockEnd
  0
BLOCK
  5
318324DC
330
318324AC
100
AcDbEntity
 67
     1
  8
0
100
AcDbBlockBegin
  2
*PAPER_SPACE
 70
     0
 10
0.0
 20
0.0
 30
0.0
  3
*PAPER_SPACE
  1

  0
ENDBLK
  5
318324DD
330
318324AC
100
AcDbEntity
 67
     1
  8
0
100
AcDbBlockEnd
  0
BLOCK
  5
1D
330
318324B9
100
AcDbEntity
  8
0
100
AcDbBlockBegin
  2
ARROWANG
 70
     0
 10
0.0
 20
0.0
 30
0.0
  3
ARROWANG
  1

  0
LINE
  5
1E
330
318324B9
100
AcDbEntity
  8
SUNPOU
100
AcDbLine
 10
0.0
 20
0.0
 30
0.0
 11
-1.499999999999956
 21
0.401923788646741
 31
0.0
  0
LINE
  5
1F
330
318324B9
100
AcDbEntity
  8
SUNPOU
100
AcDbLine
 10
0.0
 20
0.0
 30
0.0
 11
-1.500000000000026
 21
-0.4019237886467124
 31
0.0
  0
ENDBLK
  5
20
330
318324B9
100
AcDbEntity
  8
0
100
AcDbBlockEnd
  0
BLOCK
  5
31833B7F
330
31833B76
100
AcDbEntity
  8
0
100
AcDbBlockBegin
  2
A$C6D2828F9
 70
     0
 10
0.0
 20
0.0
 30
0.0
  3
A$C6D2828F9
  1

  0
LINE
  5
31833B77
102
{ACAD_REACTORS
330
31833B79
102
}
330
31833B76
100
AcDbEntity
  8
JISSEN
 62
     0
100
AcDbLine
 10
-0.0000015747326643
 20
11.20000097842705
 30
0.0
 11
-0.0000015747326643
 21
0.0000009784270105
 31
0.0
  0
LINE
  5
31833B78
102
{ACAD_REACTORS
330
31833B79
102
}
330
31833B76
100
AcDbEntity
  8
JISSEN
 62
     0
100
AcDbLine
 10
7.999998425267107
 20
40.00000097842701
 30
0.0
 11
7.999998425267334
 21
8.000000978427124
 31
0.0
  0
HATCH
  5
31833B79
330
31833B76
100
AcDbEntity
  8
JISSEN
100
AcDbHatch
 10
0.0
 20
0.0
 30
0.0
210
0.0
220
0.0
230
1.0
  2
SOLID
 70
     1
 71
     1
 91
        1
 92
        7
 72
     0
 73
     1
 93
        7
 10
4.799998425267175
 20
28.00000097843644
 10
4.799998425267061
 20
16.00000097842696
 10
-0.0000015747326643
 20
11.2000009784272
 10
-0.0000015747326643
 20
0.0000009784272468
 10
7.999998425267334
 20
8.000000978426932
 10
7.999998425267107
 20
40.00000097842709
 10
-0.0000015747330053
 20
28.00000097842701
 97
        7
330
31833B7E
330
31833B7D
330
31833B7B
330
31833B7C
330
31833B77
330
31833B7A
330
31833B78
 75
     0
 76
     1
 47
0.2281045491404171
 98
        1
 10
4.827187266482154
 20
30.42457707563016
  0
LINE
  5
31833B7A
102
{ACAD_REACTORS
330
31833B79
102
}
330
31833B76
100
AcDbEntity
  8
JISSEN
 62
     0
100
AcDbLine
 10
-0.0000015747328916
 20
0.0000009784270105
 30
0.0
 11
7.999998425267334
 21
8.000000978427008
 31
0.0
  0
LINE
  5
31833B7B
102
{ACAD_REACTORS
330
31833B79
102
}
330
31833B76
100
AcDbEntity
  8
JISSEN
 62
     0
100
AcDbLine
 10
4.799998425267175
 20
28.00000097842701
 30
0.0
 11
4.799998425267175
 21
16.00000097842701
 31
0.0
  0
LINE
  5
31833B7C
102
{ACAD_REACTORS
330
31833B79
102
}
330
31833B76
100
AcDbEntity
  8
JISSEN
 62
     0
100
AcDbLine
 10
-0.000001574732778
 20
11.20000097842705
 30
0.0
 11
4.799998425267175
 21
16.00000097842701
 31
0.0
  0
LINE
  5
31833B7D
102
{ACAD_REACTORS
330
31833B79
102
}
330
31833B76
100
AcDbEntity
  8
JISSEN
 62
     0
100
AcDbLine
 10
-0.0000015747328916
 20
28.00000097842701
 30
0.0
 11
4.799998425267061
 21
28.00000097842701
 31
0.0
  0
LINE
  5
31833B7E
102
{ACAD_REACTORS
330
31833B79
102
}
330
31833B76
100
AcDbEntity
  8
JISSEN
 62
     0
100
AcDbLine
 10
7.999998425267107
 20
40.00000097842701
 30
0.0
 11
-0.0000015747328916
 21
28.00000097842701
 31
0.0
  0
ENDBLK
  5
31833B80
330
31833B76
100
AcDbEntity
  8
0
100
AcDbBlockEnd
  0
BLOCK
  5
318345B7
330
31834597
100
AcDbEntity
  8
0
100
AcDbBlockBegin
  2
*X2
 70
     1
 10
0.0
 20
0.0
 30
0.0
  3
*X2
  1

  0
LINE
  5
31834598
330
31834597
100
AcDbEntity
  8
0
 62
     0
100
AcDbLine
 10
59.47909698996659
 20
270.0
 30
0.0
 11
67.47909698996659
 21
270.0
 31
0.0
  0
LINE
  5
31834599
330
31834597
100
AcDbEntity
  8
0
 62
     0
100
AcDbLine
 10
74.47909698996659
 20
270.0
 30
0.0
 11
77.47909698996659
 21
270.0
 31
0.0
  0
LINE
  5
3183459A
330
31834597
100
AcDbEntity
  8
0
 62
     0
100
AcDbLine
 10
59.47909698996659
 20
272.5
 30
0.0
 11
67.47909698996659
 21
272.5
 31
0.0
  0
LINE
  5
3183459B
330
31834597
100
AcDbEntity
  8
0
 62
     0
100
AcDbLine
 10
74.47909698996659
 20
272.5
 30
0.0
 11
77.47909698996659
 21
272.5
 31
0.0
  0
LINE
  5
3183459C
330
31834597
100
AcDbEntity
  8
0
 62
     0
100
AcDbLine
 10
59.47909698996659
 20
275.0
 30
0.0
 11
67.47909698996659
 21
275.0
 31
0.0
  0
LINE
  5
3183459D
330
31834597
100
AcDbEntity
  8
0
 62
     0
100
AcDbLine
 10
74.47909698996659
 20
275.0
 30
0.0
 11
77.47909698996659
 21
275.0
 31
0.0
  0
LINE
  5
3183459E
330
31834597
100
AcDbEntity
  8
0
 62
     0
100
AcDbLine
 10
59.47909698996659
 20
277.4999999999999
 30
0.0
 11
67.47909698996659
 21
277.4999999999999
 31
0.0
  0
LINE
  5
3183459F
330
31834597
100
AcDbEntity
  8
0
 62
     0
100
AcDbLine
 10
74.47909698996659
 20
277.4999999999999
 30
0.0
 11
77.47909698996659
 21
277.4999999999999
 31
0.0
  0
LINE
  5
318345A0
330
31834597
100
AcDbEntity
  8
0
 62
     0
100
AcDbLine
 10
59.47909698996659
 20
267.5
 30
0.0
 11
67.47909698996659
 21
267.5
 31
0.0
  0
LINE
  5
318345A1
330
31834597
100
AcDbEntity
  8
0
 62
     0
100
AcDbLine
 10
74.47909698996659
 20
267.5
 30
0.0
 11
77.47909698996659
 21
267.5
 31
0.0
  0
LINE
  5
318345A2
330
31834597
100
AcDbEntity
  8
0
 62
     0
100
AcDbLine
 10
75.00258120006616
 20
265.0
 30
0.0
 11
76.95561277986705
 21
265.0
 31
0.0
  0
LINE
  5
318345A3
330
31834597
100
AcDbEntity
  8
0
 62
     0
100
AcDbLine
 10
67.15939492177618
 20
266.3234842100994
 30
0.0
 11
67.47909698996659
 21
266.8772244354901
 31
0.0
  0
LINE
  5
318345A4
330
31834597
100
AcDbEntity
  8
0
 62
     0
100
AcDbLine
 10
74.47909698996659
 20
279.0015800884721
 30
0.0
 11
74.64562111693549
 21
279.2900083370684
 31
0.0
  0
LINE
  5
318345A5
330
31834597
100
AcDbEntity
  8
0
 62
     0
100
AcDbLine
 10
64.27264357582807
 20
266.3234842100994
 30
0.0
 11
67.47909698996659
 21
271.8772244354901
 31
0.0
  0
LINE
  5
318345A6
330
31834597
100
AcDbEntity
  8
0
 62
     0
100
AcDbLine
 10
61.38589222987993
 20
266.3234842100994
 30
0.0
 11
67.47909698996659
 21
276.8772244354901
 31
0.0
  0
LINE
  5
318345A7
330
31834597
100
AcDbEntity
  8
0
 62
     0
100
AcDbLine
 10
59.47909698996657
 20
268.020817974939
 30
0.0
 11
65.42734411420731
 21
278.3234842100994
 31
0.0
  0
LINE
  5
318345A8
330
31834597
100
AcDbEntity
  8
0
 62
     0
100
AcDbLine
 10
59.47909698996657
 20
273.020817974939
 30
0.0
 11
62.54059276825918
 21
278.3234842100994
 31
0.0
  0
LINE
  5
318345A9
330
31834597
100
AcDbEntity
  8
0
 62
     0
100
AcDbLine
 10
59.47909698996657
 20
278.020817974939
 30
0.0
 11
59.65384142231105
 21
278.3234842100994
 31
0.0
  0
LINE
  5
318345AA
330
31834597
100
AcDbEntity
  8
0
 62
     0
100
AcDbLine
 10
74.47909698996659
 20
274.0015800884723
 30
0.0
 11
77.45192022558374
 21
279.1506609744824
 31
0.0
  0
LINE
  5
318345AB
330
31834597
100
AcDbEntity
  8
0
 62
     0
100
AcDbLine
 10
74.47909698996659
 20
269.0015800884721
 30
0.0
 11
77.47909698996656
 21
274.1977325111789
 31
0.0
  0
LINE
  5
318345AC
330
31834597
100
AcDbEntity
  8
0
 62
     0
100
AcDbLine
 10
75.0361525606064
 20
264.9664286394596
 30
0.0
 11
77.47909698996656
 21
269.1977325111789
 31
0.0
  0
LINE
  5
318345AD
330
31834597
100
AcDbEntity
  8
0
 62
     0
100
AcDbLine
 10
67.47909698996659
 20
273.1227755645098
 30
0.0
 11
64.47646645345854
 21
278.3234842100994
 31
0.0
  0
LINE
  5
318345AE
330
31834597
100
AcDbEntity
  8
0
 62
     0
100
AcDbLine
 10
67.47909698996659
 20
268.1227755645098
 30
0.0
 11
61.58971510751044
 21
278.3234842100994
 31
0.0
  0
LINE
  5
318345AF
330
31834597
100
AcDbEntity
  8
0
 62
     0
100
AcDbLine
 10
65.6311669918378
 20
266.3234842100994
 30
0.0
 11
59.47909698996659
 21
276.9791820250608
 31
0.0
  0
LINE
  5
318345B0
330
31834597
100
AcDbEntity
  8
0
 62
     0
100
AcDbLine
 10
62.74441564588971
 20
266.3234842100994
 30
0.0
 11
59.47909698996659
 21
271.9791820250609
 31
0.0
  0
LINE
  5
318345B1
330
31834597
100
AcDbEntity
  8
0
 62
     0
100
AcDbLine
 10
59.85766429994157
 20
266.3234842100994
 30
0.0
 11
59.47909698996659
 21
266.9791820250608
 31
0.0
  0
LINE
  5
318345B2
330
31834597
100
AcDbEntity
  8
0
 62
     0
100
AcDbLine
 10
75.12787122328159
 20
264.8747099767845
 30
0.0
 11
74.47909698996659
 21
265.9984199115275
 31
0.0
  0
LINE
  5
318345B3
330
31834597
100
AcDbEntity
  8
0
 62
     0
100
AcDbLine
 10
67.47909698996659
 20
278.1227755645098
 30
0.0
 11
67.36321779940668
 21
278.3234842100994
 31
0.0
  0
LINE
  5
318345B4
330
31834597
100
AcDbEntity
  8
0
 62
     0
100
AcDbLine
 10
77.47909698996656
 20
265.8022674888209
 30
0.0
 11
74.47909698996659
 21
270.9984199115276
 31
0.0
  0
LINE
  5
318345B5
330
31834597
100
AcDbEntity
  8
0
 62
     0
100
AcDbLine
 10
77.47909698996656
 20
270.8022674888209
 30
0.0
 11
74.47909698996659
 21
275.9984199115276
 31
0.0
  0
LINE
  5
318345B6
330
31834597
100
AcDbEntity
  8
0
 62
     0
100
AcDbLine
 10
77.47909698996656
 20
275.8022674888209
 30
0.0
 11
75.16537108715168
 21
279.8097583072845
 31
0.0
  0
ENDBLK
  5
318345B8
330
31834597
100
AcDbEntity
  8
0
100
AcDbBlockEnd
  0
BLOCK
  5
31834604
330
318345B9
100
AcDbEntity
  8
0
100
AcDbBlockBegin
  2
*X3
 70
     1
 10
0.0
 20
0.0
 30
0.0
  3
*X3
  1

  0
LINE
  5
318345BA
330
318345B9
100
AcDbEntity
  8
0
 62
     0
100
AcDbLine
 10
168.4159751615409
 20
229.8
 30
0.0
 11
169.3234106122915
 21
229.8
 31
0.0
  0
LINE
  5
318345BB
330
318345B9
100
AcDbEntity
  8
0
 62
     0
100
AcDbLine
 10
180.3751210350253
 20
229.8
 30
0.0
 11
181.3101210350253
 21
229.8
 31
0.0
  0
LINE
  5
318345BC
330
318345B9
100
AcDbEntity
  8
0
 62
     0
100
AcDbLine
 10
170.6003353057903
 20
229.8
 30
0.0
 11
171.5077707565409
 21
229.8
 31
0.0
  0
LINE
  5
318345BD
330
318345B9
100
AcDbEntity
  8
0
 62
     0
100
AcDbLine
 10
179.2008495814191
 20
229.8
 30
0.0
 11
179.7258495814191
 21
229.8
 31
0.0
  0
LINE
  5
318345BE
330
318345B9
100
AcDbEntity
  8
0
 62
     0
100
AcDbLine
 10
171.9507334590409
 20
229.8
 30
0.0
 11
172.4207334590409
 21
229.8
 31
0.0
  0
LINE
  5
318345BF
330
318345B9
100
AcDbEntity
  8
0
 62
     0
100
AcDbLine
 10
177.6249553057989
 20
229.8
 30
0.0
 11
178.5635075134839
 21
229.8
 31
0.0
  0
LINE
  5
318345C0
330
318345B9
100
AcDbEntity
  8
0
 62
     0
100
AcDbLine
 10
172.9605923126085
 20
229.8
 30
0.0
 11
174.0105923126086
 21
229.8
 31
0.0
  0
LINE
  5
318345C1
330
318345B9
100
AcDbEntity
  8
0
 62
     0
100
AcDbLine
 10
175.6986459590404
 20
229.8
 30
0.0
 11
176.4011079590406
 21
229.8
 31
0.0
  0
LINE
  5
318345C2
330
318345B9
100
AcDbEntity
  8
0
 62
     0
100
AcDbLine
 10
174.2957334590409
 20
229.8
 30
0.0
 11
174.7607334590409
 21
229.8
 31
0.0
  0
LINE
  5
318345C3
330
318345B9
100
AcDbEntity
  8
0
 62
     0
100
AcDbLine
 10
168.4210215603348
 20
230.0
 30
0.0
 11
169.328541710551
 21
230.0
 31
0.0
  0
LINE
  5
318345C4
330
318345B9
100
AcDbEntity
  8
0
 62
     0
100
AcDbLine
 10
180.2678039618545
 20
230.0
 30
0.0
 11
181.2028039618546
 21
230.0
 31
0.0
  0
LINE
  5
318345C5
330
318345B9
100
AcDbEntity
  8
0
 62
     0
100
AcDbLine
 10
170.5952042075304
 20
230.0
 30
0.0
 11
171.502724357747
 21
230.0
 31
0.0
  0
LINE
  5
318345C6
330
318345B9
100
AcDbEntity
  8
0
 62
     0
100
AcDbLine
 10
179.3008495814189
 20
230.0
 30
0.0
 11
179.8258495814191
 21
230.0
 31
0.0
  0
LINE
  5
318345C7
330
318345B9
100
AcDbEntity
  8
0
 62
     0
100
AcDbLine
 10
171.9507334590409
 20
230.0
 30
0.0
 11
172.4207334590409
 21
230.0
 31
0.0
  0
LINE
  5
318345C8
330
318345B9
100
AcDbEntity
  8
0
 62
     0
100
AcDbLine
 10
177.6198242075395
 20
230.0
 30
0.0
 11
178.560211645275
 21
230.0
 31
0.0
  0
LINE
  5
318345C9
330
318345B9
100
AcDbEntity
  8
0
 62
     0
100
AcDbLine
 10
172.7957681920055
 20
230.0
 30
0.0
 11
173.8457681920055
 21
230.0
 31
0.0
  0
LINE
  5
318345CA
330
318345B9
100
AcDbEntity
  8
0
 62
     0
100
AcDbLine
 10
175.6986459590404
 20
230.0
 30
0.0
 11
176.4011079590406
 21
230.0
 31
0.0
  0
LINE
  5
318345CB
330
318345B9
100
AcDbEntity
  8
0
 62
     0
100
AcDbLine
 10
174.2957334590409
 20
230.0
 30
0.0
 11
174.7607334590409
 21
230.0
 31
0.0
  0
LINE
  5
318345CC
330
318345B9
100
AcDbEntity
  8
0
 62
     0
100
AcDbLine
 10
168.4921193649924
 20
230.2
 30
0.0
 11
169.4009961700681
 21
230.2
 31
0.0
  0
LINE
  5
318345CD
330
318345B9
100
AcDbEntity
  8
0
 62
     0
100
AcDbLine
 10
180.1604868886838
 20
230.2
 30
0.0
 11
181.0954868886838
 21
230.2
 31
0.0
  0
LINE
  5
318345CE
330
318345B9
100
AcDbEntity
  8
0
 62
     0
100
AcDbLine
 10
170.5227497480134
 20
230.2
 30
0.0
 11
171.4316265530894
 21
230.2
 31
0.0
  0
LINE
  5
318345CF
330
318345B9
100
AcDbEntity
  8
0
 62
     0
100
AcDbLine
 10
179.4008495814191
 20
230.2
 30
0.0
 11
179.9258495814191
 21
230.2
 31
0.0
  0
LINE
  5
318345D0
330
318345B9
100
AcDbEntity
  8
0
 62
     0
100
AcDbLine
 10
171.9507334590409
 20
230.2
 30
0.0
 11
172.4207334590409
 21
230.2
 31
0.0
  0
LINE
  5
318345D1
330
318345B9
100
AcDbEntity
  8
0
 62
     0
100
AcDbLine
 10
177.5473697480236
 20
230.2
 30
0.0
 11
178.5154232825099
 21
230.2
 31
0.0
  0
LINE
  5
318345D2
330
318345B9
100
AcDbEntity
  8
0
 62
     0
100
AcDbLine
 10
172.6309440714024
 20
230.2
 30
0.0
 11
173.6809440714025
 21
230.2
 31
0.0
  0
LINE
  5
318345D3
330
318345B9
100
AcDbEntity
  8
0
 62
     0
100
AcDbLine
 10
175.6986459590404
 20
230.2
 30
0.0
 11
176.4011079590406
 21
230.2
 31
0.0
  0
LINE
  5
318345D4
330
318345B9
100
AcDbEntity
  8
0
 62
     0
100
AcDbLine
 10
174.2957334590409
 20
230.2
 30
0.0
 11
174.7607334590409
 21
230.2
 31
0.0
  0
LINE
  5
318345D5
330
318345B9
100
AcDbEntity
  8
0
 62
     0
100
AcDbLine
 10
168.6407439350924
 20
230.4
 30
0.0
 11
169.5770911058968
 21
230.4
 31
0.0
  0
LINE
  5
318345D6
330
318345B9
100
AcDbEntity
  8
0
 62
     0
100
AcDbLine
 10
180.0531698155131
 20
230.4
 30
0.0
 11
180.988169815513
 21
230.4
 31
0.0
  0
LINE
  5
318345D7
330
318345B9
100
AcDbEntity
  8
0
 62
     0
100
AcDbLine
 10
170.346654812185
 20
230.4
 30
0.0
 11
171.283001982985
 21
230.4
 31
0.0
  0
LINE
  5
318345D8
330
318345B9
100
AcDbEntity
  8
0
 62
     0
100
AcDbLine
 10
179.5008495814191
 20
230.4
 30
0.0
 11
180.0258495814189
 21
230.4
 31
0.0
  0
LINE
  5
318345D9
330
318345B9
100
AcDbEntity
  8
0
 62
     0
100
AcDbLine
 10
171.9507334590409
 20
230.4
 30
0.0
 11
172.4207334590409
 21
230.4
 31
0.0
  0
LINE
  5
318345DA
330
318345B9
100
AcDbEntity
  8
0
 62
     0
100
AcDbLine
 10
177.3712748121996
 20
230.4
 30
0.0
 11
178.4226141575989
 21
230.4
 31
0.0
  0
LINE
  5
318345DB
330
318345B9
100
AcDbEntity
  8
0
 62
     0
100
AcDbLine
 10
172.4661199507991
 20
230.4
 30
0.0
 11
173.5161199507994
 21
230.4
 31
0.0
  0
LINE
  5
318345DC
330
318345B9
100
AcDbEntity
  8
0
 62
     0
100
AcDbLine
 10
175.6986459590404
 20
230.4
 30
0.0
 11
176.4011079590406
 21
230.4
 31
0.0
  0
LINE
  5
318345DD
330
318345B9
100
AcDbEntity
  8
0
 62
     0
100
AcDbLine
 10
174.2957334590409
 20
230.4
 30
0.0
 11
174.7607334590409
 21
230.4
 31
0.0
  0
LINE
  5
318345DE
330
318345B9
100
AcDbEntity
  8
0
 62
     0
100
AcDbLine
 10
168.8849599730979
 20
230.6
 30
0.0
 11
171.038817483757
 21
230.6
 31
0.0
  0
LINE
  5
318345DF
330
318345B9
100
AcDbEntity
  8
0
 62
     0
100
AcDbLine
 10
178.9757334590406
 20
230.6
 30
0.0
 11
180.8808527423423
 21
230.6
 31
0.0
  0
LINE
  5
318345E0
330
318345B9
100
AcDbEntity
  8
0
 62
     0
100
AcDbLine
 10
171.6007334590408
 20
230.6
 30
0.0
 11
173.3512958301964
 21
230.6
 31
0.0
  0
LINE
  5
318345E1
330
318345B9
100
AcDbEntity
  8
0
 62
     0
100
AcDbLine
 10
175.3474149590409
 20
230.6
 30
0.0
 11
178.2626936954249
 21
230.6
 31
0.0
  0
LINE
  5
318345E2
330
318345B9
100
AcDbEntity
  8
0
 62
     0
100
AcDbLine
 10
173.9407334590409
 20
230.6
 30
0.0
 11
175.1157334590409
 21
230.6
 31
0.0
  0
LINE
  5
318345E3
330
318345B9
100
AcDbEntity
  8
0
 62
     0
100
AcDbLine
 10
169.3505110916544
 20
230.8
 30
0.0
 11
170.6022121461344
 21
230.8
 31
0.0
  0
LINE
  5
318345E4
330
318345B9
100
AcDbEntity
  8
0
 62
     0
100
AcDbLine
 10
178.9757334590406
 20
230.8
 30
0.0
 11
180.7735356691716
 21
230.8
 31
0.0
  0
LINE
  5
318345E5
330
318345B9
100
AcDbEntity
  8
0
 62
     0
100
AcDbLine
 10
171.6007334590408
 20
230.8
 30
0.0
 11
173.1864717095934
 21
230.8
 31
0.0
  0
LINE
  5
318345E6
330
318345B9
100
AcDbEntity
  8
0
 62
     0
100
AcDbLine
 10
175.3474149590409
 20
230.8
 30
0.0
 11
177.9600798185585
 21
230.8
 31
0.0
  0
LINE
  5
318345E7
330
318345B9
100
AcDbEntity
  8
0
 62
     0
100
AcDbLine
 10
173.9407334590409
 20
230.8
 30
0.0
 11
175.1157334590409
 21
230.8
 31
0.0
  0
LINE
  5
318345E8
330
318345B9
100
AcDbEntity
  8
0
 62
     0
100
AcDbLine
 10
168.475282252997
 20
229.5999999999999
 30
0.0
 11
169.3838073346363
 21
229.5999999999999
 31
0.0
  0
LINE
  5
318345E9
330
318345B9
100
AcDbEntity
  8
0
 62
     0
100
AcDbLine
 10
179.1008495814191
 20
229.5999999999999
 30
0.0
 11
181.4174381081959
 21
229.5999999999999
 31
0.0
  0
LINE
  5
318345EA
330
318345B9
100
AcDbEntity
  8
0
 62
     0
100
AcDbLine
 10
170.5399385834454
 20
229.5999999999999
 30
0.0
 11
171.4484636650846
 21
229.5999999999999
 31
0.0
  0
LINE
  5
318345EB
330
318345B9
100
AcDbEntity
  8
0
 62
     0
100
AcDbLine
 10
177.5645585834553
 20
229.5999999999999
 30
0.0
 11
178.5257410892383
 21
229.5999999999999
 31
0.0
  0
LINE
  5
318345EC
330
318345B9
100
AcDbEntity
  8
0
 62
     0
100
AcDbLine
 10
171.9507334590409
 20
229.5999999999999
 30
0.0
 11
172.4207334590409
 21
229.5999999999999
 31
0.0
  0
LINE
  5
318345ED
330
318345B9
100
AcDbEntity
  8
0
 62
     0
100
AcDbLine
 10
175.6986459590404
 20
229.5999999999999
 30
0.0
 11
176.4011079590406
 21
229.5999999999999
 31
0.0
  0
LINE
  5
318345EE
330
318345B9
100
AcDbEntity
  8
0
 62
     0
100
AcDbLine
 10
173.1254164332115
 20
229.5999999999999
 30
0.0
 11
174.1754164332115
 21
229.5999999999999
 31
0.0
  0
LINE
  5
318345EF
330
318345B9
100
AcDbEntity
  8
0
 62
     0
100
AcDbLine
 10
174.2957334590409
 20
229.5999999999999
 30
0.0
 11
174.7607334590409
 21
229.5999999999999
 31
0.0
  0
LINE
  5
318345F0
330
318345B9
100
AcDbEntity
  8
0
 62
     0
100
AcDbLine
 10
168.611533923592
 20
229.4
 30
0.0
 11
169.5368017132224
 21
229.4
 31
0.0
  0
LINE
  5
318345F1
330
318345B9
100
AcDbEntity
  8
0
 62
     0
100
AcDbLine
 10
180.5897551813665
 20
229.4
 30
0.0
 11
181.5247551813664
 21
229.4
 31
0.0
  0
LINE
  5
318345F2
330
318345B9
100
AcDbEntity
  8
0
 62
     0
100
AcDbLine
 10
170.3869442048594
 20
229.4
 30
0.0
 11
171.3122119944913
 21
229.4
 31
0.0
  0
LINE
  5
318345F3
330
318345B9
100
AcDbEntity
  8
0
 62
     0
100
AcDbLine
 10
179.0008495814191
 20
229.4
 30
0.0
 11
179.5258495814191
 21
229.4
 31
0.0
  0
LINE
  5
318345F4
330
318345B9
100
AcDbEntity
  8
0
 62
     0
100
AcDbLine
 10
171.9507334590409
 20
229.4
 30
0.0
 11
172.4207334590409
 21
229.4
 31
0.0
  0
LINE
  5
318345F5
330
318345B9
100
AcDbEntity
  8
0
 62
     0
100
AcDbLine
 10
177.4115642048727
 20
229.4
 30
0.0
 11
178.4415793842724
 21
229.4
 31
0.0
  0
LINE
  5
318345F6
330
318345B9
100
AcDbEntity
  8
0
 62
     0
100
AcDbLine
 10
173.2902405538145
 20
229.4
 30
0.0
 11
174.7607334590409
 21
229.4
 31
0.0
  0
LINE
  5
318345F7
330
318345B9
100
AcDbEntity
  8
0
 62
     0
100
AcDbLine
 10
175.6986459590404
 20
229.4
 30
0.0
 11
176.4011079590406
 21
229.4
 31
0.0
  0
LINE
  5
318345F8
330
318345B9
100
AcDbEntity
  8
0
 62
     0
100
AcDbLine
 10
168.8348301654236
 20
229.1999999999999
 30
0.0
 11
171.0889157526603
 21
229.1999999999999
 31
0.0
  0
LINE
  5
318345F9
330
318345B9
100
AcDbEntity
  8
0
 62
     0
100
AcDbLine
 10
180.3207334590405
 20
229.1999999999999
 30
0.0
 11
181.9607334590409
 21
229.1999999999999
 31
0.0
  0
LINE
  5
318345FA
330
318345B9
100
AcDbEntity
  8
0
 62
     0
100
AcDbLine
 10
171.6007334590408
 20
229.1999999999999
 30
0.0
 11
172.7707334590409
 21
229.1999999999999
 31
0.0
  0
LINE
  5
318345FB
330
318345B9
100
AcDbEntity
  8
0
 62
     0
100
AcDbLine
 10
178.5657334590409
 20
229.1999999999999
 30
0.0
 11
179.7957334590409
 21
229.1999999999999
 31
0.0
  0
LINE
  5
318345FC
330
318345B9
100
AcDbEntity
  8
0
 62
     0
100
AcDbLine
 10
173.4550646744174
 20
229.1999999999999
 30
0.0
 11
174.7607334590409
 21
229.1999999999999
 31
0.0
  0
LINE
  5
318345FD
330
318345B9
100
AcDbEntity
  8
0
 62
     0
100
AcDbLine
 10
175.3474149590409
 20
229.1999999999999
 30
0.0
 11
178.2950005399046
 21
229.1999999999999
 31
0.0
  0
LINE
  5
318345FE
330
318345B9
100
AcDbEntity
  8
0
 62
     0
100
AcDbLine
 10
169.2408008208243
 20
229.0
 30
0.0
 11
170.6829450972644
 21
229.0
 31
0.0
  0
LINE
  5
318345FF
330
318345B9
100
AcDbEntity
  8
0
 62
     0
100
AcDbLine
 10
180.3207334590405
 20
229.0
 30
0.0
 11
181.9607334590409
 21
229.0
 31
0.0
  0
LINE
  5
31834600
330
318345B9
100
AcDbEntity
  8
0
 62
     0
100
AcDbLine
 10
171.6007334590408
 20
229.0
 30
0.0
 11
172.7707334590409
 21
229.0
 31
0.0
  0
LINE
  5
31834601
330
318345B9
100
AcDbEntity
  8
0
 62
     0
100
AcDbLine
 10
178.5657334590409
 20
229.0
 30
0.0
 11
179.7957334590409
 21
229.0
 31
0.0
  0
LINE
  5
31834602
330
318345B9
100
AcDbEntity
  8
0
 62
     0
100
AcDbLine
 10
173.6198887950204
 20
229.0
 30
0.0
 11
174.7607334590409
 21
229.0
 31
0.0
  0
LINE
  5
31834603
330
318345B9
100
AcDbEntity
  8
0
 62
     0
100
AcDbLine
 10
175.3474149590409
 20
229.0
 30
0.0
 11
178.0295153317008
 21
229.0
 31
0.0
  0
ENDBLK
  5
31834605
330
318345B9
100
AcDbEntity
  8
0
100
AcDbBlockEnd
  0
BLOCK
  5
3183460C
330
31834606
100
AcDbEntity
  8
0
100
AcDbBlockBegin
  2
*X4
 70
     1
 10
0.0
 20
0.0
 30
0.0
  3
*X4
  1

  0
LINE
  5
31834607
330
31834606
100
AcDbEntity
  8
0
 62
     0
100
AcDbLine
 10
84.7927748043743
 20
193.2
 30
0.0
 11
85.59996038714022
 21
193.2
 31
0.0
  0
LINE
  5
31834608
330
31834606
100
AcDbEntity
  8
0
 62
     0
100
AcDbLine
 10
85.06658842922719
 20
193.4
 30
0.0
 11
85.57842666647443
 21
193.4
 31
0.0
  0
LINE
  5
31834609
330
31834606
100
AcDbEntity
  8
0
 62
     0
100
AcDbLine
 10
85.34040205408016
 20
193.5999999999999
 30
0.0
 11
85.55689294580865
 21
193.5999999999999
 31
0.0
  0
LINE
  5
3183460A
330
31834606
100
AcDbEntity
  8
0
 62
     0
100
AcDbLine
 10
85.08810369220727
 20
193.0
 30
0.0
 11
85.62149410780598
 21
193.0
 31
0.0
  0
LINE
  5
3183460B
330
31834606
100
AcDbEntity
  8
0
 62
     0
100
AcDbLine
 10
85.54039407282862
 20
192.8
 30
0.0
 11
85.64302782847176
 21
192.8
 31
0.0
  0
ENDBLK
  5
3183460D
330
31834606
100
AcDbEntity
  8
0
100
AcDbBlockEnd
  0
BLOCK
  5
31834659
330
3183460E
100
AcDbEntity
  8
0
100
AcDbBlockBegin
  2
*X5
 70
     1
 10
0.0
 20
0.0
 30
0.0
  3
*X5
  1

  0
LINE
  5
3183460F
330
3183460E
100
AcDbEntity
  8
0
 62
     0
100
AcDbLine
 10
168.4159751615409
 20
229.8
 30
0.0
 11
169.3234106122915
 21
229.8
 31
0.0
  0
LINE
  5
31834610
330
3183460E
100
AcDbEntity
  8
0
 62
     0
100
AcDbLine
 10
180.3751210350253
 20
229.8
 30
0.0
 11
181.3101210350253
 21
229.8
 31
0.0
  0
LINE
  5
31834611
330
3183460E
100
AcDbEntity
  8
0
 62
     0
100
AcDbLine
 10
170.6003353057903
 20
229.8
 30
0.0
 11
171.5077707565409
 21
229.8
 31
0.0
  0
LINE
  5
31834612
330
3183460E
100
AcDbEntity
  8
0
 62
     0
100
AcDbLine
 10
179.2008495814191
 20
229.8
 30
0.0
 11
179.7258495814191
 21
229.8
 31
0.0
  0
LINE
  5
31834613
330
3183460E
100
AcDbEntity
  8
0
 62
     0
100
AcDbLine
 10
171.9507334590409
 20
229.8
 30
0.0
 11
172.4207334590409
 21
229.8
 31
0.0
  0
LINE
  5
31834614
330
3183460E
100
AcDbEntity
  8
0
 62
     0
100
AcDbLine
 10
177.6249553057989
 20
229.8
 30
0.0
 11
178.5635075134839
 21
229.8
 31
0.0
  0
LINE
  5
31834615
330
3183460E
100
AcDbEntity
  8
0
 62
     0
100
AcDbLine
 10
172.9605923126085
 20
229.8
 30
0.0
 11
174.0105923126086
 21
229.8
 31
0.0
  0
LINE
  5
31834616
330
3183460E
100
AcDbEntity
  8
0
 62
     0
100
AcDbLine
 10
175.6986459590404
 20
229.8
 30
0.0
 11
176.4011079590406
 21
229.8
 31
0.0
  0
LINE
  5
31834617
330
3183460E
100
AcDbEntity
  8
0
 62
     0
100
AcDbLine
 10
174.2957334590409
 20
229.8
 30
0.0
 11
174.7607334590409
 21
229.8
 31
0.0
  0
LINE
  5
31834618
330
3183460E
100
AcDbEntity
  8
0
 62
     0
100
AcDbLine
 10
168.4210215603348
 20
230.0
 30
0.0
 11
169.328541710551
 21
230.0
 31
0.0
  0
LINE
  5
31834619
330
3183460E
100
AcDbEntity
  8
0
 62
     0
100
AcDbLine
 10
180.2678039618545
 20
230.0
 30
0.0
 11
181.2028039618546
 21
230.0
 31
0.0
  0
LINE
  5
3183461A
330
3183460E
100
AcDbEntity
  8
0
 62
     0
100
AcDbLine
 10
170.5952042075304
 20
230.0
 30
0.0
 11
171.502724357747
 21
230.0
 31
0.0
  0
LINE
  5
3183461B
330
3183460E
100
AcDbEntity
  8
0
 62
     0
100
AcDbLine
 10
179.3008495814189
 20
230.0
 30
0.0
 11
179.8258495814191
 21
230.0
 31
0.0
  0
LINE
  5
3183461C
330
3183460E
100
AcDbEntity
  8
0
 62
     0
100
AcDbLine
 10
171.9507334590409
 20
230.0
 30
0.0
 11
172.4207334590409
 21
230.0
 31
0.0
  0
LINE
  5
3183461D
330
3183460E
100
AcDbEntity
  8
0
 62
     0
100
AcDbLine
 10
177.6198242075395
 20
230.0
 30
0.0
 11
178.560211645275
 21
230.0
 31
0.0
  0
LINE
  5
3183461E
330
3183460E
100
AcDbEntity
  8
0
 62
     0
100
AcDbLine
 10
172.7957681920055
 20
230.0
 30
0.0
 11
173.8457681920055
 21
230.0
 31
0.0
  0
LINE
  5
3183461F
330
3183460E
100
AcDbEntity
  8
0
 62
     0
100
AcDbLine
 10
175.6986459590404
 20
230.0
 30
0.0
 11
176.4011079590406
 21
230.0
 31
0.0
  0
LINE
  5
31834620
330
3183460E
100
AcDbEntity
  8
0
 62
     0
100
AcDbLine
 10
174.2957334590409
 20
230.0
 30
0.0
 11
174.7607334590409
 21
230.0
 31
0.0
  0
LINE
  5
31834621
330
3183460E
100
AcDbEntity
  8
0
 62
     0
100
AcDbLine
 10
168.4921193649924
 20
230.2
 30
0.0
 11
169.4009961700681
 21
230.2
 31
0.0
  0
LINE
  5
31834622
330
3183460E
100
AcDbEntity
  8
0
 62
     0
100
AcDbLine
 10
180.1604868886838
 20
230.2
 30
0.0
 11
181.0954868886838
 21
230.2
 31
0.0
  0
LINE
  5
31834623
330
3183460E
100
AcDbEntity
  8
0
 62
     0
100
AcDbLine
 10
170.5227497480134
 20
230.2
 30
0.0
 11
171.4316265530894
 21
230.2
 31
0.0
  0
LINE
  5
31834624
330
3183460E
100
AcDbEntity
  8
0
 62
     0
100
AcDbLine
 10
179.4008495814191
 20
230.2
 30
0.0
 11
179.9258495814191
 21
230.2
 31
0.0
  0
LINE
  5
31834625
330
3183460E
100
AcDbEntity
  8
0
 62
     0
100
AcDbLine
 10
171.9507334590409
 20
230.2
 30
0.0
 11
172.4207334590409
 21
230.2
 31
0.0
  0
LINE
  5
31834626
330
3183460E
100
AcDbEntity
  8
0
 62
     0
100
AcDbLine
 10
177.5473697480236
 20
230.2
 30
0.0
 11
178.5154232825099
 21
230.2
 31
0.0
  0
LINE
  5
31834627
330
3183460E
100
AcDbEntity
  8
0
 62
     0
100
AcDbLine
 10
172.6309440714024
 20
230.2
 30
0.0
 11
173.6809440714025
 21
230.2
 31
0.0
  0
LINE
  5
31834628
330
3183460E
100
AcDbEntity
  8
0
 62
     0
100
AcDbLine
 10
175.6986459590404
 20
230.2
 30
0.0
 11
176.4011079590406
 21
230.2
 31
0.0
  0
LINE
  5
31834629
330
3183460E
100
AcDbEntity
  8
0
 62
     0
100
AcDbLine
 10
174.2957334590409
 20
230.2
 30
0.0
 11
174.7607334590409
 21
230.2
 31
0.0
  0
LINE
  5
3183462A
330
3183460E
100
AcDbEntity
  8
0
 62
     0
100
AcDbLine
 10
168.6407439350924
 20
230.4
 30
0.0
 11
169.5770911058968
 21
230.4
 31
0.0
  0
LINE
  5
3183462B
330
3183460E
100
AcDbEntity
  8
0
 62
     0
100
AcDbLine
 10
180.0531698155131
 20
230.4
 30
0.0
 11
180.988169815513
 21
230.4
 31
0.0
  0
LINE
  5
3183462C
330
3183460E
100
AcDbEntity
  8
0
 62
     0
100
AcDbLine
 10
170.346654812185
 20
230.4
 30
0.0
 11
171.283001982985
 21
230.4
 31
0.0
  0
LINE
  5
3183462D
330
3183460E
100
AcDbEntity
  8
0
 62
     0
100
AcDbLine
 10
179.5008495814191
 20
230.4
 30
0.0
 11
180.0258495814189
 21
230.4
 31
0.0
  0
LINE
  5
3183462E
330
3183460E
100
AcDbEntity
  8
0
 62
     0
100
AcDbLine
 10
171.9507334590409
 20
230.4
 30
0.0
 11
172.4207334590409
 21
230.4
 31
0.0
  0
LINE
  5
3183462F
330
3183460E
100
AcDbEntity
  8
0
 62
     0
100
AcDbLine
 10
177.3712748121996
 20
230.4
 30
0.0
 11
178.4226141575989
 21
230.4
 31
0.0
  0
LINE
  5
31834630
330
3183460E
100
AcDbEntity
  8
0
 62
     0
100
AcDbLine
 10
172.4661199507991
 20
230.4
 30
0.0
 11
173.5161199507994
 21
230.4
 31
0.0
  0
LINE
  5
31834631
330
3183460E
100
AcDbEntity
  8
0
 62
     0
100
AcDbLine
 10
175.6986459590404
 20
230.4
 30
0.0
 11
176.4011079590406
 21
230.4
 31
0.0
  0
LINE
  5
31834632
330
3183460E
100
AcDbEntity
  8
0
 62
     0
100
AcDbLine
 10
174.2957334590409
 20
230.4
 30
0.0
 11
174.7607334590409
 21
230.4
 31
0.0
  0
LINE
  5
31834633
330
3183460E
100
AcDbEntity
  8
0
 62
     0
100
AcDbLine
 10
168.8849599730979
 20
230.6
 30
0.0
 11
171.038817483757
 21
230.6
 31
0.0
  0
LINE
  5
31834634
330
3183460E
100
AcDbEntity
  8
0
 62
     0
100
AcDbLine
 10
178.9757334590406
 20
230.6
 30
0.0
 11
180.8808527423423
 21
230.6
 31
0.0
  0
LINE
  5
31834635
330
3183460E
100
AcDbEntity
  8
0
 62
     0
100
AcDbLine
 10
171.6007334590408
 20
230.6
 30
0.0
 11
173.3512958301964
 21
230.6
 31
0.0
  0
LINE
  5
31834636
330
3183460E
100
AcDbEntity
  8
0
 62
     0
100
AcDbLine
 10
175.3474149590409
 20
230.6
 30
0.0
 11
178.2626936954249
 21
230.6
 31
0.0
  0
LINE
  5
31834637
330
3183460E
100
AcDbEntity
  8
0
 62
     0
100
AcDbLine
 10
173.9407334590409
 20
230.6
 30
0.0
 11
175.1157334590409
 21
230.6
 31
0.0
  0
LINE
  5
31834638
330
3183460E
100
AcDbEntity
  8
0
 62
     0
100
AcDbLine
 10
169.3505110916544
 20
230.8
 30
0.0
 11
170.6022121461344
 21
230.8
 31
0.0
  0
LINE
  5
31834639
330
3183460E
100
AcDbEntity
  8
0
 62
     0
100
AcDbLine
 10
178.9757334590406
 20
230.8
 30
0.0
 11
180.7735356691716
 21
230.8
 31
0.0
  0
LINE
  5
3183463A
330
3183460E
100
AcDbEntity
  8
0
 62
     0
100
AcDbLine
 10
171.6007334590408
 20
230.8
 30
0.0
 11
173.1864717095934
 21
230.8
 31
0.0
  0
LINE
  5
3183463B
330
3183460E
100
AcDbEntity
  8
0
 62
     0
100
AcDbLine
 10
175.3474149590409
 20
230.8
 30
0.0
 11
177.9600798185585
 21
230.8
 31
0.0
  0
LINE
  5
3183463C
330
3183460E
100
AcDbEntity
  8
0
 62
     0
100
AcDbLine
 10
173.9407334590409
 20
230.8
 30
0.0
 11
175.1157334590409
 21
230.8
 31
0.0
  0
LINE
  5
3183463D
330
3183460E
100
AcDbEntity
  8
0
 62
     0
100
AcDbLine
 10
168.475282252997
 20
229.5999999999999
 30
0.0
 11
169.3838073346363
 21
229.5999999999999
 31
0.0
  0
LINE
  5
3183463E
330
3183460E
100
AcDbEntity
  8
0
 62
     0
100
AcDbLine
 10
179.1008495814191
 20
229.5999999999999
 30
0.0
 11
181.4174381081959
 21
229.5999999999999
 31
0.0
  0
LINE
  5
3183463F
330
3183460E
100
AcDbEntity
  8
0
 62
     0
100
AcDbLine
 10
170.5399385834454
 20
229.5999999999999
 30
0.0
 11
171.4484636650846
 21
229.5999999999999
 31
0.0
  0
LINE
  5
31834640
330
3183460E
100
AcDbEntity
  8
0
 62
     0
100
AcDbLine
 10
177.5645585834553
 20
229.5999999999999
 30
0.0
 11
178.5257410892383
 21
229.5999999999999
 31
0.0
  0
LINE
  5
31834641
330
3183460E
100
AcDbEntity
  8
0
 62
     0
100
AcDbLine
 10
171.9507334590409
 20
229.5999999999999
 30
0.0
 11
172.4207334590409
 21
229.5999999999999
 31
0.0
  0
LINE
  5
31834642
330
3183460E
100
AcDbEntity
  8
0
 62
     0
100
AcDbLine
 10
175.6986459590404
 20
229.5999999999999
 30
0.0
 11
176.4011079590406
 21
229.5999999999999
 31
0.0
  0
LINE
  5
31834643
330
3183460E
100
AcDbEntity
  8
0
 62
     0
100
AcDbLine
 10
173.1254164332115
 20
229.5999999999999
 30
0.0
 11
174.1754164332115
 21
229.5999999999999
 31
0.0
  0
LINE
  5
31834644
330
3183460E
100
AcDbEntity
  8
0
 62
     0
100
AcDbLine
 10
174.2957334590409
 20
229.5999999999999
 30
0.0
 11
174.7607334590409
 21
229.5999999999999
 31
0.0
  0
LINE
  5
31834645
330
3183460E
100
AcDbEntity
  8
0
 62
     0
100
AcDbLine
 10
168.611533923592
 20
229.4
 30
0.0
 11
169.5368017132224
 21
229.4
 31
0.0
  0
LINE
  5
31834646
330
3183460E
100
AcDbEntity
  8
0
 62
     0
100
AcDbLine
 10
180.5897551813665
 20
229.4
 30
0.0
 11
181.5247551813664
 21
229.4
 31
0.0
  0
LINE
  5
31834647
330
3183460E
100
AcDbEntity
  8
0
 62
     0
100
AcDbLine
 10
170.3869442048594
 20
229.4
 30
0.0
 11
171.3122119944913
 21
229.4
 31
0.0
  0
LINE
  5
31834648
330
3183460E
100
AcDbEntity
  8
0
 62
     0
100
AcDbLine
 10
179.0008495814191
 20
229.4
 30
0.0
 11
179.5258495814191
 21
229.4
 31
0.0
  0
LINE
  5
31834649
330
3183460E
100
AcDbEntity
  8
0
 62
     0
100
AcDbLine
 10
171.9507334590409
 20
229.4
 30
0.0
 11
172.4207334590409
 21
229.4
 31
0.0
  0
LINE
  5
3183464A
330
3183460E
100
AcDbEntity
  8
0
 62
     0
100
AcDbLine
 10
177.4115642048727
 20
229.4
 30
0.0
 11
178.4415793842724
 21
229.4
 31
0.0
  0
LINE
  5
3183464B
330
3183460E
100
AcDbEntity
  8
0
 62
     0
100
AcDbLine
 10
173.2902405538145
 20
229.4
 30
0.0
 11
174.7607334590409
 21
229.4
 31
0.0
  0
LINE
  5
3183464C
330
3183460E
100
AcDbEntity
  8
0
 62
     0
100
AcDbLine
 10
175.6986459590404
 20
229.4
 30
0.0
 11
176.4011079590406
 21
229.4
 31
0.0
  0
LINE
  5
3183464D
330
3183460E
100
AcDbEntity
  8
0
 62
     0
100
AcDbLine
 10
168.8348301654236
 20
229.1999999999999
 30
0.0
 11
171.0889157526603
 21
229.1999999999999
 31
0.0
  0
LINE
  5
3183464E
330
3183460E
100
AcDbEntity
  8
0
 62
     0
100
AcDbLine
 10
180.3207334590405
 20
229.1999999999999
 30
0.0
 11
181.9607334590409
 21
229.1999999999999
 31
0.0
  0
LINE
  5
3183464F
330
3183460E
100
AcDbEntity
  8
0
 62
     0
100
AcDbLine
 10
171.6007334590408
 20
229.1999999999999
 30
0.0
 11
172.7707334590409
 21
229.1999999999999
 31
0.0
  0
LINE
  5
31834650
330
3183460E
100
AcDbEntity
  8
0
 62
     0
100
AcDbLine
 10
178.5657334590409
 20
229.1999999999999
 30
0.0
 11
179.7957334590409
 21
229.1999999999999
 31
0.0
  0
LINE
  5
31834651
330
3183460E
100
AcDbEntity
  8
0
 62
     0
100
AcDbLine
 10
173.4550646744174
 20
229.1999999999999
 30
0.0
 11
174.7607334590409
 21
229.1999999999999
 31
0.0
  0
LINE
  5
31834652
330
3183460E
100
AcDbEntity
  8
0
 62
     0
100
AcDbLine
 10
175.3474149590409
 20
229.1999999999999
 30
0.0
 11
178.2950005399046
 21
229.1999999999999
 31
0.0
  0
LINE
  5
31834653
330
3183460E
100
AcDbEntity
  8
0
 62
     0
100
AcDbLine
 10
169.2408008208243
 20
229.0
 30
0.0
 11
170.6829450972644
 21
229.0
 31
0.0
  0
LINE
  5
31834654
330
3183460E
100
AcDbEntity
  8
0
 62
     0
100
AcDbLine
 10
180.3207334590405
 20
229.0
 30
0.0
 11
181.9607334590409
 21
229.0
 31
0.0
  0
LINE
  5
31834655
330
3183460E
100
AcDbEntity
  8
0
 62
     0
100
AcDbLine
 10
171.6007334590408
 20
229.0
 30
0.0
 11
172.7707334590409
 21
229.0
 31
0.0
  0
LINE
  5
31834656
330
3183460E
100
AcDbEntity
  8
0
 62
     0
100
AcDbLine
 10
178.5657334590409
 20
229.0
 30
0.0
 11
179.7957334590409
 21
229.0
 31
0.0
  0
LINE
  5
31834657
330
3183460E
100
AcDbEntity
  8
0
 62
     0
100
AcDbLine
 10
173.6198887950204
 20
229.0
 30
0.0
 11
174.7607334590409
 21
229.0
 31
0.0
  0
LINE
  5
31834658
330
3183460E
100
AcDbEntity
  8
0
 62
     0
100
AcDbLine
 10
175.3474149590409
 20
229.0
 30
0.0
 11
178.0295153317008
 21
229.0
 31
0.0
  0
ENDBLK
  5
3183465A
330
3183460E
100
AcDbEntity
  8
0
100
AcDbBlockEnd
  0
BLOCK
  5
31834661
330
3183465B
100
AcDbEntity
  8
0
100
AcDbBlockBegin
  2
*X6
 70
     1
 10
0.0
 20
0.0
 30
0.0
  3
*X6
  1

  0
LINE
  5
3183465C
330
3183465B
100
AcDbEntity
  8
0
 62
     0
100
AcDbLine
 10
84.7927748043743
 20
193.2
 30
0.0
 11
85.59996038714022
 21
193.2
 31
0.0
  0
LINE
  5
3183465D
330
3183465B
100
AcDbEntity
  8
0
 62
     0
100
AcDbLine
 10
85.06658842922719
 20
193.4
 30
0.0
 11
85.57842666647443
 21
193.4
 31
0.0
  0
LINE
  5
3183465E
330
3183465B
100
AcDbEntity
  8
0
 62
     0
100
AcDbLine
 10
85.34040205408016
 20
193.5999999999999
 30
0.0
 11
85.55689294580865
 21
193.5999999999999
 31
0.0
  0
LINE
  5
3183465F
330
3183465B
100
AcDbEntity
  8
0
 62
     0
100
AcDbLine
 10
85.08810369220727
 20
193.0
 30
0.0
 11
85.62149410780598
 21
193.0
 31
0.0
  0
LINE
  5
31834660
330
3183465B
100
AcDbEntity
  8
0
 62
     0
100
AcDbLine
 10
85.54039407282862
 20
192.8
 30
0.0
 11
85.64302782847176
 21
192.8
 31
0.0
  0
ENDBLK
  5
31834662
330
3183465B
100
AcDbEntity
  8
0
100
AcDbBlockEnd
  0
ENDSEC
  0
SECTION
  2
ENTITIES
  0
LWPOLYLINE
  5
3183277D
330
318324AF
100
AcDbEntity
  8
WAKU
100
AcDbPolyline
 90
        4
 70
     1
 43
0.0
 10
0.0
 20
0.0
 10
452.4999981999997
 20
0.0
 10
452.4999981999997
 20
682.4999999999999
 10
0.0
 20
682.4999999999999
  0
LINE
  5
31833AF6
330
318324AF
100
AcDbEntity
  8
SUNPOU
100
AcDbLine
 10
442.7363907738821
 20
24.55621469970356
 30
0.0
 11
442.7363907738821
 21
17.05621469970354
 31
0.0
  0
LINE
  5
31833AF7
330
318324AF
100
AcDbEntity
  8
SUNPOU
100
AcDbLine
 10
440.7363907738822
 20
24.55621469970356
 30
0.0
 11
440.7363907738822
 21
17.05621469970354
 31
0.0
  0
LINE
  5
31833AF9
330
318324AF
100
AcDbEntity
  8
SUNPOU
100
AcDbLine
 10
439.2363907738822
 20
24.55621469970356
 30
0.0
 11
444.2363907738822
 21
24.55621469970356
 31
0.0
  0
LINE
  5
31833AFA
330
318324AF
100
AcDbEntity
  8
SUNPOU
100
AcDbLine
 10
439.2363907738822
 20
17.05621469970354
 30
0.0
 11
444.2363907738822
 21
17.05621469970354
 31
0.0
  0
TEXT
  5
31833AFB
330
318324AF
100
AcDbEntity
  8
SUNPOU
100
AcDbText
 10
312.7040491819452
 20
17.07480073084866
 30
0.0
 40
7.5
  1
スピードコントロールユニット
100
AcDbText
  0
TEXT
  5
31833AFC
330
318324AF
100
AcDbEntity
  8
SUNPOU
100
AcDbText
 10
312.7040491819452
 20
7.074800730848664
 30
0.0
 40
7.5
  1
A4 用紙、印刷尺度1/2.5
100
AcDbText
  0
LINE
  5
31834AC9
330
318324AF
100
AcDbEntity
  8
JISSEN
100
AcDbLine
 10
250.6044621567194
 20
343.7538465584026
 30
0.0
 11
269.4091310947679
 21
343.7538465584026
 31
0.0
  0
LINE
  5
31834ACA
330
318324AF
100
AcDbEntity
  8
JISSEN
100
AcDbLine
 10
253.0067966257433
 20
397.7538465584027
 30
0.0
 11
253.1403535078365
 21
394.7538465584024
 31
0.0
  0
LINE
  5
31834ACB
330
318324AF
100
AcDbEntity
  8
JISSEN
100
AcDbLine
 10
267.0067966257434
 20
397.7538465584027
 30
0.0
 11
266.8732397436503
 21
394.7538465584024
 31
0.0
  0
LINE
  5
31834ACC
330
318324AF
100
AcDbEntity
  8
JISSEN
100
AcDbLine
 10
253.1403535078365
 20
394.7538465584024
 30
0.0
 11
266.8732397436503
 21
394.7538465584024
 31
0.0
  0
LINE
  5
31834ACE
330
318324AF
100
AcDbEntity
  8
JISSEN
100
AcDbLine
 10
168.0254637482775
 20
428.7187612622935
 30
0.0
 11
166.5507615394053
 21
428.7187612622935
 31
0.0
  0
LINE
  5
31834ACF
330
318324AF
100
AcDbEntity
  8
JISSEN
100
AcDbLine
 10
169.9091310947673
 20
429.3538465584025
 30
0.0
 11
171.0091310947676
 21
428.7187612622935
 31
0.0
  0
ARC
  5
31834AD0
330
318324AF
100
AcDbEntity
  8
JISSEN
100
AcDbCircle
 10
169.517297421523
 20
427.2841237526091
 30
0.0
 40
2.069722805793154
100
AcDbArc
 50
43.880330131203
 51
136.1196698687969
  0
LINE
  5
31834AD1
330
318324AF
100
AcDbEntity
  8
JISSEN
100
AcDbLine
 10
159.4519030268942
 20
428.718761262294
 30
0.0
 11
158.4091310947677
 21
428.718761262294
 31
0.0
  0
LINE
  5
31834AD2
330
318324AF
100
AcDbEntity
  8
JISSEN
100
AcDbLine
 10
157.366359162641
 20
428.718761262294
 30
0.0
 11
158.4091310947677
 21
428.718761262294
 31
0.0
  0
ARC
  5
31834AD3
330
318324AF
100
AcDbEntity
  8
JISSEN
100
AcDbCircle
 10
163.0013322831489
 20
419.1175984054651
 30
0.0
 40
10.23624815293717
100
AcDbArc
 50
69.71128014365577
 51
82.09501394098252
  0
LINE
  5
31834AD4
330
318324AF
100
AcDbEntity
  8
JISSEN
100
AcDbLine
 10
158.4091310947676
 20
429.3538465584025
 30
0.0
 11
169.9091310947673
 21
429.3538465584025
 31
0.0
  0
ARC
  5
31834AD5
330
318324AF
100
AcDbEntity
  8
JISSEN
100
AcDbCircle
 10
163.001332283149
 20
419.117598405465
 30
0.0
 40
10.23624815293717
100
AcDbArc
 50
69.71128014365577
 51
110.2887198563303
  0
LINE
  5
31834AD6
330
318324AF
100
AcDbEntity
  8
JISSEN
100
AcDbLine
 10
167.5023978345062
 20
429.3538465584028
 30
0.0
 11
158.4091310947684
 21
429.3538465584028
 31
0.0
  0
ARC
  5
31834AD7
330
318324AF
100
AcDbEntity
  8
JISSEN
100
AcDbCircle
 10
183.9091310947677
 20
408.6538465584022
 30
0.0
 40
2.0
100
AcDbArc
 50
0.0
 51
90.0
  0
LINE
  5
31834AD8
330
318324AF
100
AcDbEntity
  8
JISSEN
100
AcDbLine
 10
183.4091310947677
 20
408.1538465584023
 30
0.0
 11
182.8091310947677
 21
407.5538465584022
 31
0.0
  0
ARC
  5
31834AD9
330
318324AF
100
AcDbEntity
  8
JISSEN
100
AcDbCircle
 10
183.9091310947677
 20
400.6538465584021
 30
0.0
 40
2.0
100
AcDbArc
 50
270.0
 51
0.0
  0
LINE
  5
31834ADA
330
318324AF
100
AcDbEntity
  8
JISSEN
100
AcDbLine
 10
183.4091310947677
 20
401.1538465584022
 30
0.0
 11
182.8091310947675
 21
401.7538465584022
 31
0.0
  0
LINE
  5
31834ADB
330
318324AF
100
AcDbEntity
  8
JISSEN
100
AcDbLine
 10
182.8091310947677
 20
401.7538465584022
 30
0.0
 11
182.8091310947677
 21
404.6538465584021
 31
0.0
  0
LINE
  5
31834ADC
330
318324AF
100
AcDbEntity
  8
JISSEN
100
AcDbLine
 10
183.4091310947677
 20
401.1538465584022
 30
0.0
 11
183.4091310947677
 21
404.6538465584021
 31
0.0
  0
LINE
  5
31834ADD
330
318324AF
100
AcDbEntity
  8
JISSEN
100
AcDbLine
 10
185.9091310947677
 20
400.6538465584021
 30
0.0
 11
185.9091310947677
 21
404.6538465584021
 31
0.0
  0
LINE
  5
31834ADE
330
318324AF
100
AcDbEntity
  8
JISSEN
100
AcDbLine
 10
185.9091310947677
 20
408.6538465584022
 30
0.0
 11
185.9091310947677
 21
404.6538465584021
 31
0.0
  0
LINE
  5
31834ADF
330
318324AF
100
AcDbEntity
  8
JISSEN
100
AcDbLine
 10
183.4091310947677
 20
408.1538465584023
 30
0.0
 11
183.4091310947677
 21
404.6538465584021
 31
0.0
  0
LINE
  5
31834AE0
330
318324AF
100
AcDbEntity
  8
JISSEN
100
AcDbLine
 10
182.8091310947677
 20
407.5538465584022
 30
0.0
 11
182.8091310947677
 21
404.6538465584021
 31
0.0
  0
LINE
  5
31834AE1
330
318324AF
100
AcDbEntity
  8
JISSEN
100
AcDbLine
 10
171.1591310947676
 20
414.275419433656
 30
0.0
 11
171.1591310947677
 21
410.6583209985837
 31
0.0
  0
LINE
  5
31834AE2
330
318324AF
100
AcDbEntity
  8
JISSEN
100
AcDbLine
 10
169.4091310947676
 20
419.4396329960293
 30
0.0
 11
169.4091310947676
 21
417.2680601207752
 31
0.0
  0
ARC
  5
31834AE3
330
318324AF
100
AcDbEntity
  8
JISSEN
100
AcDbCircle
 10
170.4091310947675
 20
417.2680601207752
 30
0.0
 40
1.0
100
AcDbArc
 50
180.0
 51
224.9999999999996
  0
ARC
  5
31834AE4
330
318324AF
100
AcDbEntity
  8
JISSEN
100
AcDbCircle
 10
169.1591310947676
 20
414.275419433656
 30
0.0
 40
2.0
100
AcDbArc
 50
0.0
 51
44.99999999999976
  0
LINE
  5
31834AE5
330
318324AF
100
AcDbEntity
  8
JISSEN
100
AcDbLine
 10
169.7020243135809
 20
416.5609533395888
 30
0.0
 11
170.5733446571406
 21
415.689632996029
 31
0.0
  0
LINE
  5
31834AE6
330
318324AF
100
AcDbEntity
  8
JISSEN
100
AcDbLine
 10
168.0254637482775
 20
421.4538465584026
 30
0.0
 11
166.5507615394053
 21
421.4538465584026
 31
0.0
  0
ARC
  5
31834AE7
330
318324AF
100
AcDbEntity
  8
JISSEN
100
AcDbCircle
 10
170.4091310947676
 20
419.4396329960293
 30
0.0
 40
1.0
100
AcDbArc
 50
135.0000000000002
 51
180.0
  0
LINE
  5
31834AE8
330
318324AF
100
AcDbEntity
  8
JISSEN
100
AcDbLine
 10
169.7020243135809
 20
420.1467397772156
 30
0.0
 11
171.0091310947676
 21
421.4538465584026
 31
0.0
  0
ARC
  5
31834AE9
330
318324AF
100
AcDbEntity
  8
JISSEN
100
AcDbCircle
 10
169.517297421523
 20
423.0084863155902
 30
0.0
 40
2.154639757188235
100
AcDbArc
 50
226.1810422561821
 51
313.8189577438176
  0
ARC
  5
31834AEA
330
318324AF
100
AcDbEntity
  8
JISSEN
100
AcDbCircle
 10
171.3706124915835
 20
415.6538465584023
 30
0.0
 40
5.0
100
AcDbArc
 50
220.3202150699686
 51
270.0
  0
LINE
  5
31834AEB
330
318324AF
100
AcDbEntity
  8
JISSEN
100
AcDbLine
 10
169.4091310947677
 20
408.1538465584023
 30
0.0
 11
170.0091310947675
 21
407.5538465584022
 31
0.0
  0
ARC
  5
31834AEC
330
318324AF
100
AcDbEntity
  8
JISSEN
100
AcDbCircle
 10
170.3160186732802
 20
404.6538465584021
 30
0.0
 40
2.0
100
AcDbArc
 50
311.4096221092256
 51
48.59037789077433
  0
LINE
  5
31834AED
330
318324AF
100
AcDbEntity
  8
JISSEN
100
AcDbLine
 10
172.5534681975161
 20
405.7494276682875
 30
0.0
 11
171.7459442305532
 21
405.1595929094096
 31
0.0
  0
LWPOLYLINE
  5
31834AEE
330
318324AF
100
AcDbEntity
  8
JISSEN
100
AcDbPolyline
 90
        3
 70
     0
 43
0.0
 10
172.5534681975161
 20
405.7494276682874
 10
171.6388943288114
 20
406.1538465584033
 10
171.7459442305532
 20
405.1595929094096
  0
INSERT
  5
31834AEF
330
318324AF
100
AcDbEntity
  8
JISSEN
100
AcDbBlockReference
  2
*X4
 10
257.2870528652449
 20
598.9061937812396
 30
0.0
 50
180.0
  0
LINE
  5
31834AF0
330
318324AF
100
AcDbEntity
  8
JISSEN
100
AcDbLine
 10
174.861918141384
 20
403.3668016809499
 30
0.0
 11
174.861918141384
 21
405.7968920400941
 31
0.0
  0
LINE
  5
31834AF1
330
318324AF
100
AcDbEntity
  8
JISSEN
100
AcDbLine
 10
176.0769727848689
 20
403.3668016809499
 30
0.0
 11
176.0769727848689
 21
405.7968920400941
 31
0.0
  0
LINE
  5
31834AF2
330
318324AF
100
AcDbEntity
  8
JISSEN
100
AcDbLine
 10
176.0769727848689
 20
403.3668016809499
 30
0.0
 11
174.861918141384
 21
405.7968920400941
 31
0.0
  0
LINE
  5
31834AF3
330
318324AF
100
AcDbEntity
  8
JISSEN
100
AcDbLine
 10
166.4091310947682
 20
394.086899153976
 30
0.0
 11
166.4091310947682
 21
395.709574648403
 31
0.0
  0
LINE
  5
31834AF4
330
318324AF
100
AcDbEntity
  8
JISSEN
100
AcDbLine
 10
169.4091310947677
 20
401.1538465584022
 30
0.0
 11
170.0091310947675
 21
401.7538465584022
 31
0.0
  0
ARC
  5
31834AF5
330
318324AF
100
AcDbEntity
  8
JISSEN
100
AcDbCircle
 10
171.3706124915835
 20
393.6538465584023
 30
0.0
 40
5.0
100
AcDbArc
 50
90.0
 51
139.6797849300312
  0
LINE
  5
31834AF6
330
318324AF
100
AcDbEntity
  8
JISSEN
100
AcDbLine
 10
170.0091310947675
 20
401.7538465584022
 30
0.0
 11
170.0091310947675
 21
404.6538465584021
 31
0.0
  0
LINE
  5
31834AF7
330
318324AF
100
AcDbEntity
  8
JISSEN
100
AcDbLine
 10
169.4091310947677
 20
401.1538465584022
 30
0.0
 11
169.4091310947677
 21
404.6538465584021
 31
0.0
  0
LINE
  5
31834AF8
330
318324AF
100
AcDbEntity
  8
JISSEN
100
AcDbLine
 10
169.4091310947677
 20
408.1538465584023
 30
0.0
 11
169.4091310947677
 21
404.6538465584021
 31
0.0
  0
LINE
  5
31834AF9
330
318324AF
100
AcDbEntity
  8
JISSEN
100
AcDbLine
 10
170.0091310947675
 20
407.5538465584022
 30
0.0
 11
170.0091310947675
 21
404.6538465584021
 31
0.0
  0
LINE
  5
31834AFA
330
318324AF
100
AcDbEntity
  8
JISSEN
100
AcDbLine
 10
162.1107242504714
 20
407.3160301091344
 30
0.0
 11
161.7607242504716
 21
407.3160301091344
 31
0.0
  0
LINE
  5
31834AFB
330
318324AF
100
AcDbEntity
  8
JISSEN
100
AcDbLine
 10
162.1107242504714
 20
407.3160301091344
 30
0.0
 11
162.1107242504714
 21
407.6660301091344
 31
0.0
  0
LINE
  5
31834AFC
330
318324AF
100
AcDbEntity
  8
JISSEN
100
AcDbLine
 10
158.9507242504712
 20
407.6660301091344
 30
0.0
 11
160.0007242504716
 21
407.6660301091344
 31
0.0
  0
LINE
  5
31834AFD
330
318324AF
100
AcDbEntity
  8
JISSEN
100
AcDbLine
 10
158.0128117504715
 20
407.3160356091343
 30
0.0
 11
158.3640427504714
 21
407.3160356091343
 31
0.0
  0
LINE
  5
31834AFE
330
318324AF
100
AcDbEntity
  8
JISSEN
100
AcDbLine
 10
158.3640427504714
 20
407.3160356091343
 30
0.0
 11
158.3640427504714
 21
407.6672666091345
 31
0.0
  0
LINE
  5
31834AFF
330
318324AF
100
AcDbEntity
  8
JISSEN
100
AcDbLine
 10
160.9407242504715
 20
407.6660301091344
 30
0.0
 11
160.9407242504715
 21
407.3160301091344
 31
0.0
  0
LINE
  5
31834B00
330
318324AF
100
AcDbEntity
  8
JISSEN
100
AcDbLine
 10
157.3103497504715
 20
407.3160356091343
 30
0.0
 11
156.7249647504714
 21
407.3160356091343
 31
0.0
  0
LINE
  5
31834B01
330
318324AF
100
AcDbEntity
  8
JISSEN
100
AcDbLine
 10
158.3640427504714
 20
407.6672666091345
 30
0.0
 11
156.1395797504712
 21
407.6672666091345
 31
0.0
  0
LINE
  5
31834B02
330
318324AF
100
AcDbEntity
  8
JISSEN
100
AcDbLine
 10
158.4091310947675
 20
421.4538465584015
 30
0.0
 11
159.4519030268937
 21
421.4538465584015
 31
0.0
  0
LINE
  5
31834B03
330
318324AF
100
AcDbEntity
  8
JISSEN
100
AcDbLine
 10
158.4091310947677
 20
421.4538465584015
 30
0.0
 11
157.3663591626415
 21
421.4538465584015
 31
0.0
  0
LINE
  5
31834B04
330
318324AF
100
AcDbEntity
  8
JISSEN
100
AcDbLine
 10
161.2907242504713
 20
407.3160301091344
 30
0.0
 11
160.9407242504715
 21
407.3160301091344
 31
0.0
  0
LINE
  5
31834B05
330
318324AF
100
AcDbEntity
  8
JISSEN
100
AcDbLine
 10
162.1107242504714
 20
407.6660301091344
 30
0.0
 11
160.9407242504715
 21
407.6660301091344
 31
0.0
  0
LINE
  5
31834B06
330
318324AF
100
AcDbEntity
  8
JISSEN
100
AcDbLine
 10
162.1107242504714
 20
405.6760301091347
 30
0.0
 11
162.1107242504714
 21
406.0260301091346
 31
0.0
  0
LINE
  5
31834B07
330
318324AF
100
AcDbEntity
  8
JISSEN
100
AcDbLine
 10
162.1107242504714
 20
406.0260301091346
 30
0.0
 11
161.7607242504716
 21
406.0260301091346
 31
0.0
  0
LINE
  5
31834B08
330
318324AF
100
AcDbEntity
  8
JISSEN
100
AcDbLine
 10
159.7707242504716
 20
405.6760301091347
 30
0.0
 11
158.5957242504713
 21
405.6760301091347
 31
0.0
  0
LINE
  5
31834B09
330
318324AF
100
AcDbEntity
  8
JISSEN
100
AcDbLine
 10
159.7707242504716
 20
406.0260301091346
 30
0.0
 11
159.4157242504713
 21
406.0260301091346
 31
0.0
  0
LINE
  5
31834B0A
330
318324AF
100
AcDbEntity
  8
JISSEN
100
AcDbLine
 10
159.7707242504716
 20
405.6760301091347
 30
0.0
 11
159.7707242504716
 21
406.0260301091346
 31
0.0
  0
LINE
  5
31834B0B
330
318324AF
100
AcDbEntity
  8
JISSEN
100
AcDbLine
 10
158.3640427504714
 20
406.0281886091344
 30
0.0
 11
158.0128117504715
 21
406.0281886091344
 31
0.0
  0
LINE
  5
31834B0C
330
318324AF
100
AcDbEntity
  8
JISSEN
100
AcDbLine
 10
158.3640427504714
 20
405.6769576091346
 30
0.0
 11
158.3640427504714
 21
406.0281886091344
 31
0.0
  0
LINE
  5
31834B0D
330
318324AF
100
AcDbEntity
  8
JISSEN
100
AcDbLine
 10
158.9507242504712
 20
406.0260301091346
 30
0.0
 11
158.5957242504713
 21
406.0260301091346
 31
0.0
  0
LINE
  5
31834B0E
330
318324AF
100
AcDbEntity
  8
JISSEN
100
AcDbLine
 10
158.5957242504713
 20
405.6760301091347
 30
0.0
 11
158.5957242504713
 21
406.0260301091346
 31
0.0
  0
LINE
  5
31834B0F
330
318324AF
100
AcDbEntity
  8
JISSEN
100
AcDbLine
 10
156.1395797504712
 20
405.6769576091346
 30
0.0
 11
158.3640427504714
 21
405.6769576091346
 31
0.0
  0
LINE
  5
31834B10
330
318324AF
100
AcDbEntity
  8
JISSEN
100
AcDbLine
 10
156.7249647504714
 20
406.0281886091344
 30
0.0
 11
157.3103497504715
 21
406.0281886091344
 31
0.0
  0
LINE
  5
31834B11
330
318324AF
100
AcDbEntity
  8
JISSEN
100
AcDbLine
 10
159.4157242504713
 20
407.1017923042563
 30
0.0
 11
160.5907242504714
 21
405.6760301091347
 31
0.0
  0
LINE
  5
31834B12
330
318324AF
100
AcDbEntity
  8
JISSEN
100
AcDbLine
 10
159.4157242504713
 20
406.0260301091346
 30
0.0
 11
159.4157242504713
 21
407.1017923042563
 31
0.0
  0
ELLIPSE
  5
31834B13
330
318324AF
100
AcDbEntity
  8
JISSEN
100
AcDbEllipse
 10
158.9104091212129
 20
392.157793751278
 30
0.0
 11
0.0
 21
-0.6539471928760463
 31
0.0
210
0.0
220
0.0
230
1.0
 40
0.7665420570734664
 41
4.712388980384688
 42
6.283185307179585
  0
LINE
  5
31834B14
330
318324AF
100
AcDbEntity
  8
JISSEN
100
AcDbLine
 10
158.4091310947683
 20
392.6538465584022
 30
0.0
 11
158.4091310947683
 21
392.157793751278
 31
0.0
  0
LINE
  5
31834B15
330
318324AF
100
AcDbEntity
  8
JISSEN
100
AcDbLine
 10
162.1107242504714
 20
405.6760301091347
 30
0.0
 11
160.5907242504714
 21
405.6760301091347
 31
0.0
  0
TEXT
  5
31834B16
330
318324AF
100
AcDbEntity
  8
JISSEN
100
AcDbText
 10
161.6852002488893
 20
402.5414535262098
 30
0.0
 40
3.5
  1
3
 50
180.0
  7
BIGFONT
100
AcDbText
  0
TEXT
  5
31834B17
330
318324AF
100
AcDbEntity
  8
JISSEN
100
AcDbText
 10
161.8352002488893
 20
402.5414535262098
 30
0.0
 40
3.5
  1
3
 50
180.0
  7
BIGFONT
100
AcDbText
  0
TEXT
  5
31834B18
330
318324AF
100
AcDbEntity
  8
JISSEN
100
AcDbText
 10
161.9852002488889
 20
402.5414535262098
 30
0.0
 40
3.5
  1
3
 50
180.0
  7
BIGFONT
100
AcDbText
  0
TEXT
  5
31834B19
330
318324AF
100
AcDbEntity
  8
JISSEN
100
AcDbText
 10
161.8352002488893
 20
402.3914535262099
 30
0.0
 40
3.5
  1
3
 50
180.0
  7
BIGFONT
100
AcDbText
  0
LINE
  5
31834B1A
330
318324AF
100
AcDbEntity
  8
JISSEN
100
AcDbLine
 10
164.0959247917552
 20
391.503846558402
 30
0.0
 11
158.9104091212129
 21
391.503846558402
 31
0.0
  0
LINE
  5
31834B1B
330
318324AF
100
AcDbEntity
  8
JISSEN
100
AcDbLine
 10
161.7607242504716
 20
407.3160301091344
 30
0.0
 11
161.7607242504716
 21
406.0260301091346
 31
0.0
  0
LINE
  5
31834B1C
330
318324AF
100
AcDbEntity
  8
JISSEN
100
AcDbLine
 10
161.2907242504713
 20
407.3160301091344
 30
0.0
 11
161.2907242504713
 21
406.1007252310856
 31
0.0
  0
LINE
  5
31834B1D
330
318324AF
100
AcDbEntity
  8
JISSEN
100
AcDbLine
 10
161.2907242504713
 20
406.1007252310856
 30
0.0
 11
160.0007242504716
 21
407.6660301091344
 31
0.0
  0
CIRCLE
  5
31834B1E
330
318324AF
100
AcDbEntity
  8
JISSEN
100
AcDbCircle
 10
163.7495847504712
 20
406.6721121091346
 30
0.0
 40
0.6439234999999999
  0
LWPOLYLINE
  5
31834B1F
330
318324AF
100
AcDbEntity
  8
JISSEN
100
AcDbPolyline
 90
       16
 70
     1
 43
0.0
 10
162.1983145004715
 20
406.6721121091346
 42
0.1443238288432184
 10
162.3029662447857
 20
406.3171051934841
 42
0.1071767194116677
 10
162.6526710372436
 20
405.9684316138561
 42
0.077822320363764
 10
163.1842685487644
 20
405.7341829165686
 42
0.079585750962787
 10
163.7495847504713
 20
405.6769576091346
 42
0.0650214376055212
 10
164.3684467369151
 20
405.7577778921805
 42
0.0778223203637648
 10
164.8464984636994
 20
405.9684316138561
 42
0.1071767194116687
 10
165.1962032561572
 20
406.3171051934841
 42
0.144323828843219
 10
165.3008550004714
 20
406.6721121091346
 42
0.1443238288432179
 10
165.1962032561572
 20
407.0271190247848
 42
0.1071767194116682
 10
164.8464984636994
 20
407.3757926044126
 42
0.0778223203637647
 10
164.3684467369151
 20
407.5864463260883
 42
0.0650214376055213
 10
163.7495847504713
 20
407.6672666091343
 42
0.0650214376055212
 10
163.1307227640281
 20
407.5864463260883
 42
0.0778223203637645
 10
162.6526710372436
 20
407.3757926044126
 42
0.1071767194116684
 10
162.3029662447857
 20
407.0271190247848
 42
0.1443238288432191
  0
LINE
  5
31834B20
330
318324AF
100
AcDbEntity
  8
JISSEN
100
AcDbLine
 10
158.0128117504715
 20
406.0281886091344
 30
0.0
 11
158.0128117504715
 21
407.3160356091343
 31
0.0
  0
ARC
  5
31834B21
330
318324AF
100
AcDbEntity
  8
JISSEN
100
AcDbCircle
 10
156.7249647504714
 20
406.6721121091346
 30
0.0
 40
0.6439234999999997
100
AcDbArc
 50
90.0
 51
270.0
  0
LINE
  5
31834B22
330
318324AF
100
AcDbEntity
  8
JISSEN
100
AcDbLine
 10
157.3103497504715
 20
406.0281886091344
 30
0.0
 11
157.3103497504715
 21
407.3160356091343
 31
0.0
  0
LINE
  5
31834B23
330
318324AF
100
AcDbEntity
  8
JISSEN
100
AcDbLine
 10
158.9507242504712
 20
406.0260301091346
 30
0.0
 11
158.9507242504712
 21
407.6660301091344
 31
0.0
  0
ELLIPSE
  5
31834B24
330
318324AF
100
AcDbEntity
  8
JISSEN
100
AcDbEllipse
 10
164.0959247917552
 20
394.086899153976
 30
0.0
 11
0.0
 21
2.583052595574087
 31
0.0
210
0.0
220
0.0
230
1.0
 40
0.895532017805757
 41
3.141592653589792
 42
4.712388980384688
  0
LINE
  5
31834B25
330
318324AF
100
AcDbEntity
  8
JISSEN
100
AcDbLine
 10
158.4091310947676
 20
419.8538465584022
 30
0.0
 11
168.409131094763
 21
419.8538465584022
 31
0.0
  0
ARC
  5
31834B26
330
318324AF
100
AcDbEntity
  8
JISSEN
100
AcDbCircle
 10
163.0013322831489
 20
431.6525532627061
 30
0.0
 40
10.79870670430405
100
AcDbArc
 50
277.4908207639926
 51
289.1892963043626
  0
LINE
  5
31834B27
330
318324AF
100
AcDbEntity
  8
JISSEN
100
AcDbLine
 10
158.4091310947676
 20
416.8538465584021
 30
0.0
 11
168.4091310947692
 21
416.8538465584021
 31
0.0
  0
LINE
  5
31834B28
330
318324AF
100
AcDbEntity
  8
JISSEN
100
AcDbLine
 10
170.1591310947651
 20
415.1038465584021
 30
0.0
 11
164.3080716776182
 21
415.1038465584021
 31
0.0
  0
ARC
  5
31834B29
330
318324AF
100
AcDbEntity
  8
JISSEN
100
AcDbCircle
 10
158.4091310947676
 20
404.6538465584021
 30
0.0
 40
12.0
100
AcDbArc
 50
40.32021506996878
 51
90.0
  0
ARC
  5
31834B2A
330
318324AF
100
AcDbEntity
  8
JISSEN
100
AcDbCircle
 10
158.4091310947676
 20
404.6538465584021
 30
0.0
 40
12.0
100
AcDbArc
 50
270.0
 51
319.6797849300311
  0
ARC
  5
31834B2B
330
318324AF
100
AcDbEntity
  8
JISSEN
100
AcDbCircle
 10
163.001332283149
 20
431.6525532627062
 30
0.0
 40
10.79870670430405
100
AcDbArc
 50
250.8107036956441
 51
289.1892963043626
  0
LINE
  5
31834B2C
330
318324AF
100
AcDbEntity
  8
JISSEN
100
AcDbLine
 10
158.4091310947675
 20
419.8538465584019
 30
0.0
 11
168.4091310947632
 21
419.8538465584019
 31
0.0
  0
ARC
  5
31834B2D
330
318324AF
100
AcDbEntity
  8
JISSEN
100
AcDbCircle
 10
171.1591310947676
 20
387.853846558402
 30
0.0
 40
1.0
100
AcDbArc
 50
295.1506634125336
 51
0.0
  0
LINE
  5
31834B2E
330
318324AF
100
AcDbEntity
  8
JISSEN
100
AcDbLine
 10
172.1591310947676
 20
389.3538465584022
 30
0.0
 11
172.1591310947676
 21
387.8538465584022
 31
0.0
  0
LINE
  5
31834B2F
330
318324AF
100
AcDbEntity
  8
JISSEN
100
AcDbLine
 10
166.550761539403
 20
385.8538465584022
 30
0.0
 11
166.550761539403
 21
379.488931854512
 31
0.0
  0
LINE
  5
31834B30
330
318324AF
100
AcDbEntity
  8
JISSEN
100
AcDbLine
 10
168.0254637482786
 20
385.8538465584022
 30
0.0
 11
168.0254637482786
 21
379.4889318545122
 31
0.0
  0
LINE
  5
31834B31
330
318324AF
100
AcDbEntity
  8
JISSEN
100
AcDbLine
 10
171.0091310947676
 20
386.0434598593785
 30
0.0
 11
171.0091310947676
 21
379.488931854512
 31
0.0
  0
LINE
  5
31834B32
330
318324AF
100
AcDbEntity
  8
JISSEN
100
AcDbLine
 10
168.0254637482786
 20
379.488931854512
 30
0.0
 11
166.550761539403
 21
379.488931854512
 31
0.0
  0
LINE
  5
31834B33
330
318324AF
100
AcDbEntity
  8
JISSEN
100
AcDbLine
 10
169.9091310947657
 20
378.8538465584022
 30
0.0
 11
171.0091310947676
 21
379.488931854512
 31
0.0
  0
ARC
  5
31834B34
330
318324AF
100
AcDbEntity
  8
JISSEN
100
AcDbCircle
 10
169.517297421523
 20
380.923569364193
 30
0.0
 40
2.069722805790715
100
AcDbArc
 50
223.8803301311464
 51
316.1196698688533
  0
ARC
  5
31834B35
330
318324AF
100
AcDbEntity
  8
JISSEN
100
AcDbCircle
 10
172.0091310947676
 20
386.0434598593785
 30
0.0
 40
1.0
100
AcDbArc
 50
115.1506634125407
 51
180.0
  0
LINE
  5
31834B36
330
318324AF
100
AcDbEntity
  8
JISSEN
100
AcDbLine
 10
157.3663591626412
 20
385.853846558402
 30
0.0
 11
157.3663591626412
 21
379.4889318545118
 31
0.0
  0
LINE
  5
31834B37
330
318324AF
100
AcDbEntity
  8
JISSEN
100
AcDbLine
 10
159.4519030268942
 20
379.4889318545118
 30
0.0
 11
158.4091310947677
 21
379.4889318545118
 31
0.0
  0
LINE
  5
31834B38
330
318324AF
100
AcDbEntity
  8
JISSEN
100
AcDbLine
 10
159.451903026894
 20
385.853846558402
 30
0.0
 11
159.451903026894
 21
379.4889318545118
 31
0.0
  0
LINE
  5
31834B39
330
318324AF
100
AcDbEntity
  8
JISSEN
100
AcDbLine
 10
157.3663591626412
 20
379.4889318545118
 30
0.0
 11
158.4091310947677
 21
379.4889318545118
 31
0.0
  0
ARC
  5
31834B3A
330
318324AF
100
AcDbEntity
  8
JISSEN
100
AcDbCircle
 10
163.0013322831487
 20
389.0900947113152
 30
0.0
 40
10.23624815291293
100
AcDbArc
 50
277.8459414325666
 51
290.2887198563858
  0
LINE
  5
31834B3B
330
318324AF
100
AcDbEntity
  8
JISSEN
100
AcDbLine
 10
169.9091310947659
 20
378.8538465584022
 30
0.0
 11
158.4091310947677
 21
378.8538465584022
 31
0.0
  0
LINE
  5
31834B3C
330
318324AF
100
AcDbEntity
  8
JISSEN
100
AcDbLine
 10
158.4091310947676
 20
389.3538465584022
 30
0.0
 11
172.1591310947676
 21
389.3538465584022
 31
0.0
  0
LINE
  5
31834B3D
330
318324AF
100
AcDbEntity
  8
JISSEN
100
AcDbLine
 10
158.4091310947676
 20
386.8538465584022
 30
0.0
 11
171.4232357132856
 21
386.8538465584022
 31
0.0
  0
ARC
  5
31834B3E
330
318324AF
100
AcDbEntity
  8
JISSEN
100
AcDbCircle
 10
163.0013322831488
 20
389.0900947113149
 30
0.0
 40
10.23624815291293
100
AcDbArc
 50
249.7112801436209
 51
290.2887198563858
  0
LINE
  5
31834B3F
330
318324AF
100
AcDbEntity
  8
JISSEN
100
AcDbLine
 10
172.1591310947676
 20
398.6538465584023
 30
0.0
 11
172.1591310947676
 21
389.3538465584022
 31
0.0
  0
TEXT
  5
31834B40
330
318324AF
100
AcDbEntity
  8
JISSEN
100
AcDbText
 10
181.4576858432054
 20
405.7969235549266
 30
0.0
 40
2.43
  1
OPE  
 50
180.0
 41
0.75
  7
BIGFONT
100
AcDbText
  0
LINE
  5
31834B41
330
318324AF
100
AcDbEntity
  8
JISSEN
100
AcDbLine
 10
171.3706124915835
 20
410.6538465584022
 30
0.0
 11
183.9091310947677
 21
410.6538465584022
 31
0.0
  0
LINE
  5
31834B42
330
318324AF
100
AcDbEntity
  8
JISSEN
100
AcDbLine
 10
182.8091310947675
 20
401.7538465584022
 30
0.0
 11
170.0091310947675
 21
401.7538465584022
 31
0.0
  0
LINE
  5
31834B43
330
318324AF
100
AcDbEntity
  8
JISSEN
100
AcDbLine
 10
183.4091310947677
 20
401.1538465584022
 30
0.0
 11
169.4091310947677
 21
401.1538465584022
 31
0.0
  0
LINE
  5
31834B44
330
318324AF
100
AcDbEntity
  8
JISSEN
100
AcDbLine
 10
171.3706124915835
 20
398.6538465584023
 30
0.0
 11
183.9091310947677
 21
398.6538465584023
 31
0.0
  0
LINE
  5
31834B45
330
318324AF
100
AcDbEntity
  8
JISSEN
100
AcDbLine
 10
183.4091310947677
 20
408.1538465584023
 30
0.0
 11
169.4091310947677
 21
408.1538465584023
 31
0.0
  0
LINE
  5
31834B46
330
318324AF
100
AcDbEntity
  8
JISSEN
100
AcDbLine
 10
182.8091310947677
 20
407.5538465584022
 30
0.0
 11
170.0091310947675
 21
407.5538465584022
 31
0.0
  0
LINE
  5
31834B47
330
318324AF
100
AcDbEntity
  8
JISSEN
100
AcDbLine
 10
166.5507615394053
 20
421.4538465584019
 30
0.0
 11
166.5507615394053
 21
428.7187612622935
 31
0.0
  0
LINE
  5
31834B48
330
318324AF
100
AcDbEntity
  8
JISSEN
100
AcDbLine
 10
168.0254637482781
 20
421.4538465584011
 30
0.0
 11
168.0254637482781
 21
428.7187612622935
 31
0.0
  0
LINE
  5
31834B49
330
318324AF
100
AcDbEntity
  8
JISSEN
100
AcDbLine
 10
171.0091310947676
 20
421.4538465584026
 30
0.0
 11
171.0091310947676
 21
428.7187612622935
 31
0.0
  0
LINE
  5
31834B4A
330
318324AF
100
AcDbEntity
  8
JISSEN
100
AcDbLine
 10
157.3663591626415
 20
421.4538465584015
 30
0.0
 11
157.366359162641
 21
428.718761262294
 31
0.0
  0
LINE
  5
31834B4B
330
318324AF
100
AcDbEntity
  8
JISSEN
100
AcDbLine
 10
159.4519030268937
 20
421.4538465584015
 30
0.0
 11
159.4519030268942
 21
428.718761262294
 31
0.0
  0
LINE
  5
31834B4C
330
318324AF
100
AcDbEntity
  8
JISSEN
100
AcDbLine
 10
146.9091310947679
 20
429.3538465584025
 30
0.0
 11
145.8091310947676
 21
428.7187612622935
 31
0.0
  0
ARC
  5
31834B4D
330
318324AF
100
AcDbEntity
  8
JISSEN
100
AcDbCircle
 10
147.3009647680122
 20
427.2841237526091
 30
0.0
 40
2.069722805793154
100
AcDbArc
 50
43.880330131203
 51
136.1196698687969
  0
LINE
  5
31834B4E
330
318324AF
100
AcDbEntity
  8
JISSEN
100
AcDbLine
 10
148.7927984412581
 20
428.7187612622935
 30
0.0
 11
150.26750065013
 21
428.7187612622935
 31
0.0
  0
ARC
  5
31834B4F
330
318324AF
100
AcDbEntity
  8
JISSEN
100
AcDbCircle
 10
153.8169299063862
 20
419.1175984054651
 30
0.0
 40
10.23624815293717
100
AcDbArc
 50
97.90498605901749
 51
110.2887198563442
  0
LINE
  5
31834B50
330
318324AF
100
AcDbEntity
  8
JISSEN
100
AcDbLine
 10
152.1007242504715
 20
407.3160301091344
 30
0.0
 11
151.7507242504716
 21
407.3160301091344
 31
0.0
  0
LINE
  5
31834B51
330
318324AF
100
AcDbEntity
  8
JISSEN
100
AcDbLine
 10
151.7507242504716
 20
407.6660301091344
 30
0.0
 11
151.7507242504716
 21
407.3160301091344
 31
0.0
  0
LINE
  5
31834B52
330
318324AF
100
AcDbEntity
  8
JISSEN
100
AcDbLine
 10
154.2657242504714
 20
407.3160301091344
 30
0.0
 11
153.9157242504713
 21
407.3160301091344
 31
0.0
  0
LINE
  5
31834B53
330
318324AF
100
AcDbEntity
  8
JISSEN
100
AcDbLine
 10
153.3907242504714
 20
407.3160301091344
 30
0.0
 11
153.0357242504716
 21
407.3160301091344
 31
0.0
  0
LINE
  5
31834B54
330
318324AF
100
AcDbEntity
  8
JISSEN
100
AcDbLine
 10
155.1457242504715
 20
407.3160301091344
 30
0.0
 11
154.7907242504713
 21
407.3160301091344
 31
0.0
  0
LINE
  5
31834B55
330
318324AF
100
AcDbEntity
  8
JISSEN
100
AcDbLine
 10
155.1457242504715
 20
407.6660301091344
 30
0.0
 11
153.9157242504713
 21
407.6660301091344
 31
0.0
  0
LINE
  5
31834B56
330
318324AF
100
AcDbEntity
  8
JISSEN
100
AcDbLine
 10
153.3907242504714
 20
407.3160301091344
 30
0.0
 11
153.3907242504714
 21
407.6660301091344
 31
0.0
  0
LINE
  5
31834B57
330
318324AF
100
AcDbEntity
  8
JISSEN
100
AcDbLine
 10
153.9157242504713
 20
407.3160301091344
 30
0.0
 11
153.9157242504713
 21
407.6660301091344
 31
0.0
  0
LINE
  5
31834B58
330
318324AF
100
AcDbEntity
  8
JISSEN
100
AcDbLine
 10
155.1457242504715
 20
407.6660301091344
 30
0.0
 11
155.1457242504715
 21
407.3160301091344
 31
0.0
  0
LINE
  5
31834B59
330
318324AF
100
AcDbEntity
  8
JISSEN
100
AcDbLine
 10
153.3907242504714
 20
407.6660301091344
 30
0.0
 11
151.7507242504716
 21
407.6660301091344
 31
0.0
  0
LINE
  5
31834B5A
330
318324AF
100
AcDbEntity
  8
JISSEN
100
AcDbLine
 10
147.4091310947676
 20
419.4396329960293
 30
0.0
 11
147.4091310947676
 21
417.2680601207757
 31
0.0
  0
ARC
  5
31834B5B
330
318324AF
100
AcDbEntity
  8
JISSEN
100
AcDbCircle
 10
146.4091310947676
 20
417.2680601207757
 30
0.0
 40
1.0
100
AcDbArc
 50
315.0000000000001
 51
0.0
  0
ARC
  5
31834B5C
330
318324AF
100
AcDbEntity
  8
JISSEN
100
AcDbCircle
 10
147.6591310947676
 20
414.2754194336562
 30
0.0
 40
2.0
100
AcDbArc
 50
135.0000000000002
 51
180.0
  0
LINE
  5
31834B5D
330
318324AF
100
AcDbEntity
  8
JISSEN
100
AcDbLine
 10
147.1162378759544
 20
416.560953339589
 30
0.0
 11
146.2449175323946
 21
415.6896329960295
 31
0.0
  0
LINE
  5
31834B5E
330
318324AF
100
AcDbEntity
  8
JISSEN
100
AcDbLine
 10
147.116237875954
 20
420.1467397772156
 30
0.0
 11
145.8091310947676
 21
421.4538465584026
 31
0.0
  0
ARC
  5
31834B5F
330
318324AF
100
AcDbEntity
  8
JISSEN
100
AcDbCircle
 10
146.4091310947676
 20
419.4396329960293
 30
0.0
 40
1.0
100
AcDbArc
 50
0.0
 51
44.99999999999976
  0
ARC
  5
31834B60
330
318324AF
100
AcDbEntity
  8
JISSEN
100
AcDbCircle
 10
147.3009647680122
 20
423.0084863155902
 30
0.0
 40
2.154639757188235
100
AcDbArc
 50
226.1810422561821
 51
313.8189577438176
  0
LINE
  5
31834B61
330
318324AF
100
AcDbEntity
  8
JISSEN
100
AcDbLine
 10
145.6591310947676
 20
414.2754194336564
 30
0.0
 11
145.6591310947676
 21
410.6583209985837
 31
0.0
  0
LINE
  5
31834B62
330
318324AF
100
AcDbEntity
  8
JISSEN
100
AcDbLine
 10
148.7927984412581
 20
421.4538465584026
 30
0.0
 11
150.26750065013
 21
421.4538465584026
 31
0.0
  0
ARC
  5
31834B63
330
318324AF
100
AcDbEntity
  8
JISSEN
100
AcDbCircle
 10
145.4476496979517
 20
415.6538465584023
 30
0.0
 40
5.0
100
AcDbArc
 50
270.0
 51
319.6797849300311
  0
LINE
  5
31834B64
330
318324AF
100
AcDbEntity
  8
JISSEN
100
AcDbLine
 10
147.4091310947676
 20
408.1538465584023
 30
0.0
 11
146.8091310947677
 21
407.5538465584022
 31
0.0
  0
ARC
  5
31834B65
330
318324AF
100
AcDbEntity
  8
JISSEN
100
AcDbCircle
 10
153.8169299063862
 20
431.6525532627061
 30
0.0
 40
10.79870670430405
100
AcDbArc
 50
250.8107036956372
 51
262.5091792360073
  0
LINE
  5
31834B66
330
318324AF
100
AcDbEntity
  8
JISSEN
100
AcDbLine
 10
152.5101905119172
 20
415.1038465584021
 30
0.0
 11
146.6591310947668
 21
415.1038465584026
 31
0.0
  0
LINE
  5
31834B67
330
318324AF
100
AcDbEntity
  8
JISSEN
100
AcDbLine
 10
154.7357242504715
 20
406.0260301091346
 30
0.0
 11
154.7357242504715
 21
405.6760301091347
 31
0.0
  0
LINE
  5
31834B68
330
318324AF
100
AcDbEntity
  8
JISSEN
100
AcDbLine
 10
154.7357242504715
 20
405.6760301091347
 30
0.0
 11
152.9807242504716
 21
405.6760301091347
 31
0.0
  0
LINE
  5
31834B69
330
318324AF
100
AcDbEntity
  8
JISSEN
100
AcDbLine
 10
154.7357242504715
 20
406.0260301091346
 30
0.0
 11
154.1457242504715
 21
406.0260301091346
 31
0.0
  0
LINE
  5
31834B6A
330
318324AF
100
AcDbEntity
  8
JISSEN
100
AcDbLine
 10
153.3174315675445
 20
406.7910301091344
 30
0.0
 11
154.0032242504714
 21
406.7910301091344
 31
0.0
  0
LINE
  5
31834B6B
330
318324AF
100
AcDbEntity
  8
JISSEN
100
AcDbLine
 10
154.1782242504715
 20
407.1410301091344
 30
0.0
 11
153.129626689496
 21
407.1410301091344
 31
0.0
  0
LINE
  5
31834B6C
330
318324AF
100
AcDbEntity
  8
JISSEN
100
AcDbLine
 10
154.0032242504714
 20
406.7910301091344
 30
0.0
 11
153.6724301328242
 21
406.1294418738402
 31
0.0
  0
LINE
  5
31834B6D
330
318324AF
100
AcDbEntity
  8
JISSEN
100
AcDbLine
 10
153.6724301328242
 20
406.1294418738402
 30
0.0
 11
153.3174315675445
 21
406.7910301091344
 31
0.0
  0
LINE
  5
31834B6E
330
318324AF
100
AcDbEntity
  8
JISSEN
100
AcDbLine
 10
147.4091310947676
 20
401.1538465584022
 30
0.0
 11
146.8091310947677
 21
401.7538465584022
 31
0.0
  0
ARC
  5
31834B6F
330
318324AF
100
AcDbEntity
  8
JISSEN
100
AcDbCircle
 10
145.4476496979517
 20
393.6538465584023
 30
0.0
 40
5.0
100
AcDbArc
 50
40.32021506996878
 51
90.0
  0
LINE
  5
31834B70
330
318324AF
100
AcDbEntity
  8
JISSEN
100
AcDbLine
 10
147.4091310947676
 20
401.1538465584022
 30
0.0
 11
147.4091310947676
 21
404.6538465584021
 31
0.0
  0
LINE
  5
31834B71
330
318324AF
100
AcDbEntity
  8
JISSEN
100
AcDbLine
 10
146.8091310947677
 20
401.7538465584022
 30
0.0
 11
146.8091310947677
 21
404.6538465584021
 31
0.0
  0
LINE
  5
31834B72
330
318324AF
100
AcDbEntity
  8
JISSEN
100
AcDbLine
 10
153.129626689496
 20
407.1410301091344
 30
0.0
 11
153.0357242504716
 21
407.3160301091344
 31
0.0
  0
LINE
  5
31834B73
330
318324AF
100
AcDbEntity
  8
JISSEN
100
AcDbLine
 10
154.2657242504714
 20
407.3160301091344
 30
0.0
 11
154.1782242504715
 21
407.1410301091344
 31
0.0
  0
LINE
  5
31834B74
330
318324AF
100
AcDbEntity
  8
JISSEN
100
AcDbLine
 10
152.1007242504715
 20
407.3160301091344
 30
0.0
 11
152.9807242504716
 21
405.6760301091347
 31
0.0
  0
LINE
  5
31834B75
330
318324AF
100
AcDbEntity
  8
JISSEN
100
AcDbLine
 10
154.7907242504713
 20
407.3160301091344
 30
0.0
 11
154.1457242504715
 21
406.0260301091346
 31
0.0
  0
LINE
  5
31834B76
330
318324AF
100
AcDbEntity
  8
JISSEN
100
AcDbLine
 10
146.8091310947677
 20
407.5538465584022
 30
0.0
 11
146.8091310947677
 21
404.6538465584021
 31
0.0
  0
LINE
  5
31834B77
330
318324AF
100
AcDbEntity
  8
JISSEN
100
AcDbLine
 10
147.4091310947676
 20
408.1538465584023
 30
0.0
 11
147.4091310947676
 21
404.6538465584021
 31
0.0
  0
ARC
  5
31834B78
330
318324AF
100
AcDbEntity
  8
JISSEN
100
AcDbCircle
 10
146.5022435162562
 20
404.6538465584021
 30
0.0
 40
2.0
100
AcDbArc
 50
131.4096221092256
 51
228.5903778907742
  0
INSERT
  5
31834B79
330
318324AF
100
AcDbEntity
  8
JISSEN
100
AcDbBlockReference
  2
*X4
 10
59.53120932429147
 20
598.9061937812396
 30
0.0
 41
-1.0
 50
180.0
  0
LWPOLYLINE
  5
31834B7A
330
318324AF
100
AcDbEntity
  8
JISSEN
100
AcDbPolyline
 90
        3
 70
     0
 43
0.0
 10
144.2647939920204
 20
405.7494276682874
 10
145.1793678607252
 20
406.1538465584033
 10
145.0723179589834
 20
405.1595929094096
  0
LINE
  5
31834B7B
330
318324AF
100
AcDbEntity
  8
JISSEN
100
AcDbLine
 10
144.2647939920204
 20
405.7494276682875
 30
0.0
 11
145.0723179589834
 21
405.1595929094096
 31
0.0
  0
TEXT
  5
31834B7C
330
318324AF
100
AcDbEntity
  8
JISSEN
100
AcDbText
 10
142.1062020962841
 20
405.7969235549266
 30
0.0
 40
2.43
  1
SHUT
 50
180.0
 41
0.75
  7
BIGFONT
100
AcDbText
  0
LINE
  5
31834B7D
330
318324AF
100
AcDbEntity
  8
JISSEN
100
AcDbLine
 10
145.8091310947676
 20
386.0434598593785
 30
0.0
 11
145.8091310947676
 21
379.488931854512
 31
0.0
  0
LINE
  5
31834B7E
330
318324AF
100
AcDbEntity
  8
JISSEN
100
AcDbLine
 10
148.7927984412565
 20
385.8538465584022
 30
0.0
 11
148.7927984412565
 21
379.4889318545122
 31
0.0
  0
LINE
  5
31834B7F
330
318324AF
100
AcDbEntity
  8
JISSEN
100
AcDbLine
 10
150.2675006501319
 20
385.8538465584022
 30
0.0
 11
150.2675006501319
 21
379.488931854512
 31
0.0
  0
LINE
  5
31834B80
330
318324AF
100
AcDbEntity
  8
JISSEN
100
AcDbLine
 10
148.7927984412565
 20
379.488931854512
 30
0.0
 11
150.2675006501319
 21
379.488931854512
 31
0.0
  0
LINE
  5
31834B81
330
318324AF
100
AcDbEntity
  8
JISSEN
100
AcDbLine
 10
146.9091310947694
 20
378.8538465584022
 30
0.0
 11
145.8091310947676
 21
379.488931854512
 31
0.0
  0
ARC
  5
31834B82
330
318324AF
100
AcDbEntity
  8
JISSEN
100
AcDbCircle
 10
147.3009647680121
 20
380.923569364193
 30
0.0
 40
2.069722805790715
100
AcDbArc
 50
223.8803301311464
 51
316.1196698688533
  0
ARC
  5
31834B83
330
318324AF
100
AcDbEntity
  8
JISSEN
100
AcDbCircle
 10
153.8169299063865
 20
389.0900947113152
 30
0.0
 40
10.23624815291293
100
AcDbArc
 50
249.7112801436141
 51
262.1540585674333
  0
ARC
  5
31834B84
330
318324AF
100
AcDbEntity
  8
JISSEN
100
AcDbCircle
 10
145.6591310947675
 20
387.853846558402
 30
0.0
 40
1.0
100
AcDbArc
 50
180.0
 51
244.8493365874591
  0
LINE
  5
31834B85
330
318324AF
100
AcDbEntity
  8
JISSEN
100
AcDbLine
 10
144.6591310947675
 20
389.3538465584022
 30
0.0
 11
144.6591310947675
 21
387.8538465584022
 31
0.0
  0
ARC
  5
31834B86
330
318324AF
100
AcDbEntity
  8
JISSEN
100
AcDbCircle
 10
144.8091310947676
 20
386.0434598593785
 30
0.0
 40
1.0
100
AcDbArc
 50
0.0
 51
64.84933658745923
  0
LINE
  5
31834B87
330
318324AF
100
AcDbEntity
  8
JISSEN
100
AcDbLine
 10
144.6591310947676
 20
398.6538465584023
 30
0.0
 11
144.6591310947676
 21
389.3538465584022
 31
0.0
  0
ARC
  5
31834B88
330
318324AF
100
AcDbEntity
  8
JISSEN
100
AcDbCircle
 10
132.9091310947677
 20
408.6538465584022
 30
0.0
 40
2.0
100
AcDbArc
 50
90.0
 51
180.0
  0
LINE
  5
31834B89
330
318324AF
100
AcDbEntity
  8
JISSEN
100
AcDbLine
 10
133.4091310947677
 20
408.1538465584023
 30
0.0
 11
134.0091310947676
 21
407.5538465584022
 31
0.0
  0
LINE
  5
31834B8A
330
318324AF
100
AcDbEntity
  8
JISSEN
100
AcDbLine
 10
133.4091310947677
 20
401.1538465584022
 30
0.0
 11
134.009131094768
 21
401.7538465584022
 31
0.0
  0
ARC
  5
31834B8B
330
318324AF
100
AcDbEntity
  8
JISSEN
100
AcDbCircle
 10
132.9091310947677
 20
400.6538465584021
 30
0.0
 40
2.0
100
AcDbArc
 50
180.0
 51
270.0
  0
LINE
  5
31834B8C
330
318324AF
100
AcDbEntity
  8
JISSEN
100
AcDbLine
 10
133.4091310947677
 20
401.1538465584022
 30
0.0
 11
133.4091310947677
 21
404.6538465584021
 31
0.0
  0
LINE
  5
31834B8D
330
318324AF
100
AcDbEntity
  8
JISSEN
100
AcDbLine
 10
134.009131094768
 20
401.7538465584022
 30
0.0
 11
134.009131094768
 21
404.6538465584021
 31
0.0
  0
LINE
  5
31834B8E
330
318324AF
100
AcDbEntity
  8
JISSEN
100
AcDbLine
 10
130.9091310947677
 20
400.6538465584021
 30
0.0
 11
130.9091310947677
 21
404.6538465584021
 31
0.0
  0
LINE
  5
31834B8F
330
318324AF
100
AcDbEntity
  8
JISSEN
100
AcDbLine
 10
134.0091310947676
 20
407.5538465584022
 30
0.0
 11
134.0091310947676
 21
404.6538465584021
 31
0.0
  0
LINE
  5
31834B90
330
318324AF
100
AcDbEntity
  8
JISSEN
100
AcDbLine
 10
133.4091310947677
 20
408.1538465584023
 30
0.0
 11
133.4091310947677
 21
404.6538465584021
 31
0.0
  0
LINE
  5
31834B91
330
318324AF
100
AcDbEntity
  8
JISSEN
100
AcDbLine
 10
130.9091310947677
 20
408.6538465584022
 30
0.0
 11
130.9091310947677
 21
404.6538465584021
 31
0.0
  0
LINE
  5
31834B92
330
318324AF
100
AcDbEntity
  8
JISSEN
100
AcDbLine
 10
134.0091310947676
 20
407.5538465584022
 30
0.0
 11
146.8091310947677
 21
407.5538465584022
 31
0.0
  0
LINE
  5
31834B93
330
318324AF
100
AcDbEntity
  8
JISSEN
100
AcDbLine
 10
133.4091310947677
 20
408.1538465584023
 30
0.0
 11
147.4091310947676
 21
408.1538465584023
 31
0.0
  0
LINE
  5
31834B94
330
318324AF
100
AcDbEntity
  8
JISSEN
100
AcDbLine
 10
145.4476496979517
 20
410.6538465584022
 30
0.0
 11
132.9091310947677
 21
410.6538465584022
 31
0.0
  0
LINE
  5
31834B95
330
318324AF
100
AcDbEntity
  8
JISSEN
100
AcDbLine
 10
133.4091310947677
 20
401.1538465584022
 30
0.0
 11
147.4091310947676
 21
401.1538465584022
 31
0.0
  0
LINE
  5
31834B96
330
318324AF
100
AcDbEntity
  8
JISSEN
100
AcDbLine
 10
134.009131094768
 20
401.7538465584022
 30
0.0
 11
146.8091310947677
 21
401.7538465584022
 31
0.0
  0
LINE
  5
31834B97
330
318324AF
100
AcDbEntity
  8
JISSEN
100
AcDbLine
 10
145.4476496979517
 20
398.6538465584023
 30
0.0
 11
132.9091310947677
 21
398.6538465584023
 31
0.0
  0
LINE
  5
31834B98
330
318324AF
100
AcDbEntity
  8
JISSEN
100
AcDbLine
 10
150.26750065013
 20
421.4538465584019
 30
0.0
 11
150.26750065013
 21
428.7187612622935
 31
0.0
  0
LINE
  5
31834B99
330
318324AF
100
AcDbEntity
  8
JISSEN
100
AcDbLine
 10
145.8091310947676
 20
421.4538465584026
 30
0.0
 11
145.8091310947676
 21
428.7187612622935
 31
0.0
  0
LINE
  5
31834B9A
330
318324AF
100
AcDbEntity
  8
JISSEN
100
AcDbLine
 10
148.7927984412571
 20
421.4538465584011
 30
0.0
 11
148.7927984412571
 21
428.7187612622935
 31
0.0
  0
LINE
  5
31834B9B
330
318324AF
100
AcDbEntity
  8
JISSEN
100
AcDbLine
 10
155.4091310947682
 20
398.6538465584022
 30
0.0
 11
161.4091310947681
 21
404.6538465584021
 31
0.0
  0
LINE
  5
31834B9C
330
318324AF
100
AcDbEntity
  8
JISSEN
100
AcDbLine
 10
155.5151971119461
 20
398.5477805412243
 30
0.0
 11
161.5151971119461
 21
404.5477805412242
 31
0.0
  0
LINE
  5
31834B9D
330
318324AF
100
AcDbEntity
  8
JISSEN
100
AcDbLine
 10
155.3030650775902
 20
398.75991257558
 30
0.0
 11
161.3030650775901
 21
404.7599125755803
 31
0.0
  0
TEXT
  5
31834B9E
330
318324AF
100
AcDbEntity
  8
JISSEN
100
AcDbText
 10
157.2496858321064
 20
404.5945037371042
 30
0.0
 40
3.5
  1
8
 50
180.0
  7
BIGFONT
100
AcDbText
  0
TEXT
  5
31834B9F
330
318324AF
100
AcDbEntity
  8
JISSEN
100
AcDbText
 10
157.3996858321066
 20
404.5945037371042
 30
0.0
 40
3.5
  1
8
 50
180.0
  7
BIGFONT
100
AcDbText
  0
TEXT
  5
31834BA0
330
318324AF
100
AcDbEntity
  8
JISSEN
100
AcDbText
 10
157.0996858321067
 20
404.5945037371042
 30
0.0
 40
3.5
  1
8
 50
180.0
  7
BIGFONT
100
AcDbText
  0
TEXT
  5
31834BA1
330
318324AF
100
AcDbEntity
  8
JISSEN
100
AcDbText
 10
157.2496858321064
 20
404.4445037371042
 30
0.0
 40
3.5
  1
8
 50
180.0
  7
BIGFONT
100
AcDbText
  0
TEXT
  5
31834BA2
330
318324AF
100
AcDbEntity
  8
JISSEN
100
AcDbText
 10
157.2496858321064
 20
404.7445037371042
 30
0.0
 40
3.5
  1
8
 50
180.0
  7
BIGFONT
100
AcDbText
  0
INSERT
  5
31834BA3
330
318324AF
100
AcDbEntity
  8
JISSEN
100
AcDbBlockReference
  2
*X3
 10
333.7114577095127
 20
636.5557978643777
 30
0.0
 50
180.0
  0
ARC
  5
31834BA4
330
318324AF
100
AcDbEntity
  8
JISSEN
100
AcDbCircle
 10
156.1395797504712
 20
406.6721121091346
 30
0.0
 40
0.995154500000005
100
AcDbArc
 50
90.0
 51
270.0
  0
LINE
  5
31834BA5
330
318324AF
100
AcDbEntity
  8
JISSEN
100
AcDbLine
 10
148.4091310947659
 20
416.8538465584021
 30
0.0
 11
158.4091310947676
 21
416.8538465584021
 31
0.0
  0
LINE
  5
31834BA6
330
318324AF
100
AcDbEntity
  8
JISSEN
100
AcDbLine
 10
146.9091310947679
 20
429.3538465584025
 30
0.0
 11
158.4091310947677
 21
429.3538465584025
 31
0.0
  0
LINE
  5
31834BA7
330
318324AF
100
AcDbEntity
  8
JISSEN
100
AcDbLine
 10
146.9091310947694
 20
378.8538465584022
 30
0.0
 11
158.4091310947677
 21
378.8538465584022
 31
0.0
  0
LINE
  5
31834BA8
330
318324AF
100
AcDbEntity
  8
JISSEN
100
AcDbLine
 10
158.4091310947676
 20
386.8538465584022
 30
0.0
 11
145.4091310947676
 21
386.8538465584022
 31
0.0
  0
LINE
  5
31834BA9
330
318324AF
100
AcDbEntity
  8
JISSEN
100
AcDbLine
 10
144.6591310947675
 20
389.3538465584022
 30
0.0
 11
158.4091310947676
 21
389.3538465584022
 31
0.0
  0
LINE
  5
31834BAA
330
318324AF
100
AcDbEntity
  8
JISSEN
100
AcDbLine
 10
148.4091310947677
 20
419.8538465584022
 30
0.0
 11
158.4091310947676
 21
419.8538465584022
 31
0.0
  0
ARC
  5
31834BAB
330
318324AF
100
AcDbEntity
  8
JISSEN
100
AcDbCircle
 10
158.4091310947676
 20
404.6538465584021
 30
0.0
 40
12.0
100
AcDbArc
 50
90.0
 51
139.6797849300312
  0
ARC
  5
31834BAC
330
318324AF
100
AcDbEntity
  8
JISSEN
100
AcDbCircle
 10
158.4091310947676
 20
404.6538465584021
 30
0.0
 40
12.0
100
AcDbArc
 50
220.3202150699686
 51
270.0
  0
CIRCLE
  5
31834BAD
330
318324AF
100
AcDbEntity
  8
JISSEN
100
AcDbCircle
 10
158.4091310947676
 20
404.6538465584021
 30
0.0
 40
9.5
  0
ARC
  5
31834BAE
330
318324AF
100
AcDbEntity
  8
JISSEN
100
AcDbCircle
 10
153.8169299063865
 20
389.0900947113149
 30
0.0
 40
10.23624815291293
100
AcDbArc
 50
249.7112801436141
 51
290.2887198563788
  0
ARC
  5
31834BAF
330
318324AF
100
AcDbEntity
  8
JISSEN
100
AcDbCircle
 10
153.8169299063862
 20
419.117598405465
 30
0.0
 40
10.23624815293717
100
AcDbArc
 50
69.71128014366967
 51
110.2887198563442
  0
ARC
  5
31834BB0
330
318324AF
100
AcDbEntity
  8
JISSEN
100
AcDbCircle
 10
153.8169299063862
 20
431.6525532627062
 30
0.0
 40
10.79870670430405
100
AcDbArc
 50
250.8107036956372
 51
289.1892963043557
  0
LINE
  5
31834BB1
330
318324AF
100
AcDbEntity
  8
JISSEN
100
AcDbLine
 10
148.4091310947678
 20
419.8538465584019
 30
0.0
 11
158.4091310947675
 21
419.8538465584019
 31
0.0
  0
LINE
  5
31834BB2
330
318324AF
100
AcDbEntity
  8
JISSEN
100
AcDbLine
 10
149.3158643550316
 20
429.3538465584025
 30
0.0
 11
158.4091310947684
 21
429.3538465584025
 31
0.0
  0
LINE
  5
31834BB3
330
318324AF
100
AcDbEntity
  8
JISSEN
100
AcDbLine
 10
168.0155566275356
 20
289.518761262293
 30
0.0
 11
166.5408544186638
 21
289.518761262293
 31
0.0
  0
LINE
  5
31834BB4
330
318324AF
100
AcDbEntity
  8
JISSEN
100
AcDbLine
 10
169.8992239740258
 20
290.153846558402
 30
0.0
 11
170.9992239740256
 21
289.518761262293
 31
0.0
  0
ARC
  5
31834BB5
330
318324AF
100
AcDbEntity
  8
JISSEN
100
AcDbCircle
 10
169.5073903007809
 20
288.084123752609
 30
0.0
 40
2.069722805793154
100
AcDbArc
 50
43.88033013119431
 51
136.1196698688056
  0
LINE
  5
31834BB6
330
318324AF
100
AcDbEntity
  8
JISSEN
100
AcDbLine
 10
167.846445787871
 20
266.453846558402
 30
0.0
 11
168.5500860063856
 21
266.453846558402
 31
0.0
  0
LINE
  5
31834BB7
330
318324AF
100
AcDbEntity
  8
JISSEN
100
AcDbLine
 10
168.0155566275356
 20
282.2538465584024
 30
0.0
 11
166.5408544186638
 21
282.2538465584024
 31
0.0
  0
ARC
  5
31834BB8
330
318324AF
100
AcDbEntity
  8
JISSEN
100
AcDbCircle
 10
170.3992239740258
 20
280.239632996029
 30
0.0
 40
1.0
100
AcDbArc
 50
135.0000000000094
 51
180.0
  0
LINE
  5
31834BB9
330
318324AF
100
AcDbEntity
  8
JISSEN
100
AcDbLine
 10
169.6921171928391
 20
280.9467397772154
 30
0.0
 11
170.9992239740256
 21
282.2538465584024
 31
0.0
  0
ARC
  5
31834BBA
330
318324AF
100
AcDbEntity
  8
JISSEN
100
AcDbCircle
 10
170.3992239740252
 20
278.0680601207751
 30
0.0
 40
1.0
100
AcDbArc
 50
180.0
 51
224.9999999999905
  0
ARC
  5
31834BBB
330
318324AF
100
AcDbEntity
  8
JISSEN
100
AcDbCircle
 10
169.1492239740258
 20
275.0754194336556
 30
0.0
 40
2.0
100
AcDbArc
 50
0.0
 51
44.99999999999055
  0
LINE
  5
31834BBC
330
318324AF
100
AcDbEntity
  8
JISSEN
100
AcDbLine
 10
169.6921171928391
 20
277.3609533395882
 30
0.0
 11
170.563437536399
 21
276.4896329960287
 31
0.0
  0
LINE
  5
31834BBD
330
318324AF
100
AcDbEntity
  8
JISSEN
100
AcDbLine
 10
169.3992239740258
 20
280.2396329960287
 30
0.0
 11
169.3992239740258
 21
278.0680601207749
 31
0.0
  0
ARC
  5
31834BBE
330
318324AF
100
AcDbEntity
  8
JISSEN
100
AcDbCircle
 10
169.5073903007809
 20
283.8084863155901
 30
0.0
 40
2.154639757188235
100
AcDbArc
 50
226.1810422561821
 51
313.8189577438176
  0
LINE
  5
31834BBF
330
318324AF
100
AcDbEntity
  8
JISSEN
100
AcDbLine
 10
166.5408544186638
 20
282.2538465584015
 30
0.0
 11
166.5408544186638
 21
289.518761262293
 31
0.0
  0
LINE
  5
31834BC0
330
318324AF
100
AcDbEntity
  8
JISSEN
100
AcDbLine
 10
168.0155566275365
 20
282.2538465584006
 30
0.0
 11
168.0155566275365
 21
289.518761262293
 31
0.0
  0
LINE
  5
31834BC1
330
318324AF
100
AcDbEntity
  8
JISSEN
100
AcDbLine
 10
170.9992239740256
 20
282.2538465584024
 30
0.0
 11
170.9992239740256
 21
289.518761262293
 31
0.0
  0
LINE
  5
31834BC2
330
318324AF
100
AcDbEntity
  8
JISSEN
100
AcDbLine
 10
161.8992239740258
 20
290.4538465584015
 30
0.0
 11
161.2992239740259
 21
289.8538465584021
 31
0.0
  0
ARC
  5
31834BC3
330
318324AF
100
AcDbEntity
  8
JISSEN
100
AcDbCircle
 10
162.3992239740258
 20
290.953846558402
 30
0.0
 40
2.0
100
AcDbArc
 50
0.0
 51
90.0
  0
LINE
  5
31834BC4
330
318324AF
100
AcDbEntity
  8
JISSEN
100
AcDbLine
 10
159.6862688514781
 20
283.1216882485029
 30
0.0
 11
157.2561784923339
 21
283.1216882485029
 31
0.0
  0
TEXT
  5
31834BC5
330
318324AF
100
AcDbEntity
  8
JISSEN
100
AcDbText
 10
157.2561469775017
 20
288.502401306839
 30
0.0
 40
2.43
  1
OPE  
 50
270.0
 41
0.75
  7
BIGFONT
100
AcDbText
  0
LINE
  5
31834BC6
330
318324AF
100
AcDbEntity
  8
JISSEN
100
AcDbLine
 10
161.2992239740259
 20
289.8538465584021
 30
0.0
 11
158.3992239740258
 21
289.8538465584021
 31
0.0
  0
LINE
  5
31834BC7
330
318324AF
100
AcDbEntity
  8
JISSEN
100
AcDbLine
 10
161.8992239740258
 20
290.4538465584015
 30
0.0
 11
158.3992239740258
 21
290.4538465584015
 31
0.0
  0
LINE
  5
31834BC8
330
318324AF
100
AcDbEntity
  8
JISSEN
100
AcDbLine
 10
162.3992239740258
 20
292.9538465584022
 30
0.0
 11
158.3992239740258
 21
292.9538465584022
 31
0.0
  0
LINE
  5
31834BC9
330
318324AF
100
AcDbEntity
  8
JISSEN
100
AcDbLine
 10
161.8992239740258
 20
276.453846558402
 30
0.0
 11
161.2992239740259
 21
277.0538465584019
 31
0.0
  0
ARC
  5
31834BCA
330
318324AF
100
AcDbEntity
  8
JISSEN
100
AcDbCircle
 10
169.3992239740258
 20
278.4153279552179
 30
0.0
 40
5.0
100
AcDbArc
 50
180.0
 51
229.6797849300391
  0
LINE
  5
31834BCB
330
318324AF
100
AcDbEntity
  8
JISSEN
100
AcDbLine
 10
157.0270404232936
 20
266.8154397141053
 30
0.0
 11
157.0270404232936
 21
266.4604397141054
 31
0.0
  0
LINE
  5
31834BCC
330
318324AF
100
AcDbEntity
  8
JISSEN
100
AcDbLine
 10
155.9512782281716
 20
266.4604397141054
 30
0.0
 11
157.3770404232935
 21
267.635439714105
 31
0.0
  0
ARC
  5
31834BCD
330
318324AF
100
AcDbEntity
  8
JISSEN
100
AcDbCircle
 10
158.3992239740258
 20
277.3607341369138
 30
0.0
 40
2.0
100
AcDbArc
 50
41.40962210923095
 51
138.590377890769
  0
LINE
  5
31834BCE
330
318324AF
100
AcDbEntity
  8
JISSEN
100
AcDbLine
 10
159.6862688514781
 20
281.9066336050179
 30
0.0
 11
157.2561784923339
 21
281.9066336050179
 31
0.0
  0
LINE
  5
31834BCF
330
318324AF
100
AcDbEntity
  8
JISSEN
100
AcDbLine
 10
157.3770404232935
 20
266.8154397141053
 30
0.0
 11
157.0270404232936
 21
266.8154397141053
 31
0.0
  0
LINE
  5
31834BD0
330
318324AF
100
AcDbEntity
  8
JISSEN
100
AcDbLine
 10
157.3770404232935
 20
269.155439714105
 30
0.0
 11
157.0270404232936
 21
269.155439714105
 31
0.0
  0
LINE
  5
31834BD1
330
318324AF
100
AcDbEntity
  8
JISSEN
100
AcDbLine
 10
157.3770404232935
 20
269.155439714105
 30
0.0
 11
157.3770404232935
 21
267.635439714105
 31
0.0
  0
LINE
  5
31834BD2
330
318324AF
100
AcDbEntity
  8
JISSEN
100
AcDbLine
 10
157.0270404232936
 20
269.155439714105
 30
0.0
 11
157.0270404232936
 21
268.8054397141051
 31
0.0
  0
LINE
  5
31834BD3
330
318324AF
100
AcDbEntity
  8
JISSEN
100
AcDbLine
 10
157.3036428641406
 20
279.5981836611496
 30
0.0
 11
157.8934776230182
 21
278.7906596941872
 31
0.0
  0
LWPOLYLINE
  5
31834BD4
330
318324AF
100
AcDbEntity
  8
JISSEN
100
AcDbPolyline
 90
        3
 70
     0
 43
0.0
 10
157.3036428641406
 20
279.5981836611496
 10
156.8992239740249
 20
278.6836097924453
 10
157.8934776230183
 20
278.7906596941872
  0
INSERT
  5
31834BD5
330
318324AF
100
AcDbEntity
  8
JISSEN
100
AcDbBlockReference
  2
*X6
 10
-35.8531232488113
 20
364.3317683288789
 30
0.0
 50
270.0
  0
LINE
  5
31834BD6
330
318324AF
100
AcDbEntity
  8
JISSEN
100
AcDbLine
 10
157.0270404232936
 20
266.4604397141054
 30
0.0
 11
155.9512782281716
 21
266.4604397141054
 31
0.0
  0
TEXT
  5
31834BD7
330
318324AF
100
AcDbEntity
  8
JISSEN
100
AcDbText
 10
160.5116170062186
 20
268.7299157125229
 30
0.0
 40
3.5
  1
3
 50
270.0
  7
BIGFONT
100
AcDbText
  0
TEXT
  5
31834BD8
330
318324AF
100
AcDbEntity
  8
JISSEN
100
AcDbText
 10
160.5116170062186
 20
268.8799157125226
 30
0.0
 40
3.5
  1
3
 50
270.0
  7
BIGFONT
100
AcDbText
  0
TEXT
  5
31834BD9
330
318324AF
100
AcDbEntity
  8
JISSEN
100
AcDbText
 10
160.5116170062186
 20
269.0299157125226
 30
0.0
 40
3.5
  1
3
 50
270.0
  7
BIGFONT
100
AcDbText
  0
TEXT
  5
31834BDA
330
318324AF
100
AcDbEntity
  8
JISSEN
100
AcDbText
 10
160.6616170062183
 20
268.8799157125226
 30
0.0
 40
3.5
  1
3
 50
270.0
  7
BIGFONT
100
AcDbText
  0
LINE
  5
31834BDB
330
318324AF
100
AcDbEntity
  8
JISSEN
100
AcDbLine
 10
161.2992239740259
 20
277.0538465584019
 30
0.0
 11
158.3992239740258
 21
277.0538465584019
 31
0.0
  0
LINE
  5
31834BDC
330
318324AF
100
AcDbEntity
  8
JISSEN
100
AcDbLine
 10
161.8992239740258
 20
276.453846558402
 30
0.0
 11
158.3992239740258
 21
276.453846558402
 31
0.0
  0
LINE
  5
31834BDD
330
318324AF
100
AcDbEntity
  8
JISSEN
100
AcDbLine
 10
159.6862688514781
 20
283.1216882485029
 30
0.0
 11
157.2561784923339
 21
281.9066336050179
 31
0.0
  0
LINE
  5
31834BDE
330
318324AF
100
AcDbEntity
  8
JISSEN
100
AcDbLine
 10
161.2992239740259
 20
289.8538465584021
 30
0.0
 11
161.2992239740259
 21
277.0538465584019
 31
0.0
  0
LINE
  5
31834BDF
330
318324AF
100
AcDbEntity
  8
JISSEN
100
AcDbLine
 10
161.8992239740258
 20
290.4538465584015
 30
0.0
 11
161.8992239740258
 21
276.453846558402
 31
0.0
  0
LINE
  5
31834BE0
330
318324AF
100
AcDbEntity
  8
JISSEN
100
AcDbLine
 10
164.3992239740257
 20
278.4153279552178
 30
0.0
 11
164.3992239740257
 21
290.9538465584018
 31
0.0
  0
LINE
  5
31834BE1
330
318324AF
100
AcDbEntity
  8
JISSEN
100
AcDbLine
 10
164.3992239740257
 20
280.653846558402
 30
0.0
 11
168.3992239740213
 21
280.653846558402
 31
0.0
  0
ARC
  5
31834BE2
330
318324AF
100
AcDbEntity
  8
JISSEN
100
AcDbCircle
 10
162.9914251624071
 20
292.4525532627059
 30
0.0
 40
10.79870670430405
100
AcDbArc
 50
277.4908207639926
 51
289.1892963043557
  0
ARC
  5
31834BE3
330
318324AF
100
AcDbEntity
  8
JISSEN
100
AcDbCircle
 10
162.9914251624071
 20
279.9175984054651
 30
0.0
 40
10.23624815293717
100
AcDbArc
 50
69.71128014364886
 51
82.09501394096934
  0
LINE
  5
31834BE4
330
318324AF
100
AcDbEntity
  8
JISSEN
100
AcDbLine
 10
164.4575495531132
 20
277.6538465584016
 30
0.0
 11
168.3992239740275
 21
277.6538465584016
 31
0.0
  0
LINE
  5
31834BE5
330
318324AF
100
AcDbEntity
  8
JISSEN
100
AcDbLine
 10
170.1492239740231
 20
275.9038465584016
 30
0.0
 11
165.0757460692087
 21
275.9038465584016
 31
0.0
  0
LINE
  5
31834BE6
330
318324AF
100
AcDbEntity
  8
JISSEN
100
AcDbLine
 10
164.3992239740257
 20
290.153846558402
 30
0.0
 11
169.8992239740258
 21
290.153846558402
 31
0.0
  0
ARC
  5
31834BE7
330
318324AF
100
AcDbEntity
  8
JISSEN
100
AcDbCircle
 10
171.1492239740258
 20
260.1538465584023
 30
0.0
 40
1.0
100
AcDbArc
 50
0.0
 51
60.00000000000006
  0
LINE
  5
31834BE8
330
318324AF
100
AcDbEntity
  8
JISSEN
100
AcDbLine
 10
172.1492239740258
 20
260.153846558402
 30
0.0
 11
172.1492239740258
 21
250.153846558402
 31
0.0
  0
LINE
  5
31834BE9
330
318324AF
100
AcDbEntity
  8
JISSEN
100
AcDbLine
 10
167.846445787871
 20
264.453846558402
 30
0.0
 11
168.5500860063856
 21
264.453846558402
 31
0.0
  0
LINE
  5
31834BEA
330
318324AF
100
AcDbEntity
  8
JISSEN
100
AcDbLine
 10
169.6023485381823
 20
261.153846558402
 30
0.0
 11
170.2880142558232
 21
261.153846558402
 31
0.0
  0
LINE
  5
31834BEB
330
318324AF
100
AcDbEntity
  8
JISSEN
100
AcDbLine
 10
169.1653746324557
 20
260.1538465584015
 30
0.0
 11
171.1492239740258
 21
260.153846558402
 31
0.0
  0
ARC
  5
31834BEC
330
318324AF
100
AcDbEntity
  8
JISSEN
100
AcDbCircle
 10
172.1492239740258
 20
261.8858973659713
 30
0.0
 40
1.0
100
AcDbArc
 50
180.0
 51
239.9999999999998
  0
ARC
  5
31834BED
330
318324AF
100
AcDbEntity
  8
JISSEN
100
AcDbCircle
 10
171.1492239740258
 20
248.6538465584023
 30
0.0
 40
1.0
100
AcDbArc
 50
295.1506634125263
 51
0.0
  0
LINE
  5
31834BEE
330
318324AF
100
AcDbEntity
  8
JISSEN
100
AcDbLine
 10
166.5408544186615
 20
246.6538465584021
 30
0.0
 11
166.5408544186615
 21
240.2889318545116
 31
0.0
  0
LINE
  5
31834BEF
330
318324AF
100
AcDbEntity
  8
JISSEN
100
AcDbLine
 10
168.0155566275369
 20
246.6538465584021
 30
0.0
 11
168.0155566275369
 21
240.2889318545116
 31
0.0
  0
LINE
  5
31834BF0
330
318324AF
100
AcDbEntity
  8
JISSEN
100
AcDbLine
 10
168.0155566275369
 20
240.2889318545116
 30
0.0
 11
166.5408544186615
 21
240.2889318545116
 31
0.0
  0
LINE
  5
31834BF1
330
318324AF
100
AcDbEntity
  8
JISSEN
100
AcDbLine
 10
170.9992239740256
 20
246.8434598593779
 30
0.0
 11
170.9992239740256
 21
240.2889318545116
 31
0.0
  0
LINE
  5
31834BF2
330
318324AF
100
AcDbEntity
  8
JISSEN
100
AcDbLine
 10
169.899223974024
 20
239.6538465584016
 30
0.0
 11
170.9992239740256
 21
240.2889318545116
 31
0.0
  0
ARC
  5
31834BF3
330
318324AF
100
AcDbEntity
  8
JISSEN
100
AcDbCircle
 10
169.5073903007809
 20
241.7235693641929
 30
0.0
 40
2.069722805790715
100
AcDbArc
 50
223.8803301311546
 51
316.1196698688453
  0
ARC
  5
31834BF4
330
318324AF
100
AcDbEntity
  8
JISSEN
100
AcDbCircle
 10
171.9992239740256
 20
246.8434598593782
 30
0.0
 40
1.0
100
AcDbArc
 50
115.1506634125263
 51
180.0
  0
LINE
  5
31834BF5
330
318324AF
100
AcDbEntity
  8
JISSEN
100
AcDbLine
 10
172.1492239740258
 20
250.153846558402
 30
0.0
 11
172.1492239740258
 21
248.653846558402
 31
0.0
  0
LINE
  5
31834BF6
330
318324AF
100
AcDbEntity
  8
JISSEN
100
AcDbLine
 10
161.8992239740258
 20
254.453846558402
 30
0.0
 11
161.2992239740259
 21
253.8538465584021
 31
0.0
  0
ARC
  5
31834BF7
330
318324AF
100
AcDbEntity
  8
JISSEN
100
AcDbCircle
 10
169.3992239740258
 20
252.4923651615865
 30
0.0
 40
5.0
100
AcDbArc
 50
130.3202150699606
 51
180.0
  0
ARC
  5
31834BF8
330
318324AF
100
AcDbEntity
  8
JISSEN
100
AcDbCircle
 10
158.3992239740258
 20
253.5469589798898
 30
0.0
 40
2.0
100
AcDbArc
 50
221.4096221092309
 51
318.590377890769
  0
LINE
  5
31834BF9
330
318324AF
100
AcDbEntity
  8
JISSEN
100
AcDbLine
 10
156.2620404232936
 20
261.0479397141049
 30
0.0
 11
156.9236286585877
 21
260.7171455964583
 31
0.0
  0
LINE
  5
31834BFA
330
318324AF
100
AcDbEntity
  8
JISSEN
100
AcDbLine
 10
156.2620404232936
 20
260.3621470311783
 30
0.0
 11
156.2620404232936
 21
261.0479397141049
 31
0.0
  0
LINE
  5
31834BFB
330
318324AF
100
AcDbEntity
  8
JISSEN
100
AcDbLine
 10
155.9120404232937
 20
261.2229397141051
 30
0.0
 11
155.9120404232937
 21
260.1743421531297
 31
0.0
  0
LINE
  5
31834BFC
330
318324AF
100
AcDbEntity
  8
JISSEN
100
AcDbLine
 10
156.9236286585877
 20
260.7171455964583
 30
0.0
 11
156.2620404232936
 21
260.3621470311783
 31
0.0
  0
LINE
  5
31834BFD
330
318324AF
100
AcDbEntity
  8
JISSEN
100
AcDbLine
 10
157.0270404232936
 20
261.780439714105
 30
0.0
 11
157.3770404232935
 21
261.780439714105
 31
0.0
  0
LINE
  5
31834BFE
330
318324AF
100
AcDbEntity
  8
JISSEN
100
AcDbLine
 10
157.3770404232935
 20
261.780439714105
 30
0.0
 11
157.3770404232935
 21
260.0254397141053
 31
0.0
  0
LINE
  5
31834BFF
330
318324AF
100
AcDbEntity
  8
JISSEN
100
AcDbLine
 10
157.0270404232936
 20
261.780439714105
 30
0.0
 11
157.0270404232936
 21
261.1904397141048
 31
0.0
  0
LINE
  5
31834C00
330
318324AF
100
AcDbEntity
  8
JISSEN
100
AcDbLine
 10
157.0248819232937
 20
265.4087582141047
 30
0.0
 11
157.0248819232937
 21
265.057527214105
 31
0.0
  0
LINE
  5
31834C01
330
318324AF
100
AcDbEntity
  8
JISSEN
100
AcDbLine
 10
157.3761129232932
 20
265.4087582141047
 30
0.0
 11
157.0248819232937
 21
265.4087582141047
 31
0.0
  0
LINE
  5
31834C02
330
318324AF
100
AcDbEntity
  8
JISSEN
100
AcDbLine
 10
157.3761129232932
 20
263.1842952141052
 30
0.0
 11
157.3761129232932
 21
265.4087582141047
 31
0.0
  0
LINE
  5
31834C03
330
318324AF
100
AcDbEntity
  8
JISSEN
100
AcDbLine
 10
157.0248819232937
 20
263.769680214105
 30
0.0
 11
157.0248819232937
 21
264.3550652141053
 31
0.0
  0
LINE
  5
31834C04
330
318324AF
100
AcDbEntity
  8
JISSEN
100
AcDbLine
 10
157.3770404232935
 20
265.6404397141051
 30
0.0
 11
157.0270404232936
 21
265.6404397141051
 31
0.0
  0
INSERT
  5
31834C05
330
318324AF
100
AcDbEntity
  8
JISSEN
100
AcDbBlockReference
  2
*X6
 10
-35.8531232488113
 20
166.5759247879249
 30
0.0
 41
-1.0
 50
270.0
  0
LWPOLYLINE
  5
31834C06
330
318324AF
100
AcDbEntity
  8
JISSEN
100
AcDbPolyline
 90
        3
 70
     0
 43
0.0
 10
157.3036428641406
 20
251.3095094556539
 10
156.8992239740249
 20
252.2240833243587
 10
157.8934776230183
 20
252.1170334226173
  0
LINE
  5
31834C07
330
318324AF
100
AcDbEntity
  8
JISSEN
100
AcDbLine
 10
157.3036428641406
 20
251.3095094556539
 30
0.0
 11
157.8934776230182
 21
252.1170334226173
 31
0.0
  0
LINE
  5
31834C08
330
318324AF
100
AcDbEntity
  8
JISSEN
100
AcDbLine
 10
161.8992239740258
 20
254.453846558402
 30
0.0
 11
158.3992239740258
 21
254.453846558402
 31
0.0
  0
LINE
  5
31834C09
330
318324AF
100
AcDbEntity
  8
JISSEN
100
AcDbLine
 10
161.2992239740259
 20
253.8538465584021
 30
0.0
 11
158.3992239740258
 21
253.8538465584021
 31
0.0
  0
TEXT
  5
31834C0A
330
318324AF
100
AcDbEntity
  8
JISSEN
100
AcDbText
 10
158.4585667953235
 20
264.2944012957399
 30
0.0
 40
3.5
  1
8
 50
270.0
  7
BIGFONT
100
AcDbText
  0
TEXT
  5
31834C0B
330
318324AF
100
AcDbEntity
  8
JISSEN
100
AcDbText
 10
158.4585667953235
 20
264.44440129574
 30
0.0
 40
3.5
  1
8
 50
270.0
  7
BIGFONT
100
AcDbText
  0
TEXT
  5
31834C0C
330
318324AF
100
AcDbEntity
  8
JISSEN
100
AcDbText
 10
158.4585667953235
 20
264.1444012957403
 30
0.0
 40
3.5
  1
8
 50
270.0
  7
BIGFONT
100
AcDbText
  0
TEXT
  5
31834C0D
330
318324AF
100
AcDbEntity
  8
JISSEN
100
AcDbText
 10
158.6085667953237
 20
264.2944012957399
 30
0.0
 40
3.5
  1
8
 50
270.0
  7
BIGFONT
100
AcDbText
  0
TEXT
  5
31834C0E
330
318324AF
100
AcDbEntity
  8
JISSEN
100
AcDbText
 10
158.308566795324
 20
264.2944012957399
 30
0.0
 40
3.5
  1
8
 50
270.0
  7
BIGFONT
100
AcDbText
  0
ARC
  5
31834C0F
330
318324AF
100
AcDbEntity
  8
JISSEN
100
AcDbCircle
 10
162.3992239740258
 20
239.9538465584024
 30
0.0
 40
2.0
100
AcDbArc
 50
270.0
 51
0.0
  0
LINE
  5
31834C10
330
318324AF
100
AcDbEntity
  8
JISSEN
100
AcDbLine
 10
161.8992239740258
 20
240.453846558402
 30
0.0
 11
161.2992239740259
 21
241.0538465584019
 31
0.0
  0
LINE
  5
31834C11
330
318324AF
100
AcDbEntity
  8
JISSEN
100
AcDbLine
 10
162.3992239740258
 20
237.9538465584023
 30
0.0
 11
158.3992239740258
 21
237.9538465584023
 31
0.0
  0
LINE
  5
31834C12
330
318324AF
100
AcDbEntity
  8
JISSEN
100
AcDbLine
 10
161.8992239740258
 20
240.453846558402
 30
0.0
 11
158.3992239740258
 21
240.453846558402
 31
0.0
  0
LINE
  5
31834C13
330
318324AF
100
AcDbEntity
  8
JISSEN
100
AcDbLine
 10
161.2992239740259
 20
241.0538465584019
 30
0.0
 11
158.3992239740258
 21
241.0538465584019
 31
0.0
  0
TEXT
  5
31834C14
330
318324AF
100
AcDbEntity
  8
JISSEN
100
AcDbText
 10
157.2561469775017
 20
249.1509175599175
 30
0.0
 40
2.43
  1
SHUT
 50
270.0
 41
0.75
  7
BIGFONT
100
AcDbText
  0
LINE
  5
31834C15
330
318324AF
100
AcDbEntity
  8
JISSEN
100
AcDbLine
 10
161.8992239740258
 20
240.453846558402
 30
0.0
 11
161.8992239740258
 21
254.453846558402
 31
0.0
  0
LINE
  5
31834C16
330
318324AF
100
AcDbEntity
  8
JISSEN
100
AcDbLine
 10
161.2992239740259
 20
241.0538465584019
 30
0.0
 11
161.2992239740259
 21
253.8538465584021
 31
0.0
  0
LINE
  5
31834C17
330
318324AF
100
AcDbEntity
  8
JISSEN
100
AcDbLine
 10
164.3992239740257
 20
252.4923651615862
 30
0.0
 11
164.3992239740257
 21
239.9538465584023
 31
0.0
  0
LINE
  5
31834C18
330
318324AF
100
AcDbEntity
  8
JISSEN
100
AcDbLine
 10
164.3765959673539
 20
239.6538465584013
 30
0.0
 11
167.0492239740259
 21
239.6538465584013
 31
0.0
  0
ARC
  5
31834C19
330
318324AF
100
AcDbEntity
  8
JISSEN
100
AcDbCircle
 10
162.9914251624065
 20
249.8900947113149
 30
0.0
 40
10.23624815291293
100
AcDbArc
 50
277.8459414325732
 51
290.2887198563788
  0
LINE
  5
31834C1A
330
318324AF
100
AcDbEntity
  8
JISSEN
100
AcDbLine
 10
164.3992239740257
 20
247.653846558402
 30
0.0
 11
171.4133285925439
 21
247.653846558402
 31
0.0
  0
LINE
  5
31834C1B
330
318324AF
100
AcDbEntity
  8
JISSEN
100
AcDbLine
 10
169.899223974024
 20
239.6538465584016
 30
0.0
 11
164.3765959673536
 21
239.6538465584016
 31
0.0
  0
LINE
  5
31834C1C
330
318324AF
100
AcDbEntity
  8
JISSEN
100
AcDbLine
 10
164.3992239740257
 20
250.153846558402
 30
0.0
 11
172.1492239740258
 21
250.153846558402
 31
0.0
  0
ARC
  5
31834C1D
330
318324AF
100
AcDbEntity
  8
JISSEN
100
AcDbCircle
 10
158.3992239740258
 20
265.453846558402
 30
0.0
 40
12.0
100
AcDbArc
 50
310.3202150699606
 51
0.0
  0
ARC
  5
31834C1E
330
318324AF
100
AcDbEntity
  8
JISSEN
100
AcDbCircle
 10
158.3992239740258
 20
265.4538465584018
 30
0.0
 40
10.2
100
AcDbArc
 50
354.3737290538994
 51
5.626270946100568
  0
LINE
  5
31834C1F
330
318324AF
100
AcDbEntity
  8
JISSEN
100
AcDbLine
 10
164.3992239740257
 20
262.453846558402
 30
0.0
 11
158.3992239740258
 21
268.4538465584016
 31
0.0
  0
LINE
  5
31834C20
330
318324AF
100
AcDbEntity
  8
JISSEN
100
AcDbLine
 10
164.5052899912036
 20
262.5599125755799
 30
0.0
 11
158.5052899912036
 21
268.5599125755799
 31
0.0
  0
LINE
  5
31834C21
330
318324AF
100
AcDbEntity
  8
JISSEN
100
AcDbLine
 10
164.2931579568479
 20
262.3477805412241
 30
0.0
 11
158.2931579568479
 21
268.3477805412241
 31
0.0
  0
LINE
  5
31834C22
330
318324AF
100
AcDbEntity
  8
JISSEN
100
AcDbLine
 10
157.3770404232935
 20
266.8154397141053
 30
0.0
 11
157.3770404232935
 21
265.6404397141051
 31
0.0
  0
LINE
  5
31834C23
330
318324AF
100
AcDbEntity
  8
JISSEN
100
AcDbLine
 10
157.0270404232936
 20
265.9954397141051
 30
0.0
 11
157.0270404232936
 21
265.6404397141051
 31
0.0
  0
LINE
  5
31834C24
330
318324AF
100
AcDbEntity
  8
JISSEN
100
AcDbLine
 10
171.1492239740258
 20
275.0754194336554
 30
0.0
 11
171.1492239740258
 21
261.8858973659711
 31
0.0
  0
ARC
  5
31834C25
330
318324AF
100
AcDbEntity
  8
JISSEN
100
AcDbCircle
 10
158.3992239740258
 20
265.453846558402
 30
0.0
 40
12.0
100
AcDbArc
 50
0.0
 51
49.67978493003935
  0
LINE
  5
31834C26
330
318324AF
100
AcDbEntity
  8
JISSEN
100
AcDbLine
 10
154.8992239740258
 20
290.4538465584015
 30
0.0
 11
155.4992239740256
 21
289.8538465584016
 31
0.0
  0
ARC
  5
31834C27
330
318324AF
100
AcDbEntity
  8
JISSEN
100
AcDbCircle
 10
154.3992239740258
 20
290.953846558402
 30
0.0
 40
2.0
100
AcDbArc
 50
90.0
 51
180.0
  0
LINE
  5
31834C28
330
318324AF
100
AcDbEntity
  8
JISSEN
100
AcDbLine
 10
146.8992239740263
 20
290.153846558402
 30
0.0
 11
145.7992239740259
 21
289.518761262293
 31
0.0
  0
LINE
  5
31834C29
330
318324AF
100
AcDbEntity
  8
JISSEN
100
AcDbLine
 10
148.7828913205161
 20
289.518761262293
 30
0.0
 11
150.2575935293883
 21
289.518761262293
 31
0.0
  0
ARC
  5
31834C2A
330
318324AF
100
AcDbEntity
  8
JISSEN
100
AcDbCircle
 10
147.2910576472702
 20
288.084123752609
 30
0.0
 40
2.069722805793154
100
AcDbArc
 50
43.88033013119431
 51
136.1196698688056
  0
ARC
  5
31834C2B
330
318324AF
100
AcDbEntity
  8
JISSEN
100
AcDbCircle
 10
153.8070227856445
 20
279.9175984054651
 30
0.0
 40
10.23624815293717
100
AcDbArc
 50
97.90498605903065
 51
110.288719856351
  0
LINE
  5
31834C2C
330
318324AF
100
AcDbEntity
  8
JISSEN
100
AcDbLine
 10
146.8992239740263
 20
290.153846558402
 30
0.0
 11
152.3992239740258
 21
290.153846558402
 31
0.0
  0
LINE
  5
31834C2D
330
318324AF
100
AcDbEntity
  8
JISSEN
100
AcDbLine
 10
155.3870404232936
 20
265.9954397141051
 30
0.0
 11
155.3870404232936
 21
267.0454397141053
 31
0.0
  0
LINE
  5
31834C2E
330
318324AF
100
AcDbEntity
  8
JISSEN
100
AcDbLine
 10
155.7370404232937
 20
268.3354397141054
 30
0.0
 11
155.7370404232937
 21
267.9854397141054
 31
0.0
  0
LINE
  5
31834C2F
330
318324AF
100
AcDbEntity
  8
JISSEN
100
AcDbLine
 10
155.7370404232937
 20
269.155439714105
 30
0.0
 11
155.7370404232937
 21
268.8054397141051
 31
0.0
  0
LINE
  5
31834C30
330
318324AF
100
AcDbEntity
  8
JISSEN
100
AcDbLine
 10
155.3870404232936
 20
269.155439714105
 30
0.0
 11
155.3870404232936
 21
267.9854397141054
 31
0.0
  0
LINE
  5
31834C31
330
318324AF
100
AcDbEntity
  8
JISSEN
100
AcDbLine
 10
155.3870404232936
 20
267.9854397141054
 30
0.0
 11
155.7370404232937
 21
267.9854397141054
 31
0.0
  0
LINE
  5
31834C32
330
318324AF
100
AcDbEntity
  8
JISSEN
100
AcDbLine
 10
155.7370404232937
 20
269.155439714105
 30
0.0
 11
155.3870404232936
 21
269.155439714105
 31
0.0
  0
LINE
  5
31834C33
330
318324AF
100
AcDbEntity
  8
JISSEN
100
AcDbLine
 10
154.8992239740258
 20
276.453846558402
 30
0.0
 11
155.4992239740256
 21
277.0538465584019
 31
0.0
  0
ARC
  5
31834C34
330
318324AF
100
AcDbEntity
  8
JISSEN
100
AcDbCircle
 10
147.3992239740258
 20
278.4153279552179
 30
0.0
 40
5.0
100
AcDbArc
 50
310.3202150699606
 51
0.0
  0
LINE
  5
31834C35
330
318324AF
100
AcDbEntity
  8
JISSEN
100
AcDbLine
 10
147.1063307552125
 20
280.9467397772154
 30
0.0
 11
145.7992239740259
 21
282.2538465584024
 31
0.0
  0
ARC
  5
31834C36
330
318324AF
100
AcDbEntity
  8
JISSEN
100
AcDbCircle
 10
146.3992239740258
 20
280.239632996029
 30
0.0
 40
1.0
100
AcDbArc
 50
0.0
 51
44.99999999999055
  0
ARC
  5
31834C37
330
318324AF
100
AcDbEntity
  8
JISSEN
100
AcDbCircle
 10
146.3992239740258
 20
278.0680601207756
 30
0.0
 40
1.0
100
AcDbArc
 50
315.0000000000094
 51
0.0
  0
ARC
  5
31834C38
330
318324AF
100
AcDbEntity
  8
JISSEN
100
AcDbCircle
 10
147.6492239740258
 20
275.0754194336561
 30
0.0
 40
2.0
100
AcDbArc
 50
135.0000000000094
 51
180.0
  0
LINE
  5
31834C39
330
318324AF
100
AcDbEntity
  8
JISSEN
100
AcDbLine
 10
147.1063307552125
 20
277.3609533395887
 30
0.0
 11
146.2350104116529
 21
276.4896329960293
 31
0.0
  0
LINE
  5
31834C3A
330
318324AF
100
AcDbEntity
  8
JISSEN
100
AcDbLine
 10
147.3992239740258
 20
280.2396329960287
 30
0.0
 11
147.3992239740258
 21
278.0680601207754
 31
0.0
  0
LINE
  5
31834C3B
330
318324AF
100
AcDbEntity
  8
JISSEN
100
AcDbLine
 10
148.7828913205161
 20
282.2538465584024
 30
0.0
 11
150.2575935293883
 21
282.2538465584024
 31
0.0
  0
ARC
  5
31834C3C
330
318324AF
100
AcDbEntity
  8
JISSEN
100
AcDbCircle
 10
147.2910576472702
 20
283.8084863155901
 30
0.0
 40
2.154639757188235
100
AcDbArc
 50
226.1810422561821
 51
313.8189577438176
  0
ARC
  5
31834C3D
330
318324AF
100
AcDbEntity
  8
JISSEN
100
AcDbCircle
 10
153.8070227856445
 20
292.4525532627059
 30
0.0
 40
10.79870670430405
100
AcDbArc
 50
250.8107036956441
 51
262.5091792360073
  0
LINE
  5
31834C3E
330
318324AF
100
AcDbEntity
  8
JISSEN
100
AcDbLine
 10
151.7227018788447
 20
275.903846558402
 30
0.0
 11
146.6492239740249
 21
275.903846558402
 31
0.0
  0
LINE
  5
31834C3F
330
318324AF
100
AcDbEntity
  8
JISSEN
100
AcDbLine
 10
148.3992239740258
 20
280.653846558402
 30
0.0
 11
152.3992239740258
 21
280.653846558402
 31
0.0
  0
LINE
  5
31834C40
330
318324AF
100
AcDbEntity
  8
JISSEN
100
AcDbLine
 10
148.399223974024
 20
277.6538465584016
 30
0.0
 11
152.3408983949386
 21
277.6538465584016
 31
0.0
  0
LINE
  5
31834C41
330
318324AF
100
AcDbEntity
  8
JISSEN
100
AcDbLine
 10
154.8992239740258
 20
290.4538465584015
 30
0.0
 11
154.8992239740258
 21
276.453846558402
 31
0.0
  0
LINE
  5
31834C42
330
318324AF
100
AcDbEntity
  8
JISSEN
100
AcDbLine
 10
155.4992239740256
 20
289.8538465584016
 30
0.0
 11
155.4992239740256
 21
277.0538465584019
 31
0.0
  0
LINE
  5
31834C43
330
318324AF
100
AcDbEntity
  8
JISSEN
100
AcDbLine
 10
145.7992239740259
 20
282.2538465584024
 30
0.0
 11
145.7992239740259
 21
289.518761262293
 31
0.0
  0
LINE
  5
31834C44
330
318324AF
100
AcDbEntity
  8
JISSEN
100
AcDbLine
 10
148.782891320515
 20
282.2538465584006
 30
0.0
 11
148.782891320515
 21
289.518761262293
 31
0.0
  0
LINE
  5
31834C45
330
318324AF
100
AcDbEntity
  8
JISSEN
100
AcDbLine
 10
150.2575935293883
 20
282.2538465584015
 30
0.0
 11
150.2575935293883
 21
289.518761262293
 31
0.0
  0
LINE
  5
31834C46
330
318324AF
100
AcDbEntity
  8
JISSEN
100
AcDbLine
 10
152.3992239740258
 20
278.4153279552178
 30
0.0
 11
152.3992239740258
 21
290.9538465584018
 31
0.0
  0
LINE
  5
31834C47
330
318324AF
100
AcDbEntity
  8
JISSEN
100
AcDbLine
 10
154.8992239740258
 20
254.453846558402
 30
0.0
 11
155.4992239740256
 21
253.8538465584021
 31
0.0
  0
LINE
  5
31834C48
330
318324AF
100
AcDbEntity
  8
JISSEN
100
AcDbLine
 10
155.7370404232937
 20
259.1454397141052
 30
0.0
 11
155.7370404232937
 21
258.7954397141053
 31
0.0
  0
LINE
  5
31834C49
330
318324AF
100
AcDbEntity
  8
JISSEN
100
AcDbLine
 10
155.7370404232937
 20
261.3104397141047
 30
0.0
 11
155.7370404232937
 21
260.9604397141054
 31
0.0
  0
LINE
  5
31834C4A
330
318324AF
100
AcDbEntity
  8
JISSEN
100
AcDbLine
 10
155.7370404232937
 20
260.4354397141047
 30
0.0
 11
155.7370404232937
 21
260.0804397141052
 31
0.0
  0
LINE
  5
31834C4B
330
318324AF
100
AcDbEntity
  8
JISSEN
100
AcDbLine
 10
155.7370404232937
 20
262.1904397141053
 30
0.0
 11
155.7370404232937
 21
261.8354397141053
 31
0.0
  0
LINE
  5
31834C4C
330
318324AF
100
AcDbEntity
  8
JISSEN
100
AcDbLine
 10
155.3870404232936
 20
260.4354397141047
 30
0.0
 11
155.3870404232936
 21
258.7954397141053
 31
0.0
  0
LINE
  5
31834C4D
330
318324AF
100
AcDbEntity
  8
JISSEN
100
AcDbLine
 10
155.3870404232936
 20
262.1904397141053
 30
0.0
 11
155.3870404232936
 21
260.9604397141054
 31
0.0
  0
LINE
  5
31834C4E
330
318324AF
100
AcDbEntity
  8
JISSEN
100
AcDbLine
 10
155.3870404232936
 20
258.7954397141053
 30
0.0
 11
155.7370404232937
 21
258.7954397141053
 31
0.0
  0
LINE
  5
31834C4F
330
318324AF
100
AcDbEntity
  8
JISSEN
100
AcDbLine
 10
155.7370404232937
 20
260.4354397141047
 30
0.0
 11
155.3870404232936
 21
260.4354397141047
 31
0.0
  0
LINE
  5
31834C50
330
318324AF
100
AcDbEntity
  8
JISSEN
100
AcDbLine
 10
155.7370404232937
 20
260.9604397141054
 30
0.0
 11
155.3870404232936
 21
260.9604397141054
 31
0.0
  0
LINE
  5
31834C51
330
318324AF
100
AcDbEntity
  8
JISSEN
100
AcDbLine
 10
155.3870404232936
 20
262.1904397141053
 30
0.0
 11
155.7370404232937
 21
262.1904397141053
 31
0.0
  0
LINE
  5
31834C52
330
318324AF
100
AcDbEntity
  8
JISSEN
100
AcDbLine
 10
155.7370349232936
 20
265.057527214105
 30
0.0
 11
155.7370349232936
 21
265.4087582141047
 31
0.0
  0
LINE
  5
31834C53
330
318324AF
100
AcDbEntity
  8
JISSEN
100
AcDbLine
 10
155.7370349232936
 20
264.3550652141053
 30
0.0
 11
155.7370349232936
 21
263.769680214105
 31
0.0
  0
LINE
  5
31834C54
330
318324AF
100
AcDbEntity
  8
JISSEN
100
AcDbLine
 10
155.3858039232935
 20
265.4087582141047
 30
0.0
 11
155.3858039232935
 21
263.1842952141052
 31
0.0
  0
LINE
  5
31834C55
330
318324AF
100
AcDbEntity
  8
JISSEN
100
AcDbLine
 10
155.7370349232936
 20
265.4087582141047
 30
0.0
 11
155.3858039232935
 21
265.4087582141047
 31
0.0
  0
ARC
  5
31834C56
330
318324AF
100
AcDbEntity
  8
JISSEN
100
AcDbCircle
 10
147.3992239740258
 20
252.4923651615865
 30
0.0
 40
5.0
100
AcDbArc
 50
0.0
 51
49.67978493003935
  0
LINE
  5
31834C57
330
318324AF
100
AcDbEntity
  8
JISSEN
100
AcDbLine
 10
146.5104336922298
 20
261.1538465584016
 30
0.0
 11
147.1960994098693
 21
261.1538465584016
 31
0.0
  0
LINE
  5
31834C58
330
318324AF
100
AcDbEntity
  8
JISSEN
100
AcDbLine
 10
145.6492239740257
 20
260.1538465584015
 30
0.0
 11
147.6330733155963
 21
260.1538465584015
 31
0.0
  0
ARC
  5
31834C59
330
318324AF
100
AcDbEntity
  8
JISSEN
100
AcDbCircle
 10
158.3992239740258
 20
265.453846558402
 30
0.0
 40
12.0
100
AcDbArc
 50
180.0
 51
229.6797849300391
  0
ARC
  5
31834C5A
330
318324AF
100
AcDbEntity
  8
JISSEN
100
AcDbCircle
 10
154.3992239740258
 20
239.9538465584024
 30
0.0
 40
2.0
100
AcDbArc
 50
180.0
 51
270.0
  0
LINE
  5
31834C5B
330
318324AF
100
AcDbEntity
  8
JISSEN
100
AcDbLine
 10
154.8992239740258
 20
240.453846558402
 30
0.0
 11
155.4992239740256
 21
241.0538465584019
 31
0.0
  0
LINE
  5
31834C5C
330
318324AF
100
AcDbEntity
  8
JISSEN
100
AcDbLine
 10
145.7992239740259
 20
246.8434598593779
 30
0.0
 11
145.7992239740259
 21
240.2889318545116
 31
0.0
  0
LINE
  5
31834C5D
330
318324AF
100
AcDbEntity
  8
JISSEN
100
AcDbLine
 10
146.8992239740276
 20
239.6538465584016
 30
0.0
 11
145.7992239740259
 21
240.2889318545116
 31
0.0
  0
LINE
  5
31834C5E
330
318324AF
100
AcDbEntity
  8
JISSEN
100
AcDbLine
 10
148.7828913205147
 20
246.6538465584021
 30
0.0
 11
148.7828913205147
 21
240.2889318545116
 31
0.0
  0
LINE
  5
31834C5F
330
318324AF
100
AcDbEntity
  8
JISSEN
100
AcDbLine
 10
150.25759352939
 20
246.6538465584021
 30
0.0
 11
150.25759352939
 21
240.2889318545116
 31
0.0
  0
LINE
  5
31834C60
330
318324AF
100
AcDbEntity
  8
JISSEN
100
AcDbLine
 10
148.7828913205147
 20
240.2889318545116
 30
0.0
 11
150.25759352939
 21
240.2889318545116
 31
0.0
  0
ARC
  5
31834C61
330
318324AF
100
AcDbEntity
  8
JISSEN
100
AcDbCircle
 10
147.2910576472702
 20
241.7235693641929
 30
0.0
 40
2.069722805790715
100
AcDbArc
 50
223.8803301311546
 51
316.1196698688453
  0
ARC
  5
31834C62
330
318324AF
100
AcDbEntity
  8
JISSEN
100
AcDbCircle
 10
153.8070227856445
 20
249.8900947113149
 30
0.0
 40
10.23624815291293
100
AcDbArc
 50
249.7112801436209
 51
262.1540585674266
  0
LINE
  5
31834C63
330
318324AF
100
AcDbEntity
  8
JISSEN
100
AcDbLine
 10
152.3992239740258
 20
247.653846558402
 30
0.0
 11
145.3992239740258
 21
247.653846558402
 31
0.0
  0
LINE
  5
31834C64
330
318324AF
100
AcDbEntity
  8
JISSEN
100
AcDbLine
 10
146.8992239740276
 20
239.6538465584016
 30
0.0
 11
152.4218519806967
 21
239.6538465584016
 31
0.0
  0
LINE
  5
31834C65
330
318324AF
100
AcDbEntity
  8
JISSEN
100
AcDbLine
 10
149.7492239740256
 20
239.6538465584018
 30
0.0
 11
152.4218519806976
 21
239.6538465584018
 31
0.0
  0
LINE
  5
31834C66
330
318324AF
100
AcDbEntity
  8
JISSEN
100
AcDbLine
 10
155.4992239740256
 20
241.0538465584019
 30
0.0
 11
155.4992239740256
 21
253.8538465584021
 31
0.0
  0
LINE
  5
31834C67
330
318324AF
100
AcDbEntity
  8
JISSEN
100
AcDbLine
 10
154.8992239740258
 20
240.453846558402
 30
0.0
 11
154.8992239740258
 21
254.453846558402
 31
0.0
  0
LINE
  5
31834C68
330
318324AF
100
AcDbEntity
  8
JISSEN
100
AcDbLine
 10
152.3992239740258
 20
252.4923651615862
 30
0.0
 11
152.3992239740258
 21
239.9538465584023
 31
0.0
  0
ARC
  5
31834C69
330
318324AF
100
AcDbEntity
  8
JISSEN
100
AcDbCircle
 10
145.6492239740257
 20
260.1538465584018
 30
0.0
 40
1.0
100
AcDbArc
 50
119.9999999999697
 51
180.0
  0
LINE
  5
31834C6A
330
318324AF
100
AcDbEntity
  8
JISSEN
100
AcDbLine
 10
144.6492239740257
 20
260.1538465584015
 30
0.0
 11
144.6492239740257
 21
250.153846558402
 31
0.0
  0
ARC
  5
31834C6B
330
318324AF
100
AcDbEntity
  8
JISSEN
100
AcDbCircle
 10
145.6492239740257
 20
248.6538465584023
 30
0.0
 40
1.0
100
AcDbArc
 50
180.0
 51
244.8493365874734
  0
LINE
  5
31834C6C
330
318324AF
100
AcDbEntity
  8
JISSEN
100
AcDbLine
 10
144.6492239740257
 20
250.153846558402
 30
0.0
 11
144.6492239740257
 21
248.653846558402
 31
0.0
  0
ARC
  5
31834C6D
330
318324AF
100
AcDbEntity
  8
JISSEN
100
AcDbCircle
 10
144.6492239740257
 20
261.8858973659731
 30
0.0
 40
1.0
100
AcDbArc
 50
299.9999999999698
 51
0.0
  0
ARC
  5
31834C6E
330
318324AF
100
AcDbEntity
  8
JISSEN
100
AcDbCircle
 10
144.7992239740254
 20
246.8434598593782
 30
0.0
 40
1.0
100
AcDbArc
 50
0.0
 51
64.84933658747353
  0
LINE
  5
31834C6F
330
318324AF
100
AcDbEntity
  8
JISSEN
100
AcDbLine
 10
144.6492239740257
 20
250.153846558402
 30
0.0
 11
152.3992239740258
 21
250.153846558402
 31
0.0
  0
LINE
  5
31834C70
330
318324AF
100
AcDbEntity
  8
JISSEN
100
AcDbLine
 10
145.6492239740257
 20
275.0754194336558
 30
0.0
 11
145.6492239740257
 21
261.8858973659729
 31
0.0
  0
ARC
  5
31834C71
330
318324AF
100
AcDbEntity
  8
JISSEN
100
AcDbCircle
 10
158.3992239740258
 20
265.453846558402
 30
0.0
 40
12.0
100
AcDbArc
 50
130.3202150699606
 51
180.0
  0
LINE
  5
31834C72
330
318324AF
100
AcDbEntity
  8
JISSEN
100
AcDbLine
 10
154.3992239740258
 20
237.9538465584023
 30
0.0
 11
158.3992239740258
 21
237.9538465584023
 31
0.0
  0
CIRCLE
  5
31834C73
330
318324AF
100
AcDbEntity
  8
JISSEN
100
AcDbCircle
 10
158.3992239740258
 20
265.4538465584018
 30
0.0
 40
9.5
  0
INSERT
  5
31834C74
330
318324AF
100
AcDbEntity
  8
JISSEN
100
AcDbBlockReference
  2
*X5
 10
-73.50272733194969
 20
440.7561731731463
 30
0.0
 50
270.0
  0
LINE
  5
31834C75
330
318324AF
100
AcDbEntity
  8
JISSEN
100
AcDbLine
 10
154.8992239740258
 20
276.453846558402
 30
0.0
 11
158.3992239740258
 21
276.453846558402
 31
0.0
  0
LINE
  5
31834C76
330
318324AF
100
AcDbEntity
  8
JISSEN
100
AcDbLine
 10
155.4992239740256
 20
277.0538465584019
 30
0.0
 11
158.3992239740258
 21
277.0538465584019
 31
0.0
  0
LINE
  5
31834C77
330
318324AF
100
AcDbEntity
  8
JISSEN
100
AcDbLine
 10
154.8992239740258
 20
290.4538465584015
 30
0.0
 11
158.3992239740258
 21
290.4538465584015
 31
0.0
  0
LINE
  5
31834C78
330
318324AF
100
AcDbEntity
  8
JISSEN
100
AcDbLine
 10
155.4992239740256
 20
289.8538465584016
 30
0.0
 11
158.3992239740258
 21
289.8538465584016
 31
0.0
  0
LINE
  5
31834C79
330
318324AF
100
AcDbEntity
  8
JISSEN
100
AcDbLine
 10
155.7370404232937
 20
268.8054397141051
 30
0.0
 11
157.0270404232936
 21
268.8054397141051
 31
0.0
  0
LINE
  5
31834C7A
330
318324AF
100
AcDbEntity
  8
JISSEN
100
AcDbLine
 10
155.7370404232937
 20
268.3354397141054
 30
0.0
 11
156.9523453013424
 21
268.3354397141054
 31
0.0
  0
LINE
  5
31834C7B
330
318324AF
100
AcDbEntity
  8
JISSEN
100
AcDbLine
 10
156.9523453013424
 20
268.3354397141054
 30
0.0
 11
155.3870404232936
 21
267.0454397141053
 31
0.0
  0
CIRCLE
  5
31834C7C
330
318324AF
100
AcDbEntity
  8
JISSEN
100
AcDbCircle
 10
156.3809584232934
 20
270.794300214105
 30
0.0
 40
0.6439234999999999
  0
LWPOLYLINE
  5
31834C7D
330
318324AF
100
AcDbEntity
  8
JISSEN
100
AcDbPolyline
 90
       16
 70
     1
 43
0.0
 10
156.3809584232934
 20
269.2430299641052
 42
0.1443238288432184
 10
156.7359653389438
 20
269.3476817084193
 42
0.1071767194116677
 10
157.084638918572
 20
269.6973865008773
 42
0.077822320363764
 10
157.3188876158595
 20
270.2289840123977
 42
0.079585750962787
 10
157.3761129232932
 20
270.7943002141052
 42
0.0650214376055212
 10
157.2952926402475
 20
271.413162200549
 42
0.0778223203637648
 10
157.084638918572
 20
271.8912139273331
 42
0.1071767194116687
 10
156.7359653389438
 20
272.2409187197905
 42
0.144323828843219
 10
156.3809584232934
 20
272.3455704641048
 42
0.1443238288432179
 10
156.0259515076435
 20
272.2409187197905
 42
0.1071767194116682
 10
155.6772779280152
 20
271.8912139273331
 42
0.0778223203637647
 10
155.4666242063397
 20
271.413162200549
 42
0.0650214376055213
 10
155.3858039232935
 20
270.7943002141052
 42
0.0650214376055212
 10
155.4666242063397
 20
270.1754382276618
 42
0.0778223203637645
 10
155.6772779280152
 20
269.6973865008773
 42
0.1071767194116684
 10
156.0259515076435
 20
269.3476817084193
 42
0.1443238288432191
  0
LINE
  5
31834C7E
330
318324AF
100
AcDbEntity
  8
JISSEN
100
AcDbLine
 10
155.4992239740256
 20
253.8538465584021
 30
0.0
 11
158.3992239740258
 21
253.8538465584021
 31
0.0
  0
LINE
  5
31834C7F
330
318324AF
100
AcDbEntity
  8
JISSEN
100
AcDbLine
 10
155.4992239740256
 20
241.0538465584019
 30
0.0
 11
158.3992239740258
 21
241.0538465584019
 31
0.0
  0
LINE
  5
31834C80
330
318324AF
100
AcDbEntity
  8
JISSEN
100
AcDbLine
 10
154.8992239740258
 20
240.453846558402
 30
0.0
 11
158.3992239740258
 21
240.453846558402
 31
0.0
  0
LINE
  5
31834C81
330
318324AF
100
AcDbEntity
  8
JISSEN
100
AcDbLine
 10
154.8992239740258
 20
254.453846558402
 30
0.0
 11
158.3992239740258
 21
254.453846558402
 31
0.0
  0
LINE
  5
31834C82
330
318324AF
100
AcDbEntity
  8
JISSEN
100
AcDbLine
 10
155.9120404232937
 20
260.1743421531297
 30
0.0
 11
155.7370404232937
 21
260.0804397141052
 31
0.0
  0
LINE
  5
31834C83
330
318324AF
100
AcDbEntity
  8
JISSEN
100
AcDbLine
 10
155.7370404232937
 20
259.1454397141052
 30
0.0
 11
157.3770404232935
 21
260.0254397141053
 31
0.0
  0
LINE
  5
31834C84
330
318324AF
100
AcDbEntity
  8
JISSEN
100
AcDbLine
 10
155.7370404232937
 20
261.8354397141053
 30
0.0
 11
157.0270404232936
 21
261.1904397141048
 31
0.0
  0
LINE
  5
31834C85
330
318324AF
100
AcDbEntity
  8
JISSEN
100
AcDbLine
 10
155.7370404232937
 20
261.3104397141047
 30
0.0
 11
155.9120404232937
 21
261.2229397141051
 31
0.0
  0
LINE
  5
31834C86
330
318324AF
100
AcDbEntity
  8
JISSEN
100
AcDbLine
 10
157.0248819232937
 20
265.057527214105
 30
0.0
 11
155.7370349232936
 21
265.057527214105
 31
0.0
  0
ARC
  5
31834C87
330
318324AF
100
AcDbEntity
  8
JISSEN
100
AcDbCircle
 10
156.3809584232934
 20
263.7696802141048
 30
0.0
 40
0.6439234999999997
100
AcDbArc
 50
180.0
 51
0.0
  0
LINE
  5
31834C88
330
318324AF
100
AcDbEntity
  8
JISSEN
100
AcDbLine
 10
157.0248819232937
 20
264.3550652141053
 30
0.0
 11
155.7370349232936
 21
264.3550652141053
 31
0.0
  0
LINE
  5
31834C89
330
318324AF
100
AcDbEntity
  8
JISSEN
100
AcDbLine
 10
157.0270404232936
 20
265.9954397141051
 30
0.0
 11
155.3870404232936
 21
265.9954397141051
 31
0.0
  0
ARC
  5
31834C8A
330
318324AF
100
AcDbEntity
  8
JISSEN
100
AcDbCircle
 10
156.3809584232934
 20
263.184295214105
 30
0.0
 40
0.995154500000005
100
AcDbArc
 50
180.0
 51
0.0
  0
LINE
  5
31834C8B
330
318324AF
100
AcDbEntity
  8
JISSEN
100
AcDbLine
 10
154.3992239740258
 20
292.9538465584022
 30
0.0
 11
158.3992239740258
 21
292.9538465584022
 31
0.0
  0
INSERT
  5
31834C91
330
318324AF
100
AcDbEntity
  8
SAISEN
100
AcDbBlockReference
  2
A$C6D2828F9
 10
152.4091322758172
 20
591.3557402024073
 30
0.0
 41
0.75
 42
0.75
 43
0.75
  0
LINE
  5
31834C99
330
318324AF
100
AcDbEntity
  8
JISSEN
100
AcDbLine
 10
235.9086909548876
 20
330.1241803143175
 30
0.0
 11
235.9086909548876
 21
316.1835128024877
 31
0.0
  0
LINE
  5
31834C9A
330
318324AF
100
AcDbEntity
  8
JISSEN
100
AcDbLine
 10
230.9095712346489
 20
330.1241803143176
 30
0.0
 11
230.9095712346486
 21
316.1835128024877
 31
0.0
  0
LINE
  5
31834C9B
330
318324AF
100
AcDbEntity
  8
JISSEN
100
AcDbLine
 10
234.909131094766
 20
316.1538465584026
 30
0.0
 11
231.9091310947683
 21
316.1538465584026
 31
0.0
  0
LINE
  5
31834C9C
330
318324AF
100
AcDbEntity
  8
JISSEN
100
AcDbLine
 10
231.9091310947681
 20
316.1538465584026
 30
0.0
 11
227.4091310947681
 21
316.2874034404958
 31
0.0
  0
LINE
  5
31834C9D
330
318324AF
100
AcDbEntity
  8
JISSEN
100
AcDbLine
 10
230.9095712346486
 20
317.1835128024877
 30
0.0
 11
227.4091310947681
 21
317.2874034404957
 31
0.0
  0
LINE
  5
31834C9E
330
318324AF
100
AcDbEntity
  8
JISSEN
100
AcDbLine
 10
231.9091310947681
 20
316.1538465584026
 30
0.0
 11
230.9095712346486
 21
317.1835128024877
 31
0.0
  0
LINE
  5
31834C9F
330
318324AF
100
AcDbEntity
  8
JISSEN
100
AcDbLine
 10
235.9086909548876
 20
317.1835128024877
 30
0.0
 11
239.4091310947682
 21
317.2874034404957
 31
0.0
  0
LINE
  5
31834CA0
330
318324AF
100
AcDbEntity
  8
JISSEN
100
AcDbLine
 10
234.9091310947682
 20
316.1538465584026
 30
0.0
 11
239.4091310947682
 21
316.2874034404958
 31
0.0
  0
LINE
  5
31834CA1
330
318324AF
100
AcDbEntity
  8
JISSEN
100
AcDbLine
 10
234.9091310947682
 20
316.1538465584026
 30
0.0
 11
235.9086909548876
 21
317.1835128024877
 31
0.0
  0
LINE
  5
31834CA2
330
318324AF
100
AcDbEntity
  8
JISSEN
100
AcDbLine
 10
234.9091310947682
 20
330.1538465584028
 30
0.0
 11
235.9086909548876
 21
329.1241803143177
 31
0.0
  0
LINE
  5
31834CA3
330
318324AF
100
AcDbEntity
  8
JISSEN
100
AcDbLine
 10
234.9091310947682
 20
330.1538465584028
 30
0.0
 11
239.4091310947682
 21
330.0202896763096
 31
0.0
  0
LINE
  5
31834CA4
330
318324AF
100
AcDbEntity
  8
JISSEN
100
AcDbLine
 10
235.9086909548876
 20
329.1241803143177
 30
0.0
 11
239.4091310947682
 21
329.0202896763097
 31
0.0
  0
LINE
  5
31834CA5
330
318324AF
100
AcDbEntity
  8
JISSEN
100
AcDbLine
 10
231.9091310947681
 20
330.1538465584028
 30
0.0
 11
230.9095712346486
 21
329.1241803143177
 31
0.0
  0
LINE
  5
31834CA6
330
318324AF
100
AcDbEntity
  8
JISSEN
100
AcDbLine
 10
230.9095712346486
 20
329.1241803143177
 30
0.0
 11
227.4091310947681
 21
329.0202896763097
 31
0.0
  0
LINE
  5
31834CA7
330
318324AF
100
AcDbEntity
  8
JISSEN
100
AcDbLine
 10
231.9091310947681
 20
330.1538465584028
 30
0.0
 11
227.4091310947681
 21
330.0202896763096
 31
0.0
  0
LINE
  5
31834CA8
330
318324AF
100
AcDbEntity
  8
JISSEN
100
AcDbLine
 10
234.909131094766
 20
330.1538465584028
 30
0.0
 11
231.9091310947683
 21
330.1538465584028
 31
0.0
  0
LINE
  5
31834CA9
330
318324AF
100
AcDbEntity
  8
JISSEN
100
AcDbLine
 10
187.9091310947661
 20
330.1538465584028
 30
0.0
 11
184.9091310947684
 21
330.1538465584028
 31
0.0
  0
LINE
  5
31834CAA
330
318324AF
100
AcDbEntity
  8
JISSEN
100
AcDbLine
 10
184.9091310947682
 20
330.1538465584028
 30
0.0
 11
180.4091310947682
 21
330.0202896763096
 31
0.0
  0
LINE
  5
31834CAB
330
318324AF
100
AcDbEntity
  8
JISSEN
100
AcDbLine
 10
183.9095712346487
 20
329.1241803143177
 30
0.0
 11
180.4091310947682
 21
329.0202896763097
 31
0.0
  0
LINE
  5
31834CAC
330
318324AF
100
AcDbEntity
  8
JISSEN
100
AcDbLine
 10
184.9091310947682
 20
330.1538465584028
 30
0.0
 11
183.9095712346487
 21
329.1241803143177
 31
0.0
  0
LINE
  5
31834CAD
330
318324AF
100
AcDbEntity
  8
JISSEN
100
AcDbLine
 10
188.9086909548876
 20
329.1241803143177
 30
0.0
 11
192.409131094768
 21
329.0202896763097
 31
0.0
  0
LINE
  5
31834CAE
330
318324AF
100
AcDbEntity
  8
JISSEN
100
AcDbLine
 10
187.909131094768
 20
330.1538465584028
 30
0.0
 11
192.409131094768
 21
330.0202896763096
 31
0.0
  0
LINE
  5
31834CAF
330
318324AF
100
AcDbEntity
  8
JISSEN
100
AcDbLine
 10
187.909131094768
 20
330.1538465584028
 30
0.0
 11
188.9086909548874
 21
329.1241803143177
 31
0.0
  0
LINE
  5
31834CB0
330
318324AF
100
AcDbEntity
  8
JISSEN
100
AcDbLine
 10
187.909131094768
 20
316.1538465584026
 30
0.0
 11
188.9086909548874
 21
317.1835128024877
 31
0.0
  0
LINE
  5
31834CB1
330
318324AF
100
AcDbEntity
  8
JISSEN
100
AcDbLine
 10
187.909131094768
 20
316.1538465584026
 30
0.0
 11
192.409131094768
 21
316.2874034404958
 31
0.0
  0
LINE
  5
31834CB2
330
318324AF
100
AcDbEntity
  8
JISSEN
100
AcDbLine
 10
188.9086909548876
 20
317.1835128024877
 30
0.0
 11
192.409131094768
 21
317.2874034404957
 31
0.0
  0
LINE
  5
31834CB3
330
318324AF
100
AcDbEntity
  8
JISSEN
100
AcDbLine
 10
184.9091310947682
 20
316.1538465584026
 30
0.0
 11
183.9095712346487
 21
317.1835128024877
 31
0.0
  0
LINE
  5
31834CB4
330
318324AF
100
AcDbEntity
  8
JISSEN
100
AcDbLine
 10
183.9095712346487
 20
317.1835128024877
 30
0.0
 11
180.4091310947682
 21
317.2874034404957
 31
0.0
  0
LINE
  5
31834CB5
330
318324AF
100
AcDbEntity
  8
JISSEN
100
AcDbLine
 10
184.9091310947682
 20
316.1538465584026
 30
0.0
 11
180.4091310947682
 21
316.2874034404958
 31
0.0
  0
LINE
  5
31834CB6
330
318324AF
100
AcDbEntity
  8
JISSEN
100
AcDbLine
 10
187.9091310947661
 20
316.1538465584026
 30
0.0
 11
184.9091310947684
 21
316.1538465584026
 31
0.0
  0
LINE
  5
31834CB7
330
318324AF
100
AcDbEntity
  8
JISSEN
100
AcDbLine
 10
183.9095712346487
 20
330.1241803143176
 30
0.0
 11
183.9095712346487
 21
316.1835128024877
 31
0.0
  0
LINE
  5
31834CB8
330
318324AF
100
AcDbEntity
  8
JISSEN
100
AcDbLine
 10
188.9086909548874
 20
330.1241803143175
 30
0.0
 11
188.9086909548874
 21
316.1835128024877
 31
0.0
  0
LINE
  5
31834CB9
330
318324AF
100
AcDbEntity
  8
JISSEN
100
AcDbLine
 10
253.0364628698287
 20
350.7534064185221
 30
0.0
 11
266.9771303816584
 21
350.7534064185221
 31
0.0
  0
LINE
  5
31834CBA
330
318324AF
100
AcDbEntity
  8
JISSEN
100
AcDbLine
 10
253.0364628698284
 20
345.7542866982833
 30
0.0
 11
266.9771303816584
 21
345.7542866982832
 31
0.0
  0
LINE
  5
31834CBB
330
318324AF
100
AcDbEntity
  8
JISSEN
100
AcDbLine
 10
267.0067966257434
 20
349.7538465584006
 30
0.0
 11
267.0067966257434
 21
346.7538465584028
 31
0.0
  0
LINE
  5
31834CBC
330
318324AF
100
AcDbEntity
  8
JISSEN
100
AcDbLine
 10
267.0067966257434
 20
346.7538465584026
 30
0.0
 11
266.9177587043481
 21
343.7538465584026
 31
0.0
  0
LINE
  5
31834CBD
330
318324AF
100
AcDbEntity
  8
JISSEN
100
AcDbLine
 10
265.9771303816583
 20
345.7542866982831
 30
0.0
 11
265.9177587043479
 21
343.7538465584026
 31
0.0
  0
LINE
  5
31834CBE
330
318324AF
100
AcDbEntity
  8
JISSEN
100
AcDbLine
 10
267.0067966257434
 20
346.7538465584026
 30
0.0
 11
265.9771303816583
 21
345.7542866982832
 31
0.0
  0
LINE
  5
31834CBF
330
318324AF
100
AcDbEntity
  8
JISSEN
100
AcDbLine
 10
265.9771303816583
 20
350.7534064185221
 30
0.0
 11
265.9177587043479
 21
352.7538465584024
 31
0.0
  0
LINE
  5
31834CC0
330
318324AF
100
AcDbEntity
  8
JISSEN
100
AcDbLine
 10
267.0067966257434
 20
349.7538465584026
 30
0.0
 11
266.9177587043481
 21
352.7538465584025
 31
0.0
  0
LINE
  5
31834CC1
330
318324AF
100
AcDbEntity
  8
JISSEN
100
AcDbLine
 10
267.0067966257434
 20
349.7538465584026
 30
0.0
 11
265.9771303816583
 21
350.7534064185221
 31
0.0
  0
LINE
  5
31834CC2
330
318324AF
100
AcDbEntity
  8
JISSEN
100
AcDbLine
 10
253.0067966257433
 20
349.7538465584026
 30
0.0
 11
254.0364628698284
 21
350.7534064185221
 31
0.0
  0
LINE
  5
31834CC3
330
318324AF
100
AcDbEntity
  8
JISSEN
100
AcDbLine
 10
253.0067966257433
 20
349.7538465584026
 30
0.0
 11
253.0958345471389
 21
352.7538465584025
 31
0.0
  0
LINE
  5
31834CC4
330
318324AF
100
AcDbEntity
  8
JISSEN
100
AcDbLine
 10
254.0364628698284
 20
350.7534064185221
 30
0.0
 11
254.0958345471386
 21
352.7538465584025
 31
0.0
  0
LINE
  5
31834CC5
330
318324AF
100
AcDbEntity
  8
JISSEN
100
AcDbLine
 10
253.0067966257433
 20
346.7538465584026
 30
0.0
 11
254.0364628698284
 21
345.7542866982832
 31
0.0
  0
LINE
  5
31834CC6
330
318324AF
100
AcDbEntity
  8
JISSEN
100
AcDbLine
 10
254.0364628698284
 20
345.7542866982831
 30
0.0
 11
254.0958345471386
 21
343.7538465584026
 31
0.0
  0
LINE
  5
31834CC7
330
318324AF
100
AcDbEntity
  8
JISSEN
100
AcDbLine
 10
253.0067966257433
 20
346.7538465584026
 30
0.0
 11
253.0958345471389
 21
343.7538465584026
 31
0.0
  0
LINE
  5
31834CC8
330
318324AF
100
AcDbEntity
  8
JISSEN
100
AcDbLine
 10
253.0067966257433
 20
349.7538465584006
 30
0.0
 11
253.0067966257433
 21
346.7538465584028
 31
0.0
  0
LINE
  5
31834CC9
330
318324AF
100
AcDbEntity
  8
JISSEN
100
AcDbLine
 10
253.0067966257433
 20
400.7538465584005
 30
0.0
 11
253.0067966257433
 21
397.7538465584027
 31
0.0
  0
LINE
  5
31834CCA
330
318324AF
100
AcDbEntity
  8
JISSEN
100
AcDbLine
 10
254.0364628698284
 20
396.754286698283
 30
0.0
 11
254.0958345471386
 21
394.7538465584024
 31
0.0
  0
LINE
  5
31834CCB
330
318324AF
100
AcDbEntity
  8
JISSEN
100
AcDbLine
 10
253.0067966257433
 20
397.7538465584025
 30
0.0
 11
254.0364628698284
 21
396.7542866982831
 31
0.0
  0
LINE
  5
31834CCC
330
318324AF
100
AcDbEntity
  8
JISSEN
100
AcDbLine
 10
254.0364628698284
 20
401.7534064185221
 30
0.0
 11
254.0958345471386
 21
403.7538465584026
 31
0.0
  0
LINE
  5
31834CCD
330
318324AF
100
AcDbEntity
  8
JISSEN
100
AcDbLine
 10
253.0067966257433
 20
400.7538465584024
 30
0.0
 11
253.0958345471389
 21
403.7538465584026
 31
0.0
  0
LINE
  5
31834CCE
330
318324AF
100
AcDbEntity
  8
JISSEN
100
AcDbLine
 10
253.0067966257433
 20
400.7538465584024
 30
0.0
 11
254.0364628698284
 21
401.7534064185219
 31
0.0
  0
LINE
  5
31834CCF
330
318324AF
100
AcDbEntity
  8
JISSEN
100
AcDbLine
 10
267.0067966257434
 20
400.7538465584024
 30
0.0
 11
265.9771303816583
 21
401.7534064185219
 31
0.0
  0
LINE
  5
31834CD0
330
318324AF
100
AcDbEntity
  8
JISSEN
100
AcDbLine
 10
267.0067966257434
 20
400.7538465584024
 30
0.0
 11
266.9177587043481
 21
403.7538465584026
 31
0.0
  0
LINE
  5
31834CD1
330
318324AF
100
AcDbEntity
  8
JISSEN
100
AcDbLine
 10
265.9771303816583
 20
401.7534064185221
 30
0.0
 11
265.9177587043479
 21
403.7538465584026
 31
0.0
  0
LINE
  5
31834CD2
330
318324AF
100
AcDbEntity
  8
JISSEN
100
AcDbLine
 10
267.0067966257434
 20
397.7538465584025
 30
0.0
 11
265.9771303816583
 21
396.7542866982831
 31
0.0
  0
LINE
  5
31834CD3
330
318324AF
100
AcDbEntity
  8
JISSEN
100
AcDbLine
 10
265.9771303816583
 20
396.754286698283
 30
0.0
 11
265.9177587043479
 21
394.7538465584024
 31
0.0
  0
LINE
  5
31834CD4
330
318324AF
100
AcDbEntity
  8
JISSEN
100
AcDbLine
 10
267.0067966257434
 20
400.7538465584005
 30
0.0
 11
267.0067966257434
 21
397.7538465584027
 31
0.0
  0
LINE
  5
31834CD5
330
318324AF
100
AcDbEntity
  8
JISSEN
100
AcDbLine
 10
253.0364628698284
 20
396.7542866982832
 30
0.0
 11
266.9771303816584
 21
396.7542866982831
 31
0.0
  0
LINE
  5
31834CD6
330
318324AF
100
AcDbEntity
  8
JISSEN
100
AcDbLine
 10
253.0364628698287
 20
401.7534064185219
 30
0.0
 11
266.9771303816584
 21
401.7534064185219
 31
0.0
  0
LINE
  5
31834CD7
330
318324AF
100
AcDbEntity
  8
JISSEN
100
AcDbLine
 10
253.0364628698287
 20
460.753406418522
 30
0.0
 11
266.9771303816584
 21
460.753406418522
 31
0.0
  0
LINE
  5
31834CD8
330
318324AF
100
AcDbEntity
  8
JISSEN
100
AcDbLine
 10
253.0364628698284
 20
454.7542866982833
 30
0.0
 11
266.9771303816584
 21
454.7542866982833
 31
0.0
  0
LINE
  5
31834CD9
330
318324AF
100
AcDbEntity
  8
JISSEN
100
AcDbLine
 10
267.0067966257434
 20
459.7538465584007
 30
0.0
 11
267.0067966257434
 21
455.7538465584026
 31
0.0
  0
LINE
  5
31834CDA
330
318324AF
100
AcDbEntity
  8
JISSEN
100
AcDbLine
 10
267.0067966257434
 20
455.7538465584026
 30
0.0
 11
266.9177587043481
 21
452.7538465584025
 31
0.0
  0
LINE
  5
31834CDB
330
318324AF
100
AcDbEntity
  8
JISSEN
100
AcDbLine
 10
265.9771303816583
 20
454.7542866982831
 30
0.0
 11
265.9177587043479
 21
452.7538465584025
 31
0.0
  0
LINE
  5
31834CDC
330
318324AF
100
AcDbEntity
  8
JISSEN
100
AcDbLine
 10
267.0067966257434
 20
455.7538465584026
 30
0.0
 11
265.9771303816583
 21
454.7542866982833
 31
0.0
  0
LINE
  5
31834CDD
330
318324AF
100
AcDbEntity
  8
JISSEN
100
AcDbLine
 10
265.9771303816583
 20
460.7534064185221
 30
0.0
 11
265.9177587043479
 21
462.7538465584026
 31
0.0
  0
LINE
  5
31834CDE
330
318324AF
100
AcDbEntity
  8
JISSEN
100
AcDbLine
 10
267.0067966257434
 20
459.7538465584026
 30
0.0
 11
266.9177587043481
 21
462.7538465584026
 31
0.0
  0
LINE
  5
31834CDF
330
318324AF
100
AcDbEntity
  8
JISSEN
100
AcDbLine
 10
267.0067966257434
 20
459.7538465584026
 30
0.0
 11
265.9771303816583
 21
460.753406418522
 31
0.0
  0
LINE
  5
31834CE0
330
318324AF
100
AcDbEntity
  8
JISSEN
100
AcDbLine
 10
253.0067966257433
 20
459.7538465584026
 30
0.0
 11
254.0364628698284
 21
460.753406418522
 31
0.0
  0
LINE
  5
31834CE1
330
318324AF
100
AcDbEntity
  8
JISSEN
100
AcDbLine
 10
253.0067966257433
 20
459.7538465584026
 30
0.0
 11
253.0958345471389
 21
462.7538465584026
 31
0.0
  0
LINE
  5
31834CE2
330
318324AF
100
AcDbEntity
  8
JISSEN
100
AcDbLine
 10
254.0364628698284
 20
460.7534064185221
 30
0.0
 11
254.0958345471386
 21
462.7538465584026
 31
0.0
  0
LINE
  5
31834CE3
330
318324AF
100
AcDbEntity
  8
JISSEN
100
AcDbLine
 10
253.0067966257433
 20
455.7538465584026
 30
0.0
 11
254.0364628698284
 21
454.7542866982833
 31
0.0
  0
LINE
  5
31834CE4
330
318324AF
100
AcDbEntity
  8
JISSEN
100
AcDbLine
 10
254.0364628698284
 20
454.7542866982831
 30
0.0
 11
254.0958345471386
 21
452.7538465584025
 31
0.0
  0
LINE
  5
31834CE5
330
318324AF
100
AcDbEntity
  8
JISSEN
100
AcDbLine
 10
253.0067966257433
 20
455.7538465584026
 30
0.0
 11
253.0958345471389
 21
452.7538465584025
 31
0.0
  0
LINE
  5
31834CE6
330
318324AF
100
AcDbEntity
  8
JISSEN
100
AcDbLine
 10
253.0067966257433
 20
459.7538465584007
 30
0.0
 11
253.0067966257433
 21
455.7538465584033
 31
0.0
  0
LINE
  5
31834CE7
330
318324AF
100
AcDbEntity
  8
JISSEN
100
AcDbLine
 10
234.9091310947658
 20
490.3538465584026
 30
0.0
 11
231.9091310947679
 21
490.3538465584026
 31
0.0
  0
LINE
  5
31834CE8
330
318324AF
100
AcDbEntity
  8
JISSEN
100
AcDbLine
 10
231.9091310947678
 20
490.3538465584026
 30
0.0
 11
227.4091310947677
 21
490.2202896763096
 31
0.0
  0
LINE
  5
31834CE9
330
318324AF
100
AcDbEntity
  8
JISSEN
100
AcDbLine
 10
230.9095712346482
 20
489.3241803143176
 30
0.0
 11
227.4091310947677
 21
489.2202896763097
 31
0.0
  0
LINE
  5
31834CEA
330
318324AF
100
AcDbEntity
  8
JISSEN
100
AcDbLine
 10
231.9091310947678
 20
490.3538465584026
 30
0.0
 11
230.9095712346482
 21
489.3241803143176
 31
0.0
  0
LINE
  5
31834CEB
330
318324AF
100
AcDbEntity
  8
JISSEN
100
AcDbLine
 10
235.9086909548873
 20
489.3241803143176
 30
0.0
 11
239.4091310947678
 21
489.2202896763097
 31
0.0
  0
LINE
  5
31834CEC
330
318324AF
100
AcDbEntity
  8
JISSEN
100
AcDbLine
 10
234.9091310947678
 20
490.3538465584026
 30
0.0
 11
239.4091310947678
 21
490.2202896763096
 31
0.0
  0
LINE
  5
31834CED
330
318324AF
100
AcDbEntity
  8
JISSEN
100
AcDbLine
 10
234.9091310947678
 20
490.3538465584026
 30
0.0
 11
235.9086909548872
 21
489.3241803143176
 31
0.0
  0
LINE
  5
31834CEE
330
318324AF
100
AcDbEntity
  8
JISSEN
100
AcDbLine
 10
234.9091310947678
 20
476.3538465584026
 30
0.0
 11
235.9086909548872
 21
477.3835128024877
 31
0.0
  0
LINE
  5
31834CEF
330
318324AF
100
AcDbEntity
  8
JISSEN
100
AcDbLine
 10
234.9091310947678
 20
476.3538465584026
 30
0.0
 11
239.4091310947678
 21
476.4874034404958
 31
0.0
  0
LINE
  5
31834CF0
330
318324AF
100
AcDbEntity
  8
JISSEN
100
AcDbLine
 10
235.9086909548873
 20
477.3835128024877
 30
0.0
 11
239.4091310947678
 21
477.4874034404956
 31
0.0
  0
LINE
  5
31834CF1
330
318324AF
100
AcDbEntity
  8
JISSEN
100
AcDbLine
 10
231.9091310947678
 20
476.3538465584026
 30
0.0
 11
230.9095712346482
 21
477.3835128024877
 31
0.0
  0
LINE
  5
31834CF2
330
318324AF
100
AcDbEntity
  8
JISSEN
100
AcDbLine
 10
230.9095712346482
 20
477.3835128024877
 30
0.0
 11
227.4091310947677
 21
477.4874034404956
 31
0.0
  0
LINE
  5
31834CF3
330
318324AF
100
AcDbEntity
  8
JISSEN
100
AcDbLine
 10
231.9091310947678
 20
476.3538465584026
 30
0.0
 11
227.4091310947677
 21
476.4874034404958
 31
0.0
  0
LINE
  5
31834CF4
330
318324AF
100
AcDbEntity
  8
JISSEN
100
AcDbLine
 10
234.9091310947658
 20
476.3538465584026
 30
0.0
 11
231.9091310947679
 21
476.3538465584026
 31
0.0
  0
LINE
  5
31834CF5
330
318324AF
100
AcDbEntity
  8
JISSEN
100
AcDbLine
 10
230.9095712346482
 20
490.3241803143176
 30
0.0
 11
230.9095712346482
 21
476.3835128024876
 31
0.0
  0
LINE
  5
31834CF6
330
318324AF
100
AcDbEntity
  8
JISSEN
100
AcDbLine
 10
235.9086909548872
 20
490.3241803143174
 30
0.0
 11
235.9086909548872
 21
476.3835128024876
 31
0.0
  0
LINE
  5
31834CF7
330
318324AF
100
AcDbEntity
  8
JISSEN
100
AcDbLine
 10
188.9086909548869
 20
490.3241803143174
 30
0.0
 11
188.9086909548869
 21
476.3835128024876
 31
0.0
  0
LINE
  5
31834CF8
330
318324AF
100
AcDbEntity
  8
JISSEN
100
AcDbLine
 10
183.9095712346484
 20
490.3241803143176
 30
0.0
 11
183.9095712346484
 21
476.3835128024876
 31
0.0
  0
LINE
  5
31834CF9
330
318324AF
100
AcDbEntity
  8
JISSEN
100
AcDbLine
 10
187.9091310947657
 20
476.3538465584026
 30
0.0
 11
184.9091310947678
 21
476.3538465584026
 31
0.0
  0
LINE
  5
31834CFA
330
318324AF
100
AcDbEntity
  8
JISSEN
100
AcDbLine
 10
184.9091310947677
 20
476.3538465584026
 30
0.0
 11
180.4091310947677
 21
476.4874034404958
 31
0.0
  0
LINE
  5
31834CFB
330
318324AF
100
AcDbEntity
  8
JISSEN
100
AcDbLine
 10
183.9095712346481
 20
477.3835128024877
 30
0.0
 11
180.4091310947677
 21
477.4874034404956
 31
0.0
  0
LINE
  5
31834CFC
330
318324AF
100
AcDbEntity
  8
JISSEN
100
AcDbLine
 10
184.9091310947677
 20
476.3538465584026
 30
0.0
 11
183.9095712346484
 21
477.3835128024877
 31
0.0
  0
LINE
  5
31834CFD
330
318324AF
100
AcDbEntity
  8
JISSEN
100
AcDbLine
 10
188.9086909548872
 20
477.3835128024877
 30
0.0
 11
192.4091310947677
 21
477.4874034404956
 31
0.0
  0
LINE
  5
31834CFE
330
318324AF
100
AcDbEntity
  8
JISSEN
100
AcDbLine
 10
187.9091310947677
 20
476.3538465584026
 30
0.0
 11
192.4091310947677
 21
476.4874034404958
 31
0.0
  0
LINE
  5
31834CFF
330
318324AF
100
AcDbEntity
  8
JISSEN
100
AcDbLine
 10
187.9091310947677
 20
476.3538465584026
 30
0.0
 11
188.9086909548869
 21
477.3835128024877
 31
0.0
  0
LINE
  5
31834D00
330
318324AF
100
AcDbEntity
  8
JISSEN
100
AcDbLine
 10
187.9091310947677
 20
490.3538465584026
 30
0.0
 11
188.9086909548869
 21
489.3241803143176
 31
0.0
  0
LINE
  5
31834D01
330
318324AF
100
AcDbEntity
  8
JISSEN
100
AcDbLine
 10
187.9091310947677
 20
490.3538465584026
 30
0.0
 11
192.4091310947677
 21
490.2202896763096
 31
0.0
  0
LINE
  5
31834D02
330
318324AF
100
AcDbEntity
  8
JISSEN
100
AcDbLine
 10
188.9086909548872
 20
489.3241803143176
 30
0.0
 11
192.4091310947677
 21
489.2202896763097
 31
0.0
  0
LINE
  5
31834D03
330
318324AF
100
AcDbEntity
  8
JISSEN
100
AcDbLine
 10
184.9091310947677
 20
490.3538465584026
 30
0.0
 11
183.9095712346484
 21
489.3241803143176
 31
0.0
  0
LINE
  5
31834D04
330
318324AF
100
AcDbEntity
  8
JISSEN
100
AcDbLine
 10
183.9095712346481
 20
489.3241803143176
 30
0.0
 11
180.4091310947677
 21
489.2202896763097
 31
0.0
  0
LINE
  5
31834D05
330
318324AF
100
AcDbEntity
  8
JISSEN
100
AcDbLine
 10
184.9091310947677
 20
490.3538465584026
 30
0.0
 11
180.4091310947677
 21
490.2202896763096
 31
0.0
  0
LINE
  5
31834D16
330
318324AF
100
AcDbEntity
  8
JISSEN
100
AcDbLine
 10
149.9091310947652
 20
297.6538465584021
 30
0.0
 11
149.9091310947652
 21
295.6538465584021
 31
0.0
  0
LINE
  5
31834D17
330
318324AF
100
AcDbEntity
  8
JISSEN
100
AcDbLine
 10
166.9091310947659
 20
297.6538465584021
 30
0.0
 11
166.9091310947659
 21
295.6538465584021
 31
0.0
  0
LINE
  5
31834D18
330
318324AF
100
AcDbEntity
  8
JISSEN
100
AcDbLine
 10
149.9091310947652
 20
297.6538465584021
 30
0.0
 11
150.0723672839902
 21
303.1538465584027
 31
0.0
  0
LINE
  5
31834D19
330
318324AF
100
AcDbEntity
  8
JISSEN
100
AcDbLine
 10
150.9387973388502
 20
298.6534064185216
 30
0.0
 11
151.0723672839902
 21
303.1538465584026
 31
0.0
  0
LINE
  5
31834D1A
330
318324AF
100
AcDbEntity
  8
JISSEN
100
AcDbLine
 10
149.9091310947652
 20
297.6538465584021
 30
0.0
 11
150.9387973388502
 21
298.6534064185215
 31
0.0
  0
LINE
  5
31834D1B
330
318324AF
100
AcDbEntity
  8
JISSEN
100
AcDbLine
 10
149.9387973388502
 20
298.6534064185216
 30
0.0
 11
166.8794648506802
 21
298.6534064185215
 31
0.0
  0
LINE
  5
31834D1C
330
318324AF
100
AcDbEntity
  8
JISSEN
100
AcDbLine
 10
165.8794648506808
 20
298.6534064185216
 30
0.0
 11
165.7458949055411
 21
303.1538465584026
 31
0.0
  0
LINE
  5
31834D1D
330
318324AF
100
AcDbEntity
  8
JISSEN
100
AcDbLine
 10
166.9091310947659
 20
297.6538465584021
 30
0.0
 11
166.7458949055409
 21
303.1538465584026
 31
0.0
  0
LINE
  5
31834D1E
330
318324AF
100
AcDbEntity
  8
JISSEN
100
AcDbLine
 10
166.9091310947659
 20
297.6538465584021
 30
0.0
 11
165.8794648506808
 21
298.6534064185215
 31
0.0
  0
LINE
  5
31834D1F
330
318324AF
100
AcDbEntity
  8
JISSEN
100
AcDbLine
 10
166.9091310947659
 20
295.6538465584021
 30
0.0
 11
165.8794648506808
 21
294.6542866982828
 31
0.0
  0
LINE
  5
31834D20
330
318324AF
100
AcDbEntity
  8
JISSEN
100
AcDbLine
 10
166.9091310947659
 20
295.6538465584021
 30
0.0
 11
166.7439527996302
 21
290.0884101955492
 31
0.0
  0
LINE
  5
31834D21
330
318324AF
100
AcDbEntity
  8
JISSEN
100
AcDbLine
 10
165.8794648506808
 20
294.6542866982827
 30
0.0
 11
165.7458949055411
 21
290.153846558402
 31
0.0
  0
LINE
  5
31834D22
330
318324AF
100
AcDbEntity
  8
JISSEN
100
AcDbLine
 10
149.9387973388502
 20
294.6542866982827
 30
0.0
 11
166.8794648506802
 21
294.6542866982828
 31
0.0
  0
LINE
  5
31834D23
330
318324AF
100
AcDbEntity
  8
JISSEN
100
AcDbLine
 10
149.9091310947652
 20
295.6538465584021
 30
0.0
 11
150.9387973388502
 21
294.6542866982828
 31
0.0
  0
LINE
  5
31834D24
330
318324AF
100
AcDbEntity
  8
JISSEN
100
AcDbLine
 10
150.9387973388502
 20
294.6542866982827
 30
0.0
 11
151.0723672839902
 21
290.153846558402
 31
0.0
  0
LINE
  5
31834D25
330
318324AF
100
AcDbEntity
  8
JISSEN
100
AcDbLine
 10
149.9091310947652
 20
295.6538465584021
 30
0.0
 11
150.074309389901
 21
290.0884101955501
 31
0.0
  0
LINE
  5
31834D26
330
318324AF
100
AcDbEntity
  8
JISSEN
100
AcDbLine
 10
149.9091310947654
 20
349.6538465584027
 30
0.0
 11
150.1020465911221
 21
343.1538465584026
 31
0.0
  0
LINE
  5
31834D27
330
318324AF
100
AcDbEntity
  8
JISSEN
100
AcDbLine
 10
150.9387973388505
 20
348.6542866982833
 30
0.0
 11
151.102046591122
 21
343.1538465584027
 31
0.0
  0
LINE
  5
31834D28
330
318324AF
100
AcDbEntity
  8
JISSEN
100
AcDbLine
 10
149.9091310947654
 20
349.6538465584027
 30
0.0
 11
150.9387973388505
 21
348.6542866982834
 31
0.0
  0
LINE
  5
31834D29
330
318324AF
100
AcDbEntity
  8
JISSEN
100
AcDbLine
 10
149.9387973388505
 20
348.6542866982833
 30
0.0
 11
166.8794648506806
 21
348.6542866982834
 31
0.0
  0
LINE
  5
31834D2A
330
318324AF
100
AcDbEntity
  8
JISSEN
100
AcDbLine
 10
165.8794648506809
 20
348.6542866982833
 30
0.0
 11
165.7162155984093
 21
343.1538465584027
 31
0.0
  0
LINE
  5
31834D2B
330
318324AF
100
AcDbEntity
  8
JISSEN
100
AcDbLine
 10
166.9091310947661
 20
349.6538465584027
 30
0.0
 11
166.7162155984093
 21
343.1538465584026
 31
0.0
  0
LINE
  5
31834D2C
330
318324AF
100
AcDbEntity
  8
JISSEN
100
AcDbLine
 10
166.9091310947661
 20
349.6538465584027
 30
0.0
 11
165.8794648506809
 21
348.6542866982834
 31
0.0
  0
LINE
  5
31834D2D
330
318324AF
100
AcDbEntity
  8
JISSEN
100
AcDbLine
 10
149.9091310947654
 20
372.3538465584148
 30
0.0
 11
149.9091310947654
 21
349.6538465584004
 31
0.0
  0
LINE
  5
31834D2E
330
318324AF
100
AcDbEntity
  8
JISSEN
100
AcDbLine
 10
149.9091310947651
 20
372.3538465584028
 30
0.0
 11
150.9387973388502
 21
373.3534064185222
 31
0.0
  0
LINE
  5
31834D2F
330
318324AF
100
AcDbEntity
  8
JISSEN
100
AcDbLine
 10
150.9387973388502
 20
373.3534064185222
 30
0.0
 11
151.1020465911217
 21
378.8538465584028
 31
0.0
  0
LINE
  5
31834D30
330
318324AF
100
AcDbEntity
  8
JISSEN
100
AcDbLine
 10
149.9091310947651
 20
372.3538465584028
 30
0.0
 11
150.1020465911219
 21
378.8538465584029
 31
0.0
  0
LINE
  5
31834D31
330
318324AF
100
AcDbEntity
  8
JISSEN
100
AcDbLine
 10
166.9091310947654
 20
349.6538465583843
 30
0.0
 11
166.9091310947654
 21
372.3538465584031
 31
0.0
  0
LINE
  5
31834D32
330
318324AF
100
AcDbEntity
  8
JISSEN
100
AcDbLine
 10
149.9387973388502
 20
373.3534064185222
 30
0.0
 11
166.8794648506801
 21
373.3534064185222
 31
0.0
  0
LINE
  5
31834D33
330
318324AF
100
AcDbEntity
  8
JISSEN
100
AcDbLine
 10
166.9091310947658
 20
372.3538465584028
 30
0.0
 11
166.7162155984089
 21
378.8538465584029
 31
0.0
  0
LINE
  5
31834D34
330
318324AF
100
AcDbEntity
  8
JISSEN
100
AcDbLine
 10
165.8794648506807
 20
373.3534064185222
 30
0.0
 11
165.716215598409
 21
378.8538465584028
 31
0.0
  0
LINE
  5
31834D35
330
318324AF
100
AcDbEntity
  8
JISSEN
100
AcDbLine
 10
166.9091310947658
 20
372.3538465584028
 30
0.0
 11
165.8794648506807
 21
373.3534064185222
 31
0.0
  0
LINE
  5
31834D36
330
318324AF
100
AcDbEntity
  8
JISSEN
100
AcDbLine
 10
149.9387973388524
 20
434.8542866982834
 30
0.0
 11
166.8794648506825
 21
434.8542866982834
 31
0.0
  0
LINE
  5
31834D37
330
318324AF
100
AcDbEntity
  8
JISSEN
100
AcDbLine
 10
149.9091310947674
 20
435.8538465584028
 30
0.0
 11
150.9387973388523
 21
434.8542866982834
 31
0.0
  0
LINE
  5
31834D38
330
318324AF
100
AcDbEntity
  8
JISSEN
100
AcDbLine
 10
150.9387973388523
 20
434.8542866982834
 30
0.0
 11
151.1020465911241
 21
429.3538465584028
 31
0.0
  0
LINE
  5
31834D39
330
318324AF
100
AcDbEntity
  8
JISSEN
100
AcDbLine
 10
149.9091310947674
 20
435.8538465584028
 30
0.0
 11
150.1020465911241
 21
429.3538465584028
 31
0.0
  0
LINE
  5
31834D3A
330
318324AF
100
AcDbEntity
  8
JISSEN
100
AcDbLine
 10
166.9091310947679
 20
435.8538465584028
 30
0.0
 11
166.7162155984112
 21
429.3538465584028
 31
0.0
  0
LINE
  5
31834D3B
330
318324AF
100
AcDbEntity
  8
JISSEN
100
AcDbLine
 10
165.8794648506829
 20
434.8542866982834
 30
0.0
 11
165.7162155984112
 21
429.3538465584028
 31
0.0
  0
LINE
  5
31834D3C
330
318324AF
100
AcDbEntity
  8
JISSEN
100
AcDbLine
 10
166.9091310947679
 20
435.8538465584028
 30
0.0
 11
165.8794648506829
 21
434.8542866982834
 31
0.0
  0
LINE
  5
31834D3D
330
318324AF
100
AcDbEntity
  8
JISSEN
100
AcDbLine
 10
166.9091310947679
 20
456.8538465584028
 30
0.0
 11
165.8794648506829
 21
457.8534064185222
 31
0.0
  0
LINE
  5
31834D3E
330
318324AF
100
AcDbEntity
  8
JISSEN
100
AcDbLine
 10
165.8794648506829
 20
457.8534064185222
 30
0.0
 11
165.7162155984112
 21
463.3538465584029
 31
0.0
  0
LINE
  5
31834D3F
330
318324AF
100
AcDbEntity
  8
JISSEN
100
AcDbLine
 10
166.9091310947679
 20
456.8538465584028
 30
0.0
 11
166.7162155984112
 21
463.3538465584029
 31
0.0
  0
LINE
  5
31834D40
330
318324AF
100
AcDbEntity
  8
JISSEN
100
AcDbLine
 10
149.9091310947674
 20
456.8538465584028
 30
0.0
 11
150.1020465911241
 21
463.3538465584029
 31
0.0
  0
LINE
  5
31834D41
330
318324AF
100
AcDbEntity
  8
JISSEN
100
AcDbLine
 10
150.9387973388523
 20
457.8534064185222
 30
0.0
 11
151.1020465911241
 21
463.3538465584029
 31
0.0
  0
LINE
  5
31834D42
330
318324AF
100
AcDbEntity
  8
JISSEN
100
AcDbLine
 10
149.9091310947674
 20
456.8538465584028
 30
0.0
 11
150.9387973388523
 21
457.8534064185222
 31
0.0
  0
LINE
  5
31834D43
330
318324AF
100
AcDbEntity
  8
JISSEN
100
AcDbLine
 10
149.9387973388524
 20
457.8534064185222
 30
0.0
 11
166.8794648506825
 21
457.8534064185222
 31
0.0
  0
LINE
  5
31834D44
330
318324AF
100
AcDbEntity
  8
JISSEN
100
AcDbLine
 10
166.9091310947692
 20
529.8557409362278
 30
0.0
 11
166.5678059997065
 21
541.3561810761083
 31
0.0
  0
LINE
  5
31834D45
330
318324AF
100
AcDbEntity
  8
JISSEN
100
AcDbLine
 10
165.8794648506841
 20
530.8553007963471
 30
0.0
 11
165.5394604659761
 21
542.3112415701
 31
0.0
  0
LINE
  5
31834D46
330
318324AF
100
AcDbEntity
  8
JISSEN
100
AcDbLine
 10
166.5678059997065
 20
541.3561810761083
 30
0.0
 11
165.5381397556215
 21
542.3557409362278
 31
0.0
  0
LINE
  5
31834D47
330
318324AF
100
AcDbEntity
  8
JISSEN
100
AcDbLine
 10
166.9091310947692
 20
529.8557409362278
 30
0.0
 11
166.9091310947692
 21
526.8557409362276
 31
0.0
  0
LINE
  5
31834D48
330
318324AF
100
AcDbEntity
  8
JISSEN
100
AcDbLine
 10
166.9091310947692
 20
529.8557409362278
 30
0.0
 11
165.8794648506841
 21
530.8553007963471
 31
0.0
  0
LINE
  5
31834D49
330
318324AF
100
AcDbEntity
  8
JISSEN
100
AcDbLine
 10
166.9091310947692
 20
526.8557409362276
 30
0.0
 11
165.8794648506841
 21
525.8561810761082
 31
0.0
  0
LINE
  5
31834D4A
330
318324AF
100
AcDbEntity
  8
JISSEN
100
AcDbLine
 10
166.5678059997065
 20
515.3553007963471
 30
0.0
 11
165.5381397556215
 21
514.3557409362277
 31
0.0
  0
LINE
  5
31834D4B
330
318324AF
100
AcDbEntity
  8
JISSEN
100
AcDbLine
 10
165.8794648506841
 20
525.8561810761082
 30
0.0
 11
165.5394604659761
 21
514.4002403023553
 31
0.0
  0
LINE
  5
31834D4C
330
318324AF
100
AcDbEntity
  8
JISSEN
100
AcDbLine
 10
166.9091310947692
 20
526.8557409362276
 30
0.0
 11
166.5678059997065
 21
515.3553007963471
 31
0.0
  0
LINE
  5
31834D4D
330
318324AF
100
AcDbEntity
  8
JISSEN
100
AcDbLine
 10
149.938797338854
 20
525.8561810761082
 30
0.0
 11
166.8794648506841
 21
525.8561810761082
 31
0.0
  0
LINE
  5
31834D4E
330
318324AF
100
AcDbEntity
  8
JISSEN
100
AcDbLine
 10
149.938797338854
 20
530.8553007963471
 30
0.0
 11
166.8794648506841
 21
530.8553007963471
 31
0.0
  0
LINE
  5
31834D4F
330
318324AF
100
AcDbEntity
  8
JISSEN
100
AcDbLine
 10
150.2504561898314
 20
515.3553007963471
 30
0.0
 11
166.5678059997065
 21
515.3553007963471
 31
0.0
  0
LINE
  5
31834D50
330
318324AF
100
AcDbEntity
  8
JISSEN
100
AcDbLine
 10
150.2504561898316
 20
541.3561810761083
 30
0.0
 11
166.5678059997065
 21
541.3561810761084
 31
0.0
  0
LINE
  5
31834D51
330
318324AF
100
AcDbEntity
  8
JISSEN
100
AcDbLine
 10
151.2801224339163
 20
514.3557409362276
 30
0.0
 11
165.5381397556215
 21
514.3557409362276
 31
0.0
  0
LINE
  5
31834D52
330
318324AF
100
AcDbEntity
  8
JISSEN
100
AcDbLine
 10
149.909131094769
 20
526.8557409362276
 30
0.0
 11
150.2504561898315
 21
515.3553007963471
 31
0.0
  0
LINE
  5
31834D53
330
318324AF
100
AcDbEntity
  8
JISSEN
100
AcDbLine
 10
150.9387973388539
 20
525.8561810761082
 30
0.0
 11
151.2788017235619
 21
514.4002403023553
 31
0.0
  0
LINE
  5
31834D54
330
318324AF
100
AcDbEntity
  8
JISSEN
100
AcDbLine
 10
150.2504561898315
 20
515.3553007963471
 30
0.0
 11
151.2801224339166
 21
514.3557409362277
 31
0.0
  0
LINE
  5
31834D55
330
318324AF
100
AcDbEntity
  8
JISSEN
100
AcDbLine
 10
149.909131094769
 20
526.8557409362276
 30
0.0
 11
150.9387973388539
 21
525.8561810761082
 31
0.0
  0
LINE
  5
31834D56
330
318324AF
100
AcDbEntity
  8
JISSEN
100
AcDbLine
 10
149.909131094769
 20
529.8557409362278
 30
0.0
 11
150.9387973388539
 21
530.8553007963471
 31
0.0
  0
LINE
  5
31834D57
330
318324AF
100
AcDbEntity
  8
JISSEN
100
AcDbLine
 10
149.909131094769
 20
529.8557409362278
 30
0.0
 11
149.909131094769
 21
526.8557409362276
 31
0.0
  0
LINE
  5
31834D58
330
318324AF
100
AcDbEntity
  8
JISSEN
100
AcDbLine
 10
150.2504561898315
 20
541.3561810761083
 30
0.0
 11
151.2801224339166
 21
542.3557409362278
 31
0.0
  0
LINE
  5
31834D59
330
318324AF
100
AcDbEntity
  8
JISSEN
100
AcDbLine
 10
150.9387973388539
 20
530.8553007963471
 30
0.0
 11
151.2788017235619
 21
542.3112415701
 31
0.0
  0
LINE
  5
31834D5A
330
318324AF
100
AcDbEntity
  8
JISSEN
100
AcDbLine
 10
149.909131094769
 20
529.8557409362278
 30
0.0
 11
150.2504561898315
 21
541.3561810761083
 31
0.0
  0
LINE
  5
31834D5B
330
318324AF
100
AcDbEntity
  8
JISSEN
100
AcDbLine
 10
151.2801224339166
 20
542.3557409362277
 30
0.0
 11
165.5381397556215
 21
542.3557409362278
 31
0.0
  0
LINE
  5
31834D5C
330
318324AF
100
AcDbEntity
  8
JISSEN
100
AcDbLine
 10
172.4091310947692
 20
581.3557409362279
 30
0.0
 11
172.4091310947692
 21
563.0256139173048
 31
0.0
  0
LINE
  5
31834D5D
330
318324AF
100
AcDbEntity
  8
JISSEN
100
AcDbLine
 10
166.6620577953975
 20
556.4207365003333
 30
0.0
 11
158.4091310947692
 21
556.4207365003333
 31
0.0
  0
ARC
  5
31834D5E
330
318324AF
100
AcDbEntity
  8
JISSEN
100
AcDbCircle
 10
167.4091310947692
 20
563.0256139173046
 30
0.0
 40
5.0
100
AcDbArc
 50
329.9999999999986
 51
0.0000000000007194
  0
ARC
  5
31834D5F
330
318324AF
100
AcDbEntity
  8
JISSEN
100
AcDbCircle
 10
174.9091310947691
 20
556.0159949740723
 30
0.0
 40
5.0
100
AcDbArc
 50
149.9999999999988
 51
180.0000000000012
  0
LINE
  5
31834D60
330
318324AF
100
AcDbEntity
  8
JISSEN
100
AcDbLine
 10
170.5790040758474
 20
558.515994974072
 30
0.0
 11
171.7392581136913
 21
560.5256139173047
 31
0.0
  0
LINE
  5
31834D61
330
318324AF
100
AcDbEntity
  8
JISSEN
100
AcDbLine
 10
169.9091310947696
 20
547.3557409362276
 30
0.0
 11
169.9091310947696
 21
556.0159949740721
 31
0.0
  0
LINE
  5
31834D62
330
318324AF
100
AcDbEntity
  8
JISSEN
100
AcDbLine
 10
150.1562043941406
 20
556.4207365003333
 30
0.0
 11
158.4091310947692
 21
556.4207365003333
 31
0.0
  0
LINE
  5
31834D63
330
318324AF
100
AcDbEntity
  8
JISSEN
100
AcDbLine
 10
169.9091310947696
 20
562.7662300600733
 30
0.0
 11
146.9091310947692
 21
562.7662300600734
 31
0.0
  0
LINE
  5
31834D64
330
318324AF
100
AcDbEntity
  8
JISSEN
100
AcDbLine
 10
146.9091310947687
 20
547.3557409362276
 30
0.0
 11
146.9091310947687
 21
556.0159949740721
 31
0.0
  0
LINE
  5
31834D65
330
318324AF
100
AcDbEntity
  8
JISSEN
100
AcDbLine
 10
144.4091310947692
 20
581.3557409362279
 30
0.0
 11
144.4091310947692
 21
563.0256139173048
 31
0.0
  0
LINE
  5
31834D66
330
318324AF
100
AcDbEntity
  8
JISSEN
100
AcDbLine
 10
146.2392581136909
 20
558.515994974072
 30
0.0
 11
145.079004075847
 21
560.5256139173047
 31
0.0
  0
ARC
  5
31834D67
330
318324AF
100
AcDbEntity
  8
JISSEN
100
AcDbCircle
 10
141.9091310947687
 20
556.0159949740723
 30
0.0
 40
5.0
100
AcDbArc
 50
359.9999999999987
 51
30.00000000000118
  0
ARC
  5
31834D68
330
318324AF
100
AcDbEntity
  8
JISSEN
100
AcDbCircle
 10
149.4091310947687
 20
563.0256139173046
 30
0.0
 40
5.0
100
AcDbArc
 50
179.9999999999993
 51
210.0000000000011
  0
LINE
  5
31834D69
330
318324AF
100
AcDbEntity
  8
JISSEN
100
AcDbLine
 10
172.4091310947692
 20
581.3557409362279
 30
0.0
 11
144.4091310947692
 21
581.3557409362279
 31
0.0
  0
LINE
  5
31834D6A
330
318324AF
100
AcDbEntity
  8
JISSEN
100
AcDbLine
 10
169.9091310947696
 20
547.3557409362276
 30
0.0
 11
146.9091310947692
 21
547.3557409362277
 31
0.0
  0
LINE
  5
31834D89
330
318324AF
100
AcDbEntity
  8
JISSEN
100
AcDbLine
 10
187.9091310947657
 20
490.3538465584026
 30
0.0
 11
184.9091310947678
 21
490.3538465584026
 31
0.0
  0
TEXT
  5
31834D8A
330
318324AF
100
AcDbEntity
  8
JISSEN
100
AcDbText
 10
261.2390411150929
 20
441.5063415683826
 30
0.0
 40
2.445109780439121
  1
OUT
 50
90.0
  7
ROMANS
100
AcDbText
  0
LINE
  5
31834D8B
330
318324AF
100
AcDbEntity
  8
JISSEN
100
AcDbLine
 10
262.9506179614003
 20
449.8197148218756
 30
0.0
 11
257.0823544883464
 21
449.8197148218756
 31
0.0
  0
LINE
  5
31834D8C
330
318324AF
100
AcDbEntity
  8
JISSEN
100
AcDbLine
 10
260.0164862248764
 20
432.888942415022
 30
0.0
 11
257.5713764444374
 21
435.3340521954611
 31
0.0
  0
LINE
  5
31834D8D
330
318324AF
100
AcDbEntity
  8
JISSEN
100
AcDbLine
 10
260.0164862248732
 20
432.8889424150189
 30
0.0
 11
260.0164862248732
 21
429.9548106784949
 31
0.0
  0
LINE
  5
31834D8E
330
318324AF
100
AcDbEntity
  8
JISSEN
100
AcDbLine
 10
260.0164862248732
 20
438.7572058880757
 30
0.0
 11
260.0164862248732
 21
435.8230741515487
 31
0.0
  0
CIRCLE
  5
31834D8F
330
318324AF
100
AcDbEntity
  8
JISSEN
100
AcDbCircle
 10
260.0262827837662
 20
434.6143255500737
 30
0.0
 40
1.195765412051811
  0
LINE
  5
31834D90
330
318324AF
100
AcDbEntity
  8
JISSEN
100
AcDbLine
 10
262.4615960053096
 20
435.3340521954611
 30
0.0
 11
260.0164862248764
 21
432.888942415022
 31
0.0
  0
LINE
  5
31834D91
330
318324AF
100
AcDbEntity
  8
JISSEN
100
AcDbLine
 10
270.7749692588055
 20
452.7538465584025
 30
0.0
 11
249.2580031909412
 21
452.7538465584025
 31
0.0
  0
LINE
  5
31834D92
330
318324AF
100
AcDbEntity
  8
JISSEN
100
AcDbLine
 10
247.7909373226776
 20
407.6660222071051
 30
0.0
 11
247.7909373226776
 21
412.3606329855483
 31
0.0
  0
LINE
  5
31834D93
330
318324AF
100
AcDbEntity
  8
JISSEN
100
AcDbLine
 10
249.7470251470291
 20
412.3606329855483
 30
0.0
 11
249.7470251470291
 21
407.6660222071051
 31
0.0
  0
LINE
  5
31834D94
330
318324AF
100
AcDbEntity
  8
JISSEN
100
AcDbLine
 10
247.7909373226776
 20
421.1630281951292
 30
0.0
 11
247.7909373226776
 21
412.3606329855483
 31
0.0
  0
LINE
  5
31834D95
330
318324AF
100
AcDbEntity
  8
JISSEN
100
AcDbLine
 10
249.7470251470291
 20
421.1630281951292
 30
0.0
 11
249.7470251470291
 21
412.3606329855483
 31
0.0
  0
LWPOLYLINE
  5
31834D96
330
318324AF
100
AcDbEntity
  8
JISSEN
100
AcDbPolyline
 90
        6
 70
     0
 43
0.0
 10
253.1701788396437
 20
406.6879782949295
 10
253.1701788396437
 20
405.7099343827538
 42
-0.4142135623730951
 10
252.1921349274681
 20
404.7318904705781
 10
249.2580031909412
 20
404.7318904705781
 42
-0.4142135623730951
 10
248.2799592787656
 20
405.7099343827538
 10
248.2799592787656
 20
406.6879782949295
  0
LINE
  5
31834D97
330
318324AF
100
AcDbEntity
  8
JISSEN
100
AcDbLine
 10
250.2360471031167
 20
404.7318904705781
 30
0.0
 11
250.2360471031167
 21
403.7538465584026
 31
0.0
  0
LWPOLYLINE
  5
31834D98
330
318324AF
100
AcDbEntity
  8
JISSEN
100
AcDbPolyline
 90
        4
 70
     1
 43
0.0
 10
248.2799592787656
 20
407.6660222071051
 10
248.2799592787656
 20
406.6879782949295
 10
253.1701788396437
 20
406.6879782949295
 10
253.1701788396437
 20
407.6660222071051
  0
TEXT
  5
31834D99
330
318324AF
100
AcDbEntity
  8
JISSEN
100
AcDbText
 10
261.2390411150929
 20
425.0861363902198
 30
0.0
 40
2.445109780439121
  1
IN
 50
90.0
  7
ROMANS
100
AcDbText
  0
LINE
  5
31834D9A
330
318324AF
100
AcDbEntity
  8
JISSEN
100
AcDbLine
 10
257.0823544883464
 20
423.1191160194804
 30
0.0
 11
262.9506179614003
 21
423.1191160194804
 31
0.0
  0
LINE
  5
31834D9B
330
318324AF
100
AcDbEntity
  8
JISSEN
100
AcDbLine
 10
272.2420351270689
 20
412.3606329855483
 30
0.0
 11
272.2420351270689
 21
407.6660222071051
 31
0.0
  0
LINE
  5
31834D9C
330
318324AF
100
AcDbEntity
  8
JISSEN
100
AcDbLine
 10
270.2859473027177
 20
412.3606329855483
 30
0.0
 11
270.2859473027177
 21
407.6660222071051
 31
0.0
  0
LINE
  5
31834D9D
330
318324AF
100
AcDbEntity
  8
JISSEN
100
AcDbLine
 10
272.2420351270689
 20
412.3606329855483
 30
0.0
 11
272.2420351270689
 21
421.1630281951292
 31
0.0
  0
LINE
  5
31834D9E
330
318324AF
100
AcDbEntity
  8
JISSEN
100
AcDbLine
 10
270.2859473027177
 20
412.3606329855483
 30
0.0
 11
270.2859473027177
 21
421.1630281951292
 31
0.0
  0
LINE
  5
31834D9F
330
318324AF
100
AcDbEntity
  8
JISSEN
100
AcDbLine
 10
269.7969253466297
 20
403.7538465584026
 30
0.0
 11
269.7969253466297
 21
404.7318904705781
 31
0.0
  0
LWPOLYLINE
  5
31834DA0
330
318324AF
100
AcDbEntity
  8
JISSEN
100
AcDbPolyline
 90
        6
 70
     0
 43
0.0
 10
271.7530131709812
 20
406.6879782949295
 10
271.7530131709812
 20
405.7099343827538
 42
-0.4142135623730951
 10
270.7749692588055
 20
404.7318904705781
 10
267.8408375222784
 20
404.7318904705781
 42
-0.4142135623730951
 10
266.8627936101029
 20
405.7099343827538
 10
266.8627936101029
 20
406.6879782949295
  0
LINE
  5
31834DA1
330
318324AF
100
AcDbEntity
  8
JISSEN
100
AcDbLine
 10
264.1731728516199
 20
407.6660222071051
 30
0.0
 11
264.1731728516199
 21
403.7538465584026
 31
0.0
  0
LWPOLYLINE
  5
31834DA2
330
318324AF
100
AcDbEntity
  8
JISSEN
100
AcDbPolyline
 90
        4
 70
     0
 43
0.0
 10
271.7530131709812
 20
407.6660222071051
 10
271.7530131709812
 20
406.6879782949295
 10
266.8627936101029
 20
406.6879782949295
 10
266.8627936101029
 20
407.6660222071051
  0
LINE
  5
31834DA3
330
318324AF
100
AcDbEntity
  8
JISSEN
100
AcDbLine
 10
255.8597995981268
 20
407.6660222071051
 30
0.0
 11
255.8597995981268
 21
403.7538465584026
 31
0.0
  0
LINE
  5
31834DA4
330
318324AF
100
AcDbEntity
  8
JISSEN
100
AcDbLine
 10
250.2360471031167
 20
403.7538465584026
 30
0.0
 11
269.7969253466297
 21
403.7538465584026
 31
0.0
  0
LINE
  5
31834DA5
330
318324AF
100
AcDbEntity
  8
JISSEN
100
AcDbLine
 10
269.7969253466297
 20
407.6660222071051
 30
0.0
 11
250.2360471031167
 21
407.6660222071051
 31
0.0
  0
LINE
  5
31834DA6
330
318324AF
100
AcDbEntity
  8
JISSEN
100
AcDbLine
 10
272.2420351270689
 20
407.6660222071051
 30
0.0
 11
247.7909373226776
 21
407.6660222071051
 31
0.0
  0
LINE
  5
31834DA7
330
318324AF
100
AcDbEntity
  8
JISSEN
100
AcDbLine
 10
247.7909373226776
 20
412.3606329855483
 30
0.0
 11
272.2420351270689
 21
412.3606329855483
 31
0.0
  0
LINE
  5
31834DA8
330
318324AF
100
AcDbEntity
  8
JISSEN
100
AcDbLine
 10
272.2420351270689
 20
421.1630281951292
 30
0.0
 11
247.7909373226776
 21
421.1630281951292
 31
0.0
  0
LINE
  5
31834DA9
330
318324AF
100
AcDbEntity
  8
JISSEN
100
AcDbLine
 10
271.1661868236759
 20
421.1630281951292
 30
0.0
 11
270.7749692588055
 21
452.7538465584025
 31
0.0
  0
LINE
  5
31834DAA
330
318324AF
100
AcDbEntity
  8
JISSEN
100
AcDbLine
 10
249.2580031909412
 20
452.7538465584025
 30
0.0
 11
248.8667856260711
 21
421.1630281951292
 31
0.0
  0
LINE
  5
31834DAB
330
318324AF
100
AcDbEntity
  8
JISSEN
100
AcDbLine
 10
264.9067057857516
 20
452.7538465584025
 30
0.0
 11
264.9067057857516
 21
421.1630281951292
 31
0.0
  0
LINE
  5
31834DAC
330
318324AF
100
AcDbEntity
  8
JISSEN
100
AcDbLine
 10
255.126266663995
 20
452.7538465584025
 30
0.0
 11
255.126266663995
 21
421.1630281951292
 31
0.0
  0
LINE
  5
31834DAD
330
318324AF
100
AcDbEntity
  8
JISSEN
100
AcDbLine
 10
262.9506179614003
 20
423.1191160194804
 30
0.0
 11
262.9506179614003
 21
449.8197148218756
 31
0.0
  0
LINE
  5
31834DAE
330
318324AF
100
AcDbEntity
  8
JISSEN
100
AcDbLine
 10
257.0823544883464
 20
449.8197148218756
 30
0.0
 11
257.0823544883464
 21
423.1191160194804
 31
0.0
  0
LINE
  5
31834DAF
330
318324AF
100
AcDbEntity
  8
JISSEN
100
AcDbLine
 10
270.0167037464864
 20
352.7538465584024
 30
0.0
 11
250.0167037464864
 21
352.7538465584025
 31
0.0
  0
LINE
  5
31834DB0
330
318324AF
100
AcDbEntity
  8
JISSEN
100
AcDbLine
 10
250.0167037464864
 20
352.7538465584025
 30
0.0
 11
264.0167037464864
 21
352.7538465584025
 31
0.0
  0
LWPOLYLINE
  5
31834DB1
330
318324AF
100
AcDbEntity
  8
SAISEN
100
AcDbPolyline
 90
        6
 70
     1
 43
0.0
 10
265.3942047472867
 20
356.2538465584025
 10
251.0167037464865
 20
356.2538465584025
 10
251.0167037464865
 20
391.2538465584024
 10
265.3942047472874
 20
391.2538465584024
 42
0.6736387670550621
 10
269.0167037464864
 20
384.7852195918057
 10
269.0167037464864
 20
362.7224735249993
 42
0.6736387670551785
  0
LWPOLYLINE
  5
31834DB2
330
318324AF
100
AcDbEntity
  8
JISSEN
100
AcDbPolyline
 90
        4
 70
     1
 43
0.0
 10
272.5167037464864
 20
394.7538465584024
 10
272.5167037464864
 20
352.7538465584025
 10
247.5167037464864
 20
352.7538465584025
 10
247.5167037464864
 20
394.7538465584024
  0
LINE
  5
31834DB3
330
318324AF
100
AcDbEntity
  8
SAISEN
100
AcDbLine
 10
257.5167037464864
 20
375.4858973659751
 30
0.0
 11
263.5167037464865
 21
372.0217957508373
 31
0.0
  0
LINE
  5
31834DB4
330
318324AF
100
AcDbEntity
  8
SAISEN
100
AcDbLine
 10
266.0167037464864
 20
369.0038465584025
 30
0.0
 11
260.5167037464864
 21
369.0038465584025
 31
0.0
  0
LINE
  5
31834DB5
330
318324AF
100
AcDbEntity
  8
SAISEN
100
AcDbLine
 10
260.5167037464864
 20
378.5038465584026
 30
0.0
 11
266.0167037464864
 21
378.5038465584026
 31
0.0
  0
ARC
  5
31834DB6
330
318324AF
100
AcDbEntity
  8
SAISEN
100
AcDbCircle
 10
265.5583704131529
 20
373.7538465584024
 30
0.0
 40
4.541666666666669
100
AcDbArc
 50
146.6015115320135
 51
213.3984884679863
  0
ARC
  5
31834DB7
330
318324AF
100
AcDbEntity
  8
SAISEN
100
AcDbCircle
 10
255.47503707982
 20
373.7538465584024
 30
0.0
 40
4.541666666666658
100
AcDbArc
 50
326.6015115320135
 51
33.39848846798643
  0
LINE
  5
31834DB8
330
318324AF
100
AcDbEntity
  8
SAISEN
100
AcDbLine
 10
260.5167037464864
 20
379.2538465584025
 30
0.0
 11
260.5167037464864
 21
368.2538465584026
 31
0.0
  0
LWPOLYLINE
  5
31834DB9
330
318324AF
100
AcDbEntity
  8
SAISEN
100
AcDbPolyline
 90
        2
 70
     1
 43
0.35
 10
260.3417037464863
 20
369.0038465584025
 42
1.0
 10
260.6917037464864
 20
369.0038465584025
 42
1.0
  0
LWPOLYLINE
  5
31834DBA
330
318324AF
100
AcDbEntity
  8
SAISEN
100
AcDbPolyline
 90
        2
 70
     1
 43
0.35
 10
260.3417037464863
 20
378.5038465584026
 42
1.0
 10
260.6917037464864
 20
378.5038465584026
 42
1.0
  0
LINE
  5
31834DBB
330
318324AF
100
AcDbEntity
  8
SAISEN
100
AcDbLine
 10
257.5167037464919
 20
375.4858973659719
 30
0.0
 11
258.0167037464855
 21
374.6198719621986
 31
0.0
  0
LINE
  5
31834DBC
330
318324AF
100
AcDbEntity
  8
SAISEN
100
AcDbLine
 10
257.5167037464864
 20
375.4858973659751
 30
0.0
 11
258.516703746486
 21
375.4858973659751
 31
0.0
  0
CIRCLE
  5
31834DBD
330
318324AF
100
AcDbEntity
  8
SAISEN
100
AcDbCircle
 10
268.5167037464864
 20
358.7538465584025
 30
0.0
 40
2.0
  0
LINE
  5
31834DBE
330
318324AF
100
AcDbEntity
  8
SAISEN
100
AcDbLine
 10
266.0167037464883
 20
375.9538465584088
 30
0.0
 11
268.0167037464864
 21
372.4897449432742
 31
0.0
  0
LINE
  5
31834DBF
330
318324AF
100
AcDbEntity
  8
SAISEN
100
AcDbLine
 10
264.0167037464864
 20
372.4897449432681
 30
0.0
 11
266.0167037464883
 21
375.9538465584088
 31
0.0
  0
CIRCLE
  5
31834DC0
330
318324AF
100
AcDbEntity
  8
SAISEN
100
AcDbCircle
 10
266.0167037464864
 20
373.7538465584025
 30
0.0
 40
1.1
  0
LINE
  5
31834DC1
330
318324AF
100
AcDbEntity
  8
SAISEN
100
AcDbLine
 10
266.0167037464864
 20
372.6538465584013
 30
0.0
 11
266.0167037464864
 21
369.0038465584025
 31
0.0
  0
LINE
  5
31834DC2
330
318324AF
100
AcDbEntity
  8
SAISEN
100
AcDbLine
 10
266.0167037464864
 20
378.5038465584026
 30
0.0
 11
266.0167037464864
 21
375.9538465584119
 31
0.0
  0
CIRCLE
  5
31834DC3
330
318324AF
100
AcDbEntity
  8
SAISEN
100
AcDbCircle
 10
268.5167037464864
 20
388.7538465584024
 30
0.0
 40
2.0
  0
LWPOLYLINE
  5
31834DC4
330
318324AF
100
AcDbEntity
  8
JISSEN
100
AcDbPolyline
 90
        4
 70
     0
 43
0.0
 10
247.5167037464864
 20
366.2538465584024
 10
232.5167037464864
 20
366.2538465584024
 10
232.5167037464864
 20
381.2538465584026
 10
247.5167037464864
 20
381.2538465584026
  0
INSERT
  5
31834DC5
330
318324AF
100
AcDbEntity
  8
SAISEN
100
AcDbBlockReference
  2
*X2
 10
155.0376067565199
 20
101.430362348303
 30
0.0
  0
LWPOLYLINE
  5
31834DC6
330
318324AF
100
AcDbEntity
  8
JISSEN
100
AcDbPolyline
 90
        4
 70
     1
 43
0.0
 10
222.5167037464865
 20
379.7538465584024
 10
222.5167037464865
 20
367.7538465584024
 10
214.5167037464865
 20
367.7538465584024
 10
214.5167037464865
 20
379.7538465584024
  0
LWPOLYLINE
  5
31834DC7
330
318324AF
100
AcDbEntity
  8
JISSEN
100
AcDbPolyline
 90
        8
 70
     1
 43
0.0
 10
232.5167037464864
 20
366.9538465584025
 10
231.8167037464864
 20
366.2538465584024
 10
230.2167037464862
 20
366.2538465584024
 10
229.5167037464865
 20
366.9538465584025
 10
229.5167037464865
 20
380.5538465584025
 10
230.2167037464862
 20
381.2538465584026
 10
231.8167037464864
 20
381.2538465584026
 10
232.5167037464864
 20
380.5538465584025
  0
LINE
  5
31834DC8
330
318324AF
100
AcDbEntity
  8
JISSEN
100
AcDbLine
 10
222.5167037464865
 20
369.7538465584025
 30
0.0
 11
229.5167037464865
 21
369.7538465584025
 31
0.0
  0
LINE
  5
31834DC9
330
318324AF
100
AcDbEntity
  8
JISSEN
100
AcDbLine
 10
222.5167037464865
 20
377.7538465584024
 30
0.0
 11
229.5167037464865
 21
377.7538465584024
 31
0.0
  0
LINE
  5
31834DCA
330
318324AF
100
AcDbEntity
  8
JISSEN
100
AcDbLine
 10
169.9091310947677
 20
503.3538465584028
 30
0.0
 11
169.9091310947677
 21
496.3538465584026
 31
0.0
  0
LINE
  5
31834DCB
330
318324AF
100
AcDbEntity
  8
JISSEN
100
AcDbLine
 10
169.9091310947677
 20
463.3538465584028
 30
0.0
 11
146.9091310947671
 21
463.3538465584028
 31
0.0
  0
LINE
  5
31834DCC
330
318324AF
100
AcDbEntity
  8
JISSEN
100
AcDbLine
 10
146.9091310947671
 20
463.3538465584028
 30
0.0
 11
146.9091310947671
 21
503.3538465584028
 31
0.0
  0
LINE
  5
31834DCD
330
318324AF
100
AcDbEntity
  8
JISSEN
100
AcDbLine
 10
146.9091310947671
 20
503.3538465584028
 30
0.0
 11
169.9091310947677
 21
503.3538465584028
 31
0.0
  0
LINE
  5
31834DCE
330
318324AF
100
AcDbEntity
  8
JISSEN
100
AcDbLine
 10
180.4091310947677
 20
493.3538465584025
 30
0.0
 11
180.4091310947677
 21
473.3538465584027
 31
0.0
  0
LINE
  5
31834DCF
330
318324AF
100
AcDbEntity
  8
JISSEN
100
AcDbLine
 10
149.9091310947677
 20
456.8538465584031
 30
0.0
 11
149.9091310947677
 21
435.8538465583928
 31
0.0
  0
LINE
  5
31834DD0
330
318324AF
100
AcDbEntity
  8
JISSEN
100
AcDbLine
 10
166.9091310947677
 20
435.8538465584025
 30
0.0
 11
166.9091310947677
 21
456.8538465584135
 31
0.0
  0
LINE
  5
31834DD1
330
318324AF
100
AcDbEntity
  8
JISSEN
100
AcDbLine
 10
202.4091310947677
 20
483.3538465584026
 30
0.0
 11
202.4091310947677
 21
495.8246123728986
 31
0.0
  0
LINE
  5
31834DD2
330
318324AF
100
AcDbEntity
  8
JISSEN
100
AcDbLine
 10
203.5229749710982
 20
497.7538465584025
 30
0.0
 11
216.295287218437
 21
497.7538465584025
 31
0.0
  0
LINE
  5
31834DD3
330
318324AF
100
AcDbEntity
  8
JISSEN
100
AcDbLine
 10
217.4091310947677
 20
495.8246123728984
 30
0.0
 11
217.4091310947677
 21
483.3538465584026
 31
0.0
  0
LINE
  5
31834DD4
330
318324AF
100
AcDbEntity
  8
JISSEN
100
AcDbLine
 10
203.5229749710982
 20
490.5538465584025
 30
0.0
 11
216.2952872184372
 21
490.5538465584025
 31
0.0
  0
LINE
  5
31834DD5
330
318324AF
100
AcDbEntity
  8
JISSEN
100
AcDbLine
 10
226.7013761316827
 20
487.9288465584025
 30
0.0
 11
217.4091310947677
 21
487.9288465584025
 31
0.0
  0
LINE
  5
31834DD6
330
318324AF
100
AcDbEntity
  8
JISSEN
100
AcDbLine
 10
226.7013761316826
 20
493.1704226453589
 30
0.0
 11
217.4091310947677
 21
493.1704226453589
 31
0.0
  0
LINE
  5
31834DD7
330
318324AF
100
AcDbEntity
  8
JISSEN
100
AcDbLine
 10
227.4091310947677
 20
483.3538465584026
 30
0.0
 11
227.4091310947677
 21
491.9445550899865
 31
0.0
  0
LINE
  5
31834DD8
330
318324AF
100
AcDbEntity
  8
JISSEN
100
AcDbLine
 10
203.5229749710982
 20
497.7538465584025
 30
0.0
 11
202.4091310947677
 21
495.8246123728986
 31
0.0
  0
LINE
  5
31834DD9
330
318324AF
100
AcDbEntity
  8
JISSEN
100
AcDbLine
 10
202.4091310947677
 20
495.8246123728986
 30
0.0
 11
202.4091310947677
 21
490.5538465584025
 31
0.0
  0
ARC
  5
31834DDA
330
318324AF
100
AcDbEntity
  8
JISSEN
100
AcDbCircle
 10
208.783744486557
 20
494.1538465584025
 30
0.0
 40
6.37461339178938
100
AcDbArc
 50
145.6157525319594
 51
214.3842474680401
  0
ARC
  5
31834DDB
330
318324AF
100
AcDbEntity
  8
JISSEN
100
AcDbCircle
 10
208.783744486557
 20
472.5538465584027
 30
0.0
 40
6.37461339178938
100
AcDbArc
 50
145.6157525319596
 51
214.3842474680405
  0
LINE
  5
31834DDC
330
318324AF
100
AcDbEntity
  8
JISSEN
100
AcDbLine
 10
202.4091310947677
 20
470.8830807439069
 30
0.0
 11
202.4091310947677
 21
476.1538465584028
 31
0.0
  0
LINE
  5
31834DDD
330
318324AF
100
AcDbEntity
  8
JISSEN
100
AcDbLine
 10
203.5229749710982
 20
468.9538465584027
 30
0.0
 11
202.4091310947677
 21
470.8830807439067
 31
0.0
  0
LINE
  5
31834DDE
330
318324AF
100
AcDbEntity
  8
JISSEN
100
AcDbLine
 10
227.4091310947677
 20
483.3538465584026
 30
0.0
 11
227.4091310947677
 21
475.4297141137755
 31
0.0
  0
LINE
  5
31834DDF
330
318324AF
100
AcDbEntity
  8
JISSEN
100
AcDbLine
 10
226.7013761316827
 20
478.7788465584028
 30
0.0
 11
217.4091310947677
 21
478.7788465584028
 31
0.0
  0
LINE
  5
31834DE0
330
318324AF
100
AcDbEntity
  8
JISSEN
100
AcDbLine
 10
203.5229749710984
 20
476.1538465584028
 30
0.0
 11
216.295287218437
 21
476.1538465584028
 31
0.0
  0
LINE
  5
31834DE1
330
318324AF
100
AcDbEntity
  8
JISSEN
100
AcDbLine
 10
217.4091310947677
 20
470.8830807439069
 30
0.0
 11
217.4091310947677
 21
483.3538465584026
 31
0.0
  0
LINE
  5
31834DE2
330
318324AF
100
AcDbEntity
  8
JISSEN
100
AcDbLine
 10
203.5229749710982
 20
468.9538465584027
 30
0.0
 11
216.2952872184372
 21
468.9538465584027
 31
0.0
  0
LINE
  5
31834DE3
330
318324AF
100
AcDbEntity
  8
JISSEN
100
AcDbLine
 10
202.4091310947677
 20
483.3538465584026
 30
0.0
 11
202.4091310947677
 21
470.8830807439067
 31
0.0
  0
ARC
  5
31834DE4
330
318324AF
100
AcDbEntity
  8
JISSEN
100
AcDbCircle
 10
226.2368188474298
 20
483.3538465584028
 30
0.0
 40
23.82768775266196
100
AcDbArc
 50
162.4120462260066
 51
197.5879537739938
  0
ARC
  5
31834DE5
330
318324AF
100
AcDbEntity
  8
JISSEN
100
AcDbCircle
 10
193.5814433421056
 20
483.3538465584028
 30
0.0
 40
23.82768775266196
100
AcDbArc
 50
342.4120462260061
 51
17.58795377399333
  0
LINE
  5
31834DE6
330
318324AF
100
AcDbEntity
  8
JISSEN
100
AcDbLine
 10
217.4091310947677
 20
483.3538465584026
 30
0.0
 11
217.4091310947677
 21
470.8830807439067
 31
0.0
  0
LINE
  5
31834DE7
330
318324AF
100
AcDbEntity
  8
JISSEN
100
AcDbLine
 10
216.2952872184372
 20
468.9538465584027
 30
0.0
 11
217.4091310947677
 21
470.8830807439067
 31
0.0
  0
LINE
  5
31834DE8
330
318324AF
100
AcDbEntity
  8
JISSEN
100
AcDbLine
 10
217.4091310947677
 20
470.8830807439069
 30
0.0
 11
217.4091310947677
 21
476.1538465584028
 31
0.0
  0
ARC
  5
31834DE9
330
318324AF
100
AcDbEntity
  8
JISSEN
100
AcDbCircle
 10
211.0345177029784
 20
472.5538465584027
 30
0.0
 40
6.37461339178938
100
AcDbArc
 50
325.6157525319595
 51
34.38424746804027
  0
ARC
  5
31834DEA
330
318324AF
100
AcDbEntity
  8
JISSEN
100
AcDbCircle
 10
211.0345177029784
 20
494.1538465584025
 30
0.0
 40
6.37461339178938
100
AcDbArc
 50
325.6157525319597
 51
34.38424746804047
  0
LINE
  5
31834DEB
330
318324AF
100
AcDbEntity
  8
JISSEN
100
AcDbLine
 10
217.4091310947677
 20
495.8246123728984
 30
0.0
 11
217.4091310947677
 21
491.2204226453589
 31
0.0
  0
LINE
  5
31834DEC
330
318324AF
100
AcDbEntity
  8
JISSEN
100
AcDbLine
 10
216.2952872184372
 20
497.7538465584025
 30
0.0
 11
217.4091310947677
 21
495.8246123728986
 31
0.0
  0
LINE
  5
31834DED
330
318324AF
100
AcDbEntity
  8
JISSEN
100
AcDbLine
 10
217.4091310947677
 20
483.3538465584026
 30
0.0
 11
217.4091310947677
 21
495.8246123728986
 31
0.0
  0
ARC
  5
31834DEE
330
318324AF
100
AcDbEntity
  8
JISSEN
100
AcDbCircle
 10
212.2686211685977
 20
483.3538465584025
 30
0.0
 40
15.14050992616996
100
AcDbArc
 50
342.4120462260058
 51
17.58795377399418
  0
ARC
  5
31834DEF
330
318324AF
100
AcDbEntity
  8
JISSEN
100
AcDbCircle
 10
222.0162445580405
 20
490.5999827838411
 30
0.0
 40
5.393090634987452
100
AcDbArc
 50
330.3112182904659
 51
22.15861975338183
  0
LINE
  5
31834DF0
330
318324AF
100
AcDbEntity
  8
JISSEN
100
AcDbLine
 10
227.4091310947677
 20
487.9288465584025
 30
0.0
 11
227.4091310947677
 21
491.9445550899868
 31
0.0
  0
LINE
  5
31834DF1
330
318324AF
100
AcDbEntity
  8
JISSEN
100
AcDbLine
 10
226.7013761316827
 20
493.1704226453589
 30
0.0
 11
227.4091310947677
 21
491.9445550899866
 31
0.0
  0
LINE
  5
31834DF2
330
318324AF
100
AcDbEntity
  8
JISSEN
100
AcDbLine
 10
227.4091310947677
 20
483.3538465584026
 30
0.0
 11
227.4091310947677
 21
474.7631380268187
 31
0.0
  0
LINE
  5
31834DF3
330
318324AF
100
AcDbEntity
  8
JISSEN
100
AcDbLine
 10
227.4091310947677
 20
483.3538465584026
 30
0.0
 11
227.4091310947677
 21
487.9288465584025
 31
0.0
  0
LINE
  5
31834DF4
330
318324AF
100
AcDbEntity
  8
JISSEN
100
AcDbLine
 10
239.4091310947676
 20
473.3538465584027
 30
0.0
 11
245.6044621567191
 21
473.3538465584027
 31
0.0
  0
LINE
  5
31834DF5
330
318324AF
100
AcDbEntity
  8
JISSEN
100
AcDbLine
 10
239.4091310947676
 20
473.3538465584027
 30
0.0
 11
239.4091310947676
 21
493.3538465584025
 31
0.0
  0
LINE
  5
31834DF6
330
318324AF
100
AcDbEntity
  8
JISSEN
100
AcDbLine
 10
269.4091310947677
 20
478.3538465584026
 30
0.0
 11
269.4091310947677
 21
462.7538465584026
 31
0.0
  0
LINE
  5
31834DF7
330
318324AF
100
AcDbEntity
  8
JISSEN
100
AcDbLine
 10
239.4091310947676
 20
493.3538465584025
 30
0.0
 11
254.4091310947677
 21
493.3538465584025
 31
0.0
  0
LINE
  5
31834DF8
330
318324AF
100
AcDbEntity
  8
JISSEN
100
AcDbLine
 10
250.6044621567192
 20
462.7538465584027
 30
0.0
 11
269.4091310947677
 21
462.7538465584026
 31
0.0
  0
LINE
  5
31834DF9
330
318324AF
100
AcDbEntity
  8
JISSEN
100
AcDbLine
 10
250.6044621567192
 20
468.3538465584025
 30
0.0
 11
250.6044621567192
 21
462.7538465584027
 31
0.0
  0
ARC
  5
31834DFA
330
318324AF
100
AcDbEntity
  8
JISSEN
100
AcDbCircle
 10
245.6044621567191
 20
468.3538465584025
 30
0.0
 40
5.0
100
AcDbArc
 50
0.0
 51
90.0
  0
ARC
  5
31834DFB
330
318324AF
100
AcDbEntity
  8
JISSEN
100
AcDbCircle
 10
254.4091310947677
 20
478.3538465584026
 30
0.0
 40
15.0
100
AcDbArc
 50
0.0
 51
90.0
  0
LINE
  5
31834DFC
330
318324AF
100
AcDbEntity
  8
JISSEN
100
AcDbLine
 10
250.6044621567192
 20
462.7538465584026
 30
0.0
 11
269.4091310947677
 21
462.7538465584026
 31
0.0
  0
ARC
  5
31834DFD
330
318324AF
100
AcDbEntity
  8
JISSEN
100
AcDbCircle
 10
254.4091310947679
 20
328.1538465584026
 30
0.0
 40
15.0
100
AcDbArc
 50
270.0
 51
0.0
  0
ARC
  5
31834DFE
330
318324AF
100
AcDbEntity
  8
JISSEN
100
AcDbCircle
 10
245.6044621567194
 20
338.1538465584026
 30
0.0
 40
5.0
100
AcDbArc
 50
270.0
 51
0.0
  0
LINE
  5
31834DFF
330
318324AF
100
AcDbEntity
  8
JISSEN
100
AcDbLine
 10
250.6044621567194
 20
338.1538465584026
 30
0.0
 11
250.6044621567194
 21
343.7538465584026
 31
0.0
  0
LINE
  5
31834E00
330
318324AF
100
AcDbEntity
  8
JISSEN
100
AcDbLine
 10
239.4091310947679
 20
313.1538465584026
 30
0.0
 11
254.4091310947679
 21
313.1538465584026
 31
0.0
  0
LINE
  5
31834E01
330
318324AF
100
AcDbEntity
  8
JISSEN
100
AcDbLine
 10
269.4091310947679
 20
328.1538465584026
 30
0.0
 11
269.4091310947679
 21
343.7538465584027
 31
0.0
  0
LINE
  5
31834E02
330
318324AF
100
AcDbEntity
  8
JISSEN
100
AcDbLine
 10
239.4091310947679
 20
333.1538465584026
 30
0.0
 11
245.6044621567194
 21
333.1538465584026
 31
0.0
  0
LINE
  5
31834E03
330
318324AF
100
AcDbEntity
  8
JISSEN
100
AcDbLine
 10
239.4091310947679
 20
333.1538465584026
 30
0.0
 11
239.4091310947679
 21
313.1538465584026
 31
0.0
  0
LINE
  5
31834E04
330
318324AF
100
AcDbEntity
  8
JISSEN
100
AcDbLine
 10
172.9091310947677
 20
493.3538465584025
 30
0.0
 11
180.4091310947677
 21
493.3538465584025
 31
0.0
  0
ARC
  5
31834E05
330
318324AF
100
AcDbEntity
  8
JISSEN
100
AcDbCircle
 10
172.9091310947677
 20
496.3538465584026
 30
0.0
 40
3.0
100
AcDbArc
 50
180.0
 51
270.0
  0
ARC
  5
31834E06
330
318324AF
100
AcDbEntity
  8
JISSEN
100
AcDbCircle
 10
172.9091310947677
 20
470.3538465584026
 30
0.0
 40
3.0
100
AcDbArc
 50
90.0
 51
180.0
  0
LINE
  5
31834E07
330
318324AF
100
AcDbEntity
  8
JISSEN
100
AcDbLine
 10
172.9091310947677
 20
473.3538465584027
 30
0.0
 11
180.4091310947677
 21
473.3538465584027
 31
0.0
  0
LINE
  5
31834E08
330
318324AF
100
AcDbEntity
  8
JISSEN
100
AcDbLine
 10
169.9091310947677
 20
463.3538465584028
 30
0.0
 11
169.9091310947677
 21
470.3538465584026
 31
0.0
  0
ARC
  5
31834E09
330
318324AF
100
AcDbEntity
  8
JISSEN
100
AcDbCircle
 10
179.4388416367152
 20
483.3538465584025
 30
0.0
 40
14.57462377831576
100
AcDbArc
 50
143.0083260048126
 51
216.9916739951871
  0
LINE
  5
31834E0A
330
318324AF
100
AcDbEntity
  8
JISSEN
100
AcDbLine
 10
226.7013761316824
 20
473.537270471446
 30
0.0
 11
217.4091310947674
 21
473.5372704714463
 31
0.0
  0
LINE
  5
31834E0B
330
318324AF
100
AcDbEntity
  8
JISSEN
100
AcDbLine
 10
226.7013761316824
 20
473.537270471446
 30
0.0
 11
227.4091310947677
 21
474.7631380268187
 31
0.0
  0
ARC
  5
31834E0C
330
318324AF
100
AcDbEntity
  8
JISSEN
100
AcDbCircle
 10
222.0162445580402
 20
476.1077103329639
 30
0.0
 40
5.393090634987452
100
AcDbArc
 50
337.8413802466144
 51
29.68878170953294
  0
ARC
  5
31834E0D
330
318324AF
100
AcDbEntity
  8
JISSEN
100
AcDbCircle
 10
197.8020176314952
 20
476.1077103329639
 30
0.0
 40
5.393090634987452
100
AcDbArc
 50
150.311218290467
 51
202.1586197533856
  0
LINE
  5
31834E0E
330
318324AF
100
AcDbEntity
  8
JISSEN
100
AcDbLine
 10
193.1168860578529
 20
473.537270471446
 30
0.0
 11
192.4091310947677
 21
474.7631380268187
 31
0.0
  0
LINE
  5
31834E0F
330
318324AF
100
AcDbEntity
  8
JISSEN
100
AcDbLine
 10
193.116886057853
 20
473.537270471446
 30
0.0
 11
202.4091310947681
 21
473.5372704714463
 31
0.0
  0
LINE
  5
31834E10
330
318324AF
100
AcDbEntity
  8
JISSEN
100
AcDbLine
 10
192.4091310947677
 20
483.3538465584026
 30
0.0
 11
192.4091310947677
 21
487.9288465584025
 31
0.0
  0
LINE
  5
31834E11
330
318324AF
100
AcDbEntity
  8
JISSEN
100
AcDbLine
 10
192.4091310947677
 20
483.3538465584026
 30
0.0
 11
192.4091310947677
 21
474.7631380268187
 31
0.0
  0
LINE
  5
31834E12
330
318324AF
100
AcDbEntity
  8
JISSEN
100
AcDbLine
 10
193.1168860578527
 20
493.1704226453589
 30
0.0
 11
192.4091310947677
 21
491.9445550899866
 31
0.0
  0
LINE
  5
31834E13
330
318324AF
100
AcDbEntity
  8
JISSEN
100
AcDbLine
 10
192.4091310947677
 20
487.9288465584025
 30
0.0
 11
192.4091310947677
 21
491.9445550899868
 31
0.0
  0
ARC
  5
31834E14
330
318324AF
100
AcDbEntity
  8
JISSEN
100
AcDbCircle
 10
197.8020176314949
 20
490.5999827838411
 30
0.0
 40
5.393090634987452
100
AcDbArc
 50
157.841380246618
 51
209.688781709534
  0
ARC
  5
31834E15
330
318324AF
100
AcDbEntity
  8
JISSEN
100
AcDbCircle
 10
207.5496410209376
 20
483.3538465584025
 30
0.0
 40
15.14050992616996
100
AcDbArc
 50
162.4120462260058
 51
197.587953773994
  0
LINE
  5
31834E16
330
318324AF
100
AcDbEntity
  8
JISSEN
100
AcDbLine
 10
202.4091310947677
 20
470.8830807439069
 30
0.0
 11
202.4091310947677
 21
476.1538465584028
 31
0.0
  0
LINE
  5
31834E17
330
318324AF
100
AcDbEntity
  8
JISSEN
100
AcDbLine
 10
202.4091310947677
 20
483.3538465584026
 30
0.0
 11
202.4091310947677
 21
470.8830807439067
 31
0.0
  0
LINE
  5
31834E18
330
318324AF
100
AcDbEntity
  8
JISSEN
100
AcDbLine
 10
202.4091310947677
 20
470.8830807439069
 30
0.0
 11
202.4091310947677
 21
483.3538465584026
 31
0.0
  0
LINE
  5
31834E19
330
318324AF
100
AcDbEntity
  8
JISSEN
100
AcDbLine
 10
193.1168860578527
 20
478.7788465584028
 30
0.0
 11
202.4091310947677
 21
478.7788465584028
 31
0.0
  0
LINE
  5
31834E1A
330
318324AF
100
AcDbEntity
  8
JISSEN
100
AcDbLine
 10
192.4091310947677
 20
483.3538465584026
 30
0.0
 11
192.4091310947677
 21
475.4297141137755
 31
0.0
  0
LINE
  5
31834E1B
330
318324AF
100
AcDbEntity
  8
JISSEN
100
AcDbLine
 10
192.4091310947677
 20
483.3538465584026
 30
0.0
 11
192.4091310947677
 21
491.9445550899865
 31
0.0
  0
LINE
  5
31834E1C
330
318324AF
100
AcDbEntity
  8
JISSEN
100
AcDbLine
 10
193.1168860578527
 20
493.1704226453589
 30
0.0
 11
202.4091310947677
 21
493.1704226453589
 31
0.0
  0
LINE
  5
31834E1D
330
318324AF
100
AcDbEntity
  8
JISSEN
100
AcDbLine
 10
193.1168860578527
 20
487.9288465584025
 30
0.0
 11
202.4091310947677
 21
487.9288465584025
 31
0.0
  0
ARC
  5
31834E1E
330
318324AF
100
AcDbEntity
  8
JISSEN
100
AcDbCircle
 10
179.4388416367154
 20
323.1538465584025
 30
0.0
 40
14.57462377831576
100
AcDbArc
 50
143.0083260048126
 51
216.9916739951871
  0
LINE
  5
31834E1F
330
318324AF
100
AcDbEntity
  8
JISSEN
100
AcDbLine
 10
169.9091310947678
 20
303.1538465584026
 30
0.0
 11
169.9091310947678
 21
310.1538465584025
 31
0.0
  0
LINE
  5
31834E20
330
318324AF
100
AcDbEntity
  8
JISSEN
100
AcDbLine
 10
172.9091310947678
 20
313.1538465584025
 30
0.0
 11
180.4091310947678
 21
313.1538465584025
 31
0.0
  0
ARC
  5
31834E21
330
318324AF
100
AcDbEntity
  8
JISSEN
100
AcDbCircle
 10
172.9091310947678
 20
310.1538465584025
 30
0.0
 40
3.0
100
AcDbArc
 50
90.0
 51
180.0
  0
ARC
  5
31834E22
330
318324AF
100
AcDbEntity
  8
JISSEN
100
AcDbCircle
 10
172.9091310947678
 20
336.1538465584025
 30
0.0
 40
3.0
100
AcDbArc
 50
180.0
 51
270.0
  0
LINE
  5
31834E23
330
318324AF
100
AcDbEntity
  8
JISSEN
100
AcDbLine
 10
172.9091310947678
 20
333.1538465584025
 30
0.0
 11
180.4091310947678
 21
333.1538465584025
 31
0.0
  0
LINE
  5
31834E24
330
318324AF
100
AcDbEntity
  8
JISSEN
100
AcDbLine
 10
180.4091310947678
 20
333.1538465584025
 30
0.0
 11
180.4091310947678
 21
313.1538465584025
 31
0.0
  0
LINE
  5
31834E25
330
318324AF
100
AcDbEntity
  8
JISSEN
100
AcDbLine
 10
146.9091310947675
 20
343.1538465584027
 30
0.0
 11
169.9091310947678
 21
343.1538465584026
 31
0.0
  0
LINE
  5
31834E26
330
318324AF
100
AcDbEntity
  8
JISSEN
100
AcDbLine
 10
146.9091310947675
 20
303.1538465584027
 30
0.0
 11
146.9091310947675
 21
343.1538465584027
 31
0.0
  0
LINE
  5
31834E27
330
318324AF
100
AcDbEntity
  8
JISSEN
100
AcDbLine
 10
169.9091310947678
 20
303.1538465584026
 30
0.0
 11
146.9091310947675
 21
303.1538465584027
 31
0.0
  0
LINE
  5
31834E28
330
318324AF
100
AcDbEntity
  8
JISSEN
100
AcDbLine
 10
169.9091310947678
 20
343.1538465584026
 30
0.0
 11
169.9091310947678
 21
336.1538465584025
 31
0.0
  0
LINE
  5
31834E29
330
318324AF
100
AcDbEntity
  8
JISSEN
100
AcDbLine
 10
193.1168860578529
 20
327.7288465584026
 30
0.0
 11
202.4091310947679
 21
327.7288465584026
 31
0.0
  0
LINE
  5
31834E2A
330
318324AF
100
AcDbEntity
  8
JISSEN
100
AcDbLine
 10
193.1168860578529
 20
332.9704226453589
 30
0.0
 11
202.4091310947679
 21
332.9704226453589
 31
0.0
  0
LINE
  5
31834E2B
330
318324AF
100
AcDbEntity
  8
JISSEN
100
AcDbLine
 10
192.4091310947678
 20
323.1538465584026
 30
0.0
 11
192.4091310947678
 21
331.7445550899865
 31
0.0
  0
LINE
  5
31834E2C
330
318324AF
100
AcDbEntity
  8
JISSEN
100
AcDbLine
 10
192.4091310947678
 20
323.1538465584026
 30
0.0
 11
192.4091310947678
 21
315.2297141137755
 31
0.0
  0
LINE
  5
31834E2D
330
318324AF
100
AcDbEntity
  8
JISSEN
100
AcDbLine
 10
193.1168860578529
 20
318.5788465584027
 30
0.0
 11
202.4091310947679
 21
318.5788465584027
 31
0.0
  0
LINE
  5
31834E2E
330
318324AF
100
AcDbEntity
  8
JISSEN
100
AcDbLine
 10
202.4091310947679
 20
310.6830807439069
 30
0.0
 11
202.4091310947679
 21
323.1538465584026
 31
0.0
  0
LINE
  5
31834E2F
330
318324AF
100
AcDbEntity
  8
JISSEN
100
AcDbLine
 10
202.4091310947679
 20
323.1538465584026
 30
0.0
 11
202.4091310947679
 21
310.6830807439067
 31
0.0
  0
LINE
  5
31834E30
330
318324AF
100
AcDbEntity
  8
JISSEN
100
AcDbLine
 10
202.4091310947679
 20
310.6830807439068
 30
0.0
 11
202.4091310947679
 21
315.9538465584027
 31
0.0
  0
ARC
  5
31834E31
330
318324AF
100
AcDbEntity
  8
JISSEN
100
AcDbCircle
 10
207.5496410209377
 20
323.1538465584026
 30
0.0
 40
15.14050992616996
100
AcDbArc
 50
162.4120462260058
 51
197.587953773994
  0
ARC
  5
31834E32
330
318324AF
100
AcDbEntity
  8
JISSEN
100
AcDbCircle
 10
197.8020176314952
 20
330.3999827838412
 30
0.0
 40
5.393090634987452
100
AcDbArc
 50
157.841380246618
 51
209.688781709534
  0
LINE
  5
31834E33
330
318324AF
100
AcDbEntity
  8
JISSEN
100
AcDbLine
 10
192.4091310947678
 20
327.7288465584026
 30
0.0
 11
192.4091310947678
 21
331.7445550899867
 31
0.0
  0
LINE
  5
31834E34
330
318324AF
100
AcDbEntity
  8
JISSEN
100
AcDbLine
 10
193.1168860578529
 20
332.9704226453589
 30
0.0
 11
192.4091310947678
 21
331.7445550899866
 31
0.0
  0
LINE
  5
31834E35
330
318324AF
100
AcDbEntity
  8
JISSEN
100
AcDbLine
 10
192.4091310947678
 20
323.1538465584026
 30
0.0
 11
192.4091310947678
 21
314.5631380268187
 31
0.0
  0
LINE
  5
31834E36
330
318324AF
100
AcDbEntity
  8
JISSEN
100
AcDbLine
 10
192.4091310947678
 20
323.1538465584026
 30
0.0
 11
192.4091310947678
 21
327.7288465584026
 31
0.0
  0
LINE
  5
31834E37
330
318324AF
100
AcDbEntity
  8
JISSEN
100
AcDbLine
 10
193.1168860578535
 20
313.337270471446
 30
0.0
 11
202.4091310947684
 21
313.3372704714464
 31
0.0
  0
LINE
  5
31834E38
330
318324AF
100
AcDbEntity
  8
JISSEN
100
AcDbLine
 10
193.1168860578533
 20
313.337270471446
 30
0.0
 11
192.4091310947678
 21
314.5631380268187
 31
0.0
  0
ARC
  5
31834E39
330
318324AF
100
AcDbEntity
  8
JISSEN
100
AcDbCircle
 10
197.8020176314954
 20
315.9077103329639
 30
0.0
 40
5.393090634987452
100
AcDbArc
 50
150.311218290467
 51
202.1586197533856
  0
ARC
  5
31834E3A
330
318324AF
100
AcDbEntity
  8
JISSEN
100
AcDbCircle
 10
222.0162445580405
 20
315.9077103329639
 30
0.0
 40
5.393090634987452
100
AcDbArc
 50
337.8413802466144
 51
29.68878170953294
  0
LINE
  5
31834E3B
330
318324AF
100
AcDbEntity
  8
JISSEN
100
AcDbLine
 10
226.7013761316826
 20
313.337270471446
 30
0.0
 11
227.4091310947679
 21
314.5631380268187
 31
0.0
  0
LINE
  5
31834E3C
330
318324AF
100
AcDbEntity
  8
JISSEN
100
AcDbLine
 10
226.7013761316826
 20
313.337270471446
 30
0.0
 11
217.4091310947677
 21
313.3372704714464
 31
0.0
  0
LINE
  5
31834E3D
330
318324AF
100
AcDbEntity
  8
JISSEN
100
AcDbLine
 10
227.4091310947679
 20
323.1538465584026
 30
0.0
 11
227.4091310947679
 21
327.7288465584026
 31
0.0
  0
LINE
  5
31834E3E
330
318324AF
100
AcDbEntity
  8
JISSEN
100
AcDbLine
 10
227.4091310947679
 20
323.1538465584026
 30
0.0
 11
227.4091310947679
 21
314.5631380268187
 31
0.0
  0
LINE
  5
31834E3F
330
318324AF
100
AcDbEntity
  8
JISSEN
100
AcDbLine
 10
226.7013761316831
 20
332.9704226453589
 30
0.0
 11
227.4091310947679
 21
331.7445550899866
 31
0.0
  0
LINE
  5
31834E40
330
318324AF
100
AcDbEntity
  8
JISSEN
100
AcDbLine
 10
227.4091310947679
 20
327.7288465584026
 30
0.0
 11
227.4091310947679
 21
331.7445550899867
 31
0.0
  0
ARC
  5
31834E41
330
318324AF
100
AcDbEntity
  8
JISSEN
100
AcDbCircle
 10
222.0162445580406
 20
330.3999827838412
 30
0.0
 40
5.393090634987452
100
AcDbArc
 50
330.3112182904659
 51
22.15861975338183
  0
ARC
  5
31834E42
330
318324AF
100
AcDbEntity
  8
JISSEN
100
AcDbCircle
 10
212.268621168598
 20
323.1538465584026
 30
0.0
 40
15.14050992616996
100
AcDbArc
 50
342.4120462260058
 51
17.58795377399418
  0
LINE
  5
31834E43
330
318324AF
100
AcDbEntity
  8
JISSEN
100
AcDbLine
 10
217.4091310947678
 20
323.1538465584026
 30
0.0
 11
217.4091310947678
 21
335.6246123728985
 31
0.0
  0
LINE
  5
31834E44
330
318324AF
100
AcDbEntity
  8
JISSEN
100
AcDbLine
 10
217.4091310947678
 20
335.6246123728984
 30
0.0
 11
217.4091310947678
 21
331.0204226453589
 31
0.0
  0
ARC
  5
31834E45
330
318324AF
100
AcDbEntity
  8
JISSEN
100
AcDbCircle
 10
211.0345177029786
 20
312.3538465584028
 30
0.0
 40
6.37461339178938
100
AcDbArc
 50
325.6157525319595
 51
34.38424746804027
  0
LINE
  5
31834E46
330
318324AF
100
AcDbEntity
  8
JISSEN
100
AcDbLine
 10
217.4091310947678
 20
310.6830807439068
 30
0.0
 11
217.4091310947678
 21
315.9538465584027
 31
0.0
  0
LINE
  5
31834E47
330
318324AF
100
AcDbEntity
  8
JISSEN
100
AcDbLine
 10
216.2952872184374
 20
308.7538465584027
 30
0.0
 11
217.4091310947678
 21
310.6830807439067
 31
0.0
  0
LINE
  5
31834E48
330
318324AF
100
AcDbEntity
  8
JISSEN
100
AcDbLine
 10
217.4091310947678
 20
323.1538465584026
 30
0.0
 11
217.4091310947678
 21
310.6830807439067
 31
0.0
  0
ARC
  5
31834E49
330
318324AF
100
AcDbEntity
  8
JISSEN
100
AcDbCircle
 10
193.5814433421061
 20
323.1538465584028
 30
0.0
 40
23.82768775266196
100
AcDbArc
 50
342.4120462260061
 51
17.58795377399333
  0
ARC
  5
31834E4A
330
318324AF
100
AcDbEntity
  8
JISSEN
100
AcDbCircle
 10
226.23681884743
 20
323.1538465584028
 30
0.0
 40
23.82768775266196
100
AcDbArc
 50
162.4120462260066
 51
197.5879537739938
  0
LINE
  5
31834E4B
330
318324AF
100
AcDbEntity
  8
JISSEN
100
AcDbLine
 10
202.4091310947679
 20
323.1538465584026
 30
0.0
 11
202.4091310947679
 21
310.6830807439067
 31
0.0
  0
LINE
  5
31834E4C
330
318324AF
100
AcDbEntity
  8
JISSEN
100
AcDbLine
 10
203.5229749710987
 20
308.7538465584027
 30
0.0
 11
216.2952872184374
 21
308.7538465584027
 31
0.0
  0
LINE
  5
31834E4D
330
318324AF
100
AcDbEntity
  8
JISSEN
100
AcDbLine
 10
217.4091310947678
 20
310.6830807439069
 30
0.0
 11
217.4091310947678
 21
323.1538465584026
 31
0.0
  0
LINE
  5
31834E4E
330
318324AF
100
AcDbEntity
  8
JISSEN
100
AcDbLine
 10
203.5229749710987
 20
315.9538465584027
 30
0.0
 11
216.2952872184374
 21
315.9538465584027
 31
0.0
  0
LINE
  5
31834E4F
330
318324AF
100
AcDbEntity
  8
JISSEN
100
AcDbLine
 10
226.7013761316831
 20
318.5788465584027
 30
0.0
 11
217.4091310947678
 21
318.5788465584027
 31
0.0
  0
LINE
  5
31834E50
330
318324AF
100
AcDbEntity
  8
JISSEN
100
AcDbLine
 10
227.4091310947679
 20
323.1538465584026
 30
0.0
 11
227.4091310947679
 21
315.2297141137755
 31
0.0
  0
LINE
  5
31834E51
330
318324AF
100
AcDbEntity
  8
JISSEN
100
AcDbLine
 10
203.5229749710987
 20
308.7538465584027
 30
0.0
 11
202.4091310947679
 21
310.6830807439067
 31
0.0
  0
LINE
  5
31834E52
330
318324AF
100
AcDbEntity
  8
JISSEN
100
AcDbLine
 10
202.4091310947679
 20
310.6830807439068
 30
0.0
 11
202.4091310947679
 21
315.9538465584027
 31
0.0
  0
ARC
  5
31834E53
330
318324AF
100
AcDbEntity
  8
JISSEN
100
AcDbCircle
 10
208.7837444865573
 20
312.3538465584028
 30
0.0
 40
6.37461339178938
100
AcDbArc
 50
145.6157525319596
 51
214.3842474680405
  0
LINE
  5
31834E54
330
318324AF
100
AcDbEntity
  8
JISSEN
100
AcDbLine
 10
202.4091310947679
 20
335.6246123728985
 30
0.0
 11
202.4091310947679
 21
330.3538465584026
 31
0.0
  0
LINE
  5
31834E55
330
318324AF
100
AcDbEntity
  8
JISSEN
100
AcDbLine
 10
227.4091310947679
 20
323.1538465584026
 30
0.0
 11
227.4091310947679
 21
331.7445550899865
 31
0.0
  0
LINE
  5
31834E56
330
318324AF
100
AcDbEntity
  8
JISSEN
100
AcDbLine
 10
226.7013761316828
 20
332.9704226453589
 30
0.0
 11
217.4091310947678
 21
332.9704226453589
 31
0.0
  0
LINE
  5
31834E57
330
318324AF
100
AcDbEntity
  8
JISSEN
100
AcDbLine
 10
226.7013761316831
 20
327.7288465584026
 30
0.0
 11
217.4091310947678
 21
327.7288465584026
 31
0.0
  0
LINE
  5
31834E58
330
318324AF
100
AcDbEntity
  8
JISSEN
100
AcDbLine
 10
203.5229749710984
 20
330.3538465584026
 30
0.0
 11
216.2952872184374
 21
330.3538465584026
 31
0.0
  0
LINE
  5
31834E59
330
318324AF
100
AcDbEntity
  8
JISSEN
100
AcDbLine
 10
217.4091310947678
 20
335.6246123728984
 30
0.0
 11
217.4091310947678
 21
323.1538465584026
 31
0.0
  0
LINE
  5
31834E5A
330
318324AF
100
AcDbEntity
  8
JISSEN
100
AcDbLine
 10
202.4091310947679
 20
323.1538465584026
 30
0.0
 11
202.4091310947679
 21
335.6246123728985
 31
0.0
  0
LINE
  5
31834E5B
330
318324AF
100
AcDbEntity
  8
JISSEN
100
AcDbLine
 10
216.2952872184374
 20
337.5538465584026
 30
0.0
 11
217.4091310947678
 21
335.6246123728985
 31
0.0
  0
ARC
  5
31834E5C
330
318324AF
100
AcDbEntity
  8
JISSEN
100
AcDbCircle
 10
211.0345177029786
 20
333.9538465584025
 30
0.0
 40
6.37461339178938
100
AcDbArc
 50
325.6157525319597
 51
34.38424746804047
  0
ARC
  5
31834E5D
330
318324AF
100
AcDbEntity
  8
JISSEN
100
AcDbCircle
 10
208.7837444865573
 20
333.9538465584025
 30
0.0
 40
6.37461339178938
100
AcDbArc
 50
145.6157525319594
 51
214.3842474680401
  0
LINE
  5
31834E5E
330
318324AF
100
AcDbEntity
  8
JISSEN
100
AcDbLine
 10
203.5229749710987
 20
337.5538465584026
 30
0.0
 11
202.4091310947679
 21
335.6246123728985
 31
0.0
  0
LINE
  5
31834E5F
330
318324AF
100
AcDbEntity
  8
JISSEN
100
AcDbLine
 10
203.5229749710987
 20
337.5538465584026
 30
0.0
 11
216.2952872184374
 21
337.5538465584026
 31
0.0
  0
LINE
  5
31834E6C
330
318324AF
100
AcDbEntity
  8
JISSEN
100
AcDbLine
 10
151.1591310947677
 20
503.3538465584025
 30
0.0
 11
165.6591310947677
 21
503.353846558403
 31
0.0
  0
LWPOLYLINE
  5
31834E92
330
318324AF
100
AcDbEntity
  8
TENSEN
 48
3.0
100
AcDbPolyline
 90
        4
 70
     1
 43
0.0
 10
178.409131094769
 20
508.3538465584028
 10
178.409131094769
 20
587.3576353140528
 10
138.4091310947691
 20
587.3576353140528
 10
138.4091310947691
 20
508.3538465584028
  0
TEXT
  5
31834E95
330
318324AF
100
AcDbEntity
  8
SUNPOU
100
AcDbText
 10
127.3469623466962
 20
625.4109981674668
 30
0.0
 40
7.5
  1
%%u流水検知装置側
100
AcDbText
  0
TEXT
  5
31835201
330
318324AF
100
AcDbEntity
  8
SUNPOU
100
AcDbText
 10
120.2523752379875
 20
119.3246276535338
 30
0.0
 40
7.5
  1
%%uコンプレッサー側
100
AcDbText
  0
INSERT
  5
31835202
330
318324AF
100
AcDbEntity
  8
SAISEN
100
AcDbBlockReference
  2
A$C6D2828F9
 10
152.4091322758172
 20
128.8982944677539
 30
0.0
 41
0.75
 42
0.75
 43
0.75
  0
LINE
  5
3183521E
330
318324AF
100
AcDbEntity
  8
TEXT
100
AcDbLine
 10
178.4091310947691
 20
575.5345296679446
 30
0.0
 11
199.1562983688947
 21
592.6675946322348
 31
0.0
  0
LWPOLYLINE
  5
3183521F
330
318324AF
100
AcDbEntity
  8
TEXT
100
AcDbPolyline
 90
        3
 70
     0
 43
0.0
 10
181.7866760990795
 20
580.2784214680306
 10
178.4091310947691
 20
575.5345296679446
 10
183.70611677097
 20
577.9540879774682
  0
LINE
  5
31835220
330
318324AF
100
AcDbEntity
  8
TEXT
100
AcDbLine
 10
199.1562983688947
 20
592.6675946322348
 30
0.0
 11
225.7245397868621
 21
592.6675946322347
 31
0.0
  0
TEXT
  5
31835221
330
318324AF
100
AcDbEntity
  8
TEXT
100
AcDbText
 10
202.6529868324916
 20
594.1079768040132
 30
0.0
 40
9.0
  1
※2
100
AcDbText
  0
TEXT
  5
31835222
330
318324AF
100
AcDbEntity
  8
SUNPOU
100
AcDbText
 10
227.2863509982375
 20
136.5408821822889
 30
0.0
 40
7.5
  1
※1、※2を附属する対象製品
100
AcDbText
  0
TEXT
  5
31835223
330
318324AF
100
AcDbEntity
  8
SUNPOU
100
AcDbText
 10
237.5007657543292
 20
125.5408821822888
 30
0.0
 40
7.5
  1
予作動式流水検知装置：SPV6  型
100
AcDbText
  0
LINE
  5
31835224
330
318324AF
100
AcDbEntity
  8
SUNPOU
100
AcDbLine
 10
365.6549528269283
 20
125.5563880405679
 30
0.0
 11
370.6549528269283
 21
125.5563880405679
 31
0.0
  0
LINE
  5
31835225
330
318324AF
100
AcDbEntity
  8
SUNPOU
100
AcDbLine
 10
365.6549528269283
 20
133.0563880405679
 30
0.0
 11
370.6549528269283
 21
133.0563880405679
 31
0.0
  0
LINE
  5
31835226
330
318324AF
100
AcDbEntity
  8
SUNPOU
100
AcDbLine
 10
368.1549528269283
 20
133.0563880405679
 30
0.0
 11
368.1549528269283
 21
125.5563880405679
 31
0.0
  0
LINE
  5
31835227
330
318324AF
100
AcDbEntity
  8
SUNPOU
100
AcDbLine
 10
366.6549528269283
 20
133.0563880405679
 30
0.0
 11
366.6549528269283
 21
125.5563880405679
 31
0.0
  0
LINE
  5
31835228
330
318324AF
100
AcDbEntity
  8
SUNPOU
100
AcDbLine
 10
369.6549528269283
 20
133.0563880405679
 30
0.0
 11
369.6549528269283
 21
125.5563880405679
 31
0.0
  0
TEXT
  5
31835229
330
318324AF
100
AcDbEntity
  8
SUNPOU
100
AcDbText
 10
237.5007657543292
 20
114.5408821822889
 30
0.0
 40
7.5
  1
乾式流水検知装置：DHV4型、DHV6型
100
AcDbText
  0
LINE
  5
318355BE
330
318324AF
100
AcDbEntity
  8
JISSEN
100
AcDbLine
 10
149.9091310947672
 20
213.3699476557057
 30
0.0
 11
150.2504561898297
 21
201.8695075158252
 31
0.0
  0
LINE
  5
318355BF
330
318324AF
100
AcDbEntity
  8
JISSEN
100
AcDbLine
 10
150.9387973388523
 20
212.3703877955863
 30
0.0
 11
151.2788017235603
 21
200.9144470218333
 31
0.0
  0
LINE
  5
318355C0
330
318324AF
100
AcDbEntity
  8
JISSEN
100
AcDbLine
 10
150.2504561898297
 20
201.8695075158252
 30
0.0
 11
151.2801224339148
 21
200.8699476557057
 31
0.0
  0
LINE
  5
318355C1
330
318324AF
100
AcDbEntity
  8
JISSEN
100
AcDbLine
 10
149.9091310947672
 20
213.3699476557057
 30
0.0
 11
149.9091310947672
 21
216.3699476557058
 31
0.0
  0
LINE
  5
318355C2
330
318324AF
100
AcDbEntity
  8
JISSEN
100
AcDbLine
 10
149.9091310947672
 20
213.3699476557057
 30
0.0
 11
150.9387973388523
 21
212.3703877955863
 31
0.0
  0
LINE
  5
318355C3
330
318324AF
100
AcDbEntity
  8
JISSEN
100
AcDbLine
 10
149.9091310947672
 20
216.3699476557058
 30
0.0
 11
150.9387973388523
 21
217.3695075158251
 31
0.0
  0
LINE
  5
318355C4
330
318324AF
100
AcDbEntity
  8
JISSEN
100
AcDbLine
 10
150.2504561898297
 20
227.8703877955864
 30
0.0
 11
151.2801224339148
 21
228.8699476557057
 31
0.0
  0
LINE
  5
318355C5
330
318324AF
100
AcDbEntity
  8
JISSEN
100
AcDbLine
 10
150.9387973388523
 20
217.3695075158253
 30
0.0
 11
151.2788017235603
 21
228.825448289578
 31
0.0
  0
LINE
  5
318355C6
330
318324AF
100
AcDbEntity
  8
JISSEN
100
AcDbLine
 10
149.9091310947672
 20
216.3699476557058
 30
0.0
 11
150.2504561898297
 21
227.8703877955864
 31
0.0
  0
LINE
  5
318355C7
330
318324AF
100
AcDbEntity
  8
JISSEN
100
AcDbLine
 10
166.8794648506823
 20
217.3695075158251
 30
0.0
 11
149.9387973388523
 21
217.3695075158251
 31
0.0
  0
LINE
  5
318355C8
330
318324AF
100
AcDbEntity
  8
JISSEN
100
AcDbLine
 10
166.8794648506823
 20
212.3703877955863
 30
0.0
 11
149.9387973388523
 21
212.3703877955865
 31
0.0
  0
LINE
  5
318355C9
330
318324AF
100
AcDbEntity
  8
JISSEN
100
AcDbLine
 10
166.567805999705
 20
227.8703877955864
 30
0.0
 11
150.2504561898297
 21
227.8703877955864
 31
0.0
  0
LINE
  5
318355CA
330
318324AF
100
AcDbEntity
  8
JISSEN
100
AcDbLine
 10
166.5678059997048
 20
201.8695075158252
 30
0.0
 11
150.2504561898298
 21
201.869507515825
 31
0.0
  0
LINE
  5
318355CB
330
318324AF
100
AcDbEntity
  8
JISSEN
100
AcDbLine
 10
165.53813975562
 20
228.8699476557058
 30
0.0
 11
151.2801224339148
 21
228.8699476557058
 31
0.0
  0
LINE
  5
318355CC
330
318324AF
100
AcDbEntity
  8
JISSEN
100
AcDbLine
 10
166.9091310947674
 20
216.3699476557058
 30
0.0
 11
166.5678059997049
 21
227.8703877955864
 31
0.0
  0
LINE
  5
318355CD
330
318324AF
100
AcDbEntity
  8
JISSEN
100
AcDbLine
 10
165.8794648506823
 20
217.3695075158253
 30
0.0
 11
165.5394604659744
 21
228.825448289578
 31
0.0
  0
LINE
  5
318355CE
330
318324AF
100
AcDbEntity
  8
JISSEN
100
AcDbLine
 10
166.5678059997049
 20
227.8703877955864
 30
0.0
 11
165.5381397556198
 21
228.8699476557057
 31
0.0
  0
LINE
  5
318355CF
330
318324AF
100
AcDbEntity
  8
JISSEN
100
AcDbLine
 10
166.9091310947674
 20
216.3699476557058
 30
0.0
 11
165.8794648506823
 21
217.3695075158251
 31
0.0
  0
LINE
  5
318355D0
330
318324AF
100
AcDbEntity
  8
JISSEN
100
AcDbLine
 10
166.9091310947674
 20
213.3699476557057
 30
0.0
 11
165.8794648506823
 21
212.3703877955863
 31
0.0
  0
LINE
  5
318355D1
330
318324AF
100
AcDbEntity
  8
JISSEN
100
AcDbLine
 10
166.9091310947674
 20
213.3699476557057
 30
0.0
 11
166.9091310947674
 21
216.3699476557058
 31
0.0
  0
LINE
  5
318355D2
330
318324AF
100
AcDbEntity
  8
JISSEN
100
AcDbLine
 10
166.5678059997049
 20
201.8695075158252
 30
0.0
 11
165.5381397556198
 21
200.8699476557057
 31
0.0
  0
LINE
  5
318355D3
330
318324AF
100
AcDbEntity
  8
JISSEN
100
AcDbLine
 10
165.8794648506823
 20
212.3703877955863
 30
0.0
 11
165.5394604659744
 21
200.9144470218333
 31
0.0
  0
LINE
  5
318355D4
330
318324AF
100
AcDbEntity
  8
JISSEN
100
AcDbLine
 10
166.9091310947674
 20
213.3699476557057
 30
0.0
 11
166.5678059997049
 21
201.8695075158252
 31
0.0
  0
LINE
  5
318355D5
330
318324AF
100
AcDbEntity
  8
JISSEN
100
AcDbLine
 10
165.5381397556198
 20
200.8699476557058
 30
0.0
 11
151.2801224339148
 21
200.8699476557057
 31
0.0
  0
LINE
  5
318355D6
330
318324AF
100
AcDbEntity
  8
JISSEN
100
AcDbLine
 10
144.4091310947672
 20
161.8699476557056
 30
0.0
 11
144.4091310947672
 21
180.2000746746286
 31
0.0
  0
LINE
  5
318355D7
330
318324AF
100
AcDbEntity
  8
JISSEN
100
AcDbLine
 10
150.1562043941387
 20
186.8049520916001
 30
0.0
 11
158.4091310947672
 21
186.8049520916001
 31
0.0
  0
ARC
  5
318355D8
330
318324AF
100
AcDbEntity
  8
JISSEN
100
AcDbCircle
 10
149.409131094767
 20
180.2000746746287
 30
0.0
 40
5.0
100
AcDbArc
 50
149.9999999999987
 51
180.0000000000007
  0
ARC
  5
318355D9
330
318324AF
100
AcDbEntity
  8
JISSEN
100
AcDbCircle
 10
141.9091310947672
 20
187.2096936178612
 30
0.0
 40
5.0
100
AcDbArc
 50
329.9999999999987
 51
0.0000000000016284
  0
LINE
  5
318355DA
330
318324AF
100
AcDbEntity
  8
JISSEN
100
AcDbLine
 10
146.239258113689
 20
184.7096936178614
 30
0.0
 11
145.079004075845
 21
182.7000746746286
 31
0.0
  0
LINE
  5
318355DB
330
318324AF
100
AcDbEntity
  8
JISSEN
100
AcDbLine
 10
146.9091310947668
 20
195.8699476557058
 30
0.0
 11
146.9091310947668
 21
187.2096936178614
 31
0.0
  0
LINE
  5
318355DC
330
318324AF
100
AcDbEntity
  8
JISSEN
100
AcDbLine
 10
166.6620577953956
 20
186.8049520916001
 30
0.0
 11
158.4091310947672
 21
186.8049520916001
 31
0.0
  0
LINE
  5
318355DD
330
318324AF
100
AcDbEntity
  8
JISSEN
100
AcDbLine
 10
146.9091310947668
 20
180.45945853186
 30
0.0
 11
169.9091310947672
 21
180.4594585318599
 31
0.0
  0
LINE
  5
318355DE
330
318324AF
100
AcDbEntity
  8
JISSEN
100
AcDbLine
 10
169.9091310947677
 20
195.8699476557058
 30
0.0
 11
169.9091310947677
 21
187.2096936178614
 31
0.0
  0
LINE
  5
318355DF
330
318324AF
100
AcDbEntity
  8
JISSEN
100
AcDbLine
 10
172.4091310947672
 20
161.8699476557056
 30
0.0
 11
172.4091310947672
 21
180.2000746746286
 31
0.0
  0
LINE
  5
318355E0
330
318324AF
100
AcDbEntity
  8
JISSEN
100
AcDbLine
 10
170.5790040758454
 20
184.7096936178614
 30
0.0
 11
171.7392581136894
 21
182.7000746746286
 31
0.0
  0
ARC
  5
318355E1
330
318324AF
100
AcDbEntity
  8
JISSEN
100
AcDbCircle
 10
174.9091310947674
 20
187.2096936178612
 30
0.0
 40
5.0
100
AcDbArc
 50
179.9999999999983
 51
210.0000000000012
  0
ARC
  5
318355E2
330
318324AF
100
AcDbEntity
  8
JISSEN
100
AcDbCircle
 10
167.4091310947674
 20
180.2000746746287
 30
0.0
 40
5.0
100
AcDbArc
 50
359.9999999999992
 51
30.00000000000125
  0
LINE
  5
318355E3
330
318324AF
100
AcDbEntity
  8
JISSEN
100
AcDbLine
 10
144.4091310947672
 20
161.8699476557056
 30
0.0
 11
172.4091310947672
 21
161.8699476557056
 31
0.0
  0
LINE
  5
318355E4
330
318324AF
100
AcDbEntity
  8
JISSEN
100
AcDbLine
 10
146.9091310947668
 20
195.8699476557058
 30
0.0
 11
169.9091310947672
 21
195.8699476557057
 31
0.0
  0
LINE
  5
318355E5
330
318324AF
100
AcDbEntity
  8
TEXT
100
AcDbLine
 10
117.6619638206416
 20
150.0144839300629
 30
0.0
 11
91.09372240267436
 21
150.014483930063
 31
0.0
  0
LWPOLYLINE
  5
318355E6
330
318324AF
100
AcDbEntity
  8
TEXT
100
AcDbPolyline
 90
        3
 70
     0
 43
0.0
 10
135.0315860904569
 20
162.4036570942672
 10
138.4091310947673
 20
167.1475488943532
 10
133.1121454185663
 20
164.7279905848296
  0
LINE
  5
318355E7
330
318324AF
100
AcDbEntity
  8
TEXT
100
AcDbLine
 10
138.4091310947673
 20
167.1475488943531
 30
0.0
 11
117.6619638206416
 21
150.0144839300629
 31
0.0
  0
LWPOLYLINE
  5
318355E8
330
318324AF
100
AcDbEntity
  8
TENSEN
 48
3.0
100
AcDbPolyline
 90
        4
 70
     1
 43
0.0
 10
138.4091310947673
 20
234.8718420335307
 10
138.4091310947673
 20
155.8680532778806
 10
178.4091310947673
 20
155.8680532778806
 10
178.4091310947673
 20
234.8718420335307
  0
TEXT
  5
318355EA
330
318324AF
100
AcDbEntity
  8
TEXT
100
AcDbText
 10
95.20536554335791
 20
151.0304448021972
 30
0.0
 40
9.0
  1
※1
100
AcDbText
  0
TEXT
  5
318355EB
330
318324AF
100
AcDbEntity
  8
SUNPOU
100
AcDbText
 10
237.5007657543292
 20
86.36544204260871
 30
0.0
 40
7.5
  1
予作動式流水検知装置：SPV100　型、150　型
100
AcDbText
  0
TEXT
  5
318355EC
330
318324AF
100
AcDbEntity
  8
SUNPOU
100
AcDbText
 10
227.2863509982375
 20
97.36544204260873
 30
0.0
 40
7.5
  1
※1のみを附属する対象製品
100
AcDbText
  0
LINE
  5
318355ED
330
318324AF
100
AcDbEntity
  8
SUNPOU
100
AcDbLine
 10
380.7507219707663
 20
93.86513062546146
 30
0.0
 11
385.7507219707663
 21
93.86513062546146
 31
0.0
  0
LINE
  5
318355EE
330
318324AF
100
AcDbEntity
  8
SUNPOU
100
AcDbLine
 10
380.7507219707663
 20
86.36513062546146
 30
0.0
 11
385.7507219707663
 21
86.36513062546146
 31
0.0
  0
LINE
  5
318355EF
330
318324AF
100
AcDbEntity
  8
SUNPOU
100
AcDbLine
 10
382.2507219707663
 20
93.86513062546146
 30
0.0
 11
382.2507219707663
 21
86.36513062546146
 31
0.0
  0
LINE
  5
318355F0
330
318324AF
100
AcDbEntity
  8
SUNPOU
100
AcDbLine
 10
384.2507219707663
 20
93.86513062546146
 30
0.0
 11
384.2507219707663
 21
86.36513062546146
 31
0.0
  0
LINE
  5
318355F1
330
318324AF
100
AcDbEntity
  8
SUNPOU
100
AcDbLine
 10
432.1010022094965
 20
93.86513062546146
 30
0.0
 11
432.1010022094965
 21
86.36513062546146
 31
0.0
  0
LINE
  5
318355F2
330
318324AF
100
AcDbEntity
  8
SUNPOU
100
AcDbLine
 10
430.1010022094965
 20
93.86513062546146
 30
0.0
 11
430.1010022094965
 21
86.36513062546146
 31
0.0
  0
LINE
  5
318355F3
330
318324AF
100
AcDbEntity
  8
SUNPOU
100
AcDbLine
 10
428.6010022094965
 20
86.36513062546146
 30
0.0
 11
433.6010022094965
 21
86.36513062546146
 31
0.0
  0
LINE
  5
318355F4
330
318324AF
100
AcDbEntity
  8
SUNPOU
100
AcDbLine
 10
428.6010022094965
 20
93.86513062546146
 30
0.0
 11
433.6010022094965
 21
93.86513062546146
 31
0.0
  0
ENDSEC
  0
SECTION
  2
OBJECTS
  0
DICTIONARY
  5
318324A3
330
0
100
AcDbDictionary
281
     1
  3
ACAD_GROUP
350
318324A4
  3
ACAD_LAYOUT
350
31832E15
  3
ACAD_MLINESTYLE
350
318324A5
  3
ACAD_PLOTSETTINGS
350
31832E16
  3
ACAD_PLOTSTYLENAME
350
31832E13
  3
ACDBHEADERROUNDTRIPXREC
350
31835608
  3
ACDBVARIABLEDICTIONARY
350
31833AEF
  0
DICTIONARY
  5
31833AFE
330
31832499
100
AcDbDictionary
280
     1
281
     1
  3
ACAD_LAYERSTATES
360
31833AFF
  0
DICTIONARY
  5
31832E50
330
318324AF
100
AcDbDictionary
280
     1
281
     1
  3
ACAD_LAYOUTSELFREF
360
31834F34
  0
DICTIONARY
  5
31832E4E
330
318324AC
100
AcDbDictionary
280
     1
281
     1
  3
ACAD_LAYOUTSELFREF
360
31834F33
  0
DICTIONARY
  5
318324A4
102
{ACAD_REACTORS
330
318324A3
102
}
330
318324A3
100
AcDbDictionary
281
     1
  0
DICTIONARY
  5
31832E15
102
{ACAD_REACTORS
330
318324A3
102
}
330
318324A3
100
AcDbDictionary
281
     1
  3
Model
350
31834F3A
  3
ﾚｲｱｳﾄ1
350
31834F3B
  0
DICTIONARY
  5
318324A5
102
{ACAD_REACTORS
330
318324A3
102
}
330
318324A3
100
AcDbDictionary
281
     1
  3
STANDARD
350
318324B2
  0
DICTIONARY
  5
31832E16
102
{ACAD_REACTORS
330
318324A3
102
}
330
318324A3
100
AcDbDictionary
281
     1
  0
ACDBDICTIONARYWDFLT
  5
31832E13
102
{ACAD_REACTORS
330
318324A3
102
}
330
318324A3
100
AcDbDictionary
281
     1
  3
Normal
350
31832E14
100
AcDbDictionaryWithDefault
340
31832E14
  0
DICTIONARY
  5
31835608
102
{ACAD_REACTORS
330
318324A3
102
}
330
318324A3
100
AcDbDictionary
281
     1
  3
CEPSNTYPE
350
31835612
  3
DIMSTYLEDATA
350
31835616
  3
FINGERPRINTGUID
350
31835613
  3
HYPERLINKBASE
350
3183560B
  3
INSUNITS
350
31835611
  3
LAYOUTDICT
350
3183560D
  3
LWETCUNION
350
31835610
  3
PLOTSETDICT
350
3183560E
  3
PLOTSTYLNAMDICT
350
3183560F
  3
PSVPSCALE
350
31835615
  3
PUCSBASE
350
31835619
  3
PUCSORGBACK
350
3183561F
  3
PUCSORGBOTTOM
350
3183561B
  3
PUCSORGFRONT
350
3183561E
  3
PUCSORGLEFT
350
3183561C
  3
PUCSORGRIGHT
350
3183561D
  3
PUCSORGTOP
350
3183561A
  3
PUCSORTHOREF
350
31835617
  3
PUCSORTHOVIEW
350
31835618
  3
STYLESHEET
350
3183560C
  3
TSTACKALIGN
350
31835609
  3
TSTACKSIZE
350
3183560A
  3
UCSBASE
350
31835622
  3
UCSORGBACK
350
31835628
  3
UCSORGBOTTOM
350
31835624
  3
UCSORGFRONT
350
31835627
  3
UCSORGLEFT
350
31835625
  3
UCSORGRIGHT
350
31835626
  3
UCSORGTOP
350
31835623
  3
UCSORTHOREF
350
31835620
  3
UCSORTHOVIEW
350
31835621
  3
VERSIONGUID
350
31835614
  0
DICTIONARY
  5
31833AEF
102
{ACAD_REACTORS
330
318324A3
102
}
330
318324A3
100
AcDbDictionary
281
     1
  3
DIMASSOC
350
31833AF0
  0
DICTIONARY
  5
31833AFF
102
{ACAD_REACTORS
330
31833AFE
102
}
330
31833AFE
100
AcDbDictionary
281
     1
  0
XRECORD
  5
31834F34
102
{ACAD_REACTORS
330
31832E50
102
}
330
31832E50
100
AcDbXrecord
280
     1
340
318324AF
  0
XRECORD
  5
31834F33
102
{ACAD_REACTORS
330
31832E4E
102
}
330
31832E4E
100
AcDbXrecord
280
     1
340
318324AC
  0
LAYOUT
  5
31834F3A
102
{ACAD_REACTORS
330
31832E15
102
}
330
31832E15
100
AcDbPlotSettings
  1

  2
RICOH imagio Neo C355 RPCS
  4

  6

 40
0.0
 41
0.0
 42
0.0
 43
0.0
 44
0.0
 45
0.0
 46
0.0
 47
0.0
 48
0.0
 49
0.0
140
0.0
141
0.0
142
1.0
143
1.0
 70
  1712
 72
     0
 73
     0
 74
     0
  7
aclt.ctb
 75
     0
147
1.0
148
0.0
149
0.0
100
AcDbLayout
  1
Model
 70
     1
 71
     0
 10
0.0
 20
0.0
 11
12.0
 21
9.0
 12
0.0
 22
0.0
 32
0.0
 14
0.0
 24
0.0
 34
0.0
 15
0.0
 25
0.0
 35
0.0
146
0.0
 13
0.0
 23
0.0
 33
0.0
 16
1.0
 26
0.0
 36
0.0
 17
0.0
 27
1.0
 37
0.0
 76
     0
330
318324AF
  0
LAYOUT
  5
31834F3B
102
{ACAD_REACTORS
330
31832E15
102
}
330
31832E15
100
AcDbPlotSettings
  1

  2
RICOH imagio Neo C355 RPCS
  4

  6

 40
0.0
 41
0.0
 42
0.0
 43
0.0
 44
0.0
 45
0.0
 46
0.0
 47
0.0
 48
0.0
 49
0.0
140
0.0
141
0.0
142
1.0
143
1.0
 70
   688
 72
     0
 73
     0
 74
     5
  7
aclt.ctb
 75
    16
147
1.0
148
0.0
149
0.0
100
AcDbLayout
  1
ﾚｲｱｳﾄ1
 70
     0
 71
     1
 10
0.0
 20
0.0
 11
12.0
 21
9.0
 12
0.0
 22
0.0
 32
0.0
 14
1.000000000000000E+20
 24
1.000000000000000E+20
 34
1.000000000000000E+20
 15
-1.000000000000000E+20
 25
-1.000000000000000E+20
 35
-1.000000000000000E+20
146
0.0
 13
0.0
 23
0.0
 33
0.0
 16
1.0
 26
0.0
 36
0.0
 17
0.0
 27
1.0
 37
0.0
 76
     0
330
318324AC
  0
MLINESTYLE
  5
318324B2
102
{ACAD_REACTORS
330
318324A5
102
}
330
318324A5
100
AcDbMlineStyle
  2
STANDARD
 70
     0
  3

 62
     0
 51
90.0
 52
90.0
 71
     2
 49
0.5
 62
   256
  6
BYLAYER
 49
-0.5
 62
   256
  6
BYLAYER
  0
ACDBPLACEHOLDER
  5
31832E14
102
{ACAD_REACTORS
330
31832E13
102
}
330
31832E13
  0
XRECORD
  5
31835612
102
{ACAD_REACTORS
330
31835608
102
}
330
31835608
100
AcDbXrecord
280
     1
 90
        0
  0
XRECORD
  5
31835616
102
{ACAD_REACTORS
330
31835608
102
}
330
31835608
100
AcDbXrecord
280
     1
1000
DSTYLE
1002
{
1070
   341
340
318324B9
1070
   342
340
318324B9
1070
   343
340
318324B9
1070
   344
340
318324B9
1002
}
  0
XRECORD
  5
31835613
102
{ACAD_REACTORS
330
31835608
102
}
330
31835608
100
AcDbXrecord
280
     1
  1
{66710F49-AE06-4EF0-8763-8658C3560B55}
  0
XRECORD
  5
3183560B
102
{ACAD_REACTORS
330
31835608
102
}
330
31835608
100
AcDbXrecord
280
     1
  1

  0
XRECORD
  5
31835611
102
{ACAD_REACTORS
330
31835608
102
}
330
31835608
100
AcDbXrecord
280
     1
 90
        0
  0
XRECORD
  5
3183560D
102
{ACAD_REACTORS
330
31835608
102
}
330
31835608
100
AcDbXrecord
280
     1
340
31832E15
  0
XRECORD
  5
31835610
102
{ACAD_REACTORS
330
31835608
102
}
330
31835608
100
AcDbXrecord
280
     1
 90
    10781
  0
XRECORD
  5
3183560E
102
{ACAD_REACTORS
330
31835608
102
}
330
31835608
100
AcDbXrecord
280
     1
340
31832E16
  0
XRECORD
  5
3183560F
102
{ACAD_REACTORS
330
31835608
102
}
330
31835608
100
AcDbXrecord
280
     1
340
31832E13
  0
XRECORD
  5
31835615
102
{ACAD_REACTORS
330
31835608
102
}
330
31835608
100
AcDbXrecord
280
     1
 40
0.0
  0
XRECORD
  5
31835619
102
{ACAD_REACTORS
330
31835608
102
}
330
31835608
100
AcDbXrecord
280
     1
340
0
  0
XRECORD
  5
3183561F
102
{ACAD_REACTORS
330
31835608
102
}
330
31835608
100
AcDbXrecord
280
     1
 10
0.0
 20
0.0
 30
0.0
  0
XRECORD
  5
3183561B
102
{ACAD_REACTORS
330
31835608
102
}
330
31835608
100
AcDbXrecord
280
     1
 10
0.0
 20
0.0
 30
0.0
  0
XRECORD
  5
3183561E
102
{ACAD_REACTORS
330
31835608
102
}
330
31835608
100
AcDbXrecord
280
     1
 10
0.0
 20
0.0
 30
0.0
  0
XRECORD
  5
3183561C
102
{ACAD_REACTORS
330
31835608
102
}
330
31835608
100
AcDbXrecord
280
     1
 10
0.0
 20
0.0
 30
0.0
  0
XRECORD
  5
3183561D
102
{ACAD_REACTORS
330
31835608
102
}
330
31835608
100
AcDbXrecord
280
     1
 10
0.0
 20
0.0
 30
0.0
  0
XRECORD
  5
3183561A
102
{ACAD_REACTORS
330
31835608
102
}
330
31835608
100
AcDbXrecord
280
     1
 10
0.0
 20
0.0
 30
0.0
  0
XRECORD
  5
31835617
102
{ACAD_REACTORS
330
31835608
102
}
330
31835608
100
AcDbXrecord
280
     1
340
0
  0
XRECORD
  5
31835618
102
{ACAD_REACTORS
330
31835608
102
}
330
31835608
100
AcDbXrecord
280
     1
 70
     0
  0
XRECORD
  5
3183560C
102
{ACAD_REACTORS
330
31835608
102
}
330
31835608
100
AcDbXrecord
280
     1
  1
aclt.ctb
  0
XRECORD
  5
31835609
102
{ACAD_REACTORS
330
31835608
102
}
330
31835608
100
AcDbXrecord
280
     1
 90
        1
  0
XRECORD
  5
3183560A
102
{ACAD_REACTORS
330
31835608
102
}
330
31835608
100
AcDbXrecord
280
     1
 90
       70
  0
XRECORD
  5
31835622
102
{ACAD_REACTORS
330
31835608
102
}
330
31835608
100
AcDbXrecord
280
     1
340
0
  0
XRECORD
  5
31835628
102
{ACAD_REACTORS
330
31835608
102
}
330
31835608
100
AcDbXrecord
280
     1
 10
0.0
 20
0.0
 30
0.0
  0
XRECORD
  5
31835624
102
{ACAD_REACTORS
330
31835608
102
}
330
31835608
100
AcDbXrecord
280
     1
 10
0.0
 20
0.0
 30
0.0
  0
XRECORD
  5
31835627
102
{ACAD_REACTORS
330
31835608
102
}
330
31835608
100
AcDbXrecord
280
     1
 10
0.0
 20
0.0
 30
0.0
  0
XRECORD
  5
31835625
102
{ACAD_REACTORS
330
31835608
102
}
330
31835608
100
AcDbXrecord
280
     1
 10
0.0
 20
0.0
 30
0.0
  0
XRECORD
  5
31835626
102
{ACAD_REACTORS
330
31835608
102
}
330
31835608
100
AcDbXrecord
280
     1
 10
0.0
 20
0.0
 30
0.0
  0
XRECORD
  5
31835623
102
{ACAD_REACTORS
330
31835608
102
}
330
31835608
100
AcDbXrecord
280
     1
 10
0.0
 20
0.0
 30
0.0
  0
XRECORD
  5
31835620
102
{ACAD_REACTORS
330
31835608
102
}
330
31835608
100
AcDbXrecord
280
     1
340
0
  0
XRECORD
  5
31835621
102
{ACAD_REACTORS
330
31835608
102
}
330
31835608
100
AcDbXrecord
280
     1
 70
     0
  0
XRECORD
  5
31835614
102
{ACAD_REACTORS
330
31835608
102
}
330
31835608
100
AcDbXrecord
280
     1
  1
{C028CACF-0EDE-45BA-B6E6-24E464242837}
  0
DICTIONARYVAR
  5
31833AF0
102
{ACAD_REACTORS
330
31833AEF
102
}
330
31833AEF
100
DictionaryVariables
280
     0
  1
0
  0
ENDSEC
  0
EOF
