  0
SECTION
  2
HEADER
  9
$ACADVER
  1
AC1015
  9
$ACADMAINTVER
 70
    10
  9
$DWGCODEPAGE
  3
ANSI_932
  9
$INSBASE
 10
0.0
 20
0.0
 30
0.0
  9
$EXTMIN
 10
-0.0110469500656336
 20
-0.0083307995328141
 30
-0.0512767437639923
  9
$EXTMAX
 10
120.6813961339021
 20
182.0097202420112
 30
160.0725701836595
  9
$LIMMIN
 10
-0.000000110159931
 20
0.000000068675547
  9
$LIMMAX
 10
120.6666665565067
 20
182.0000007966754
  9
$ORTHOMODE
 70
     1
  9
$REGENMODE
 70
     1
  9
$FILLMODE
 70
     1
  9
$QTEXTMODE
 70
     0
  9
$MIRRTEXT
 70
     0
  9
$LTSCALE
 40
5.0
  9
$ATTMODE
 70
     1
  9
$TEXTSIZE
 40
6.0
  9
$TRACEWID
 40
0.05
  9
$TEXTSTYLE
  7
K
  9
$CLAYER
  8
JISSEN
  9
$CELTYPE
  6
BYLAYER
  9
$CECOLOR
 62
   256
  9
$CELTSCALE
 40
1.0
  9
$DISPSILH
 70
     0
  9
$DIMSCALE
 40
1.0
  9
$DIMASZ
 40
1.099999999999998
  9
$DIMEXO
 40
1.0
  9
$DIMDLI
 40
6.0
  9
$DIMRND
 40
0.0
  9
$DIMDLE
 40
0.0
  9
$DIMEXE
 40
1.0
  9
$DIMTP
 40
0.0
  9
$DIMTM
 40
0.0
  9
$DIMTXT
 40
3.0
  9
$DIMCEN
 40
1.0
  9
$DIMTSZ
 40
0.0
  9
$DIMTOL
 70
     0
  9
$DIMLIM
 70
     0
  9
$DIMTIH
 70
     0
  9
$DIMTOH
 70
     0
  9
$DIMSE1
 70
     0
  9
$DIMSE2
 70
     0
  9
$DIMTAD
 70
     0
  9
$DIMZIN
 70
     8
  9
$DIMBLK
  1
ARROW
  9
$DIMASO
 70
     0
  9
$DIMSHO
 70
     0
  9
$DIMPOST
  1

  9
$DIMAPOST
  1

  9
$DIMALT
 70
     0
  9
$DIMALTD
 70
     2
  9
$DIMALTF
 40
25.4
  9
$DIMLFAC
 40
1.0
  9
$DIMTOFL
 70
     1
  9
$DIMTVP
 40
1.0
  9
$DIMTIX
 70
     0
  9
$DIMSOXD
 70
     0
  9
$DIMSAH
 70
     0
  9
$DIMBLK1
  1

  9
$DIMBLK2
  1

  9
$DIMSTYLE
  2
IMAO
  9
$DIMCLRD
 70
     0
  9
$DIMCLRE
 70
     0
  9
$DIMCLRT
 70
     0
  9
$DIMTFAC
 40
1.0
  9
$DIMGAP
 40
0.09
  9
$DIMJUST
 70
     0
  9
$DIMSD1
 70
     0
  9
$DIMSD2
 70
     0
  9
$DIMTOLJ
 70
     1
  9
$DIMTZIN
 70
     0
  9
$DIMALTZ
 70
     0
  9
$DIMALTTZ
 70
     0
  9
$DIMUPT
 70
     0
  9
$DIMDEC
 70
     2
  9
$DIMTDEC
 70
     2
  9
$DIMALTU
 70
     2
  9
$DIMALTTD
 70
     2
  9
$DIMTXSTY
  7
STANDARD
  9
$DIMAUNIT
 70
     0
  9
$DIMADEC
 70
     0
  9
$DIMALTRND
 40
0.0
  9
$DIMAZIN
 70
     0
  9
$DIMDSEP
 70
    46
  9
$DIMATFIT
 70
     3
  9
$DIMFRAC
 70
     0
  9
$DIMLDRBLK
  1
ARROW
  9
$DIMLUNIT
 70
     2
  9
$DIMLWD
 70
    -2
  9
$DIMLWE
 70
    -2
  9
$DIMTMOVE
 70
     0
  9
$LUNITS
 70
     2
  9
$LUPREC
 70
     2
  9
$SKETCHINC
 40
0.1
  9
$FILLETRAD
 40
0.3
  9
$AUNITS
 70
     0
  9
$AUPREC
 70
     2
  9
$MENU
  1
stdr12j
  9
$ELEVATION
 40
0.0
  9
$PELEVATION
 40
0.0
  9
$THICKNESS
 40
0.0
  9
$LIMCHECK
 70
     0
  9
$CHAMFERA
 40
0.0
  9
$CHAMFERB
 40
0.0
  9
$CHAMFERC
 40
0.0
  9
$CHAMFERD
 40
0.0
  9
$SKPOLY
 70
     0
  9
$TDCREATE
 40
2450542.749144212
  9
$TDUCREATE
 40
2450542.374144212
  9
$TDUPDATE
 40
2456759.677698576
  9
$TDUUPDATE
 40
2456759.302698576
  9
$TDINDWG
 40
1.5080782523
  9
$TDUSRTIMER
 40
1.5080776736
  9
$USRTIMER
 70
     1
  9
$ANGBASE
 50
0.0
  9
$ANGDIR
 70
     0
  9
$PDMODE
 70
     0
  9
$PDSIZE
 40
0.0
  9
$PLINEWID
 40
0.0
  9
$SPLFRAME
 70
     0
  9
$SPLINETYPE
 70
     6
  9
$SPLINESEGS
 70
     8
  9
$HANDSEED
  5
E00EDE8F
  9
$SURFTAB1
 70
     6
  9
$SURFTAB2
 70
     6
  9
$SURFTYPE
 70
     6
  9
$SURFU
 70
     6
  9
$SURFV
 70
     6
  9
$UCSBASE
  2

  9
$UCSNAME
  2

  9
$UCSORG
 10
0.0
 20
0.0
 30
0.0
  9
$UCSXDIR
 10
1.0
 20
0.0
 30
0.0
  9
$UCSYDIR
 10
0.0
 20
1.0
 30
0.0
  9
$UCSORTHOREF
  2

  9
$UCSORTHOVIEW
 70
     0
  9
$UCSORGTOP
 10
0.0
 20
0.0
 30
0.0
  9
$UCSORGBOTTOM
 10
0.0
 20
0.0
 30
0.0
  9
$UCSORGLEFT
 10
0.0
 20
0.0
 30
0.0
  9
$UCSORGRIGHT
 10
0.0
 20
0.0
 30
0.0
  9
$UCSORGFRONT
 10
0.0
 20
0.0
 30
0.0
  9
$UCSORGBACK
 10
0.0
 20
0.0
 30
0.0
  9
$PUCSBASE
  2

  9
$PUCSNAME
  2

  9
$PUCSORG
 10
0.0
 20
0.0
 30
0.0
  9
$PUCSXDIR
 10
1.0
 20
0.0
 30
0.0
  9
$PUCSYDIR
 10
0.0
 20
1.0
 30
0.0
  9
$PUCSORTHOREF
  2

  9
$PUCSORTHOVIEW
 70
     0
  9
$PUCSORGTOP
 10
0.0
 20
0.0
 30
0.0
  9
$PUCSORGBOTTOM
 10
0.0
 20
0.0
 30
0.0
  9
$PUCSORGLEFT
 10
0.0
 20
0.0
 30
0.0
  9
$PUCSORGRIGHT
 10
0.0
 20
0.0
 30
0.0
  9
$PUCSORGFRONT
 10
0.0
 20
0.0
 30
0.0
  9
$PUCSORGBACK
 10
0.0
 20
0.0
 30
0.0
  9
$USERI1
 70
     4
  9
$USERI2
 70
     1
  9
$USERI3
 70
     1
  9
$USERI4
 70
     2
  9
$USERI5
 70
     0
  9
$USERR1
 40
1.0
  9
$USERR2
 40
3.0
  9
$USERR3
 40
3.0
  9
$USERR4
 40
1.5
  9
$USERR5
 40
8.0
  9
$WORLDVIEW
 70
     1
  9
$SHADEDGE
 70
     3
  9
$SHADEDIF
 70
    70
  9
$TILEMODE
 70
     1
  9
$MAXACTVP
 70
    16
  9
$PINSBASE
 10
0.0
 20
0.0
 30
0.0
  9
$PLIMCHECK
 70
     0
  9
$PEXTMIN
 10
1.000000000000000E+20
 20
1.000000000000000E+20
 30
1.000000000000000E+20
  9
$PEXTMAX
 10
-1.000000000000000E+20
 20
-1.000000000000000E+20
 30
-1.000000000000000E+20
  9
$PLIMMIN
 10
0.0
 20
0.0
  9
$PLIMMAX
 10
12.0
 20
9.0
  9
$UNITMODE
 70
     0
  9
$VISRETAIN
 70
     0
  9
$PLINEGEN
 70
     0
  9
$PSLTSCALE
 70
     0
  9
$TREEDEPTH
 70
  3020
  9
$CMLSTYLE
  2
STANDARD
  9
$CMLJUST
 70
     0
  9
$CMLSCALE
 40
1.0
  9
$PROXYGRAPHICS
 70
     1
  9
$MEASUREMENT
 70
     0
  9
$CELWEIGHT
370
    -1
  9
$ENDCAPS
280
     0
  9
$JOINSTYLE
280
     0
  9
$LWDISPLAY
290
     0
  9
$INSUNITS
 70
     0
  9
$HYPERLINKBASE
  1

  9
$STYLESHEET
  1
aclt.ctb
  9
$XEDIT
290
     1
  9
$CEPSNTYPE
380
     0
  9
$PSTYLEMODE
290
     1
  9
$FINGERPRINTGUID
  2
{3644D75A-AD60-4D58-9D7E-D616B61E4E68}
  9
$VERSIONGUID
  2
{A03A2CE8-FFCF-4692-9858-6B1F493872A0}
  9
$EXTNAMES
290
     1
  9
$PSVPSCALE
 40
0.0
  9
$OLESTARTUP
290
     0
  0
ENDSEC
  0
SECTION
  2
CLASSES
  0
CLASS
  1
LWPOLYLINE
  2
AcDbPolyline
  3
AutoCAD 2000
 90
    32768
280
     0
281
     1
  0
CLASS
  1
DICTIONARYVAR
  2
AcDbDictionaryVar
  3
AutoCAD 2000
 90
        0
280
     0
281
     0
  0
CLASS
  1
HATCH
  2
AcDbHatch
  3
AutoCAD 2000
 90
    32768
280
     0
281
     1
  0
CLASS
  1
ACDBDICTIONARYWDFLT
  2
AcDbDictionaryWithDefault
  3
AutoCAD 2000
 90
        0
280
     0
281
     0
  0
CLASS
  1
ACDBPLACEHOLDER
  2
AcDbPlaceHolder
  3
AutoCAD 2000
 90
        0
280
     0
281
     0
  0
CLASS
  1
LAYOUT
  2
AcDbLayout
  3
AutoCAD 2000
 90
        0
280
     0
281
     0
  0
CLASS
  1
LONG_TRANSACTION
  2
AcDbLongTransaction
  3
AutoCAD 2000
 90
    32768
280
     0
281
     0
  0
CLASS
  1
LWPOLYLINE
  2
AcDbPolyline
  3
AutoCAD 2000
 90
    32768
280
     0
281
     1
  0
CLASS
  1
HATCH
  2
AcDbHatch
  3
AutoCAD 2000
 90
    32768
280
     0
281
     1
  0
CLASS
  1
XRECORD
  2
AcDbXrecord
  3
AutoCAD 2000
 90
    32768
280
     0
281
     0
  0
ENDSEC
  0
SECTION
  2
TABLES
  0
TABLE
  2
VPORT
  5
E00DEA4D
330
0
100
AcDbSymbolTable
 70
    11
  0
VPORT
  5
E00DEA82
330
E00DEA4D
100
AcDbSymbolTableRecord
100
AcDbViewportTableRecord
  2
2
 70
     0
 10
0.5
 20
0.0
 11
1.0
 21
1.0
 12
0.9240312421264802
 22
1.052650975462765
 13
0.0
 23
0.0
 14
1.0
 24
1.0
 15
10.0
 25
10.0
 16
0.0
 26
0.0
 36
1.0
 17
0.0
 27
0.0
 37
0.0
 40
2.105301950925533
 41
0.8778135048231511
 42
50.0
 43
0.0
 44
0.0
 50
0.0
 51
0.0
 71
     0
 72
   500
 73
     1
 74
     1
 75
     0
 76
     0
 77
     0
 78
     0
281
     0
 65
     1
110
0.0
120
0.0
130
0.0
111
1.0
121
0.0
131
0.0
112
0.0
122
1.0
132
0.0
 79
     0
146
0.0
  0
VPORT
  5
E00DEA83
330
E00DEA4D
100
AcDbSymbolTableRecord
100
AcDbViewportTableRecord
  2
2
 70
     0
 10
0.0
 20
0.0
 11
0.5
 21
1.0
 12
0.9240312421264802
 22
1.052650975462765
 13
0.0
 23
0.0
 14
1.0
 24
1.0
 15
10.0
 25
10.0
 16
0.0
 26
0.0
 36
1.0
 17
0.0
 27
0.0
 37
0.0
 40
2.105301950925533
 41
0.8778135048231511
 42
50.0
 43
0.0
 44
0.0
 50
0.0
 51
0.0
 71
     0
 72
   500
 73
     1
 74
     1
 75
     0
 76
     0
 77
     0
 78
     0
281
     0
 65
     1
110
0.0
120
0.0
130
0.0
111
1.0
121
0.0
131
0.0
112
0.0
122
1.0
132
0.0
 79
     0
146
0.0
  0
VPORT
  5
E00DEA84
330
E00DEA4D
100
AcDbSymbolTableRecord
100
AcDbViewportTableRecord
  2
3
 70
     0
 10
0.0
 20
0.5
 11
1.0
 21
1.0
 12
2.832169994473273
 22
1.052650975462765
 13
0.0
 23
0.0
 14
1.0
 24
1.0
 15
10.0
 25
10.0
 16
0.0
 26
0.0
 36
1.0
 17
0.0
 27
0.0
 37
0.0
 40
2.105301950925533
 41
3.571428571428571
 42
50.0
 43
0.0
 44
0.0
 50
0.0
 51
0.0
 71
     0
 72
   500
 73
     1
 74
     1
 75
     0
 76
     0
 77
     0
 78
     0
281
     0
 65
     1
110
0.0
120
0.0
130
0.0
111
1.0
121
0.0
131
0.0
112
0.0
122
1.0
132
0.0
 79
     0
146
0.0
  0
VPORT
  5
E00DEA85
330
E00DEA4D
100
AcDbSymbolTableRecord
100
AcDbViewportTableRecord
  2
3
 70
     0
 10
0.0
 20
0.0
 11
1.0
 21
0.5
 12
2.856741679241311
 22
1.052650975462765
 13
0.0
 23
0.0
 14
1.0
 24
1.0
 15
10.0
 25
10.0
 16
0.0
 26
0.0
 36
1.0
 17
0.0
 27
0.0
 37
0.0
 40
2.105301950925533
 41
3.594771241830064
 42
50.0
 43
0.0
 44
0.0
 50
0.0
 51
0.0
 71
     0
 72
   500
 73
     1
 74
     1
 75
     0
 76
     0
 77
     0
 78
     0
281
     0
 65
     1
110
0.0
120
0.0
130
0.0
111
1.0
121
0.0
131
0.0
112
0.0
122
1.0
132
0.0
 79
     0
146
0.0
  0
VPORT
  5
E00DEA86
330
E00DEA4D
100
AcDbSymbolTableRecord
100
AcDbViewportTableRecord
  2
4
 70
     0
 10
0.5
 20
0.0
 11
1.0
 21
0.5
 12
2.886857516709718
 22
1.052650975462765
 13
0.0
 23
0.0
 14
1.0
 24
1.0
 15
10.0
 25
10.0
 16
0.0
 26
0.0
 36
1.0
 17
0.0
 27
0.0
 37
0.0
 40
4.275207030309069
 41
1.784313725490195
 42
50.0
 43
0.0
 44
0.0
 50
0.0
 51
0.0
 71
     0
 72
   500
 73
     1
 74
     1
 75
     0
 76
     0
 77
     0
 78
     0
281
     0
 65
     1
110
0.0
120
0.0
130
0.0
111
1.0
121
0.0
131
0.0
112
0.0
122
1.0
132
0.0
 79
     0
146
0.0
  0
VPORT
  5
E00DEA87
330
E00DEA4D
100
AcDbSymbolTableRecord
100
AcDbViewportTableRecord
  2
4
 70
     0
 10
0.5
 20
0.5
 11
1.0
 21
1.0
 12
2.862090274555523
 22
1.052650975462765
 13
0.0
 23
0.0
 14
1.0
 24
1.0
 15
10.0
 25
10.0
 16
0.0
 26
0.0
 36
1.0
 17
0.0
 27
0.0
 37
0.0
 40
4.275207030309069
 41
1.772727272727271
 42
50.0
 43
0.0
 44
0.0
 50
0.0
 51
0.0
 71
     0
 72
   500
 73
     1
 74
     1
 75
     0
 76
     0
 77
     0
 78
     0
281
     0
 65
     1
110
0.0
120
0.0
130
0.0
111
1.0
121
0.0
131
0.0
112
0.0
122
1.0
132
0.0
 79
     0
146
0.0
  0
VPORT
  5
E00DEA88
330
E00DEA4D
100
AcDbSymbolTableRecord
100
AcDbViewportTableRecord
  2
4
 70
     0
 10
0.0
 20
0.5
 11
0.5
 21
1.0
 12
2.862090274555523
 22
1.052650975462765
 13
0.0
 23
0.0
 14
1.0
 24
1.0
 15
10.0
 25
10.0
 16
0.0
 26
0.0
 36
1.0
 17
0.0
 27
0.0
 37
0.0
 40
4.275207030309069
 41
1.772727272727271
 42
50.0
 43
0.0
 44
0.0
 50
0.0
 51
0.0
 71
     0
 72
   500
 73
     1
 74
     1
 75
     0
 76
     0
 77
     0
 78
     0
281
     0
 65
     1
110
0.0
120
0.0
130
0.0
111
1.0
121
0.0
131
0.0
112
0.0
122
1.0
132
0.0
 79
     0
146
0.0
  0
VPORT
  5
E00DEA89
330
E00DEA4D
100
AcDbSymbolTableRecord
100
AcDbViewportTableRecord
  2
4
 70
     0
 10
0.0
 20
0.0
 11
0.5
 21
0.5
 12
2.886857516709718
 22
1.052650975462765
 13
0.0
 23
0.0
 14
1.0
 24
1.0
 15
10.0
 25
10.0
 16
0.0
 26
0.0
 36
1.0
 17
0.0
 27
0.0
 37
0.0
 40
4.275207030309069
 41
1.784313725490195
 42
50.0
 43
0.0
 44
0.0
 50
0.0
 51
0.0
 71
     0
 72
   500
 73
     1
 74
     1
 75
     0
 76
     0
 77
     0
 78
     0
281
     0
 65
     1
110
0.0
120
0.0
130
0.0
111
1.0
121
0.0
131
0.0
112
0.0
122
1.0
132
0.0
 79
     0
146
0.0
  0
VPORT
  5
E00EDE8E
330
E00DEA4D
100
AcDbSymbolTableRecord
100
AcDbViewportTableRecord
  2
*Active
 70
     0
 10
0.0
 20
0.0
 11
1.0
 21
1.0
 12
60.33517459191824
 22
91.00069472123921
 13
0.0
 23
0.0
 14
1.0
 24
1.0
 15
10.0
 25
10.0
 16
0.0
 26
0.0
 36
1.0
 17
0.0
 27
0.0
 37
0.0
 40
183.3952367997398
 41
1.246212121212121
 42
50.0
 43
0.0
 44
0.0
 50
0.0
 51
0.0
 71
     0
 72
   500
 73
     1
 74
     0
 75
     0
 76
     0
 77
     0
 78
     0
281
     0
 65
     1
110
0.0
120
0.0
130
0.0
111
1.0
121
0.0
131
0.0
112
0.0
122
1.0
132
0.0
 79
     0
146
0.0
  0
ENDTAB
  0
TABLE
  2
LTYPE
  5
E00DEA4A
330
0
100
AcDbSymbolTable
 70
     5
  0
LTYPE
  5
E00DEA57
330
E00DEA4A
100
AcDbSymbolTableRecord
100
AcDbLinetypeTableRecord
  2
BYBLOCK
 70
     0
  3

 72
    65
 73
     0
 40
0.0
  0
LTYPE
  5
E00DEA58
330
E00DEA4A
100
AcDbSymbolTableRecord
100
AcDbLinetypeTableRecord
  2
BYLAYER
 70
     0
  3

 72
    65
 73
     0
 40
0.0
  0
LTYPE
  5
E00DEA59
330
E00DEA4A
100
AcDbSymbolTableRecord
100
AcDbLinetypeTableRecord
  2
CONTINUOUS
 70
     0
  3
実線
 72
    65
 73
     0
 40
0.0
  0
LTYPE
  5
E00DEA7E
330
E00DEA4A
100
AcDbSymbolTableRecord
100
AcDbLinetypeTableRecord
  2
CENTER
 70
     0
  3
____ _ ____ _ ____ _ ____ _ ____ _ ____ _ ____
 72
    65
 73
     4
 40
2.0
 49
1.25
 74
     0
 49
-0.25
 74
     0
 49
0.25
 74
     0
 49
-0.25
 74
     0
  0
LTYPE
  5
E00DEA81
330
E00DEA4A
100
AcDbSymbolTableRecord
100
AcDbLinetypeTableRecord
  2
HIDDEN
 70
     0
  3
_ _ _ _ _ _ _ _ _ _ _ _ _ _ _ _ _ _ _ _ _ _ _
 72
    65
 73
     2
 40
0.375
 49
0.25
 74
     0
 49
-0.125
 74
     0
  0
LTYPE
  5
E00E0AD4
330
E00DEA4A
100
AcDbSymbolTableRecord
100
AcDbLinetypeTableRecord
  2
PHANTOM
 70
     0
  3
Phantom ______  __  __  ______  __  __  ______
 72
    65
 73
     6
 40
2.5
 49
1.25
 74
     0
 49
-0.25
 74
     0
 49
0.25
 74
     0
 49
-0.25
 74
     0
 49
0.25
 74
     0
 49
-0.25
 74
     0
  0
LTYPE
  5
E00ECC5C
330
E00DEA4A
100
AcDbSymbolTableRecord
100
AcDbLinetypeTableRecord
  2
SLD-実線
 70
     0
  3
SolidWorks Line Style
 72
    65
 73
     0
 40
0.0
  0
ENDTAB
  0
TABLE
  2
LAYER
  5
E00DEA47
102
{ACAD_XDICTIONARY
360
E00DFB39
102
}
330
0
100
AcDbSymbolTable
 70
    13
  0
LAYER
  5
E00DEA54
330
E00DEA47
100
AcDbSymbolTableRecord
100
AcDbLayerTableRecord
  2
0
 70
     0
 62
     6
  6
CONTINUOUS
370
    -3
390
E00DFA69
  0
LAYER
  5
E00DEA8D
330
E00DEA47
100
AcDbSymbolTableRecord
100
AcDbLayerTableRecord
  2
ITTEN
 70
     0
 62
     1
  6
CENTER
370
    -3
390
E00DFA69
  0
LAYER
  5
E00DEA8F
330
E00DEA47
100
AcDbSymbolTableRecord
100
AcDbLayerTableRecord
  2
HATCH
 70
     0
 62
     4
  6
CONTINUOUS
370
    -3
390
E00DFA69
  0
LAYER
  5
E00DEA90
330
E00DEA47
100
AcDbSymbolTableRecord
100
AcDbLayerTableRecord
  2
SUNPOU
 70
     0
 62
     3
  6
CONTINUOUS
370
    -3
390
E00DFA69
  0
LAYER
  5
E00DEA91
330
E00DEA47
100
AcDbSymbolTableRecord
100
AcDbLayerTableRecord
  2
TEXT
 70
     0
 62
     3
  6
CONTINUOUS
370
    -3
390
E00DFA69
  0
LAYER
  5
E00DEA92
330
E00DEA47
100
AcDbSymbolTableRecord
100
AcDbLayerTableRecord
  2
SAISEN
 70
     0
 62
     4
  6
CONTINUOUS
370
    -3
390
E00DFA69
  0
LAYER
  5
E00DEA93
330
E00DEA47
100
AcDbSymbolTableRecord
100
AcDbLayerTableRecord
  2
JISSEN
 70
     0
 62
     7
  6
CONTINUOUS
370
    -3
390
E00DFA69
  0
LAYER
  5
E00DEA96
330
E00DEA47
100
AcDbSymbolTableRecord
100
AcDbLayerTableRecord
  2
WAKU
 70
     0
 62
     5
  6
CONTINUOUS
370
    -3
390
E00DFA69
  0
LAYER
  5
E00DEA97
330
E00DEA47
100
AcDbSymbolTableRecord
100
AcDbLayerTableRecord
  2
TENSEN
 70
     0
 62
     2
  6
HIDDEN
370
    -3
390
E00DFA69
  0
LAYER
  5
E00E0AD5
330
E00DEA47
100
AcDbSymbolTableRecord
100
AcDbLayerTableRecord
  2
SCALE
 70
     0
 62
     4
  6
CONTINUOUS
370
    -3
390
E00DFA69
  0
LAYER
  5
E00E0AD6
330
E00DEA47
100
AcDbSymbolTableRecord
100
AcDbLayerTableRecord
  2
BORDER
 70
     0
 62
     5
  6
CONTINUOUS
370
    -3
390
E00DFA69
  0
LAYER
  5
E00E0AD7
330
E00DEA47
100
AcDbSymbolTableRecord
100
AcDbLayerTableRecord
  2
NITEN
 70
     0
 62
     2
  6
PHANTOM
370
    -3
390
E00DFA69
  0
LAYER
  5
E00E5AB9
330
E00DEA47
100
AcDbSymbolTableRecord
100
AcDbLayerTableRecord
  2
DEFPOINTS
 70
     0
 62
    -7
  6
CONTINUOUS
290
     0
370
    -3
390
E00DFA69
  0
ENDTAB
  0
TABLE
  2
STYLE
  5
E00DEA48
330
0
100
AcDbSymbolTable
 70
     5
  0
STYLE
  5
E00DEA55
330
E00DEA48
100
AcDbSymbolTableRecord
100
AcDbTextStyleTableRecord
  2
STANDARD
 70
     0
 40
0.0
 41
1.0
 50
0.0
 71
     0
 42
2.5
  3
SIMPLEX
  4

  0
STYLE
  5
E00DEA7C
330
E00DEA48
100
AcDbSymbolTableRecord
100
AcDbTextStyleTableRecord
  2
K
 70
     0
 40
0.0
 41
1.0
 50
0.0
 71
     0
 42
6.0
  3
SIMPLEX
  4
bigfont.shx
  0
STYLE
  5
E00DFB37
330
E00DEA48
100
AcDbSymbolTableRecord
100
AcDbTextStyleTableRecord
  2
DIMENSION
 70
     0
 40
0.0
 41
1.0
 50
0.0
 71
     0
 42
2.5
  3
TXT
  4

  0
STYLE
  5
E00EC309
330
E00DEA48
100
AcDbSymbolTableRecord
100
AcDbTextStyleTableRecord
  2
BIGFONT
 70
     0
 40
0.0
 41
1.0
 50
0.0
 71
     0
 42
3.0
  3
txt.shx
  4
bigfont
  0
STYLE
  5
E00ECC5D
330
E00DEA48
100
AcDbSymbolTableRecord
100
AcDbTextStyleTableRecord
  2
ROMANS
 70
     0
 40
0.0
 41
0.8
 50
0.0
 71
     0
 42
6.0
  3
romans
  4

  0
ENDTAB
  0
TABLE
  2
VIEW
  5
E00DEA4B
330
0
100
AcDbSymbolTable
 70
     0
  0
ENDTAB
  0
TABLE
  2
UCS
  5
E00DEA4C
330
0
100
AcDbSymbolTable
 70
     0
  0
ENDTAB
  0
TABLE
  2
APPID
  5
E00DEA4E
330
0
100
AcDbSymbolTable
 70
     8
  0
APPID
  5
E00DEA56
330
E00DEA4E
100
AcDbSymbolTableRecord
100
AcDbRegAppTableRecord
  2
ACAD
 70
     0
  0
APPID
  5
E00E89BA
330
E00DEA4E
100
AcDbSymbolTableRecord
100
AcDbRegAppTableRecord
  2
CONTENTBLOCKICON
 70
     0
  0
APPID
  5
E00E89BB
330
E00DEA4E
100
AcDbSymbolTableRecord
100
AcDbRegAppTableRecord
  2
X_OBJNAME
 70
     0
  0
APPID
  5
E00E89BC
330
E00DEA4E
100
AcDbSymbolTableRecord
100
AcDbRegAppTableRecord
  2
X_PARAM_BALLOON
 70
     0
  0
APPID
  5
E00E89BD
330
E00DEA4E
100
AcDbSymbolTableRecord
100
AcDbRegAppTableRecord
  2
X_PARAM_TXTPATERN
 70
     0
  0
APPID
  5
E00E89BE
330
E00DEA4E
100
AcDbSymbolTableRecord
100
AcDbRegAppTableRecord
  2
X_PARAM_CTXTPATERN
 70
     0
  0
APPID
  5
E00E89BF
330
E00DEA4E
100
AcDbSymbolTableRecord
100
AcDbRegAppTableRecord
  2
X_PARAM_SYSVAL
 70
     0
  0
APPID
  5
E00E89C0
330
E00DEA4E
100
AcDbSymbolTableRecord
100
AcDbRegAppTableRecord
  2
X_DEFINELIST
 70
     0
  0
ENDTAB
  0
TABLE
  2
DIMSTYLE
  5
E00DEA4F
330
0
100
AcDbSymbolTable
 70
     2
100
AcDbDimStyleTable
 71
     1
340
E00DEA8C
  0
DIMSTYLE
105
E00DEA8C
330
E00DEA4F
100
AcDbSymbolTableRecord
100
AcDbDimStyleTableRecord
  2
IMAO
 70
     0
 41
1.5
 42
1.0
 43
6.0
 44
1.0
 47
495.0
 73
     0
 74
     0
 77
     1
 78
     8
140
3.0
141
0.0
172
     1
174
     1
271
     2
272
     2
279
     2
284
     8
285
     8
286
     8
340
E00DEA7C
341
E00DEA68
342
E00DEA68
343
E00DEA68
344
E00DEA68
  0
DIMSTYLE
105
E00DFB38
330
E00DEA4F
100
AcDbSymbolTableRecord
100
AcDbDimStyleTableRecord
  2
STANDARD
 70
     0
 40
0.5
 41
2.0
 42
0.1
 43
10.0
 44
1.5
 73
     0
 74
     0
 78
     8
140
3.0
145
1.0
147
0.1
172
     1
176
   256
177
   256
178
   256
271
     2
272
     2
284
     8
340
E00DFB37
341
E00DFB2F
342
E00DFB2F
  0
ENDTAB
  0
TABLE
  2
BLOCK_RECORD
  5
E00DEA46
330
0
100
AcDbSymbolTable
 70
     5
  0
BLOCK_RECORD
  5
E00DEA5D
102
{ACAD_XDICTIONARY
360
E00DFB13
102
}
330
E00DEA46
100
AcDbSymbolTableRecord
100
AcDbBlockTableRecord
  2
*MODEL_SPACE
340
E00DFA6C
  0
BLOCK_RECORD
  5
E00DEA5A
102
{ACAD_XDICTIONARY
360
E00DFB11
102
}
330
E00DEA46
100
AcDbSymbolTableRecord
100
AcDbBlockTableRecord
  2
*PAPER_SPACE
340
E00DFA6D
  0
BLOCK_RECORD
  5
E00DEA61
330
E00DEA46
100
AcDbSymbolTableRecord
100
AcDbBlockTableRecord
  2
ARROW
340
0
102
{BLKREFS
331
E00ED68B
331
E00ED74C
102
}
  0
BLOCK_RECORD
  5
E00DEA68
330
E00DEA46
100
AcDbSymbolTableRecord
100
AcDbBlockTableRecord
  2
ARROWANG
340
0
102
{BLKREFS
331
E00EDB0A
331
E00EDB0B
331
E00EDB12
331
E00EDB13
331
E00EDC11
331
E00EDC12
331
E00EDC17
331
E00EDC18
331
E00EDE83
331
E00EDE84
331
E00EDE89
331
E00EDE8A
331
E00EDD7C
331
E00EDD7D
331
E00EDD84
331
E00EDD85
102
}
  0
BLOCK_RECORD
  5
E00DFB2F
330
E00DEA46
100
AcDbSymbolTableRecord
100
AcDbBlockTableRecord
  2
AR_OPEN
340
0
  0
BLOCK_RECORD
  5
E00E0A21
330
E00DEA46
100
AcDbSymbolTableRecord
100
AcDbBlockTableRecord
  2
WAKU
340
0
  0
ENDTAB
  0
ENDSEC
  0
SECTION
  2
BLOCKS
  0
BLOCK
  5
E00DEA9A
330
E00DEA5D
100
AcDbEntity
  8
0
100
AcDbBlockBegin
  2
*MODEL_SPACE
 70
     0
 10
0.0
 20
0.0
 30
0.0
  3
*MODEL_SPACE
  1

  0
ENDBLK
  5
E00DEA9B
330
E00DEA5D
100
AcDbEntity
  8
0
100
AcDbBlockEnd
  0
BLOCK
  5
E00DEA98
330
E00DEA5A
100
AcDbEntity
 67
     1
  8
0
100
AcDbBlockBegin
  2
*PAPER_SPACE
 70
     0
 10
0.0
 20
0.0
 30
0.0
  3
*PAPER_SPACE
  1

  0
ENDBLK
  5
E00DEA99
330
E00DEA5A
100
AcDbEntity
 67
     1
  8
0
100
AcDbBlockEnd
  0
BLOCK
  5
41E
330
E00DEA61
100
AcDbEntity
  8
0
100
AcDbBlockBegin
  2
ARROW
 70
     0
 10
1.0
 20
0.5
 30
0.0
  3
ARROW
  1

  0
LINE
  5
41F
330
E00DEA61
100
AcDbEntity
  8
0
100
AcDbLine
 10
1.0
 20
0.5
 30
0.0
 11
-0.5000000000000214
 21
0.0980762113533018
 31
0.0
  0
LINE
  5
420
330
E00DEA61
100
AcDbEntity
  8
0
100
AcDbLine
 10
0.0
 20
0.5
 30
0.0
 11
1.0
 21
0.5
 31
0.0
  0
LINE
  5
421
330
E00DEA61
100
AcDbEntity
  8
0
100
AcDbLine
 10
1.0
 20
0.5
 30
0.0
 11
-0.4999999999999575
 21
0.9019237886467408
 31
0.0
  0
ENDBLK
  5
422
330
E00DEA61
100
AcDbEntity
  8
0
100
AcDbBlockEnd
  0
BLOCK
  5
460
330
E00DEA68
100
AcDbEntity
  8
0
100
AcDbBlockBegin
  2
ARROWANG
 70
     0
 10
0.0
 20
0.0
 30
0.0
  3
ARROWANG
  1

  0
LINE
  5
461
330
E00DEA68
100
AcDbEntity
  8
SUNPOU
100
AcDbLine
 10
0.0
 20
0.0
 30
0.0
 11
-1.499999999999956
 21
0.401923788646741
 31
0.0
  0
LINE
  5
462
330
E00DEA68
100
AcDbEntity
  8
SUNPOU
100
AcDbLine
 10
0.0
 20
0.0
 30
0.0
 11
-1.500000000000027
 21
-0.4019237886467124
 31
0.0
  0
ENDBLK
  5
463
330
E00DEA68
100
AcDbEntity
  8
0
100
AcDbBlockEnd
  0
BLOCK
  5
E00DFB33
330
E00DFB2F
100
AcDbEntity
  8
0
100
AcDbBlockBegin
  2
AR_OPEN
 70
     0
 10
0.0
 20
0.0
 30
0.0
  3
AR_OPEN
  1

  0
LINE
  5
E00DFB30
330
E00DFB2F
100
AcDbEntity
  8
0
 62
     0
100
AcDbLine
 10
-1.0
 20
0.0
 30
0.0
 11
0.0
 21
0.0
 31
0.0
  0
LINE
  5
E00DFB31
330
E00DFB2F
100
AcDbEntity
  8
0
 62
     0
100
AcDbLine
 10
0.0
 20
0.0
 30
0.0
 11
-1.0
 21
0.2679491924311037
 31
0.0
  0
LINE
  5
E00DFB32
330
E00DFB2F
100
AcDbEntity
  8
0
 62
     0
100
AcDbLine
 10
0.0
 20
0.0
 30
0.0
 11
-1.0
 21
-0.2679491924311037
 31
0.0
  0
ENDBLK
  5
E00DFB34
330
E00DFB2F
100
AcDbEntity
  8
0
100
AcDbBlockEnd
  0
BLOCK
  5
E00E0A26
330
E00E0A21
100
AcDbEntity
  8
0
100
AcDbBlockBegin
  2
WAKU
 70
     0
 10
0.0
 20
0.0
 30
0.0
  3
WAKU
  1

  0
LINE
  5
E00E0A22
330
E00E0A21
100
AcDbEntity
  8
WAKU
100
AcDbLine
 10
0.9999999959999998
 20
0.0
 30
0.0
 11
0.9999999959999998
 21
0.9999999999999998
 31
0.0
  0
LINE
  5
E00E0A23
330
E00E0A21
100
AcDbEntity
  8
WAKU
100
AcDbLine
 10
0.0
 20
0.9999999999999998
 30
0.0
 11
0.9999999959999998
 21
0.9999999999999998
 31
0.0
  0
LINE
  5
E00E0A24
330
E00E0A21
100
AcDbEntity
  8
WAKU
100
AcDbLine
 10
0.9999999959999998
 20
0.0
 30
0.0
 11
0.0
 21
0.0
 31
0.0
  0
LINE
  5
E00E0A25
330
E00E0A21
100
AcDbEntity
  8
WAKU
100
AcDbLine
 10
0.0
 20
0.0
 30
0.0
 11
0.0
 21
0.9999999999999998
 31
0.0
  0
ENDBLK
  5
E00E0A27
330
E00E0A21
100
AcDbEntity
  8
0
100
AcDbBlockEnd
  0
ENDSEC
  0
SECTION
  2
ENTITIES
  0
TEXT
  5
E00EDC1E
330
E00DEA5D
100
AcDbEntity
  8
SUNPOU
100
AcDbText
 10
4.55887041365554
 20
24.2146686269163
 30
0.0
 40
2.0
  1
%%u※被水防止板Cは対向するヘッドの方向に合わせ、両方のヘッド(ガード)に設置してください。
  7
K
100
AcDbText
  0
LINE
  5
E00EDC1F
330
E00DEA5D
100
AcDbEntity
  8
SUNPOU
100
AcDbLine
 10
25.60517050782124
 20
27.83186071155177
 30
0.0
 11
27.46707717633893
 21
27.83186071155177
 31
0.0
  0
LINE
  5
E00EDC20
330
E00DEA5D
100
AcDbEntity
  8
SUNPOU
100
AcDbLine
 10
25.60517050782124
 20
29.80708904100265
 30
0.0
 11
27.46707717633893
 21
29.80708904100265
 31
0.0
  0
LINE
  5
E00EDC21
330
E00DEA5D
100
AcDbEntity
  8
SUNPOU
100
AcDbLine
 10
26.53612384208008
 20
29.80708904100265
 30
0.0
 11
26.53612384208008
 21
27.83186071155177
 31
0.0
  0
LINE
  5
E00EDC22
330
E00DEA5D
100
AcDbEntity
  8
SUNPOU
100
AcDbLine
 10
26.00364193695941
 20
29.80708904100265
 30
0.0
 11
26.00364193695941
 21
27.83186071155177
 31
0.0
  0
LINE
  5
E00EDC23
330
E00DEA5D
100
AcDbEntity
  8
SUNPOU
100
AcDbLine
 10
27.04960669956301
 20
29.80708904100265
 30
0.0
 11
27.04960669956301
 21
27.83186071155177
 31
0.0
  0
LINE
  5
E00EDC24
330
E00DEA5D
100
AcDbEntity
  8
SUNPOU
100
AcDbLine
 10
47.96992799517414
 20
40.23907666722656
 30
0.0
 11
47.96992799517414
 21
38.26384833777568
 31
0.0
  0
LINE
  5
E00EDC25
330
E00DEA5D
100
AcDbEntity
  8
SUNPOU
100
AcDbLine
 10
46.92396323257054
 20
40.23907666722656
 30
0.0
 11
46.92396323257054
 21
38.26384833777568
 31
0.0
  0
LINE
  5
E00EDC26
330
E00DEA5D
100
AcDbEntity
  8
SUNPOU
100
AcDbLine
 10
47.45644513769121
 20
40.23907666722656
 30
0.0
 11
47.45644513769121
 21
38.26384833777568
 31
0.0
  0
LINE
  5
E00EDC27
330
E00DEA5D
100
AcDbEntity
  8
SUNPOU
100
AcDbLine
 10
46.52549180343243
 20
40.23907666722656
 30
0.0
 11
48.38739847195
 21
40.23907666722656
 31
0.0
  0
LINE
  5
E00EDC28
330
E00DEA5D
100
AcDbEntity
  8
SUNPOU
100
AcDbLine
 10
46.52549180343243
 20
38.26384833777568
 30
0.0
 11
48.38739847195
 21
38.26384833777568
 31
0.0
  0
TEXT
  5
E00EDC29
330
E00DEA5D
100
AcDbEntity
  8
SUNPOU
100
AcDbText
 10
18.75927009562525
 20
38.24750961513522
 30
0.0
 40
1.999999999999999
  1
%%u被水防止板C＋ガードZN　
  7
K
100
AcDbText
  0
TEXT
  5
E00EDC2A
330
E00DEA5D
100
AcDbEntity
  8
SUNPOU
100
AcDbText
 10
19.74889234429407
 20
34.58853245161322
 30
0.0
 40
2.0
  1
%%u取付け状態例 (尺度1/1)
  7
K
 72
     4
 11
33.55365424905596
 21
35.44567530875608
 31
0.0
100
AcDbText
  0
LINE
  5
E00EDC2B
330
E00DEA5D
100
AcDbEntity
  8
JISSEN
100
AcDbLine
 10
6.828662088537896
 20
117.183054288977
 30
0.0
 11
56.82866208853788
 21
117.183054288977
 31
0.0
  0
LINE
  5
E00EDC2C
330
E00DEA5D
100
AcDbEntity
  8
JISSEN
100
AcDbLine
 10
6.828662088537896
 20
32.18305428897704
 30
0.0
 11
56.82866208853788
 21
32.18305428897706
 31
0.0
  0
LINE
  5
E00EDC2D
330
E00DEA5D
100
AcDbEntity
  8
JISSEN
100
AcDbLine
 10
60.33333346450672
 20
178.0000007806755
 30
0.0
 11
120.6666665565067
 21
178.0000007806755
 31
0.0
  0
LINE
  5
E00EDC2E
330
E00DEA5D
100
AcDbEntity
  8
SUNPOU
100
AcDbLine
 10
60.33333346450672
 20
174.0000007646754
 30
0.0
 11
120.6666665565067
 21
174.0000007646754
 31
0.0
  0
TEXT
  5
E00EDC2F
330
E00DEA5D
100
AcDbEntity
  8
TEXT
100
AcDbText
 10
110.4666665157067
 20
179.0000007846755
 30
0.0
 40
2.000000007999999
  1
備    考
  7
K
 72
     4
 11
114.9999998671734
 21
180.0000007886755
 31
0.0
100
AcDbText
  0
TEXT
  5
E00EDC30
330
E00DEA5D
100
AcDbEntity
  8
TEXT
100
AcDbText
 10
103.53333315464
 20
179.0000007846755
 30
0.0
 40
2.000000007999999
  1
個数
  7
K
 72
     4
 11
105.6666664965067
 21
180.0000007886755
 31
0.0
100
AcDbText
  0
TEXT
  5
E00EDC31
330
E00DEA5D
100
AcDbEntity
  8
TEXT
100
AcDbText
 10
90.2999997683734
 20
179.0000007846755
 30
0.0
 40
2.000000007999999
  1
材    質
  7
K
 72
     4
 11
94.83333311984006
 21
180.0000007886755
 31
0.0
100
AcDbText
  0
TEXT
  5
E00EDC32
330
E00DEA5D
100
AcDbEntity
  8
TEXT
100
AcDbText
 10
71.5999996935734
 20
179.0000007846755
 30
0.0
 40
2.000000007999999
  1
名      称
  7
K
 72
     4
 11
77.33333304984006
 21
180.0000007886755
 31
0.0
100
AcDbText
  0
TEXT
  5
E00EDC33
330
E00DEA5D
100
AcDbEntity
  8
TEXT
100
AcDbText
 10
61.53333298664005
 20
179.0000007846755
 30
0.0
 40
2.000000007999999
  1
番号
  7
K
 72
     4
 11
63.66666632850672
 21
180.0000007886755
 31
0.0
100
AcDbText
  0
LINE
  5
E00EDC34
330
E00DEA5D
100
AcDbEntity
  8
JISSEN
100
AcDbLine
 10
66.9999996751734
 20
182.0000007966754
 30
0.0
 11
66.9999996751734
 21
174.0000007646754
 31
0.0
  0
LINE
  5
E00EDC35
330
E00DEA5D
100
AcDbEntity
  8
JISSEN
100
AcDbLine
 10
109.33333317784
 20
182.0000007966754
 30
0.0
 11
109.33333317784
 21
174.0000007646754
 31
0.0
  0
LINE
  5
E00EDC36
330
E00DEA5D
100
AcDbEntity
  8
JISSEN
100
AcDbLine
 10
101.9999998151734
 20
174.0000007646754
 30
0.0
 11
101.9999998151734
 21
182.0000007966754
 31
0.0
  0
LINE
  5
E00EDC37
330
E00DEA5D
100
AcDbEntity
  8
JISSEN
100
AcDbLine
 10
87.66666642450672
 20
182.0000007966754
 30
0.0
 11
87.66666642450672
 21
174.0000007646754
 31
0.0
  0
TEXT
  5
E00EDC38
330
E00DEA5D
100
AcDbEntity
  8
TEXT
100
AcDbText
 10
105.428571257459
 20
175.0000007686754
 30
0.0
 40
2.000000007999999
  1
1
  7
K
 72
     4
 11
105.6666664965067
 21
176.0000007726754
 31
0.0
100
AcDbText
  0
LWPOLYLINE
  5
E00EDC39
330
E00DEA5D
100
AcDbEntity
  8
WAKU
100
AcDbPolyline
 90
        4
 70
     1
 43
0.0
 10
120.6666665565067
 20
0.000000068675547
 10
-0.000000110159931
 20
0.000000068675547
 10
-0.000000110159931
 20
182.0000007966754
 10
120.6666665565067
 20
182.0000007966754
  0
TEXT
  5
E00EDC3A
330
E00DEA5D
100
AcDbEntity
  8
TEXT
100
AcDbText
 10
92.16666644250672
 20
175.0000007686754
 30
0.0
 40
2.000000007999999
  1
PBT
  7
K
 72
     4
 11
94.83333311984006
 21
176.0000007726754
 31
0.0
100
AcDbText
  0
TEXT
  5
E00EDC3B
330
E00DEA5D
100
AcDbEntity
  8
TEXT
100
AcDbText
 10
110.5199998492534
 20
175.0000007686754
 30
0.0
 40
2.000000007999999
  1
標準色：白
 41
0.8
  7
K
 72
     4
 11
114.9999998671734
 21
176.0000007726754
 31
0.0
100
AcDbText
  0
LINE
  5
E00EDC3C
330
E00DEA5D
100
AcDbEntity
  8
JISSEN
100
AcDbLine
 10
60.33333346450672
 20
174.0000007646754
 30
0.0
 11
60.33333370584006
 21
182.0000007966754
 31
0.0
  0
TEXT
  5
E00EDC3D
330
E00DEA5D
100
AcDbEntity
  8
TEXT
100
AcDbText
 10
70.01904706496387
 20
175.0000007686754
 30
0.0
 40
2.000000007999999
  1
被水防止板 C
  7
K
 72
     4
 11
77.33333280850672
 21
176.0000007726754
 31
0.0
100
AcDbText
  0
ARC
  5
E00EDC3E
330
E00DEA5D
100
AcDbEntity
  8
JISSEN
100
AcDbCircle
 10
99.57789528360786
 20
154.3209303495878
 30
0.0
 40
0.5
100
AcDbArc
 50
359.9999999999739
 51
90.0
  0
ARC
  5
E00EDC3F
330
E00DEA5D
100
AcDbEntity
  8
JISSEN
100
AcDbCircle
 10
99.27759498330647
 20
154.3209303495882
 30
0.0
 40
0.5
100
AcDbArc
 50
0.0
 51
90.0
  0
ARC
  5
E00EDC40
330
E00DEA5D
100
AcDbEntity
  8
JISSEN
100
AcDbCircle
 10
96.34741480312891
 20
154.3209303495882
 30
0.0
 40
0.5
100
AcDbArc
 50
90.0
 51
180.0
  0
ARC
  5
E00EDC41
330
E00DEA5D
100
AcDbEntity
  8
JISSEN
100
AcDbCircle
 10
92.84741480312982
 20
154.3209303495878
 30
0.0
 40
0.5
100
AcDbArc
 50
0.0
 51
90.0
  0
ARC
  5
E00EDC42
330
E00DEA5D
100
AcDbEntity
  8
JISSEN
100
AcDbCircle
 10
94.84741480312891
 20
153.3209303495882
 30
0.0
 40
1.0
100
AcDbArc
 50
270.0
 51
0.0
  0
ARC
  5
E00EDC43
330
E00DEA5D
100
AcDbEntity
  8
JISSEN
100
AcDbCircle
 10
94.34741480312892
 20
153.3209303495882
 30
0.0
 40
1.0
100
AcDbArc
 50
180.0
 51
270.0
  0
LINE
  5
E00EDC44
330
E00DEA5D
100
AcDbEntity
  8
JISSEN
100
AcDbLine
 10
94.34741480312892
 20
152.3209303495882
 30
0.0
 11
94.84741480312891
 21
152.3209303495882
 31
0.0
  0
LINE
  5
E00EDC45
330
E00DEA5D
100
AcDbEntity
  8
JISSEN
100
AcDbLine
 10
93.34741480312983
 20
154.3209303495878
 30
0.0
 11
93.3474148031289
 21
153.3209303495882
 31
0.0
  0
LINE
  5
E00EDC46
330
E00DEA5D
100
AcDbEntity
  8
JISSEN
100
AcDbLine
 10
95.8474148031289
 20
154.3209303495882
 30
0.0
 11
95.8474148031289
 21
153.3209303495882
 31
0.0
  0
LINE
  5
E00EDC47
330
E00DEA5D
100
AcDbEntity
  8
JISSEN
100
AcDbLine
 10
96.34741480312891
 20
154.8209303495882
 30
0.0
 11
99.57789528360786
 21
154.8209303495877
 31
0.0
  0
LINE
  5
E00EDC48
330
E00DEA5D
100
AcDbEntity
  8
JISSEN
100
AcDbLine
 10
101.5467729253014
 20
146.9591773910038
 30
0.0
 11
101.5467729253023
 21
148.3185962259981
 31
0.0
  0
LINE
  5
E00EDC49
330
E00DEA5D
100
AcDbEntity
  8
JISSEN
100
AcDbLine
 10
101.5467729253014
 20
146.9591773910038
 30
0.0
 11
101.5467729253023
 21
148.3185962259981
 31
0.0
  0
LINE
  5
E00EDC4A
330
E00DEA5D
100
AcDbEntity
  8
JISSEN
100
AcDbLine
 10
101.014792136867
 20
141.8623648744729
 30
0.0
 11
101.014792136867
 21
143.2241178330423
 31
0.0
  0
LINE
  5
E00EDC4B
330
E00DEA5D
100
AcDbEntity
  8
JISSEN
100
AcDbLine
 10
99.77759498330431
 20
145.9154315797022
 30
0.0
 11
95.59741480312856
 21
145.9154315797022
 31
0.0
  0
LINE
  5
E00EDC4C
330
E00DEA5D
100
AcDbEntity
  8
JISSEN
100
AcDbLine
 10
99.77759498330739
 20
150.1305458350084
 30
0.0
 11
95.59741480312892
 21
150.1305458350084
 31
0.0
  0
LINE
  5
E00EDC4D
330
E00DEA5D
100
AcDbEntity
  8
JISSEN
100
AcDbLine
 10
93.59741480312857
 20
143.2297612018156
 30
0.0
 11
93.59741480312857
 21
142.77326447315
 31
0.0
  0
LINE
  5
E00EDC4E
330
E00DEA5D
100
AcDbEntity
  8
JISSEN
100
AcDbLine
 10
95.59741480312856
 20
143.2297612018151
 30
0.0
 11
95.59741480312856
 21
142.77326447315
 31
0.0
  0
LINE
  5
E00EDC4F
330
E00DEA5D
100
AcDbEntity
  8
JISSEN
100
AcDbLine
 10
99.77759498330465
 20
140.365431579702
 30
0.0
 11
95.59741480312982
 21
140.365431579702
 31
0.0
  0
LINE
  5
E00EDC50
330
E00DEA5D
100
AcDbEntity
  8
JISSEN
100
AcDbLine
 10
99.77759498330522
 20
144.2631495076557
 30
0.0
 11
95.59741480312856
 21
144.2631495076561
 31
0.0
  0
LINE
  5
E00EDC51
330
E00DEA5D
100
AcDbEntity
  8
JISSEN
100
AcDbLine
 10
99.77759498330431
 20
145.9154315797022
 30
0.0
 11
99.77759498330522
 21
144.2631495076557
 31
0.0
  0
LINE
  5
E00EDC52
330
E00DEA5D
100
AcDbEntity
  8
JISSEN
100
AcDbLine
 10
99.77759498330522
 20
145.9154315797022
 30
0.0
 11
101.014792136867
 21
143.2241178330423
 31
0.0
  0
LINE
  5
E00EDC53
330
E00DEA5D
100
AcDbEntity
  8
JISSEN
100
AcDbLine
 10
100.0778952836087
 20
151.3654315797011
 30
0.0
 11
101.5467729253014
 21
148.318596225999
 31
0.0
  0
LINE
  5
E00EDC54
330
E00DEA5D
100
AcDbEntity
  8
JISSEN
100
AcDbLine
 10
95.59741480312913
 20
141.8623648744724
 30
0.0
 11
101.014792136867
 21
141.862364874472
 31
0.0
  0
LINE
  5
E00EDC55
330
E00DEA5D
100
AcDbEntity
  8
JISSEN
100
AcDbLine
 10
99.77759498330556
 20
150.1305458350084
 30
0.0
 11
101.5467729253014
 21
146.9591773910038
 31
0.0
  0
LINE
  5
E00EDC56
330
E00DEA5D
100
AcDbEntity
  8
JISSEN
100
AcDbLine
 10
99.77759498330522
 20
144.2631495076557
 30
0.0
 11
101.014792136867
 21
141.8623648744729
 31
0.0
  0
LINE
  5
E00EDC57
330
E00DEA5D
100
AcDbEntity
  8
JISSEN
100
AcDbLine
 10
101.5467729253014
 20
146.9591773910038
 30
0.0
 11
95.59741480312823
 21
146.9591773910042
 31
0.0
  0
LINE
  5
E00EDC58
330
E00DEA5D
100
AcDbEntity
  8
JISSEN
100
AcDbLine
 10
99.77759498330648
 20
150.1305458350048
 30
0.0
 11
99.77759498330648
 21
154.3209303495882
 31
0.0
  0
LINE
  5
E00EDC59
330
E00DEA5D
100
AcDbEntity
  8
JISSEN
100
AcDbLine
 10
100.0778952836078
 20
154.3209303495878
 30
0.0
 11
100.0778952836064
 21
151.3654315797052
 31
0.0
  0
ARC
  5
E00EDC5A
330
E00DEA5D
100
AcDbEntity
  8
JISSEN
100
AcDbCircle
 10
89.61693432264997
 20
154.3209303495868
 30
0.0
 40
0.5
100
AcDbArc
 50
90.0
 51
180.000000000026
  0
ARC
  5
E00EDC5B
330
E00DEA5D
100
AcDbEntity
  8
JISSEN
100
AcDbCircle
 10
89.91723462295135
 20
154.3209303495873
 30
0.0
 40
0.5
100
AcDbArc
 50
90.0
 51
180.0
  0
LINE
  5
E00EDC5C
330
E00DEA5D
100
AcDbEntity
  8
JISSEN
100
AcDbLine
 10
87.64805668095688
 20
146.9591773910038
 30
0.0
 11
87.64805668095595
 21
148.3185962259981
 31
0.0
  0
LINE
  5
E00EDC5D
330
E00DEA5D
100
AcDbEntity
  8
JISSEN
100
AcDbLine
 10
89.41723462295135
 20
150.1305458350084
 30
0.0
 11
87.64805668095688
 21
146.9591773910038
 31
0.0
  0
LINE
  5
E00EDC5E
330
E00DEA5D
100
AcDbEntity
  8
JISSEN
100
AcDbLine
 10
89.11693432264906
 20
151.3654315797011
 30
0.0
 11
87.64805668095688
 21
148.318596225999
 31
0.0
  0
LINE
  5
E00EDC5F
330
E00DEA5D
100
AcDbEntity
  8
JISSEN
100
AcDbLine
 10
87.64805668095688
 20
146.9591773910038
 30
0.0
 11
87.64805668095595
 21
148.3185962259981
 31
0.0
  0
LINE
  5
E00EDC60
330
E00DEA5D
100
AcDbEntity
  8
JISSEN
100
AcDbLine
 10
89.41723462295101
 20
144.2631495076552
 30
0.0
 11
88.1800374693894
 21
141.8623648744729
 31
0.0
  0
LINE
  5
E00EDC61
330
E00DEA5D
100
AcDbEntity
  8
JISSEN
100
AcDbLine
 10
88.1800374693894
 20
141.8623648744729
 30
0.0
 11
88.1800374693894
 21
143.2241178330423
 31
0.0
  0
LINE
  5
E00EDC62
330
E00DEA5D
100
AcDbEntity
  8
JISSEN
100
AcDbLine
 10
89.41723462295191
 20
145.9154315797022
 30
0.0
 11
88.1800374693894
 21
143.2241178330423
 31
0.0
  0
LINE
  5
E00EDC63
330
E00DEA5D
100
AcDbEntity
  8
JISSEN
100
AcDbLine
 10
89.41723462295284
 20
145.9154315797022
 30
0.0
 11
89.41723462295191
 21
144.2631495076557
 31
0.0
  0
LINE
  5
E00EDC64
330
E00DEA5D
100
AcDbEntity
  8
JISSEN
100
AcDbLine
 10
89.41723462295135
 20
150.1305458350048
 30
0.0
 11
89.41723462295135
 21
154.3209303495873
 31
0.0
  0
LINE
  5
E00EDC65
330
E00DEA5D
100
AcDbEntity
  8
JISSEN
100
AcDbLine
 10
89.11693432264996
 20
154.3209303495868
 30
0.0
 11
89.11693432265133
 21
151.3654315797052
 31
0.0
  0
ARC
  5
E00EDC66
330
E00DEA5D
100
AcDbEntity
  8
JISSEN
100
AcDbCircle
 10
69.76867457802081
 20
154.3209303495883
 30
0.0
 40
0.5
100
AcDbArc
 50
359.9999999999739
 51
90.0
  0
ARC
  5
E00EDC67
330
E00DEA5D
100
AcDbEntity
  8
JISSEN
100
AcDbCircle
 10
69.76867457802081
 20
154.3209303495883
 30
0.0
 40
0.5
100
AcDbArc
 50
90.0
 51
180.0
  0
LINE
  5
E00EDC68
330
E00DEA5D
100
AcDbEntity
  8
JISSEN
 48
3.0
100
AcDbLine
 10
69.76867457802081
 20
154.8209303495883
 30
0.0
 11
69.76867457802081
 21
154.8209303495883
 31
0.0
  0
ARC
  5
E00EDC69
330
E00DEA5D
100
AcDbEntity
  8
JISSEN
100
AcDbCircle
 10
70.86867457801844
 20
149.730545835007
 30
0.0
 40
0.4
100
AcDbArc
 50
0.0
 51
34.28043460805104
  0
LINE
  5
E00EDC6A
330
E00DEA5D
100
AcDbEntity
  8
JISSEN
100
AcDbLine
 10
69.26867457801899
 20
148.1052293386974
 30
0.0
 11
69.26867457801899
 21
146.0431578461187
 31
0.0
  0
LINE
  5
E00EDC6B
330
E00DEA5D
100
AcDbEntity
  8
JISSEN
100
AcDbLine
 10
70.26867457802024
 20
151.3209303495787
 30
0.0
 11
71.19919084981399
 21
149.9558434028554
 31
0.0
  0
LINE
  5
E00EDC6C
330
E00DEA5D
100
AcDbEntity
  8
JISSEN
100
AcDbLine
 10
69.26867457801638
 20
142.1955834237839
 30
0.0
 11
69.26867457801638
 21
140.5431578461179
 31
0.0
  0
LINE
  5
E00EDC6D
330
E00DEA5D
100
AcDbEntity
  8
JISSEN
100
AcDbLine
 10
70.26867457801728
 20
145.8654315797016
 30
0.0
 11
70.26867457801637
 21
144.213149507656
 31
0.0
  0
LINE
  5
E00EDC6E
330
E00DEA5D
100
AcDbEntity
  8
JISSEN
100
AcDbLine
 10
62.77372791405986
 20
148.3209303495747
 30
0.0
 11
63.40271827950591
 21
146.9591773910044
 31
0.0
  0
LINE
  5
E00EDC6F
330
E00DEA5D
100
AcDbEntity
  8
JISSEN
100
AcDbLine
 10
64.55027727557882
 20
143.2241178330507
 30
0.0
 11
65.17926764102771
 21
141.8623648744732
 31
0.0
  0
LINE
  5
E00EDC70
330
E00DEA5D
100
AcDbEntity
  8
JISSEN
100
AcDbLine
 10
69.26867457801989
 20
151.3209303495787
 30
0.0
 11
62.77372791405986
 21
148.3209303495747
 31
0.0
  0
LINE
  5
E00EDC71
330
E00DEA5D
100
AcDbEntity
  8
JISSEN
100
AcDbLine
 10
70.26867457801717
 20
150.1305458350066
 30
0.0
 11
63.40271827950591
 21
146.9591773910044
 31
0.0
  0
LINE
  5
E00EDC72
330
E00DEA5D
100
AcDbEntity
  8
JISSEN
100
AcDbLine
 10
70.26867457801819
 20
145.8654315797021
 30
0.0
 11
64.54522393954249
 21
143.2217837094709
 31
0.0
  0
LINE
  5
E00EDC73
330
E00DEA5D
100
AcDbEntity
  8
JISSEN
100
AcDbLine
 10
70.26867457801455
 20
144.2131495076556
 30
0.0
 11
65.17926764102771
 21
141.8623648744732
 31
0.0
  0
ARC
  5
E00EDC74
330
E00DEA5D
100
AcDbEntity
  8
JISSEN
100
AcDbCircle
 10
68.26867457801899
 20
148.1052293386974
 30
0.0
 40
1.0
100
AcDbArc
 50
0.0
 51
114.7920998178847
  0
ARC
  5
E00EDC75
330
E00DEA5D
100
AcDbEntity
  8
JISSEN
100
AcDbCircle
 10
68.26867457801637
 20
142.1955834237839
 30
0.0
 40
1.0
100
AcDbArc
 50
0.0
 51
114.7920998178847
  0
ARC
  5
E00EDC76
330
E00DEA5D
100
AcDbEntity
  8
JISSEN
100
AcDbCircle
 10
68.26867457801899
 20
146.0431578461187
 30
0.0
 40
1.0
100
AcDbArc
 50
294.7920998178742
 51
0.0
  0
LINE
  5
E00EDC77
330
E00DEA5D
100
AcDbEntity
  8
JISSEN
100
AcDbLine
 10
70.2686745780208
 20
154.320930349588
 30
0.0
 11
70.2686745780199
 21
150.130545835008
 31
0.0
  0
LINE
  5
E00EDC78
330
E00DEA5D
100
AcDbEntity
  8
JISSEN
100
AcDbLine
 10
69.26867457802081
 20
154.3209303495883
 30
0.0
 11
69.26867457802081
 21
151.3209303495792
 31
0.0
  0
LINE
  5
E00EDC79
330
E00DEA5D
100
AcDbEntity
  8
JISSEN
100
AcDbLine
 10
89.61693432264997
 20
154.8209303495868
 30
0.0
 11
92.84741480312982
 21
154.8209303495877
 31
0.0
  0
LINE
  5
E00EDC7A
330
E00DEA5D
100
AcDbEntity
  8
JISSEN
100
AcDbLine
 10
87.64805668095688
 20
146.9591773910038
 30
0.0
 11
93.59741480313005
 21
146.9591773910042
 31
0.0
  0
LINE
  5
E00EDC7B
330
E00DEA5D
100
AcDbEntity
  8
JISSEN
100
AcDbLine
 10
88.1800374693894
 20
141.8623648744729
 30
0.0
 11
93.59741480312823
 21
141.8623648744729
 31
0.0
  0
LINE
  5
E00EDC7C
330
E00DEA5D
100
AcDbEntity
  8
JISSEN
100
AcDbLine
 10
89.41723462295191
 20
145.9154315797022
 30
0.0
 11
93.59741480312857
 21
145.9154315797022
 31
0.0
  0
LINE
  5
E00EDC7D
330
E00DEA5D
100
AcDbEntity
  8
JISSEN
100
AcDbLine
 10
89.41723462295135
 20
150.1305458350084
 30
0.0
 11
93.59741480312891
 21
150.130545835008
 31
0.0
  0
LINE
  5
E00EDC7E
330
E00DEA5D
100
AcDbEntity
  8
JISSEN
100
AcDbLine
 10
89.41723462295101
 20
144.2631495076552
 30
0.0
 11
93.59741480312857
 21
144.2631495076561
 31
0.0
  0
LINE
  5
E00EDC7F
330
E00DEA5D
100
AcDbEntity
  8
JISSEN
100
AcDbLine
 10
93.59741480312981
 20
140.365431579702
 30
0.0
 11
89.41723462295318
 21
140.3654315797016
 31
0.0
  0
ARC
  5
E00EDC80
330
E00DEA5D
100
AcDbEntity
  8
JISSEN
100
AcDbCircle
 10
35.69169434102196
 20
154.3209303495868
 30
0.0
 40
0.5
100
AcDbArc
 50
359.9999999999739
 51
90.0
  0
ARC
  5
E00EDC81
330
E00DEA5D
100
AcDbEntity
  8
JISSEN
100
AcDbCircle
 10
32.46121386054301
 20
154.3209303495887
 30
0.0
 40
0.5
100
AcDbArc
 50
90.0
 51
180.0
  0
ARC
  5
E00EDC82
330
E00DEA5D
100
AcDbEntity
  8
JISSEN
100
AcDbCircle
 10
28.9612138605421
 20
154.3209303495882
 30
0.0
 40
0.5
100
AcDbArc
 50
0.0
 51
90.0
  0
ARC
  5
E00EDC83
330
E00DEA5D
100
AcDbEntity
  8
JISSEN
100
AcDbCircle
 10
30.46121386054301
 20
153.3209303495891
 30
0.0
 40
1.0
100
AcDbArc
 50
180.0
 51
270.0
  0
LINE
  5
E00EDC84
330
E00DEA5D
100
AcDbEntity
  8
JISSEN
100
AcDbLine
 10
30.46121386054301
 20
152.3209303495891
 30
0.0
 11
30.96121386054301
 21
152.3209303495891
 31
0.0
  0
ARC
  5
E00EDC85
330
E00DEA5D
100
AcDbEntity
  8
JISSEN
100
AcDbCircle
 10
30.96121386054301
 20
153.3209303495891
 30
0.0
 40
1.0
100
AcDbArc
 50
270.0
 51
0.0
  0
LINE
  5
E00EDC86
330
E00DEA5D
100
AcDbEntity
  8
JISSEN
100
AcDbLine
 10
29.4612138605421
 20
154.3209303495882
 30
0.0
 11
29.46121386054301
 21
153.3209303495882
 31
0.0
  0
LINE
  5
E00EDC87
330
E00DEA5D
100
AcDbEntity
  8
JISSEN
100
AcDbLine
 10
31.96121386054301
 20
154.3209303495887
 30
0.0
 11
31.96121386054301
 21
153.3209303495882
 31
0.0
  0
LINE
  5
E00EDC88
330
E00DEA5D
100
AcDbEntity
  8
JISSEN
100
AcDbLine
 10
35.69169434102196
 20
154.8209303495882
 30
0.0
 11
32.46121386054301
 21
154.8209303495887
 31
0.0
  0
LINE
  5
E00EDC89
330
E00DEA5D
100
AcDbEntity
  8
JISSEN
100
AcDbLine
 10
37.66057198271528
 20
146.959177391004
 30
0.0
 11
37.66057198271619
 21
148.3209303495744
 31
0.0
  0
LINE
  5
E00EDC8A
330
E00DEA5D
100
AcDbEntity
  8
JISSEN
100
AcDbLine
 10
37.12859119428185
 20
141.8623648744729
 30
0.0
 11
37.12859119428276
 21
143.2241178330492
 31
0.0
  0
LINE
  5
E00EDC8B
330
E00DEA5D
100
AcDbEntity
  8
JISSEN
100
AcDbLine
 10
31.7112138605421
 20
146.9591773910042
 30
0.0
 11
31.7112138605421
 21
145.8654315797023
 31
0.0
  0
LINE
  5
E00EDC8C
330
E00DEA5D
100
AcDbEntity
  8
JISSEN
100
AcDbLine
 10
29.71121386055233
 20
146.9591773910043
 30
0.0
 11
29.7112138605421
 21
145.8654315797023
 31
0.0
  0
LINE
  5
E00EDC8D
330
E00DEA5D
100
AcDbEntity
  8
JISSEN
100
AcDbLine
 10
29.71121386054301
 20
141.8623648744724
 30
0.0
 11
29.71121386054301
 21
140.365431579702
 31
0.0
  0
LINE
  5
E00EDC8E
330
E00DEA5D
100
AcDbEntity
  8
JISSEN
100
AcDbLine
 10
31.71121386054301
 20
141.8623648744725
 30
0.0
 11
31.71121386054301
 21
140.365431579702
 31
0.0
  0
LINE
  5
E00EDC8F
330
E00DEA5D
100
AcDbEntity
  8
JISSEN
100
AcDbLine
 10
35.89139404071966
 20
145.8654315797018
 30
0.0
 11
37.12859119428276
 21
143.2241178330402
 31
0.0
  0
LINE
  5
E00EDC90
330
E00DEA5D
100
AcDbEntity
  8
JISSEN
100
AcDbLine
 10
36.19169434102104
 20
151.3654315797021
 30
0.0
 11
37.66057198271528
 21
148.3185962259989
 31
0.0
  0
LINE
  5
E00EDC91
330
E00DEA5D
100
AcDbEntity
  8
JISSEN
100
AcDbLine
 10
36.19169434102241
 20
154.3209303495866
 30
0.0
 11
36.19169434102104
 21
151.3654315797021
 31
0.0
  0
ARC
  5
E00EDC92
330
E00DEA5D
100
AcDbEntity
  8
JISSEN
100
AcDbCircle
 10
25.73073338006406
 20
154.3209303495868
 30
0.0
 40
0.5
100
AcDbArc
 50
90.0
 51
180.000000000026
  0
LINE
  5
E00EDC93
330
E00DEA5D
100
AcDbEntity
  8
JISSEN
100
AcDbLine
 10
23.76185573837074
 20
146.9591773910036
 30
0.0
 11
23.76185573836983
 21
148.318596225998
 31
0.0
  0
LINE
  5
E00EDC94
330
E00DEA5D
100
AcDbEntity
  8
JISSEN
100
AcDbLine
 10
25.23073338006497
 20
151.3654315797057
 30
0.0
 11
23.76185573837074
 21
148.3185962259989
 31
0.0
  0
LINE
  5
E00EDC95
330
E00DEA5D
100
AcDbEntity
  8
JISSEN
100
AcDbLine
 10
24.29383652680417
 20
141.8623648744724
 30
0.0
 11
24.29383652680417
 21
143.2241178330419
 31
0.0
  0
LINE
  5
E00EDC96
330
E00DEA5D
100
AcDbEntity
  8
JISSEN
100
AcDbLine
 10
25.53103368036636
 20
145.8654315797018
 30
0.0
 11
24.29383652680417
 21
143.2241178330419
 31
0.0
  0
LINE
  5
E00EDC97
330
E00DEA5D
100
AcDbEntity
  8
JISSEN
100
AcDbLine
 10
25.23073338006361
 20
154.3209303495866
 30
0.0
 11
25.23073338006497
 21
151.3654315797057
 31
0.0
  0
LINE
  5
E00EDC98
330
E00DEA5D
100
AcDbEntity
  8
JISSEN
100
AcDbLine
 10
25.20530086461303
 20
151.3206753191557
 30
0.0
 11
36.21712685647298
 21
151.3206753191552
 31
0.0
  0
LINE
  5
E00EDC99
330
E00DEA5D
100
AcDbEntity
  8
JISSEN
100
AcDbLine
 10
28.9612138605421
 20
154.8209303495882
 30
0.0
 11
25.73073338006406
 21
154.8209303495891
 31
0.0
  0
LINE
  5
E00EDC9A
330
E00DEA5D
100
AcDbEntity
  8
JISSEN
100
AcDbLine
 10
35.71121386054301
 20
145.8654315797023
 30
0.0
 11
25.53103368036545
 21
145.8654315797018
 31
0.0
  0
LINE
  5
E00EDC9B
330
E00DEA5D
100
AcDbEntity
  8
JISSEN
100
AcDbLine
 10
25.71121386054392
 20
140.365431579702
 30
0.0
 11
35.7112138605421
 21
140.365431579702
 31
0.0
  0
LINE
  5
E00EDC9C
330
E00DEA5D
100
AcDbEntity
  8
JISSEN
100
AcDbLine
 10
37.12859119428185
 20
141.8623648744729
 30
0.0
 11
24.29383652680417
 21
141.862364874472
 31
0.0
  0
LINE
  5
E00EDC9D
330
E00DEA5D
100
AcDbEntity
  8
JISSEN
100
AcDbLine
 10
37.12859119428276
 20
143.2241178330492
 30
0.0
 11
24.29383652680417
 21
143.2241178330492
 31
0.0
  0
LINE
  5
E00EDC9E
330
E00DEA5D
100
AcDbEntity
  8
JISSEN
100
AcDbLine
 10
37.66057198271528
 20
146.959177391004
 30
0.0
 11
23.76185573837074
 21
146.9591773910045
 31
0.0
  0
LINE
  5
E00EDC9F
330
E00DEA5D
100
AcDbEntity
  8
JISSEN
100
AcDbLine
 10
37.66057198271528
 20
148.3209303495754
 30
0.0
 11
23.76185573837074
 21
148.3209303495754
 31
0.0
  0
LINE
  5
E00EDCA0
330
E00DEA5D
100
AcDbEntity
  8
JISSEN
100
AcDbLine
 10
98.59741480312663
 20
135.365431579702
 30
0.0
 11
97.09741480312755
 21
135.365431579702
 31
0.0
  0
LINE
  5
E00EDCA1
330
E00DEA5D
100
AcDbEntity
  8
JISSEN
100
AcDbLine
 10
93.59741480312777
 20
136.1134081388255
 30
0.0
 11
92.09741480312755
 21
135.3654315797016
 31
0.0
  0
LINE
  5
E00EDCA2
330
E00DEA5D
100
AcDbEntity
  8
JISSEN
100
AcDbLine
 10
95.59741480312789
 20
136.1134081388253
 30
0.0
 11
97.09741480312755
 21
135.3654315797016
 31
0.0
  0
LINE
  5
E00EDCA3
330
E00DEA5D
100
AcDbEntity
  8
JISSEN
100
AcDbLine
 10
95.59741480312892
 20
138.7131495076569
 30
0.0
 11
99.77759498330465
 21
138.7131495076564
 31
0.0
  0
LINE
  5
E00EDCA4
330
E00DEA5D
100
AcDbEntity
  8
JISSEN
100
AcDbLine
 10
95.59741480312892
 20
136.6919471474517
 30
0.0
 11
99.77759498330465
 21
136.6919471474517
 31
0.0
  0
ARC
  5
E00EDCA5
330
E00DEA5D
100
AcDbEntity
  8
JISSEN
100
AcDbCircle
 10
98.29741480312646
 20
130.0654315796468
 30
0.0
 40
0.3
100
AcDbArc
 50
270.0
 51
0.0
  0
LINE
  5
E00EDCA6
330
E00DEA5D
100
AcDbEntity
  8
JISSEN
 48
3.0
100
AcDbLine
 10
93.59741480312733
 20
131.8654315796541
 30
0.0
 11
95.59741480312732
 21
131.8654315796532
 31
0.0
  0
ARC
  5
E00EDCA7
330
E00DEA5D
100
AcDbEntity
  8
JISSEN
 48
3.0
100
AcDbCircle
 10
95.59741480312755
 20
132.3654315796534
 30
0.0
 40
0.5
100
AcDbArc
 50
270.0
 51
0.0
  0
LINE
  5
E00EDCA8
330
E00DEA5D
100
AcDbEntity
  8
JISSEN
 48
3.0
100
AcDbLine
 10
93.59741480312733
 20
132.3654315796445
 30
0.0
 11
95.59741480312732
 21
132.3654315796436
 31
0.0
  0
ARC
  5
E00EDCA9
330
E00DEA5D
100
AcDbEntity
  8
JISSEN
 48
3.0
100
AcDbCircle
 10
95.59741480312755
 20
132.8654315796438
 30
0.0
 40
0.5
100
AcDbArc
 50
270.0
 51
0.0
  0
ARC
  5
E00EDCAA
330
E00DEA5D
100
AcDbEntity
  8
JISSEN
 48
3.0
100
AcDbCircle
 10
93.59741480312754
 20
132.8654315796438
 30
0.0
 40
0.5
100
AcDbArc
 50
180.0
 51
270.0
  0
ARC
  5
E00EDCAB
330
E00DEA5D
100
AcDbEntity
  8
JISSEN
 48
3.0
100
AcDbCircle
 10
93.59741480312754
 20
132.3654315796534
 30
0.0
 40
0.5
100
AcDbArc
 50
180.0
 51
270.0
  0
LINE
  5
E00EDCAC
330
E00DEA5D
100
AcDbEntity
  8
JISSEN
 48
3.0
100
AcDbLine
 10
96.09741480312937
 20
134.3716238240262
 30
0.0
 11
96.09741480312573
 21
132.3654315796525
 31
0.0
  0
LINE
  5
E00EDCAD
330
E00DEA5D
100
AcDbEntity
  8
JISSEN
100
AcDbLine
 10
98.59741480312846
 20
135.365431579702
 30
0.0
 11
98.59741480312663
 21
130.0654315796468
 31
0.0
  0
LINE
  5
E00EDCAE
330
E00DEA5D
100
AcDbEntity
  8
JISSEN
 48
3.0
100
AcDbLine
 10
93.09741480312572
 20
134.3716238240262
 30
0.0
 11
93.09741480312936
 21
132.3654315796525
 31
0.0
  0
ARC
  5
E00EDCAF
330
E00DEA5D
100
AcDbEntity
  8
JISSEN
100
AcDbCircle
 10
90.89741480312772
 20
130.0654315796473
 30
0.0
 40
0.3
100
AcDbArc
 50
180.0
 51
270.0
  0
LINE
  5
E00EDCB0
330
E00DEA5D
100
AcDbEntity
  8
JISSEN
100
AcDbLine
 10
90.59741480312846
 20
135.365431579702
 30
0.0
 11
90.59741480312665
 21
130.0654315796473
 31
0.0
  0
LINE
  5
E00EDCB1
330
E00DEA5D
100
AcDbEntity
  8
JISSEN
100
AcDbLine
 10
69.26867457801444
 20
136.1134081388246
 30
0.0
 11
71.04356246370452
 21
136.1134081388237
 31
0.0
  0
LINE
  5
E00EDCB2
330
E00DEA5D
100
AcDbEntity
  8
JISSEN
100
AcDbLine
 10
69.26867457801444
 20
136.6955834237821
 30
0.0
 11
69.26867457801444
 21
135.9046645066839
 31
0.0
  0
LINE
  5
E00EDCB3
330
E00DEA5D
100
AcDbEntity
  8
JISSEN
100
AcDbLine
 10
69.26867457802444
 20
134.0076535897624
 30
0.0
 11
69.26867457802808
 21
132.7654315796426
 31
0.0
  0
ARC
  5
E00EDCB4
330
E00DEA5D
100
AcDbEntity
  8
JISSEN
100
AcDbCircle
 10
69.4686745780279
 20
132.765431579643
 30
0.0
 40
0.2
100
AcDbArc
 50
180.0000000001302
 51
336.0165961924199
  0
LINE
  5
E00EDCB5
330
E00DEA5D
100
AcDbEntity
  8
JISSEN
100
AcDbLine
 10
71.26867457801523
 20
136.3194126293027
 30
0.0
 11
69.65140722481255
 21
132.6841371776267
 31
0.0
  0
LINE
  5
E00EDCB6
330
E00DEA5D
100
AcDbEntity
  8
JISSEN
100
AcDbLine
 10
65.26381703704164
 20
138.0537001060236
 30
0.0
 11
65.89280740248767
 21
136.6919471474522
 31
0.0
  0
ARC
  5
E00EDCB7
330
E00DEA5D
100
AcDbEntity
  8
JISSEN
100
AcDbCircle
 10
67.76867457802262
 20
130.0654315796467
 30
0.0
 40
0.3000000000004093
100
AcDbArc
 50
270.0000000001563
 51
90.00000000015631
  0
ARC
  5
E00EDCB8
330
E00DEA5D
100
AcDbEntity
  8
JISSEN
370
     0
100
AcDbCircle
 10
67.76867457801808
 20
131.8654315796459
 30
0.0
 40
1.49999999999909
100
AcDbArc
 50
110.0
 51
270.0000000001563
  0
ARC
  5
E00EDCB9
330
E00DEA5D
100
AcDbEntity
  8
JISSEN
 48
3.0
370
     0
100
AcDbCircle
 10
67.76867457801808
 20
131.8654315796459
 30
0.0
 40
2.1
100
AcDbArc
 50
123.3327986594002
 51
270.0000000001563
  0
LINE
  5
E00EDCBA
330
E00DEA5D
100
AcDbEntity
  8
JISSEN
100
AcDbLine
 10
68.81817575943904
 20
135.0691715673872
 30
0.0
 11
66.61472209702669
 21
133.6199667521666
 31
0.0
  0
ARC
  5
E00EDCBB
330
E00DEA5D
100
AcDbEntity
  8
JISSEN
100
AcDbCircle
 10
68.26867457801444
 20
135.904664506683
 30
0.0
 40
1.0
100
AcDbArc
 50
303.3327986594002
 51
0.0000000000521102
  0
LINE
  5
E00EDCBC
330
E00DEA5D
100
AcDbEntity
  8
JISSEN
100
AcDbLine
 10
69.11083124423448
 20
135.3654315797014
 30
0.0
 11
70.71080141544161
 21
135.3654315797023
 31
0.0
  0
LINE
  5
E00EDCBD
330
E00DEA5D
100
AcDbEntity
  8
JISSEN
100
AcDbLine
 10
70.26867457801626
 20
138.7131495076561
 30
0.0
 11
65.89280740248767
 21
136.6919471474522
 31
0.0
  0
LINE
  5
E00EDCBE
330
E00DEA5D
100
AcDbEntity
  8
JISSEN
100
AcDbLine
 10
67.25564436302801
 20
133.2749705108251
 30
0.0
 11
70.42792558266063
 21
134.4295864494932
 31
0.0
  0
ARC
  5
E00EDCBF
330
E00DEA5D
100
AcDbEntity
  8
JISSEN
100
AcDbCircle
 10
68.26867457801444
 20
136.6955834237821
 30
0.0
 40
1.0
100
AcDbArc
 50
0.0
 51
114.7920998178847
  0
LINE
  5
E00EDCC0
330
E00DEA5D
100
AcDbEntity
  8
JISSEN
100
AcDbLine
 10
90.59741480312665
 20
130.3654315796475
 30
0.0
 11
98.59741480312573
 21
130.365431579647
 31
0.0
  0
LINE
  5
E00EDCC1
330
E00DEA5D
100
AcDbEntity
  8
JISSEN
100
AcDbLine
 10
98.59741480312663
 20
134.3716238240258
 30
0.0
 11
90.59741480312846
 21
134.3716238240258
 31
0.0
  0
LINE
  5
E00EDCC2
330
E00DEA5D
100
AcDbEntity
  8
JISSEN
100
AcDbLine
 10
89.41723462295227
 20
136.6919471474522
 30
0.0
 11
93.59741480312891
 21
136.6919471474522
 31
0.0
  0
LINE
  5
E00EDCC3
330
E00DEA5D
100
AcDbEntity
  8
JISSEN
100
AcDbLine
 10
90.89741480312772
 20
129.7654315796467
 30
0.0
 11
98.29741480312646
 21
129.7654315796467
 31
0.0
  0
LINE
  5
E00EDCC4
330
E00DEA5D
100
AcDbEntity
  8
JISSEN
100
AcDbLine
 10
89.41723462295227
 20
138.7131495076573
 30
0.0
 11
93.59741480312981
 21
138.7131495076573
 31
0.0
  0
LINE
  5
E00EDCC5
330
E00DEA5D
100
AcDbEntity
  8
JISSEN
100
AcDbLine
 10
90.59741480312846
 20
135.365431579702
 30
0.0
 11
92.09741480312755
 21
135.365431579702
 31
0.0
  0
LINE
  5
E00EDCC6
330
E00DEA5D
100
AcDbEntity
  8
JISSEN
100
AcDbLine
 10
33.21121386054142
 20
135.3654315797025
 30
0.0
 11
34.71121386054233
 21
135.365431579702
 31
0.0
  0
LINE
  5
E00EDCC7
330
E00DEA5D
100
AcDbEntity
  8
JISSEN
100
AcDbLine
 10
29.71121386054142
 20
136.1134081388254
 30
0.0
 11
28.21121386054324
 21
135.3654315797025
 31
0.0
  0
LINE
  5
E00EDCC8
330
E00DEA5D
100
AcDbEntity
  8
JISSEN
100
AcDbLine
 10
31.71121386054301
 20
136.6896130238778
 30
0.0
 11
31.71121386054301
 21
136.1134081388246
 31
0.0
  0
LINE
  5
E00EDCC9
330
E00DEA5D
100
AcDbEntity
  8
JISSEN
100
AcDbLine
 10
29.71121386054301
 20
136.6896130238777
 30
0.0
 11
29.71121386054301
 21
136.1134081388262
 31
0.0
  0
LINE
  5
E00EDCCA
330
E00DEA5D
100
AcDbEntity
  8
JISSEN
100
AcDbLine
 10
31.71121386054142
 20
136.1134081388254
 30
0.0
 11
33.21121386054142
 21
135.3654315797025
 31
0.0
  0
ARC
  5
E00EDCCB
330
E00DEA5D
100
AcDbEntity
  8
JISSEN
100
AcDbCircle
 10
34.41121386054215
 20
130.0654315796464
 30
0.0
 40
0.3
100
AcDbArc
 50
270.0
 51
0.0
  0
LINE
  5
E00EDCCC
330
E00DEA5D
100
AcDbEntity
  8
JISSEN
 48
3.0
100
AcDbLine
 10
31.71121386054255
 20
131.8654315796536
 30
0.0
 11
29.71121386054255
 21
131.8654315796526
 31
0.0
  0
ARC
  5
E00EDCCD
330
E00DEA5D
100
AcDbEntity
  8
JISSEN
 48
3.0
100
AcDbCircle
 10
31.71121386054233
 20
132.3654315796534
 30
0.0
 40
0.5
100
AcDbArc
 50
270.0
 51
0.0
  0
ARC
  5
E00EDCCE
330
E00DEA5D
100
AcDbEntity
  8
JISSEN
 48
3.0
100
AcDbCircle
 10
29.71121386054233
 20
132.3654315796529
 30
0.0
 40
0.5
100
AcDbArc
 50
180.0
 51
270.0
  0
ARC
  5
E00EDCCF
330
E00DEA5D
100
AcDbEntity
  8
JISSEN
 48
3.0
100
AcDbCircle
 10
29.71121386054233
 20
132.8654315796434
 30
0.0
 40
0.5
100
AcDbArc
 50
180.0
 51
270.0
  0
ARC
  5
E00EDCD0
330
E00DEA5D
100
AcDbEntity
  8
JISSEN
 48
3.0
100
AcDbCircle
 10
31.71121386054233
 20
132.8654315796438
 30
0.0
 40
0.5
100
AcDbArc
 50
270.0
 51
0.0
  0
LINE
  5
E00EDCD1
330
E00DEA5D
100
AcDbEntity
  8
JISSEN
 48
3.0
100
AcDbLine
 10
31.71121386054255
 20
132.3654315796441
 30
0.0
 11
29.71121386054255
 21
132.3654315796432
 31
0.0
  0
LINE
  5
E00EDCD2
330
E00DEA5D
100
AcDbEntity
  8
JISSEN
100
AcDbLine
 10
34.71121386054301
 20
135.365431579702
 30
0.0
 11
34.71121386054301
 21
130.0654315796464
 31
0.0
  0
LINE
  5
E00EDCD3
330
E00DEA5D
100
AcDbEntity
  8
JISSEN
 48
3.0
100
AcDbLine
 10
29.21121386054233
 20
135.6515105813514
 30
0.0
 11
29.21121386054233
 21
132.3654315796529
 31
0.0
  0
LINE
  5
E00EDCD4
330
E00DEA5D
100
AcDbEntity
  8
JISSEN
 48
3.0
100
AcDbLine
 10
32.21121386054233
 20
135.6515105813514
 30
0.0
 11
32.21121386054233
 21
132.3654315796534
 31
0.0
  0
ARC
  5
E00EDCD5
330
E00DEA5D
100
AcDbEntity
  8
JISSEN
100
AcDbCircle
 10
27.01121386054251
 20
130.0654315796468
 30
0.0
 40
0.3
100
AcDbArc
 50
180.0
 51
270.0
  0
LINE
  5
E00EDCD6
330
E00DEA5D
100
AcDbEntity
  8
JISSEN
100
AcDbLine
 10
26.71121386054233
 20
135.365431579702
 30
0.0
 11
26.71121386054142
 21
130.0654315796468
 31
0.0
  0
LINE
  5
E00EDCD7
330
E00DEA5D
100
AcDbEntity
  8
JISSEN
100
AcDbLine
 10
27.01121386054251
 20
129.7654315796462
 30
0.0
 11
34.41121386054215
 21
129.7654315796462
 31
0.0
  0
LINE
  5
E00EDCD8
330
E00DEA5D
100
AcDbEntity
  8
JISSEN
100
AcDbLine
 10
35.71121386054301
 20
136.6896130238777
 30
0.0
 11
25.71121386054392
 21
136.6896130238777
 31
0.0
  0
LINE
  5
E00EDCD9
330
E00DEA5D
100
AcDbEntity
  8
JISSEN
100
AcDbLine
 10
35.71121386054301
 20
138.0513659824486
 30
0.0
 11
25.71121386054392
 21
138.0513659824481
 31
0.0
  0
LINE
  5
E00EDCDA
330
E00DEA5D
100
AcDbEntity
  8
JISSEN
100
AcDbLine
 10
26.71121386054233
 20
135.365431579702
 30
0.0
 11
28.21121386054324
 21
135.3654315797025
 31
0.0
  0
LINE
  5
E00EDCDB
330
E00DEA5D
100
AcDbEntity
  8
JISSEN
100
AcDbLine
 10
70.26867457801808
 20
140.3654315797022
 30
0.0
 11
70.26867457801626
 21
138.7131495076561
 31
0.0
  0
LINE
  5
E00EDCDC
330
E00DEA5D
100
AcDbEntity
  8
JISSEN
100
AcDbLine
 10
71.26867457801807
 20
149.730545835007
 30
0.0
 11
71.26867457801546
 21
136.3194126293032
 31
0.0
  0
LINE
  5
E00EDCDD
330
E00DEA5D
100
AcDbEntity
  8
JISSEN
100
AcDbLine
 10
89.41723462295318
 20
140.3654315797016
 30
0.0
 11
89.41723462295215
 21
136.6919471474522
 31
0.0
  0
LINE
  5
E00EDCDE
330
E00DEA5D
100
AcDbEntity
  8
JISSEN
100
AcDbLine
 10
70.26867457801626
 20
140.3654315797012
 30
0.0
 11
65.25876370099894
 21
138.0513659824482
 31
0.0
  0
LINE
  5
E00EDCDF
330
E00DEA5D
100
AcDbEntity
  8
JISSEN
 48
5.0
100
AcDbLine
 10
93.59741480312903
 20
151.659492521822
 30
0.0
 11
93.59741480312777
 21
136.1134081388255
 31
0.0
  0
LINE
  5
E00EDCE0
330
E00DEA5D
100
AcDbEntity
  8
JISSEN
 48
5.0
100
AcDbLine
 10
95.59741480312903
 20
151.6594925218222
 30
0.0
 11
95.59741480312789
 21
136.1134081388253
 31
0.0
  0
LINE
  5
E00EDCE1
330
E00DEA5D
100
AcDbEntity
  8
JISSEN
100
AcDbLine
 10
99.77759498330465
 20
140.365431579702
 30
0.0
 11
99.77759498330465
 21
136.6919471474522
 31
0.0
  0
LINE
  5
E00EDCE2
330
E00DEA5D
100
AcDbEntity
  8
JISSEN
100
AcDbLine
 10
35.7112138605421
 20
140.365431579702
 30
0.0
 11
35.7112138605421
 21
136.6896130238777
 31
0.0
  0
LINE
  5
E00EDCE3
330
E00DEA5D
100
AcDbEntity
  8
JISSEN
100
AcDbLine
 10
25.71121386054392
 20
140.365431579702
 30
0.0
 11
25.71121386054392
 21
136.6896130238777
 31
0.0
  0
ARC
  5
E00EDCE4
330
E00DEA5D
100
AcDbEntity
  8
JISSEN
100
AcDbCircle
 10
68.26867457801694
 20
140.5431578461179
 30
0.0
 40
1.0
100
AcDbArc
 50
294.7920998178742
 51
0.0
  0
LINE
  5
E00EDCE5
330
E00DEA5D
100
AcDbEntity
  8
JISSEN
100
AcDbLine
 10
9.16199542186888
 20
94.79037654118675
 30
0.0
 11
9.16199542186888
 21
95.12614483241506
 31
0.0
  0
ARC
  5
E00EDCE6
330
E00DEA5D
100
AcDbEntity
  8
JISSEN
100
AcDbCircle
 10
9.828662088535565
 20
94.79037654118675
 30
0.0
 40
0.6666666666666666
100
AcDbArc
 50
180.0
 51
259.7516211656066
  0
LINE
  5
E00EDCE7
330
E00DEA5D
100
AcDbEntity
  8
JISSEN
100
AcDbLine
 10
9.841152444752253
 20
94.11064299289703
 30
0.0
 11
9.710051620343278
 21
94.13434605311513
 31
0.0
  0
LINE
  5
E00EDCE8
330
E00DEA5D
100
AcDbEntity
  8
JISSEN
100
AcDbLine
 10
18.66199542186825
 20
77.12614483241506
 30
0.0
 11
29.1619954218695
 21
77.12614483241977
 31
0.0
  0
LINE
  5
E00EDCE9
330
E00DEA5D
100
AcDbEntity
  8
JISSEN
100
AcDbLine
 10
39.63048461626868
 20
91.79281149907867
 30
0.0
 11
35.48231574218954
 21
91.79281149907934
 31
0.0
  0
LINE
  5
E00EDCEA
330
E00DEA5D
100
AcDbEntity
  8
JISSEN
100
AcDbLine
 10
24.0268395608042
 20
91.79281149907962
 30
0.0
 11
28.17500843488483
 21
91.79281149907962
 31
0.0
  0
LINE
  5
E00EDCEB
330
E00DEA5D
100
AcDbEntity
  8
JISSEN
100
AcDbLine
 10
19.49532875520282
 20
95.12614483241597
 30
0.0
 11
19.49532875520282
 21
112.9594781657484
 31
0.0
  0
SPLINE
  5
E00EDCEC
330
E00DEA5D
100
AcDbEntity
  8
JISSEN
100
AcDbSpline
210
0.0
220
0.0
230
1.0
 70
     8
 71
     3
 72
     9
 73
     5
 74
     0
 42
0.0000000001
 43
0.0000000001
 40
9.960418238928442
 40
9.960418238928442
 40
9.960418238928442
 40
9.960418238928442
 40
12.78111185631362
 40
22.09188839059526
 40
22.09188839059526
 40
22.09188839059526
 40
22.09188839059526
 10
45.28050492373949
 20
92.53752993470113
 30
0.0
 10
44.25280731855855
 20
90.1833590651133
 30
0.0
 10
43.33489648393032
 20
87.66063706609283
 30
0.0
 10
42.81275998519413
 20
85.00340946283046
 30
0.0
 10
42.41202568017189
 20
82.96401505263981
 30
0.0
  0
ARC
  5
E00EDCED
330
E00DEA5D
100
AcDbEntity
  8
JISSEN
 62
     7
370
     0
100
AcDbCircle
 10
44.99532875520401
 20
78.12614483237384
 30
0.0
 40
0.9999999999993935
100
AcDbArc
 50
270.000000000026
 51
90.0
  0
LINE
  5
E00EDCEE
330
E00DEA5D
100
AcDbEntity
  8
JISSEN
100
AcDbLine
 10
42.41202568017189
 20
82.96401505267727
 30
0.0
 11
42.41202568017189
 21
79.12614483237263
 31
0.0
  0
LINE
  5
E00EDCEF
330
E00DEA5D
100
AcDbEntity
  8
JISSEN
100
AcDbLine
 10
44.35855315054425
 20
92.40070330509317
 30
0.0
 11
53.94727255673024
 21
94.13434605312756
 31
0.0
  0
LINE
  5
E00EDCF0
330
E00DEA5D
100
AcDbEntity
  8
JISSEN
100
AcDbLine
 10
44.35855315054431
 20
92.40070330509317
 30
0.0
 11
19.29877102652926
 21
92.40070330509317
 31
0.0
  0
ARC
  5
E00EDCF1
330
E00DEA5D
100
AcDbEntity
  8
JISSEN
100
AcDbCircle
 10
53.82866208853738
 20
94.79037654119919
 30
0.0
 40
0.6666666666666666
100
AcDbArc
 50
280.2483788344463
 51
0.0000000000260551
  0
LINE
  5
E00EDCF2
330
E00DEA5D
100
AcDbEntity
  8
JISSEN
100
AcDbLine
 10
54.49532875520401
 20
94.79037654119949
 30
0.0
 11
54.49532875520401
 21
95.1261448324278
 31
0.0
  0
LINE
  5
E00EDCF3
330
E00DEA5D
100
AcDbEntity
  8
JISSEN
100
AcDbLine
 10
18.66199542186768
 20
79.1261448323614
 30
0.0
 11
29.16199542186984
 21
79.12614483236612
 31
0.0
  0
LINE
  5
E00EDCF4
330
E00DEA5D
100
AcDbEntity
  8
JISSEN
100
AcDbLine
 10
21.24529849690162
 20
82.96401505267727
 30
0.0
 11
21.24529849690162
 21
79.12614483237263
 31
0.0
  0
ARC
  5
E00EDCF5
330
E00DEA5D
100
AcDbEntity
  8
JISSEN
 62
     7
370
     0
100
AcDbCircle
 10
18.6619954218695
 20
78.12614483237384
 30
0.0
 40
0.9999999999993935
100
AcDbArc
 50
90.0
 51
269.9999999999739
  0
SPLINE
  5
E00EDCF6
330
E00DEA5D
100
AcDbEntity
  8
JISSEN
100
AcDbSpline
210
0.0
220
0.0
230
1.0
 70
     8
 71
     3
 72
     9
 73
     5
 74
     0
 42
0.0000000001
 43
0.0000000001
 40
9.960418238928442
 40
9.960418238928442
 40
9.960418238928442
 40
9.960418238928442
 40
12.78111185631362
 40
22.09188839059526
 40
22.09188839059526
 40
22.09188839059526
 40
22.09188839059526
 10
18.37681925333407
 20
92.53752993470113
 30
0.0
 10
19.40451685851502
 20
90.1833590651133
 30
0.0
 10
20.32242769314325
 20
87.66063706609283
 30
0.0
 10
20.84456419187944
 20
85.00340946283046
 30
0.0
 10
21.24529849690162
 20
82.96401505263981
 30
0.0
  0
LINE
  5
E00EDCF7
330
E00DEA5D
100
AcDbEntity
  8
JISSEN
100
AcDbLine
 10
19.29877102652921
 20
92.40070330509317
 30
0.0
 11
9.710051620343278
 21
94.13434605312756
 31
0.0
  0
LINE
  5
E00EDCF8
330
E00DEA5D
100
AcDbEntity
  8
JISSEN
100
AcDbLine
 10
39.63048461626868
 20
79.12614483237082
 30
0.0
 11
39.63048461626868
 21
92.40070330509317
 31
0.0
  0
LINE
  5
E00EDCF9
330
E00DEA5D
100
AcDbEntity
  8
JISSEN
100
AcDbLine
 10
24.0268395608042
 20
79.12614483237082
 30
0.0
 11
24.0268395608042
 21
92.40070330509317
 31
0.0
  0
LINE
  5
E00EDCFA
330
E00DEA5D
100
AcDbEntity
  8
JISSEN
100
AcDbLine
 10
28.49532875520447
 20
83.79281149907294
 30
0.0
 11
28.49532875520447
 21
81.34226579519005
 31
0.0
  0
LINE
  5
E00EDCFB
330
E00DEA5D
100
AcDbEntity
  8
JISSEN
100
AcDbLine
 10
35.16199542186996
 20
83.79281149907292
 30
0.0
 11
35.16199542186996
 21
81.34226579519006
 31
0.0
  0
LINE
  5
E00EDCFC
330
E00DEA5D
100
AcDbEntity
  8
JISSEN
100
AcDbLine
 10
29.16199542187007
 20
80.45947816573962
 30
0.0
 11
30.1619954218707
 21
80.4594781657399
 31
0.0
  0
LINE
  5
E00EDCFD
330
E00DEA5D
100
AcDbEntity
  8
JISSEN
100
AcDbLine
 10
35.16199542187052
 20
82.25010110090394
 30
0.0
 11
28.49532875520447
 21
82.25010110090364
 31
0.0
  0
LINE
  5
E00EDCFE
330
E00DEA5D
100
AcDbEntity
  8
JISSEN
100
AcDbLine
 10
35.16199542187052
 20
81.34226579519006
 30
0.0
 11
28.49532875520447
 21
81.34226579519005
 31
0.0
  0
LINE
  5
E00EDCFF
330
E00DEA5D
100
AcDbEntity
  8
JISSEN
100
AcDbLine
 10
29.36199542187023
 20
76.72614483236904
 30
0.0
 11
34.29532875520328
 21
76.72614483236904
 31
0.0
  0
LINE
  5
E00EDD00
330
E00DEA5D
100
AcDbEntity
  8
JISSEN
100
AcDbLine
 10
29.16199542187007
 20
80.45947816573962
 30
0.0
 11
29.1619954218695
 21
76.92614483236948
 31
0.0
  0
ARC
  5
E00EDD01
330
E00DEA5D
100
AcDbEntity
  8
JISSEN
100
AcDbCircle
 10
29.36199542187023
 20
76.92614483236948
 30
0.0
 40
0.2
100
AcDbArc
 50
180.0
 51
270.0
  0
LINE
  5
E00EDD02
330
E00DEA5D
100
AcDbEntity
  8
JISSEN
 48
3.0
100
AcDbLine
 10
32.82866208853675
 20
80.65019750017251
 30
0.0
 11
32.82866208853675
 21
78.45947816570717
 31
0.0
  0
LINE
  5
E00EDD03
330
E00DEA5D
100
AcDbEntity
  8
JISSEN
 48
3.0
100
AcDbLine
 10
30.82866208853676
 20
80.65019750017251
 30
0.0
 11
30.82866208853676
 21
78.45947816570687
 31
0.0
  0
LINE
  5
E00EDD04
330
E00DEA5D
100
AcDbEntity
  8
JISSEN
100
AcDbLine
 10
34.4953287552039
 20
80.45947816573962
 30
0.0
 11
34.4953287552039
 21
76.92614483236917
 31
0.0
  0
ARC
  5
E00EDD05
330
E00DEA5D
100
AcDbEntity
  8
JISSEN
 48
3.0
100
AcDbCircle
 10
31.16199542187007
 20
78.45947816570687
 30
0.0
 40
0.3333333333333333
100
AcDbArc
 50
180.0
 51
270.0
  0
ARC
  5
E00EDD06
330
E00DEA5D
100
AcDbEntity
  8
JISSEN
 48
3.0
100
AcDbCircle
 10
32.49532875520344
 20
78.45947816570717
 30
0.0
 40
0.3333333333333333
100
AcDbArc
 50
270.0
 51
0.0
  0
LINE
  5
E00EDD07
330
E00DEA5D
100
AcDbEntity
  8
JISSEN
 48
3.0
100
AcDbLine
 10
32.49532875520356
 20
78.12614483237395
 30
0.0
 11
31.16199542187024
 21
78.12614483237331
 31
0.0
  0
ARC
  5
E00EDD08
330
E00DEA5D
100
AcDbEntity
  8
JISSEN
100
AcDbCircle
 10
34.29532875520328
 20
76.92614483236917
 30
0.0
 40
0.2
100
AcDbArc
 50
270.0
 51
0.0
  0
LINE
  5
E00EDD09
330
E00DEA5D
100
AcDbEntity
  8
JISSEN
100
AcDbLine
 10
32.49532875520282
 20
80.95812920515518
 30
0.0
 11
33.49532875520282
 21
80.4594781657399
 31
0.0
  0
LINE
  5
E00EDD0A
330
E00DEA5D
100
AcDbEntity
  8
JISSEN
100
AcDbLine
 10
31.16199542187052
 20
81.34226579519006
 30
0.0
 11
31.16199542187052
 21
80.95812920515569
 31
0.0
  0
LINE
  5
E00EDD0B
330
E00DEA5D
100
AcDbEntity
  8
JISSEN
100
AcDbLine
 10
32.4953287552039
 20
81.34226579519006
 30
0.0
 11
32.4953287552039
 21
80.95812920515466
 31
0.0
  0
LINE
  5
E00EDD0C
330
E00DEA5D
100
AcDbEntity
  8
JISSEN
100
AcDbLine
 10
31.1619954218695
 20
80.95812920515518
 30
0.0
 11
30.1619954218707
 21
80.4594781657399
 31
0.0
  0
LINE
  5
E00EDD0D
330
E00DEA5D
100
AcDbEntity
  8
JISSEN
100
AcDbLine
 10
33.49532875520282
 20
80.4594781657399
 30
0.0
 11
34.49532875520344
 21
80.45947816573962
 31
0.0
  0
LINE
  5
E00EDD0E
330
E00DEA5D
100
AcDbEntity
  8
JISSEN
100
AcDbLine
 10
36.46156750331874
 20
89.09647734565513
 30
0.0
 11
27.19575667375568
 21
89.09647734565513
 31
0.0
  0
LINE
  5
E00EDD0F
330
E00DEA5D
100
AcDbEntity
  8
JISSEN
100
AcDbLine
 10
36.46156750331874
 20
88.18864203994094
 30
0.0
 11
27.19575667375568
 21
88.18864203994124
 31
0.0
  0
LINE
  5
E00EDD10
330
E00DEA5D
100
AcDbEntity
  8
JISSEN
100
AcDbLine
 10
36.10691364436371
 20
85.69860233463769
 30
0.0
 11
27.55041053271134
 21
85.69860233463769
 31
0.0
  0
LINE
  5
E00EDD11
330
E00DEA5D
100
AcDbEntity
  8
JISSEN
100
AcDbLine
 10
36.10691364436309
 20
84.79076702892015
 30
0.0
 11
27.55041053271134
 21
84.79076702891957
 31
0.0
  0
LINE
  5
E00EDD12
330
E00DEA5D
100
AcDbEntity
  8
JISSEN
100
AcDbLine
 10
28.49532875520447
 20
83.79281149907294
 30
0.0
 11
35.16199542186996
 21
83.79281149907292
 31
0.0
  0
LINE
  5
E00EDD13
330
E00DEA5D
100
AcDbEntity
  8
JISSEN
100
AcDbLine
 10
35.16199542187052
 20
87.45947816573977
 30
0.0
 11
28.37520863508553
 21
87.45947816573945
 31
0.0
  0
LINE
  5
E00EDD14
330
E00DEA5D
100
AcDbEntity
  8
JISSEN
100
AcDbLine
 10
28.15805342458389
 20
91.09630732537537
 30
0.0
 11
35.49927075249053
 21
91.09630732537507
 31
0.0
  0
LINE
  5
E00EDD15
330
E00DEA5D
100
AcDbEntity
  8
JISSEN
100
AcDbLine
 10
28.37520863508609
 20
87.45947816573945
 30
0.0
 11
27.55041053271134
 21
85.69860233463284
 31
0.0
  0
LINE
  5
E00EDD16
330
E00DEA5D
100
AcDbEntity
  8
JISSEN
100
AcDbLine
 10
27.55041053271134
 20
84.79076702891985
 30
0.0
 11
27.55041053271134
 21
85.69860233463284
 31
0.0
  0
LINE
  5
E00EDD17
330
E00DEA5D
100
AcDbEntity
  8
JISSEN
100
AcDbLine
 10
28.17500843488517
 20
91.1261448324087
 30
0.0
 11
27.19575667375568
 21
89.09492126327082
 31
0.0
  0
LINE
  5
E00EDD18
330
E00DEA5D
100
AcDbEntity
  8
JISSEN
100
AcDbLine
 10
27.19575667375568
 20
88.18864203994065
 30
0.0
 11
27.19575667375511
 21
89.09492126327021
 31
0.0
  0
LINE
  5
E00EDD19
330
E00DEA5D
100
AcDbEntity
  8
JISSEN
100
AcDbLine
 10
35.48231574218982
 20
92.40070330509317
 30
0.0
 11
35.48231574218926
 21
91.12614483240628
 31
0.0
  0
LINE
  5
E00EDD1A
330
E00DEA5D
100
AcDbEntity
  8
JISSEN
100
AcDbLine
 10
35.48231574218926
 20
91.12614483240628
 30
0.0
 11
36.46156750331874
 21
89.09492126327082
 31
0.0
  0
LINE
  5
E00EDD1B
330
E00DEA5D
100
AcDbEntity
  8
JISSEN
100
AcDbLine
 10
35.28211554198833
 20
87.45947816573945
 30
0.0
 11
36.10691364436371
 21
85.69860233463174
 31
0.0
  0
LINE
  5
E00EDD1C
330
E00DEA5D
100
AcDbEntity
  8
JISSEN
100
AcDbLine
 10
32.4953287552039
 20
84.7907670289199
 30
0.0
 11
32.4953287552039
 21
83.79281149907294
 31
0.0
  0
LINE
  5
E00EDD1D
330
E00DEA5D
100
AcDbEntity
  8
JISSEN
100
AcDbLine
 10
31.16199542187052
 20
84.7907670289198
 30
0.0
 11
31.16199542187052
 21
83.79281149907294
 31
0.0
  0
LINE
  5
E00EDD1E
330
E00DEA5D
100
AcDbEntity
  8
JISSEN
100
AcDbLine
 10
31.16199542187678
 20
88.18864203994111
 30
0.0
 11
31.16199542186996
 21
87.45947816573977
 31
0.0
  0
LINE
  5
E00EDD1F
330
E00DEA5D
100
AcDbEntity
  8
JISSEN
100
AcDbLine
 10
32.49532875520327
 20
88.18864203994108
 30
0.0
 11
32.49532875520327
 21
87.45947816573977
 31
0.0
  0
LINE
  5
E00EDD20
330
E00DEA5D
100
AcDbEntity
  8
JISSEN
100
AcDbLine
 10
36.10691364436309
 20
84.79076702892015
 30
0.0
 11
36.10691364436371
 21
85.69860233463769
 31
0.0
  0
LINE
  5
E00EDD21
330
E00DEA5D
100
AcDbEntity
  8
JISSEN
100
AcDbLine
 10
36.46156750331874
 20
88.18864203994094
 30
0.0
 11
36.46156750331931
 21
89.09647734565453
 31
0.0
  0
ARC
  5
E00EDD22
330
E00DEA5D
100
AcDbEntity
  8
JISSEN
100
AcDbCircle
 10
31.9953287552039
 20
92.42981067899766
 30
0.0
 40
0.6666666666666666
100
AcDbArc
 50
270.0
 51
357.4976100079116
  0
LINE
  5
E00EDD23
330
E00DEA5D
100
AcDbEntity
  8
JISSEN
100
AcDbLine
 10
31.66199542187053
 20
91.76314401233099
 30
0.0
 11
31.9953287552039
 21
91.76314401233099
 31
0.0
  0
LINE
  5
E00EDD24
330
E00DEA5D
100
AcDbEntity
  8
JISSEN
100
AcDbLine
 10
34.4953287552039
 20
79.12614483236851
 30
0.0
 11
44.99532875520401
 21
79.12614483237323
 31
0.0
  0
LINE
  5
E00EDD25
330
E00DEA5D
100
AcDbEntity
  8
JISSEN
100
AcDbLine
 10
30.82866208853682
 20
79.12614483236686
 30
0.0
 11
32.82866208853675
 21
79.12614483236777
 31
0.0
  0
LINE
  5
E00EDD26
330
E00DEA5D
100
AcDbEntity
  8
JISSEN
100
AcDbLine
 10
34.4953287552039
 20
77.12614483242217
 30
0.0
 11
44.99532875520464
 21
77.12614483242688
 31
0.0
  0
LINE
  5
E00EDD27
330
E00DEA5D
100
AcDbEntity
  8
JISSEN
100
AcDbLine
 10
28.17500843488451
 20
92.40070330509317
 30
0.0
 11
28.17500843488517
 21
91.1261448324087
 31
0.0
  0
ARC
  5
E00EDD28
330
E00DEA5D
100
AcDbEntity
  8
JISSEN
100
AcDbCircle
 10
31.66199542187053
 20
92.42981067899766
 30
0.0
 40
0.6666666666666666
100
AcDbArc
 50
182.5023899920883
 51
270.0
  0
LINE
  5
E00EDD29
330
E00DEA5D
100
AcDbEntity
  8
JISSEN
100
AcDbLine
 10
43.99532875520344
 20
113.1261448324277
 30
0.0
 11
32.49532875520333
 21
113.1261448324281
 31
0.0
  0
LINE
  5
E00EDD2A
330
E00DEA5D
100
AcDbEntity
  8
JISSEN
100
AcDbLine
 10
19.66199542187007
 20
113.1261448324277
 30
0.0
 11
31.16199542187001
 21
113.126144832428
 31
0.0
  0
LINE
  5
E00EDD2B
330
E00DEA5D
100
AcDbEntity
  8
JISSEN
100
AcDbLine
 10
21.49663091801932
 20
113.1261448324277
 30
0.0
 11
21.49663091801932
 21
101.126144832428
 31
0.0
  0
LINE
  5
E00EDD2C
330
E00DEA5D
100
AcDbEntity
  8
JISSEN
100
AcDbLine
 10
20.82996425135263
 20
113.1261448324277
 30
0.0
 11
20.82996425135263
 21
101.126144832428
 31
0.0
  0
LINE
  5
E00EDD2D
330
E00DEA5D
100
AcDbEntity
  8
JISSEN
100
AcDbLine
 10
21.49663091801932
 20
101.126144832428
 30
0.0
 11
20.82996425135263
 21
101.126144832428
 31
0.0
  0
LINE
  5
E00EDD2E
330
E00DEA5D
100
AcDbEntity
  8
JISSEN
100
AcDbLine
 10
19.66199542187007
 20
113.1261448324277
 30
0.0
 11
19.49532875520344
 21
112.9594781657611
 31
0.0
  0
LINE
  5
E00EDD2F
330
E00DEA5D
100
AcDbEntity
  8
JISSEN
100
AcDbLine
 10
32.49532875520333
 20
113.1261448324281
 30
0.0
 11
32.29532875520328
 21
101.126144832428
 31
0.0
  0
LINE
  5
E00EDD30
330
E00DEA5D
100
AcDbEntity
  8
JISSEN
100
AcDbLine
 10
31.16199542187001
 20
113.126144832428
 30
0.0
 11
31.36199542187
 21
101.126144832428
 31
0.0
  0
LINE
  5
E00EDD31
330
E00DEA5D
100
AcDbEntity
  8
JISSEN
100
AcDbLine
 10
32.29532875520328
 20
101.126144832428
 30
0.0
 11
31.36199542187
 21
101.126144832428
 31
0.0
  0
LINE
  5
E00EDD32
330
E00DEA5D
100
AcDbEntity
  8
JISSEN
100
AcDbLine
 10
42.82735992572088
 20
113.1261448324277
 30
0.0
 11
42.82735992572088
 21
101.126144832428
 31
0.0
  0
LINE
  5
E00EDD33
330
E00DEA5D
100
AcDbEntity
  8
JISSEN
100
AcDbLine
 10
42.1606932590542
 20
113.1261448324277
 30
0.0
 11
42.1606932590542
 21
101.126144832428
 31
0.0
  0
LINE
  5
E00EDD34
330
E00DEA5D
100
AcDbEntity
  8
JISSEN
100
AcDbLine
 10
42.1606932590542
 20
101.126144832428
 30
0.0
 11
42.82735992572088
 21
101.126144832428
 31
0.0
  0
LINE
  5
E00EDD35
330
E00DEA5D
100
AcDbEntity
  8
JISSEN
100
AcDbLine
 10
43.99532875520344
 20
113.1261448324277
 30
0.0
 11
44.16199542187007
 21
112.9594781657611
 31
0.0
  0
LINE
  5
E00EDD36
330
E00DEA5D
100
AcDbEntity
  8
JISSEN
100
AcDbLine
 10
44.16199542187007
 20
112.9594781657611
 30
0.0
 11
44.16199542187934
 21
95.12614483242295
 31
0.0
  0
LINE
  5
E00EDD37
330
E00DEA5D
100
AcDbEntity
  8
JISSEN
100
AcDbLine
 10
54.49532875520401
 20
95.1261448324278
 30
0.0
 11
9.16199542186888
 21
95.1261448324278
 31
0.0
  0
LINE
  5
E00EDD38
330
E00DEA5D
100
AcDbEntity
  8
ITTEN
100
AcDbLine
 10
56.49532875520344
 20
46.52100591491496
 30
0.0
 11
7.161995421870074
 21
46.52100591491501
 31
0.0
  0
LINE
  5
E00EDD39
330
E00DEA5D
100
AcDbEntity
  8
ITTEN
100
AcDbLine
 10
31.82866208853676
 20
44.52100591491493
 30
0.0
 11
31.82866208853676
 21
71.18767258157773
 31
0.0
  0
LINE
  5
E00EDD3A
330
E00DEA5D
100
AcDbEntity
  8
JISSEN
100
AcDbLine
 10
20.34442243886138
 20
47.12286941170176
 30
0.0
 11
19.67866941568968
 21
47.15776004919594
 31
0.0
  0
ARC
  5
E00EDD3B
330
E00DEA5D
100
AcDbEntity
  8
JISSEN
100
AcDbCircle
 10
21.84042444823762
 20
55.09502999284102
 30
0.0
 40
1.0
100
AcDbArc
 50
314.9999999999999
 51
44.99999999989576
  0
ARC
  5
E00EDD3C
330
E00DEA5D
100
AcDbEntity
  8
JISSEN
100
AcDbCircle
 10
23.25463801061244
 20
56.50924355521325
 30
0.0
 40
1.0
100
AcDbArc
 50
225.0
 51
314.9999999998957
  0
LINE
  5
E00EDD3D
330
E00DEA5D
100
AcDbEntity
  8
JISSEN
100
AcDbLine
 10
19.85075651142977
 20
59.91312505439505
 30
0.0
 11
22.5434106784769
 21
57.22047088734795
 31
0.0
  0
LINE
  5
E00EDD3E
330
E00DEA5D
100
AcDbEntity
  8
JISSEN
100
AcDbLine
 10
21.13124745807545
 20
55.80861942261072
 30
0.0
 11
18.31646907908157
 21
58.6233978016046
 31
0.0
  0
ELLIPSE
  5
E00EDD3F
330
E00DEA5D
100
AcDbEntity
  8
JISSEN
100
AcDbEllipse
 10
19.14364973024322
 20
59.20601827320851
 30
0.0
 11
-1.5491657410487
 21
1.549165741048703
 31
0.0
210
0.0
220
0.0
230
1.0
 40
0.4564435957043948
 41
4.712388980384689
 42
7.774966574806853
  0
ARC
  5
E00EDD40
330
E00DEA5D
100
AcDbEntity
  8
JISSEN
100
AcDbCircle
 10
22.98982732370916
 20
55.35984067974853
 30
0.0
 40
1.0
100
AcDbArc
 50
246.8342320158893
 51
23.16576798396917
  0
LINE
  5
E00EDD41
330
E00DEA5D
100
AcDbEntity
  8
JISSEN
100
AcDbLine
 10
23.96174479179893
 20
55.80213677402844
 30
0.0
 11
24.43484299671951
 21
55.32903856910957
 31
0.0
  0
LINE
  5
E00EDD42
330
E00DEA5D
100
AcDbEntity
  8
JISSEN
100
AcDbLine
 10
22.54753122942395
 20
54.38792321165381
 30
0.0
 11
23.02062943434282
 21
53.91482500673324
 31
0.0
  0
ARC
  5
E00EDD43
330
E00DEA5D
100
AcDbEntity
  8
JISSEN
100
AcDbCircle
 10
31.82866208853715
 20
46.5210059149111
 30
0.0
 40
12.16666666666666
100
AcDbArc
 50
139.7145605408659
 51
177.0000000000212
  0
ARC
  5
E00EDD44
330
E00DEA5D
100
AcDbEntity
  8
JISSEN
100
AcDbCircle
 10
31.82866208853676
 20
46.52100591491495
 30
0.0
 40
10.5
100
AcDbArc
 50
0.0000000000001599
 51
179.9999999999997
  0
ARC
  5
E00EDD45
330
E00DEA5D
100
AcDbEntity
  8
JISSEN
 48
10.0
100
AcDbCircle
 10
31.82866208853909
 20
46.52100591491261
 30
0.0
 40
11.16666666666666
100
AcDbArc
 50
0.0000000000122302
 51
88.98841392562522
  0
ARC
  5
E00EDD46
330
E00DEA5D
100
AcDbEntity
  8
JISSEN
100
AcDbCircle
 10
31.82866208853761
 20
46.52100591491152
 30
0.0
 40
12.16666666666666
100
AcDbArc
 50
49.71456054090515
 51
85.28543945912266
  0
ARC
  5
E00EDD47
330
E00DEA5D
100
AcDbEntity
  8
JISSEN
 48
10.0
100
AcDbCircle
 10
31.82866208853909
 20
46.52100591491261
 30
0.0
 40
11.5
100
AcDbArc
 50
0.0000000000119105
 51
76.59198046832838
  0
ARC
  5
E00EDD48
330
E00DEA5D
100
AcDbEntity
  8
JISSEN
100
AcDbCircle
 10
31.82866208853932
 20
46.52100591491239
 30
0.0
 40
14.16666666666666
100
AcDbArc
 50
0.0000000000104716
 51
79.15018413701385
  0
ARC
  5
E00EDD49
330
E00DEA5D
100
AcDbEntity
  8
JISSEN
100
AcDbCircle
 10
31.82866208853676
 20
46.52100591491495
 30
0.0
 40
10.16666666666727
100
AcDbArc
 50
0.0000000000001599
 51
179.9999999999997
  0
ARC
  5
E00EDD4A
330
E00DEA5D
100
AcDbEntity
  8
JISSEN
100
AcDbCircle
 10
31.82866208853909
 20
46.52100591491175
 30
0.0
 40
22.66666666666666
100
AcDbArc
 50
0.0000000000081535
 51
179.9999999999917
  0
ARC
  5
E00EDD4B
330
E00DEA5D
100
AcDbEntity
  8
JISSEN
100
AcDbCircle
 10
31.82866208853636
 20
46.5210059149111
 30
0.0
 40
12.16666666666666
100
AcDbArc
 50
2.999999999978724
 51
40.285439459134
  0
LINE
  5
E00EDD4C
330
E00DEA5D
100
AcDbEntity
  8
JISSEN
100
AcDbLine
 10
41.10979294764956
 20
54.38792321165381
 30
0.0
 11
40.63669474273069
 21
53.91482500673324
 31
0.0
  0
LINE
  5
E00EDD4D
330
E00DEA5D
100
AcDbEntity
  8
JISSEN
100
AcDbLine
 10
39.69557938527458
 20
55.80213677402844
 30
0.0
 11
39.22248118035401
 21
55.32903856910957
 31
0.0
  0
ARC
  5
E00EDD4E
330
E00DEA5D
100
AcDbEntity
  8
JISSEN
100
AcDbCircle
 10
40.66749685336435
 20
55.35984067974853
 30
0.0
 40
1.0
100
AcDbArc
 50
156.8342320160308
 51
293.1657679841107
  0
ELLIPSE
  5
E00EDD4F
330
E00DEA5D
100
AcDbEntity
  8
JISSEN
100
AcDbEllipse
 10
44.51367444683029
 20
59.2060182732085
 30
0.0
 11
1.549165741048702
 21
1.549165741048702
 31
0.0
210
0.0
220
0.0
230
-1.0
 40
0.4564435957043949
 41
4.712388980384689
 42
7.774966574806853
  0
LINE
  5
E00EDD50
330
E00DEA5D
100
AcDbEntity
  8
JISSEN
100
AcDbLine
 10
42.52607671899807
 20
55.80861942261072
 30
0.0
 11
45.34085509799195
 21
58.6233978016046
 31
0.0
  0
LINE
  5
E00EDD51
330
E00DEA5D
100
AcDbEntity
  8
JISSEN
100
AcDbLine
 10
43.80656766564373
 20
59.91312505439505
 30
0.0
 11
41.11391349859661
 21
57.22047088734795
 31
0.0
  0
ARC
  5
E00EDD52
330
E00DEA5D
100
AcDbEntity
  8
JISSEN
100
AcDbCircle
 10
40.40268616646108
 20
56.50924355521325
 30
0.0
 40
1.0
100
AcDbArc
 50
225.0000000001042
 51
314.9999999999999
  0
ARC
  5
E00EDD53
330
E00DEA5D
100
AcDbEntity
  8
JISSEN
100
AcDbCircle
 10
41.81689972883589
 20
55.09502999284102
 30
0.0
 40
1.0
100
AcDbArc
 50
135.0000000001042
 51
225.0
  0
LINE
  5
E00EDD54
330
E00DEA5D
100
AcDbEntity
  8
JISSEN
100
AcDbLine
 10
43.31290173821213
 20
47.12286941170176
 30
0.0
 11
43.97865476138384
 21
47.15776004919594
 31
0.0
  0
ARC
  5
E00EDD55
330
E00DEA5D
100
AcDbEntity
  8
JISSEN
100
AcDbCircle
 10
31.82866208853676
 20
46.8227831402559
 30
0.0
 40
14.91324434757189
100
AcDbArc
 50
76.61050398478668
 51
103.3894960152133
  0
ARC
  5
E00EDD56
330
E00DEA5D
100
AcDbEntity
  8
JISSEN
100
AcDbCircle
 10
31.82866208853676
 20
46.82278314025741
 30
0.0
 40
16.09424169789235
100
AcDbArc
 50
73.736219437124
 51
106.2637805628709
  0
ARC
  5
E00EDD57
330
E00DEA5D
100
AcDbEntity
  8
JISSEN
 48
3.0
100
AcDbCircle
 10
31.82866208853613
 20
46.82278314025741
 30
0.0
 40
11.5
100
AcDbArc
 50
72.52435925727303
 51
85.01145802444261
  0
ARC
  5
E00EDD58
330
E00DEA5D
100
AcDbEntity
  8
JISSEN
 48
3.0
100
AcDbCircle
 10
31.82866208853613
 20
46.82278314025741
 30
0.0
 40
14.56666666666666
100
AcDbArc
 50
80.11368896548711
 51
99.88631103446152
  0
ARC
  5
E00EDD59
330
E00DEA5D
100
AcDbEntity
  8
JISSEN
 48
3.0
100
AcDbCircle
 10
31.82866208853613
 20
46.82278314025741
 30
0.0
 40
12.96666666666666
100
AcDbArc
 50
78.13212434030056
 51
101.8678756596993
  0
ARC
  5
E00EDD5A
330
E00DEA5D
100
AcDbEntity
  8
JISSEN
 48
3.0
100
AcDbCircle
 10
31.82866208853613
 20
46.82278314025741
 30
0.0
 40
11.20666666666666
100
AcDbArc
 50
76.23420846449876
 51
86.97817144070389
  0
LINE
  5
E00EDD5B
330
E00DEA5D
100
AcDbEntity
  8
JISSEN
100
AcDbLine
 10
35.28211554198844
 20
57.79199729829247
 30
0.0
 11
35.39577336334668
 21
58.15300896386641
 31
0.0
  0
LINE
  5
E00EDD5C
330
E00DEA5D
100
AcDbEntity
  8
JISSEN
100
AcDbLine
 10
34.49532875520344
 20
57.7075553779448
 30
0.0
 11
34.49532875520344
 21
58.0093326032905
 31
0.0
  0
LINE
  5
E00EDD5D
330
E00DEA5D
100
AcDbEntity
  8
JISSEN
100
AcDbLine
 10
35.28211554198787
 20
57.79199729829277
 30
0.0
 11
35.28211554198787
 21
58.18725797041842
 31
0.0
  0
ARC
  5
E00EDD5E
330
E00DEA5D
100
AcDbEntity
  8
JISSEN
100
AcDbCircle
 10
36.24266072137004
 20
61.95297972012291
 30
0.0
 40
0.3333333333333333
100
AcDbArc
 50
342.524359257272
 51
73.73621943712233
  0
ARC
  5
E00EDD5F
330
E00DEA5D
100
AcDbEntity
  8
JISSEN
 48
3.0
100
AcDbCircle
 10
34.29532875520328
 20
60.97611019322456
 30
0.0
 40
0.2
100
AcDbArc
 50
0.0
 51
80.11368896553836
  0
LINE
  5
E00EDD60
330
E00DEA5D
100
AcDbEntity
  8
JISSEN
 48
3.0
100
AcDbLine
 10
32.82866208853681
 20
59.7723005057814
 30
0.0
 11
32.82866208853681
 21
59.75083188879033
 31
0.0
  0
LINE
  5
E00EDD61
330
E00DEA5D
100
AcDbEntity
  8
JISSEN
 48
3.0
100
AcDbLine
 10
30.82866208853613
 20
59.77230050578123
 30
0.0
 11
30.82866208853619
 21
59.75083188879038
 31
0.0
  0
LINE
  5
E00EDD62
330
E00DEA5D
100
AcDbEntity
  8
JISSEN
100
AcDbLine
 10
28.37520863508382
 20
57.79199729829247
 30
0.0
 11
28.26155081372599
 21
58.15300896386615
 31
0.0
  0
LINE
  5
E00EDD63
330
E00DEA5D
100
AcDbEntity
  8
JISSEN
100
AcDbLine
 10
29.1619954218707
 20
57.7075553779454
 30
0.0
 11
29.16199542187075
 21
58.00933260329094
 31
0.0
  0
LINE
  5
E00EDD64
330
E00DEA5D
100
AcDbEntity
  8
JISSEN
100
AcDbLine
 10
28.37520863508564
 20
57.79199729829277
 30
0.0
 11
28.37520863508564
 21
58.18725797041842
 31
0.0
  0
ARC
  5
E00EDD65
330
E00DEA5D
100
AcDbEntity
  8
JISSEN
 48
3.0
100
AcDbCircle
 10
29.36199542187143
 20
60.97611019322517
 30
0.0
 40
0.2
100
AcDbArc
 50
99.88631103446152
 51
180.0
  0
ARC
  5
E00EDD66
330
E00DEA5D
100
AcDbEntity
  8
JISSEN
100
AcDbCircle
 10
27.41466345570472
 20
61.95297972012328
 30
0.0
 40
0.3333333333333333
100
AcDbArc
 50
106.2637805628709
 51
197.4756407426898
  0
ARC
  5
E00EDD67
330
E00DEA5D
100
AcDbEntity
  8
JISSEN
 48
3.0
100
AcDbCircle
 10
31.82866208853613
 20
46.82278314025741
 30
0.0
 40
11.20666666666666
100
AcDbArc
 50
93.02182855929443
 51
103.7657915355012
  0
ARC
  5
E00EDD68
330
E00DEA5D
100
AcDbEntity
  8
JISSEN
 48
3.0
100
AcDbCircle
 10
31.82866208853613
 20
46.82278314025741
 30
0.0
 40
11.5
100
AcDbArc
 50
94.98854197555251
 51
107.4756407427269
  0
ARC
  5
E00EDD69
330
E00DEA5D
100
AcDbEntity
  8
JISSEN
 48
3.0
100
AcDbCircle
 10
31.82866208853613
 20
46.82278314025741
 30
0.0
 40
12.16666666666666
100
AcDbArc
 50
85.28543945911449
 51
94.7145605408806
  0
ARC
  5
E00EDD6A
330
E00DEA5D
100
AcDbEntity
  8
JISSEN
100
AcDbCircle
 10
31.82866208853676
 20
58.32278314025741
 30
0.0
 40
0.6666666666666666
100
AcDbArc
 50
207.605035162299
 51
332.3949648377007
  0
ARC
  5
E00EDD6B
330
E00DEA5D
100
AcDbEntity
  8
JISSEN
100
AcDbCircle
 10
31.82866208853932
 20
46.52100591491239
 30
0.0
 40
14.16666666666666
100
AcDbArc
 50
100.8498158630031
 51
179.9999999999894
  0
LINE
  5
E00EDD6C
330
E00DEA5D
100
AcDbEntity
  8
JISSEN
100
AcDbLine
 10
27.66093590388573
 20
60.06074383313656
 30
0.0
 11
27.09671521923997
 21
61.85287962002333
 31
0.0
  0
LINE
  5
E00EDD6D
330
E00DEA5D
100
AcDbEntity
  8
JISSEN
100
AcDbLine
 10
28.3752086350857
 20
60.26029642386056
 30
0.0
 11
28.37520863508564
 21
61.33066086979415
 31
0.0
  0
LINE
  5
E00EDD6E
330
E00DEA5D
100
AcDbEntity
  8
JISSEN
100
AcDbLine
 10
35.28211554198787
 20
60.26029642386186
 30
0.0
 11
35.28211554198787
 21
61.33066086979415
 31
0.0
  0
LINE
  5
E00EDD6F
330
E00DEA5D
100
AcDbEntity
  8
JISSEN
100
AcDbLine
 10
35.99638827318847
 20
60.06074383313792
 30
0.0
 11
36.5606089578348
 21
61.85287962002273
 31
0.0
  0
ARC
  5
E00EDD70
330
E00DEA5D
100
AcDbEntity
  8
JISSEN
100
AcDbCircle
 10
31.82866208853761
 20
46.52100591491152
 30
0.0
 40
12.16666666666666
100
AcDbArc
 50
94.71456054088708
 51
130.2854394591863
  0
ARC
  5
E00EDD71
330
E00DEA5D
100
AcDbEntity
  8
JISSEN
 48
10.0
100
AcDbCircle
 10
31.82866208853909
 20
46.52100591491261
 30
0.0
 40
11.5
100
AcDbArc
 50
103.4080195316926
 51
179.999999999988
  0
ARC
  5
E00EDD72
330
E00DEA5D
100
AcDbEntity
  8
JISSEN
 48
10.0
100
AcDbCircle
 10
31.82866208853909
 20
46.52100591491261
 30
0.0
 40
11.16666666666666
100
AcDbArc
 50
91.01158607439748
 51
179.9999999999877
  0
LINE
  5
E00EDD73
330
E00DEA5D
100
AcDbEntity
  8
JISSEN
100
AcDbLine
 10
29.16199542187104
 20
59.51228010953645
 30
0.0
 11
29.16199542187132
 21
60.97611019322517
 31
0.0
  0
LINE
  5
E00EDD74
330
E00DEA5D
100
AcDbEntity
  8
JISSEN
100
AcDbLine
 10
34.49532875520344
 20
59.51228010953599
 30
0.0
 11
34.49532875520344
 21
60.97611019322456
 31
0.0
  0
LINE
  5
E00EDD75
330
E00DEA5D
100
AcDbEntity
  8
JISSEN
 48
3.0
100
AcDbLine
 10
30.82866208853647
 20
58.94828427537667
 30
0.0
 11
30.82866208853676
 21
58.27922237764706
 31
0.0
  0
LINE
  5
E00EDD76
330
E00DEA5D
100
AcDbEntity
  8
JISSEN
 48
3.0
100
AcDbLine
 10
32.82866208853664
 20
58.94828427537661
 30
0.0
 11
32.82866208853647
 21
58.27922237764699
 31
0.0
  0
LINE
  5
E00EDD77
330
E00DEA5D
100
AcDbEntity
  8
ITTEN
100
AcDbLine
 10
30.71121386054233
 20
126.7654315796462
 30
0.0
 11
30.71121386054233
 21
157.8209303495884
 31
0.0
  0
LINE
  5
E00EDD78
330
E00DEA5D
100
AcDbEntity
  8
ITTEN
100
AcDbLine
 10
94.59741480312709
 20
126.7654315796467
 30
0.0
 11
94.59741480312709
 21
157.8209303495889
 31
0.0
  0
LINE
  5
E00EDD79
330
E00DEA5D
100
AcDbEntity
  8
SUNPOU
100
AcDbLine
 10
36.19169434102221
 20
154.8209303495882
 30
0.0
 11
48.7322240450755
 21
154.8209303495882
 31
0.0
  0
LINE
  5
E00EDD7A
330
E00DEA5D
100
AcDbEntity
  8
SUNPOU
100
AcDbLine
 10
34.9112138605424
 20
129.7654315796462
 30
0.0
 11
48.7322240450755
 21
129.7654315796462
 31
0.0
  0
LINE
  5
E00EDD7B
330
E00DEA5D
100
AcDbEntity
  8
SUNPOU
100
AcDbLine
 10
48.06555737840847
 20
154.8209303495882
 30
0.0
 11
48.06555737840847
 21
129.7654315796462
 31
0.0
  0
INSERT
  5
E00EDD7C
330
E00DEA5D
100
AcDbEntity
  8
SUNPOU
100
AcDbBlockReference
  2
ARROWANG
 10
48.0655573784085
 20
154.8209303495882
 30
0.0
 41
1.50000000000075
 42
1.50000000000075
 43
1.50000000000075
 50
90.0
  0
INSERT
  5
E00EDD7D
330
E00DEA5D
100
AcDbEntity
  8
SUNPOU
100
AcDbBlockReference
  2
ARROWANG
 10
48.0655573784085
 20
129.7654315796462
 30
0.0
 41
1.50000000000075
 42
1.50000000000075
 43
1.50000000000075
 50
270.0
  0
MTEXT
  5
E00EDD7E
330
E00DEA5D
100
AcDbEntity
  8
SUNPOU
100
AcDbMText
 10
46.62508118793115
 20
142.2931809646173
 30
0.0
 40
2.000000000001
 41
0.0
 71
     5
 72
     1
  1
(26)
  7
K
 11
0.0000000000000001
 21
1.0
 31
0.0
 73
     1
 44
1.0
  0
LINE
  5
E00EDD7F
330
E00DEA5D
100
AcDbEntity
  8
SUNPOU
100
AcDbLine
 10
62.77372791405986
 20
148.820930349575
 30
0.0
 11
62.77372791405986
 21
162.6205600798935
 31
0.0
  0
LINE
  5
E00EDD80
330
E00DEA5D
100
AcDbEntity
  8
SUNPOU
100
AcDbLine
 10
70.2686745780208
 20
154.8209303495883
 30
0.0
 11
70.2686745780208
 21
162.6205600798935
 31
0.0
  0
LINE
  5
E00EDD81
330
E00DEA5D
100
AcDbEntity
  8
SUNPOU
100
AcDbLine
 10
62.52120124603834
 20
161.9538934132265
 30
0.0
 11
59.77372791405835
 21
161.9538934132265
 31
0.0
  0
LINE
  5
E00EDD82
330
E00DEA5D
100
AcDbEntity
  8
SUNPOU
100
AcDbLine
 10
70.52120124604235
 20
161.9538934132265
 30
0.0
 11
73.26867457802231
 21
161.9538934132265
 31
0.0
  0
LINE
  5
E00EDD83
330
E00DEA5D
100
AcDbEntity
  8
SUNPOU
100
AcDbLine
 10
62.77372791405986
 20
161.9538934132265
 30
0.0
 11
70.2686745780208
 21
161.9538934132265
 31
0.0
  0
INSERT
  5
E00EDD84
330
E00DEA5D
100
AcDbEntity
  8
SUNPOU
100
AcDbBlockReference
  2
ARROWANG
 10
62.77372791405986
 20
161.9538934132265
 30
0.0
 41
1.50000000000075
 42
1.50000000000075
 43
1.50000000000075
  0
INSERT
  5
E00EDD85
330
E00DEA5D
100
AcDbEntity
  8
SUNPOU
100
AcDbBlockReference
  2
ARROWANG
 10
70.2686745780208
 20
161.9538934132265
 30
0.0
 41
1.50000000000075
 42
1.50000000000075
 43
1.50000000000075
 50
180.0
  0
MTEXT
  5
E00EDD86
330
E00DEA5D
100
AcDbEntity
  8
SUNPOU
100
AcDbMText
 10
66.52120124604033
 20
163.3943696037038
 30
0.0
 40
2.000000000001
 41
0.0
 71
     5
 72
     1
  1
\A1;(7.5)
  7
K
 73
     1
 44
1.0
  0
LINE
  5
E00EDD87
330
E00DEA5D
100
AcDbEntity
  8
ITTEN
100
AcDbLine
 10
31.82866208853676
 20
74.72614483236904
 30
0.0
 11
31.8286620885379
 21
115.126144832428
 31
0.0
  0
LINE
  5
E00EDD88
330
E00DEA5D
100
AcDbEntity
  8
JISSEN
100
AcDbLine
 10
67.99735915709437
 20
94.46502175409436
 30
0.0
 11
77.50655235927013
 21
93.1285926411955
 31
0.0
  0
LINE
  5
E00EDD89
330
E00DEA5D
100
AcDbEntity
  8
JISSEN
100
AcDbLine
 10
67.02396315386142
 20
95.1261448324278
 30
0.0
 11
89.69063105236102
 21
95.1261448324278
 31
0.0
  0
ARC
  5
E00EDD8A
330
E00DEA5D
100
AcDbEntity
  8
JISSEN
100
AcDbCircle
 10
68.18292420046129
 20
95.78537918039444
 30
0.0
 40
1.333333333333323
100
AcDbArc
 50
209.6318914940858
 51
262.0000000000057
  0
LINE
  5
E00EDD8B
330
E00DEA5D
100
AcDbEntity
  8
JISSEN
100
AcDbLine
 39
160.0347184554373
 10
97.49245358009297
 20
92.75758264630187
 30
0.0
 11
93.34428470601352
 21
92.75758264630141
 31
0.0
  0
LINE
  5
E00EDD8C
330
E00DEA5D
100
AcDbEntity
  8
JISSEN
100
AcDbLine
 39
160.0347184554373
 10
81.88880852462849
 20
92.7575826463534
 30
0.0
 11
86.03697739870879
 21
92.75758264632552
 31
0.0
  0
LINE
  5
E00EDD8D
330
E00DEA5D
100
AcDbEntity
  8
JISSEN
100
AcDbLine
 10
96.76129474789238
 20
102.7928115139601
 30
0.0
 11
93.45285263702724
 21
102.7928115139601
 31
0.0
  0
LINE
  5
E00EDD8E
330
E00DEA5D
100
AcDbEntity
  8
JISSEN
100
AcDbLine
 10
93.34428470601322
 20
91.77813053731616
 30
0.0
 11
94.3235364671427
 21
89.74690696818049
 31
0.0
  0
LINE
  5
E00EDD8F
330
E00DEA5D
100
AcDbEntity
  8
JISSEN
100
AcDbLine
 10
93.14408450581229
 20
88.11146387064889
 30
0.0
 11
93.96888260818769
 21
86.35058803954118
 31
0.0
  0
LINE
  5
E00EDD90
330
E00DEA5D
100
AcDbEntity
  8
JISSEN
100
AcDbLine
 10
93.96888260818769
 20
86.35058803954724
 30
0.0
 11
85.41237949653529
 21
86.35058803954724
 31
0.0
  0
LINE
  5
E00EDD91
330
E00DEA5D
100
AcDbEntity
  8
JISSEN
100
AcDbLine
 10
93.96888260818707
 20
85.4427527338297
 30
0.0
 11
85.41237949653529
 21
85.44275273382911
 31
0.0
  0
LINE
  5
E00EDD92
330
E00DEA5D
100
AcDbEntity
  8
JISSEN
100
AcDbLine
 10
94.3235364671427
 20
88.84062774485062
 30
0.0
 11
85.05772563757966
 21
88.84062774485093
 31
0.0
  0
LINE
  5
E00EDD93
330
E00DEA5D
100
AcDbEntity
  8
JISSEN
100
AcDbLine
 10
94.3235364671427
 20
89.74846305056482
 30
0.0
 11
85.05772563757966
 21
89.74846305056482
 31
0.0
  0
LINE
  5
E00EDD94
330
E00DEA5D
100
AcDbEntity
  8
JISSEN
100
AcDbLine
 10
89.69063105236074
 20
93.1285926411955
 30
0.0
 11
101.8747097454513
 21
93.1285926411955
 31
0.0
  0
LINE
  5
E00EDD95
330
E00DEA5D
100
AcDbEntity
  8
JISSEN
100
AcDbLine
 10
89.69063105236074
 20
93.12859264119564
 30
0.0
 11
101.874709745451
 21
93.12859264119564
 31
0.0
  0
LINE
  5
E00EDD96
330
E00DEA5D
100
AcDbEntity
  8
JISSEN
100
AcDbLine
 10
102.8192680781281
 20
79.92614491189508
 30
0.0
 11
92.35729771902786
 21
79.92614491189538
 31
0.0
  0
LINE
  5
E00EDD97
330
E00DEA5D
100
AcDbEntity
  8
JISSEN
100
AcDbLine
 10
102.8572983250278
 20
77.92614458406103
 30
0.0
 11
92.35729771902786
 21
77.92614458406119
 31
0.0
  0
LINE
  5
E00EDD98
330
E00DEA5D
100
AcDbEntity
  8
JISSEN
100
AcDbLine
 10
112.3572989508606
 20
95.1261448324278
 30
0.0
 11
89.69063105236102
 21
95.1261448324278
 31
0.0
  0
LINE
  5
E00EDD99
330
E00DEA5D
100
AcDbEntity
  8
JISSEN
100
AcDbLine
 10
90.35729771902726
 20
88.84062774485093
 30
0.0
 11
90.35729771902726
 21
88.11146387064949
 31
0.0
  0
LINE
  5
E00EDD9A
330
E00DEA5D
100
AcDbEntity
  8
JISSEN
100
AcDbLine
 10
89.02396438570074
 20
88.84062774485093
 30
0.0
 11
89.02396438569391
 21
88.11146387064949
 31
0.0
  0
SPLINE
  5
E00EDD9B
330
E00DEA5D
100
AcDbEntity
  8
JISSEN
100
AcDbSpline
210
0.0
220
0.0
230
1.0
 70
     8
 71
     3
 72
     9
 73
     5
 74
     0
 42
0.0000000001
 43
0.0000000001
 40
9.973554210751695
 40
9.973554210751695
 40
9.973554210751695
 40
9.973554210751695
 40
12.78111185631362
 40
22.09188839059526
 40
22.09188839059526
 40
22.09188839059526
 40
22.09188839059526
 10
76.25309328321765
 20
93.30475471566877
 30
0.0
 10
77.26847318842567
 20
90.97789577354134
 30
0.0
 10
78.18496202705393
 20
88.45775989607384
 30
0.0
 10
78.70653315570308
 20
85.80340954235245
 30
0.0
 10
79.1072674607253
 20
83.7640151321618
 30
0.0
  0
LINE
  5
E00EDD9C
330
E00DEA5D
100
AcDbEntity
  8
JISSEN
100
AcDbLine
 10
81.88880852462849
 20
79.92614491189462
 30
0.0
 11
81.88880852462849
 21
93.12859264119564
 31
0.0
  0
LINE
  5
E00EDD9D
330
E00DEA5D
100
AcDbEntity
  8
JISSEN
100
AcDbLine
 10
76.52396377969456
 20
77.92614458406103
 30
0.0
 11
87.02396438569355
 21
77.92614458406119
 31
0.0
  0
LINE
  5
E00EDD9E
330
E00DEA5D
100
AcDbEntity
  8
JISSEN
100
AcDbLine
 10
76.56199402659419
 20
79.92614491189508
 30
0.0
 11
87.02396438569392
 21
79.92614491189522
 31
0.0
  0
LINE
  5
E00EDD9F
330
E00DEA5D
100
AcDbEntity
  8
JISSEN
100
AcDbLine
 10
79.1072674607253
 20
83.76401513219908
 30
0.0
 11
79.1072674607253
 21
79.92614491189462
 31
0.0
  0
ARC
  5
E00EDDA0
330
E00DEA5D
100
AcDbEntity
  8
JISSEN
100
AcDbCircle
 10
76.52396438569451
 20
78.92614483242827
 30
0.0
 40
1.0
100
AcDbArc
 50
180.0
 51
270.0
  0
SPLINE
  5
E00EDDA1
330
E00DEA5D
100
AcDbEntity
  8
JISSEN
100
AcDbSpline
210
0.0
220
0.0
230
1.0
 70
     8
 71
     3
 72
     9
 73
     5
 74
     0
 42
0.0000000001
 43
0.0000000001
 40
0.0
 40
0.0
 40
0.0
 40
0.0
 40
0.5
 40
1.0
 40
1.0
 40
1.0
 40
1.0
 10
76.56199399015133
 20
79.92614483241372
 30
0.0
 10
76.55566864630021
 20
79.92614483241372
 30
0.0
 10
76.54300509374508
 20
79.92602550613892
 30
0.0
 10
76.5303156391513
 20
79.9256659288399
 30
0.0
 10
76.52396438569027
 20
79.92542560759304
 30
0.0
  0
SPLINE
  5
E00EDDA2
330
E00DEA5D
100
AcDbEntity
  8
JISSEN
100
AcDbSpline
210
0.0
220
0.0
230
1.0
 70
     8
 71
     3
 72
    16
 73
    12
 74
     0
 42
0.0000000001
 43
0.0000000001
 40
0.0
 40
0.0
 40
0.0
 40
0.0
 40
0.249999999999999
 40
0.249999999999999
 40
0.3749999999999985
 40
0.3749999999999985
 40
0.4999999999999981
 40
0.4999999999999981
 40
0.7499999999999991
 40
0.7499999999999991
 40
1.0
 40
1.0
 40
1.0
 40
1.0
 10
76.52396438569027
 20
79.92542560759304
 30
0.0
 10
76.36340183054469
 20
79.91935017798418
 30
0.0
 10
76.21067115955608
 20
79.87452702945867
 30
0.0
 10
76.01680370582741
 20
79.77431067440638
 30
0.0
 10
75.95755228403106
 20
79.73530161206953
 30
0.0
 10
75.85248191791013
 20
79.65156170133034
 30
0.0
 10
75.80579425375038
 20
79.60633002754022
 30
0.0
 10
75.68142447654551
 20
79.46237761654467
 30
0.0
 10
75.62280313473181
 20
79.36036389503553
 30
0.0
 10
75.54341478166222
 20
79.14650961628487
 30
0.0
 10
75.52396438569028
 20
79.03569010669484
 30
0.0
 10
75.52396438569028
 20
78.92614483241373
 30
0.0
  0
LINE
  5
E00EDDA3
330
E00DEA5D
100
AcDbEntity
  8
JISSEN
100
AcDbLine
 10
90.3572977190268
 20
81.61011491006506
 30
0.0
 11
91.35729771902679
 21
81.1114638706495
 31
0.0
  0
LINE
  5
E00EDDA4
330
E00DEA5D
100
AcDbEntity
  8
JISSEN
100
AcDbLine
 10
89.02396438569345
 20
81.61011491006506
 30
0.0
 11
88.02396438569468
 21
81.1114638706495
 31
0.0
  0
LINE
  5
E00EDDA5
330
E00DEA5D
100
AcDbEntity
  8
JISSEN
100
AcDbLine
 10
90.69063105236073
 20
79.92614491189538
 30
0.0
 11
88.69063105236074
 21
79.92614491189522
 31
0.0
  0
LINE
  5
E00EDDA6
330
E00DEA5D
100
AcDbEntity
  8
JISSEN
100
AcDbLine
 10
87.22396438569418
 20
77.37813053727894
 30
0.0
 11
92.15729771902728
 21
77.37813053727894
 31
0.0
  0
LINE
  5
E00EDDA7
330
E00DEA5D
100
AcDbEntity
  8
JISSEN
 48
3.0
100
AcDbLine
 10
90.35729771902754
 20
78.77813053728343
 30
0.0
 11
89.02396438569423
 21
78.77813053728282
 31
0.0
  0
LINE
  5
E00EDDA8
330
E00DEA5D
100
AcDbEntity
  8
JISSEN
100
AcDbLine
 10
87.02396438569406
 20
81.1114638706495
 30
0.0
 11
87.02396438569346
 21
77.57813053727907
 31
0.0
  0
ARC
  5
E00EDDA9
330
E00DEA5D
100
AcDbEntity
  8
JISSEN
100
AcDbCircle
 10
87.22396438569418
 20
77.57813053727907
 30
0.0
 40
0.2
100
AcDbArc
 50
180.0
 51
270.0
  0
LINE
  5
E00EDDAA
330
E00DEA5D
100
AcDbEntity
  8
JISSEN
100
AcDbLine
 10
87.02396438569406
 20
81.1114638706495
 30
0.0
 11
88.02396438569468
 21
81.1114638706495
 31
0.0
  0
ARC
  5
E00EDDAB
330
E00DEA5D
100
AcDbEntity
  8
JISSEN
 48
3.0
100
AcDbCircle
 10
89.02396438569406
 20
79.11146387061676
 30
0.0
 40
0.3333333333333333
100
AcDbArc
 50
180.0
 51
270.0
  0
LINE
  5
E00EDDAC
330
E00DEA5D
100
AcDbEntity
  8
JISSEN
 48
3.0
100
AcDbLine
 10
88.69063105236074
 20
81.30218320508239
 30
0.0
 11
88.69063105236074
 21
79.11146387061676
 31
0.0
  0
LINE
  5
E00EDDAD
330
E00DEA5D
100
AcDbEntity
  8
JISSEN
100
AcDbLine
 10
92.35729771902786
 20
81.1114638706495
 30
0.0
 11
92.35729771902786
 21
77.57813053727907
 31
0.0
  0
ARC
  5
E00EDDAE
330
E00DEA5D
100
AcDbEntity
  8
JISSEN
100
AcDbCircle
 10
92.15729771902728
 20
77.57813053727907
 30
0.0
 40
0.2
100
AcDbArc
 50
270.0
 51
0.0
  0
LINE
  5
E00EDDAF
330
E00DEA5D
100
AcDbEntity
  8
JISSEN
100
AcDbLine
 10
91.35729771902679
 20
81.1114638706495
 30
0.0
 11
92.3572977190274
 21
81.1114638706495
 31
0.0
  0
ARC
  5
E00EDDB0
330
E00DEA5D
100
AcDbEntity
  8
JISSEN
 48
3.0
100
AcDbCircle
 10
90.3572977190274
 20
79.11146387061676
 30
0.0
 40
0.3333333333333333
100
AcDbArc
 50
270.0
 51
0.0
  0
LINE
  5
E00EDDB1
330
E00DEA5D
100
AcDbEntity
  8
JISSEN
 48
3.0
100
AcDbLine
 10
90.69063105236073
 20
81.30218320508239
 30
0.0
 11
90.69063105236073
 21
79.11146387061676
 31
0.0
  0
LINE
  5
E00EDDB2
330
E00DEA5D
100
AcDbEntity
  8
JISSEN
100
AcDbLine
 10
93.0239643856945
 20
81.99425150009972
 30
0.0
 11
86.35729771902845
 21
81.99425150009972
 31
0.0
  0
LINE
  5
E00EDDB3
330
E00DEA5D
100
AcDbEntity
  8
JISSEN
100
AcDbLine
 10
86.35729771902845
 20
84.44479720398282
 30
0.0
 11
93.02396438569392
 21
84.44479720398254
 31
0.0
  0
LINE
  5
E00EDDB4
330
E00DEA5D
100
AcDbEntity
  8
JISSEN
100
AcDbLine
 10
93.0239643856945
 20
82.90208680581361
 30
0.0
 11
86.35729771902845
 21
82.90208680581331
 31
0.0
  0
LINE
  5
E00EDDB5
330
E00DEA5D
100
AcDbEntity
  8
JISSEN
100
AcDbLine
 10
93.14408450581215
 20
88.11146387064949
 30
0.0
 11
86.23717759890949
 21
88.11146387064889
 31
0.0
  0
LINE
  5
E00EDDB6
330
E00DEA5D
100
AcDbEntity
  8
JISSEN
100
AcDbLine
 10
89.02396438569452
 20
85.44275273382941
 30
0.0
 11
89.02396438569452
 21
84.44479720398282
 31
0.0
  0
LINE
  5
E00EDDB7
330
E00DEA5D
100
AcDbEntity
  8
JISSEN
100
AcDbLine
 10
86.35729771902845
 20
84.44479720398282
 30
0.0
 11
86.35729771902845
 21
81.99425150009972
 31
0.0
  0
LINE
  5
E00EDDB8
330
E00DEA5D
100
AcDbEntity
  8
JISSEN
100
AcDbLine
 10
89.02396438569452
 20
81.99425150009972
 30
0.0
 11
89.02396438569452
 21
81.61011491006536
 31
0.0
  0
LINE
  5
E00EDDB9
330
E00DEA5D
100
AcDbEntity
  8
JISSEN
100
AcDbLine
 10
85.41237949653529
 20
85.4427527338297
 30
0.0
 11
85.41237949653529
 21
86.35058803954239
 31
0.0
  0
LINE
  5
E00EDDBA
330
E00DEA5D
100
AcDbEntity
  8
JISSEN
100
AcDbLine
 10
86.23717759891007
 20
88.11146387064889
 30
0.0
 11
85.41237949653529
 21
86.35058803954239
 31
0.0
  0
LINE
  5
E00EDDBB
330
E00DEA5D
100
AcDbEntity
  8
JISSEN
100
AcDbLine
 10
90.35729771902785
 20
85.4427527338297
 30
0.0
 11
90.35729771902785
 21
84.44479720398282
 31
0.0
  0
LINE
  5
E00EDDBC
330
E00DEA5D
100
AcDbEntity
  8
JISSEN
100
AcDbLine
 10
90.35729771902785
 20
81.99425150009972
 30
0.0
 11
90.35729771902785
 21
81.61011491006446
 31
0.0
  0
LINE
  5
E00EDDBD
330
E00DEA5D
100
AcDbEntity
  8
JISSEN
100
AcDbLine
 10
93.02396438569392
 20
84.44479720398254
 30
0.0
 11
93.02396438569392
 21
81.99425150009972
 31
0.0
  0
LINE
  5
E00EDDBE
330
E00DEA5D
100
AcDbEntity
  8
JISSEN
100
AcDbLine
 10
82.61996735682908
 20
102.7928115139601
 30
0.0
 11
85.92840946769422
 21
102.7928115139601
 31
0.0
  0
LINE
  5
E00EDDBF
330
E00DEA5D
100
AcDbEntity
  8
JISSEN
100
AcDbLine
 10
89.69063105236074
 20
93.1285926411955
 30
0.0
 11
77.50655235927067
 21
93.1285926411955
 31
0.0
  0
LINE
  5
E00EDDC0
330
E00DEA5D
100
AcDbEntity
  8
JISSEN
100
AcDbLine
 10
89.69063105236074
 20
93.12859264119564
 30
0.0
 11
77.50655235926953
 21
93.12859264119564
 31
0.0
  0
LINE
  5
E00EDDC1
330
E00DEA5D
100
AcDbEntity
  8
JISSEN
100
AcDbLine
 10
78.16257245396065
 20
95.87025612509316
 30
0.0
 11
77.38535644662909
 21
95.70505385822666
 31
0.0
  0
ARC
  5
E00EDDC2
330
E00DEA5D
100
AcDbEntity
  8
JISSEN
100
AcDbCircle
 10
78.02396438569406
 20
96.52235455089419
 30
0.0
 40
0.6666666666666714
100
AcDbArc
 50
282.0000000000161
 51
0.0
  0
ARC
  5
E00EDDC3
330
E00DEA5D
100
AcDbEntity
  8
JISSEN
100
AcDbCircle
 10
77.52396438569405
 20
95.05295547696055
 30
0.0
 40
0.6666666666666653
100
AcDbArc
 50
102.0000000000161
 51
173.697133816419
  0
LINE
  5
E00EDDC4
330
E00DEA5D
100
AcDbEntity
  8
JISSEN
100
AcDbLine
 10
77.63529610682792
 20
93.12614481502855
 30
0.0
 11
77.62738607376087
 21
93.12614481502855
 31
0.0
  0
SPLINE
  5
E00EDDC5
330
E00DEA5D
100
AcDbEntity
  8
JISSEN
100
AcDbSpline
210
0.0
220
0.0
230
1.0
 70
     8
 71
     3
 72
     9
 73
     5
 74
     0
 42
0.0000000001
 43
0.0000000001
 40
0.0
 40
0.0
 40
0.0
 40
0.0
 40
0.5
 40
1.0
 40
1.0
 40
1.0
 40
1.0
 10
77.56512991723758
 20
93.12859270797424
 30
0.0
 10
77.57678683425803
 20
93.12777834143181
 30
0.0
 10
77.60013790488677
 20
93.12655478411963
 30
0.0
 10
77.62356374774583
 20
93.12614483241324
 30
0.0
 10
77.63529550692886
 20
93.12614483241324
 30
0.0
  0
SPLINE
  5
E00EDDC6
330
E00DEA5D
100
AcDbEntity
  8
JISSEN
100
AcDbSpline
210
0.0
220
0.0
230
1.0
 70
     8
 71
     3
 72
     9
 73
     5
 74
     0
 42
0.0000000001
 43
0.0000000001
 40
0.0
 40
0.0
 40
0.0
 40
0.0
 40
0.5
 40
1.0
 40
1.0
 40
1.0
 40
1.0
 10
77.56512991723773
 20
93.12859270797439
 30
0.0
 10
77.57678683425817
 20
93.12777834143197
 30
0.0
 10
77.60013790488693
 20
93.12655478411979
 30
0.0
 10
77.62356374774601
 20
93.1261448324134
 30
0.0
 10
77.63529550692902
 20
93.1261448324134
 30
0.0
  0
LINE
  5
E00EDDC7
330
E00DEA5D
100
AcDbEntity
  8
JISSEN
100
AcDbLine
 10
77.63529610682809
 20
93.12614481502871
 30
0.0
 11
77.62738607376101
 21
93.12614481502871
 31
0.0
  0
LINE
  5
E00EDDC8
330
E00DEA5D
100
AcDbEntity
  8
JISSEN
100
AcDbLine
 10
79.970652034429
 20
98.45947809122712
 30
0.0
 11
79.07625081196158
 21
98.45947809122712
 31
0.0
  0
LINE
  5
E00EDDC9
330
E00DEA5D
100
AcDbEntity
  8
JISSEN
100
AcDbLine
 10
79.51428410462824
 20
102.7928115139601
 30
0.0
 11
79.84255358136135
 21
102.4594781260268
 31
0.0
  0
LINE
  5
E00EDDCA
330
E00DEA5D
100
AcDbEntity
  8
JISSEN
100
AcDbLine
 10
78.69063111196175
 20
102.7928115139601
 30
0.0
 11
78.69063111196175
 21
96.52235461002712
 31
0.0
  0
SPLINE
  5
E00EDDCB
330
E00DEA5D
100
AcDbEntity
  8
JISSEN
100
AcDbSpline
210
0.0
220
0.0
230
1.0
 70
     8
 71
     3
 72
    18
 73
    14
 74
     0
 42
0.0000000001
 43
0.0000000001
 40
0.0
 40
0.0
 40
0.0
 40
0.0
 40
0.1249999999999998
 40
0.1249999999999998
 40
0.2499999999999997
 40
0.2499999999999997
 40
0.3749999999999995
 40
0.3749999999999995
 40
0.4999999999999993
 40
0.4999999999999993
 40
0.7499999999999997
 40
0.7499999999999997
 40
1.0
 40
1.0
 40
1.0
 40
1.0
 10
79.07625080743776
 20
98.45947816573172
 30
0.0
 10
79.05890785482108
 20
98.45947816573172
 30
0.0
 10
79.04242717601647
 20
98.46591077818985
 30
0.0
 10
79.01105978613106
 20
98.4911747080895
 30
0.0
 10
78.99602432474768
 20
98.51031405856025
 30
0.0
 10
78.96830508660162
 20
98.56033780545285
 30
0.0
 10
78.95564210995974
 20
98.5909706552416
 30
0.0
 10
78.93241602349232
 20
98.66339945963702
 30
0.0
 10
78.92182121746902
 20
98.70557939240875
 30
0.0
 10
78.89412180139558
 20
98.84383986374743
 30
0.0
 10
78.88033407352287
 20
98.95535685854268
 30
0.0
 10
78.86228098162288
 20
99.1959839712865
 30
0.0
 10
78.8577457692522
 20
99.32731464876926
 30
0.0
 10
78.8577457692522
 20
99.45947816573173
 30
0.0
  0
LINE
  5
E00EDDCC
330
E00DEA5D
100
AcDbEntity
  8
JISSEN
100
AcDbLine
 10
78.85774515122751
 20
102.7928115139601
 30
0.0
 11
79.51428410462824
 21
102.7928115139601
 31
0.0
  0
LINE
  5
E00EDDCD
330
E00DEA5D
100
AcDbEntity
  8
JISSEN
100
AcDbLine
 10
78.85774515122751
 20
99.45947825516052
 30
0.0
 11
78.85774515122751
 21
102.7928115139601
 31
0.0
  0
LINE
  5
E00EDDCE
330
E00DEA5D
100
AcDbEntity
  8
JISSEN
100
AcDbLine
 10
78.69063111196175
 20
102.7928115139601
 30
0.0
 11
78.85774515122751
 21
102.7928115139601
 31
0.0
  0
SPLINE
  5
E00EDDCF
330
E00DEA5D
100
AcDbEntity
  8
JISSEN
100
AcDbSpline
210
0.0
220
0.0
230
1.0
 70
     8
 71
     3
 72
    18
 73
    14
 74
     0
 42
0.0000000001
 43
0.0000000001
 40
0.0
 40
0.0
 40
0.0
 40
0.0
 40
0.1250000000000001
 40
0.1250000000000001
 40
0.2500000000000002
 40
0.2500000000000002
 40
0.3750000000000002
 40
0.3750000000000002
 40
0.5000000000000004
 40
0.5000000000000004
 40
0.7500000000000001
 40
0.7500000000000001
 40
1.0
 40
1.0
 40
1.0
 40
1.0
 10
79.84255352226421
 20
99.45947816573173
 30
0.0
 10
79.84255352226421
 20
99.39338431148938
 30
0.0
 10
79.84367429341529
 20
99.32839530222604
 30
0.0
 10
79.84813685695232
 20
99.20053667159109
 30
0.0
 10
79.85153395356167
 20
99.13700414633231
 30
0.0
 10
79.86063448997914
 20
99.01586073206807
 30
0.0
 10
79.86629213352336
 20
98.95840592979393
 30
0.0
 10
79.88010835195789
 20
98.84967624550144
 30
0.0
 10
79.88834892930373
 20
98.79820322579012
 30
0.0
 10
79.91639331521383
 20
98.65984741788079
 30
0.0
 10
79.94033215977452
 20
98.58540247102478
 30
0.0
 10
79.99671764117294
 20
98.48581932278881
 30
0.0
 10
80.02970936383688
 20
98.45947816573172
 30
0.0
 10
80.0655658079296
 20
98.45947816573172
 30
0.0
  0
SPLINE
  5
E00EDDD0
330
E00DEA5D
100
AcDbEntity
  8
JISSEN
100
AcDbSpline
210
0.0
220
0.0
230
1.0
 70
     8
 71
     3
 72
    18
 73
    14
 74
     0
 42
0.0000000001
 43
0.0000000001
 40
0.0
 40
0.0
 40
0.0
 40
0.0
 40
0.1249999999999998
 40
0.1249999999999998
 40
0.2499999999999995
 40
0.2499999999999995
 40
0.3749999999999992
 40
0.3749999999999992
 40
0.499999999999999
 40
0.499999999999999
 40
0.7499999999999995
 40
0.7499999999999995
 40
1.0
 40
1.0
 40
1.0
 40
1.0
 10
82.61996734583451
 20
99.45947816573173
 30
0.0
 10
82.61996734583451
 20
99.39339593911356
 30
0.0
 10
82.61499538406358
 20
99.32841819054182
 30
0.0
 10
82.59555627541141
 20
99.20058136232718
 30
0.0
 10
82.58085364146651
 20
99.13705980982124
 30
0.0
 10
82.54260803446092
 20
99.01593305767457
 30
0.0
 10
82.51925672112321
 20
98.95848548476159
 30
0.0
 10
82.46435507478947
 20
98.8497675619212
 30
0.0
 10
82.43251850499575
 20
98.79829757054348
 30
0.0
 10
82.32884489788721
 20
98.65994070725164
 30
0.0
 10
82.24607866554936
 20
98.58548256762688
 30
0.0
 10
82.07060204629408
 20
98.48585310054286
 30
0.0
 10
81.97630140643662
 20
98.45947816573172
 30
0.0
 10
81.88320113906454
 20
98.45947816573172
 30
0.0
  0
LINE
  5
E00EDDD1
330
E00DEA5D
100
AcDbEntity
  8
JISSEN
100
AcDbLine
 10
81.88320117249574
 20
98.45947809122712
 30
0.0
 11
80.37065197582748
 21
98.45947809122712
 31
0.0
  0
LINE
  5
E00EDDD2
330
E00DEA5D
100
AcDbEntity
  8
JISSEN
100
AcDbLine
 10
80.37065197582748
 20
96.52235461002712
 30
0.0
 11
80.37065197582748
 21
98.45947809122712
 31
0.0
  0
SPLINE
  5
E00EDDD3
330
E00DEA5D
100
AcDbEntity
  8
JISSEN
100
AcDbSpline
210
0.0
220
0.0
230
1.0
 70
     8
 71
     3
 72
     8
 73
     4
 74
     0
 42
0.0000000001
 43
0.0000000001
 40
0.0
 40
0.0
 40
0.0
 40
0.0
 40
0.000094419996181
 40
0.000094419996181
 40
0.000094419996181
 40
0.000094419996181
 10
80.36807678765018
 20
96.45947816573173
 30
0.0
 10
80.36979171425064
 20
96.48036673476164
 30
0.0
 10
80.37065206081308
 20
96.50137232955048
 30
0.0
 10
80.37065206081308
 20
96.52235455092331
 30
0.0
  0
LINE
  5
E00EDDD4
330
E00DEA5D
100
AcDbEntity
  8
JISSEN
100
AcDbLine
 10
79.970652034429
 20
98.45947809122712
 30
0.0
 11
79.970652034429
 21
96.52235461002712
 31
0.0
  0
SPLINE
  5
E00EDDD5
330
E00DEA5D
100
AcDbEntity
  8
JISSEN
100
AcDbSpline
210
0.0
220
0.0
230
1.0
 70
     8
 71
     3
 72
     8
 73
     4
 74
     0
 42
0.0000000001
 43
0.0000000001
 40
0.0
 40
0.0
 40
0.0
 40
0.0
 40
0.000094419996181
 40
0.000094419996181
 40
0.000094419996181
 40
0.000094419996181
 10
79.97065206081285
 20
96.52235455092331
 30
0.0
 10
79.97065206081285
 20
96.50137232955048
 30
0.0
 10
79.96979171425102
 20
96.48036673476164
 30
0.0
 10
79.96807678765055
 20
96.45947816573173
 30
0.0
  0
LINE
  5
E00EDDD6
330
E00DEA5D
100
AcDbEntity
  8
JISSEN
100
AcDbLine
 10
79.96807661702812
 20
96.45947822909318
 30
0.0
 11
80.36807655842901
 21
96.45947822909318
 31
0.0
  0
LINE
  5
E00EDDD7
330
E00DEA5D
100
AcDbEntity
  8
JISSEN
100
AcDbLine
 10
79.970652034429
 20
98.45947809122712
 30
0.0
 11
80.37065197582748
 21
98.45947809122712
 31
0.0
  0
LINE
  5
E00EDDD8
330
E00DEA5D
100
AcDbEntity
  8
JISSEN
100
AcDbLine
 10
79.84255358136135
 20
102.4594781260268
 30
0.0
 11
79.84255358136152
 21
99.45864663722908
 31
0.0
  0
LINE
  5
E00EDDD9
330
E00DEA5D
100
AcDbEntity
  8
JISSEN
100
AcDbLine
 10
82.61996735682908
 20
102.7928115139601
 30
0.0
 11
82.61996735682908
 21
99.45947825516052
 31
0.0
  0
LINE
  5
E00EDDDA
330
E00DEA5D
100
AcDbEntity
  8
JISSEN
100
AcDbLine
 10
86.02002238840787
 20
91.74829303028495
 30
0.0
 11
93.36123971631451
 21
91.74829303028495
 31
0.0
  0
LINE
  5
E00EDDDB
330
E00DEA5D
100
AcDbEntity
  8
JISSEN
100
AcDbLine
 10
86.03697739870865
 20
93.12859264119564
 30
0.0
 11
86.03697739870915
 21
91.77813053731858
 31
0.0
  0
LINE
  5
E00EDDDC
330
E00DEA5D
100
AcDbEntity
  8
JISSEN
370
    -2
100
AcDbLine
 10
85.9906311288849
 20
92.7575826463287
 30
0.0
 11
85.99063112887753
 21
91.68199628526982
 31
0.0
  0
LINE
  5
E00EDDDD
330
E00DEA5D
100
AcDbEntity
  8
JISSEN
100
AcDbLine
 10
86.03697739870915
 20
91.77813053731858
 30
0.0
 11
85.05772563757966
 21
89.74690696818049
 31
0.0
  0
LINE
  5
E00EDDDE
330
E00DEA5D
100
AcDbEntity
  8
JISSEN
100
AcDbLine
 10
85.05772563757966
 20
88.84062774485032
 30
0.0
 11
85.05772563757906
 21
89.7469069681799
 31
0.0
  0
LINE
  5
E00EDDDF
330
E00DEA5D
100
AcDbEntity
  8
JISSEN
100
AcDbLine
 10
93.34428470601366
 20
93.12859264119564
 30
0.0
 11
93.34428470601322
 21
91.77813053731616
 31
0.0
  0
LINE
  5
E00EDDE0
330
E00DEA5D
100
AcDbEntity
  8
JISSEN
370
    -2
100
AcDbLine
 10
93.39063097589448
 20
92.75758264630445
 30
0.0
 11
93.39063097589448
 21
91.68199628516447
 31
0.0
  0
LINE
  5
E00EDDE1
330
E00DEA5D
100
AcDbEntity
  8
JISSEN
100
AcDbLine
 10
89.29063103336176
 20
98.45947809122712
 30
0.0
 11
86.88368069182899
 21
98.45947809122712
 31
0.0
  0
SPLINE
  5
E00EDDE2
330
E00DEA5D
100
AcDbEntity
  8
JISSEN
100
AcDbSpline
210
0.0
220
0.0
230
1.0
 70
     8
 71
     3
 72
    18
 73
    14
 74
     0
 42
0.0000000001
 43
0.0000000001
 40
0.0
 40
0.0
 40
0.0
 40
0.0
 40
0.1250000000000003
 40
0.1250000000000003
 40
0.2500000000000006
 40
0.2500000000000006
 40
0.3750000000000009
 40
0.3750000000000009
 40
0.5000000000000013
 40
0.5000000000000013
 40
0.7500000000000006
 40
0.7500000000000006
 40
1.0
 40
1.0
 40
1.0
 40
1.0
 10
86.88368072076002
 20
98.45947816573172
 30
0.0
 10
86.81978913286773
 20
98.45947816573172
 30
0.0
 10
86.75711090626325
 20
98.46591077818985
 30
0.0
 10
86.63407423517353
 20
98.4911747080895
 30
0.0
 10
86.57307983479325
 20
98.51031405856025
 30
0.0
 10
86.45703683226912
 20
98.56033780545285
 30
0.0
 10
86.40213400342066
 20
98.5909706552416
 30
0.0
 10
86.29843773369291
 20
98.66339945963702
 30
0.0
 10
86.24945838086066
 20
98.70557939240875
 30
0.0
 10
86.11801139131769
 20
98.84383986374743
 30
0.0
 10
86.04757933968825
 20
98.95535685854268
 30
0.0
 10
85.95335842553788
 20
99.1959839712865
 30
0.0
 10
85.92840947580389
 20
99.32731464876926
 30
0.0
 10
85.92840947580389
 20
99.45947816573173
 30
0.0
  0
SPLINE
  5
E00EDDE3
330
E00DEA5D
100
AcDbEntity
  8
JISSEN
100
AcDbSpline
210
0.0
220
0.0
230
1.0
 70
     8
 71
     3
 72
    18
 73
    14
 74
     0
 42
0.0000000001
 43
0.0000000001
 40
0.0
 40
0.0
 40
0.0
 40
0.0
 40
0.1250000000000001
 40
0.1250000000000001
 40
0.2500000000000003
 40
0.2500000000000003
 40
0.3750000000000004
 40
0.3750000000000004
 40
0.5000000000000006
 40
0.5000000000000006
 40
0.7500000000000002
 40
0.7500000000000002
 40
1.0
 40
1.0
 40
1.0
 40
1.0
 10
86.27042961912939
 20
99.459475279557
 30
0.0
 10
86.27042979838353
 20
99.39338154709357
 30
0.0
 10
86.27652476903538
 20
99.32839267430054
 30
0.0
 10
86.30043065679922
 20
99.20053434472407
 30
0.0
 10
86.31853252212186
 20
99.1370019889854
 30
0.0
 10
86.36586911304505
 20
99.01585889657074
 30
0.0
 10
86.39486680913234
 20
98.95840426085174
 30
0.0
 10
86.46353112874791
 20
98.84967491764523
 30
0.0
 10
86.50356449602179
 20
98.79820205808746
 30
0.0
 10
86.63507097044973
 20
98.65984669367804
 30
0.0
 10
86.74152253048712
 20
98.58540201513269
 30
0.0
 10
86.97250288246607
 20
98.48581922443605
 30
0.0
 10
87.09915433202557
 20
98.45947816573172
 30
0.0
 10
87.22726621470775
 20
98.45947816573172
 30
0.0
  0
LINE
  5
E00EDDE4
330
E00DEA5D
100
AcDbEntity
  8
JISSEN
100
AcDbLine
 10
86.15642300049556
 20
102.7928115139601
 30
0.0
 11
86.27042961176186
 21
102.4594781260268
 31
0.0
  0
LINE
  5
E00EDDE5
330
E00DEA5D
100
AcDbEntity
  8
JISSEN
100
AcDbLine
 10
85.92840946769422
 20
99.45947825516052
 30
0.0
 11
85.92840946769422
 21
102.7928115139601
 31
0.0
  0
LINE
  5
E00EDDE6
330
E00DEA5D
100
AcDbEntity
  8
JISSEN
100
AcDbLine
 10
85.92840946769422
 20
102.7928115139601
 30
0.0
 11
86.15642300049556
 21
102.7928115139601
 31
0.0
  0
LINE
  5
E00EDDE7
330
E00DEA5D
100
AcDbEntity
  8
JISSEN
100
AcDbLine
 10
86.27042961176186
 20
102.4594781260268
 30
0.0
 11
86.27042961176186
 21
99.83934455469402
 31
0.0
  0
LINE
  5
E00EDDE8
330
E00DEA5D
100
AcDbEntity
  8
JISSEN
100
AcDbLine
 10
86.27042961176186
 20
99.83934455469402
 30
0.0
 11
86.27042961176186
 21
99.45947515076042
 31
0.0
  0
SPLINE
  5
E00EDDE9
330
E00DEA5D
100
AcDbEntity
  8
JISSEN
100
AcDbSpline
210
0.0
220
0.0
230
1.0
 70
     8
 71
     3
 72
    18
 73
    14
 74
     0
 42
0.0000000001
 43
0.0000000001
 40
0.0
 40
0.0
 40
0.0
 40
0.0
 40
0.1250000000000003
 40
0.1250000000000003
 40
0.2500000000000006
 40
0.2500000000000006
 40
0.3750000000000009
 40
0.3750000000000009
 40
0.5000000000000013
 40
0.5000000000000013
 40
0.7500000000000006
 40
0.7500000000000006
 40
1.0
 40
1.0
 40
1.0
 40
1.0
 10
92.49758138396144
 20
98.45947816573172
 30
0.0
 10
92.56147297185373
 20
98.45947816573172
 30
0.0
 10
92.62415119845821
 20
98.46591077818985
 30
0.0
 10
92.74718786954792
 20
98.4911747080895
 30
0.0
 10
92.8081822699282
 20
98.51031405856025
 30
0.0
 10
92.92422527245236
 20
98.56033780545285
 30
0.0
 10
92.9791281013008
 20
98.5909706552416
 30
0.0
 10
93.08282437102855
 20
98.66339945963702
 30
0.0
 10
93.1318037238608
 20
98.70557939240875
 30
0.0
 10
93.26325071340381
 20
98.84383986374743
 30
0.0
 10
93.33368276503321
 20
98.95535685854268
 30
0.0
 10
93.42790367918357
 20
99.1959839712865
 30
0.0
 10
93.45285262891758
 20
99.32731464876926
 30
0.0
 10
93.45285262891758
 20
99.45947816573173
 30
0.0
  0
SPLINE
  5
E00EDDEA
330
E00DEA5D
100
AcDbEntity
  8
JISSEN
100
AcDbSpline
210
0.0
220
0.0
230
1.0
 70
     8
 71
     3
 72
    18
 73
    14
 74
     0
 42
0.0000000001
 43
0.0000000001
 40
0.0
 40
0.0
 40
0.0
 40
0.0
 40
0.1250000000000001
 40
0.1250000000000001
 40
0.2500000000000003
 40
0.2500000000000003
 40
0.3750000000000004
 40
0.3750000000000004
 40
0.5000000000000006
 40
0.5000000000000006
 40
0.7500000000000002
 40
0.7500000000000002
 40
1.0
 40
1.0
 40
1.0
 40
1.0
 10
93.11083248559208
 20
99.459475279557
 30
0.0
 10
93.11083230633796
 20
99.39338154709357
 30
0.0
 10
93.10473733568608
 20
99.32839267430054
 30
0.0
 10
93.08083144792224
 20
99.20053434472407
 30
0.0
 10
93.06272958259961
 20
99.1370019889854
 30
0.0
 10
93.01539299167641
 20
99.01585889657074
 30
0.0
 10
92.98639529558915
 20
98.95840426085174
 30
0.0
 10
92.91773097597355
 20
98.84967491764523
 30
0.0
 10
92.87769760869966
 20
98.79820205808746
 30
0.0
 10
92.74619113427172
 20
98.65984669367804
 30
0.0
 10
92.63973957423434
 20
98.58540201513269
 30
0.0
 10
92.40875922225539
 20
98.48581922443605
 30
0.0
 10
92.28210777269589
 20
98.45947816573172
 30
0.0
 10
92.15399589001373
 20
98.45947816573172
 30
0.0
  0
LINE
  5
E00EDDEB
330
E00DEA5D
100
AcDbEntity
  8
JISSEN
100
AcDbLine
 10
90.09063107135972
 20
98.45947809122712
 30
0.0
 11
92.49758141289246
 21
98.45947809122712
 31
0.0
  0
LINE
  5
E00EDDEC
330
E00DEA5D
100
AcDbEntity
  8
JISSEN
100
AcDbLine
 10
90.09063107135972
 20
96.45947822909318
 30
0.0
 11
89.69063105236074
 21
96.45947822909318
 31
0.0
  0
SPLINE
  5
E00EDDED
330
E00DEA5D
100
AcDbEntity
  8
JISSEN
100
AcDbSpline
210
0.0
220
0.0
230
1.0
 70
    24
 71
     3
 72
     8
 73
     4
 74
     0
 42
0.0000000001
 43
0.0000000001
 40
0.0
 40
0.0
 40
0.0
 40
0.0
 40
0.000094419996181
 40
0.000094419996181
 40
0.000094419996181
 40
0.000094419996181
 10
90.09063105233492
 20
96.52235455092331
 30
0.0
 10
90.09063105233492
 20
96.50137232955048
 30
0.0
 10
90.09063105233492
 20
96.48036673476164
 30
0.0
 10
90.09063105233492
 20
96.45947816573173
 30
0.0
  0
LINE
  5
E00EDDEE
330
E00DEA5D
100
AcDbEntity
  8
JISSEN
100
AcDbLine
 10
90.09063107135972
 20
98.45947809122712
 30
0.0
 11
90.09063107135972
 21
96.52235461002712
 31
0.0
  0
LINE
  5
E00EDDEF
330
E00DEA5D
100
AcDbEntity
  8
JISSEN
100
AcDbLine
 10
89.29063103336176
 20
98.45947809122712
 30
0.0
 11
89.29063103336176
 21
96.52235461002712
 31
0.0
  0
SPLINE
  5
E00EDDF0
330
E00DEA5D
100
AcDbEntity
  8
JISSEN
100
AcDbSpline
210
0.0
220
0.0
230
1.0
 70
    24
 71
     3
 72
     8
 73
     4
 74
     0
 42
0.0000000001
 43
0.0000000001
 40
0.0
 40
0.0
 40
0.0
 40
0.0
 40
0.000094419996181
 40
0.000094419996181
 40
0.000094419996181
 40
0.000094419996181
 10
89.29063105238657
 20
96.52235455092331
 30
0.0
 10
89.29063105238657
 20
96.50137232955048
 30
0.0
 10
89.29063105238657
 20
96.48036673476164
 30
0.0
 10
89.29063105238657
 20
96.45947816573173
 30
0.0
  0
LINE
  5
E00EDDF1
330
E00DEA5D
100
AcDbEntity
  8
JISSEN
100
AcDbLine
 10
89.29063103336176
 20
96.45947822909318
 30
0.0
 11
89.69063105236074
 21
96.45947822909318
 31
0.0
  0
LINE
  5
E00EDDF2
330
E00DEA5D
100
AcDbEntity
  8
JISSEN
100
AcDbLine
 10
93.45285263702724
 20
102.7928115139601
 30
0.0
 11
93.2248391042259
 21
102.7928115139601
 31
0.0
  0
LINE
  5
E00EDDF3
330
E00DEA5D
100
AcDbEntity
  8
JISSEN
100
AcDbLine
 10
93.2248391042259
 20
102.7928115139601
 30
0.0
 11
93.11083249295959
 21
102.4594781260268
 31
0.0
  0
LINE
  5
E00EDDF4
330
E00DEA5D
100
AcDbEntity
  8
JISSEN
100
AcDbLine
 10
93.11083249295959
 20
99.83934455469402
 30
0.0
 11
93.11083249295959
 21
99.45947515076042
 31
0.0
  0
LINE
  5
E00EDDF5
330
E00DEA5D
100
AcDbEntity
  8
JISSEN
100
AcDbLine
 10
93.11083249295959
 20
102.4594781260268
 30
0.0
 11
93.11083249295959
 21
99.83934455469402
 31
0.0
  0
LINE
  5
E00EDDF6
330
E00DEA5D
100
AcDbEntity
  8
JISSEN
100
AcDbLine
 10
93.45285263702724
 20
99.45947825516052
 30
0.0
 11
93.45285263702724
 21
102.7928115139601
 31
0.0
  0
SPLINE
  5
E00EDDF7
330
E00DEA5D
100
AcDbEntity
  8
JISSEN
100
AcDbSpline
210
0.0
220
0.0
230
1.0
 70
     8
 71
     3
 72
     9
 73
     5
 74
     0
 42
0.0000000001
 43
0.0000000001
 40
9.973554210751647
 40
9.973554210751647
 40
9.973554210751647
 40
9.973554210751647
 40
12.78111185631362
 40
22.09188839059526
 40
22.09188839059526
 40
22.09188839059526
 40
22.09188839059526
 10
103.1281688215038
 20
93.30475471566908
 30
0.0
 10
102.1127889162956
 20
90.97789577354134
 30
0.0
 10
101.1963000776674
 20
88.45775989607384
 30
0.0
 10
100.6747289490183
 20
85.80340954235245
 30
0.0
 10
100.2739946439961
 20
83.7640151321618
 30
0.0
  0
LINE
  5
E00EDDF8
330
E00DEA5D
100
AcDbEntity
  8
JISSEN
100
AcDbLine
 10
97.49245358009297
 20
79.92614491189462
 30
0.0
 11
97.49245358009297
 21
93.12859264119564
 31
0.0
  0
SPLINE
  5
E00EDDF9
330
E00DEA5D
100
AcDbEntity
  8
JISSEN
100
AcDbSpline
210
0.0
220
0.0
230
1.0
 70
     8
 71
     3
 72
    16
 73
    12
 74
     0
 42
0.0000000001
 43
0.0000000001
 40
0.0
 40
0.0
 40
0.0
 40
0.0
 40
0.249999999999999
 40
0.249999999999999
 40
0.3749999999999985
 40
0.3749999999999985
 40
0.4999999999999981
 40
0.4999999999999981
 40
0.7499999999999991
 40
0.7499999999999991
 40
1.0
 40
1.0
 40
1.0
 40
1.0
 10
102.857297719032
 20
79.92542560759304
 30
0.0
 10
103.0178602741776
 20
79.91935017798418
 30
0.0
 10
103.1705909451662
 20
79.87452702945867
 30
0.0
 10
103.3644583988949
 20
79.77431067440638
 30
0.0
 10
103.4237098206913
 20
79.73530161206953
 30
0.0
 10
103.5287801868122
 20
79.65156170133034
 30
0.0
 10
103.5754678509719
 20
79.60633002754022
 30
0.0
 10
103.6998376281768
 20
79.46237761654467
 30
0.0
 10
103.7584589699905
 20
79.36036389503553
 30
0.0
 10
103.8378473230601
 20
79.14650961628487
 30
0.0
 10
103.857297719032
 20
79.03569010669484
 30
0.0
 10
103.857297719032
 20
78.92614483241373
 30
0.0
  0
ARC
  5
E00EDDFA
330
E00DEA5D
100
AcDbEntity
  8
JISSEN
100
AcDbCircle
 10
102.8572977190278
 20
78.92614483242827
 30
0.0
 40
1.0
100
AcDbArc
 50
270.0
 51
0.0
  0
LINE
  5
E00EDDFB
330
E00DEA5D
100
AcDbEntity
  8
JISSEN
100
AcDbLine
 10
100.2739946439961
 20
83.76401513219908
 30
0.0
 11
100.2739946439961
 21
79.92614491189462
 31
0.0
  0
SPLINE
  5
E00EDDFC
330
E00DEA5D
100
AcDbEntity
  8
JISSEN
100
AcDbSpline
210
0.0
220
0.0
230
1.0
 70
     8
 71
     3
 72
     9
 73
     5
 74
     0
 42
0.0000000001
 43
0.0000000001
 40
0.0
 40
0.0
 40
0.0
 40
0.0
 40
0.5
 40
1.0
 40
1.0
 40
1.0
 40
1.0
 10
102.819268114571
 20
79.92614483241372
 30
0.0
 10
102.8255934584221
 20
79.92614483241372
 30
0.0
 10
102.8382570109772
 20
79.92602550613892
 30
0.0
 10
102.850946465571
 20
79.9256659288399
 30
0.0
 10
102.857297719032
 20
79.92542560759304
 30
0.0
  0
LINE
  5
E00EDDFD
330
E00DEA5D
100
AcDbEntity
  8
JISSEN
100
AcDbLine
 10
93.96888260818707
 20
85.4427527338297
 30
0.0
 11
93.96888260818769
 21
86.35058803954724
 31
0.0
  0
LINE
  5
E00EDDFE
330
E00DEA5D
100
AcDbEntity
  8
JISSEN
100
AcDbLine
 10
111.3839029476276
 20
94.46502175409436
 30
0.0
 11
101.8747097454506
 21
93.1285926411955
 31
0.0
  0
LINE
  5
E00EDDFF
330
E00DEA5D
100
AcDbEntity
  8
JISSEN
100
AcDbLine
 10
101.2186896507608
 20
95.87025612509316
 30
0.0
 11
101.9959056580923
 21
95.70505385822666
 31
0.0
  0
ARC
  5
E00EDE00
330
E00DEA5D
100
AcDbEntity
  8
JISSEN
100
AcDbCircle
 10
101.3572977190273
 20
96.52235455089419
 30
0.0
 40
0.6666666666666714
100
AcDbArc
 50
180.0
 51
257.9999999999837
  0
LINE
  5
E00EDE01
330
E00DEA5D
100
AcDbEntity
  8
JISSEN
100
AcDbLine
 10
94.3235364671427
 20
88.84062774485062
 30
0.0
 11
94.3235364671433
 21
89.74846305056422
 31
0.0
  0
ARC
  5
E00EDE02
330
E00DEA5D
100
AcDbEntity
  8
JISSEN
100
AcDbCircle
 10
101.8572977190274
 20
95.05295547696055
 30
0.0
 40
0.6666666666666653
100
AcDbArc
 50
6.302866183580904
 51
77.9999999999838
  0
SPLINE
  5
E00EDE03
330
E00DEA5D
100
AcDbEntity
  8
JISSEN
100
AcDbSpline
210
0.0
220
0.0
230
1.0
 70
     8
 71
     3
 72
     9
 73
     5
 74
     0
 42
0.0000000001
 43
0.0000000001
 40
0.0
 40
0.0
 40
0.0
 40
0.0
 40
0.5
 40
1.0
 40
1.0
 40
1.0
 40
1.0
 10
101.8161321874845
 20
93.12859270797424
 30
0.0
 10
101.804475270464
 20
93.12777834143181
 30
0.0
 10
101.7811241998352
 20
93.12655478411963
 30
0.0
 10
101.7576983569762
 20
93.12614483241324
 30
0.0
 10
101.7459665977932
 20
93.12614483241324
 30
0.0
  0
LINE
  5
E00EDE04
330
E00DEA5D
100
AcDbEntity
  8
JISSEN
100
AcDbLine
 10
101.7459659978941
 20
93.12614481502855
 30
0.0
 11
101.7538760309612
 21
93.12614481502855
 31
0.0
  0
LINE
  5
E00EDE05
330
E00DEA5D
100
AcDbEntity
  8
JISSEN
100
AcDbLine
 10
101.7459659978942
 20
93.12614481502871
 30
0.0
 11
101.7538760309613
 21
93.12614481502871
 31
0.0
  0
SPLINE
  5
E00EDE06
330
E00DEA5D
100
AcDbEntity
  8
JISSEN
100
AcDbSpline
210
0.0
220
0.0
230
1.0
 70
     8
 71
     3
 72
     9
 73
     5
 74
     0
 42
0.0000000001
 43
0.0000000001
 40
0.0
 40
0.0
 40
0.0
 40
0.0
 40
0.5
 40
1.0
 40
1.0
 40
1.0
 40
1.0
 10
101.8161321874846
 20
93.12859270797439
 30
0.0
 10
101.8044752704641
 20
93.12777834143197
 30
0.0
 10
101.7811241998354
 20
93.12655478411979
 30
0.0
 10
101.7576983569763
 20
93.1261448324134
 30
0.0
 10
101.7459665977933
 20
93.1261448324134
 30
0.0
  0
LINE
  5
E00EDE07
330
E00DEA5D
100
AcDbEntity
  8
JISSEN
100
AcDbLine
 10
97.49806093222572
 20
98.45947809122712
 30
0.0
 11
99.01061012889398
 21
98.45947809122712
 31
0.0
  0
SPLINE
  5
E00EDE08
330
E00DEA5D
100
AcDbEntity
  8
JISSEN
100
AcDbSpline
210
0.0
220
0.0
230
1.0
 70
     8
 71
     3
 72
    18
 73
    14
 74
     0
 42
0.0000000001
 43
0.0000000001
 40
0.0
 40
0.0
 40
0.0
 40
0.0
 40
0.1249999999999998
 40
0.1249999999999998
 40
0.2499999999999995
 40
0.2499999999999995
 40
0.3749999999999992
 40
0.3749999999999992
 40
0.499999999999999
 40
0.499999999999999
 40
0.7499999999999995
 40
0.7499999999999995
 40
1.0
 40
1.0
 40
1.0
 40
1.0
 10
96.76129475888695
 20
99.45947816573173
 30
0.0
 10
96.76129475888695
 20
99.39339593911356
 30
0.0
 10
96.76626672065788
 20
99.32841819054182
 30
0.0
 10
96.78570582931008
 20
99.20058136232718
 30
0.0
 10
96.80040846325494
 20
99.13705980982124
 30
0.0
 10
96.83865407026054
 20
99.01593305767457
 30
0.0
 10
96.86200538359827
 20
98.95848548476159
 30
0.0
 10
96.91690702993202
 20
98.8497675619212
 30
0.0
 10
96.94874359972571
 20
98.79829757054348
 30
0.0
 10
97.05241720683426
 20
98.65994070725164
 30
0.0
 10
97.13518343917209
 20
98.58548256762688
 30
0.0
 10
97.31066005842738
 20
98.48585310054286
 30
0.0
 10
97.40496069828484
 20
98.45947816573172
 30
0.0
 10
97.49806096565691
 20
98.45947816573172
 30
0.0
  0
LINE
  5
E00EDE09
330
E00DEA5D
100
AcDbEntity
  8
JISSEN
100
AcDbLine
 10
96.76129474789238
 20
102.7928115139601
 30
0.0
 11
96.76129474789238
 21
99.45947825516052
 31
0.0
  0
SPLINE
  5
E00EDE0A
330
E00DEA5D
100
AcDbEntity
  8
JISSEN
100
AcDbSpline
210
0.0
220
0.0
230
1.0
 70
     8
 71
     3
 72
    18
 73
    14
 74
     0
 42
0.0000000001
 43
0.0000000001
 40
0.0
 40
0.0
 40
0.0
 40
0.0
 40
0.1249999999999998
 40
0.1249999999999998
 40
0.2499999999999997
 40
0.2499999999999997
 40
0.3749999999999995
 40
0.3749999999999995
 40
0.4999999999999993
 40
0.4999999999999993
 40
0.7499999999999997
 40
0.7499999999999997
 40
1.0
 40
1.0
 40
1.0
 40
1.0
 10
100.3050112972837
 20
98.45947816573172
 30
0.0
 10
100.3223542499003
 20
98.45947816573172
 30
0.0
 10
100.3388349287049
 20
98.46591077818985
 30
0.0
 10
100.3702023185903
 20
98.4911747080895
 30
0.0
 10
100.3852377799737
 20
98.51031405856025
 30
0.0
 10
100.4129570181198
 20
98.56033780545285
 30
0.0
 10
100.4256199947617
 20
98.5909706552416
 30
0.0
 10
100.4488460812291
 20
98.66339945963702
 30
0.0
 10
100.4594408872524
 20
98.70557939240875
 30
0.0
 10
100.4871403033258
 20
98.84383986374743
 30
0.0
 10
100.5009280311985
 20
98.95535685854268
 30
0.0
 10
100.5189811230985
 20
99.1959839712865
 30
0.0
 10
100.5235163354692
 20
99.32731464876926
 30
0.0
 10
100.5235163354692
 20
99.45947816573173
 30
0.0
  0
SPLINE
  5
E00EDE0B
330
E00DEA5D
100
AcDbEntity
  8
JISSEN
100
AcDbSpline
210
0.0
220
0.0
230
1.0
 70
     8
 71
     3
 72
    18
 73
    14
 74
     0
 42
0.0000000001
 43
0.0000000001
 40
0.0
 40
0.0
 40
0.0
 40
0.0
 40
0.1250000000000001
 40
0.1250000000000001
 40
0.2500000000000002
 40
0.2500000000000002
 40
0.3750000000000002
 40
0.3750000000000002
 40
0.5000000000000004
 40
0.5000000000000004
 40
0.7500000000000001
 40
0.7500000000000001
 40
1.0
 40
1.0
 40
1.0
 40
1.0
 10
99.53870858245725
 20
99.45947816573173
 30
0.0
 10
99.53870858245725
 20
99.39338431148938
 30
0.0
 10
99.53758781130616
 20
99.32839530222604
 30
0.0
 10
99.53312524776913
 20
99.20053667159109
 30
0.0
 10
99.52972815115979
 20
99.13700414633231
 30
0.0
 10
99.52062761474232
 20
99.01586073206807
 30
0.0
 10
99.51496997119811
 20
98.95840592979393
 30
0.0
 10
99.50115375276357
 20
98.84967624550144
 30
0.0
 10
99.49291317541772
 20
98.79820322579012
 30
0.0
 10
99.46486878950762
 20
98.65984741788079
 30
0.0
 10
99.44092994494694
 20
98.58540247102478
 30
0.0
 10
99.38454446354851
 20
98.48581932278881
 30
0.0
 10
99.35155274088458
 20
98.45947816573172
 30
0.0
 10
99.31569629679186
 20
98.45947816573172
 30
0.0
  0
LINE
  5
E00EDE0C
330
E00DEA5D
100
AcDbEntity
  8
JISSEN
100
AcDbLine
 10
100.6906309927597
 20
102.7928115139601
 30
0.0
 11
100.6906309927597
 21
96.52235461002712
 31
0.0
  0
LINE
  5
E00EDE0D
330
E00DEA5D
100
AcDbEntity
  8
JISSEN
100
AcDbLine
 10
99.41061007029245
 20
98.45947809122712
 30
0.0
 11
99.01061012889398
 21
98.45947809122712
 31
0.0
  0
LINE
  5
E00EDE0E
330
E00DEA5D
100
AcDbEntity
  8
JISSEN
100
AcDbLine
 10
99.41318548769334
 20
96.45947822909318
 30
0.0
 11
99.01318554629245
 21
96.45947822909318
 31
0.0
  0
LINE
  5
E00EDE0F
330
E00DEA5D
100
AcDbEntity
  8
JISSEN
100
AcDbLine
 10
99.41061007029245
 20
98.45947809122712
 30
0.0
 11
99.41061007029245
 21
96.45947822909304
 31
0.0
  0
SPLINE
  5
E00EDE10
330
E00DEA5D
100
AcDbEntity
  8
JISSEN
100
AcDbSpline
210
0.0
220
0.0
230
1.0
 70
     8
 71
     3
 72
     8
 73
     4
 74
     0
 42
0.0000000001
 43
0.0000000001
 40
0.0
 40
0.0
 40
0.0
 40
0.0
 40
0.000094419996181
 40
0.000094419996181
 40
0.000094419996181
 40
0.000094419996181
 10
99.01318531707127
 20
96.45947816573173
 30
0.0
 10
99.01147039047081
 20
96.48036673476164
 30
0.0
 10
99.01061004390838
 20
96.50137232955048
 30
0.0
 10
99.01061004390838
 20
96.52235455092331
 30
0.0
  0
LINE
  5
E00EDE11
330
E00DEA5D
100
AcDbEntity
  8
JISSEN
100
AcDbLine
 10
99.01061012889398
 20
96.52235461002712
 30
0.0
 11
99.01061012889398
 21
98.45947809122712
 31
0.0
  0
LINE
  5
E00EDE12
330
E00DEA5D
100
AcDbEntity
  8
JISSEN
100
AcDbLine
 10
99.41061007029245
 20
98.45947809122712
 30
0.0
 11
100.3050112927598
 21
98.45947809122712
 31
0.0
  0
LINE
  5
E00EDE13
330
E00DEA5D
100
AcDbEntity
  8
JISSEN
100
AcDbLine
 10
100.5235169534939
 20
102.7928115139601
 30
0.0
 11
99.86697800009322
 21
102.7928115139601
 31
0.0
  0
LINE
  5
E00EDE14
330
E00DEA5D
100
AcDbEntity
  8
JISSEN
100
AcDbLine
 10
99.53870852336009
 20
102.4594781260268
 30
0.0
 11
99.53870852336018
 21
99.4586466383382
 31
0.0
  0
LINE
  5
E00EDE15
330
E00DEA5D
100
AcDbEntity
  8
JISSEN
100
AcDbLine
 10
99.86697800009322
 20
102.7928115139601
 30
0.0
 11
99.53870852336009
 21
102.4594781260268
 31
0.0
  0
LINE
  5
E00EDE16
330
E00DEA5D
100
AcDbEntity
  8
JISSEN
100
AcDbLine
 10
100.6906309927597
 20
102.7928115139601
 30
0.0
 11
100.5235169534939
 21
102.7928115139601
 31
0.0
  0
LINE
  5
E00EDE17
330
E00DEA5D
100
AcDbEntity
  8
JISSEN
100
AcDbLine
 10
100.5235169534939
 20
99.45947825516052
 30
0.0
 11
100.5235169534939
 21
102.7928115139601
 31
0.0
  0
ARC
  5
E00EDE18
330
E00DEA5D
100
AcDbEntity
  8
JISSEN
100
AcDbCircle
 10
111.1983379042607
 20
95.78537918039444
 30
0.0
 40
1.333333333333323
100
AcDbArc
 50
277.9999999999942
 51
330.3681085059141
  0
LINE
  5
E00EDE19
330
E00DEA5D
100
AcDbEntity
  8
SAISEN
100
AcDbLine
 39
160.0347184554373
 10
97.88215149058963
 20
52.25677019947466
 30
0.0
 11
97.36137333798438
 21
52.34859751849146
 31
0.0
  0
LINE
  5
E00EDE1A
330
E00DEA5D
100
AcDbEntity
  8
SAISEN
100
AcDbLine
 39
160.0347184554373
 10
95.42639533692053
 20
54.71252635314335
 30
0.0
 11
95.51822265593736
 21
54.19174820053817
 31
0.0
  0
ARC
  5
E00EDE1B
330
E00DEA5D
100
AcDbEntity
  8
JISSEN
100
AcDbCircle
 10
89.69063105236063
 20
46.52100591491499
 30
0.0
 40
22.66666666666666
100
AcDbArc
 50
45.0
 51
180.0
  0
ARC
  5
E00EDE1C
330
E00DEA5D
100
AcDbEntity
  8
JISSEN
100
AcDbCircle
 10
89.69063105236063
 20
46.52100591491499
 30
0.0
 40
22.66666666666666
100
AcDbArc
 50
0.0
 51
45.0
  0
ARC
  5
E00EDE1D
330
E00DEA5D
100
AcDbEntity
  8
JISSEN
100
AcDbCircle
 10
89.69063105236063
 20
46.52100591491499
 30
0.0
 40
12.16666666666666
100
AcDbArc
 50
49.38138463392291
 51
85.2854394591184
  0
ARC
  5
E00EDE1E
330
E00DEA5D
100
AcDbEntity
  8
JISSEN
100
AcDbCircle
 10
89.69063105236063
 20
46.52100591491499
 30
0.0
 40
14.16666666666667
100
AcDbArc
 50
44.99998868593592
 51
79.15018413700291
  0
ARC
  5
E00EDE1F
330
E00DEA5D
100
AcDbEntity
  8
JISSEN
100
AcDbCircle
 10
89.69063105236063
 20
46.52100591491499
 30
0.0
 40
10.0
100
AcDbArc
 50
45.0
 51
180.0
  0
ARC
  5
E00EDE20
330
E00DEA5D
100
AcDbEntity
  8
JISSEN
100
AcDbCircle
 10
89.69063105236063
 20
46.52100591491499
 30
0.0
 40
10.0
100
AcDbArc
 50
359.9999999999999
 51
45.0
  0
ARC
  5
E00EDE21
330
E00DEA5D
100
AcDbEntity
  8
JISSEN
100
AcDbCircle
 10
89.69063105236063
 20
46.52100591491499
 30
0.0
 40
12.16666666666666
100
AcDbArc
 50
359.9999999999999
 51
40.61861536607696
  0
SPLINE
  5
E00EDE22
330
E00DEA5D
100
AcDbEntity
  8
JISSEN
100
AcDbSpline
210
0.0
220
0.0
230
1.0
 70
     8
 71
     3
 72
     8
 73
     4
 74
     0
 42
0.0000000001
 43
0.0000000001
 40
0.0
 40
0.0
 40
0.0
 40
0.0
 40
1.0
 40
1.0
 40
1.0
 40
1.0
 10
88.47915982357369
 20
56.07785940194259
 30
0.0
 10
87.60687791948035
 20
55.96728488789222
 30
0.0
 10
86.75302290659956
 20
55.73560100335632
 30
0.0
 10
85.96136916888658
 20
55.40321942930882
 30
0.0
  0
ARC
  5
E00EDE23
330
E00DEA5D
100
AcDbEntity
  8
JISSEN
100
AcDbCircle
 10
89.69063105236063
 20
46.52100591491499
 30
0.0
 40
11.49999999999999
100
AcDbArc
 50
92.92391681721028
 51
130.0114580243984
  0
ARC
  5
E00EDE24
330
E00DEA5D
100
AcDbEntity
  8
JISSEN
100
AcDbCircle
 10
89.69063105236063
 20
46.52100591491499
 30
0.0
 40
14.16666666666667
100
AcDbArc
 50
359.9999999999999
 51
45.00001131406411
  0
SPLINE
  5
E00EDE25
330
E00DEA5D
100
AcDbEntity
  8
JISSEN
100
AcDbSpline
210
0.0
220
0.0
230
1.0
 70
     8
 71
     3
 72
    10
 73
     6
 74
     0
 42
0.0000000001
 43
0.0000000001
 40
0.0
 40
0.0
 40
0.0
 40
0.0
 40
0.5
 40
0.5
 40
1.0
 40
1.0
 40
1.0
 40
1.0
 10
81.31126651665297
 20
55.81931090886758
 30
0.0
 10
81.17056711632901
 20
55.82296543874591
 30
0.0
 10
81.02017458989161
 20
55.82600248099175
 30
0.0
 10
80.70452716988413
 20
55.83016852664968
 30
0.0
 10
80.54173773235413
 20
55.83123401254278
 30
0.0
 10
80.3803917667369
 20
55.83124520053357
 30
0.0
  0
SPLINE
  5
E00EDE26
330
E00DEA5D
100
AcDbEntity
  8
JISSEN
100
AcDbSpline
210
0.0
220
0.0
230
1.0
 70
     8
 71
     3
 72
    10
 73
     6
 74
     0
 42
0.0000000001
 43
0.0000000001
 40
0.0
 40
0.0
 40
0.0
 40
0.0
 40
0.5
 40
0.5
 40
1.0
 40
1.0
 40
1.0
 40
1.0
 10
80.39232605840249
 20
54.90037045061706
 30
0.0
 10
80.38867152852413
 20
55.04106985094106
 30
0.0
 10
80.38563448627874
 20
55.19146237737889
 30
0.0
 10
80.38146844062035
 20
55.50710979738596
 30
0.0
 10
80.38040295472768
 20
55.66989923491632
 30
0.0
 10
80.3803917667369
 20
55.83124520053357
 30
0.0
  0
ARC
  5
E00EDE27
330
E00DEA5D
100
AcDbEntity
  8
JISSEN
100
AcDbCircle
 10
89.69063105236063
 20
46.52100591491499
 30
0.0
 40
14.16666666666667
100
AcDbArc
 50
134.9999886858837
 51
180.0
  0
ARC
  5
E00EDE28
330
E00DEA5D
100
AcDbEntity
  8
JISSEN
100
AcDbCircle
 10
89.69063105236063
 20
46.52100591491499
 30
0.0
 40
12.16666666666666
100
AcDbArc
 50
139.3813846339228
 51
180.0
  0
ARC
  5
E00EDE29
330
E00DEA5D
100
AcDbEntity
  8
JISSEN
100
AcDbCircle
 10
89.69063105236063
 20
46.52100591491499
 30
0.0
 40
11.50000000000001
100
AcDbArc
 50
139.9885419756015
 51
176.999999999995
  0
SPLINE
  5
E00EDE2A
330
E00DEA5D
100
AcDbEntity
  8
JISSEN
100
AcDbSpline
210
0.0
220
0.0
230
1.0
 70
     8
 71
     3
 72
     8
 73
     4
 74
     0
 42
0.0000000001
 43
0.0000000001
 40
0.0
 40
0.0
 40
0.0
 40
0.0
 40
1.0
 40
1.0
 40
1.0
 40
1.0
 10
80.80841753792482
 20
50.25026779834874
 30
0.0
 10
80.46803692405829
 20
49.4395622531184
 30
0.0
 10
80.24175354727157
 20
48.58426017854691
 30
0.0
 10
80.13377756529013
 20
47.73247714366249
 30
0.0
  0
LINE
  5
E00EDE2B
330
E00DEA5D
100
AcDbEntity
  8
JISSEN
100
AcDbLine
 10
78.13319776682144
 20
47.12670529933382
 30
0.0
 11
77.61046928301758
 21
47.15410031184393
 31
0.0
  0
LWPOLYLINE
  5
E00EDE2C
330
E00DEA5D
100
AcDbEntity
  8
JISSEN
100
AcDbPolyline
 90
        9
 70
   128
 43
0.0
 10
77.61046928301801
 20
47.15410031184433
 10
77.60173347059964
 20
47.15455778075226
 10
77.59299853624273
 20
47.15501612772169
 10
77.58426447992462
 20
47.15547359665234
 10
77.57553261879559
 20
47.15593150460191
 10
77.5668033918283
 20
47.15638853446731
 10
77.55807723806359
 20
47.1568460034224
 10
77.54935547458527
 20
47.15730347232946
 10
77.54063810143842
 20
47.1577600631982
  0
SPLINE
  5
E00EDE2D
330
E00DEA5D
100
AcDbEntity
  8
JISSEN
100
AcDbSpline
210
0.0
220
0.0
230
1.0
 70
    24
 71
     3
 72
    14
 73
    10
 74
     0
 42
0.0000000001
 43
0.0000000001
 40
0.0000000000000002
 40
0.0000000000000002
 40
0.0000000000000002
 40
0.0000000000000002
 40
0.00043480365775
 40
0.00043480365775
 40
0.00043480365775
 40
0.0008696074301266
 40
0.0008696074301266
 40
0.0008696074301266
 40
0.001739277755159
 40
0.001739277755159
 40
0.001739277755159
 40
0.001739277755159
 10
79.72868407142389
 20
47.39256334236745
 30
0.0
 10
79.76195786564819
 20
47.42048337082775
 30
0.0
 10
79.79534482396179
 20
47.44849835523564
 30
0.0
 10
79.82885031374687
 20
47.47661279935735
 30
0.0
 10
79.86235580878997
 20
47.50472724788994
 30
0.0
 10
79.89597994148971
 20
47.53294124523705
 30
0.0
 10
79.92972845315623
 20
47.5612596089287
 30
0.0
 10
79.99722994948135
 20
47.617900089599
 30
0.0
 10
80.06522932586253
 20
47.67495834123969
 30
0.0
 10
80.13377756529013
 20
47.73247714366249
 30
0.0
  0
LWPOLYLINE
  5
E00EDE2E
330
E00DEA5D
100
AcDbEntity
  8
JISSEN
100
AcDbPolyline
 90
        9
 70
   128
 43
0.0
 10
78.20639147663562
 20
47.12286949708235
 10
78.19725570819335
 20
47.1233484784652
 10
78.18811467138087
 20
47.12382745984763
 10
78.17896880526646
 20
47.12430688024816
 10
78.16981898786224
 20
47.12478586160659
 10
78.16066653629585
 20
47.12526572105048
 10
78.15151145054503
 20
47.12574558047083
 10
78.14235460867166
 20
47.12622543989072
 10
78.13319776682144
 20
47.12670529933382
  0
SPLINE
  5
E00EDE2F
330
E00DEA5D
100
AcDbEntity
  8
JISSEN
100
AcDbSpline
210
0.0
220
0.0
230
1.0
 70
    24
 71
     3
 72
    14
 73
    10
 74
     0
 42
0.0000000001
 43
0.0000000001
 40
0.0
 40
0.0
 40
0.0
 40
0.0
 40
0.0008361626839863
 40
0.0008361626839863
 40
0.0008361626839863
 40
0.0012542730052595
 40
0.0012542730052595
 40
0.0012542730052595
 40
0.0016723910970264
 40
0.0016723910970264
 40
0.0016723910970264
 40
0.0016723910970264
 10
80.80841753792393
 20
50.25026779834618
 30
0.0
 10
80.7777510330129
 20
50.33452332812192
 30
0.0
 10
80.74736392539231
 20
50.4180112201524
 30
0.0
 10
80.71722967649291
 20
50.50080438855331
 30
0.0
 10
80.70216137958871
 20
50.54220419404996
 30
0.0
 10
80.68715624753497
 20
50.58343045554011
 30
0.0
 10
80.67221129862474
 20
50.62449136520689
 30
0.0
 10
80.65726606961353
 20
50.66555304444467
 30
0.0
 10
80.64238095832363
 20
50.70644955159886
 30
0.0
 10
80.62755318197483
 20
50.74718853229825
 30
0.0
  0
ARC
  5
E00EDE30
330
E00DEA5D
100
AcDbEntity
  8
JISSEN
100
AcDbCircle
 10
80.8517962875288
 20
55.35984067974684
 30
0.0
 40
1.000000000000015
100
AcDbArc
 50
315.0
 51
23.35289150296247
  0
SPLINE
  5
E00EDE31
330
E00DEA5D
100
AcDbEntity
  8
JISSEN
100
AcDbSpline
210
0.0
220
0.0
230
1.0
 70
     8
 71
     3
 72
    12
 73
     8
 74
     0
 42
0.0000000001
 43
0.0000000001
 40
0.0
 40
0.0
 40
0.0
 40
0.0
 40
0.2499999999999991
 40
0.2499999999999991
 40
0.4999999999999983
 40
0.4999999999999983
 40
1.0
 40
1.0
 40
1.0
 40
1.0
 10
81.76987713732094
 20
55.75623385986023
 30
0.0
 10
81.76987713732094
 20
55.75623385986023
 30
0.0
 10
81.75891085071809
 20
55.75882943462875
 30
0.0
 10
81.7159634106675
 20
55.76826530769634
 30
0.0
 10
81.68394926549224
 20
55.77509664198953
 30
0.0
 10
81.56233190951965
 20
55.79753844838592
 30
0.0
 10
81.44491888368396
 20
55.81583941881518
 30
0.0
 10
81.31126651665383
 20
55.81931090886843
 30
0.0
  0
ARC
  5
E00EDE32
330
E00DEA5D
100
AcDbEntity
  8
JISSEN
100
AcDbCircle
 10
80.8517962875288
 20
55.35984067974684
 30
0.0
 40
1.0
100
AcDbArc
 50
246.6471084970375
 51
315.0
  0
SPLINE
  5
E00EDE33
330
E00DEA5D
100
AcDbEntity
  8
JISSEN
100
AcDbSpline
210
0.0
220
0.0
230
1.0
 70
     8
 71
     3
 72
    12
 73
     8
 74
     0
 42
0.0000000001
 43
0.0000000001
 40
0.0
 40
0.0
 40
0.0
 40
0.0
 40
0.2500000000000007
 40
0.2500000000000007
 40
0.5000000000000015
 40
0.5000000000000015
 40
1.0
 40
1.0
 40
1.0
 40
1.0
 10
80.45540310741026
 20
54.44175982994952
 30
0.0
 10
80.45540310741026
 20
54.44175982994952
 30
0.0
 10
80.45280753264174
 20
54.45272611655241
 30
0.0
 10
80.44337165957372
 20
54.49567355660255
 30
0.0
 10
80.43654032528094
 20
54.52768770177823
 30
0.0
 10
80.41409851888458
 20
54.64930505775086
 30
0.0
 10
80.39579754845485
 20
54.76671808358611
 30
0.0
 10
80.39232605840206
 20
54.90037045061666
 30
0.0
  0
LINE
  5
E00EDE34
330
E00DEA5D
100
AcDbEntity
  8
JISSEN
100
AcDbLine
 10
80.45911517556092
 20
54.3383082170385
 30
0.0
 11
80.83057554685405
 21
53.96684784574535
 31
0.0
  0
SPLINE
  5
E00EDE35
330
E00DEA5D
100
AcDbEntity
  8
JISSEN
100
AcDbSpline
210
0.0
220
0.0
230
1.0
 70
    24
 71
     3
 72
     9
 73
     5
 74
     0
 42
0.0000000001
 43
0.0000000001
 40
0.0
 40
0.0
 40
0.0
 40
0.0
 40
0.5
 40
1.0
 40
1.0
 40
1.0
 40
1.0
 10
80.40950019324524
 20
54.38792321165215
 30
0.0
 10
80.41774287831813
 20
54.37968052657925
 30
0.0
 10
80.43425457870768
 20
54.36316882618971
 30
0.0
 10
80.45081915104876
 20
54.34660425384862
 30
0.0
 10
80.45911475752234
 20
54.33830864737505
 30
0.0
  0
SPLINE
  5
E00EDE36
330
E00DEA5D
100
AcDbEntity
  8
JISSEN
100
AcDbSpline
210
0.0
220
0.0
230
1.0
 70
    24
 71
     3
 72
    10
 73
     6
 74
     0
 42
0.0000000001
 43
0.0000000001
 40
0.0
 40
0.0
 40
0.0
 40
0.0
 40
0.5
 40
0.5
 40
1.0
 40
1.0
 40
1.0
 40
1.0
 10
80.83057561861139
 20
53.966847786286
 30
0.0
 10
80.83927032226521
 20
53.9581530826322
 30
0.0
 10
80.84798752310019
 20
53.94943588179723
 30
0.0
 10
80.86533700911644
 20
53.93208639578094
 30
0.0
 10
80.87398224632215
 20
53.92344115857523
 30
0.0
 10
80.88259839816364
 20
53.91482500673373
 30
0.0
  0
LINE
  5
E00EDE37
330
E00DEA5D
100
AcDbEntity
  8
JISSEN
100
AcDbLine
 10
82.24478912153026
 20
55.38106142042159
 30
0.0
 11
81.87332875023713
 21
55.75252179171474
 31
0.0
  0
SPLINE
  5
E00EDE38
330
E00DEA5D
100
AcDbEntity
  8
JISSEN
100
AcDbSpline
210
0.0
220
0.0
230
1.0
 70
    24
 71
     3
 72
     9
 73
     5
 74
     0
 42
0.0000000001
 43
0.0000000001
 40
0.0
 40
0.0
 40
0.0
 40
0.0
 40
0.5
 40
1.0
 40
1.0
 40
1.0
 40
1.0
 10
81.87332831989545
 20
55.75252220974812
 30
0.0
 10
81.86501411734003
 20
55.76083641230354
 30
0.0
 10
81.84843124093701
 20
55.7774192887066
 30
0.0
 10
81.83193811733341
 20
55.79391241231016
 30
0.0
 10
81.82371375561833
 20
55.80213677402523
 30
0.0
  0
SPLINE
  5
E00EDE39
330
E00DEA5D
100
AcDbEntity
  8
JISSEN
100
AcDbSpline
210
0.0
220
0.0
230
1.0
 70
    24
 71
     3
 72
    10
 73
     6
 74
     0
 42
0.0000000001
 43
0.0000000001
 40
0.0
 40
0.0
 40
0.0
 40
0.0
 40
0.5
 40
0.5
 40
1.0
 40
1.0
 40
1.0
 40
1.0
 10
82.29681196053675
 20
55.32903856910682
 30
0.0
 10
82.28817564751892
 20
55.33767488212465
 30
0.0
 10
82.27952012983664
 20
55.34633039980693
 30
0.0
 10
82.26217040073086
 20
55.36368012891273
 30
0.0
 10
82.25346338570151
 20
55.37238714394206
 30
0.0
 10
82.2447891809845
 20
55.38106134865907
 30
0.0
  0
SPLINE
  5
E00EDE3A
330
E00DEA5D
100
AcDbEntity
  8
JISSEN
100
AcDbSpline
210
0.0
220
0.0
230
1.0
 70
    24
 71
     3
 72
    14
 73
    10
 74
     0
 42
0.0000000001
 43
0.0000000001
 40
0.0
 40
0.0
 40
0.0
 40
0.0
 40
0.00043480365775
 40
0.00043480365775
 40
0.00043480365775
 40
0.0008696074301266
 40
0.0008696074301266
 40
0.0008696074301266
 40
0.001739277755159
 40
0.001739277755159
 40
0.001739277755159
 40
0.001739277755159
 10
85.4644484349345
 20
55.58408378525794
 30
0.0
 10
85.50526478596763
 20
55.56922784840978
 30
0.0
 10
85.54621995330824
 20
55.55432138655811
 30
0.0
 10
85.58732052102266
 20
55.53936200329895
 30
0.0
 10
85.62842109518701
 20
55.52440261769198
 30
0.0
 10
85.66966719998317
 20
55.50939026326739
 30
0.0
 10
85.71106587816652
 20
55.49432237667076
 30
0.0
 10
85.79386872147201
 20
55.46418460639407
 30
0.0
 10
85.87728230508005
 20
55.4338245448269
 30
0.0
 10
85.96136916888658
 20
55.40321942930882
 30
0.0
  0
SPLINE
  5
E00EDE3B
330
E00DEA5D
100
AcDbEntity
  8
JISSEN
100
AcDbSpline
210
0.0
220
0.0
230
1.0
 70
     8
 71
     3
 72
     8
 73
     4
 74
     0
 42
0.0000000001
 43
0.0000000001
 40
0.0
 40
0.0
 40
0.0
 40
0.0
 40
2.236014716865069
 40
2.236014716865111
 40
2.236014716865111
 40
2.236014716865111
 10
77.01420784192882
 20
60.61164270002311
 30
0.0
 10
76.38721877964028
 20
60.76611091777755
 30
0.0
 10
75.76022971735162
 20
60.92057913553194
 30
0.0
 10
75.52539895519647
 20
60.68623801207928
 30
0.0
  0
LINE
  5
E00EDE3C
330
E00DEA5D
100
AcDbEntity
  8
JISSEN
100
AcDbLine
 10
75.59422398931357
 20
59.20319940328582
 30
0.0
 11
78.99116590566203
 21
55.8062574869374
 31
0.0
  0
SPLINE
  5
E00EDE3D
330
E00DEA5D
100
AcDbEntity
  8
JISSEN
100
AcDbSpline
210
0.0
220
0.0
230
1.0
 70
     8
 71
     3
 72
     8
 73
     4
 74
     0
 42
0.0000000001
 43
0.0000000001
 40
0.0
 40
0.0
 40
0.0
 40
0.0
 40
2.236014716865069
 40
2.236014716865111
 40
2.236014716865111
 40
2.236014716865111
 10
75.59999426725261
 20
59.1974291253469
 30
0.0
 10
75.44552604949817
 20
59.82441818763547
 30
0.0
 10
75.29105783174379
 20
60.4514072499241
 30
0.0
 10
75.52539895519647
 20
60.68623801207928
 30
0.0
  0
LINE
  5
E00EDE3E
330
E00DEA5D
100
AcDbEntity
  8
JISSEN
100
AcDbLine
 10
80.40537948033824
 20
57.22047106161364
 30
0.0
 11
77.01420784192876
 21
60.61164270002308
 31
0.0
  0
LINE
  5
E00EDE3F
330
E00DEA5D
100
AcDbEntity
  8
JISSEN
100
AcDbLine
 10
103.781267837469
 20
59.19742912534712
 30
0.0
 11
100.3900961990592
 21
55.80625748693737
 31
0.0
  0
LINE
  5
E00EDE40
330
E00DEA5D
100
AcDbEntity
  8
JISSEN
100
AcDbLine
 10
102.3728245407321
 20
60.61741297796274
 30
0.0
 11
98.97588262438302
 21
57.22047106161358
 31
0.0
  0
ARC
  5
E00EDE41
330
E00DEA5D
100
AcDbEntity
  8
JISSEN
100
AcDbCircle
 10
89.69063105236063
 20
46.52100591491499
 30
0.0
 40
11.49999999999999
100
AcDbArc
 50
3.00000000002349
 51
40.01145802439849
  0
ARC
  5
E00EDE42
330
E00DEA5D
100
AcDbEntity
  8
JISSEN
100
AcDbCircle
 10
89.69063105236063
 20
46.52100591491499
 30
0.0
 40
11.49999999999999
100
AcDbArc
 50
49.9885419756015
 51
87.07608318278944
  0
SPLINE
  5
E00EDE43
330
E00DEA5D
100
AcDbEntity
  8
JISSEN
100
AcDbSpline
210
0.0
220
0.0
230
1.0
 70
    24
 71
     3
 72
    14
 73
    10
 74
     0
 42
0.0000000001
 43
0.0000000001
 40
0.0
 40
0.0
 40
0.0
 40
0.0
 40
0.0008361626839863
 40
0.0008361626839863
 40
0.0008361626839863
 40
0.0012542730052595
 40
0.0012542730052595
 40
0.0012542730052595
 40
0.0016723910970264
 40
0.0016723910970264
 40
0.0016723910970264
 40
0.0016723910970264
 10
88.47915982357026
 20
56.07785940194261
 30
0.0
 10
88.53679400030955
 20
56.14654513912928
 30
0.0
 10
88.59390308190612
 20
56.21460509229038
 30
0.0
 10
88.65053694455225
 20
56.28209870156064
 30
0.0
 10
88.67885607937038
 20
56.31584813222088
 30
0.0
 10
88.70705650309821
 20
56.34945608851047
 30
0.0
 10
88.73514381951645
 20
56.3829292487593
 30
0.0
 10
88.76323166235357
 20
56.41640303636609
 30
0.0
 10
88.79120652083086
 20
56.44974217445912
 30
0.0
 10
88.81907362486529
 20
56.48295289580886
 30
0.0
  0
LWPOLYLINE
  5
E00EDE44
330
E00DEA5D
100
AcDbEntity
  8
JISSEN
100
AcDbPolyline
 90
        9
 70
   128
 43
0.0
 10
101.7707928217045
 20
47.15410031184478
 10
101.7795286341224
 20
47.15455778075226
 10
101.7882635684798
 20
47.15501612772124
 10
101.7969976247734
 20
47.15547359667636
 10
101.8057294859256
 20
47.15593150460279
 10
101.8144587128698
 20
47.1563885344913
 10
101.8231848666572
 20
47.15684600342282
 10
101.8319066301368
 20
47.15730347232946
 10
101.8406240032841
 20
47.15776006319948
  0
LWPOLYLINE
  5
E00EDE45
330
E00DEA5D
100
AcDbEntity
  8
JISSEN
100
AcDbPolyline
 90
        9
 70
   128
 43
0.0
 10
101.1748706280869
 20
47.12286949708277
 10
101.1840063965283
 20
47.12334847846562
 10
101.1931474333403
 20
47.12382745984763
 10
101.2022932994556
 20
47.12430688024816
 10
101.2114431168603
 20
47.12478586160699
 10
101.2205955684258
 20
47.1252657210509
 10
101.2297506541775
 20
47.1257455804704
 10
101.2389074960273
 20
47.12622543991386
 10
101.2480643379011
 20
47.12670529933506
  0
LINE
  5
E00EDE46
330
E00DEA5D
100
AcDbEntity
  8
JISSEN
100
AcDbLine
 10
101.2480643379015
 20
47.12670529933553
 30
0.0
 11
101.7707928217045
 21
47.15410031184478
 31
0.0
  0
SPLINE
  5
E00EDE47
330
E00DEA5D
100
AcDbEntity
  8
JISSEN
100
AcDbSpline
210
0.0
220
0.0
230
1.0
 70
     8
 71
     3
 72
     8
 73
     4
 74
     0
 42
0.0000000001
 43
0.0000000001
 40
0.4970681351399652
 40
0.4970681351399652
 40
0.4970681351399652
 40
0.4970681351399652
 40
1.0
 40
1.0
 40
1.0
 40
1.0
 10
96.50214508152178
 20
53.33251994407612
 30
0.0
 10
96.19171780549613
 20
53.64294048242232
 30
0.0
 10
95.86206598459034
 20
53.93052465522808
 30
0.0
 10
95.5182226559369
 20
54.19174820053772
 30
0.0
  0
SPLINE
  5
E00EDE48
330
E00DEA5D
100
AcDbEntity
  8
JISSEN
100
AcDbSpline
210
0.0
220
0.0
230
1.0
 70
     8
 71
     3
 72
     8
 73
     4
 74
     0
 42
0.0000000001
 43
0.0000000001
 40
0.4970681351399652
 40
0.4970681351399652
 40
0.4970681351399652
 40
0.4970681351399652
 40
1.0
 40
1.0
 40
1.0
 40
1.0
 10
96.50214508152178
 20
53.33251994407612
 30
0.0
 10
96.81256561986794
 20
53.0220926680505
 30
0.0
 10
97.1001497926737
 20
52.69244084714472
 30
0.0
 10
97.36137333798337
 20
52.34859751849126
 30
0.0
  0
SPLINE
  5
E00EDE49
330
E00DEA5D
100
AcDbEntity
  8
JISSEN
100
AcDbSpline
210
0.0
220
0.0
230
1.0
 70
    24
 71
     3
 72
    14
 73
    10
 74
     0
 42
0.0000000001
 43
0.0000000001
 40
0.0
 40
0.0
 40
0.0
 40
0.0
 40
0.00043480365775
 40
0.00043480365775
 40
0.00043480365775
 40
0.0008696074301266
 40
0.0008696074301266
 40
0.0008696074301266
 40
0.001739277755159
 40
0.001739277755159
 40
0.001739277755159
 40
0.001739277755159
 10
97.88215149522645
 20
52.25677027840695
 30
0.0
 10
97.83937552991975
 20
52.26431283521577
 30
0.0
 10
97.7964540836602
 20
52.27188104424278
 30
0.0
 10
97.75338025627929
 20
52.27947612217213
 30
0.0
 10
97.71030642213887
 20
52.2870712012942
 30
0.0
 10
97.66708007036719
 20
52.29469317338896
 30
0.0
 10
97.62369382007797
 20
52.30234333990654
 30
0.0
 10
97.5369155691327
 20
52.31764468688692
 30
0.0
 10
97.44949725592404
 20
52.33305889411292
 30
0.0
 10
97.36137333798396
 20
52.348597518491
 30
0.0
  0
SPLINE
  5
E00EDE4A
330
E00DEA5D
100
AcDbEntity
  8
JISSEN
100
AcDbSpline
210
0.0
220
0.0
230
1.0
 70
    24
 71
     3
 72
    14
 73
    10
 74
     0
 42
0.0000000001
 43
0.0000000001
 40
0.0
 40
0.0
 40
0.0
 40
0.0
 40
0.00043480365775
 40
0.00043480365775
 40
0.00043480365775
 40
0.0008696074301266
 40
0.0008696074301266
 40
0.0008696074301266
 40
0.001739277755159
 40
0.001739277755159
 40
0.001739277755159
 40
0.001739277755159
 10
95.42639541585279
 20
54.71252635778014
 30
0.0
 10
95.43393797266165
 20
54.66975039247344
 30
0.0
 10
95.44150618168865
 20
54.62682894621389
 30
0.0
 10
95.449101259618
 20
54.58375511883298
 30
0.0
 10
95.45669633874011
 20
54.54068128469259
 30
0.0
 10
95.46431831083481
 20
54.4974549329209
 30
0.0
 10
95.47196847735245
 20
54.45406868263174
 30
0.0
 10
95.48726982433283
 20
54.36729043168646
 30
0.0
 10
95.50268403155886
 20
54.27987211847778
 30
0.0
 10
95.5182226559369
 20
54.19174820053772
 30
0.0
  0
SPLINE
  5
E00EDE4B
330
E00DEA5D
100
AcDbEntity
  8
JISSEN
100
AcDbSpline
210
0.0
220
0.0
230
1.0
 70
    24
 71
     3
 72
     9
 73
     5
 74
     0
 42
0.0000000001
 43
0.0000000001
 40
0.0
 40
0.0
 40
0.0
 40
0.0
 40
0.5
 40
1.0
 40
1.0
 40
1.0
 40
1.0
 10
98.97176191147089
 20
54.38792321165556
 30
0.0
 10
98.96350601613963
 20
54.37966731632432
 30
0.0
 10
98.94698102391325
 20
54.36314232409793
 30
0.0
 10
98.93042964924056
 20
54.34659094942523
 30
0.0
 10
98.92214734719377
 20
54.33830864737846
 30
0.0
  0
SPLINE
  5
E00EDE4C
330
E00DEA5D
100
AcDbEntity
  8
JISSEN
100
AcDbSpline
210
0.0
220
0.0
230
1.0
 70
     8
 71
     3
 72
    12
 73
     8
 74
     0
 42
0.0000000001
 43
0.0000000001
 40
0.0
 40
0.0
 40
0.0
 40
0.0
 40
0.2499999999999976
 40
0.2499999999999976
 40
0.4999999999999952
 40
0.4999999999999952
 40
1.0
 40
1.0
 40
1.0
 40
1.0
 10
98.92585899730541
 20
54.44175982995338
 30
0.0
 10
98.92585899730541
 20
54.44175982995338
 30
0.0
 10
98.92845457207441
 20
54.45272611655671
 30
0.0
 10
98.93789044514196
 20
54.49567355660724
 30
0.0
 10
98.94472177943519
 20
54.52768770178256
 30
0.0
 10
98.967163585832
 20
54.6493050577547
 30
0.0
 10
98.98546455626041
 20
54.76671808358952
 30
0.0
 10
98.9889360463132
 20
54.90037045062007
 30
0.0
  0
SPLINE
  5
E00EDE4D
330
E00DEA5D
100
AcDbEntity
  8
JISSEN
100
AcDbSpline
210
0.0
220
0.0
230
1.0
 70
     8
 71
     3
 72
    10
 73
     6
 74
     0
 42
0.0000000001
 43
0.0000000001
 40
0.0
 40
0.0
 40
0.0
 40
0.0
 40
0.5
 40
0.5
 40
1.0
 40
1.0
 40
1.0
 40
1.0
 10
98.98893604631366
 20
54.90037045062052
 30
0.0
 10
98.99259057619241
 20
55.04106985094489
 30
0.0
 10
98.99562761843739
 20
55.19146237738232
 30
0.0
 10
98.99979366409576
 20
55.50710979739108
 30
0.0
 10
99.00085914998843
 20
55.66989923492062
 30
0.0
 10
99.00087033797923
 20
55.83124520053701
 30
0.0
  0
SPLINE
  5
E00EDE4E
330
E00DEA5D
100
AcDbEntity
  8
JISSEN
100
AcDbSpline
210
0.0
220
0.0
230
1.0
 70
    24
 71
     3
 72
    10
 73
     6
 74
     0
 42
0.0000000001
 43
0.0000000001
 40
0.0
 40
0.0
 40
0.0
 40
0.0
 40
0.5
 40
0.5
 40
1.0
 40
1.0
 40
1.0
 40
1.0
 10
98.55068648610473
 20
53.96684778628944
 30
0.0
 10
98.54199178245048
 20
53.95815308263516
 30
0.0
 10
98.53327458161594
 20
53.94943588180061
 30
0.0
 10
98.5159250956001
 20
53.93208639578478
 30
0.0
 10
98.50727985839439
 20
53.92344115857906
 30
0.0
 10
98.49866370655286
 20
53.91482500673757
 30
0.0
  0
LINE
  5
E00EDE4F
330
E00DEA5D
100
AcDbEntity
  8
JISSEN
100
AcDbLine
 10
98.9221469291372
 20
54.33830821701533
 30
0.0
 11
98.55068655786809
 21
53.96684784574623
 31
0.0
  0
ARC
  5
E00EDE50
330
E00DEA5D
100
AcDbEntity
  8
JISSEN
100
AcDbCircle
 10
98.52946581719246
 20
55.35984067974684
 30
0.0
 40
1.000000000000011
100
AcDbArc
 50
225.0
 51
293.3528915030089
  0
ARC
  5
E00EDE51
330
E00DEA5D
100
AcDbEntity
  8
JISSEN
100
AcDbCircle
 10
98.52946581719246
 20
55.35984067974684
 30
0.0
 40
1.000000000000011
100
AcDbArc
 50
156.6471084969909
 51
225.0
  0
LINE
  5
E00EDE52
330
E00DEA5D
100
AcDbEntity
  8
JISSEN
100
AcDbLine
 10
97.50793335446099
 20
55.75252179169154
 30
0.0
 11
97.13647298319187
 21
55.38106142042244
 31
0.0
  0
SPLINE
  5
E00EDE53
330
E00DEA5D
100
AcDbEntity
  8
JISSEN
100
AcDbSpline
210
0.0
220
0.0
230
1.0
 70
    24
 71
     3
 72
    10
 73
     6
 74
     0
 42
0.0000000001
 43
0.0000000001
 40
0.0
 40
0.0
 40
0.0
 40
0.0
 40
0.5
 40
0.5
 40
1.0
 40
1.0
 40
1.0
 40
1.0
 10
97.13647292373506
 20
55.3810613486591
 30
0.0
 10
97.12777822008085
 20
55.37236664500483
 30
0.0
 10
97.11906101924629
 20
55.36364944417027
 30
0.0
 10
97.10171153323043
 20
55.34629995815445
 30
0.0
 10
97.09306629602473
 20
55.33765472094874
 30
0.0
 10
97.0844501441832
 20
55.32903856910724
 30
0.0
  0
SPLINE
  5
E00EDE54
330
E00DEA5D
100
AcDbEntity
  8
JISSEN
100
AcDbSpline
210
0.0
220
0.0
230
1.0
 70
     8
 71
     3
 72
    10
 73
     6
 74
     0
 42
0.0000000001
 43
0.0000000001
 40
0.0
 40
0.0
 40
0.0
 40
0.0
 40
0.5
 40
0.5
 40
1.0
 40
1.0
 40
1.0
 40
1.0
 10
98.06999558806618
 20
55.81931090886801
 30
0.0
 10
98.21069498839055
 20
55.82296543874676
 30
0.0
 10
98.36108751482797
 20
55.82600248099175
 30
0.0
 10
98.67673493483673
 20
55.83016852665011
 30
0.0
 10
98.83952437236628
 20
55.83123401254278
 30
0.0
 10
99.00087033798266
 20
55.83124520053357
 30
0.0
  0
SPLINE
  5
E00EDE55
330
E00DEA5D
100
AcDbEntity
  8
JISSEN
100
AcDbSpline
210
0.0
220
0.0
230
1.0
 70
     8
 71
     3
 72
    12
 73
     8
 74
     0
 42
0.0000000001
 43
0.0000000001
 40
0.0
 40
0.0
 40
0.0
 40
0.0
 40
0.2499999999999976
 40
0.2499999999999976
 40
0.4999999999999952
 40
0.4999999999999952
 40
1.0
 40
1.0
 40
1.0
 40
1.0
 10
97.61138496739901
 20
55.75623385985977
 30
0.0
 10
97.61138496739901
 20
55.75623385985977
 30
0.0
 10
97.62235125400236
 20
55.75882943462875
 30
0.0
 10
97.66529869405289
 20
55.76826530769634
 30
0.0
 10
97.69731283922817
 20
55.77509664198956
 30
0.0
 10
97.81893019520035
 20
55.79753844838634
 30
0.0
 10
97.93634322103518
 20
55.81583941881476
 30
0.0
 10
98.06999558806573
 20
55.81931090886754
 30
0.0
  0
SPLINE
  5
E00EDE56
330
E00DEA5D
100
AcDbEntity
  8
JISSEN
100
AcDbSpline
210
0.0
220
0.0
230
1.0
 70
    24
 71
     3
 72
     9
 73
     5
 74
     0
 42
0.0000000001
 43
0.0000000001
 40
0.0
 40
0.0
 40
0.0
 40
0.0
 40
0.5
 40
1.0
 40
1.0
 40
1.0
 40
1.0
 10
97.55754834910121
 20
55.80213677402523
 30
0.0
 10
97.54929245376999
 20
55.79388087869398
 30
0.0
 10
97.53276746154362
 20
55.7773558864676
 30
0.0
 10
97.51621608687091
 20
55.7608045117949
 30
0.0
 10
97.50793378482413
 20
55.75252220974812
 30
0.0
  0
SPLINE
  5
E00EDE57
330
E00DEA5D
100
AcDbEntity
  8
JISSEN
100
AcDbSpline
210
0.0
220
0.0
230
1.0
 70
     8
 71
     3
 72
     8
 73
     4
 74
     0
 42
0.0000000001
 43
0.0000000001
 40
0.0
 40
0.0
 40
0.0
 40
0.0
 40
2.236014716865069
 40
2.236014716865111
 40
2.236014716865111
 40
2.236014716865111
 10
103.7812678374688
 20
59.19742912534696
 30
0.0
 10
103.9357360552231
 20
59.82441818763536
 30
0.0
 10
104.0902042729777
 20
60.45140724992387
 30
0.0
 10
103.8558631495249
 20
60.68623801207934
 30
0.0
  0
SPLINE
  5
E00EDE58
330
E00DEA5D
100
AcDbEntity
  8
JISSEN
100
AcDbSpline
210
0.0
220
0.0
230
1.0
 70
     8
 71
     3
 72
     8
 73
     4
 74
     0
 42
0.0000000001
 43
0.0000000001
 40
0.0
 40
0.0
 40
0.0
 40
0.0
 40
2.236014716865069
 40
2.236014716865111
 40
2.236014716865111
 40
2.236014716865111
 10
102.3670542627926
 20
60.61164270002317
 30
0.0
 10
102.994043325081
 20
60.76611091777755
 30
0.0
 10
103.6210323873697
 20
60.92057913553182
 30
0.0
 10
103.8558631495249
 20
60.68623801207934
 30
0.0
  0
LINE
  5
E00EDE59
330
E00DEA5D
100
AcDbEntity
  8
JISSEN
100
AcDbLine
 10
6.828662088537896
 20
32.18305428897703
 30
0.0
 11
6.828662088537896
 21
117.183054288977
 31
0.0
  0
LINE
  5
E00EDE5A
330
E00DEA5D
100
AcDbEntity
  8
JISSEN
100
AcDbLine
 10
56.8286620885379
 20
32.18305428897704
 30
0.0
 11
56.8286620885379
 21
117.183054288977
 31
0.0
  0
LINE
  5
E00EDE5B
330
E00DEA5D
100
AcDbEntity
  8
JISSEN
100
AcDbLine
 10
114.6906310523617
 20
32.18305428897704
 30
0.0
 11
114.6906310523617
 21
117.183054288977
 31
0.0
  0
LINE
  5
E00EDE5C
330
E00DEA5D
100
AcDbEntity
  8
JISSEN
100
AcDbLine
 10
64.69063105236177
 20
32.18305428897703
 30
0.0
 11
64.69063105236177
 21
117.183054288977
 31
0.0
  0
LINE
  5
E00EDE5D
330
E00DEA5D
100
AcDbEntity
  8
ITTEN
100
AcDbLine
 10
89.69063105236063
 20
74.72614483236904
 30
0.0
 11
89.69063105236148
 21
104.7928115139601
 31
0.0
  0
LINE
  5
E00EDE5E
330
E00DEA5D
100
AcDbEntity
  8
ITTEN
100
AcDbLine
 10
89.69063105236063
 20
44.52100591491493
 30
0.0
 11
89.69063105236063
 21
71.18767258157773
 31
0.0
  0
LINE
  5
E00EDE5F
330
E00DEA5D
100
AcDbEntity
  8
ITTEN
100
AcDbLine
 10
114.3572977190273
 20
46.52100591491496
 30
0.0
 11
65.02396438569395
 21
46.52100591491501
 31
0.0
  0
LINE
  5
E00EDE60
330
E00DEA5D
100
AcDbEntity
  8
JISSEN
100
AcDbLine
 10
64.69063105236177
 20
32.18305428897704
 30
0.0
 11
114.6906310523617
 21
32.18305428897706
 31
0.0
  0
LINE
  5
E00EDE61
330
E00DEA5D
100
AcDbEntity
  8
JISSEN
100
AcDbLine
 10
64.69063105236177
 20
117.183054288977
 30
0.0
 11
114.6906310523617
 21
117.183054288977
 31
0.0
  0
TEXT
  5
E00EDE62
330
E00DEA5D
100
AcDbEntity
  8
SUNPOU
100
AcDbText
 10
78.74357421714098
 20
38.24750961513522
 30
0.0
 40
1.999999999999999
  1
%%u被水防止板C＋ガードK
  7
K
100
AcDbText
  0
TEXT
  5
E00EDE63
330
E00DEA5D
100
AcDbEntity
  8
SUNPOU
100
AcDbText
 10
77.61086130811793
 20
34.58853245161322
 30
0.0
 40
2.0
  1
%%u取付け状態例 (尺度1/1)
  7
K
 72
     4
 11
91.41562321287983
 21
35.44567530875608
 31
0.0
100
AcDbText
  0
LINE
  5
E00EDE64
330
E00DEA5D
100
AcDbEntity
  8
JISSEN
100
AcDbLine
 10
86.2371775989096
 20
60.26029642386294
 30
0.0
 11
86.23717759890954
 21
61.33066086979652
 31
0.0
  0
LINE
  5
E00EDE65
330
E00DEA5D
100
AcDbEntity
  8
JISSEN
100
AcDbLine
 10
85.52290486770962
 20
60.06074383313893
 30
0.0
 11
84.95868418306386
 21
61.8528796200257
 31
0.0
  0
ARC
  5
E00EDE66
330
E00DEA5D
100
AcDbEntity
  8
JISSEN
100
AcDbCircle
 10
85.27663241952863
 20
61.95297972012565
 30
0.0
 40
0.3333333333333333
100
AcDbArc
 50
106.2637805628709
 51
197.4756407426898
  0
ARC
  5
E00EDE67
330
E00DEA5D
100
AcDbEntity
  8
JISSEN
 48
3.0
100
AcDbCircle
 10
87.22396438569532
 20
60.97611019322754
 30
0.0
 40
0.2
100
AcDbArc
 50
99.88631103446152
 51
180.0
  0
ARC
  5
E00EDE68
330
E00DEA5D
100
AcDbEntity
  8
JISSEN
 48
3.0
100
AcDbCircle
 10
89.69063105236003
 20
46.82278314025978
 30
0.0
 40
14.56666666666666
100
AcDbArc
 50
80.11368896548711
 51
99.88631103446152
  0
ARC
  5
E00EDE69
330
E00DEA5D
100
AcDbEntity
  8
JISSEN
100
AcDbCircle
 10
89.69063105236065
 20
46.82278314025978
 30
0.0
 40
16.09424169789235
100
AcDbArc
 50
73.736219437124
 51
106.2637805628709
  0
ARC
  5
E00EDE6A
330
E00DEA5D
100
AcDbEntity
  8
JISSEN
100
AcDbCircle
 10
89.69063105236065
 20
46.82278314025828
 30
0.0
 40
14.91324434757189
100
AcDbArc
 50
76.61050398478668
 51
103.3894960152133
  0
LINE
  5
E00EDE6B
330
E00DEA5D
100
AcDbEntity
  8
JISSEN
100
AcDbLine
 10
93.85835723701237
 20
60.06074383314029
 30
0.0
 11
94.4225779216587
 21
61.85287962002511
 31
0.0
  0
LINE
  5
E00EDE6C
330
E00DEA5D
100
AcDbEntity
  8
JISSEN
100
AcDbLine
 10
93.14408450581177
 20
60.26029642386423
 30
0.0
 11
93.14408450581177
 21
61.33066086979652
 31
0.0
  0
ARC
  5
E00EDE6D
330
E00DEA5D
100
AcDbEntity
  8
JISSEN
 48
3.0
100
AcDbCircle
 10
92.15729771902719
 20
60.97611019322693
 30
0.0
 40
0.2
100
AcDbArc
 50
0.0
 51
80.11368896553836
  0
ARC
  5
E00EDE6E
330
E00DEA5D
100
AcDbEntity
  8
JISSEN
100
AcDbCircle
 10
94.10462968519395
 20
61.95297972012529
 30
0.0
 40
0.3333333333333333
100
AcDbArc
 50
342.524359257272
 51
73.73621943712233
  0
LINE
  5
E00EDE6F
330
E00DEA5D
100
AcDbEntity
  8
JISSEN
100
AcDbLine
 10
87.02396438569493
 20
59.51228010953882
 30
0.0
 11
87.02396438569522
 21
60.97611019322754
 31
0.0
  0
ARC
  5
E00EDE70
330
E00DEA5D
100
AcDbEntity
  8
JISSEN
 48
3.0
100
AcDbCircle
 10
89.69063105236003
 20
46.82278314025978
 30
0.0
 40
12.96666666666666
100
AcDbArc
 50
78.13212434030056
 51
101.8678756596993
  0
LINE
  5
E00EDE71
330
E00DEA5D
100
AcDbEntity
  8
JISSEN
100
AcDbLine
 10
92.35729771902734
 20
59.51228010953837
 30
0.0
 11
92.35729771902734
 21
60.97611019322693
 31
0.0
  0
ARC
  5
E00EDE72
330
E00DEA5D
100
AcDbEntity
  8
JISSEN
 48
3.0
100
AcDbCircle
 10
89.69063105236003
 20
46.82278314025978
 30
0.0
 40
11.5
100
AcDbArc
 50
94.98854197555251
 51
107.4756407427269
  0
LINE
  5
E00EDE73
330
E00DEA5D
100
AcDbEntity
  8
JISSEN
100
AcDbLine
 10
86.23717759890954
 20
57.79199729829514
 30
0.0
 11
86.23717759890954
 21
58.1872579704208
 31
0.0
  0
LINE
  5
E00EDE74
330
E00DEA5D
100
AcDbEntity
  8
JISSEN
100
AcDbLine
 10
86.23717759890771
 20
57.79199729829485
 30
0.0
 11
86.12351977754988
 21
58.15300896386852
 31
0.0
  0
LINE
  5
E00EDE75
330
E00DEA5D
100
AcDbEntity
  8
JISSEN
100
AcDbLine
 10
93.14408450581177
 20
57.79199729829514
 30
0.0
 11
93.14408450581177
 21
58.1872579704208
 31
0.0
  0
LINE
  5
E00EDE76
330
E00DEA5D
100
AcDbEntity
  8
JISSEN
100
AcDbLine
 10
93.14408450581234
 20
57.79199729829485
 30
0.0
 11
93.25774232717057
 21
58.15300896386879
 31
0.0
  0
ARC
  5
E00EDE77
330
E00DEA5D
100
AcDbEntity
  8
JISSEN
 48
3.0
100
AcDbCircle
 10
89.69063105236003
 20
46.82278314025978
 30
0.0
 40
11.5
100
AcDbArc
 50
72.52435925727303
 51
85.01145802444261
  0
LINE
  5
E00EDE78
330
E00DEA5D
100
AcDbEntity
  8
JISSEN
 48
3.0
100
AcDbLine
 10
90.69063105236054
 20
58.94828427537898
 30
0.0
 11
90.69063105236038
 21
58.27922237764936
 31
0.0
  0
LINE
  5
E00EDE79
330
E00DEA5D
100
AcDbEntity
  8
JISSEN
 48
3.0
100
AcDbLine
 10
88.69063105236037
 20
58.94828427537905
 30
0.0
 11
88.69063105236065
 21
58.27922237764943
 31
0.0
  0
ARC
  5
E00EDE7A
330
E00DEA5D
100
AcDbEntity
  8
JISSEN
 48
3.0
100
AcDbCircle
 10
89.69063105236003
 20
46.82278314025978
 30
0.0
 40
12.16666666666666
100
AcDbArc
 50
85.28543945911449
 51
94.7145605408806
  0
LINE
  5
E00EDE7B
330
E00DEA5D
100
AcDbEntity
  8
JISSEN
100
AcDbLine
 10
87.0239643856946
 20
57.70755537794777
 30
0.0
 11
87.02396438569465
 21
58.00933260329331
 31
0.0
  0
LINE
  5
E00EDE7C
330
E00DEA5D
100
AcDbEntity
  8
JISSEN
100
AcDbLine
 10
92.35729771902734
 20
57.70755537794717
 30
0.0
 11
92.35729771902734
 21
58.00933260329287
 31
0.0
  0
ARC
  5
E00EDE7D
330
E00DEA5D
100
AcDbEntity
  8
JISSEN
100
AcDbCircle
 10
89.69063105236065
 20
58.32278314025979
 30
0.0
 40
0.6666666666666666
100
AcDbArc
 50
207.605035162299
 51
332.3949648377007
  0
ARC
  5
E00EDE7E
330
E00DEA5D
100
AcDbEntity
  8
JISSEN
100
AcDbCircle
 10
89.69063105236063
 20
46.52100591491499
 30
0.0
 40
12.16666666666666
100
AcDbArc
 50
94.71456054088294
 51
130.6186153660771
  0
ARC
  5
E00EDE7F
330
E00DEA5D
100
AcDbEntity
  8
JISSEN
100
AcDbCircle
 10
89.69063105236063
 20
46.52100591491499
 30
0.0
 40
14.16666666666667
100
AcDbArc
 50
100.8498158629921
 51
134.9999886858837
  0
LINE
  5
E00EDE80
330
E00DEA5D
100
AcDbEntity
  8
SUNPOU
100
AcDbLine
 10
26.71121386054251
 20
129.5654315796466
 30
0.0
 11
26.71121386054251
 21
120.5708703217754
 31
0.0
  0
LINE
  5
E00EDE81
330
E00DEA5D
100
AcDbEntity
  8
SUNPOU
100
AcDbLine
 10
34.71121386054301
 20
129.5654315796466
 30
0.0
 11
34.71121386054301
 21
120.5708703217754
 31
0.0
  0
LINE
  5
E00EDE82
330
E00DEA5D
100
AcDbEntity
  8
SUNPOU
100
AcDbLine
 10
26.71121386054251
 20
121.2375369884423
 30
0.0
 11
34.71121386054301
 21
121.2375369884424
 31
0.0
  0
INSERT
  5
E00EDE83
330
E00DEA5D
100
AcDbEntity
  8
SUNPOU
100
AcDbBlockReference
  2
ARROWANG
 10
26.71121386054251
 20
121.2375369884423
 30
0.0
 41
1.50000000000075
 42
1.50000000000075
 43
1.50000000000075
 50
180.0
  0
INSERT
  5
E00EDE84
330
E00DEA5D
100
AcDbEntity
  8
SUNPOU
100
AcDbBlockReference
  2
ARROWANG
 10
34.71121386054301
 20
121.2375369884423
 30
0.0
 41
1.50000000000075
 42
1.50000000000075
 43
1.50000000000075
  0
MTEXT
  5
E00EDE85
330
E00DEA5D
100
AcDbEntity
  8
SUNPOU
100
AcDbMText
 10
30.71121386054276
 20
123.3142188991384
 30
0.0
 40
2.000000000001
 41
0.0
 71
     5
 72
     1
  1
(8)
  7
K
 73
     1
 44
1.0
  0
LINE
  5
E00EDE86
330
E00DEA5D
100
AcDbEntity
  8
SUNPOU
100
AcDbLine
 10
23.76185573837074
 20
148.8209303495756
 30
0.0
 11
23.76185573837074
 21
162.3175142812437
 31
0.0
  0
LINE
  5
E00EDE87
330
E00DEA5D
100
AcDbEntity
  8
SUNPOU
100
AcDbLine
 10
37.66057198271619
 20
148.8209303495756
 30
0.0
 11
37.66057198271619
 21
162.3175142812437
 31
0.0
  0
LINE
  5
E00EDE88
330
E00DEA5D
100
AcDbEntity
  8
SUNPOU
100
AcDbLine
 10
23.76185573837074
 20
161.6508476145767
 30
0.0
 11
37.66057198271619
 21
161.6508476145767
 31
0.0
  0
INSERT
  5
E00EDE89
330
E00DEA5D
100
AcDbEntity
  8
SUNPOU
100
AcDbBlockReference
  2
ARROWANG
 10
23.76185573837074
 20
161.6508476145767
 30
0.0
 41
1.50000000000075
 42
1.50000000000075
 43
1.50000000000075
 50
180.0
  0
INSERT
  5
E00EDE8A
330
E00DEA5D
100
AcDbEntity
  8
SUNPOU
100
AcDbBlockReference
  2
ARROWANG
 10
37.66057198271619
 20
161.6508476145767
 30
0.0
 41
1.50000000000075
 42
1.50000000000075
 43
1.50000000000075
  0
MTEXT
  5
E00EDE8B
330
E00DEA5D
100
AcDbEntity
  8
SUNPOU
100
AcDbMText
 10
30.71121386054346
 20
163.3175142812442
 30
0.0
 40
2.000000000001
 41
0.0
 71
     5
 72
     1
  1
(14)
  7
K
 73
     1
 44
1.0
  0
TEXT
  5
E00EDE8C
330
E00DEA5D
100
AcDbEntity
  8
SUNPOU
100
AcDbText
 10
4.55887041365554
 20
27.82872443090872
 30
0.0
 40
2.0
  1
%%u※専用のガードZN　、またはガードKに被水防止板Cを取付けてください。
  7
K
100
AcDbText
  0
ENDSEC
  0
SECTION
  2
OBJECTS
  0
DICTIONARY
  5
E00DEA51
330
0
100
AcDbDictionary
281
     1
  3
ACAD_GROUP
350
E00DEA52
  3
ACAD_LAYOUT
350
E00DFA6A
  3
ACAD_MLINESTYLE
350
E00DEA53
  3
ACAD_PLOTSETTINGS
350
E00DFA6B
  3
ACAD_PLOTSTYLENAME
350
E00DFA68
  3
AcadDim
350
E00E59A8
  3
ACDBVARIABLEDICTIONARY
350
E00DF82C
  0
DICTIONARY
  5
E00DFB39
330
E00DEA47
100
AcDbDictionary
280
     1
281
     1
  3
ACAD_LAYERFILTERS
360
E00E26A3
  3
ACAD_LAYERSTATES
360
E00DFB3A
  0
DICTIONARY
  5
E00DFB13
330
E00DEA5D
100
AcDbDictionary
280
     1
281
     1
  3
ACAD_LAYOUTSELFREF
360
E00DFB14
  0
DICTIONARY
  5
E00DFB11
330
E00DEA5A
100
AcDbDictionary
280
     1
281
     1
  3
ACAD_LAYOUTSELFREF
360
E00DFB12
  0
DICTIONARY
  5
E00DEA52
102
{ACAD_REACTORS
330
E00DEA51
102
}
330
E00DEA51
100
AcDbDictionary
281
     1
  0
DICTIONARY
  5
E00DFA6A
102
{ACAD_REACTORS
330
E00DEA51
102
}
330
E00DEA51
100
AcDbDictionary
281
     1
  3
Model
350
E00DFA6C
  3
ﾚｲｱｳﾄ1
350
E00DFA6D
  0
DICTIONARY
  5
E00DEA53
102
{ACAD_REACTORS
330
E00DEA51
102
}
330
E00DEA51
100
AcDbDictionary
281
     1
  3
STANDARD
350
E00DEA60
  0
DICTIONARY
  5
E00DFA6B
102
{ACAD_REACTORS
330
E00DEA51
102
}
330
E00DEA51
100
AcDbDictionary
281
     1
  0
ACDBDICTIONARYWDFLT
  5
E00DFA68
102
{ACAD_REACTORS
330
E00DEA51
102
}
330
E00DEA51
100
AcDbDictionary
281
     1
  3
Normal
350
E00DFA69
  3
Style_1
350
E00ECC5E
100
AcDbDictionaryWithDefault
340
E00DFA69
  0
XRECORD
  5
E00E59A8
102
{ACAD_REACTORS
330
E00DEA51
102
}
330
E00DEA51
100
AcDbXrecord
280
     1
 90
   990106
  3

 60
     0
 61
     0
 62
     1
 63
     3
 64
     0
 65
     0
 66
     0
 67
     3
 68
     1
 69
     0
 70
     0
 71
     0
 72
     0
 40
0.0
170
     0
  0
DICTIONARY
  5
E00DF82C
102
{ACAD_REACTORS
330
E00DEA51
102
}
330
E00DEA51
100
AcDbDictionary
281
     1
  3
DIMASSOC
350
E00DFB2E
  3
SORTENTS
350
E00DF82D
  0
DICTIONARY
  5
E00E26A3
102
{ACAD_REACTORS
330
E00DFB39
102
}
330
E00DFB39
100
AcDbDictionary
280
     1
281
     1
  3
0
360
E00E26A4
  3
0-0
360
E00E26A5
  3
10画層
360
E00E26A6
  3
2
360
E00E26A7
  3
3
360
E00E26A8
  3
3A
360
E00E26A9
  3
4
360
E00E26AA
  3
5画層
360
E00E26AB
  3
6画層
360
E00E26AC
  3
7
360
E00E26AD
  3
7a画層
360
E00E26AE
  3
8
360
E00E26AF
  3
ASYST
360
E00E26B0
  3
ASYST PHASE 1
360
E00E26B1
  3
ASYST PHASE 2
360
E00E26B2
  3
cap-0
360
E00E26B3
  3
dims
360
E00E26B4
  3
elec
360
E00E26B5
  3
ELECTRICAL
360
E00E26B6
  3
F
360
E00E26B7
  3
Frame
360
E00E26B8
  3
FROZEN
360
E00E26B9
  3
FROZEN ACTIVE
360
E00E26BA
  3
jiku-0
360
E00E26BB
  3
MP
360
E00E26BC
  3
MPR
360
E00E26BD
  3
p-
360
E00E26BE
  3
ST
360
E00E26BF
  3
TC
360
E00E26C0
  3
TEXT
360
E00E26C1
  3
ｹｰﾌﾞﾙ図
360
E00E26C2
  3
０画層
360
E00E26C3
  3
３A画層
360
E00E26C4
  3
３画層
360
E00E26C5
  0
DICTIONARY
  5
E00DFB3A
102
{ACAD_REACTORS
330
E00DFB39
102
}
330
E00DFB39
100
AcDbDictionary
281
     1
  0
XRECORD
  5
E00DFB14
102
{ACAD_REACTORS
330
E00DFB13
102
}
330
E00DFB13
100
AcDbXrecord
280
     1
340
E00DEA5D
  0
XRECORD
  5
E00DFB12
102
{ACAD_REACTORS
330
E00DFB11
102
}
330
E00DFB11
100
AcDbXrecord
280
     1
340
E00DEA5A
  0
LAYOUT
  5
E00DFA6C
102
{ACAD_REACTORS
330
E00DFA6A
102
}
330
E00DFA6A
100
AcDbPlotSettings
  1

  2
\\Nt_honsya\FUJITSU XL-5300-3
  4
A4
  6

 40
5.873749732971191
 41
5.704405784606932
 42
5.789077758789062
 43
5.873748779296875
 44
209.9733276367186
 45
296.9259948730469
 46
0.0
 47
0.0
 48
0.0
 49
0.0
140
0.0
141
0.0
142
1.0
143
1.0
 70
 11952
 72
     0
 73
     1
 74
     0
  7
aclt.ctb
 75
     0
147
1.0
148
1211.157904756485
149
44.79223521629618
100
AcDbLayout
  1
Model
 70
     1
 71
     0
 10
0.0
 20
0.0
 11
12.0
 21
9.0
 12
0.0
 22
0.0
 32
0.0
 14
0.0
 24
0.0
 34
0.0
 15
0.0
 25
0.0
 35
0.0
146
0.0
 13
0.0
 23
0.0
 33
0.0
 16
1.0
 26
0.0
 36
0.0
 17
0.0
 27
1.0
 37
0.0
 76
     0
330
E00DEA5D
  0
LAYOUT
  5
E00DFA6D
102
{ACAD_REACTORS
330
E00DFA6A
102
}
330
E00DFA6A
100
AcDbPlotSettings
  1

  2
\\Nt_honsya\FUJITSU XL-5300-3
  4

  6

 40
0.0
 41
0.0
 42
0.0
 43
0.0
 44
0.0
 45
0.0
 46
0.0
 47
0.0
 48
0.0
 49
0.0
140
0.0
141
0.0
142
1.0
143
1.0
 70
   688
 72
     0
 73
     0
 74
     5
  7
aclt(XL).ctb
 75
    16
147
1.0
148
0.0
149
0.0
100
AcDbLayout
  1
ﾚｲｱｳﾄ1
 70
     0
 71
     1
 10
0.0
 20
0.0
 11
12.0
 21
9.0
 12
0.0
 22
0.0
 32
0.0
 14
1.000000000000000E+20
 24
1.000000000000000E+20
 34
1.000000000000000E+20
 15
-1.000000000000000E+20
 25
-1.000000000000000E+20
 35
-1.000000000000000E+20
146
0.0
 13
0.0
 23
0.0
 33
0.0
 16
1.0
 26
0.0
 36
0.0
 17
0.0
 27
1.0
 37
0.0
 76
     0
330
E00DEA5A
  0
MLINESTYLE
  5
E00DEA60
102
{ACAD_REACTORS
330
E00DEA53
102
}
330
E00DEA53
100
AcDbMlineStyle
  2
STANDARD
 70
     0
  3

 62
     0
 51
90.0
 52
90.0
 71
     2
 49
0.5
 62
   256
  6
BYLAYER
 49
-0.5
 62
   256
  6
BYLAYER
  0
ACDBPLACEHOLDER
  5
E00DFA69
102
{ACAD_REACTORS
330
E00DFA68
102
}
330
E00DFA68
  0
ACDBPLACEHOLDER
  5
E00ECC5E
102
{ACAD_REACTORS
330
E00DFA68
102
}
330
E00DFA68
  0
DICTIONARYVAR
  5
E00DFB2E
102
{ACAD_REACTORS
330
E00DF82C
102
}
330
E00DF82C
100
DictionaryVariables
280
     0
  1
0
  0
DICTIONARYVAR
  5
E00DF82D
102
{ACAD_REACTORS
330
E00DF82C
102
}
330
E00DF82C
100
DictionaryVariables
280
     0
  1
96
  0
XRECORD
  5
E00E26A4
102
{ACAD_REACTORS
330
E00E26A3
102
}
330
E00E26A3
100
AcDbXrecord
280
     1
  1
0
  1
*-0
  1
*
  1
*
 70
     0
  1
*
  1
*
  0
XRECORD
  5
E00E26A5
102
{ACAD_REACTORS
330
E00E26A3
102
}
330
E00E26A3
100
AcDbXrecord
280
     1
  1
0-0
  1
*-0
  1
*
  1
*
 70
     0
  1
*
  1
*
  0
XRECORD
  5
E00E26A6
102
{ACAD_REACTORS
330
E00E26A3
102
}
330
E00E26A3
100
AcDbXrecord
280
     1
  1
10画層
  1
*-10
  1
*
  1
*
 70
     0
  1
*
  1
*
  0
XRECORD
  5
E00E26A7
102
{ACAD_REACTORS
330
E00E26A3
102
}
330
E00E26A3
100
AcDbXrecord
280
     1
  1
2
  1
*-2
  1
*
  1
*
 70
     0
  1
*
  1
*
  0
XRECORD
  5
E00E26A8
102
{ACAD_REACTORS
330
E00E26A3
102
}
330
E00E26A3
100
AcDbXrecord
280
     1
  1
3
  1
*-3
  1
*
  1
*
 70
     0
  1
*
  1
*
  0
XRECORD
  5
E00E26A9
102
{ACAD_REACTORS
330
E00E26A3
102
}
330
E00E26A3
100
AcDbXrecord
280
     1
  1
3A
  1
*-3A
  1
*
  1
*
 70
     0
  1
*
  1
*
  0
XRECORD
  5
E00E26AA
102
{ACAD_REACTORS
330
E00E26A3
102
}
330
E00E26A3
100
AcDbXrecord
280
     1
  1
4
  1
*-4
  1
*
  1
*
 70
     0
  1
*
  1
*
  0
XRECORD
  5
E00E26AB
102
{ACAD_REACTORS
330
E00E26A3
102
}
330
E00E26A3
100
AcDbXrecord
280
     1
  1
5画層
  1
*-5
  1
*
  1
*
 70
     0
  1
*
  1
*
  0
XRECORD
  5
E00E26AC
102
{ACAD_REACTORS
330
E00E26A3
102
}
330
E00E26A3
100
AcDbXrecord
280
     1
  1
6画層
  1
*-6
  1
*
  1
*
 70
     0
  1
*
  1
*
  0
XRECORD
  5
E00E26AD
102
{ACAD_REACTORS
330
E00E26A3
102
}
330
E00E26A3
100
AcDbXrecord
280
     1
  1
7
  1
*-7*
  1
*
  1
*
 70
     0
  1
*
  1
*
  0
XRECORD
  5
E00E26AE
102
{ACAD_REACTORS
330
E00E26A3
102
}
330
E00E26A3
100
AcDbXrecord
280
     1
  1
7a画層
  1
*-7a
  1
*
  1
*
 70
     0
  1
*
  1
*
  0
XRECORD
  5
E00E26AF
102
{ACAD_REACTORS
330
E00E26A3
102
}
330
E00E26A3
100
AcDbXrecord
280
     1
  1
8
  1
*-8,8
  1
*
  1
*
 70
     0
  1
*
  1
*
  0
XRECORD
  5
E00E26B0
102
{ACAD_REACTORS
330
E00E26A3
102
}
330
E00E26A3
100
AcDbXrecord
280
     1
  1
ASYST
  1
ASYST*
  1
*
  1
*
 70
     0
  1
*
  1
*
  0
XRECORD
  5
E00E26B1
102
{ACAD_REACTORS
330
E00E26A3
102
}
330
E00E26A3
100
AcDbXrecord
280
     1
  1
ASYST PHASE 1
  1
A1.0-8$0$ASYT*
  1
*
  1
*
 70
     0
  1
*
  1
*
  0
XRECORD
  5
E00E26B2
102
{ACAD_REACTORS
330
E00E26A3
102
}
330
E00E26A3
100
AcDbXrecord
280
     1
  1
ASYST PHASE 2
  1
A2.0-8$0$ASYT*
  1
*
  1
*
 70
     0
  1
*
  1
*
  0
XRECORD
  5
E00E26B3
102
{ACAD_REACTORS
330
E00E26A3
102
}
330
E00E26A3
100
AcDbXrecord
280
     1
  1
cap-0
  1
*
  1
*
  1
*
 70
     0
  1
*
  1
*
  0
XRECORD
  5
E00E26B4
102
{ACAD_REACTORS
330
E00E26A3
102
}
330
E00E26A3
100
AcDbXrecord
280
     1
  1
dims
  1
*di*
  1
*
  1
*
 70
     0
  1
*
  1
*
  0
XRECORD
  5
E00E26B5
102
{ACAD_REACTORS
330
E00E26A3
102
}
330
E00E26A3
100
AcDbXrecord
280
     1
  1
elec
  1
e-*
  1
*
  1
*
 70
     0
  1
*
  1
*
  0
XRECORD
  5
E00E26B6
102
{ACAD_REACTORS
330
E00E26A3
102
}
330
E00E26A3
100
AcDbXrecord
280
     1
  1
ELECTRICAL
  1
E-*
  1
*
  1
*
 70
     0
  1
*
  1
*
  0
XRECORD
  5
E00E26B7
102
{ACAD_REACTORS
330
E00E26A3
102
}
330
E00E26A3
100
AcDbXrecord
280
     1
  1
F
  1
*
  1
*
  1
*
 70
     0
  1
*
  1
*
  0
XRECORD
  5
E00E26B8
102
{ACAD_REACTORS
330
E00E26A3
102
}
330
E00E26A3
100
AcDbXrecord
280
     1
  1
Frame
  1
F*
  1
*
  1
*
 70
     0
  1
*
  1
*
  0
XRECORD
  5
E00E26B9
102
{ACAD_REACTORS
330
E00E26A3
102
}
330
E00E26A3
100
AcDbXrecord
280
     1
  1
FROZEN
  1
*
  1
*
  1
*
 70
     4
  1
*
  1
*
  0
XRECORD
  5
E00E26BA
102
{ACAD_REACTORS
330
E00E26A3
102
}
330
E00E26A3
100
AcDbXrecord
280
     1
  1
FROZEN ACTIVE
  1
*
  1
*
  1
*
 70
    16
  1
*
  1
*
  0
XRECORD
  5
E00E26BB
102
{ACAD_REACTORS
330
E00E26A3
102
}
330
E00E26A3
100
AcDbXrecord
280
     1
  1
jiku-0
  1
*
  1
*
  1
*
 70
     0
  1
*
  1
*
  0
XRECORD
  5
E00E26BC
102
{ACAD_REACTORS
330
E00E26A3
102
}
330
E00E26A3
100
AcDbXrecord
280
     1
  1
MP
  1
MP_*
  1
*
  1
*
 70
     0
  1
*
  1
*
  0
XRECORD
  5
E00E26BD
102
{ACAD_REACTORS
330
E00E26A3
102
}
330
E00E26A3
100
AcDbXrecord
280
     1
  1
MPR
  1
MPR*
  1
*
  1
*
 70
     0
  1
*
  1
*
  0
XRECORD
  5
E00E26BE
102
{ACAD_REACTORS
330
E00E26A3
102
}
330
E00E26A3
100
AcDbXrecord
280
     1
  1
p-
  1
p-*
  1
*
  1
*
 70
     0
  1
*
  1
*
  0
XRECORD
  5
E00E26BF
102
{ACAD_REACTORS
330
E00E26A3
102
}
330
E00E26A3
100
AcDbXrecord
280
     1
  1
ST
  1
ST_*
  1
*
  1
*
 70
     0
  1
*
  1
*
  0
XRECORD
  5
E00E26C0
102
{ACAD_REACTORS
330
E00E26A3
102
}
330
E00E26A3
100
AcDbXrecord
280
     1
  1
TC
  1
TC_*,0N
  1
*
  1
*
 70
     0
  1
*
  1
*
  0
XRECORD
  5
E00E26C1
102
{ACAD_REACTORS
330
E00E26A3
102
}
330
E00E26A3
100
AcDbXrecord
280
     1
  1
TEXT
  1
TEXT
  1
*
  1
*
 70
     0
  1
*
  1
*
  0
XRECORD
  5
E00E26C2
102
{ACAD_REACTORS
330
E00E26A3
102
}
330
E00E26A3
100
AcDbXrecord
280
     1
  1
ｹｰﾌﾞﾙ図
  1
*
  1
*
  1
*
 70
     0
  1
*
  1
*
  0
XRECORD
  5
E00E26C3
102
{ACAD_REACTORS
330
E00E26A3
102
}
330
E00E26A3
100
AcDbXrecord
280
     1
  1
０画層
  1
*-0
  1
*
  1
*
 70
     0
  1
*
  1
*
  0
XRECORD
  5
E00E26C4
102
{ACAD_REACTORS
330
E00E26A3
102
}
330
E00E26A3
100
AcDbXrecord
280
     1
  1
３A画層
  1
*-3A
  1
*
  1
*
 70
     0
  1
*
  1
*
  0
XRECORD
  5
E00E26C5
102
{ACAD_REACTORS
330
E00E26A3
102
}
330
E00E26A3
100
AcDbXrecord
280
     1
  1
３画層
  1
*-3
  1
*
  1
*
 70
     0
  1
*
  1
*
  0
ENDSEC
  0
EOF
