  0
SECTION
  2
HEADER
  9
$ACADVER
  1
AC1014
  9
$ACADMAINTVER
 70
     9
  9
$DWGCODEPAGE
  3
ANSI_932
  9
$INSBASE
 10
0.0
 20
0.0
 30
0.0
  9
$EXTMIN
 10
-0.0110465203948707
 20
-0.0086358157102495
 30
-0.0015258207003583
  9
$EXTMAX
 10
362.0110464900374
 20
283.0086371846675
 30
0.0000000349246037
  9
$LIMMIN
 10
0.0
 20
0.0
  9
$LIMMAX
 10
181.0
 20
283.0
  9
$ORTHOMODE
 70
     1
  9
$REGENMODE
 70
     1
  9
$FILLMODE
 70
     1
  9
$QTEXTMODE
 70
     0
  9
$MIRRTEXT
 70
     0
  9
$DRAGMODE
 70
     2
  9
$LTSCALE
 40
5.0
  9
$OSMODE
 70
   167
  9
$ATTMODE
 70
     1
  9
$TEXTSIZE
 40
3.0
  9
$TRACEWID
 40
0.05
  9
$TEXTSTYLE
  7
BIGFONT
  9
$CLAYER
  8
SUNPOU
  9
$CELTYPE
  6
BYLAYER
  9
$CECOLOR
 62
   256
  9
$CELTSCALE
 40
1.0
  9
$DELOBJ
 70
     1
  9
$DISPSILH
 70
     0
  9
$DIMSCALE
 40
1.0
  9
$DIMASZ
 40
1.5
  9
$DIMEXO
 40
1.0
  9
$DIMDLI
 40
6.0
  9
$DIMRND
 40
0.0
  9
$DIMDLE
 40
0.0
  9
$DIMEXE
 40
1.0
  9
$DIMTP
 40
0.0
  9
$DIMTM
 40
0.0
  9
$DIMTXT
 40
3.0
  9
$DIMCEN
 40
1.0
  9
$DIMTSZ
 40
0.0
  9
$DIMTOL
 70
     0
  9
$DIMLIM
 70
     0
  9
$DIMTIH
 70
     0
  9
$DIMTOH
 70
     0
  9
$DIMSE1
 70
     0
  9
$DIMSE2
 70
     0
  9
$DIMTAD
 70
     0
  9
$DIMZIN
 70
     8
  9
$DIMBLK
  1
ARROW
  9
$DIMASO
 70
     0
  9
$DIMSHO
 70
     0
  9
$DIMPOST
  1

  9
$DIMAPOST
  1

  9
$DIMALT
 70
     0
  9
$DIMALTD
 70
     2
  9
$DIMALTF
 40
25.4
  9
$DIMLFAC
 40
1.0
  9
$DIMTOFL
 70
     1
  9
$DIMTVP
 40
0.0
  9
$DIMTIX
 70
     0
  9
$DIMSOXD
 70
     0
  9
$DIMSAH
 70
     0
  9
$DIMBLK1
  1
ARROWANG
  9
$DIMBLK2
  1
ARROWANG
  9
$DIMSTYLE
  2
IMAO
  9
$DIMCLRD
 70
     0
  9
$DIMCLRE
 70
     0
  9
$DIMCLRT
 70
     0
  9
$DIMTFAC
 40
1.0
  9
$DIMGAP
 40
0.09
  9
$DIMJUST
 70
     0
  9
$DIMSD1
 70
     0
  9
$DIMSD2
 70
     0
  9
$DIMTOLJ
 70
     1
  9
$DIMTZIN
 70
     8
  9
$DIMALTZ
 70
     8
  9
$DIMALTTZ
 70
     8
  9
$DIMFIT
 70
     3
  9
$DIMUPT
 70
     0
  9
$DIMUNIT
 70
     2
  9
$DIMDEC
 70
     2
  9
$DIMTDEC
 70
     2
  9
$DIMALTU
 70
     2
  9
$DIMALTTD
 70
     2
  9
$DIMTXSTY
  7
BIGFONT
  9
$DIMAUNIT
 70
     0
  9
$LUNITS
 70
     2
  9
$LUPREC
 70
     2
  9
$SKETCHINC
 40
0.1
  9
$FILLETRAD
 40
0.2
  9
$AUNITS
 70
     0
  9
$AUPREC
 70
     2
  9
$MENU
  1
stdr12j
  9
$ELEVATION
 40
0.0
  9
$PELEVATION
 40
0.0
  9
$THICKNESS
 40
0.0
  9
$LIMCHECK
 70
     0
  9
$BLIPMODE
 70
     0
  9
$CHAMFERA
 40
0.0
  9
$CHAMFERB
 40
0.0
  9
$CHAMFERC
 40
0.0
  9
$CHAMFERD
 40
0.0
  9
$SKPOLY
 70
     0
  9
$TDCREATE
 40
2450617.453041203
  9
$TDUPDATE
 40
2453620.709361469
  9
$TDINDWG
 40
0.1287068403
  9
$TDUSRTIMER
 40
0.1287068403
  9
$USRTIMER
 70
     1
  9
$ANGBASE
 50
0.0
  9
$ANGDIR
 70
     0
  9
$PDMODE
 70
     0
  9
$PDSIZE
 40
0.0
  9
$PLINEWID
 40
0.0
  9
$COORDS
 70
     2
  9
$SPLFRAME
 70
     0
  9
$SPLINETYPE
 70
     6
  9
$SPLINESEGS
 70
     8
  9
$ATTDIA
 70
     0
  9
$ATTREQ
 70
     1
  9
$HANDLING
 70
 22529
  9
$HANDSEED
  5
EF7C881A4
  9
$SURFTAB1
 70
     6
  9
$SURFTAB2
 70
     6
  9
$SURFTYPE
 70
     6
  9
$SURFU
 70
     6
  9
$SURFV
 70
     6
  9
$UCSNAME
  2

  9
$UCSORG
 10
0.0
 20
0.0
 30
0.0
  9
$UCSXDIR
 10
1.0
 20
0.0
 30
0.0
  9
$UCSYDIR
 10
0.0
 20
1.0
 30
0.0
  9
$PUCSNAME
  2

  9
$PUCSORG
 10
0.0
 20
0.0
 30
0.0
  9
$PUCSXDIR
 10
1.0
 20
0.0
 30
0.0
  9
$PUCSYDIR
 10
0.0
 20
1.0
 30
0.0
  9
$USERI1
 70
     0
  9
$USERI2
 70
     1
  9
$USERI3
 70
     1
  9
$USERI4
 70
     3
  9
$USERI5
 70
     0
  9
$USERR1
 40
1.0
  9
$USERR2
 40
3.0
  9
$USERR3
 40
3.0
  9
$USERR4
 40
1.5
  9
$USERR5
 40
8.0
  9
$WORLDVIEW
 70
     1
  9
$SHADEDGE
 70
     3
  9
$SHADEDIF
 70
    70
  9
$TILEMODE
 70
     1
  9
$MAXACTVP
 70
    16
  9
$PINSBASE
 10
0.0
 20
0.0
 30
0.0
  9
$PLIMCHECK
 70
     0
  9
$PEXTMIN
 10
1.000000000000000E+20
 20
1.000000000000000E+20
 30
1.000000000000000E+20
  9
$PEXTMAX
 10
-1.000000000000000E+20
 20
-1.000000000000000E+20
 30
-1.000000000000000E+20
  9
$PLIMMIN
 10
0.0
 20
0.0
  9
$PLIMMAX
 10
12.0
 20
9.0
  9
$UNITMODE
 70
     0
  9
$VISRETAIN
 70
     0
  9
$PLINEGEN
 70
     0
  9
$PSLTSCALE
 70
     0
  9
$TREEDEPTH
 70
  3020
  9
$PICKSTYLE
 70
     1
  9
$CMLSTYLE
  2
STANDARD
  9
$CMLJUST
 70
     0
  9
$CMLSCALE
 40
1.0
  9
$PROXYGRAPHICS
 70
     1
  9
$MEASUREMENT
 70
     0
  0
ENDSEC
  0
SECTION
  2
CLASSES
  0
CLASS
  1
LWPOLYLINE
  2
AcDbPolyline
  3
AutoCAD 2000
 90
        0
280
     0
281
     1
  0
CLASS
  1
HATCH
  2
AcDbHatch
  3
AutoCAD 2000
 90
        0
280
     0
281
     1
  0
CLASS
  1
ACDBDICTIONARYWDFLT
  2
AcDbDictionaryWithDefault
  3
AutoCAD 2000
 90
        0
280
     0
281
     0
  0
CLASS
  1
ACDBPLACEHOLDER
  2
AcDbPlaceHolder
  3
AutoCAD 2000
 90
        0
280
     0
281
     0
  0
CLASS
  1
LAYOUT
  2
AcDbLayout
  3
AutoCAD 2000
 90
        0
280
     0
281
     0
  0
CLASS
  1
LONG_TRANSACTION
  2
AcDbLongTransaction
  3
AutoCAD 2000
 90
        0
280
     0
281
     0
  0
CLASS
  1
LWPOLYLINE
  2
AcDbPolyline
  3
AutoCAD 2000
 90
        0
280
     0
281
     1
  0
CLASS
  1
HATCH
  2
AcDbHatch
  3
AutoCAD 2000
 90
        0
280
     0
281
     1
  0
CLASS
  1
XRECORD
  2
AcDbXrecord
  3
AutoCAD 2000
 90
        0
280
     0
281
     0
  0
CLASS
  1
DICTIONARYVAR
  2
AcDbDictionaryVar
  3
AutoCAD 2000
 90
        0
280
     0
281
     0
  0
CLASS
  1
LONG_TRANSACTION
  2
AcDbLongTransaction
  3
AutoCAD 2000
 90
        0
280
     0
281
     0
  0
CLASS
  1
LWPOLYLINE
  2
AcDbPolyline
  3
AutoCAD 2000
 90
        0
280
     0
281
     1
  0
CLASS
  1
HATCH
  2
AcDbHatch
  3
AutoCAD 2000
 90
        0
280
     0
281
     1
  0
CLASS
  1
XRECORD
  2
AcDbXrecord
  3
AutoCAD 2000
 90
        0
280
     0
281
     0
  0
CLASS
  1
LONG_TRANSACTION
  2
AcDbLongTransaction
  3
AutoCAD 2000
 90
        0
280
     0
281
     0
  0
CLASS
  1
LWPOLYLINE
  2
AcDbPolyline
  3
AutoCAD 2000
 90
        0
280
     0
281
     1
  0
CLASS
  1
HATCH
  2
AcDbHatch
  3
AutoCAD 2000
 90
        0
280
     0
281
     1
  0
CLASS
  1
XRECORD
  2
AcDbXrecord
  3
AutoCAD 2000
 90
        0
280
     0
281
     0
  0
CLASS
  1
LONG_TRANSACTION
  2
AcDbLongTransaction
  3
AutoCAD 2000
 90
        0
280
     0
281
     0
  0
CLASS
  1
LWPOLYLINE
  2
AcDbPolyline
  3
AutoCAD 2000
 90
        0
280
     0
281
     1
  0
CLASS
  1
HATCH
  2
AcDbHatch
  3
AutoCAD 2000
 90
        0
280
     0
281
     1
  0
CLASS
  1
XRECORD
  2
AcDbXrecord
  3
AutoCAD 2000
 90
        0
280
     0
281
     0
  0
CLASS
  1
LONG_TRANSACTION
  2
AcDbLongTransaction
  3
AutoCAD 2000
 90
        0
280
     0
281
     0
  0
CLASS
  1
LWPOLYLINE
  2
AcDbPolyline
  3
AutoCAD 2000
 90
        0
280
     0
281
     1
  0
CLASS
  1
HATCH
  2
AcDbHatch
  3
AutoCAD 2000
 90
        0
280
     0
281
     1
  0
CLASS
  1
XRECORD
  2
AcDbXrecord
  3
AutoCAD 2000
 90
        0
280
     0
281
     0
  0
CLASS
  1
LONG_TRANSACTION
  2
AcDbLongTransaction
  3
AutoCAD 2000
 90
        0
280
     0
281
     0
  0
CLASS
  1
LWPOLYLINE
  2
AcDbPolyline
  3
AutoCAD 2000
 90
        0
280
     0
281
     1
  0
CLASS
  1
HATCH
  2
AcDbHatch
  3
AutoCAD 2000
 90
        0
280
     0
281
     1
  0
CLASS
  1
XRECORD
  2
AcDbXrecord
  3
AutoCAD 2000
 90
        0
280
     0
281
     0
  0
CLASS
  1
LONG_TRANSACTION
  2
AcDbLongTransaction
  3
AutoCAD 2000
 90
        0
280
     0
281
     0
  0
CLASS
  1
LWPOLYLINE
  2
AcDbPolyline
  3
AutoCAD 2000
 90
        0
280
     0
281
     1
  0
CLASS
  1
HATCH
  2
AcDbHatch
  3
AutoCAD 2000
 90
        0
280
     0
281
     1
  0
CLASS
  1
XRECORD
  2
AcDbXrecord
  3
AutoCAD 2000
 90
        0
280
     0
281
     0
  0
CLASS
  1
LONG_TRANSACTION
  2
AcDbLongTransaction
  3
AutoCAD 2000
 90
        0
280
     0
281
     0
  0
CLASS
  1
LWPOLYLINE
  2
AcDbPolyline
  3
AutoCAD 2000
 90
        0
280
     0
281
     1
  0
CLASS
  1
HATCH
  2
AcDbHatch
  3
AutoCAD 2000
 90
        0
280
     0
281
     1
  0
CLASS
  1
XRECORD
  2
AcDbXrecord
  3
AutoCAD 2000
 90
        0
280
     0
281
     0
  0
CLASS
  1
LONG_TRANSACTION
  2
AcDbLongTransaction
  3
AutoCAD 2000
 90
        0
280
     0
281
     0
  0
CLASS
  1
LWPOLYLINE
  2
AcDbPolyline
  3
AutoCAD 2000
 90
        0
280
     0
281
     1
  0
CLASS
  1
HATCH
  2
AcDbHatch
  3
AutoCAD 2000
 90
        0
280
     0
281
     1
  0
CLASS
  1
XRECORD
  2
AcDbXrecord
  3
AutoCAD 2000
 90
        0
280
     0
281
     0
  0
CLASS
  1
LONG_TRANSACTION
  2
AcDbLongTransaction
  3
AutoCAD 2000
 90
        0
280
     0
281
     0
  0
CLASS
  1
LWPOLYLINE
  2
AcDbPolyline
  3
AutoCAD 2000
 90
        0
280
     0
281
     1
  0
CLASS
  1
HATCH
  2
AcDbHatch
  3
AutoCAD 2000
 90
        0
280
     0
281
     1
  0
CLASS
  1
XRECORD
  2
AcDbXrecord
  3
AutoCAD 2000
 90
        0
280
     0
281
     0
  0
CLASS
  1
LONG_TRANSACTION
  2
AcDbLongTransaction
  3
AutoCAD 2000
 90
        0
280
     0
281
     0
  0
CLASS
  1
LWPOLYLINE
  2
AcDbPolyline
  3
AutoCAD 2000
 90
        0
280
     0
281
     1
  0
CLASS
  1
HATCH
  2
AcDbHatch
  3
AutoCAD 2000
 90
        0
280
     0
281
     1
  0
CLASS
  1
XRECORD
  2
AcDbXrecord
  3
AutoCAD 2000
 90
        0
280
     0
281
     0
  0
CLASS
  1
LONG_TRANSACTION
  2
AcDbLongTransaction
  3
AutoCAD 2000
 90
        0
280
     0
281
     0
  0
CLASS
  1
LWPOLYLINE
  2
AcDbPolyline
  3
AutoCAD 2000
 90
        0
280
     0
281
     1
  0
CLASS
  1
HATCH
  2
AcDbHatch
  3
AutoCAD 2000
 90
        0
280
     0
281
     1
  0
CLASS
  1
XRECORD
  2
AcDbXrecord
  3
AutoCAD 2000
 90
        0
280
     0
281
     0
  0
CLASS
  1
LONG_TRANSACTION
  2
AcDbLongTransaction
  3
AutoCAD 2000
 90
        0
280
     0
281
     0
  0
CLASS
  1
LWPOLYLINE
  2
AcDbPolyline
  3
AutoCAD 2000
 90
        0
280
     0
281
     1
  0
CLASS
  1
HATCH
  2
AcDbHatch
  3
AutoCAD 2000
 90
        0
280
     0
281
     1
  0
CLASS
  1
XRECORD
  2
AcDbXrecord
  3
AutoCAD 2000
 90
        0
280
     0
281
     0
  0
CLASS
  1
LONG_TRANSACTION
  2
AcDbLongTransaction
  3
AutoCAD 2000
 90
        0
280
     0
281
     0
  0
CLASS
  1
LWPOLYLINE
  2
AcDbPolyline
  3
AutoCAD 2000
 90
        0
280
     0
281
     1
  0
CLASS
  1
HATCH
  2
AcDbHatch
  3
AutoCAD 2000
 90
        0
280
     0
281
     1
  0
CLASS
  1
XRECORD
  2
AcDbXrecord
  3
AutoCAD 2000
 90
        0
280
     0
281
     0
  0
CLASS
  1
LONG_TRANSACTION
  2
AcDbLongTransaction
  3
AutoCAD 2000
 90
        0
280
     0
281
     0
  0
CLASS
  1
LWPOLYLINE
  2
AcDbPolyline
  3
AutoCAD 2000
 90
        0
280
     0
281
     1
  0
CLASS
  1
HATCH
  2
AcDbHatch
  3
AutoCAD 2000
 90
        0
280
     0
281
     1
  0
CLASS
  1
XRECORD
  2
AcDbXrecord
  3
AutoCAD 2000
 90
        0
280
     0
281
     0
  0
CLASS
  1
LONG_TRANSACTION
  2
AcDbLongTransaction
  3
AutoCAD 2000
 90
        0
280
     0
281
     0
  0
CLASS
  1
LWPOLYLINE
  2
AcDbPolyline
  3
AutoCAD 2000
 90
        0
280
     0
281
     1
  0
CLASS
  1
HATCH
  2
AcDbHatch
  3
AutoCAD 2000
 90
        0
280
     0
281
     1
  0
CLASS
  1
XRECORD
  2
AcDbXrecord
  3
AutoCAD 2000
 90
        0
280
     0
281
     0
  0
CLASS
  1
LONG_TRANSACTION
  2
AcDbLongTransaction
  3
AutoCAD 2000
 90
        0
280
     0
281
     0
  0
CLASS
  1
LWPOLYLINE
  2
AcDbPolyline
  3
AutoCAD 2000
 90
        0
280
     0
281
     1
  0
CLASS
  1
HATCH
  2
AcDbHatch
  3
AutoCAD 2000
 90
        0
280
     0
281
     1
  0
CLASS
  1
XRECORD
  2
AcDbXrecord
  3
AutoCAD 2000
 90
        0
280
     0
281
     0
  0
CLASS
  1
LONG_TRANSACTION
  2
AcDbLongTransaction
  3
AutoCAD 2000
 90
        0
280
     0
281
     0
  0
CLASS
  1
LWPOLYLINE
  2
AcDbPolyline
  3
AutoCAD 2000
 90
        0
280
     0
281
     1
  0
CLASS
  1
HATCH
  2
AcDbHatch
  3
AutoCAD 2000
 90
        0
280
     0
281
     1
  0
CLASS
  1
XRECORD
  2
AcDbXrecord
  3
AutoCAD 2000
 90
        0
280
     0
281
     0
  0
ENDSEC
  0
SECTION
  2
TABLES
  0
TABLE
  2
VPORT
  5
EF7C85523
330
0
100
AcDbSymbolTable
 70
    11
  0
VPORT
  5
EF7C85567
330
EF7C85523
100
AcDbSymbolTableRecord
100
AcDbViewportTableRecord
  2
2
 70
     0
 10
0.5
 20
0.0
 11
1.0
 21
1.0
 12
0.9240312421264802
 22
1.052650975462765
 13
0.0
 23
0.0
 14
1.0
 24
1.0
 15
10.0
 25
10.0
 16
0.0
 26
0.0
 36
1.0
 17
0.0
 27
0.0
 37
0.0
 40
2.105301950925533
 41
0.8778135048231511
 42
50.0
 43
0.0
 44
0.0
 50
0.0
 51
0.0
 71
     0
 72
   500
 73
     1
 74
     1
 75
     0
 76
     0
 77
     0
 78
     0
  0
VPORT
  5
EF7C85568
330
EF7C85523
100
AcDbSymbolTableRecord
100
AcDbViewportTableRecord
  2
2
 70
     0
 10
0.0
 20
0.0
 11
0.5
 21
1.0
 12
0.9240312421264802
 22
1.052650975462765
 13
0.0
 23
0.0
 14
1.0
 24
1.0
 15
10.0
 25
10.0
 16
0.0
 26
0.0
 36
1.0
 17
0.0
 27
0.0
 37
0.0
 40
2.105301950925533
 41
0.8778135048231511
 42
50.0
 43
0.0
 44
0.0
 50
0.0
 51
0.0
 71
     0
 72
   500
 73
     1
 74
     1
 75
     0
 76
     0
 77
     0
 78
     0
  0
VPORT
  5
EF7C85569
330
EF7C85523
100
AcDbSymbolTableRecord
100
AcDbViewportTableRecord
  2
3
 70
     0
 10
0.0
 20
0.5
 11
1.0
 21
1.0
 12
2.832169994473273
 22
1.052650975462765
 13
0.0
 23
0.0
 14
1.0
 24
1.0
 15
10.0
 25
10.0
 16
0.0
 26
0.0
 36
1.0
 17
0.0
 27
0.0
 37
0.0
 40
2.105301950925533
 41
3.571428571428571
 42
50.0
 43
0.0
 44
0.0
 50
0.0
 51
0.0
 71
     0
 72
   500
 73
     1
 74
     1
 75
     0
 76
     0
 77
     0
 78
     0
  0
VPORT
  5
EF7C8556A
330
EF7C85523
100
AcDbSymbolTableRecord
100
AcDbViewportTableRecord
  2
3
 70
     0
 10
0.0
 20
0.0
 11
1.0
 21
0.5
 12
2.856741679241311
 22
1.052650975462765
 13
0.0
 23
0.0
 14
1.0
 24
1.0
 15
10.0
 25
10.0
 16
0.0
 26
0.0
 36
1.0
 17
0.0
 27
0.0
 37
0.0
 40
2.105301950925533
 41
3.594771241830064
 42
50.0
 43
0.0
 44
0.0
 50
0.0
 51
0.0
 71
     0
 72
   500
 73
     1
 74
     1
 75
     0
 76
     0
 77
     0
 78
     0
  0
VPORT
  5
EF7C8556B
330
EF7C85523
100
AcDbSymbolTableRecord
100
AcDbViewportTableRecord
  2
4
 70
     0
 10
0.5
 20
0.0
 11
1.0
 21
0.5
 12
2.886857516709718
 22
1.052650975462765
 13
0.0
 23
0.0
 14
1.0
 24
1.0
 15
10.0
 25
10.0
 16
0.0
 26
0.0
 36
1.0
 17
0.0
 27
0.0
 37
0.0
 40
4.275207030309069
 41
1.784313725490195
 42
50.0
 43
0.0
 44
0.0
 50
0.0
 51
0.0
 71
     0
 72
   500
 73
     1
 74
     1
 75
     0
 76
     0
 77
     0
 78
     0
  0
VPORT
  5
EF7C8556C
330
EF7C85523
100
AcDbSymbolTableRecord
100
AcDbViewportTableRecord
  2
4
 70
     0
 10
0.5
 20
0.5
 11
1.0
 21
1.0
 12
2.862090274555523
 22
1.052650975462765
 13
0.0
 23
0.0
 14
1.0
 24
1.0
 15
10.0
 25
10.0
 16
0.0
 26
0.0
 36
1.0
 17
0.0
 27
0.0
 37
0.0
 40
4.275207030309069
 41
1.772727272727271
 42
50.0
 43
0.0
 44
0.0
 50
0.0
 51
0.0
 71
     0
 72
   500
 73
     1
 74
     1
 75
     0
 76
     0
 77
     0
 78
     0
  0
VPORT
  5
EF7C8556D
330
EF7C85523
100
AcDbSymbolTableRecord
100
AcDbViewportTableRecord
  2
4
 70
     0
 10
0.0
 20
0.5
 11
0.5
 21
1.0
 12
2.862090274555523
 22
1.052650975462765
 13
0.0
 23
0.0
 14
1.0
 24
1.0
 15
10.0
 25
10.0
 16
0.0
 26
0.0
 36
1.0
 17
0.0
 27
0.0
 37
0.0
 40
4.275207030309069
 41
1.772727272727271
 42
50.0
 43
0.0
 44
0.0
 50
0.0
 51
0.0
 71
     0
 72
   500
 73
     1
 74
     1
 75
     0
 76
     0
 77
     0
 78
     0
  0
VPORT
  5
EF7C8556E
330
EF7C85523
100
AcDbSymbolTableRecord
100
AcDbViewportTableRecord
  2
4
 70
     0
 10
0.0
 20
0.0
 11
0.5
 21
0.5
 12
2.886857516709718
 22
1.052650975462765
 13
0.0
 23
0.0
 14
1.0
 24
1.0
 15
10.0
 25
10.0
 16
0.0
 26
0.0
 36
1.0
 17
0.0
 27
0.0
 37
0.0
 40
4.275207030309069
 41
1.784313725490195
 42
50.0
 43
0.0
 44
0.0
 50
0.0
 51
0.0
 71
     0
 72
   500
 73
     1
 74
     1
 75
     0
 76
     0
 77
     0
 78
     0
  0
VPORT
  5
EF7C88180
330
EF7C85523
100
AcDbSymbolTableRecord
100
AcDbViewportTableRecord
  2
*ACTIVE
 70
     0
 10
0.0
 20
0.0
 11
1.0
 21
1.0
 12
180.9999999848212
 22
141.5000006844786
 13
0.0
 23
0.0
 14
1.0
 24
1.0
 15
10.0
 25
10.0
 16
0.0
 26
0.0
 36
1.0
 17
0.0
 27
0.0
 37
0.0
 40
284.8670590984195
 41
1.731733914940021
 42
50.0
 43
0.0
 44
0.0
 50
0.0
 51
0.0
 71
     0
 72
   500
 73
     1
 74
     0
 75
     0
 76
     0
 77
     0
 78
     0
  0
ENDTAB
  0
TABLE
  2
LTYPE
  5
EF7C85520
330
0
100
AcDbSymbolTable
 70
     3
  0
LTYPE
  5
EF7C8552C
330
EF7C85520
100
AcDbSymbolTableRecord
100
AcDbLinetypeTableRecord
  2
BYBLOCK
 70
     0
  3

 72
    65
 73
     0
 40
0.0
  0
LTYPE
  5
EF7C8552D
330
EF7C85520
100
AcDbSymbolTableRecord
100
AcDbLinetypeTableRecord
  2
BYLAYER
 70
     0
  3

 72
    65
 73
     0
 40
0.0
  0
LTYPE
  5
EF7C8552E
330
EF7C85520
100
AcDbSymbolTableRecord
100
AcDbLinetypeTableRecord
  2
CONTINUOUS
 70
     0
  3
実線
 72
    65
 73
     0
 40
0.0
  0
LTYPE
  5
EF7C87DD6
330
EF7C85520
100
AcDbSymbolTableRecord
100
AcDbLinetypeTableRecord
  2
PHANTOM
 70
     0
  3
_____ _ _ _____ _ _ _____ _ _ _____ _ _ ____
 72
    65
 73
     6
 40
2.5
 49
1.25
 74
     0
 49
-0.25
 74
     0
 49
0.25
 74
     0
 49
-0.25
 74
     0
 49
0.25
 74
     0
 49
-0.25
 74
     0
  0
LTYPE
  5
EF7C87DD7
330
EF7C85520
100
AcDbSymbolTableRecord
100
AcDbLinetypeTableRecord
  2
HIDDEN
 70
     0
  3
_ _ _ _ _ _ _ _ _ _ _ _ _ _ _ _ _ _ _ _ _ _ _
 72
    65
 73
     2
 40
0.375
 49
0.25
 74
     0
 49
-0.125
 74
     0
  0
ENDTAB
  0
TABLE
  2
LAYER
  5
EF7C8551D
330
0
100
AcDbSymbolTable
 70
    10
  0
LAYER
  5
EF7C85529
330
EF7C8551D
100
AcDbSymbolTableRecord
100
AcDbLayerTableRecord
  2
0
 70
     0
 62
     6
  6
CONTINUOUS
  0
LAYER
  5
EF7C85575
330
EF7C8551D
100
AcDbSymbolTableRecord
100
AcDbLayerTableRecord
  2
HATCH
 70
     0
 62
     4
  6
CONTINUOUS
  0
LAYER
  5
EF7C85576
330
EF7C8551D
100
AcDbSymbolTableRecord
100
AcDbLayerTableRecord
  2
SUNPOU
 70
     0
 62
     3
  6
CONTINUOUS
  0
LAYER
  5
EF7C85577
330
EF7C8551D
100
AcDbSymbolTableRecord
100
AcDbLayerTableRecord
  2
TEXT
 70
     0
 62
     3
  6
CONTINUOUS
  0
LAYER
  5
EF7C85579
330
EF7C8551D
100
AcDbSymbolTableRecord
100
AcDbLayerTableRecord
  2
JISSEN
 70
     0
 62
     7
  6
CONTINUOUS
  0
LAYER
  5
EF7C8557D
330
EF7C8551D
100
AcDbSymbolTableRecord
100
AcDbLayerTableRecord
  2
WAKU
 70
     0
 62
     5
  6
CONTINUOUS
  0
LAYER
  5
EF7C8790F
330
EF7C8551D
100
AcDbSymbolTableRecord
100
AcDbLayerTableRecord
  2
DEFPOINTS
 70
     0
 62
     7
  6
CONTINUOUS
  0
LAYER
  5
EF7C87D43
330
EF7C8551D
100
AcDbSymbolTableRecord
100
AcDbLayerTableRecord
  2
SAISEN
 70
     0
 62
     4
  6
CONTINUOUS
  0
LAYER
  5
EF7C87DD8
330
EF7C8551D
100
AcDbSymbolTableRecord
100
AcDbLayerTableRecord
  2
NITEN
 70
     0
 62
     2
  6
PHANTOM
  0
LAYER
  5
EF7C87DD9
330
EF7C8551D
100
AcDbSymbolTableRecord
100
AcDbLayerTableRecord
  2
TENSEN
 70
     0
 62
     2
  6
HIDDEN
  0
ENDTAB
  0
TABLE
  2
STYLE
  5
EF7C8551E
330
0
100
AcDbSymbolTable
 70
     4
  0
STYLE
  5
EF7C8552A
330
EF7C8551E
100
AcDbSymbolTableRecord
100
AcDbTextStyleTableRecord
  2
STANDARD
 70
     0
 40
0.0
 41
1.0
 50
0.0
 71
     0
 42
1.5
  3
SIMPLEX
  4

  0
STYLE
  5
EF7C85558
330
EF7C8551E
100
AcDbSymbolTableRecord
100
AcDbTextStyleTableRecord
  2
K
 70
     0
 40
0.0
 41
1.0
 50
0.0
 71
     0
 42
3.0
  3
ROMANS
  4
BIGFONT
  0
STYLE
  5
EF7C8555B
330
EF7C8551E
100
AcDbSymbolTableRecord
100
AcDbTextStyleTableRecord
  2
BIGFONT
 70
     0
 40
0.0
 41
1.0
 50
0.0
 71
     0
 42
3.0
  3
txt.shx
  4
bigfont
  0
STYLE
  5
EF7C87D44
330
EF7C8551E
100
AcDbSymbolTableRecord
100
AcDbTextStyleTableRecord
  2
ROMANS
 70
     0
 40
0.0
 41
0.8
 50
0.0
 71
     0
 42
5.0
  3
romans
  4

  0
ENDTAB
  0
TABLE
  2
VIEW
  5
EF7C85521
330
0
100
AcDbSymbolTable
 70
     0
  0
ENDTAB
  0
TABLE
  2
UCS
  5
EF7C85522
330
0
100
AcDbSymbolTable
 70
     0
  0
ENDTAB
  0
TABLE
  2
APPID
  5
EF7C85524
330
0
100
AcDbSymbolTable
 70
     1
  0
APPID
  5
EF7C8552B
330
EF7C85524
100
AcDbSymbolTableRecord
100
AcDbRegAppTableRecord
  2
ACAD
 70
     0
  0
ENDTAB
  0
TABLE
  2
DIMSTYLE
  5
EF7C85525
330
0
100
AcDbSymbolTable
 70
     1
  0
DIMSTYLE
105
EF7C85571
330
EF7C85525
100
AcDbSymbolTableRecord
100
AcDbDimStyleTableRecord
  2
IMAO
 70
     0
  3

  4

  5
ARROWANG
  6
ARROWANG
  7
ARROWANG
 40
1.0
 41
1.5
 42
1.0
 43
6.0
 44
1.0
 45
0.0
 46
0.0
 47
495.0
 48
0.0
140
3.0
141
0.0
142
0.0
143
25.4
144
1.0
145
0.0
146
1.0
147
0.09
 71
     0
 72
     0
 73
     0
 74
     0
 75
     0
 76
     0
 77
     1
 78
     8
170
     0
171
     2
172
     1
173
     0
174
     1
175
     0
176
     0
177
     0
178
     0
270
     2
271
     2
272
     2
273
     2
274
     2
340
EF7C8555B
275
     0
280
     0
281
     0
282
     0
283
     1
284
     8
285
     8
286
     8
287
     3
288
     0
  0
ENDTAB
  0
TABLE
  2
BLOCK_RECORD
  5
EF7C8551C
330
0
100
AcDbSymbolTable
 70
    10
  0
BLOCK_RECORD
  5
EF7C85532
102
{ACAD_XDICTIONARY
360
EF7C85D9A
102
}
330
EF7C8551C
100
AcDbSymbolTableRecord
100
AcDbBlockTableRecord
  2
*MODEL_SPACE
  0
BLOCK_RECORD
  5
EF7C8552F
102
{ACAD_XDICTIONARY
360
EF7C85D98
102
}
330
EF7C8551C
100
AcDbSymbolTableRecord
100
AcDbBlockTableRecord
  2
*PAPER_SPACE
  0
BLOCK_RECORD
  5
EF7C85537
330
EF7C8551C
100
AcDbSymbolTableRecord
100
AcDbBlockTableRecord
  2
ARROW
  0
BLOCK_RECORD
  5
EF7C8553B
330
EF7C8551C
100
AcDbSymbolTableRecord
100
AcDbBlockTableRecord
  2
WAKU
  0
BLOCK_RECORD
  5
EF7C8553D
330
EF7C8551C
100
AcDbSymbolTableRecord
100
AcDbBlockTableRecord
  2
*X2
  0
BLOCK_RECORD
  5
EF7C8553E
330
EF7C8551C
100
AcDbSymbolTableRecord
100
AcDbBlockTableRecord
  2
STDGX5
  0
BLOCK_RECORD
  5
EF7C8553F
330
EF7C8551C
100
AcDbSymbolTableRecord
100
AcDbBlockTableRecord
  2
*X4
  0
BLOCK_RECORD
  5
EF7C85540
330
EF7C8551C
100
AcDbSymbolTableRecord
100
AcDbBlockTableRecord
  2
*X5
  0
BLOCK_RECORD
  5
EF7C85541
330
EF7C8551C
100
AcDbSymbolTableRecord
100
AcDbBlockTableRecord
  2
*X6
  0
BLOCK_RECORD
  5
EF7C85542
330
EF7C8551C
100
AcDbSymbolTableRecord
100
AcDbBlockTableRecord
  2
*X7
  0
BLOCK_RECORD
  5
EF7C85543
330
EF7C8551C
100
AcDbSymbolTableRecord
100
AcDbBlockTableRecord
  2
ARROWANG
  0
BLOCK_RECORD
  5
EF7C85544
330
EF7C8551C
100
AcDbSymbolTableRecord
100
AcDbBlockTableRecord
  2
STDR12J
  0
ENDTAB
  0
ENDSEC
  0
SECTION
  2
BLOCKS
  0
BLOCK
  5
EF7C85580
330
EF7C85532
100
AcDbEntity
  8
0
100
AcDbBlockBegin
  2
*MODEL_SPACE
 70
     0
 10
0.0
 20
0.0
 30
0.0
  3
*MODEL_SPACE
  1

  0
ENDBLK
  5
EF7C85581
330
EF7C85532
100
AcDbEntity
  8
0
100
AcDbBlockEnd
  0
BLOCK
  5
EF7C8557E
330
EF7C8552F
100
AcDbEntity
 67
     1
  8
0
100
AcDbBlockBegin
  2
*PAPER_SPACE
 70
     0
 10
0.0
 20
0.0
 30
0.0
  3
*PAPER_SPACE
  1

  0
ENDBLK
  5
EF7C8557F
330
EF7C8552F
100
AcDbEntity
 67
     1
  8
0
100
AcDbBlockEnd
  0
BLOCK
  5
499
330
EF7C85537
100
AcDbEntity
  8
0
100
AcDbBlockBegin
  2
ARROW
 70
     0
 10
1.0
 20
0.5
 30
0.0
  3
ARROW
  1

  0
LINE
  5
49A
330
EF7C85537
100
AcDbEntity
  8
0
100
AcDbLine
 10
1.0
 20
0.5
 30
0.0
 11
-0.5000000000000214
 21
0.0980762113533018
 31
0.0
  0
LINE
  5
49B
330
EF7C85537
100
AcDbEntity
  8
0
100
AcDbLine
 10
0.0
 20
0.5
 30
0.0
 11
1.0
 21
0.5
 31
0.0
  0
LINE
  5
49C
330
EF7C85537
100
AcDbEntity
  8
0
100
AcDbLine
 10
1.0
 20
0.5
 30
0.0
 11
-0.4999999999999575
 21
0.9019237886467408
 31
0.0
  0
ENDBLK
  5
49D
330
EF7C85537
100
AcDbEntity
  8
0
100
AcDbBlockEnd
  0
BLOCK
  5
4A7
330
EF7C8553B
100
AcDbEntity
  8
0
100
AcDbBlockBegin
  2
WAKU
 70
     0
 10
0.0
 20
0.0
 30
0.0
  3
WAKU
  1

  0
LINE
  5
4A8
330
EF7C8553B
100
AcDbEntity
  8
WAKU
100
AcDbLine
 10
0.9999999959999998
 20
0.0
 30
0.0
 11
0.9999999959999998
 21
0.9999999999999998
 31
0.0
  0
LINE
  5
4A9
330
EF7C8553B
100
AcDbEntity
  8
WAKU
100
AcDbLine
 10
0.0
 20
0.9999999999999998
 30
0.0
 11
0.9999999959999998
 21
0.9999999999999998
 31
0.0
  0
LINE
  5
4AA
330
EF7C8553B
100
AcDbEntity
  8
WAKU
100
AcDbLine
 10
0.9999999959999998
 20
0.0
 30
0.0
 11
0.0
 21
0.0
 31
0.0
  0
LINE
  5
4AB
330
EF7C8553B
100
AcDbEntity
  8
WAKU
100
AcDbLine
 10
0.0
 20
0.0
 30
0.0
 11
0.0
 21
0.9999999999999998
 31
0.0
  0
ENDBLK
  5
4AC
330
EF7C8553B
100
AcDbEntity
  8
0
100
AcDbBlockEnd
  0
BLOCK
  5
2764
330
EF7C8553D
100
AcDbEntity
  8
0
100
AcDbBlockBegin
  2
*X2
 70
     1
 10
0.0
 20
0.0
 30
0.0
  3
*X2
  1

  0
ENDBLK
  5
2765
330
EF7C8553D
100
AcDbEntity
  8
0
100
AcDbBlockEnd
  0
BLOCK
  5
2766
330
EF7C8553E
100
AcDbEntity
  8
0
100
AcDbBlockBegin
  2
STDGX5
 70
     0
 10
0.0
 20
0.0
 30
0.0
  3
STDGX5
  1

  0
ENDBLK
  5
2767
330
EF7C8553E
100
AcDbEntity
  8
0
100
AcDbBlockEnd
  0
BLOCK
  5
2F5A
330
EF7C8553F
100
AcDbEntity
  8
0
100
AcDbBlockBegin
  2
*X4
 70
     1
 10
0.0
 20
0.0
 30
0.0
  3
*X4
  1

  0
ENDBLK
  5
2F5B
330
EF7C8553F
100
AcDbEntity
  8
0
100
AcDbBlockEnd
  0
BLOCK
  5
32BB
330
EF7C85540
100
AcDbEntity
  8
0
100
AcDbBlockBegin
  2
*X5
 70
     1
 10
0.0
 20
0.0
 30
0.0
  3
*X5
  1

  0
ENDBLK
  5
32BC
330
EF7C85540
100
AcDbEntity
  8
0
100
AcDbBlockEnd
  0
BLOCK
  5
372F
330
EF7C85541
100
AcDbEntity
  8
0
100
AcDbBlockBegin
  2
*X6
 70
     1
 10
0.0
 20
0.0
 30
0.0
  3
*X6
  1

  0
ENDBLK
  5
3730
330
EF7C85541
100
AcDbEntity
  8
0
100
AcDbBlockEnd
  0
BLOCK
  5
3A6D
330
EF7C85542
100
AcDbEntity
  8
0
100
AcDbBlockBegin
  2
*X7
 70
     1
 10
0.0
 20
0.0
 30
0.0
  3
*X7
  1

  0
ENDBLK
  5
3A6E
330
EF7C85542
100
AcDbEntity
  8
0
100
AcDbBlockEnd
  0
BLOCK
  5
4CC9
330
EF7C85543
100
AcDbEntity
  8
0
100
AcDbBlockBegin
  2
ARROWANG
 70
     0
 10
0.0
 20
0.0
 30
0.0
  3
ARROWANG
  1

  0
LINE
  5
4CCA
330
EF7C85543
100
AcDbEntity
  8
SUNPOU
100
AcDbLine
 10
0.0
 20
0.0
 30
0.0
 11
-1.499999999999956
 21
0.401923788646741
 31
0.0
  0
LINE
  5
4CCB
330
EF7C85543
100
AcDbEntity
  8
SUNPOU
100
AcDbLine
 10
0.0
 20
0.0
 30
0.0
 11
-1.500000000000027
 21
-0.4019237886467124
 31
0.0
  0
ENDBLK
  5
4CCC
330
EF7C85543
100
AcDbEntity
  8
0
100
AcDbBlockEnd
  0
BLOCK
  5
4CCD
330
EF7C85544
100
AcDbEntity
  8
0
100
AcDbBlockBegin
  2
STDR12J
 70
     0
 10
0.0
 20
0.0
 30
0.0
  3
STDR12J
  1

  0
ENDBLK
  5
4CF2
330
EF7C85544
100
AcDbEntity
  8
0
100
AcDbBlockEnd
  0
ENDSEC
  0
SECTION
  2
ENTITIES
  0
TEXT
  5
1
330
EF7C85532
100
AcDbEntity
  8
SUNPOU
100
AcDbText
 10
95.05869565217388
 20
43.7966872748706
 30
0.0
 40
1.5
  1
                          
100
AcDbText
  0
TEXT
  5
2
330
EF7C85532
100
AcDbEntity
  8
SUNPOU
100
AcDbText
 10
332.2793466870868
 20
21.8983436374353
 30
0.0
 40
0.75
  1
                          
100
AcDbText
  0
TEXT
  5
1A
330
EF7C85532
100
AcDbEntity
  8
SUNPOU
100
AcDbText
 10
289.9834441000535
 20
43.7966872748706
 30
0.0
 40
1.5
  1
                          
100
AcDbText
  0
TEXT
  5
1B
330
EF7C85532
100
AcDbEntity
  8
SUNPOU
100
AcDbText
 10
527.2040951349664
 20
21.8983436374353
 30
0.0
 40
0.75
  1
                          
100
AcDbText
  0
TEXT
  5
1C
330
EF7C85532
100
AcDbEntity
  8
SUNPOU
100
AcDbText
 10
490.6272568090836
 20
43.79668727487056
 30
0.0
 40
1.5
  1
                          
100
AcDbText
  0
TEXT
  5
1D
330
EF7C85532
100
AcDbEntity
  8
SUNPOU
100
AcDbText
 10
727.8479078439966
 20
21.89834363743526
 30
0.0
 40
0.75
  1
                          
100
AcDbText
  0
INSERT
  5
1E
330
EF7C85532
100
AcDbEntity
  8
HATCH
100
AcDbBlockReference
  2
*X2
 10
194.9247484478796
 20
0.0
 30
0.0
  0
TEXT
  5
1F
330
EF7C85532
100
AcDbEntity
  8
SUNPOU
100
AcDbText
 10
493.0101992368963
 20
43.7966872748706
 30
0.0
 40
1.5
  1
                          
100
AcDbText
  0
TEXT
  5
20
330
EF7C85532
100
AcDbEntity
  8
SUNPOU
100
AcDbText
 10
730.2308502718093
 20
21.8983436374353
 30
0.0
 40
0.75
  1
                          
100
AcDbText
  0
TEXT
  5
21
330
EF7C85532
100
AcDbEntity
  8
SUNPOU
100
AcDbText
 10
482.0486607753578
 20
43.7966872748706
 30
0.0
 40
1.5
  1
                          
100
AcDbText
  0
TEXT
  5
22
330
EF7C85532
100
AcDbEntity
  8
SUNPOU
100
AcDbText
 10
719.269311810271
 20
21.8983436374353
 30
0.0
 40
0.75
  1
                          
100
AcDbText
  0
INSERT
  5
25
330
EF7C85532
100
AcDbEntity
  8
JISSEN
100
AcDbBlockReference
  2
STDGX5
 10
0.0
 20
0.0
 30
0.0
  0
TEXT
  5
60
330
EF7C85532
100
AcDbEntity
  8
SUNPOU
100
AcDbText
 10
274.0586949361738
 20
43.7966872748706
 30
0.0
 40
1.5
  1
                          
100
AcDbText
  0
TEXT
  5
61
330
EF7C85532
100
AcDbEntity
  8
SUNPOU
100
AcDbText
 10
511.2793459710869
 20
21.8983436374353
 30
0.0
 40
0.75
  1
                          
100
AcDbText
  0
TEXT
  5
62
330
EF7C85532
100
AcDbEntity
  8
SUNPOU
100
AcDbText
 10
474.702507645204
 20
43.79668727487056
 30
0.0
 40
1.5
  1
                          
100
AcDbText
  0
TEXT
  5
63
330
EF7C85532
100
AcDbEntity
  8
SUNPOU
100
AcDbText
 10
711.923158680117
 20
21.89834363743526
 30
0.0
 40
0.75
  1
                          
100
AcDbText
  0
INSERT
  5
64
330
EF7C85532
100
AcDbEntity
  8
HATCH
100
AcDbBlockReference
  2
*X4
 10
178.999999284
 20
0.0
 30
0.0
  0
TEXT
  5
65
330
EF7C85532
100
AcDbEntity
  8
SUNPOU
100
AcDbText
 10
477.0854500730166
 20
43.7966872748706
 30
0.0
 40
1.5
  1
                          
100
AcDbText
  0
TEXT
  5
66
330
EF7C85532
100
AcDbEntity
  8
SUNPOU
100
AcDbText
 10
714.3061011079296
 20
21.8983436374353
 30
0.0
 40
0.75
  1
                          
100
AcDbText
  0
TEXT
  5
67
330
EF7C85532
100
AcDbEntity
  8
SUNPOU
100
AcDbText
 10
466.1239116114783
 20
43.7966872748706
 30
0.0
 40
1.5
  1
                          
100
AcDbText
  0
TEXT
  5
68
330
EF7C85532
100
AcDbEntity
  8
SUNPOU
100
AcDbText
 10
703.3445626463913
 20
21.8983436374353
 30
0.0
 40
0.75
  1
                          
100
AcDbText
  0
INSERT
  5
69
330
EF7C85532
100
AcDbEntity
  8
TEXT
100
AcDbBlockReference
  2
STDGX5
 10
178.999999284
 20
0.0
 30
0.0
  0
TEXT
  5
6A
330
EF7C85532
100
AcDbEntity
  8
SUNPOU
100
AcDbText
 10
453.0586949361739
 20
43.7966872748706
 30
0.0
 40
1.5
  1
                          
100
AcDbText
  0
TEXT
  5
6B
330
EF7C85532
100
AcDbEntity
  8
SUNPOU
100
AcDbText
 10
690.2793459710871
 20
21.8983436374353
 30
0.0
 40
0.75
  1
                          
100
AcDbText
  0
TEXT
  5
6C
330
EF7C85532
100
AcDbEntity
  8
SUNPOU
100
AcDbText
 10
647.9834433840535
 20
43.7966872748706
 30
0.0
 40
1.5
  1
                          
100
AcDbText
  0
TEXT
  5
6D
330
EF7C85532
100
AcDbEntity
  8
SUNPOU
100
AcDbText
 10
885.2040944189665
 20
21.8983436374353
 30
0.0
 40
0.75
  1
                          
100
AcDbText
  0
TEXT
  5
6E
330
EF7C85532
100
AcDbEntity
  8
SUNPOU
100
AcDbText
 10
848.6272560930835
 20
43.79668727487056
 30
0.0
 40
1.5
  1
                          
100
AcDbText
  0
TEXT
  5
6F
330
EF7C85532
100
AcDbEntity
  8
SUNPOU
100
AcDbText
 10
1085.847907127996
 20
21.89834363743526
 30
0.0
 40
0.75
  1
                          
100
AcDbText
  0
INSERT
  5
70
330
EF7C85532
100
AcDbEntity
  8
HATCH
100
AcDbBlockReference
  2
*X5
 10
552.9247477318796
 20
0.0
 30
0.0
  0
TEXT
  5
71
330
EF7C85532
100
AcDbEntity
  8
SUNPOU
100
AcDbText
 10
851.0101985208963
 20
43.7966872748706
 30
0.0
 40
1.5
  1
                          
100
AcDbText
  0
TEXT
  5
72
330
EF7C85532
100
AcDbEntity
  8
SUNPOU
100
AcDbText
 10
1088.230849555809
 20
21.8983436374353
 30
0.0
 40
0.75
  1
                          
100
AcDbText
  0
TEXT
  5
73
330
EF7C85532
100
AcDbEntity
  8
SUNPOU
100
AcDbText
 10
840.048660059358
 20
43.7966872748706
 30
0.0
 40
1.5
  1
                          
100
AcDbText
  0
TEXT
  5
74
330
EF7C85532
100
AcDbEntity
  8
SUNPOU
100
AcDbText
 10
1077.269311094271
 20
21.8983436374353
 30
0.0
 40
0.75
  1
                          
100
AcDbText
  0
INSERT
  5
75
330
EF7C85532
100
AcDbEntity
  8
JISSEN
100
AcDbBlockReference
  2
STDGX5
 10
357.999999284
 20
0.0
 30
0.0
  0
TEXT
  5
76
330
EF7C85532
100
AcDbEntity
  8
SUNPOU
100
AcDbText
 10
453.0586949361739
 20
43.7966872748706
 30
0.0
 40
1.5
  1
                          
100
AcDbText
  0
TEXT
  5
77
330
EF7C85532
100
AcDbEntity
  8
SUNPOU
100
AcDbText
 10
690.2793459710871
 20
21.8983436374353
 30
0.0
 40
0.75
  1
                          
100
AcDbText
  0
TEXT
  5
78
330
EF7C85532
100
AcDbEntity
  8
SUNPOU
100
AcDbText
 10
647.9834433840535
 20
43.7966872748706
 30
0.0
 40
1.5
  1
                          
100
AcDbText
  0
TEXT
  5
79
330
EF7C85532
100
AcDbEntity
  8
SUNPOU
100
AcDbText
 10
885.2040944189665
 20
21.8983436374353
 30
0.0
 40
0.75
  1
                          
100
AcDbText
  0
TEXT
  5
7A
330
EF7C85532
100
AcDbEntity
  8
SUNPOU
100
AcDbText
 10
848.6272560930835
 20
43.79668727487056
 30
0.0
 40
1.5
  1
                          
100
AcDbText
  0
TEXT
  5
7B
330
EF7C85532
100
AcDbEntity
  8
SUNPOU
100
AcDbText
 10
1085.847907127996
 20
21.89834363743526
 30
0.0
 40
0.75
  1
                          
100
AcDbText
  0
INSERT
  5
7C
330
EF7C85532
100
AcDbEntity
  8
HATCH
100
AcDbBlockReference
  2
*X6
 10
552.9247477318796
 20
0.0
 30
0.0
  0
TEXT
  5
7D
330
EF7C85532
100
AcDbEntity
  8
SUNPOU
100
AcDbText
 10
851.0101985208963
 20
43.7966872748706
 30
0.0
 40
1.5
  1
                          
100
AcDbText
  0
TEXT
  5
7E
330
EF7C85532
100
AcDbEntity
  8
SUNPOU
100
AcDbText
 10
1088.230849555809
 20
21.8983436374353
 30
0.0
 40
0.75
  1
                          
100
AcDbText
  0
TEXT
  5
7F
330
EF7C85532
100
AcDbEntity
  8
SUNPOU
100
AcDbText
 10
840.048660059358
 20
43.7966872748706
 30
0.0
 40
1.5
  1
                          
100
AcDbText
  0
TEXT
  5
80
330
EF7C85532
100
AcDbEntity
  8
SUNPOU
100
AcDbText
 10
1077.269311094271
 20
21.8983436374353
 30
0.0
 40
0.75
  1
                          
100
AcDbText
  0
INSERT
  5
81
330
EF7C85532
100
AcDbEntity
  8
JISSEN
100
AcDbBlockReference
  2
STDGX5
 10
357.999999284
 20
0.0
 30
0.0
  0
TEXT
  5
82
330
EF7C85532
100
AcDbEntity
  8
SUNPOU
100
AcDbText
 10
632.0586942201738
 20
43.7966872748706
 30
0.0
 40
1.5
  1
                          
100
AcDbText
  0
TEXT
  5
83
330
EF7C85532
100
AcDbEntity
  8
SUNPOU
100
AcDbText
 10
869.2793452550871
 20
21.8983436374353
 30
0.0
 40
0.75
  1
                          
100
AcDbText
  0
TEXT
  5
84
330
EF7C85532
100
AcDbEntity
  8
SUNPOU
100
AcDbText
 10
826.9834426680533
 20
43.7966872748706
 30
0.0
 40
1.5
  1
                          
100
AcDbText
  0
TEXT
  5
85
330
EF7C85532
100
AcDbEntity
  8
SUNPOU
100
AcDbText
 10
1064.204093702966
 20
21.8983436374353
 30
0.0
 40
0.75
  1
                          
100
AcDbText
  0
TEXT
  5
86
330
EF7C85532
100
AcDbEntity
  8
SUNPOU
100
AcDbText
 10
1027.627255377083
 20
43.79668727487056
 30
0.0
 40
1.5
  1
                          
100
AcDbText
  0
TEXT
  5
87
330
EF7C85532
100
AcDbEntity
  8
SUNPOU
100
AcDbText
 10
1264.847906411996
 20
21.89834363743526
 30
0.0
 40
0.75
  1
                          
100
AcDbText
  0
INSERT
  5
88
330
EF7C85532
100
AcDbEntity
  8
HATCH
100
AcDbBlockReference
  2
*X7
 10
731.9247470158797
 20
0.0
 30
0.0
  0
TEXT
  5
89
330
EF7C85532
100
AcDbEntity
  8
SUNPOU
100
AcDbText
 10
1030.010197804895
 20
43.7966872748706
 30
0.0
 40
1.5
  1
                          
100
AcDbText
  0
TEXT
  5
8A
330
EF7C85532
100
AcDbEntity
  8
SUNPOU
100
AcDbText
 10
1267.230848839808
 20
21.8983436374353
 30
0.0
 40
0.75
  1
                          
100
AcDbText
  0
TEXT
  5
8B
330
EF7C85532
100
AcDbEntity
  8
SUNPOU
100
AcDbText
 10
1019.048659343358
 20
43.7966872748706
 30
0.0
 40
1.5
  1
                          
100
AcDbText
  0
TEXT
  5
8C
330
EF7C85532
100
AcDbEntity
  8
SUNPOU
100
AcDbText
 10
1256.269310378271
 20
21.8983436374353
 30
0.0
 40
0.75
  1
                          
100
AcDbText
  0
INSERT
  5
8D
330
EF7C85532
100
AcDbEntity
  8
JISSEN
100
AcDbBlockReference
  2
STDGX5
 10
536.999998568
 20
0.0
 30
0.0
  0
INSERT
  5
8E
330
EF7C85532
100
AcDbEntity
  8
SUNPOU
100
AcDbBlockReference
  2
STDGX5
 10
739.0804232644236
 20
50.83533235670902
 30
0.0
 41
0.5
 42
0.5
 43
0.5
  0
INSERT
  5
8F
330
EF7C85532
100
AcDbEntity
  8
SUNPOU
100
AcDbBlockReference
  2
STDGX5
 10
726.2208210623692
 20
105.0763138619288
 30
0.0
 41
0.5
 42
0.5
 43
0.5
  0
INSERT
  5
90
330
EF7C85532
100
AcDbEntity
  8
HATCH
100
AcDbBlockReference
  2
STDGX5
 10
852.3985550581901
 20
151.7065097967401
 30
0.0
 41
0.5
 42
0.5
 43
0.5
  0
INSERT
  5
91
330
EF7C85532
100
AcDbEntity
  8
HATCH
100
AcDbBlockReference
  2
STDGX5
 10
866.6806796277283
 20
102.7017487639612
 30
0.0
 41
0.5
 42
0.5
 43
0.5
  0
INSERT
  5
92
330
EF7C85532
100
AcDbEntity
  8
TEXT
100
AcDbBlockReference
  2
STDGX5
 10
970.3434408521969
 20
102.8213468229236
 30
0.0
 41
0.5
 42
0.5
 43
0.5
  0
INSERT
  5
93
330
EF7C85532
100
AcDbEntity
  8
SUNPOU
100
AcDbBlockReference
  2
STDGX5
 10
996.1728907397867
 20
174.5475645486173
 30
0.0
 41
0.5
 42
0.5
 43
0.5
  0
INSERT
  5
94
330
EF7C85532
100
AcDbEntity
  8
TEXT
100
AcDbBlockReference
  2
STDGX5
 10
725.7513886810995
 20
124.5860190441302
 30
0.0
 41
0.5
 42
0.5
 43
0.5
  0
INSERT
  5
95
330
EF7C85532
100
AcDbEntity
  8
HATCH
100
AcDbBlockReference
  2
STDGX5
 10
777.1755722656421
 20
145.5222028932424
 30
0.0
 41
0.5
 42
0.5
 43
0.5
  0
INSERT
  5
96
330
EF7C85532
100
AcDbEntity
  8
SUNPOU
100
AcDbBlockReference
  2
STDGX5
 10
846.1963575359604
 20
112.6957974729892
 30
0.0
 41
0.5
 42
0.5
 43
0.5
  0
INSERT
  5
97
330
EF7C85532
100
AcDbEntity
  8
SUNPOU
100
AcDbBlockReference
  2
STDGX5
 10
916.6681156211122
 20
121.7330617103084
 30
0.0
 41
0.5
 42
0.5
 43
0.5
  0
INSERT
  5
98
330
EF7C85532
100
AcDbEntity
  8
TEXT
100
AcDbBlockReference
  2
STDGX5
 10
983.7969461426766
 20
84.61852224867081
 30
0.0
 41
0.5
 42
0.5
 43
0.5
  0
INSERT
  5
99
330
EF7C85532
100
AcDbEntity
  8
HATCH
100
AcDbBlockReference
  2
STDGX5
 10
974.2802715042101
 20
136.484938655923
 30
0.0
 41
0.5
 42
0.5
 43
0.5
  0
INSERT
  5
9A
330
EF7C85532
100
AcDbEntity
  8
SUNPOU
100
AcDbBlockReference
  2
STDGX5
 10
749.7834008663488
 20
95.14721172234004
 30
0.0
 41
0.5
 42
0.5
 43
0.5
  0
INSERT
  5
9B
330
EF7C85532
100
AcDbEntity
  8
SUNPOU
100
AcDbBlockReference
  2
STDGX5
 10
736.9237986642947
 20
149.3881932275598
 30
0.0
 41
0.5
 42
0.5
 43
0.5
  0
INSERT
  5
9C
330
EF7C85532
100
AcDbEntity
  8
HATCH
100
AcDbBlockReference
  2
STDGX5
 10
863.1015326601156
 20
196.0183891623711
 30
0.0
 41
0.5
 42
0.5
 43
0.5
  0
INSERT
  5
9D
330
EF7C85532
100
AcDbEntity
  8
HATCH
100
AcDbBlockReference
  2
STDGX5
 10
877.3836572296538
 20
147.0136281295922
 30
0.0
 41
0.5
 42
0.5
 43
0.5
  0
INSERT
  5
9E
330
EF7C85532
100
AcDbEntity
  8
TEXT
100
AcDbBlockReference
  2
STDGX5
 10
981.0464184541222
 20
147.1332261885546
 30
0.0
 41
0.5
 42
0.5
 43
0.5
  0
INSERT
  5
9F
330
EF7C85532
100
AcDbEntity
  8
SUNPOU
100
AcDbBlockReference
  2
STDGX5
 10
1006.875868341712
 20
218.8594439142483
 30
0.0
 41
0.5
 42
0.5
 43
0.5
  0
INSERT
  5
A0
330
EF7C85532
100
AcDbEntity
  8
TEXT
100
AcDbBlockReference
  2
STDGX5
 10
736.454366283025
 20
168.8978984097611
 30
0.0
 41
0.5
 42
0.5
 43
0.5
  0
INSERT
  5
A1
330
EF7C85532
100
AcDbEntity
  8
HATCH
100
AcDbBlockReference
  2
STDGX5
 10
787.8785498675677
 20
189.8340822588734
 30
0.0
 41
0.5
 42
0.5
 43
0.5
  0
INSERT
  5
A2
330
EF7C85532
100
AcDbEntity
  8
SUNPOU
100
AcDbBlockReference
  2
STDGX5
 10
856.899335137886
 20
157.0076768386202
 30
0.0
 41
0.5
 42
0.5
 43
0.5
  0
INSERT
  5
A3
330
EF7C85532
100
AcDbEntity
  8
SUNPOU
100
AcDbBlockReference
  2
STDGX5
 10
927.3710932230379
 20
166.0449410759395
 30
0.0
 41
0.5
 42
0.5
 43
0.5
  0
INSERT
  5
A4
330
EF7C85532
100
AcDbEntity
  8
TEXT
100
AcDbBlockReference
  2
STDGX5
 10
994.4999237446024
 20
128.9304016143017
 30
0.0
 41
0.5
 42
0.5
 43
0.5
  0
INSERT
  5
A5
330
EF7C85532
100
AcDbEntity
  8
HATCH
100
AcDbBlockReference
  2
STDGX5
 10
984.9832491061354
 20
180.7968180215541
 30
0.0
 41
0.5
 42
0.5
 43
0.5
  0
TEXT
  5
DE
330
EF7C85532
100
AcDbEntity
  8
SUNPOU
100
AcDbText
 10
274.0586949361738
 20
43.7966872748706
 30
0.0
 40
1.5
  1
                          
100
AcDbText
  0
TEXT
  5
145
330
EF7C85532
100
AcDbEntity
  8
SUNPOU
100
AcDbText
 10
511.2793459710869
 20
21.8983436374353
 30
0.0
 40
0.75
  1
                          
100
AcDbText
  0
TEXT
  5
265
330
EF7C85532
100
AcDbEntity
  8
SUNPOU
100
AcDbText
 10
474.702507645204
 20
43.79668727487056
 30
0.0
 40
1.5
  1
                          
100
AcDbText
  0
TEXT
  5
266
330
EF7C85532
100
AcDbEntity
  8
SUNPOU
100
AcDbText
 10
711.923158680117
 20
21.89834363743526
 30
0.0
 40
0.75
  1
                          
100
AcDbText
  0
INSERT
  5
2F7
330
EF7C85532
100
AcDbEntity
  8
HATCH
100
AcDbBlockReference
  2
*X4
 10
178.999999284
 20
0.0
 30
0.0
  0
TEXT
  5
31A
330
EF7C85532
100
AcDbEntity
  8
SUNPOU
100
AcDbText
 10
477.0854500730166
 20
43.7966872748706
 30
0.0
 40
1.5
  1
                          
100
AcDbText
  0
TEXT
  5
31C
330
EF7C85532
100
AcDbEntity
  8
SUNPOU
100
AcDbText
 10
714.3061011079296
 20
21.8983436374353
 30
0.0
 40
0.75
  1
                          
100
AcDbText
  0
TEXT
  5
3A6
330
EF7C85532
100
AcDbEntity
  8
TEXT
100
AcDbText
 10
100.9999992839998
 20
244.9999999999999
 30
0.0
 40
3.0
  1
 
  7
K
100
AcDbText
  0
TEXT
  5
3AB
330
EF7C85532
100
AcDbEntity
  8
SUNPOU
100
AcDbText
 10
466.1239116114783
 20
43.7966872748706
 30
0.0
 40
1.5
  1
                          
100
AcDbText
  0
TEXT
  5
3AC
330
EF7C85532
100
AcDbEntity
  8
SUNPOU
100
AcDbText
 10
703.3445626463913
 20
21.8983436374353
 30
0.0
 40
0.75
  1
                          
100
AcDbText
  0
INSERT
  5
3F6
330
EF7C85532
100
AcDbEntity
  8
TEXT
100
AcDbBlockReference
  2
STDGX5
 10
178.999999284
 20
0.0
 30
0.0
  0
TEXT
  5
3F7
330
EF7C85532
100
AcDbEntity
  8
SUNPOU
100
AcDbText
 10
453.0586949361739
 20
43.7966872748706
 30
0.0
 40
1.5
  1
                          
100
AcDbText
  0
TEXT
  5
3F8
330
EF7C85532
100
AcDbEntity
  8
SUNPOU
100
AcDbText
 10
690.2793459710871
 20
21.8983436374353
 30
0.0
 40
0.75
  1
                          
100
AcDbText
  0
TEXT
  5
3F9
330
EF7C85532
100
AcDbEntity
  8
SUNPOU
100
AcDbText
 10
647.9834433840535
 20
43.7966872748706
 30
0.0
 40
1.5
  1
                          
100
AcDbText
  0
TEXT
  5
3FA
330
EF7C85532
100
AcDbEntity
  8
SUNPOU
100
AcDbText
 10
885.2040944189665
 20
21.8983436374353
 30
0.0
 40
0.75
  1
                          
100
AcDbText
  0
TEXT
  5
3FB
330
EF7C85532
100
AcDbEntity
  8
SUNPOU
100
AcDbText
 10
848.6272560930835
 20
43.79668727487056
 30
0.0
 40
1.5
  1
                          
100
AcDbText
  0
TEXT
  5
3FC
330
EF7C85532
100
AcDbEntity
  8
SUNPOU
100
AcDbText
 10
1085.847907127996
 20
21.89834363743526
 30
0.0
 40
0.75
  1
                          
100
AcDbText
  0
INSERT
  5
3FD
330
EF7C85532
100
AcDbEntity
  8
HATCH
100
AcDbBlockReference
  2
*X5
 10
552.9247477318796
 20
0.0
 30
0.0
  0
TEXT
  5
3FE
330
EF7C85532
100
AcDbEntity
  8
SUNPOU
100
AcDbText
 10
851.0101985208963
 20
43.7966872748706
 30
0.0
 40
1.5
  1
                          
100
AcDbText
  0
TEXT
  5
3FF
330
EF7C85532
100
AcDbEntity
  8
SUNPOU
100
AcDbText
 10
1088.230849555809
 20
21.8983436374353
 30
0.0
 40
0.75
  1
                          
100
AcDbText
  0
TEXT
  5
400
330
EF7C85532
100
AcDbEntity
  8
SUNPOU
100
AcDbText
 10
840.048660059358
 20
43.7966872748706
 30
0.0
 40
1.5
  1
                          
100
AcDbText
  0
TEXT
  5
401
330
EF7C85532
100
AcDbEntity
  8
SUNPOU
100
AcDbText
 10
1077.269311094271
 20
21.8983436374353
 30
0.0
 40
0.75
  1
                          
100
AcDbText
  0
INSERT
  5
402
330
EF7C85532
100
AcDbEntity
  8
JISSEN
100
AcDbBlockReference
  2
STDGX5
 10
357.999999284
 20
0.0
 30
0.0
  0
TEXT
  5
409
330
EF7C85532
100
AcDbEntity
  8
SUNPOU
100
AcDbText
 10
453.0586949361739
 20
43.7966872748706
 30
0.0
 40
1.5
  1
                          
100
AcDbText
  0
TEXT
  5
40A
330
EF7C85532
100
AcDbEntity
  8
SUNPOU
100
AcDbText
 10
690.2793459710871
 20
21.8983436374353
 30
0.0
 40
0.75
  1
                          
100
AcDbText
  0
TEXT
  5
41B
330
EF7C85532
100
AcDbEntity
  8
SUNPOU
100
AcDbText
 10
647.9834433840535
 20
43.7966872748706
 30
0.0
 40
1.5
  1
                          
100
AcDbText
  0
TEXT
  5
41C
330
EF7C85532
100
AcDbEntity
  8
SUNPOU
100
AcDbText
 10
885.2040944189665
 20
21.8983436374353
 30
0.0
 40
0.75
  1
                          
100
AcDbText
  0
TEXT
  5
41D
330
EF7C85532
100
AcDbEntity
  8
SUNPOU
100
AcDbText
 10
848.6272560930835
 20
43.79668727487056
 30
0.0
 40
1.5
  1
                          
100
AcDbText
  0
TEXT
  5
41E
330
EF7C85532
100
AcDbEntity
  8
SUNPOU
100
AcDbText
 10
1085.847907127996
 20
21.89834363743526
 30
0.0
 40
0.75
  1
                          
100
AcDbText
  0
INSERT
  5
41F
330
EF7C85532
100
AcDbEntity
  8
HATCH
100
AcDbBlockReference
  2
*X6
 10
552.9247477318796
 20
0.0
 30
0.0
  0
TEXT
  5
420
330
EF7C85532
100
AcDbEntity
  8
SUNPOU
100
AcDbText
 10
851.0101985208963
 20
43.7966872748706
 30
0.0
 40
1.5
  1
                          
100
AcDbText
  0
TEXT
  5
421
330
EF7C85532
100
AcDbEntity
  8
SUNPOU
100
AcDbText
 10
1088.230849555809
 20
21.8983436374353
 30
0.0
 40
0.75
  1
                          
100
AcDbText
  0
TEXT
  5
422
330
EF7C85532
100
AcDbEntity
  8
SUNPOU
100
AcDbText
 10
840.048660059358
 20
43.7966872748706
 30
0.0
 40
1.5
  1
                          
100
AcDbText
  0
TEXT
  5
423
330
EF7C85532
100
AcDbEntity
  8
SUNPOU
100
AcDbText
 10
1077.269311094271
 20
21.8983436374353
 30
0.0
 40
0.75
  1
                          
100
AcDbText
  0
INSERT
  5
424
330
EF7C85532
100
AcDbEntity
  8
JISSEN
100
AcDbBlockReference
  2
STDGX5
 10
357.999999284
 20
0.0
 30
0.0
  0
TEXT
  5
425
330
EF7C85532
100
AcDbEntity
  8
SUNPOU
100
AcDbText
 10
632.0586942201738
 20
43.7966872748706
 30
0.0
 40
1.5
  1
                          
100
AcDbText
  0
TEXT
  5
426
330
EF7C85532
100
AcDbEntity
  8
SUNPOU
100
AcDbText
 10
869.2793452550871
 20
21.8983436374353
 30
0.0
 40
0.75
  1
                          
100
AcDbText
  0
TEXT
  5
427
330
EF7C85532
100
AcDbEntity
  8
SUNPOU
100
AcDbText
 10
826.9834426680533
 20
43.7966872748706
 30
0.0
 40
1.5
  1
                          
100
AcDbText
  0
TEXT
  5
428
330
EF7C85532
100
AcDbEntity
  8
SUNPOU
100
AcDbText
 10
1064.204093702966
 20
21.8983436374353
 30
0.0
 40
0.75
  1
                          
100
AcDbText
  0
TEXT
  5
429
330
EF7C85532
100
AcDbEntity
  8
SUNPOU
100
AcDbText
 10
1027.627255377083
 20
43.79668727487056
 30
0.0
 40
1.5
  1
                          
100
AcDbText
  0
TEXT
  5
42A
330
EF7C85532
100
AcDbEntity
  8
SUNPOU
100
AcDbText
 10
1264.847906411996
 20
21.89834363743526
 30
0.0
 40
0.75
  1
                          
100
AcDbText
  0
INSERT
  5
42B
330
EF7C85532
100
AcDbEntity
  8
HATCH
100
AcDbBlockReference
  2
*X7
 10
731.9247470158797
 20
0.0
 30
0.0
  0
TEXT
  5
42C
330
EF7C85532
100
AcDbEntity
  8
SUNPOU
100
AcDbText
 10
1030.010197804895
 20
43.7966872748706
 30
0.0
 40
1.5
  1
                          
100
AcDbText
  0
TEXT
  5
42D
330
EF7C85532
100
AcDbEntity
  8
SUNPOU
100
AcDbText
 10
1267.230848839808
 20
21.8983436374353
 30
0.0
 40
0.75
  1
                          
100
AcDbText
  0
TEXT
  5
42E
330
EF7C85532
100
AcDbEntity
  8
SUNPOU
100
AcDbText
 10
1019.048659343358
 20
43.7966872748706
 30
0.0
 40
1.5
  1
                          
100
AcDbText
  0
TEXT
  5
42F
330
EF7C85532
100
AcDbEntity
  8
SUNPOU
100
AcDbText
 10
1256.269310378271
 20
21.8983436374353
 30
0.0
 40
0.75
  1
                          
100
AcDbText
  0
INSERT
  5
430
330
EF7C85532
100
AcDbEntity
  8
JISSEN
100
AcDbBlockReference
  2
STDGX5
 10
536.999998568
 20
0.0
 30
0.0
  0
INSERT
  5
43B
330
EF7C85532
100
AcDbEntity
  8
SUNPOU
100
AcDbBlockReference
  2
STDGX5
 10
739.0804232644236
 20
50.83533235670902
 30
0.0
 41
0.5
 42
0.5
 43
0.5
  0
INSERT
  5
43C
330
EF7C85532
100
AcDbEntity
  8
SUNPOU
100
AcDbBlockReference
  2
STDGX5
 10
726.2208210623692
 20
105.0763138619288
 30
0.0
 41
0.5
 42
0.5
 43
0.5
  0
INSERT
  5
43D
330
EF7C85532
100
AcDbEntity
  8
HATCH
100
AcDbBlockReference
  2
STDGX5
 10
852.3985550581901
 20
151.7065097967401
 30
0.0
 41
0.5
 42
0.5
 43
0.5
  0
INSERT
  5
43E
330
EF7C85532
100
AcDbEntity
  8
HATCH
100
AcDbBlockReference
  2
STDGX5
 10
866.6806796277283
 20
102.7017487639612
 30
0.0
 41
0.5
 42
0.5
 43
0.5
  0
INSERT
  5
43F
330
EF7C85532
100
AcDbEntity
  8
TEXT
100
AcDbBlockReference
  2
STDGX5
 10
970.3434408521969
 20
102.8213468229236
 30
0.0
 41
0.5
 42
0.5
 43
0.5
  0
INSERT
  5
440
330
EF7C85532
100
AcDbEntity
  8
SUNPOU
100
AcDbBlockReference
  2
STDGX5
 10
996.1728907397867
 20
174.5475645486173
 30
0.0
 41
0.5
 42
0.5
 43
0.5
  0
INSERT
  5
441
330
EF7C85532
100
AcDbEntity
  8
TEXT
100
AcDbBlockReference
  2
STDGX5
 10
725.7513886810995
 20
124.5860190441302
 30
0.0
 41
0.5
 42
0.5
 43
0.5
  0
INSERT
  5
442
330
EF7C85532
100
AcDbEntity
  8
HATCH
100
AcDbBlockReference
  2
STDGX5
 10
777.1755722656421
 20
145.5222028932424
 30
0.0
 41
0.5
 42
0.5
 43
0.5
  0
INSERT
  5
443
330
EF7C85532
100
AcDbEntity
  8
SUNPOU
100
AcDbBlockReference
  2
STDGX5
 10
846.1963575359604
 20
112.6957974729892
 30
0.0
 41
0.5
 42
0.5
 43
0.5
  0
INSERT
  5
444
330
EF7C85532
100
AcDbEntity
  8
SUNPOU
100
AcDbBlockReference
  2
STDGX5
 10
916.6681156211122
 20
121.7330617103084
 30
0.0
 41
0.5
 42
0.5
 43
0.5
  0
INSERT
  5
445
330
EF7C85532
100
AcDbEntity
  8
TEXT
100
AcDbBlockReference
  2
STDGX5
 10
983.7969461426766
 20
84.61852224867081
 30
0.0
 41
0.5
 42
0.5
 43
0.5
  0
INSERT
  5
446
330
EF7C85532
100
AcDbEntity
  8
HATCH
100
AcDbBlockReference
  2
STDGX5
 10
974.2802715042101
 20
136.484938655923
 30
0.0
 41
0.5
 42
0.5
 43
0.5
  0
INSERT
  5
447
330
EF7C85532
100
AcDbEntity
  8
SUNPOU
100
AcDbBlockReference
  2
STDGX5
 10
749.7834008663488
 20
95.14721172234004
 30
0.0
 41
0.5
 42
0.5
 43
0.5
  0
INSERT
  5
448
330
EF7C85532
100
AcDbEntity
  8
SUNPOU
100
AcDbBlockReference
  2
STDGX5
 10
736.9237986642947
 20
149.3881932275598
 30
0.0
 41
0.5
 42
0.5
 43
0.5
  0
INSERT
  5
449
330
EF7C85532
100
AcDbEntity
  8
HATCH
100
AcDbBlockReference
  2
STDGX5
 10
863.1015326601156
 20
196.0183891623711
 30
0.0
 41
0.5
 42
0.5
 43
0.5
  0
INSERT
  5
44A
330
EF7C85532
100
AcDbEntity
  8
HATCH
100
AcDbBlockReference
  2
STDGX5
 10
877.3836572296538
 20
147.0136281295922
 30
0.0
 41
0.5
 42
0.5
 43
0.5
  0
INSERT
  5
44B
330
EF7C85532
100
AcDbEntity
  8
TEXT
100
AcDbBlockReference
  2
STDGX5
 10
981.0464184541222
 20
147.1332261885546
 30
0.0
 41
0.5
 42
0.5
 43
0.5
  0
INSERT
  5
44C
330
EF7C85532
100
AcDbEntity
  8
SUNPOU
100
AcDbBlockReference
  2
STDGX5
 10
1006.875868341712
 20
218.8594439142483
 30
0.0
 41
0.5
 42
0.5
 43
0.5
  0
INSERT
  5
44D
330
EF7C85532
100
AcDbEntity
  8
TEXT
100
AcDbBlockReference
  2
STDGX5
 10
736.454366283025
 20
168.8978984097611
 30
0.0
 41
0.5
 42
0.5
 43
0.5
  0
INSERT
  5
44E
330
EF7C85532
100
AcDbEntity
  8
HATCH
100
AcDbBlockReference
  2
STDGX5
 10
787.8785498675677
 20
189.8340822588734
 30
0.0
 41
0.5
 42
0.5
 43
0.5
  0
INSERT
  5
44F
330
EF7C85532
100
AcDbEntity
  8
SUNPOU
100
AcDbBlockReference
  2
STDGX5
 10
856.899335137886
 20
157.0076768386202
 30
0.0
 41
0.5
 42
0.5
 43
0.5
  0
INSERT
  5
450
330
EF7C85532
100
AcDbEntity
  8
SUNPOU
100
AcDbBlockReference
  2
STDGX5
 10
927.3710932230379
 20
166.0449410759395
 30
0.0
 41
0.5
 42
0.5
 43
0.5
  0
INSERT
  5
451
330
EF7C85532
100
AcDbEntity
  8
TEXT
100
AcDbBlockReference
  2
STDGX5
 10
994.4999237446024
 20
128.9304016143017
 30
0.0
 41
0.5
 42
0.5
 43
0.5
  0
INSERT
  5
452
330
EF7C85532
100
AcDbEntity
  8
HATCH
100
AcDbBlockReference
  2
STDGX5
 10
984.9832491061354
 20
180.7968180215541
 30
0.0
 41
0.5
 42
0.5
 43
0.5
  0
INSERT
  5
4CF3
330
EF7C85532
100
AcDbEntity
  8
JISSEN
100
AcDbBlockReference
  2
STDR12J
 10
0.0
 20
0.0
 30
0.0
  0
LINE
  5
EAFFB3C99
330
EF7C85532
100
AcDbEntity
  8
JISSEN
100
AcDbLine
 10
91.49999927599994
 20
276.9999999999999
 30
0.0
 11
180.9999992759999
 21
276.9999999999999
 31
0.0
  0
LINE
  5
EAFFB3C9A
330
EF7C85532
100
AcDbEntity
  8
JISSEN
100
AcDbLine
 10
91.49999927599994
 20
270.9999999999999
 30
0.0
 11
180.9999992759999
 21
270.9999999999999
 31
0.0
  0
TEXT
  5
EAFFB3C9B
330
EF7C85532
100
AcDbEntity
  8
TEXT
100
AcDbText
 10
107.8999992759999
 20
278.4999999999999
 30
0.0
 40
3.0
  1
名      称
  7
K
 72
     4
 11
116.4999992759999
 21
279.9999999999999
 31
0.0
100
AcDbText
  0
TEXT
  5
EAFFB3C9C
330
EF7C85532
100
AcDbEntity
  8
TEXT
100
AcDbText
 10
93.29999927599999
 20
278.4999999999999
 30
0.0
 40
3.0
  1
番号
  7
K
 72
     4
 11
96.49999927599999
 21
279.9999999999999
 31
0.0
100
AcDbText
  0
LINE
  5
EAFFB3C9D
330
EF7C85532
100
AcDbEntity
  8
JISSEN
100
AcDbLine
 10
91.49999927599994
 20
270.9999999999999
 30
0.0
 11
91.49999927599994
 21
282.9999999999998
 31
0.0
  0
LINE
  5
EAFFB3C9E
330
EF7C85532
100
AcDbEntity
  8
JISSEN
100
AcDbLine
 10
101.4999992759999
 20
282.9999999999998
 30
0.0
 11
101.4999992759999
 21
270.9999999999999
 31
0.0
  0
TEXT
  5
EAFFB3C9F
330
EF7C85532
100
AcDbEntity
  8
TEXT
100
AcDbText
 10
135.1999992759998
 20
278.4999999999999
 30
0.0
 40
3.0
  1
材    質
  7
K
 72
     4
 11
141.9999992759999
 21
279.9999999999999
 31
0.0
100
AcDbText
  0
LINE
  5
EAFFB3CA0
330
EF7C85532
100
AcDbEntity
  8
JISSEN
100
AcDbLine
 10
131.4999992759998
 20
282.9999999999998
 30
0.0
 11
131.4999992759998
 21
270.9999999999999
 31
0.0
  0
LINE
  5
EAFFB3CA1
330
EF7C85532
100
AcDbEntity
  8
JISSEN
100
AcDbLine
 10
152.4999992759999
 20
270.9999999999999
 30
0.0
 11
152.4999992759999
 21
282.9999999999998
 31
0.0
  0
TEXT
  5
EAFFB3CA2
330
EF7C85532
100
AcDbEntity
  8
TEXT
100
AcDbText
 10
165.6999992759998
 20
278.4999999999999
 30
0.0
 40
3.0
  1
備    考
  7
K
 72
     4
 11
172.4999992759999
 21
279.9999999999999
 31
0.0
100
AcDbText
  0
TEXT
  5
EAFFB3CA3
330
EF7C85532
100
AcDbEntity
  8
TEXT
100
AcDbText
 10
154.7999992759999
 20
278.4999999999999
 30
0.0
 40
3.0
  1
個数
  7
K
 72
     4
 11
157.9999992759999
 21
279.9999999999999
 31
0.0
100
AcDbText
  0
LINE
  5
EAFFB3CA4
330
EF7C85532
100
AcDbEntity
  8
JISSEN
100
AcDbLine
 10
163.4999992759999
 20
282.9999999999998
 30
0.0
 11
163.4999992759999
 21
270.9999999999999
 31
0.0
  0
TEXT
  5
EAFFB3CC3
330
EF7C85532
100
AcDbEntity
  8
TEXT
100
AcDbText
 10
132.2699992759999
 20
272.4999999999999
 30
0.0
 40
3.0
  1
発泡ポリエチレン
 41
0.7
  7
K
 72
     4
 11
141.9999992759999
 21
273.9999999999999
 31
0.0
100
AcDbText
  0
INSERT
  5
EAFFB3CF7
330
EF7C85532
100
AcDbEntity
  8
WAKU
100
AcDbBlockReference
  2
WAKU
 10
0.0
 20
0.0
 30
0.0
 41
181.0
 42
283.0
 43
181.0
  0
TEXT
  5
EF7C85BB1
330
EF7C85532
100
AcDbEntity
  8
TEXT
100
AcDbText
 10
156.6795477624092
 20
272.4999999999999
 30
0.0
 40
3.0
  1
1
  7
K
 72
     4
 11
157.8938334766949
 21
273.9999999999999
 31
0.0
100
AcDbText
  0
TEXT
  5
EF7C85D65
330
EF7C85532
100
AcDbEntity
  8
SUNPOU
100
AcDbText
 10
158.5372584314914
 20
7.849423898685245
 30
0.0
 40
3.0
  1
パット MFJ
  7
K
100
AcDbText
  0
TEXT
  5
EF7C85D66
330
EF7C85532
100
AcDbEntity
  8
SUNPOU
100
AcDbText
 10
158.5372584314914
 20
2.849423898685244
 30
0.0
 40
3.0
  1
尺度　1/1
  7
K
100
AcDbText
  0
TEXT
  5
EF7C85DB6
330
EF7C85532
100
AcDbEntity
  8
TEXT
100
AcDbText
 10
106.342856418857
 20
272.4999999999999
 30
0.0
 40
3.0
  1
パット MFJ
  7
K
 72
     4
 11
116.4999992759999
 21
273.9999999999999
 31
0.0
100
AcDbText
  0
HATCH
  5
EF7C87D8C
330
EF7C85532
100
AcDbEntity
  8
HATCH
100
AcDbHatch
 10
0.0
 20
0.0
 30
0.0
210
0.0
220
0.0
230
1.0
  2
NET
 70
     0
 71
     1
 91
        2
 92
        7
 72
     0
 73
     1
 93
        4
 10
116.5000001379999
 20
194.9873429999999
 10
116.5000001379999
 20
197.9873429999999
 10
100.5000001379999
 20
197.9873429999999
 10
100.500000138
 20
194.9873429999999
 97
        2
330
EF7C87D8E
330
EF7C87DB3
 92
        7
 72
     0
 73
     1
 93
        4
 10
78.50000013800002
 20
194.9873429999998
 10
78.50000013800002
 20
197.9873429999999
 10
62.50000013799999
 20
197.9873429999999
 10
62.50000013799999
 20
194.9873429999999
 97
        2
330
EF7C87D8E
330
EF7C87D9D
 75
     0
 76
     1
 52
45.0
 41
10.0
 77
     0
 78
     2
 53
45.0
 43
0.0
 44
0.0
 45
-0.8838834764831842
 46
0.8838834764831844
 79
     0
 53
135.0
 43
0.0
 44
0.0
 45
-0.8838834764831844
 46
-0.8838834764831842
 79
     0
 47
0.221327
 98
        2
 10
108.5622081379999
 20
195.9266429999999
 10
73.55988013799998
 20
196.3692969999999
  0
HATCH
  5
EF7C87D8D
330
EF7C85532
100
AcDbEntity
  8
HATCH
100
AcDbHatch
 10
0.0
 20
0.0
 30
0.0
210
0.0
220
0.0
230
1.0
  2
NET
 70
     0
 71
     1
 91
        2
 92
        7
 72
     0
 73
     1
 93
        4
 10
116.5000001379999
 20
161.711423
 10
116.5000001379999
 20
166.7114229999999
 10
100.500000138
 20
166.7114229999999
 10
100.500000138
 20
161.711423
 97
        2
330
EF7C87D8F
330
EF7C87DB2
 92
        7
 72
     0
 73
     1
 93
        4
 10
62.50000013800001
 20
166.7114229999999
 10
62.50000013799998
 20
161.711423
 10
78.500000138
 20
161.7114229999999
 10
78.50000013800002
 20
166.7114229999999
 97
        2
330
EF7C87D8F
330
EF7C87D9B
 75
     0
 76
     1
 52
45.0
 41
10.0
 77
     0
 78
     2
 53
45.0
 43
0.0
 44
0.0
 45
-0.8838834764831842
 46
0.8838834764831844
 79
     0
 53
135.0
 43
0.0
 44
0.0
 45
-0.8838834764831844
 46
-0.8838834764831842
 79
     0
 47
0.221327
 98
        2
 10
109.226808138
 20
163.743653
 10
69.79380613799998
 20
164.8502899999999
  0
LWPOLYLINE
  5
EF7C87D8E
102
{ACAD_REACTORS
330
EF7C87D8C
102
}
330
EF7C85532
100
AcDbEntity
  8
JISSEN
100
AcDbPolyline
 90
        4
 70
     1
 43
0.0
 10
62.50000013799999
 20
194.9873429999999
 10
116.5000001379999
 20
194.9873429999999
 10
116.5000001379999
 20
197.9873429999999
 10
62.50000013799999
 20
197.9873429999999
  0
LWPOLYLINE
  5
EF7C87D8F
102
{ACAD_REACTORS
330
EF7C87D8D
102
}
330
EF7C85532
100
AcDbEntity
  8
JISSEN
100
AcDbPolyline
 90
        4
 70
     1
 43
0.0
 10
62.50000013799999
 20
166.7114229999999
 10
116.5000001379999
 20
166.7114229999999
 10
116.5000001379999
 20
161.711423
 10
62.50000013799999
 20
161.711423
  0
LWPOLYLINE
  5
EF7C87D95
102
{ACAD_REACTORS
330
EF7C87DD5
102
}
330
EF7C85532
100
AcDbEntity
  8
JISSEN
100
AcDbPolyline
 90
        4
 70
     1
 43
0.0
 10
62.50000013799999
 20
229.2632629999999
 10
116.5000001379999
 20
229.2632629999999
 10
116.5000001379999
 20
228.263263
 10
62.50000013799999
 20
228.263263
  0
CIRCLE
  5
EF7C87D96
330
EF7C85532
100
AcDbEntity
  8
JISSEN
100
AcDbCircle
 10
89.50000013800002
 20
93.09102199999999
 30
0.0
 40
27.0
  0
CIRCLE
  5
EF7C87D97
330
EF7C85532
100
AcDbEntity
  8
JISSEN
100
AcDbCircle
 10
89.50000013800002
 20
93.09102199999999
 30
0.0
 40
11.0
  0
LINE
  5
EF7C87D9B
102
{ACAD_REACTORS
330
EF7C87D8D
102
}
330
EF7C85532
100
AcDbEntity
  8
JISSEN
100
AcDbLine
 10
78.50000013800002
 20
161.711423
 30
0.0
 11
78.50000013800002
 21
166.7114229999999
 31
0.0
  0
LINE
  5
EF7C87D9D
102
{ACAD_REACTORS
330
EF7C87D8C
102
}
330
EF7C85532
100
AcDbEntity
  8
JISSEN
100
AcDbLine
 10
78.50000013800002
 20
194.9873429999999
 30
0.0
 11
78.50000013800002
 21
197.9873429999999
 31
0.0
  0
LINE
  5
EF7C87DA1
102
{ACAD_REACTORS
330
EF7C87DD5
102
}
330
EF7C85532
100
AcDbEntity
  8
JISSEN
100
AcDbLine
 10
78.50000013800002
 20
228.263263
 30
0.0
 11
78.50000013800002
 21
229.2632629999999
 31
0.0
  0
TEXT
  5
EF7C87DA8
330
EF7C85532
100
AcDbEntity
  8
SUNPOU
100
AcDbText
 10
141.8983981379998
 20
162.255291
 30
0.0
 40
3.0
  1
mm
 41
0.8
  7
ROMANS
100
AcDbText
  0
LINE
  5
EF7C87DA9
330
EF7C85532
100
AcDbEntity
  8
SUNPOU
100
AcDbLine
 10
138.715380138
 20
161.711423
 30
0.0
 11
160.7369361379999
 21
161.711423
 31
0.0
  0
TEXT
  5
EF7C87DAA
330
EF7C85532
100
AcDbEntity
  8
SUNPOU
100
AcDbText
 10
141.8983981379998
 20
228.8071309999998
 30
0.0
 40
3.0
  1
mm
 41
0.8
  7
ROMANS
100
AcDbText
  0
LINE
  5
EF7C87DAB
330
EF7C85532
100
AcDbEntity
  8
SUNPOU
100
AcDbLine
 10
138.715380138
 20
228.263263
 30
0.0
 11
160.7369361379999
 21
228.263263
 31
0.0
  0
LINE
  5
EF7C87DAC
330
EF7C85532
100
AcDbEntity
  8
SUNPOU
100
AcDbLine
 10
138.715380138
 20
194.9873429999999
 30
0.0
 11
160.7369361379999
 21
194.9873429999999
 31
0.0
  0
TEXT
  5
EF7C87DAD
330
EF7C85532
100
AcDbEntity
  8
SUNPOU
100
AcDbText
 10
141.8983981379998
 20
195.531211
 30
0.0
 40
3.0
  1
mm
 41
0.8
  7
ROMANS
100
AcDbText
  0
LINE
  5
EF7C87DB2
102
{ACAD_REACTORS
330
EF7C87D8D
102
}
330
EF7C85532
100
AcDbEntity
  8
JISSEN
100
AcDbLine
 10
100.500000138
 20
161.711423
 30
0.0
 11
100.500000138
 21
166.7114229999999
 31
0.0
  0
LINE
  5
EF7C87DB3
102
{ACAD_REACTORS
330
EF7C87D8C
102
}
330
EF7C85532
100
AcDbEntity
  8
JISSEN
100
AcDbLine
 10
100.500000138
 20
194.9873429999999
 30
0.0
 11
100.500000138
 21
197.9873429999999
 31
0.0
  0
TEXT
  5
EF7C87DB8
330
EF7C85532
100
AcDbEntity
  8
SUNPOU
100
AcDbText
 10
139.036908138
 20
162.255291
 30
0.0
 40
3.0
  1
5
  7
K
100
AcDbText
  0
TEXT
  5
EF7C87DBD
330
EF7C85532
100
AcDbEntity
  8
SUNPOU
100
AcDbText
 10
139.036908138
 20
195.531211
 30
0.0
 40
3.0
  1
3
  7
K
100
AcDbText
  0
LINE
  5
EF7C87DC1
102
{ACAD_REACTORS
330
EF7C87DD5
102
}
330
EF7C85532
100
AcDbEntity
  8
JISSEN
100
AcDbLine
 10
100.500000138
 20
228.263263
 30
0.0
 11
100.500000138
 21
229.2632629999999
 31
0.0
  0
TEXT
  5
EF7C87DC9
330
EF7C85532
100
AcDbEntity
  8
SUNPOU
100
AcDbText
 10
139.036908138
 20
228.8071309999998
 30
0.0
 40
3.0
  1
1
  7
K
100
AcDbText
  0
TEXT
  5
EF7C87DCA
330
EF7C85532
100
AcDbEntity
  8
SUNPOU
100
AcDbText
 10
150.0370281379999
 20
162.255291
 30
0.0
 40
3.0
  1
タイプ
  7
K
100
AcDbText
  0
TEXT
  5
EF7C87DCB
330
EF7C85532
100
AcDbEntity
  8
SUNPOU
100
AcDbText
 10
150.0370281379999
 20
195.531211
 30
0.0
 40
3.0
  1
タイプ
  7
K
100
AcDbText
  0
TEXT
  5
EF7C87DCC
330
EF7C85532
100
AcDbEntity
  8
SUNPOU
100
AcDbText
 10
150.0370281379999
 20
228.8071309999998
 30
0.0
 40
3.0
  1
タイプ
  7
K
100
AcDbText
  0
HATCH
  5
EF7C87DD5
330
EF7C85532
100
AcDbEntity
  8
HATCH
100
AcDbHatch
 10
0.0
 20
0.0
 30
0.0
210
0.0
220
0.0
230
1.0
  2
NET
 70
     0
 71
     1
 91
        2
 92
        7
 72
     0
 73
     1
 93
        4
 10
100.500000138
 20
229.2632629999999
 10
100.500000138
 20
228.263263
 10
116.5000001379999
 20
228.263263
 10
116.5000001379999
 20
229.2632629999999
 97
        2
330
EF7C87D95
330
EF7C87DC1
 92
        7
 72
     0
 73
     1
 93
        4
 10
62.50000013799997
 20
229.2632629999999
 10
62.50000013799997
 20
228.263263
 10
78.50000013800002
 20
228.263263
 10
78.50000013800002
 20
229.2632629999999
 97
        2
330
EF7C87D95
330
EF7C87DA1
 75
     0
 76
     1
 52
45.0
 41
10.0
 77
     0
 78
     2
 53
45.0
 43
0.0
 44
0.0
 45
-0.8838834764831842
 46
0.8838834764831844
 79
     0
 53
135.0
 43
0.0
 44
0.0
 45
-0.8838834764831844
 46
-0.8838834764831842
 79
     0
 47
0.1305226168823164
 98
        2
 10
106.4707759055455
 20
228.7831590113368
 10
75.64238103866499
 20
228.9136811931174
  0
CIRCLE
  5
EF7C87F59
330
EF7C85532
100
AcDbEntity
  8
NITEN
100
AcDbCircle
 10
271.0000824459612
 20
96.21389232333502
 30
0.0
 40
14.5
  0
CIRCLE
  5
EF7C87F5A
330
EF7C85532
100
AcDbEntity
  8
JISSEN
100
AcDbCircle
 10
271.0000824459612
 20
96.21389232333502
 30
0.0
 40
13.25
  0
ARC
  5
EF7C87F5B
330
EF7C85532
100
AcDbEntity
  8
JISSEN
100
AcDbCircle
 10
271.0000824459612
 20
96.21389232333502
 30
0.0
 40
24.6
100
AcDbArc
 50
180.0
 51
0.0
  0
ARC
  5
EF7C87F5C
330
EF7C85532
100
AcDbEntity
  8
JISSEN
100
AcDbCircle
 10
271.0000824459612
 20
96.21389232333502
 30
0.0
 40
24.6
100
AcDbArc
 50
0.0
 51
180.0
  0
CIRCLE
  5
EF7C87F5D
330
EF7C85532
100
AcDbEntity
  8
JISSEN
100
AcDbCircle
 10
271.0000824459612
 20
96.21389232333502
 30
0.0
 40
25.5
  0
ARC
  5
EF7C87F5E
330
EF7C85532
100
AcDbEntity
  8
JISSEN
100
AcDbCircle
 10
271.0000824459612
 20
96.21389232333502
 30
0.0
 40
26.5
100
AcDbArc
 50
272.162233192218
 51
357.8377668077815
  0
ARC
  5
EF7C87F5F
330
EF7C85532
100
AcDbEntity
  8
JISSEN
100
AcDbCircle
 10
271.0000824459612
 20
96.21389232333502
 30
0.0
 40
26.5
100
AcDbArc
 50
2.162233192218474
 51
87.83776680778194
  0
ARC
  5
EF7C87F60
330
EF7C85532
100
AcDbEntity
  8
TENSEN
100
AcDbCircle
 10
268.9521700329104
 20
95.43261529632269
 30
0.0
 40
6.000000000000007
100
AcDbArc
 50
160.4060492740468
 51
227.069903945541
  0
ARC
  5
EF7C87F61
330
EF7C85532
100
AcDbEntity
  8
TENSEN
100
AcDbCircle
 10
268.9521700329104
 20
95.43261529632269
 30
0.0
 40
8.500000000000026
100
AcDbArc
 50
160.4060492740468
 51
227.069903945541
  0
CIRCLE
  5
EF7C87F62
330
EF7C85532
100
AcDbEntity
  8
JISSEN
100
AcDbCircle
 10
271.0000824459612
 20
96.21389232333502
 30
0.0
 40
11.75
  0
ARC
  5
EF7C87F63
330
EF7C85532
100
AcDbEntity
  8
JISSEN
100
AcDbCircle
 10
271.0000824459612
 20
96.21389232333502
 30
0.0
 40
26.5
100
AcDbArc
 50
92.16223319221807
 51
177.8377668077814
  0
CIRCLE
  5
EF7C87F64
330
EF7C85532
100
AcDbEntity
  8
JISSEN
100
AcDbCircle
 10
271.0000824459612
 20
96.21389232333502
 30
0.0
 40
3.0
  0
ARC
  5
EF7C87F65
330
EF7C85532
100
AcDbEntity
  8
JISSEN
100
AcDbCircle
 10
271.0000824459612
 20
96.21389232333502
 30
0.0
 40
26.5
100
AcDbArc
 50
182.1622331922183
 51
267.8377668077819
  0
LINE
  5
EF7C87F66
330
EF7C85532
100
AcDbEntity
  8
JISSEN
100
AcDbLine
 10
279.8998625159723
 20
76.14765414311211
 30
0.0
 11
280.8076611722095
 21
73.65349783368912
 31
0.0
  0
LINE
  5
EF7C87F67
330
EF7C85532
100
AcDbEntity
  8
JISSEN
100
AcDbLine
 10
261.192503719713
 20
73.65349783368912
 30
0.0
 11
262.1003023759502
 21
76.14765414311211
 31
0.0
  0
ARC
  5
EF7C87F68
330
EF7C85532
100
AcDbEntity
  8
JISSEN
100
AcDbCircle
 10
277.5506309640074
 20
75.29260378479794
 30
0.0
 40
0.5
100
AcDbArc
 50
110.0
 51
200.0000000000004
  0
ARC
  5
EF7C87F69
330
EF7C85532
100
AcDbEntity
  8
JISSEN
100
AcDbCircle
 10
264.449533927915
 20
75.29260378479794
 30
0.0
 40
0.5
100
AcDbArc
 50
339.9999999999999
 51
70.00000000000003
  0
ARC
  5
EF7C87F6A
330
EF7C85532
100
AcDbEntity
  8
JISSEN
100
AcDbCircle
 10
272.0000824459613
 20
74.31389232333498
 30
0.0
 40
0.5
100
AcDbArc
 50
0.0
 51
90.0
  0
ARC
  5
EF7C87F6B
330
EF7C85532
100
AcDbEntity
  8
JISSEN
100
AcDbCircle
 10
271.0000824459612
 20
96.21389232333502
 30
0.0
 40
23.35
100
AcDbArc
 50
266.3167926881413
 51
273.6832073118586
  0
LINE
  5
EF7C87F6C
330
EF7C85532
100
AcDbEntity
  8
JISSEN
100
AcDbLine
 10
264.919380238308
 20
75.12159371313508
 30
0.0
 11
264.0115815820708
 21
72.62743740371219
 31
0.0
  0
ARC
  5
EF7C87F6D
330
EF7C85532
100
AcDbEntity
  8
JISSEN
100
AcDbCircle
 10
271.0000824459612
 20
96.21389232333502
 30
0.0
 40
23.35
100
AcDbArc
 50
246.3167926881404
 51
253.6832073118584
  0
ARC
  5
EF7C87F6E
330
EF7C85532
100
AcDbEntity
  8
JISSEN
100
AcDbCircle
 10
270.0000824459613
 20
74.31389232333498
 30
0.0
 40
0.5
100
AcDbArc
 50
90.0
 51
180.0
  0
ARC
  5
EF7C87F6F
330
EF7C85532
100
AcDbEntity
  8
JISSEN
100
AcDbCircle
 10
271.0000824459612
 20
69.71389232333503
 30
0.0
 40
1.0
100
AcDbArc
 50
1.081116596109152
 51
178.9188834038908
  0
LINE
  5
EF7C87F70
330
EF7C85532
100
AcDbEntity
  8
JISSEN
100
AcDbLine
 10
269.5000824459613
 20
71.65966661776653
 30
0.0
 11
269.5000824459613
 21
74.31389232333498
 31
0.0
  0
LINE
  5
EF7C87F71
330
EF7C85532
100
AcDbEntity
  8
JISSEN
100
AcDbLine
 10
270.0000824459613
 20
74.81389232333498
 30
0.0
 11
272.0000824459613
 21
74.81389232333498
 31
0.0
  0
LINE
  5
EF7C87F72
330
EF7C85532
100
AcDbEntity
  8
JISSEN
100
AcDbLine
 10
277.9885833098516
 20
72.62743740371213
 30
0.0
 11
277.0807846536145
 21
75.12159371313508
 31
0.0
  0
LINE
  5
EF7C87F73
330
EF7C85532
100
AcDbEntity
  8
JISSEN
100
AcDbLine
 10
272.5000824459613
 20
74.31389232333498
 30
0.0
 11
272.5000824459613
 21
71.65966661776653
 31
0.0
  0
ARC
  5
EF7C87F74
330
EF7C85532
100
AcDbEntity
  8
JISSEN
100
AcDbCircle
 10
271.0000824459612
 20
96.21389232333502
 30
0.0
 40
23.35
100
AcDbArc
 50
286.3167926881416
 51
293.6832073118593
  0
LINE
  5
EF7C87F75
330
EF7C85532
100
AcDbEntity
  8
JISSEN
100
AcDbLine
 10
252.9671388049743
 20
84.64786691955058
 30
0.0
 11
251.9671388049743
 21
86.37991772711945
 31
0.0
  0
LINE
  5
EF7C87F76
330
EF7C85532
100
AcDbEntity
  8
JISSEN
100
AcDbLine
 10
251.2841261030823
 20
86.56293042901095
 30
0.0
 11
248.9854992146824
 21
85.23581757622665
 31
0.0
  0
ARC
  5
EF7C87F77
330
EF7C85532
100
AcDbEntity
  8
JISSEN
100
AcDbCircle
 10
271.0000824459612
 20
96.21389232333502
 30
0.0
 40
23.35
100
AcDbArc
 50
206.3167926881408
 51
213.6832073118586
  0
LINE
  5
EF7C87F78
330
EF7C85532
100
AcDbEntity
  8
JISSEN
100
AcDbLine
 10
252.7841261030824
 20
83.96485421765762
 30
0.0
 11
250.4854992146825
 21
82.6377413648734
 31
0.0
  0
ARC
  5
EF7C87F79
330
EF7C85532
100
AcDbEntity
  8
JISSEN
100
AcDbCircle
 10
271.0000824459612
 20
96.21389232333502
 30
0.0
 40
23.35
100
AcDbArc
 50
226.3167926881411
 51
233.6832073118584
  0
ARC
  5
EF7C87F7A
330
EF7C85532
100
AcDbEntity
  8
JISSEN
100
AcDbCircle
 10
256.156989350707
 20
80.0803066287159
 30
0.0
 40
0.5
100
AcDbArc
 50
49.99999999999985
 51
139.9999999999996
  0
LINE
  5
EF7C87F7B
330
EF7C85532
100
AcDbEntity
  8
JISSEN
100
AcDbLine
 10
254.0678637322966
 20
78.3684455810249
 30
0.0
 11
255.7739671291475
 21
80.40170043355917
 31
0.0
  0
LINE
  5
EF7C87F7C
330
EF7C85532
100
AcDbEntity
  8
JISSEN
100
AcDbLine
 10
256.4783831555503
 20
80.46332885027537
 30
0.0
 11
258.0104720417883
 21
79.17775363090232
 31
0.0
  0
LINE
  5
EF7C87F7D
330
EF7C85532
100
AcDbEntity
  8
JISSEN
100
AcDbLine
 10
258.0721004585045
 20
78.47333760449956
 30
0.0
 11
256.3659970616536
 21
76.44008275196529
 31
0.0
  0
ARC
  5
EF7C87F7E
330
EF7C85532
100
AcDbEntity
  8
JISSEN
100
AcDbCircle
 10
257.689078236945
 20
78.79473140934283
 30
0.0
 40
0.5
100
AcDbArc
 50
319.9999999999996
 51
49.99999999999997
  0
ARC
  5
EF7C87F7F
330
EF7C85532
100
AcDbEntity
  8
JISSEN
100
AcDbCircle
 10
252.5341261030821
 20
84.39786691955054
 30
0.0
 40
0.5
100
AcDbArc
 50
299.9999999999999
 51
29.99999999999968
  0
ARC
  5
EF7C87F80
330
EF7C85532
100
AcDbEntity
  8
JISSEN
100
AcDbCircle
 10
271.0000824459612
 20
96.21389232333502
 30
0.0
 40
23.35
100
AcDbArc
 50
186.3167926881409
 51
193.683207311859
  0
LINE
  5
EF7C87F81
330
EF7C85532
100
AcDbEntity
  8
JISSEN
100
AcDbLine
 10
249.751548353833
 20
93.48262907427494
 30
0.0
 11
250.0988447091669
 21
91.51301356825053
 31
0.0
  0
ARC
  5
EF7C87F82
330
EF7C85532
100
AcDbEntity
  8
JISSEN
100
AcDbCircle
 10
249.6064408326608
 20
91.42618947941704
 30
0.0
 40
0.5
100
AcDbArc
 50
280.0
 51
9.99999999999984
  0
LINE
  5
EF7C87F83
330
EF7C85532
100
AcDbEntity
  8
JISSEN
100
AcDbLine
 10
249.6932649214943
 20
90.93378560291094
 30
0.0
 11
247.079362868406
 21
90.47288414602226
 31
0.0
  0
ARC
  5
EF7C87F84
330
EF7C85532
100
AcDbEntity
  8
JISSEN
100
AcDbCircle
 10
244.5000824459613
 20
96.21389232333502
 30
0.0
 40
1.0
100
AcDbArc
 50
271.0811165961095
 51
89.99999999999511
  0
ARC
  5
EF7C87F85
330
EF7C85532
100
AcDbEntity
  8
JISSEN
100
AcDbCircle
 10
249.259144477327
 20
93.39580498544146
 30
0.0
 40
0.5
100
AcDbArc
 50
9.99999999999984
 51
100.0000000000001
  0
LINE
  5
EF7C87F86
330
EF7C85532
100
AcDbEntity
  8
JISSEN
100
AcDbLine
 10
246.5584183354053
 20
93.42730740505889
 30
0.0
 11
249.1723203884935
 21
93.88820886194755
 31
0.0
  0
ARC
  5
EF7C87F87
330
EF7C85532
100
AcDbEntity
  8
JISSEN
100
AcDbCircle
 10
251.5341261030819
 20
86.12991772711945
 30
0.0
 40
0.5
100
AcDbArc
 50
29.99999999999968
 51
119.9999999999999
  0
TEXT
  5
EF7C87F88
330
EF7C85532
100
AcDbEntity
  8
JISSEN
100
AcDbText
 10
267.4350576087352
 20
86.41464307029581
 30
0.0
 40
2.0
  1
E
 50
346.3146387206513
  7
K
100
AcDbText
  0
TEXT
  5
EF7C87F89
330
EF7C85532
100
AcDbEntity
  8
JISSEN
100
AcDbText
 10
269.9840336106574
 20
85.83591888062928
 30
0.0
 40
2.0
  1
N
 50
0.7146387206514535
  7
K
100
AcDbText
  0
TEXT
  5
EF7C87F8A
330
EF7C85532
100
AcDbEntity
  8
JISSEN
100
AcDbText
 10
272.596851697668
 20
85.90928092988441
 30
0.0
 40
2.0
  1
J
 50
15.11463872065157
  7
K
100
AcDbText
  0
ARC
  5
EF7C87F8B
330
EF7C85532
100
AcDbEntity
  8
JISSEN
100
AcDbCircle
 10
262.5701486863432
 20
75.97664407144927
 30
0.0
 40
0.5
100
AcDbArc
 50
70.00000000000003
 51
159.9999999999998
  0
LINE
  5
EF7C87F8C
330
EF7C85532
100
AcDbEntity
  8
JISSEN
100
AcDbLine
 10
262.741158758006
 20
76.44649038184221
 30
0.0
 11
264.6205439995778
 21
75.7624500951909
 31
0.0
  0
LINE
  5
EF7C87F8D
330
EF7C85532
100
AcDbEntity
  8
JISSEN
100
AcDbLine
 10
277.3796208923446
 20
75.76245009519087
 30
0.0
 11
279.2590061339164
 21
76.44649038184221
 31
0.0
  0
ARC
  5
EF7C87F8E
330
EF7C85532
100
AcDbEntity
  8
JISSEN
100
AcDbCircle
 10
279.4300162055793
 20
75.97664407144927
 30
0.0
 40
0.5
100
AcDbArc
 50
20.00000000000047
 51
110.0
  0
TEXT
  5
EF7C87F8F
330
EF7C85532
100
AcDbEntity
  8
JISSEN
100
AcDbText
 10
265.1100852285801
 20
87.60909012964857
 30
0.0
 40
2.0
  1
S
 50
331.9146387206517
  7
K
100
AcDbText
  0
LINE
  5
EF7C87F90
330
EF7C85532
100
AcDbEntity
  8
TENSEN
100
AcDbLine
 10
264.865536662833
 20
91.03950390477221
 30
0.0
 11
263.1627727586341
 21
89.20904082495949
 31
0.0
  0
TEXT
  5
EF7C87F91
330
EF7C85532
100
AcDbEntity
  8
JISSEN
100
AcDbText
 10
280.1403578834129
 20
91.1949230127348
 30
0.0
 40
2.0
  1
M
 50
67.53492401650309
  7
K
100
AcDbText
  0
TEXT
  5
EF7C87F92
330
EF7C85532
100
AcDbEntity
  8
JISSEN
100
AcDbText
 10
275.1093389000871
 20
86.63011961069974
 30
0.0
 40
2.0
  1
U
 50
29.5146387206516
  7
K
100
AcDbText
  0
TEXT
  5
EF7C87F93
330
EF7C85532
100
AcDbEntity
  8
JISSEN
100
AcDbText
 10
281.419008272946
 20
95.78883629759578
 30
0.0
 40
2.0
  1
J
 50
93.97015126691426
  7
K
100
AcDbText
  0
TEXT
  5
EF7C87F94
330
EF7C85532
100
AcDbEntity
  8
JISSEN
100
AcDbText
 10
281.1013662342915
 20
93.62569723006179
 30
0.0
 40
2.0
  1
F
 50
81.93492401650244
  7
K
100
AcDbText
  0
LINE
  5
EF7C87F95
330
EF7C85532
100
AcDbEntity
  8
JISSEN
100
AcDbLine
 10
277.9885833098516
 20
119.8003472429578
 30
0.0
 11
277.0807846536145
 21
117.3061909335349
 31
0.0
  0
LINE
  5
EF7C87F96
330
EF7C85532
100
AcDbEntity
  8
JISSEN
100
AcDbLine
 10
272.5000824459605
 20
118.113892323335
 30
0.0
 11
272.5000824459604
 21
120.7681180289035
 31
0.0
  0
LINE
  5
EF7C87F97
330
EF7C85532
100
AcDbEntity
  8
JISSEN
100
AcDbLine
 10
269.5000824459603
 20
118.113892323335
 30
0.0
 11
269.5000824459603
 21
120.7681180289034
 31
0.0
  0
LINE
  5
EF7C87F98
330
EF7C85532
100
AcDbEntity
  8
JISSEN
100
AcDbLine
 10
264.919380238308
 20
117.3061909335349
 30
0.0
 11
264.0115815820708
 21
119.8003472429578
 31
0.0
  0
LINE
  5
EF7C87F99
330
EF7C85532
100
AcDbEntity
  8
JISSEN
100
AcDbLine
 10
261.192503719713
 20
118.7742868129809
 30
0.0
 11
262.1003023759503
 21
116.2801305035579
 31
0.0
  0
LINE
  5
EF7C87F9A
330
EF7C85532
100
AcDbEntity
  8
TENSEN
100
AcDbLine
 10
263.2996128463344
 20
97.44472793046828
 30
0.0
 11
260.944380685261
 21
98.28310819469564
 31
0.0
  0
ARC
  5
EF7C87F9B
330
EF7C85532
100
AcDbEntity
  8
JISSEN
100
AcDbCircle
 10
271.0000824459612
 20
96.21389232333502
 30
0.0
 40
23.35
100
AcDbArc
 50
146.3167926881409
 51
153.6832073118586
  0
ARC
  5
EF7C87F9C
330
EF7C85532
100
AcDbEntity
  8
JISSEN
100
AcDbCircle
 10
252.5341261030821
 20
108.0299177271194
 30
0.0
 40
0.5
100
AcDbArc
 50
330.0000000000002
 51
60.00000000000002
  0
LINE
  5
EF7C87F9D
330
EF7C85532
100
AcDbEntity
  8
JISSEN
100
AcDbLine
 10
251.284126103082
 20
105.8648542176584
 30
0.0
 11
248.985499214682
 21
107.1919670704426
 31
0.0
  0
LINE
  5
EF7C87F9E
330
EF7C85532
100
AcDbEntity
  8
JISSEN
100
AcDbLine
 10
249.6932649214943
 20
101.4939990437591
 30
0.0
 11
247.079362868406
 21
101.9549005006477
 31
0.0
  0
LINE
  5
EF7C87F9F
330
EF7C85532
100
AcDbEntity
  8
JISSEN
100
AcDbLine
 10
249.751548353833
 20
98.94515557239515
 30
0.0
 11
250.0988447091669
 21
100.9147710784194
 31
0.0
  0
ARC
  5
EF7C87FA0
330
EF7C85532
100
AcDbEntity
  8
JISSEN
100
AcDbCircle
 10
271.0000824459612
 20
96.21389232333502
 30
0.0
 40
23.35
100
AcDbArc
 50
166.3167926881409
 51
173.6832073118588
  0
ARC
  5
EF7C87FA1
330
EF7C85532
100
AcDbEntity
  8
JISSEN
100
AcDbCircle
 10
249.259144477327
 20
99.0319796612286
 30
0.0
 40
0.5
100
AcDbArc
 50
259.9999999999998
 51
350.0000000000001
  0
LINE
  5
EF7C87FA2
330
EF7C85532
100
AcDbEntity
  8
JISSEN
100
AcDbLine
 10
246.5584183354053
 20
99.00047724161119
 30
0.0
 11
249.1723203884935
 21
98.5395757847225
 31
0.0
  0
ARC
  5
EF7C87FA3
330
EF7C85532
100
AcDbEntity
  8
JISSEN
100
AcDbCircle
 10
249.6064408326608
 20
101.0015951672529
 30
0.0
 40
0.5
100
AcDbArc
 50
349.9999999999997
 51
79.99999999999982
  0
LINE
  5
EF7C87FA4
330
EF7C85532
100
AcDbEntity
  8
JISSEN
100
AcDbLine
 10
252.9671388049743
 20
107.7799177271195
 30
0.0
 11
251.9671388049743
 21
106.0478669195505
 31
0.0
  0
ARC
  5
EF7C87FA5
330
EF7C85532
100
AcDbEntity
  8
JISSEN
100
AcDbCircle
 10
251.534126103082
 20
106.2978669195505
 30
0.0
 40
0.5
100
AcDbArc
 50
240.0
 51
330.0000000000002
  0
LINE
  5
EF7C87FA6
330
EF7C85532
100
AcDbEntity
  8
JISSEN
100
AcDbLine
 10
250.4854992146821
 20
109.790043281796
 30
0.0
 11
252.784126103082
 21
108.4629304290117
 31
0.0
  0
LINE
  5
EF7C87FA7
330
EF7C85532
100
AcDbEntity
  8
JISSEN
100
AcDbLine
 10
254.0678637322966
 20
114.059339065645
 30
0.0
 11
255.7739671291475
 21
112.0260842131107
 31
0.0
  0
ARC
  5
EF7C87FA8
330
EF7C85532
100
AcDbEntity
  8
JISSEN
100
AcDbCircle
 10
257.689078236945
 20
113.6330532373271
 30
0.0
 40
0.5
100
AcDbArc
 50
310.0
 51
40.00000000000013
  0
ARC
  5
EF7C87FA9
330
EF7C85532
100
AcDbEntity
  8
JISSEN
100
AcDbCircle
 10
271.0000824459612
 20
96.21389232333502
 30
0.0
 40
23.35
100
AcDbArc
 50
126.3167926881414
 51
133.6832073118584
  0
ARC
  5
EF7C87FAA
330
EF7C85532
100
AcDbEntity
  8
JISSEN
100
AcDbCircle
 10
256.156989350707
 20
112.3474780179541
 30
0.0
 40
0.5
100
AcDbArc
 50
220.0000000000001
 51
310.0
  0
LINE
  5
EF7C87FAB
330
EF7C85532
100
AcDbEntity
  8
JISSEN
100
AcDbLine
 10
256.4783831555503
 20
111.9644557963946
 30
0.0
 11
258.0104720417883
 21
113.2500310157677
 31
0.0
  0
LINE
  5
EF7C87FAC
330
EF7C85532
100
AcDbEntity
  8
JISSEN
100
AcDbLine
 10
258.0721004585045
 20
113.9544470421705
 30
0.0
 11
256.3659970616536
 21
115.9877018947047
 31
0.0
  0
ARC
  5
EF7C87FAD
330
EF7C85532
100
AcDbEntity
  8
TENSEN
100
AcDbCircle
 10
271.6601671885455
 20
98.3040184384469
 30
0.0
 40
8.500000000000026
100
AcDbArc
 50
31.99754643072468
 51
98.66140110221756
  0
ARC
  5
EF7C87FAE
330
EF7C85532
100
AcDbEntity
  8
TENSEN
100
AcDbCircle
 10
271.6601671885455
 20
98.3040184384469
 30
0.0
 40
6.000000000000007
100
AcDbArc
 50
31.99754643072468
 51
98.66140110221756
  0
TEXT
  5
EF7C87FAF
330
EF7C85532
100
AcDbEntity
  8
JISSEN
100
AcDbText
 10
264.6863204731826
 20
104.5127535563189
 30
0.0
 40
2.0
  1
S
 50
223.5701512669141
  7
K
100
AcDbText
  0
TEXT
  5
EF7C87FB0
330
EF7C85532
100
AcDbEntity
  8
JISSEN
100
AcDbText
 10
262.820836052126
 20
102.6818608175503
 30
0.0
 40
2.0
  1
P
 50
237.970151266915
  7
K
100
AcDbText
  0
TEXT
  5
EF7C87FB1
330
EF7C85532
100
AcDbEntity
  8
JISSEN
100
AcDbText
 10
266.9485217793811
 20
105.8221983227424
 30
0.0
 40
2.0
  1
S
 50
209.1701512669144
  7
K
100
AcDbText
  0
LINE
  5
EF7C87FB2
330
EF7C85532
100
AcDbEntity
  8
TENSEN
100
AcDbLine
 10
270.7565980313471
 20
104.2355918197817
 30
0.0
 11
270.3801108825146
 21
106.7070807286712
 31
0.0
  0
LINE
  5
EF7C87FB3
330
EF7C85532
100
AcDbEntity
  8
TENSEN
100
AcDbLine
 10
276.7485919167767
 20
101.4833161258499
 30
0.0
 11
278.8687688868731
 21
102.808023495601
 31
0.0
  0
LINE
  5
EF7C87FB4
330
EF7C85532
100
AcDbEntity
  8
JISSEN
100
AcDbLine
 10
280.8929135729418
 20
99.36383879238102
 30
0.0
 11
281.2302884944642
 21
98.26229463193838
 31
0.0
  0
TEXT
  5
EF7C87FB5
330
EF7C85532
100
AcDbEntity
  8
JISSEN
100
AcDbText
 10
281.2569134875866
 20
98.09328185102096
 30
0.0
 40
2.0
  1
ll
 50
106.6896186288549
  7
K
100
AcDbText
  0
LINE
  5
EF7C87FB6
330
EF7C85532
100
AcDbEntity
  8
JISSEN
100
AcDbLine
 10
278.9545424186491
 20
98.82431535448299
 30
0.0
 11
279.3054485041061
 21
97.67859134051414
 31
0.0
  0
ARC
  5
EF7C87FB7
330
EF7C85532
100
AcDbEntity
  8
JISSEN
100
AcDbCircle
 10
272.0000824459613
 20
118.113892323335
 30
0.0
 40
0.5
100
AcDbArc
 50
270.0
 51
0.0
  0
ARC
  5
EF7C87FB8
330
EF7C85532
100
AcDbEntity
  8
JISSEN
100
AcDbCircle
 10
271.0000824459612
 20
96.21389232333502
 30
0.0
 40
23.35
100
AcDbArc
 50
106.3167926881415
 51
113.6832073118593
  0
ARC
  5
EF7C87FB9
330
EF7C85532
100
AcDbEntity
  8
JISSEN
100
AcDbCircle
 10
264.449533927915
 20
117.1351808618721
 30
0.0
 40
0.5
100
AcDbArc
 50
290.0
 51
20.00000000000012
  0
ARC
  5
EF7C87FBA
330
EF7C85532
100
AcDbEntity
  8
JISSEN
100
AcDbCircle
 10
262.5701486863432
 20
116.4511405752207
 30
0.0
 40
0.5
100
AcDbArc
 50
200.0
 51
290.0
  0
LINE
  5
EF7C87FBB
330
EF7C85532
100
AcDbEntity
  8
JISSEN
100
AcDbLine
 10
262.741158758006
 20
115.9812942648278
 30
0.0
 11
264.6205439995778
 21
116.665334551479
 31
0.0
  0
ARC
  5
EF7C87FBC
330
EF7C85532
100
AcDbEntity
  8
JISSEN
100
AcDbCircle
 10
270.0000824459613
 20
118.113892323335
 30
0.0
 40
0.5
100
AcDbArc
 50
180.0
 51
270.0
  0
LINE
  5
EF7C87FBD
330
EF7C85532
100
AcDbEntity
  8
JISSEN
100
AcDbLine
 10
270.0000824459613
 20
117.6138923233349
 30
0.0
 11
272.0000824459613
 21
117.6138923233349
 31
0.0
  0
LINE
  5
EF7C87FBE
330
EF7C85532
100
AcDbEntity
  8
JISSEN
100
AcDbLine
 10
277.3796208923446
 20
116.665334551479
 30
0.0
 11
279.2590061339164
 21
115.9812942648278
 31
0.0
  0
ARC
  5
EF7C87FBF
330
EF7C85532
100
AcDbEntity
  8
JISSEN
100
AcDbCircle
 10
277.5506309640074
 20
117.1351808618721
 30
0.0
 40
0.5
100
AcDbArc
 50
159.9999999999995
 51
249.9999999999999
  0
ARC
  5
EF7C87FC0
330
EF7C85532
100
AcDbEntity
  8
JISSEN
100
AcDbCircle
 10
271.0000824459612
 20
96.21389232333502
 30
0.0
 40
23.35
100
AcDbArc
 50
66.3167926881405
 51
73.68320731185844
  0
LINE
  5
EF7C87FC1
330
EF7C85532
100
AcDbEntity
  8
JISSEN
100
AcDbLine
 10
279.8998625159723
 20
116.2801305035579
 30
0.0
 11
280.8076611722095
 21
118.7742868129809
 31
0.0
  0
ARC
  5
EF7C87FC2
330
EF7C85532
100
AcDbEntity
  8
JISSEN
100
AcDbCircle
 10
279.4300162055793
 20
116.4511405752207
 30
0.0
 40
0.5
100
AcDbArc
 50
249.9999999999999
 51
339.9999999999995
  0
ARC
  5
EF7C87FC3
330
EF7C85532
100
AcDbEntity
  8
JISSEN
100
AcDbCircle
 10
271.0000824459612
 20
96.21389232333502
 30
0.0
 40
23.35
100
AcDbArc
 50
86.31679268814295
 51
93.68320731186031
  0
ARC
  5
EF7C87FC4
330
EF7C85532
100
AcDbEntity
  8
JISSEN
100
AcDbCircle
 10
271.0000824459612
 20
96.21389232333502
 30
0.0
 40
23.35
100
AcDbArc
 50
86.31679268814295
 51
93.68320731186031
  0
ARC
  5
EF7C87FC5
330
EF7C85532
100
AcDbEntity
  8
JISSEN
100
AcDbCircle
 10
271.0000824459612
 20
96.21389232333502
 30
0.0
 40
23.35
100
AcDbArc
 50
86.3167926881413
 51
93.68320731185866
  0
ARC
  5
EF7C87FC6
330
EF7C85532
100
AcDbEntity
  8
JISSEN
100
AcDbCircle
 10
271.0000824459612
 20
122.713892323335
 30
0.0
 40
1.0
100
AcDbArc
 50
181.0811165961094
 51
358.9188834038903
  0
LINE
  5
EF7C87FC7
330
EF7C85532
100
AcDbEntity
  8
JISSEN
100
AcDbLine
 10
290.0330260869483
 20
86.37991772711945
 30
0.0
 11
289.0330260869483
 21
84.64786691955053
 31
0.0
  0
LINE
  5
EF7C87FC8
330
EF7C85532
100
AcDbEntity
  8
JISSEN
100
AcDbLine
 10
290.7160387888408
 20
86.56293042901237
 30
0.0
 11
293.0146656772409
 21
85.23581757622819
 31
0.0
  0
LINE
  5
EF7C87FC9
330
EF7C85532
100
AcDbEntity
  8
JISSEN
100
AcDbLine
 10
286.226197762775
 20
80.40170043355917
 30
0.0
 11
287.9323011596259
 21
78.36844558102495
 31
0.0
  0
LINE
  5
EF7C87FCA
330
EF7C85532
100
AcDbEntity
  8
JISSEN
100
AcDbLine
 10
283.9896928501342
 20
79.17775363090232
 30
0.0
 11
285.5217817363722
 21
80.46332885027537
 31
0.0
  0
LINE
  5
EF7C87FCB
330
EF7C85532
100
AcDbEntity
  8
JISSEN
100
AcDbLine
 10
285.634167830269
 20
76.44008275196519
 30
0.0
 11
283.928064433418
 21
78.47333760449956
 31
0.0
  0
ARC
  5
EF7C87FCC
330
EF7C85532
100
AcDbEntity
  8
JISSEN
100
AcDbCircle
 10
271.0000824459612
 20
96.21389232333502
 30
0.0
 40
23.35
100
AcDbArc
 50
306.3167926881415
 51
313.6832073118586
  0
ARC
  5
EF7C87FCD
330
EF7C85532
100
AcDbEntity
  8
JISSEN
100
AcDbCircle
 10
284.3110866549773
 20
78.79473140934283
 30
0.0
 40
0.5
100
AcDbArc
 50
129.9999999999999
 51
220.0000000000003
  0
ARC
  5
EF7C87FCE
330
EF7C85532
100
AcDbEntity
  8
JISSEN
100
AcDbCircle
 10
285.8431755412155
 20
80.0803066287159
 30
0.0
 40
0.5
100
AcDbArc
 50
40.00000000000013
 51
129.9999999999999
  0
ARC
  5
EF7C87FCF
330
EF7C85532
100
AcDbEntity
  8
JISSEN
100
AcDbCircle
 10
271.0000824459612
 20
96.21389232333498
 30
0.0
 40
23.35
100
AcDbArc
 50
326.3167926881409
 51
333.6832073118586
  0
ARC
  5
EF7C87FD0
330
EF7C85532
100
AcDbEntity
  8
JISSEN
100
AcDbCircle
 10
289.4660387888404
 20
84.39786691955054
 30
0.0
 40
0.5
100
AcDbArc
 50
150.0000000000003
 51
239.9999999999999
  0
LINE
  5
EF7C87FD1
330
EF7C85532
100
AcDbEntity
  8
JISSEN
100
AcDbLine
 10
289.2160387888409
 20
83.964854217659
 30
0.0
 11
291.514665677241
 21
82.63774136487482
 31
0.0
  0
LINE
  5
EF7C87FD2
330
EF7C85532
100
AcDbEntity
  8
JISSEN
100
AcDbLine
 10
294.9208020235163
 20
90.4728841460222
 30
0.0
 11
292.3068999704282
 21
90.93378560291091
 31
0.0
  0
LINE
  5
EF7C87FD3
330
EF7C85532
100
AcDbEntity
  8
JISSEN
100
AcDbLine
 10
292.827844503429
 20
93.88820886194752
 30
0.0
 11
295.4417465565171
 21
93.42730740505883
 31
0.0
  0
LINE
  5
EF7C87FD4
330
EF7C85532
100
AcDbEntity
  8
JISSEN
100
AcDbLine
 10
291.9013201827556
 20
91.51301356825049
 30
0.0
 11
292.2486165380894
 21
93.48262907427487
 31
0.0
  0
ARC
  5
EF7C87FD5
330
EF7C85532
100
AcDbEntity
  8
JISSEN
100
AcDbCircle
 10
292.3937240592617
 20
91.42618947941702
 30
0.0
 40
0.5
100
AcDbArc
 50
170.0
 51
259.9999999999998
  0
ARC
  5
EF7C87FD6
330
EF7C85532
100
AcDbEntity
  8
JISSEN
100
AcDbCircle
 10
290.4660387888404
 20
86.12991772711941
 30
0.0
 40
0.5
100
AcDbArc
 50
60.00000000000002
 51
150.0000000000003
  0
ARC
  5
EF7C87FD7
330
EF7C85532
100
AcDbEntity
  8
JISSEN
100
AcDbCircle
 10
292.7410204145954
 20
93.39580498544142
 30
0.0
 40
0.5
100
AcDbArc
 50
79.9999999999998
 51
169.9999999999996
  0
ARC
  5
EF7C87FD8
330
EF7C85532
100
AcDbEntity
  8
JISSEN
100
AcDbCircle
 10
271.0000824459612
 20
96.21389232333502
 30
0.0
 40
23.35
100
AcDbArc
 50
346.316792688141
 51
353.6832073118588
  0
ARC
  5
EF7C87FD9
330
EF7C85532
100
AcDbEntity
  8
JISSEN
100
AcDbCircle
 10
297.5000824459613
 20
96.21389232333502
 30
0.0
 40
1.0
100
AcDbArc
 50
91.0811165961128
 51
268.9188834038871
  0
ARC
  5
EF7C87FDA
330
EF7C85532
100
AcDbEntity
  8
JISSEN
100
AcDbCircle
 10
271.0000824459612
 20
96.21389232333502
 30
0.0
 40
23.35
100
AcDbArc
 50
26.31679268814094
 51
33.68320731185875
  0
ARC
  5
EF7C87FDB
330
EF7C85532
100
AcDbEntity
  8
JISSEN
100
AcDbCircle
 10
289.4660387888404
 20
108.0299177271194
 30
0.0
 40
0.5
100
AcDbArc
 50
119.9999999999999
 51
209.9999999999988
  0
LINE
  5
EF7C87FDC
330
EF7C85532
100
AcDbEntity
  8
JISSEN
100
AcDbLine
 10
294.9208020235163
 20
101.9549005006477
 30
0.0
 11
292.3068999704282
 21
101.4939990437591
 31
0.0
  0
LINE
  5
EF7C87FDD
330
EF7C85532
100
AcDbEntity
  8
JISSEN
100
AcDbLine
 10
292.827844503429
 20
98.5395757847225
 30
0.0
 11
295.4417465565171
 21
99.00047724161119
 31
0.0
  0
LINE
  5
EF7C87FDE
330
EF7C85532
100
AcDbEntity
  8
JISSEN
100
AcDbLine
 10
291.9013201827556
 20
100.9147710784194
 30
0.0
 11
292.2486165380894
 21
98.94515557239515
 31
0.0
  0
ARC
  5
EF7C87FDF
330
EF7C85532
100
AcDbEntity
  8
JISSEN
100
AcDbCircle
 10
292.7410204145954
 20
99.0319796612286
 30
0.0
 40
0.5
100
AcDbArc
 50
189.9999999999998
 51
280.0
  0
ARC
  5
EF7C87FE0
330
EF7C85532
100
AcDbEntity
  8
JISSEN
100
AcDbCircle
 10
292.3937240592617
 20
101.0015951672529
 30
0.0
 40
0.5
100
AcDbArc
 50
100.0000000000001
 51
189.9999999999998
  0
LINE
  5
EF7C87FE1
330
EF7C85532
100
AcDbEntity
  8
JISSEN
100
AcDbLine
 10
289.0330260869483
 20
107.7799177271194
 30
0.0
 11
290.0330260869482
 21
106.0478669195505
 31
0.0
  0
ARC
  5
EF7C87FE2
330
EF7C85532
100
AcDbEntity
  8
JISSEN
100
AcDbCircle
 10
290.4660387888404
 20
106.2978669195504
 30
0.0
 40
0.5
100
AcDbArc
 50
209.9999999999995
 51
299.9999999999999
  0
LINE
  5
EF7C87FE3
330
EF7C85532
100
AcDbEntity
  8
JISSEN
100
AcDbLine
 10
290.7160387888404
 20
105.8648542176582
 30
0.0
 11
293.0146656772405
 21
107.1919670704426
 31
0.0
  0
ARC
  5
EF7C87FE4
330
EF7C85532
100
AcDbEntity
  8
JISSEN
100
AcDbCircle
 10
271.0000824459612
 20
96.21389232333502
 30
0.0
 40
23.35
100
AcDbArc
 50
6.316792688141076
 51
13.68320731185901
  0
ARC
  5
EF7C87FE5
330
EF7C85532
100
AcDbEntity
  8
JISSEN
100
AcDbCircle
 10
271.0000824459612
 20
96.21389232333502
 30
0.0
 40
23.35
100
AcDbArc
 50
6.316792688141076
 51
13.68320731185856
  0
LINE
  5
EF7C87FE6
330
EF7C85532
100
AcDbEntity
  8
JISSEN
100
AcDbLine
 10
286.226197762775
 20
112.0260842131107
 30
0.0
 11
287.9323011596259
 21
114.059339065645
 31
0.0
  0
ARC
  5
EF7C87FE7
330
EF7C85532
100
AcDbEntity
  8
JISSEN
100
AcDbCircle
 10
271.0000824459612
 20
96.21389232333502
 30
0.0
 40
23.35
100
AcDbArc
 50
46.31679268814124
 51
53.68320731185839
  0
ARC
  5
EF7C87FE8
330
EF7C85532
100
AcDbEntity
  8
JISSEN
100
AcDbCircle
 10
284.3110866549776
 20
113.6330532373271
 30
0.0
 40
0.5
100
AcDbArc
 50
139.9999999999996
 51
230.0
  0
LINE
  5
EF7C87FE9
330
EF7C85532
100
AcDbEntity
  8
JISSEN
100
AcDbLine
 10
283.9896928501342
 20
113.2500310157677
 30
0.0
 11
285.5217817363722
 21
111.9644557963946
 31
0.0
  0
ARC
  5
EF7C87FEA
330
EF7C85532
100
AcDbEntity
  8
JISSEN
100
AcDbCircle
 10
285.8431755412155
 20
112.3474780179541
 30
0.0
 40
0.5
100
AcDbArc
 50
230.0
 51
319.9999999999998
  0
LINE
  5
EF7C87FEB
330
EF7C85532
100
AcDbEntity
  8
JISSEN
100
AcDbLine
 10
291.5146656772405
 20
109.7900432817959
 30
0.0
 11
289.2160387888404
 21
108.4629304290116
 31
0.0
  0
LINE
  5
EF7C87FEC
330
EF7C85532
100
AcDbEntity
  8
JISSEN
100
AcDbLine
 10
285.634167830269
 20
115.9877018947047
 30
0.0
 11
283.9280644334181
 21
113.9544470421704
 31
0.0
  0
LWPOLYLINE
  5
EF7C87FED
330
EF7C85532
100
AcDbEntity
  8
NITEN
100
AcDbPolyline
 90
        2
 70
     0
 43
0.0
 10
287.9999990079488
 20
249.2768607685617
 42
0.5882352941176295
 10
270.9999990079487
 20
249.2768607685619
 42
0.5882352941176295
  0
LWPOLYLINE
  5
EF7C87FEE
330
EF7C85532
100
AcDbEntity
  8
NITEN
100
AcDbPolyline
 90
        5
 70
     0
 43
0.0
 10
287.9999990079486
 20
228.4391431174157
 10
287.9999990079486
 20
249.2768607685617
 42
-0.5882352941176476
 10
270.9999990079487
 20
249.2768607685617
 42
0.5882352941176477
 10
253.9999990079486
 20
249.2768607685614
 10
253.9999990079486
 20
228.4391431174157
  0
LINE
  5
EF7C87FEF
330
EF7C85532
100
AcDbEntity
  8
JISSEN
100
AcDbLine
 10
282.7500824459617
 20
151.6285942116853
 30
0.0
 11
284.2500824459614
 21
153.1285942116847
 31
0.0
  0
LINE
  5
EF7C87FF0
330
EF7C85532
100
AcDbEntity
  8
JISSEN
100
AcDbLine
 10
284.2500824459618
 20
154.6285942116851
 30
0.0
 11
271.0000824459648
 21
154.6285942116875
 31
0.0
  0
LINE
  5
EF7C87FF1
330
EF7C85532
100
AcDbEntity
  8
JISSEN
100
AcDbLine
 10
271.0000824459648
 20
157.2427118893489
 30
0.0
 11
283.5500824459621
 21
157.2427118893471
 31
0.0
1001
ACAD
1000
ASC_BOUNDS
1002
{
1070
    19
1002
}
  0
LINE
  5
EF7C87FF2
330
EF7C85532
100
AcDbEntity
  8
JISSEN
100
AcDbLine
 10
284.2500824459614
 20
153.1285942116847
 30
0.0
 11
271.0000824459648
 21
153.1285942116847
 31
0.0
  0
LINE
  5
EF7C87FF3
330
EF7C85532
100
AcDbEntity
  8
JISSEN
100
AcDbLine
 10
271.0000824459648
 20
158.992711889349
 30
0.0
 11
285.5292854625664
 21
158.9927118893488
 31
0.0
1001
ACAD
1000
ASC_BOUNDS
1002
{
1070
    19
1002
}
  0
LWPOLYLINE
  5
EF7C87FF4
330
EF7C85532
100
AcDbEntity
  8
NITEN
100
AcDbPolyline
 90
       15
 70
     1
 43
0.0
 10
256.9999990079486
 20
187.9391431174157
 42
0.4142135623730927
 10
258.4999990079485
 20
186.4391431174158
 10
281.5940501789452
 20
186.4391431174158
 10
283.4999990079487
 20
186.4391431174158
 42
0.4142135623730925
 10
284.9999990079487
 20
187.9391431174157
 10
284.9999990079487
 20
198.9851591436338
 42
-0.4142135623730943
 10
289.9999990079487
 20
203.9851591436338
 42
0.4142135623730951
 10
291.9999990079487
 20
205.9851591436338
 10
291.9999990079485
 20
226.4391431174157
 42
0.4142135623730949
 10
289.9999990079487
 20
228.4391431174157
 10
251.9999990079486
 20
228.4391431174157
 42
0.4142135623730951
 10
249.9999990079486
 20
226.4391431174157
 10
249.9999990079486
 20
205.9851591436338
 42
0.4142135623730951
 10
251.9999990079486
 20
203.9851591436338
 42
-0.4142135623730961
 10
256.9999990079486
 20
198.9851591436338
  0
LINE
  5
EF7C87FF5
330
EF7C85532
100
AcDbEntity
  8
JISSEN
100
AcDbLine
 10
339.7336679970742
 20
188.3285942116884
 30
0.0
 11
281.441330413072
 21
188.3285942116883
 31
0.0
  0
LINE
  5
EF7C87FF6
330
EF7C85532
100
AcDbEntity
  8
JISSEN
100
AcDbLine
 10
281.5975883629136
 20
183.3285942116884
 30
0.0
 11
336.2759049636443
 21
183.3285942116884
 31
0.0
  0
LINE
  5
EF7C87FF7
330
EF7C85532
100
AcDbEntity
  8
JISSEN
100
AcDbLine
 10
272.0000824459648
 20
179.8285942116884
 30
0.0
 11
297.5000824459648
 21
179.8285942116884
 31
0.0
  0
LINE
  5
EF7C87FF8
330
EF7C85532
100
AcDbEntity
  8
JISSEN
100
AcDbLine
 10
297.5000824459648
 20
172.8285942116884
 30
0.0
 11
272.0000824459648
 21
172.8285942116884
 31
0.0
  0
LINE
  5
EF7C87FF9
330
EF7C85532
100
AcDbEntity
  8
JISSEN
100
AcDbLine
 10
296.5000824459648
 20
171.8285942116884
 30
0.0
 11
271.0000824459648
 21
171.8285942116884
 31
0.0
  0
HATCH
  5
EF7C87FFB
330
EF7C85532
100
AcDbEntity
  8
HATCH
100
AcDbHatch
 10
0.0
 20
0.0
 30
0.0
210
0.0
220
0.0
230
1.0
  2
_U
 70
     0
 71
     0
 91
        2
 92
        7
 72
     0
 73
     1
 93
       16
 10
288.5000824459648
 20
188.3285942116884
 10
288.5000824459648
 20
183.3285942116884
 10
297.3500824459646
 20
183.3285942116884
 10
336.2759049636443
 20
183.3285942116884
 10
336.3091291581397
 20
183.4131439682524
 10
336.5837092213436
 20
184.0767627555433
 10
336.9139658140579
 20
184.6143337531715
 10
337.295101840408
 20
185.037554141796
 10
337.7052742532014
 20
185.3788672334206
 10
338.1226400052501
 20
185.6707163400509
 10
338.5253560493572
 20
185.9455447736871
 10
338.8915793383369
 20
186.2357958463373
 10
339.1994668249961
 20
186.5739128700042
 10
339.4271754621438
 20
186.992339156692
 10
339.5690808188242
 20
187.5089571334555
 10
339.7336679970742
 20
188.3285942116884
 97
        0
 92
        7
 72
     0
 73
     1
 93
       15
 10
202.2663300188233
 20
188.3285942116884
 10
202.4309171970733
 20
187.5089571334566
 10
202.5728225537535
 20
186.992339156692
 10
202.8005311909014
 20
186.5739128700043
 10
203.1084186775605
 20
186.2357958463373
 10
203.4746419665409
 20
185.9455447736873
 10
203.8773580106515
 20
185.6707163400471
 10
204.2947237626964
 20
185.3788672334206
 10
204.7048961754898
 20
185.0375541417959
 10
205.0860322018392
 20
184.6143337531718
 10
205.4162887945537
 20
184.0767627555434
 10
205.6908688577564
 20
183.4131439682545
 10
205.7240930522531
 20
183.3285942116884
 10
253.5000824459646
 20
183.3285942116884
 10
253.5000824459646
 20
188.3285942116885
 97
        0
 75
     0
 76
     0
 52
45.0
 41
2.0
 77
     0
 78
     1
 53
45.0
 43
180.9999990079486
 44
3.000000051135883
 45
-1.414213562373094
 46
1.414213562373094
 79
     0
 47
0.2346837798524018
 98
        2
 10
298.2263864977932
 20
186.184226047344
 10
247.2585812041372
 20
186.8882771011151
  0
LINE
  5
EF7C87FFC
330
EF7C85532
100
AcDbEntity
  8
JISSEN
100
AcDbLine
 10
253.5000824459648
 20
188.3285942116884
 30
0.0
 11
253.5000824459648
 21
183.3285942116884
 31
0.0
  0
LINE
  5
EF7C87FFD
330
EF7C85532
100
AcDbEntity
  8
SAISEN
100
AcDbLine
 10
261.5408494459646
 20
182.5693612116884
 30
0.0
 11
262.033349292698
 21
198.328594211692
 31
0.0
  0
LINE
  5
EF7C87FFE
330
EF7C85532
100
AcDbEntity
  8
JISSEN
100
AcDbLine
 10
260.8349377245999
 20
197.1634485670188
 30
0.0
 11
260.3413634459648
 21
181.3698752116884
 31
0.0
  0
LINE
  5
EF7C87FFF
330
EF7C85532
100
AcDbEntity
  8
JISSEN
100
AcDbLine
 10
281.1652271673296
 20
197.1634485670188
 30
0.0
 11
281.6588014459646
 21
181.3698752116884
 31
0.0
  0
LINE
  5
EF7C88000
330
EF7C85532
100
AcDbEntity
  8
SAISEN
100
AcDbLine
 10
280.4593154459647
 20
182.5693612116884
 30
0.0
 11
279.9668155992315
 21
198.328594211692
 31
0.0
  0
LWPOLYLINE
  5
EF7C88001
330
EF7C85532
100
AcDbEntity
  8
HATCH
100
AcDbPolyline
 90
       13
 70
     0
 43
0.0
 10
202.2663300188233
 20
188.3285942116884
 10
202.4309171970731
 20
187.5089571334562
 10
202.5728225537535
 20
186.992339156692
 10
202.8005311909014
 20
186.5739128700042
 10
203.1084186775606
 20
186.2357958463373
 10
203.4746419665402
 20
185.9455447736871
 10
203.8773580106489
 20
185.6707163400496
 10
204.2947237626957
 20
185.3788672334206
 10
204.7048961754895
 20
185.0375541417959
 10
205.0860322018392
 20
184.6143337531715
 10
205.4162887945537
 20
184.0767627555433
 10
205.6908688577566
 20
183.4131439682558
 10
205.7240930522531
 20
183.3285942116884
  0
LINE
  5
EF7C88002
330
EF7C85532
100
AcDbEntity
  8
JISSEN
100
AcDbLine
 10
260.4025765290159
 20
183.3285942116884
 30
0.0
 11
205.7240930522531
 21
183.3285942116884
 31
0.0
  0
LINE
  5
EF7C88003
330
EF7C85532
100
AcDbEntity
  8
JISSEN
100
AcDbLine
 10
256.4708794293629
 20
158.9927118893488
 30
0.0
 11
247.9454768201253
 21
163.0012078310594
 31
0.0
1001
ACAD
1000
ASC_BOUNDS
1002
{
1070
    19
1002
}
  0
LINE
  5
EF7C88004
330
EF7C85532
100
AcDbEntity
  8
JISSEN
100
AcDbLine
 10
262.0545436191965
 20
156.7740723663481
 30
0.0
 11
261.4043515996946
 21
155.6871031926881
 31
0.0
  0
LINE
  5
EF7C88005
330
EF7C85532
100
AcDbEntity
  8
JISSEN
100
AcDbLine
 10
261.4759886239986
 20
155.4112300453864
 30
0.0
 11
262.3119384095202
 21
154.9285942116869
 31
0.0
  0
LINE
  5
EF7C88006
330
EF7C85532
100
AcDbEntity
  8
JISSEN
100
AcDbLine
 10
257.7500824459681
 20
153.1285942116847
 30
0.0
 11
271.0000824459648
 21
153.1285942116847
 31
0.0
  0
LINE
  5
EF7C88007
330
EF7C85532
100
AcDbEntity
  8
JISSEN
100
AcDbLine
 10
271.0000824459648
 20
157.2427118893489
 30
0.0
 11
258.4500824459673
 21
157.2427118893471
 31
0.0
1001
ACAD
1000
ASC_BOUNDS
1002
{
1070
    19
1002
}
  0
LINE
  5
EF7C88008
330
EF7C85532
100
AcDbEntity
  8
JISSEN
100
AcDbLine
 10
268.0000824459685
 20
151.6285942116869
 30
0.0
 11
259.250082445968
 21
151.6285942116853
 31
0.0
  0
LINE
  5
EF7C88009
330
EF7C85532
100
AcDbEntity
  8
JISSEN
100
AcDbLine
 10
257.7500824459679
 20
154.6285942116851
 30
0.0
 11
271.0000824459648
 21
154.6285942116875
 31
0.0
  0
LINE
  5
EF7C8800A
330
EF7C85532
100
AcDbEntity
  8
JISSEN
100
AcDbLine
 10
271.0000824459648
 20
158.992711889349
 30
0.0
 11
256.4708794293629
 21
158.9927118893488
 31
0.0
1001
ACAD
1000
ASC_BOUNDS
1002
{
1070
    19
1002
}
  0
LINE
  5
EF7C8800B
330
EF7C85532
100
AcDbEntity
  8
JISSEN
100
AcDbLine
 10
257.7500824459679
 20
154.6285942116846
 30
0.0
 11
257.7500824459681
 21
153.1285942116847
 31
0.0
  0
LINE
  5
EF7C8800C
330
EF7C85532
100
AcDbEntity
  8
JISSEN
100
AcDbLine
 10
259.250082445968
 20
151.6285942116853
 30
0.0
 11
257.7500824459681
 21
153.1285942116847
 31
0.0
  0
ARC
  5
EF7C8800D
330
EF7C85532
100
AcDbEntity
  8
JISSEN
100
AcDbCircle
 10
261.5759886239988
 20
155.5844351261433
 30
0.0
 40
0.2
100
AcDbArc
 50
149.1134150964279
 51
240.0000000000111
  0
ARC
  5
EF7C8800E
330
EF7C85532
100
AcDbEntity
  8
JISSEN
100
AcDbCircle
 10
258.4500824459673
 20
157.4427118893469
 30
0.0
 40
0.2
100
AcDbArc
 50
180.0000000000114
 51
270.000000000008
1001
ACAD
1000
ASC_BOUNDS
1002
{
1070
    19
1002
}
  0
LINE
  5
EF7C8800F
330
EF7C85532
100
AcDbEntity
  8
JISSEN
100
AcDbLine
 10
258.2500824459671
 20
158.992711889349
 30
0.0
 11
258.2500824459673
 21
157.4427118893456
 31
0.0
1001
ACAD
1000
ASC_BOUNDS
1002
{
1070
    19
1002
}
  0
LINE
  5
EF7C88010
330
EF7C85532
100
AcDbEntity
  8
JISSEN
100
AcDbLine
 10
274.0000824459613
 20
151.6285942116869
 30
0.0
 11
271.0000824459612
 21
151.6285942116875
 31
0.0
  0
LINE
  5
EF7C88011
330
EF7C85532
100
AcDbEntity
  8
JISSEN
100
AcDbLine
 10
268.5000824459649
 20
154.6285942116869
 30
0.0
 11
268.5000824459649
 21
157.2427118893485
 31
0.0
  0
LINE
  5
EF7C88012
330
EF7C85532
100
AcDbEntity
  8
JISSEN
100
AcDbLine
 10
262.5851434902771
 20
155.0017992924437
 30
0.0
 11
262.8775646301523
 21
155.5082875639149
 31
0.0
  0
LINE
  5
EF7C88013
330
EF7C85532
100
AcDbEntity
  8
JISSEN
100
AcDbLine
 10
262.8775646301521
 20
157.2427118893476
 30
0.0
 11
262.8775646301525
 21
154.6285942116861
 31
0.0
  0
LINE
  5
EF7C88014
330
EF7C85532
100
AcDbEntity
  8
JISSEN
100
AcDbLine
 10
264.7500824459679
 20
154.6285942116863
 30
0.0
 11
264.7500824459673
 21
157.242711889348
 31
0.0
  0
ARC
  5
EF7C88015
330
EF7C85532
100
AcDbEntity
  8
JISSEN
100
AcDbCircle
 10
262.4119384095203
 20
155.1017992924436
 30
0.0
 40
0.2
100
AcDbArc
 50
240.0000000000111
 51
330.00000000001
  0
LINE
  5
EF7C88016
330
EF7C85532
100
AcDbEntity
  8
JISSEN
100
AcDbLine
 10
268.0000824459684
 20
151.6285942116869
 30
0.0
 11
271.0000824459684
 21
151.6285942116875
 31
0.0
  0
LINE
  5
EF7C88017
330
EF7C85532
100
AcDbEntity
  8
JISSEN
100
AcDbLine
 10
264.7500824459676
 20
155.7749338849486
 30
0.0
 11
268.5000824459649
 21
156.0471300809923
 31
0.0
  0
ARC
  5
EF7C88018
330
EF7C85532
100
AcDbEntity
  8
JISSEN
100
AcDbCircle
 10
262.9127287407141
 20
156.2607320336254
 30
0.0
 40
1.0
100
AcDbArc
 50
100.8935918178675
 51
149.1134150964159
  0
LINE
  5
EF7C88019
330
EF7C85532
100
AcDbEntity
  8
JISSEN
100
AcDbLine
 10
273.5000824459648
 20
154.6285942116869
 30
0.0
 11
273.5000824459647
 21
157.2427118893485
 31
0.0
  0
LINE
  5
EF7C8801A
330
EF7C85532
100
AcDbEntity
  8
JISSEN
100
AcDbLine
 10
279.4150214016525
 20
155.0017992924437
 30
0.0
 11
279.1226002617772
 21
155.5082875639149
 31
0.0
  0
LINE
  5
EF7C8801B
330
EF7C85532
100
AcDbEntity
  8
JISSEN
100
AcDbLine
 10
277.2500824459618
 20
154.6285942116863
 30
0.0
 11
277.2500824459624
 21
157.242711889348
 31
0.0
  0
LINE
  5
EF7C8801C
330
EF7C85532
100
AcDbEntity
  8
JISSEN
100
AcDbLine
 10
279.1226002617776
 20
157.2427118893476
 30
0.0
 11
279.122600261777
 21
154.6285942116861
 31
0.0
  0
LINE
  5
EF7C8801D
330
EF7C85532
100
AcDbEntity
  8
JISSEN
100
AcDbLine
 10
280.524176267931
 20
155.4112300453864
 30
0.0
 11
279.6882264824093
 21
154.9285942116869
 31
0.0
  0
LINE
  5
EF7C8801E
330
EF7C85532
100
AcDbEntity
  8
JISSEN
100
AcDbLine
 10
274.0000824459611
 20
151.6285942116869
 30
0.0
 11
282.7500824459617
 21
151.6285942116853
 31
0.0
  0
ARC
  5
EF7C8801F
330
EF7C85532
100
AcDbEntity
  8
JISSEN
100
AcDbCircle
 10
279.5882264824094
 20
155.1017992924436
 30
0.0
 40
0.2
100
AcDbArc
 50
209.99999999999
 51
299.9999999999887
  0
LINE
  5
EF7C88020
330
EF7C85532
100
AcDbEntity
  8
JISSEN
100
AcDbLine
 10
277.250082445962
 20
155.7749338849486
 30
0.0
 11
273.5000824459648
 21
156.0471300809923
 31
0.0
  0
ARC
  5
EF7C88021
330
EF7C85532
100
AcDbEntity
  8
JISSEN
100
AcDbCircle
 10
280.424176267931
 20
155.5844351261433
 30
0.0
 40
0.2
100
AcDbArc
 50
299.9999999999887
 51
30.88658490357206
  0
ARC
  5
EF7C88022
330
EF7C85532
100
AcDbEntity
  8
JISSEN
100
AcDbCircle
 10
279.0874361512155
 20
156.2607320336254
 30
0.0
 40
1.0
100
AcDbArc
 50
30.88658490358405
 51
79.10640818213234
  0
LINE
  5
EF7C88023
330
EF7C85532
100
AcDbEntity
  8
JISSEN
100
AcDbLine
 10
279.9456212727331
 20
156.7740723663481
 30
0.0
 11
280.5958132922349
 21
155.6871031926881
 31
0.0
  0
ARC
  5
EF7C88024
330
EF7C85532
100
AcDbEntity
  8
JISSEN
100
AcDbCircle
 10
261.8797254459648
 20
170.0785942116884
 30
0.0
 40
0.25
100
AcDbArc
 50
90.0
 51
181.994368
  0
LINE
  5
EF7C88025
330
EF7C85532
100
AcDbEntity
  8
JISSEN
100
AcDbLine
 10
263.8189164459648
 20
170.3285942116884
 30
0.0
 11
261.5039254459647
 21
170.3285942116884
 31
0.0
  0
ARC
  5
EF7C88026
330
EF7C85532
100
AcDbEntity
  8
JISSEN
100
AcDbCircle
 10
262.4302714459648
 20
163.9855902116884
 30
0.0
 40
1.0
100
AcDbArc
 50
182.1404319999997
 51
216.8971619999997
  0
LINE
  5
EF7C88028
330
EF7C85532
100
AcDbEntity
  8
JISSEN
100
AcDbLine
 10
245.5000824459648
 20
171.8285942116884
 30
0.0
 11
271.0000824459648
 21
171.8285942116884
 31
0.0
  0
LINE
  5
EF7C88029
330
EF7C85532
100
AcDbEntity
  8
JISSEN
100
AcDbLine
 10
244.5000824459647
 20
172.8285942116884
 30
0.0
 11
270.0000824459648
 21
172.8285942116884
 31
0.0
  0
LINE
  5
EF7C8802A
330
EF7C85532
100
AcDbEntity
  8
JISSEN
100
AcDbLine
 10
270.0000824459648
 20
179.8285942116884
 30
0.0
 11
244.5000824459647
 21
179.8285942116884
 31
0.0
  0
LINE
  5
EF7C8802B
330
EF7C85532
100
AcDbEntity
  8
JISSEN
100
AcDbLine
 10
271.0000824459648
 20
182.5693612116884
 30
0.0
 11
260.3788494459648
 21
182.5693612116884
 31
0.0
  0
LINE
  5
EF7C8802C
330
EF7C85532
100
AcDbEntity
  8
JISSEN
100
AcDbLine
 10
246.4000824459648
 20
171.8285942116884
 30
0.0
 11
246.5313154459648
 21
170.3285942116884
 31
0.0
  0
LINE
  5
EF7C8802D
330
EF7C85532
100
AcDbEntity
  8
JISSEN
100
AcDbLine
 10
250.2416064459648
 20
163.3079232116884
 30
0.0
 11
251.6297054459648
 21
162.5777102116884
 31
0.0
  0
ARC
  5
EF7C8802E
330
EF7C85532
100
AcDbEntity
  8
JISSEN
100
AcDbCircle
 10
251.1181634459648
 20
164.1354932116884
 30
0.0
 40
0.5
100
AcDbArc
 50
185.0389269999999
 51
279.3495549999998
  0
LINE
  5
EF7C8802F
330
EF7C85532
100
AcDbEntity
  8
JISSEN
100
AcDbLine
 10
251.0942734459648
 20
163.9061442116884
 30
0.0
 11
250.5261654459648
 21
170.1467262116884
 31
0.0
  0
LINE
  5
EF7C88030
330
EF7C85532
100
AcDbEntity
  8
JISSEN
100
AcDbLine
 10
246.5313154459648
 20
170.3285942116884
 30
0.0
 11
247.0516694459648
 21
164.3809172116883
 31
0.0
  0
LINE
  5
EF7C88031
330
EF7C85532
100
AcDbEntity
  8
JISSEN
100
AcDbLine
 10
246.7617584459647
 20
169.9080302116884
 30
0.0
 11
247.3495884459648
 21
164.4457812116884
 31
0.0
  0
LINE
  5
EF7C88032
330
EF7C85532
100
AcDbEntity
  8
JISSEN
100
AcDbLine
 10
247.8765914459648
 20
164.3894922116884
 30
0.0
 11
247.2446604459648
 21
170.2615302116884
 31
0.0
  0
LINE
  5
EF7C88033
330
EF7C85532
100
AcDbEntity
  8
JISSEN
100
AcDbLine
 10
249.0269204459647
 20
169.8909072116884
 30
0.0
 11
249.5526224459648
 21
164.3359612116884
 31
0.0
  0
LINE
  5
EF7C88034
330
EF7C85532
100
AcDbEntity
  8
JISSEN
100
AcDbLine
 10
250.0893414459647
 20
170.1110272116884
 30
0.0
 11
250.6200954459647
 21
164.0915772116884
 31
0.0
  0
LINE
  5
EF7C88035
330
EF7C85532
100
AcDbEntity
  8
JISSEN
100
AcDbLine
 10
250.1351754459648
 20
162.6493312116884
 30
0.0
 11
248.6233164459648
 21
163.3487222116883
 31
0.0
  0
ARC
  5
EF7C88036
330
EF7C85532
100
AcDbEntity
  8
JISSEN
100
AcDbCircle
 10
250.8468394459648
 20
164.4584422116884
 30
0.0
 40
1.3
100
AcDbArc
 50
185.4061850000002
 51
242.2532620000001
  0
ARC
  5
EF7C88037
330
EF7C85532
100
AcDbEntity
  8
JISSEN
100
AcDbCircle
 10
250.0405084459647
 20
163.5539522116884
 30
0.0
 40
1.0
100
AcDbArc
 50
245.1745949999999
 51
270.0
  0
LINE
  5
EF7C88038
330
EF7C85532
100
AcDbEntity
  8
JISSEN
100
AcDbLine
 10
250.0405084459647
 20
162.5539522116883
 30
0.0
 11
250.1141834459648
 21
162.5539522116883
 31
0.0
  0
ARC
  5
EF7C88039
330
EF7C85532
100
AcDbEntity
  8
JISSEN
100
AcDbCircle
 10
250.1141834459648
 20
162.6039522116884
 30
0.0
 40
0.05
100
AcDbArc
 50
270.0
 51
65.17459499999998
  0
ARC
  5
EF7C8803A
330
EF7C85532
100
AcDbEntity
  8
JISSEN
100
AcDbCircle
 10
248.7415514459648
 20
164.5955802116884
 30
0.0
 40
1.399999999999999
100
AcDbArc
 50
186.1423570000001
 51
245.1745949999999
  0
ARC
  5
EF7C8803B
330
EF7C85532
100
AcDbEntity
  8
JISSEN
100
AcDbCircle
 10
248.545961775502
 20
164.375768785825
 30
0.0
 40
1.5
100
AcDbArc
 50
184.9999999999998
 51
249.9999999999999
  0
LINE
  5
EF7C8803C
330
EF7C85532
100
AcDbEntity
  8
JISSEN
100
AcDbLine
 10
248.1537554459648
 20
163.3249522116884
 30
0.0
 11
249.6206534459648
 21
162.6463602116884
 31
0.0
  0
ARC
  5
EF7C8803D
330
EF7C85532
100
AcDbEntity
  8
JISSEN
100
AcDbCircle
 10
249.1691274459648
 20
164.5285912116883
 30
0.0
 40
1.3
100
AcDbArc
 50
186.1423570000001
 51
245.1745949999999
  0
ARC
  5
EF7C8803E
330
EF7C85532
100
AcDbEntity
  8
JISSEN
100
AcDbCircle
 10
250.3269884459648
 20
170.1285942116884
 30
0.0
 40
0.2
100
AcDbArc
 50
5.201559000000131
 51
90.0
  0
LINE
  5
EF7C8803F
330
EF7C85532
100
AcDbEntity
  8
JISSEN
100
AcDbLine
 10
250.3269884459648
 20
170.3285942116884
 30
0.0
 11
249.4251414459648
 21
170.3285942116884
 31
0.0
  0
ARC
  5
EF7C88040
330
EF7C85532
100
AcDbEntity
  8
JISSEN
100
AcDbCircle
 10
249.4251414459648
 20
169.9285942116883
 30
0.0
 40
0.4
100
AcDbArc
 50
90.0
 51
185.4061850000002
  0
ARC
  5
EF7C88041
330
EF7C85532
100
AcDbEntity
  8
JISSEN
100
AcDbCircle
 10
250.2885684459648
 20
170.1285942116884
 30
0.0
 40
0.2
100
AcDbArc
 50
90.0
 51
185.0389269999999
  0
ARC
  5
EF7C88042
330
EF7C85532
100
AcDbEntity
  8
JISSEN
100
AcDbCircle
 10
247.1452344459648
 20
170.2508302116884
 30
0.0
 40
0.1
100
AcDbArc
 50
6.142357000000121
 51
87.28209800000021
  0
ARC
  5
EF7C88043
330
EF7C85532
100
AcDbEntity
  8
JISSEN
100
AcDbCircle
 10
247.1594614459648
 20
169.9508302116884
 30
0.0
 40
0.4
100
AcDbArc
 50
91.35885499999906
 51
186.1423570000001
  0
LINE
  5
EF7C88044
330
EF7C85532
100
AcDbEntity
  8
JISSEN
100
AcDbLine
 10
261.2041354459648
 20
170.0173892116884
 30
0.0
 11
261.4309694459648
 21
163.9482412116884
 31
0.0
  0
LINE
  5
EF7C88045
330
EF7C85532
100
AcDbEntity
  8
JISSEN
100
AcDbLine
 10
254.8938424459648
 20
170.0090022116883
 30
0.0
 11
255.2864854459648
 21
164.0093712116884
 31
0.0
  0
LINE
  5
EF7C88046
330
EF7C85532
100
AcDbEntity
  8
JISSEN
100
AcDbLine
 10
254.4982054459647
 20
164.2020392116884
 30
0.0
 11
254.0941714459648
 21
169.9540692116883
 31
0.0
  0
LINE
  5
EF7C88047
330
EF7C85532
100
AcDbEntity
  8
JISSEN
100
AcDbLine
 10
256.3790614459648
 20
170.1426082116884
 30
0.0
 11
256.8228684459648
 21
163.8243422116884
 31
0.0
  0
LINE
  5
EF7C88048
330
EF7C85532
100
AcDbEntity
  8
JISSEN
100
AcDbLine
 10
255.6856314459648
 20
163.6354932116884
 30
0.0
 11
256.8857834459648
 21
163.6354932116884
 31
0.0
  0
LINE
  5
EF7C88049
330
EF7C85532
100
AcDbEntity
  8
JISSEN
100
AcDbLine
 10
257.9224474459647
 20
162.5317152116884
 30
0.0
 11
256.2068144459648
 21
162.5317152116884
 31
0.0
  0
ARC
  5
EF7C8804A
330
EF7C85532
100
AcDbEntity
  8
JISSEN
100
AcDbCircle
 10
256.2068144459648
 20
162.8817152116884
 30
0.0
 40
0.35
100
AcDbArc
 50
234.6729319999993
 51
270.0
  0
LINE
  5
EF7C8804B
330
EF7C85532
100
AcDbEntity
  8
JISSEN
100
AcDbLine
 10
251.8159314459648
 20
162.5317152116884
 30
0.0
 11
252.8122504459648
 21
162.5317152116884
 31
0.0
  0
ARC
  5
EF7C8804C
330
EF7C85532
100
AcDbEntity
  8
JISSEN
100
AcDbCircle
 10
255.6952554459648
 20
164.2861222116883
 30
0.0
 40
1.199999999999999
100
AcDbArc
 50
184.0179690000003
 51
234.6729319999993
  0
ARC
  5
EF7C8804D
330
EF7C85532
100
AcDbEntity
  8
JISSEN
100
AcDbCircle
 10
252.8122504459648
 20
162.6317152116883
 30
0.0
 40
0.1
100
AcDbArc
 50
270.0
 51
62.25326200000026
  0
LINE
  5
EF7C8804E
330
EF7C85532
100
AcDbEntity
  8
JISSEN
100
AcDbLine
 10
256.0044294459647
 20
162.5961632116884
 30
0.0
 11
255.0013634459648
 21
163.3070852116884
 31
0.0
  0
ARC
  5
EF7C8804F
330
EF7C85532
100
AcDbEntity
  8
JISSEN
100
AcDbCircle
 10
255.6856314459648
 20
164.0354932116883
 30
0.0
 40
0.4
100
AcDbArc
 50
183.7443620000003
 51
270.0
  0
ARC
  5
EF7C88050
330
EF7C85532
100
AcDbEntity
  8
JISSEN
100
AcDbCircle
 10
251.5922144459648
 20
163.9514742116884
 30
0.0
 40
0.5
100
AcDbArc
 50
185.201559
 51
242.2532620000001
  0
LINE
  5
EF7C88051
330
EF7C85532
100
AcDbEntity
  8
JISSEN
100
AcDbLine
 10
252.8588074459647
 20
162.7202172116884
 30
0.0
 11
251.3594324459648
 21
163.5089672116883
 31
0.0
  0
ARC
  5
EF7C88052
330
EF7C85532
100
AcDbEntity
  8
JISSEN
100
AcDbCircle
 10
251.8159314459648
 20
162.9317152116884
 30
0.0
 40
0.4
100
AcDbArc
 50
242.2532620000001
 51
270.0
  0
ARC
  5
EF7C88053
330
EF7C85532
100
AcDbEntity
  8
JISSEN
100
AcDbCircle
 10
257.9224474459647
 20
162.6817152116884
 30
0.0
 40
0.15
100
AcDbArc
 50
270.0
 51
54.67293199999947
  0
ARC
  5
EF7C88054
330
EF7C85532
100
AcDbEntity
  8
JISSEN
100
AcDbCircle
 10
257.2218854459648
 20
163.8523702116883
 30
0.0
 40
0.4
100
AcDbArc
 50
184.0179690000003
 51
234.6729319999993
  0
LINE
  5
EF7C88055
330
EF7C85532
100
AcDbEntity
  8
JISSEN
100
AcDbLine
 10
256.9905884459648
 20
163.5260242116884
 30
0.0
 11
258.0091834459648
 21
162.8040952116884
 31
0.0
  0
ARC
  5
EF7C88056
330
EF7C85532
100
AcDbEntity
  8
JISSEN
100
AcDbCircle
 10
256.1795524459648
 20
170.1285942116884
 30
0.0
 40
0.2
100
AcDbArc
 50
4.017969000000285
 51
90.0
  0
ARC
  5
EF7C88057
330
EF7C85532
100
AcDbEntity
  8
JISSEN
100
AcDbCircle
 10
255.1932014459648
 20
170.0285942116884
 30
0.0
 40
0.3
100
AcDbArc
 50
90.0
 51
183.7443620000003
  0
ARC
  5
EF7C88058
330
EF7C85532
100
AcDbEntity
  8
JISSEN
100
AcDbCircle
 10
254.4433104459648
 20
169.9785942116884
 30
0.0
 40
0.35
100
AcDbArc
 50
90.0
 51
184.0179690000003
  0
LINE
  5
EF7C88059
330
EF7C85532
100
AcDbEntity
  8
JISSEN
100
AcDbLine
 10
254.4433104459648
 20
170.3285942116884
 30
0.0
 11
255.1932014459648
 21
170.3285942116884
 31
0.0
  0
LINE
  5
EF7C8805A
330
EF7C85532
100
AcDbEntity
  8
JISSEN
100
AcDbLine
 10
255.1932014459648
 20
170.3285942116884
 30
0.0
 11
256.1795524459648
 21
170.3285942116884
 31
0.0
  0
ARC
  5
EF7C8805B
330
EF7C85532
100
AcDbEntity
  8
JISSEN
100
AcDbCircle
 10
261.5039254459647
 20
170.0285942116884
 30
0.0
 40
0.3
100
AcDbArc
 50
90.0
 51
182.1404319999997
  0
LINE
  5
EF7C8805C
330
EF7C85532
100
AcDbEntity
  8
JISSEN
100
AcDbLine
 10
244.5000824459647
 20
180.1785942116884
 30
0.0
 11
244.5000824459647
 21
172.8285942116884
 31
0.0
  0
LINE
  5
EF7C8805D
330
EF7C85532
100
AcDbEntity
  8
JISSEN
100
AcDbLine
 10
245.5000824459648
 20
171.8285942116884
 30
0.0
 11
246.4000824459648
 21
171.8285942116884
 31
0.0
  0
LINE
  5
EF7C8805E
330
EF7C85532
100
AcDbEntity
  8
JISSEN
100
AcDbLine
 10
244.5000824459647
 20
172.8285942116884
 30
0.0
 11
245.5000824459648
 21
171.8285942116884
 31
0.0
  0
LINE
  5
EF7C88060
102
{ACAD_REACTORS
330
EF7C880FC
102
}
330
EF7C85532
100
AcDbEntity
  8
JISSEN
100
AcDbLine
 10
259.3000824459648
 20
180.3285942116884
 30
0.0
 11
260.3413634459648
 21
181.3698752116884
 31
0.0
  0
LINE
  5
EF7C88061
330
EF7C85532
100
AcDbEntity
  8
SAISEN
100
AcDbLine
 10
260.3413634459648
 20
181.3698752116884
 30
0.0
 11
261.5408494459646
 21
182.5693612116884
 31
0.0
  0
ARC
  5
EF7C88062
330
EF7C85532
100
AcDbEntity
  8
JISSEN
100
AcDbCircle
 10
271.0000824459648
 20
172.8285942116884
 30
0.0
 40
1.0
100
AcDbArc
 50
180.0
 51
270.0
  0
ARC
  5
EF7C88063
330
EF7C85532
100
AcDbEntity
  8
JISSEN
100
AcDbCircle
 10
271.0000824459648
 20
172.8285942116884
 30
0.0
 40
1.0
100
AcDbArc
 50
270.0
 51
0.000000000000007
  0
ARC
  5
EF7C88064
330
EF7C85532
100
AcDbEntity
  8
JISSEN
100
AcDbCircle
 10
272.0000824459648
 20
169.8285942116884
 30
0.0
 40
0.5
100
AcDbArc
 50
0.000000000000007
 51
90.0
  0
ARC
  5
EF7C88065
330
EF7C85532
100
AcDbEntity
  8
JISSEN
100
AcDbCircle
 10
272.0000824459648
 20
164.1354932116884
 30
0.0
 40
0.5
100
AcDbArc
 50
270.0
 51
0.000000000000007
  0
ARC
  5
EF7C88066
330
EF7C85532
100
AcDbEntity
  8
JISSEN
100
AcDbCircle
 10
272.0000824459648
 20
163.0317152116884
 30
0.0
 40
0.5
100
AcDbArc
 50
270.0
 51
0.000000000000007
  0
LINE
  5
EF7C88067
330
EF7C85532
100
AcDbEntity
  8
JISSEN
100
AcDbLine
 10
269.5000824459648
 20
169.8285942116884
 30
0.0
 11
269.5000824459648
 21
163.0317152116884
 31
0.0
  0
LINE
  5
EF7C88068
330
EF7C85532
100
AcDbEntity
  8
JISSEN
100
AcDbLine
 10
261.6298774459647
 20
170.0698932116883
 30
0.0
 11
261.8438554459647
 21
163.9250532116884
 31
0.0
  0
LINE
  5
EF7C88069
330
EF7C85532
100
AcDbEntity
  8
JISSEN
100
AcDbLine
 10
264.2582294459647
 20
163.7293182116883
 30
0.0
 11
264.0187774459648
 21
170.1360642116883
 31
0.0
  0
LINE
  5
EF7C8806A
330
EF7C85532
100
AcDbEntity
  8
JISSEN
100
AcDbLine
 10
262.4212234459648
 20
162.5317152116884
 30
0.0
 11
264.6901524459648
 21
162.5317152116884
 31
0.0
  0
ARC
  5
EF7C8806B
330
EF7C85532
100
AcDbEntity
  8
JISSEN
100
AcDbCircle
 10
264.5580204459648
 20
163.7405222116884
 30
0.0
 40
0.3
100
AcDbArc
 50
182.1404319999997
 51
216.8971619999997
  0
ARC
  5
EF7C8806C
330
EF7C85532
100
AcDbEntity
  8
JISSEN
100
AcDbCircle
 10
264.6901524459648
 20
162.7317152116884
 30
0.0
 40
0.2
100
AcDbArc
 50
270.0
 51
36.89716199999988
  0
LINE
  5
EF7C8806D
330
EF7C85532
100
AcDbEntity
  8
JISSEN
100
AcDbLine
 10
264.8500954459648
 20
162.8517922116884
 30
0.0
 11
264.3181054459648
 21
163.5604082116884
 31
0.0
  0
ARC
  5
EF7C8806E
330
EF7C85532
100
AcDbEntity
  8
JISSEN
100
AcDbCircle
 10
262.1436734459647
 20
163.9354932116884
 30
0.0
 40
0.3
100
AcDbArc
 50
181.994368
 51
270.0
  0
LINE
  5
EF7C8806F
330
EF7C85532
100
AcDbEntity
  8
JISSEN
100
AcDbLine
 10
261.6305574459648
 20
163.3852092116883
 30
0.0
 11
262.1813084459648
 21
162.6516012116884
 31
0.0
  0
LINE
  5
EF7C88070
330
EF7C85532
100
AcDbEntity
  8
JISSEN
100
AcDbLine
 10
262.1436734459647
 20
163.6354932116884
 30
0.0
 11
264.2770064459647
 21
163.6354932116884
 31
0.0
  0
ARC
  5
EF7C88071
330
EF7C85532
100
AcDbEntity
  8
JISSEN
100
AcDbCircle
 10
262.4212234459648
 20
162.8317152116883
 30
0.0
 40
0.3
100
AcDbArc
 50
216.8971619999997
 51
270.0
  0
LINE
  5
EF7C88072
330
EF7C85532
100
AcDbEntity
  8
JISSEN
100
AcDbLine
 10
270.0000824459648
 20
163.6354932116884
 30
0.0
 11
271.0000824459648
 21
163.6354932116884
 31
0.0
  0
LINE
  5
EF7C88073
330
EF7C85532
100
AcDbEntity
  8
JISSEN
100
AcDbLine
 10
271.0000824459648
 20
162.5317152116884
 30
0.0
 11
270.0000824459648
 21
162.5317152116884
 31
0.0
  0
ARC
  5
EF7C88074
330
EF7C85532
100
AcDbEntity
  8
JISSEN
100
AcDbCircle
 10
270.0000824459648
 20
163.0317152116884
 30
0.0
 40
0.5
100
AcDbArc
 50
180.0
 51
270.0
  0
ARC
  5
EF7C88075
330
EF7C85532
100
AcDbEntity
  8
JISSEN
100
AcDbCircle
 10
270.0000824459648
 20
164.1354932116884
 30
0.0
 40
0.5
100
AcDbArc
 50
180.0
 51
270.0
  0
LINE
  5
EF7C88076
330
EF7C85532
100
AcDbEntity
  8
JISSEN
100
AcDbLine
 10
271.0000824459648
 20
162.5317152116884
 30
0.0
 11
272.0000824459648
 21
162.5317152116884
 31
0.0
  0
LINE
  5
EF7C88077
330
EF7C85532
100
AcDbEntity
  8
JISSEN
100
AcDbLine
 10
272.0000824459648
 20
163.6354932116884
 30
0.0
 11
271.0000824459648
 21
163.6354932116884
 31
0.0
  0
ARC
  5
EF7C88078
330
EF7C85532
100
AcDbEntity
  8
JISSEN
100
AcDbCircle
 10
263.8189164459648
 20
170.1285942116884
 30
0.0
 40
0.2
100
AcDbArc
 50
2.140431999999745
 51
90.0
  0
LINE
  5
EF7C88079
330
EF7C85532
100
AcDbEntity
  8
JISSEN
100
AcDbLine
 10
271.0000824459648
 20
170.3285942116884
 30
0.0
 11
270.0000824459648
 21
170.3285942116884
 31
0.0
  0
ARC
  5
EF7C8807A
330
EF7C85532
100
AcDbEntity
  8
JISSEN
100
AcDbCircle
 10
270.0000824459648
 20
169.8285942116884
 30
0.0
 40
0.5
100
AcDbArc
 50
90.0
 51
180.0
  0
LINE
  5
EF7C8807B
330
EF7C85532
100
AcDbEntity
  8
JISSEN
100
AcDbLine
 10
271.0000824459648
 20
170.3285942116884
 30
0.0
 11
272.0000824459648
 21
170.3285942116884
 31
0.0
  0
LINE
  5
EF7C8807C
330
EF7C85532
100
AcDbEntity
  8
JISSEN
100
AcDbLine
 10
280.7960294459646
 20
170.0173892116884
 30
0.0
 11
280.5691954459648
 21
163.9482412116884
 31
0.0
  0
LINE
  5
EF7C8807D
330
EF7C85532
100
AcDbEntity
  8
JISSEN
100
AcDbLine
 10
280.3702874459647
 20
170.0698932116883
 30
0.0
 11
280.1563094459647
 21
163.9250532116884
 31
0.0
  0
LINE
  5
EF7C8807E
330
EF7C85532
100
AcDbEntity
  8
JISSEN
100
AcDbLine
 10
277.7419354459648
 20
163.7293182116883
 30
0.0
 11
277.9813874459648
 21
170.1360642116883
 31
0.0
  0
LINE
  5
EF7C8807F
330
EF7C85532
100
AcDbEntity
  8
JISSEN
100
AcDbLine
 10
272.5000824459648
 20
169.8285942116884
 30
0.0
 11
272.5000824459648
 21
163.0317152116884
 31
0.0
  0
LINE
  5
EF7C88080
330
EF7C85532
100
AcDbEntity
  8
JISSEN
100
AcDbLine
 10
277.1500694459648
 20
162.8517922116884
 30
0.0
 11
277.6820594459648
 21
163.5604082116884
 31
0.0
  0
LINE
  5
EF7C88081
330
EF7C85532
100
AcDbEntity
  8
JISSEN
100
AcDbLine
 10
279.5789414459648
 20
162.5317152116884
 30
0.0
 11
277.3100124459647
 21
162.5317152116884
 31
0.0
  0
ARC
  5
EF7C88082
330
EF7C85532
100
AcDbEntity
  8
JISSEN
100
AcDbCircle
 10
277.3100124459647
 20
162.7317152116884
 30
0.0
 40
0.2
100
AcDbArc
 50
143.1028379999999
 51
270.0
  0
ARC
  5
EF7C88083
330
EF7C85532
100
AcDbEntity
  8
JISSEN
100
AcDbCircle
 10
279.5698934459648
 20
163.9855902116884
 30
0.0
 40
1.0
100
AcDbArc
 50
323.1028380000001
 51
357.8595680000001
  0
ARC
  5
EF7C88084
330
EF7C85532
100
AcDbEntity
  8
JISSEN
100
AcDbCircle
 10
279.5789414459648
 20
162.8317152116883
 30
0.0
 40
0.3
100
AcDbArc
 50
270.0
 51
323.1028380000001
  0
ARC
  5
EF7C88085
330
EF7C85532
100
AcDbEntity
  8
JISSEN
100
AcDbCircle
 10
277.4421444459648
 20
163.7405222116884
 30
0.0
 40
0.3
100
AcDbArc
 50
323.1028380000001
 51
357.8595680000001
  0
LINE
  5
EF7C88086
330
EF7C85532
100
AcDbEntity
  8
JISSEN
100
AcDbLine
 10
279.8564914459648
 20
163.6354932116884
 30
0.0
 11
277.7231584459648
 21
163.6354932116884
 31
0.0
  0
LINE
  5
EF7C88087
330
EF7C85532
100
AcDbEntity
  8
JISSEN
100
AcDbLine
 10
280.3696074459646
 20
163.3852092116883
 30
0.0
 11
279.8188564459648
 21
162.6516012116884
 31
0.0
  0
ARC
  5
EF7C88088
330
EF7C85532
100
AcDbEntity
  8
JISSEN
100
AcDbCircle
 10
279.8564914459648
 20
163.9354932116884
 30
0.0
 40
0.3
100
AcDbArc
 50
270.0
 51
358.0056319999998
  0
ARC
  5
EF7C88089
330
EF7C85532
100
AcDbEntity
  8
JISSEN
100
AcDbCircle
 10
280.4962394459646
 20
170.0285942116884
 30
0.0
 40
0.3
100
AcDbArc
 50
357.8595680000001
 51
90.0
  0
ARC
  5
EF7C8808A
330
EF7C85532
100
AcDbEntity
  8
JISSEN
100
AcDbCircle
 10
280.1204394459647
 20
170.0785942116884
 30
0.0
 40
0.25
100
AcDbArc
 50
358.0056319999998
 51
90.0
  0
ARC
  5
EF7C8808B
330
EF7C85532
100
AcDbEntity
  8
JISSEN
100
AcDbCircle
 10
278.1812484459647
 20
170.1285942116884
 30
0.0
 40
0.2
100
AcDbArc
 50
90.0
 51
177.8595680000002
  0
LINE
  5
EF7C8808C
330
EF7C85532
100
AcDbEntity
  8
JISSEN
100
AcDbLine
 10
278.1812484459647
 20
170.3285942116884
 30
0.0
 11
280.4962394459646
 21
170.3285942116884
 31
0.0
  0
LINE
  5
EF7C8808D
330
EF7C85532
100
AcDbEntity
  8
JISSEN
100
AcDbLine
 10
271.0000824459648
 20
182.5693612116884
 30
0.0
 11
281.6213154459648
 21
182.5693612116884
 31
0.0
  0
LINE
  5
EF7C8808E
330
EF7C85532
100
AcDbEntity
  8
JISSEN
100
AcDbLine
 10
270.0000824459648
 20
179.8285942116884
 30
0.0
 11
270.0000824459648
 21
172.8285942116884
 31
0.0
  0
LINE
  5
EF7C8808F
330
EF7C85532
100
AcDbEntity
  8
JISSEN
100
AcDbLine
 10
272.0000824459648
 20
179.8285942116884
 30
0.0
 11
272.0000824459648
 21
172.8285942116884
 31
0.0
  0
ARC
  5
EF7C88090
330
EF7C85532
100
AcDbEntity
  8
JISSEN
100
AcDbCircle
 10
271.0000824459648
 20
179.0785942116884
 30
0.0
 40
1.25
100
AcDbArc
 50
90.0
 51
143.1301020000003
  0
ARC
  5
EF7C88091
330
EF7C85532
100
AcDbEntity
  8
JISSEN
100
AcDbCircle
 10
271.0000824459648
 20
179.0785942116884
 30
0.0
 40
1.25
100
AcDbArc
 50
36.86989799999964
 51
90.0
  0
LINE
  5
EF7C88092
330
EF7C85532
100
AcDbEntity
  8
SAISEN
100
AcDbLine
 10
281.6588014459646
 20
181.3698752116884
 30
0.0
 11
280.4593154459647
 21
182.5693612116884
 31
0.0
  0
LINE
  5
EF7C88093
102
{ACAD_REACTORS
330
EF7C880FC
102
}
330
EF7C85532
100
AcDbEntity
  8
JISSEN
100
AcDbLine
 10
282.7000824459647
 20
180.3285942116884
 30
0.0
 11
281.6588014459646
 21
181.3698752116884
 31
0.0
  0
LINE
  5
EF7C88094
330
EF7C85532
100
AcDbEntity
  8
JISSEN
100
AcDbLine
 10
202.2663300188233
 20
188.3285942116884
 30
0.0
 11
260.5588344788575
 21
188.3285942116885
 31
0.0
  0
LINE
  5
EF7C88095
330
EF7C85532
100
AcDbEntity
  8
JISSEN
100
AcDbLine
 10
260.7381584459648
 20
197.066669211692
 30
0.0
 11
262.0000824459648
 21
198.328594211692
 31
0.0
  0
LINE
  5
EF7C88096
330
EF7C85532
100
AcDbEntity
  8
JISSEN
100
AcDbLine
 10
260.7381584459648
 20
197.066669211692
 30
0.0
 11
271.0000824459648
 21
197.066669211692
 31
0.0
  0
LINE
  5
EF7C88097
330
EF7C85532
100
AcDbEntity
  8
JISSEN
100
AcDbLine
 10
280.0000824459648
 20
198.328594211692
 30
0.0
 11
271.0000824459648
 21
198.328594211692
 31
0.0
  0
LINE
  5
EF7C88098
330
EF7C85532
100
AcDbEntity
  8
JISSEN
100
AcDbLine
 10
281.2620064459646
 20
197.066669211692
 30
0.0
 11
271.0000824459648
 21
197.066669211692
 31
0.0
  0
LINE
  5
EF7C88099
330
EF7C85532
100
AcDbEntity
  8
JISSEN
100
AcDbLine
 10
262.0000824459648
 20
198.328594211692
 30
0.0
 11
271.0000824459648
 21
198.328594211692
 31
0.0
  0
LINE
  5
EF7C8809A
330
EF7C85532
100
AcDbEntity
  8
JISSEN
100
AcDbLine
 10
281.2620064459646
 20
197.066669211692
 30
0.0
 11
280.0000824459648
 21
198.328594211692
 31
0.0
  0
LWPOLYLINE
  5
EF7C8809B
330
EF7C85532
100
AcDbEntity
  8
HATCH
100
AcDbPolyline
 90
       13
 70
     0
 43
0.0
 10
339.7336679970742
 20
188.3285942116884
 10
339.5690808188243
 20
187.5089571334562
 10
339.4271754621438
 20
186.992339156692
 10
339.199466824996
 20
186.5739128700043
 10
338.8915793383369
 20
186.2357958463373
 10
338.5253560493572
 20
185.9455447736871
 10
338.1226400052486
 20
185.6707163400496
 10
337.7052742532016
 20
185.3788672334206
 10
337.2951018404078
 20
185.0375541417959
 10
336.9139658140582
 20
184.6143337531715
 10
336.5837092213436
 20
184.0767627555434
 10
336.3091291581408
 20
183.4131439682559
 10
336.2759049636443
 20
183.3285942116884
  0
LINE
  5
EF7C8809C
330
EF7C85532
100
AcDbEntity
  8
JISSEN
100
AcDbLine
 10
288.5000824459648
 20
188.3285942116884
 30
0.0
 11
288.5000824459648
 21
183.3285942116884
 31
0.0
  0
LINE
  5
EF7C8809D
330
EF7C85532
100
AcDbEntity
  8
JISSEN
100
AcDbLine
 10
285.5292854625664
 20
158.9927118893488
 30
0.0
 11
294.0546880718041
 21
163.0012078310594
 31
0.0
1001
ACAD
1000
ASC_BOUNDS
1002
{
1070
    19
1002
}
  0
LINE
  5
EF7C8809E
330
EF7C85532
100
AcDbEntity
  8
JISSEN
100
AcDbLine
 10
284.2500824459618
 20
154.6285942116846
 30
0.0
 11
284.2500824459614
 21
153.1285942116847
 31
0.0
  0
LINE
  5
EF7C8809F
330
EF7C85532
100
AcDbEntity
  8
JISSEN
100
AcDbLine
 10
283.7500824459626
 20
158.992711889349
 30
0.0
 11
283.7500824459622
 21
157.4427118893456
 31
0.0
1001
ACAD
1000
ASC_BOUNDS
1002
{
1070
    19
1002
}
  0
ARC
  5
EF7C880A0
330
EF7C85532
100
AcDbEntity
  8
JISSEN
100
AcDbCircle
 10
283.5500824459622
 20
157.4427118893469
 30
0.0
 40
0.2
100
AcDbArc
 50
269.9999999999918
 51
359.9999999999884
1001
ACAD
1000
ASC_BOUNDS
1002
{
1070
    19
1002
}
  0
LINE
  5
EF7C880A1
330
EF7C85532
100
AcDbEntity
  8
JISSEN
100
AcDbLine
 10
295.6000824459646
 20
171.8285942116884
 30
0.0
 11
295.4688494459647
 21
170.3285942116884
 31
0.0
  0
LINE
  5
EF7C880A2
330
EF7C85532
100
AcDbEntity
  8
JISSEN
100
AcDbLine
 10
293.8464094459648
 20
163.3249522116884
 30
0.0
 11
292.3795114459648
 21
162.6463602116884
 31
0.0
  0
ARC
  5
EF7C880A3
330
EF7C85532
100
AcDbEntity
  8
JISSEN
100
AcDbCircle
 10
292.8310374459647
 20
164.5285912116883
 30
0.0
 40
1.3
100
AcDbArc
 50
294.825405
 51
353.8576429999998
  0
LINE
  5
EF7C880A4
330
EF7C85532
100
AcDbEntity
  8
JISSEN
100
AcDbLine
 10
290.9058914459648
 20
163.9061442116884
 30
0.0
 11
291.4739994459647
 21
170.1467262116884
 31
0.0
  0
LINE
  5
EF7C880A5
330
EF7C85532
100
AcDbEntity
  8
JISSEN
100
AcDbLine
 10
287.5019594459647
 20
164.2020392116884
 30
0.0
 11
287.9059934459647
 21
169.9540692116883
 31
0.0
  0
LINE
  5
EF7C880A6
330
EF7C85532
100
AcDbEntity
  8
JISSEN
100
AcDbLine
 10
291.9108234459646
 20
170.1110272116884
 30
0.0
 11
291.3800694459646
 21
164.0915772116884
 31
0.0
  0
LINE
  5
EF7C880A7
330
EF7C85532
100
AcDbEntity
  8
JISSEN
100
AcDbLine
 10
292.9732444459648
 20
169.8909072116884
 30
0.0
 11
292.4475424459648
 21
164.3359612116884
 31
0.0
  0
LINE
  5
EF7C880A8
330
EF7C85532
100
AcDbEntity
  8
JISSEN
100
AcDbLine
 10
285.6211034459647
 20
170.1426082116884
 30
0.0
 11
285.1772964459647
 21
163.8243422116884
 31
0.0
  0
LINE
  5
EF7C880A9
330
EF7C85532
100
AcDbEntity
  8
JISSEN
100
AcDbLine
 10
287.1063224459648
 20
170.0090022116883
 30
0.0
 11
286.7136794459647
 21
164.0093712116884
 31
0.0
  0
LINE
  5
EF7C880AA
330
EF7C85532
100
AcDbEntity
  8
JISSEN
100
AcDbLine
 10
284.0777174459648
 20
162.5317152116884
 30
0.0
 11
285.7933504459647
 21
162.5317152116884
 31
0.0
  0
LINE
  5
EF7C880AB
330
EF7C85532
100
AcDbEntity
  8
JISSEN
100
AcDbLine
 10
285.0095764459646
 20
163.5260242116884
 30
0.0
 11
283.9909814459648
 21
162.8040952116884
 31
0.0
  0
ARC
  5
EF7C880AC
330
EF7C85532
100
AcDbEntity
  8
JISSEN
100
AcDbCircle
 10
284.0777174459648
 20
162.6817152116884
 30
0.0
 40
0.15
100
AcDbArc
 50
125.3270680000005
 51
270.0
  0
ARC
  5
EF7C880AD
330
EF7C85532
100
AcDbEntity
  8
JISSEN
100
AcDbCircle
 10
286.3145334459648
 20
164.0354932116883
 30
0.0
 40
0.4
100
AcDbArc
 50
270.0
 51
356.2556379999996
  0
ARC
  5
EF7C880AE
330
EF7C85532
100
AcDbEntity
  8
JISSEN
100
AcDbCircle
 10
285.7933504459647
 20
162.8817152116884
 30
0.0
 40
0.35
100
AcDbArc
 50
270.0
 51
305.3270680000005
  0
ARC
  5
EF7C880AF
330
EF7C85532
100
AcDbEntity
  8
JISSEN
100
AcDbCircle
 10
284.7782794459648
 20
163.8523702116883
 30
0.0
 40
0.4
100
AcDbArc
 50
305.3270680000005
 51
355.9820309999997
  0
LINE
  5
EF7C880B0
330
EF7C85532
100
AcDbEntity
  8
JISSEN
100
AcDbLine
 10
285.9957354459647
 20
162.5961632116884
 30
0.0
 11
286.9988014459647
 21
163.3070852116884
 31
0.0
  0
LINE
  5
EF7C880B1
330
EF7C85532
100
AcDbEntity
  8
JISSEN
100
AcDbLine
 10
286.3145334459648
 20
163.6354932116884
 30
0.0
 11
285.1143814459648
 21
163.6354932116884
 31
0.0
  0
ARC
  5
EF7C880B2
330
EF7C85532
100
AcDbEntity
  8
JISSEN
100
AcDbCircle
 10
286.3049094459647
 20
164.2861222116883
 30
0.0
 40
1.199999999999999
100
AcDbArc
 50
305.3270680000005
 51
355.9820309999997
  0
ARC
  5
EF7C880B3
330
EF7C85532
100
AcDbEntity
  8
JISSEN
100
AcDbCircle
 10
290.8820014459647
 20
164.1354932116884
 30
0.0
 40
0.5
100
AcDbArc
 50
260.650445
 51
354.9610729999998
  0
ARC
  5
EF7C880B4
330
EF7C85532
100
AcDbEntity
  8
JISSEN
100
AcDbCircle
 10
290.4079504459648
 20
163.9514742116884
 30
0.0
 40
0.5
100
AcDbArc
 50
297.7467379999997
 51
354.7984409999998
  0
ARC
  5
EF7C880B5
330
EF7C85532
100
AcDbEntity
  8
JISSEN
100
AcDbCircle
 10
291.8859814459648
 20
162.6039522116884
 30
0.0
 40
0.05
100
AcDbArc
 50
114.825405
 51
270.0
  0
LINE
  5
EF7C880B6
330
EF7C85532
100
AcDbEntity
  8
JISSEN
100
AcDbLine
 10
291.9596564459648
 20
162.5539522116883
 30
0.0
 11
291.8859814459648
 21
162.5539522116883
 31
0.0
  0
ARC
  5
EF7C880B7
330
EF7C85532
100
AcDbEntity
  8
JISSEN
100
AcDbCircle
 10
291.9596564459648
 20
163.5539522116884
 30
0.0
 40
1.0
100
AcDbArc
 50
270.0
 51
294.825405
  0
ARC
  5
EF7C880B8
330
EF7C85532
100
AcDbEntity
  8
JISSEN
100
AcDbCircle
 10
291.1533254459648
 20
164.4584422116884
 30
0.0
 40
1.3
100
AcDbArc
 50
297.7467379999997
 51
354.5938149999996
  0
LINE
  5
EF7C880B9
330
EF7C85532
100
AcDbEntity
  8
JISSEN
100
AcDbLine
 10
291.8649894459647
 20
162.6493312116884
 30
0.0
 11
293.3768484459648
 21
163.3487222116883
 31
0.0
  0
LINE
  5
EF7C880BA
330
EF7C85532
100
AcDbEntity
  8
JISSEN
100
AcDbLine
 10
290.1842334459647
 20
162.5317152116884
 30
0.0
 11
289.1879144459648
 21
162.5317152116884
 31
0.0
  0
ARC
  5
EF7C880BB
330
EF7C85532
100
AcDbEntity
  8
JISSEN
100
AcDbCircle
 10
290.1842334459647
 20
162.9317152116884
 30
0.0
 40
0.4
100
AcDbArc
 50
270.0
 51
297.7467379999997
  0
ARC
  5
EF7C880BC
330
EF7C85532
100
AcDbEntity
  8
JISSEN
100
AcDbCircle
 10
289.1879144459648
 20
162.6317152116883
 30
0.0
 40
0.1
100
AcDbArc
 50
117.7467379999997
 51
270.0
  0
LINE
  5
EF7C880BD
330
EF7C85532
100
AcDbEntity
  8
JISSEN
100
AcDbLine
 10
291.7585584459648
 20
163.3079232116884
 30
0.0
 11
290.3704594459648
 21
162.5777102116884
 31
0.0
  0
LINE
  5
EF7C880BE
330
EF7C85532
100
AcDbEntity
  8
JISSEN
100
AcDbLine
 10
289.1413574459646
 20
162.7202172116884
 30
0.0
 11
290.6407324459647
 21
163.5089672116883
 31
0.0
  0
ARC
  5
EF7C880BF
330
EF7C85532
100
AcDbEntity
  8
JISSEN
100
AcDbCircle
 10
287.5568544459646
 20
169.9785942116884
 30
0.0
 40
0.35
100
AcDbArc
 50
355.9820309999997
 51
90.0
  0
ARC
  5
EF7C880C0
330
EF7C85532
100
AcDbEntity
  8
JISSEN
100
AcDbCircle
 10
285.8206124459647
 20
170.1285942116884
 30
0.0
 40
0.2
100
AcDbArc
 50
90.0
 51
175.9820309999995
  0
LINE
  5
EF7C880C1
330
EF7C85532
100
AcDbEntity
  8
JISSEN
100
AcDbLine
 10
286.8069634459648
 20
170.3285942116884
 30
0.0
 11
285.8206124459647
 21
170.3285942116884
 31
0.0
  0
LINE
  5
EF7C880C2
330
EF7C85532
100
AcDbEntity
  8
JISSEN
100
AcDbLine
 10
287.5568544459646
 20
170.3285942116884
 30
0.0
 11
286.8069634459648
 21
170.3285942116884
 31
0.0
  0
ARC
  5
EF7C880C3
330
EF7C85532
100
AcDbEntity
  8
JISSEN
100
AcDbCircle
 10
286.8069634459648
 20
170.0285942116884
 30
0.0
 40
0.3
100
AcDbArc
 50
356.2556379999996
 51
90.0
  0
ARC
  5
EF7C880C4
330
EF7C85532
100
AcDbEntity
  8
JISSEN
100
AcDbCircle
 10
291.7115964459648
 20
170.1285942116884
 30
0.0
 40
0.2
100
AcDbArc
 50
354.9610729999998
 51
90.0
  0
ARC
  5
EF7C880C5
330
EF7C85532
100
AcDbEntity
  8
JISSEN
100
AcDbCircle
 10
292.5750234459647
 20
169.9285942116883
 30
0.0
 40
0.4
100
AcDbArc
 50
354.5938149999996
 51
90.0
  0
LINE
  5
EF7C880C6
330
EF7C85532
100
AcDbEntity
  8
JISSEN
100
AcDbLine
 10
291.6731764459648
 20
170.3285942116884
 30
0.0
 11
292.5750234459647
 21
170.3285942116884
 31
0.0
  0
ARC
  5
EF7C880C7
330
EF7C85532
100
AcDbEntity
  8
JISSEN
100
AcDbCircle
 10
291.6731764459648
 20
170.1285942116884
 30
0.0
 40
0.2
100
AcDbArc
 50
90.0
 51
174.7984409999997
  0
LINE
  5
EF7C880C8
330
EF7C85532
100
AcDbEntity
  8
JISSEN
100
AcDbLine
 10
295.2384064459646
 20
169.9080302116884
 30
0.0
 11
294.6505764459648
 21
164.4457812116884
 31
0.0
  0
LINE
  5
EF7C880C9
330
EF7C85532
100
AcDbEntity
  8
JISSEN
100
AcDbLine
 10
295.4688494459647
 20
170.3285942116884
 30
0.0
 11
294.9484954459648
 21
164.3809172116883
 31
0.0
  0
LINE
  5
EF7C880CA
330
EF7C85532
100
AcDbEntity
  8
JISSEN
100
AcDbLine
 10
294.1235734459647
 20
164.3894922116884
 30
0.0
 11
294.7555044459647
 21
170.2615302116884
 31
0.0
  0
ARC
  5
EF7C880CB
330
EF7C85532
100
AcDbEntity
  8
JISSEN
100
AcDbCircle
 10
293.4542031164276
 20
164.375768785825
 30
0.0
 40
1.5
100
AcDbArc
 50
290.0
 51
355.0000000000001
  0
ARC
  5
EF7C880CC
330
EF7C85532
100
AcDbEntity
  8
JISSEN
100
AcDbCircle
 10
293.2586134459647
 20
164.5955802116884
 30
0.0
 40
1.399999999999999
100
AcDbArc
 50
294.825405
 51
353.8576429999998
  0
ARC
  5
EF7C880CD
330
EF7C85532
100
AcDbEntity
  8
JISSEN
100
AcDbCircle
 10
294.8549304459648
 20
170.2508302116884
 30
0.0
 40
0.1
100
AcDbArc
 50
92.7179019999998
 51
173.8576429999997
  0
ARC
  5
EF7C880CE
330
EF7C85532
100
AcDbEntity
  8
JISSEN
100
AcDbCircle
 10
294.8407034459648
 20
169.9508302116884
 30
0.0
 40
0.4
100
AcDbArc
 50
353.8576429999998
 51
88.64114500000095
  0
LINE
  5
EF7C880CF
330
EF7C85532
100
AcDbEntity
  8
JISSEN
100
AcDbLine
 10
297.5000824459648
 20
180.1785942116884
 30
0.0
 11
297.5000824459648
 21
172.8285942116884
 31
0.0
  0
LINE
  5
EF7C880D0
330
EF7C85532
100
AcDbEntity
  8
JISSEN
100
AcDbLine
 10
296.5000824459648
 20
171.8285942116884
 30
0.0
 11
295.6000824459646
 21
171.8285942116884
 31
0.0
  0
LINE
  5
EF7C880D1
330
EF7C85532
100
AcDbEntity
  8
JISSEN
100
AcDbLine
 10
297.5000824459648
 20
172.8285942116884
 30
0.0
 11
296.5000824459648
 21
171.8285942116884
 31
0.0
  0
INSERT
  5
EF7C880D3
330
EF7C85532
100
AcDbEntity
  8
WAKU
100
AcDbBlockReference
  2
WAKU
 10
180.9999990079486
 20
0.0000000511358849
 30
0.0
 41
181.0
 42
283.0
 43
181.0
  0
LINE
  5
EF7C880D4
330
EF7C85532
100
AcDbEntity
  8
JISSEN
100
AcDbLine
 10
244.5000824459647
 20
180.1785942116884
 30
0.0
 11
244.6500824459648
 21
180.3285942116884
 31
0.0
  0
LINE
  5
EF7C880D5
330
EF7C85532
100
AcDbEntity
  8
JISSEN
100
AcDbLine
 10
244.6500824459648
 20
180.3285942116884
 30
0.0
 11
297.3500824459646
 21
180.3285942116884
 31
0.0
  0
LINE
  5
EF7C880D7
330
EF7C85532
100
AcDbEntity
  8
JISSEN
100
AcDbLine
 10
297.5000824459648
 20
180.1785942116884
 30
0.0
 11
297.3500824459646
 21
180.3285942116884
 31
0.0
  0
LWPOLYLINE
  5
EF7C880D9
102
{ACAD_REACTORS
330
EF7C880FC
102
}
330
EF7C85532
100
AcDbEntity
  8
JISSEN
100
AcDbPolyline
 90
        4
 70
     1
 43
0.0
 10
244.0000824459647
 20
180.3285942116884
 10
298.0000824459647
 20
180.3285942116884
 10
298.0000824459647
 20
183.3285942116884
 10
244.0000824459647
 20
183.3285942116884
  0
LINE
  5
EF7C880DA
102
{ACAD_REACTORS
330
EF7C880FC
102
}
330
EF7C85532
100
AcDbEntity
  8
JISSEN
100
AcDbLine
 10
260.0000824459647
 20
180.3285942116884
 30
0.0
 11
260.0000824459647
 21
183.3285942116884
 31
0.0
  0
LINE
  5
EF7C880DB
102
{ACAD_REACTORS
330
EF7C880FC
102
}
330
EF7C85532
100
AcDbEntity
  8
JISSEN
100
AcDbLine
 10
282.0000824459647
 20
180.3285942116884
 30
0.0
 11
282.0000824459647
 21
183.3285942116884
 31
0.0
  0
HATCH
  5
EF7C880FC
330
EF7C85532
100
AcDbEntity
  8
HATCH
100
AcDbHatch
 10
0.0
 20
0.0
 30
0.0
210
0.0
220
0.0
230
1.0
  2
NET
 70
     0
 71
     1
 91
        2
 92
        7
 72
     0
 73
     1
 93
        5
 10
298.0000824459647
 20
180.3285942116884
 10
298.0000824459647
 20
183.3285942116884
 10
282.0000824459647
 20
183.3285942116884
 10
282.0000824459647
 20
181.0285942116884
 10
282.7000824459647
 20
180.3285942116884
 97
        3
330
EF7C880D9
330
EF7C880DB
330
EF7C88093
 92
        7
 72
     0
 73
     1
 93
        5
 10
259.3000824459648
 20
180.3285942116884
 10
260.0000824459647
 20
181.0285942116883
 10
260.0000824459647
 20
183.3285942116884
 10
244.0000824459647
 20
183.3285942116884
 10
244.0000824459647
 20
180.3285942116884
 97
        3
330
EF7C880D9
330
EF7C88060
330
EF7C880DA
 75
     0
 76
     1
 52
45.0
 41
10.0
 77
     0
 78
     2
 53
45.0
 43
0.0
 44
0.0
 45
-0.8838834764831842
 46
0.8838834764831844
 79
     0
 53
135.0
 43
0.0
 44
0.0
 45
-0.8838834764831844
 46
-0.8838834764831842
 79
     0
 47
0.1376006346432268
 98
        2
 10
287.4898278846016
 20
180.9265833428108
 10
256.7799252736763
 20
181.3393850714566
  0
TEXT
  5
EF7C880FD
330
EF7C85532
100
AcDbEntity
  8
SUNPOU
100
AcDbText
 10
291.3031860594715
 20
7.849423898685245
 30
0.0
 40
3.0
  1
パット MFJ 取付状態（ヘッドはMFJ　）
  7
K
100
AcDbText
  0
TEXT
  5
EF7C880FE
330
EF7C85532
100
AcDbEntity
  8
SUNPOU
100
AcDbText
 10
291.3031860594715
 20
2.849423898685244
 30
0.0
 40
3.0
  1
尺度　1/1
  7
K
100
AcDbText
  0
LINE
  5
EF7C880FF
330
EF7C85532
100
AcDbEntity
  8
SUNPOU
100
AcDbLine
 10
355.2886640494056
 20
10.84943791723822
 30
0.0
 11
357.2886640494056
 21
10.84943791723822
 31
0.0
  0
LINE
  5
EF7C88100
330
EF7C85532
100
AcDbEntity
  8
SUNPOU
100
AcDbLine
 10
355.2886640494056
 20
7.849437917238218
 30
0.0
 11
357.2886640494056
 21
7.849437917238218
 31
0.0
  0
LINE
  5
EF7C88101
330
EF7C85532
100
AcDbEntity
  8
SUNPOU
100
AcDbLine
 10
355.7886640494056
 20
10.84943791723822
 30
0.0
 11
355.7886640494056
 21
7.849437917238218
 31
0.0
  0
LINE
  5
EF7C88102
330
EF7C85532
100
AcDbEntity
  8
SUNPOU
100
AcDbLine
 10
356.7886640494056
 20
10.84943791723822
 30
0.0
 11
356.7886640494056
 21
7.849437917238218
 31
0.0
  0
LINE
  5
EF7C88106
330
EF7C85532
100
AcDbEntity
  8
SUNPOU
100
AcDbLine
 10
242.9394222741849
 20
180.7679340399084
 30
0.0
 11
224.9155806129178
 21
162.7440923786414
 31
0.0
  0
INSERT
  5
EF7C88108
330
EF7C85532
100
AcDbEntity
  8
SUNPOU
100
AcDbBlockReference
  2
ARROW
 10
244.0000824459647
 20
181.8285942116884
 30
0.0
 41
1.5
 42
1.5
 43
1.5
 50
45.0
  0
LINE
  5
EF7C8810A
330
EF7C85532
100
AcDbEntity
  8
SUNPOU
100
AcDbLine
 10
199.6895270772033
 20
162.7440923786414
 30
0.0
 11
224.9155806129178
 21
162.7440923786414
 31
0.0
  0
TEXT
  5
EF7C8810B
330
EF7C85532
100
AcDbEntity
  8
SUNPOU
100
AcDbText
 10
200.4396259506861
 20
163.2879603786414
 30
0.0
 40
3.0
  1
パットMFJ
  7
K
100
AcDbText
  0
TEXT
  5
EF7C8810C
330
EF7C85532
100
AcDbEntity
  8
SUNPOU
100
AcDbText
 10
200.4396259506861
 20
158.5184971627729
 30
0.0
 40
3.0
  1
3mmタイプ
  7
K
100
AcDbText
  0
LINE
  5
EF7C8817D
330
EF7C85532
100
AcDbEntity
  8
SUNPOU
100
AcDbLine
 10
356.2886640494056
 20
10.84943791723822
 30
0.0
 11
356.2886640494056
 21
7.849437917238218
 31
0.0
  0
LINE
  5
EF7C8817E
330
EF7C85532
100
AcDbEntity
  8
JISSEN
100
AcDbLine
 10
281.061601033703
 20
98.8130667121597
 30
0.0
 11
279.1383924222262
 21
98.22403689595404
 31
0.0
  0
ENDSEC
  0
SECTION
  2
OBJECTS
  0
DICTIONARY
  5
EF7C85527
330
0
100
AcDbDictionary
  3
ACAD_GROUP
350
EF7C85528
  3
ACAD_LAYOUT
350
EF7C85BB7
  3
ACAD_MLINESTYLE
350
EF7C85535
  3
ACAD_PLOTSETTINGS
350
EF7C85BB8
  3
ACAD_PLOTSTYLENAME
350
EF7C85BB5
  3
ACDBHEADERROUNDTRIPXREC
350
EF7C88181
  3
ACDBVARIABLEDICTIONARY
350
EF7C85DB7
  0
DICTIONARY
  5
EF7C85D9A
330
EF7C85532
100
AcDbDictionary
280
     1
  3
ACAD_LAYOUTSELFREF
360
EF7C881A3
  0
DICTIONARY
  5
EF7C85D98
330
EF7C8552F
100
AcDbDictionary
280
     1
  3
ACAD_LAYOUTSELFREF
360
EF7C881A2
  0
DICTIONARY
  5
EF7C85528
102
{ACAD_REACTORS
330
EF7C85527
102
}
330
EF7C85527
100
AcDbDictionary
  0
DICTIONARY
  5
EF7C85BB7
102
{ACAD_REACTORS
330
EF7C85527
102
}
330
EF7C85527
100
AcDbDictionary
  0
DICTIONARY
  5
EF7C85535
102
{ACAD_REACTORS
330
EF7C85527
102
}
330
EF7C85527
100
AcDbDictionary
  3
STANDARD
350
EF7C85536
  0
DICTIONARY
  5
EF7C85BB8
102
{ACAD_REACTORS
330
EF7C85527
102
}
330
EF7C85527
100
AcDbDictionary
  0
ACDBDICTIONARYWDFLT
  5
EF7C85BB5
102
{ACAD_REACTORS
330
EF7C85527
102
}
330
EF7C85527
100
AcDbDictionary
281
     1
  3
Normal
350
EF7C85BB6
100
AcDbDictionaryWithDefault
340
EF7C85BB6
  0
DICTIONARY
  5
EF7C88181
102
{ACAD_REACTORS
330
EF7C85527
102
}
330
EF7C85527
100
AcDbDictionary
  3
CEPSNTYPE
350
EF7C8818B
  3
DIMSTYLEDATA
350
EF7C8818F
  3
FINGERPRINTGUID
350
EF7C8818C
  3
HYPERLINKBASE
350
EF7C88184
  3
INSUNITS
350
EF7C8818A
  3
LAYOUTDICT
350
EF7C88186
  3
LWETCUNION
350
EF7C88189
  3
PLOTSETDICT
350
EF7C88187
  3
PLOTSTYLNAMDICT
350
EF7C88188
  3
PSVPSCALE
350
EF7C8818E
  3
PUCSBASE
350
EF7C88192
  3
PUCSORGBACK
350
EF7C88198
  3
PUCSORGBOTTOM
350
EF7C88194
  3
PUCSORGFRONT
350
EF7C88197
  3
PUCSORGLEFT
350
EF7C88195
  3
PUCSORGRIGHT
350
EF7C88196
  3
PUCSORGTOP
350
EF7C88193
  3
PUCSORTHOREF
350
EF7C88190
  3
PUCSORTHOVIEW
350
EF7C88191
  3
STYLESHEET
350
EF7C88185
  3
TSTACKALIGN
350
EF7C88182
  3
TSTACKSIZE
350
EF7C88183
  3
UCSBASE
350
EF7C8819B
  3
UCSORGBACK
350
EF7C881A1
  3
UCSORGBOTTOM
350
EF7C8819D
  3
UCSORGFRONT
350
EF7C881A0
  3
UCSORGLEFT
350
EF7C8819E
  3
UCSORGRIGHT
350
EF7C8819F
  3
UCSORGTOP
350
EF7C8819C
  3
UCSORTHOREF
350
EF7C88199
  3
UCSORTHOVIEW
350
EF7C8819A
  3
VERSIONGUID
350
EF7C8818D
  0
DICTIONARY
  5
EF7C85DB7
102
{ACAD_REACTORS
330
EF7C85527
102
}
330
EF7C85527
100
AcDbDictionary
  3
DIMASSOC
350
EF7C88150
  3
SORTENTS
350
EF7C85DB8
  0
XRECORD
  5
EF7C881A3
102
{ACAD_REACTORS
330
EF7C85D9A
102
}
330
EF7C85D9A
100
AcDbXrecord
340
EF7C85532
  0
XRECORD
  5
EF7C881A2
102
{ACAD_REACTORS
330
EF7C85D98
102
}
330
EF7C85D98
100
AcDbXrecord
340
EF7C8552F
  0
MLINESTYLE
  5
EF7C85536
102
{ACAD_REACTORS
330
EF7C85535
102
}
330
EF7C85535
100
AcDbMlineStyle
  2
STANDARD
 70
     0
  3

 62
   256
 51
90.0
 52
90.0
 71
     2
 49
0.5
 62
   256
  6
BYLAYER
 49
-0.5
 62
   256
  6
BYLAYER
  0
ACDBPLACEHOLDER
  5
EF7C85BB6
102
{ACAD_REACTORS
330
EF7C85BB5
102
}
330
EF7C85BB5
100
AcDbPlaceHolder
280
     0
  0
XRECORD
  5
EF7C8818B
102
{ACAD_REACTORS
330
EF7C88181
102
}
330
EF7C88181
100
AcDbXrecord
 90
        0
  0
XRECORD
  5
EF7C8818F
102
{ACAD_REACTORS
330
EF7C88181
102
}
330
EF7C88181
100
AcDbXrecord
1000
DSTYLE
1002
{
1070
   341
340
EF7C85537
1070
   342
340
EF7C85537
1070
   343
340
EF7C85543
1070
   344
340
EF7C85543
1002
}
  0
XRECORD
  5
EF7C8818C
102
{ACAD_REACTORS
330
EF7C88181
102
}
330
EF7C88181
100
AcDbXrecord
  1
{09AA4C7A-3D6F-4857-A850-771461888CEC}
  0
XRECORD
  5
EF7C88184
102
{ACAD_REACTORS
330
EF7C88181
102
}
330
EF7C88181
100
AcDbXrecord
  1

  0
XRECORD
  5
EF7C8818A
102
{ACAD_REACTORS
330
EF7C88181
102
}
330
EF7C88181
100
AcDbXrecord
 90
        0
  0
XRECORD
  5
EF7C88186
102
{ACAD_REACTORS
330
EF7C88181
102
}
330
EF7C88181
100
AcDbXrecord
340
EF7C85BB7
  0
XRECORD
  5
EF7C88189
102
{ACAD_REACTORS
330
EF7C88181
102
}
330
EF7C88181
100
AcDbXrecord
 90
    14877
  0
XRECORD
  5
EF7C88187
102
{ACAD_REACTORS
330
EF7C88181
102
}
330
EF7C88181
100
AcDbXrecord
340
EF7C85BB8
  0
XRECORD
  5
EF7C88188
102
{ACAD_REACTORS
330
EF7C88181
102
}
330
EF7C88181
100
AcDbXrecord
340
EF7C85BB5
  0
XRECORD
  5
EF7C8818E
102
{ACAD_REACTORS
330
EF7C88181
102
}
330
EF7C88181
100
AcDbXrecord
 40
0.0
  0
XRECORD
  5
EF7C88192
102
{ACAD_REACTORS
330
EF7C88181
102
}
330
EF7C88181
100
AcDbXrecord
340
0
  0
XRECORD
  5
EF7C88198
102
{ACAD_REACTORS
330
EF7C88181
102
}
330
EF7C88181
100
AcDbXrecord
 10
0.0
 20
0.0
 30
0.0
  0
XRECORD
  5
EF7C88194
102
{ACAD_REACTORS
330
EF7C88181
102
}
330
EF7C88181
100
AcDbXrecord
 10
0.0
 20
0.0
 30
0.0
  0
XRECORD
  5
EF7C88197
102
{ACAD_REACTORS
330
EF7C88181
102
}
330
EF7C88181
100
AcDbXrecord
 10
0.0
 20
0.0
 30
0.0
  0
XRECORD
  5
EF7C88195
102
{ACAD_REACTORS
330
EF7C88181
102
}
330
EF7C88181
100
AcDbXrecord
 10
0.0
 20
0.0
 30
0.0
  0
XRECORD
  5
EF7C88196
102
{ACAD_REACTORS
330
EF7C88181
102
}
330
EF7C88181
100
AcDbXrecord
 10
0.0
 20
0.0
 30
0.0
  0
XRECORD
  5
EF7C88193
102
{ACAD_REACTORS
330
EF7C88181
102
}
330
EF7C88181
100
AcDbXrecord
 10
0.0
 20
0.0
 30
0.0
  0
XRECORD
  5
EF7C88190
102
{ACAD_REACTORS
330
EF7C88181
102
}
330
EF7C88181
100
AcDbXrecord
340
0
  0
XRECORD
  5
EF7C88191
102
{ACAD_REACTORS
330
EF7C88181
102
}
330
EF7C88181
100
AcDbXrecord
 70
     0
  0
XRECORD
  5
EF7C88185
102
{ACAD_REACTORS
330
EF7C88181
102
}
330
EF7C88181
100
AcDbXrecord
  1

  0
XRECORD
  5
EF7C88182
102
{ACAD_REACTORS
330
EF7C88181
102
}
330
EF7C88181
100
AcDbXrecord
 90
        1
  0
XRECORD
  5
EF7C88183
102
{ACAD_REACTORS
330
EF7C88181
102
}
330
EF7C88181
100
AcDbXrecord
 90
       70
  0
XRECORD
  5
EF7C8819B
102
{ACAD_REACTORS
330
EF7C88181
102
}
330
EF7C88181
100
AcDbXrecord
340
0
  0
XRECORD
  5
EF7C881A1
102
{ACAD_REACTORS
330
EF7C88181
102
}
330
EF7C88181
100
AcDbXrecord
 10
0.0
 20
0.0
 30
0.0
  0
XRECORD
  5
EF7C8819D
102
{ACAD_REACTORS
330
EF7C88181
102
}
330
EF7C88181
100
AcDbXrecord
 10
0.0
 20
0.0
 30
0.0
  0
XRECORD
  5
EF7C881A0
102
{ACAD_REACTORS
330
EF7C88181
102
}
330
EF7C88181
100
AcDbXrecord
 10
0.0
 20
0.0
 30
0.0
  0
XRECORD
  5
EF7C8819E
102
{ACAD_REACTORS
330
EF7C88181
102
}
330
EF7C88181
100
AcDbXrecord
 10
0.0
 20
0.0
 30
0.0
  0
XRECORD
  5
EF7C8819F
102
{ACAD_REACTORS
330
EF7C88181
102
}
330
EF7C88181
100
AcDbXrecord
 10
0.0
 20
0.0
 30
0.0
  0
XRECORD
  5
EF7C8819C
102
{ACAD_REACTORS
330
EF7C88181
102
}
330
EF7C88181
100
AcDbXrecord
 10
0.0
 20
0.0
 30
0.0
  0
XRECORD
  5
EF7C88199
102
{ACAD_REACTORS
330
EF7C88181
102
}
330
EF7C88181
100
AcDbXrecord
340
0
  0
XRECORD
  5
EF7C8819A
102
{ACAD_REACTORS
330
EF7C88181
102
}
330
EF7C88181
100
AcDbXrecord
 70
     0
  0
XRECORD
  5
EF7C8818D
102
{ACAD_REACTORS
330
EF7C88181
102
}
330
EF7C88181
100
AcDbXrecord
  1
{47A4AD39-30E9-49B8-8117-77057375BB09}
  0
DICTIONARYVAR
  5
EF7C88150
102
{ACAD_REACTORS
330
EF7C85DB7
102
}
330
EF7C85DB7
100
DictionaryVariables
280
     0
  1
0
  0
DICTIONARYVAR
  5
EF7C85DB8
102
{ACAD_REACTORS
330
EF7C85DB7
102
}
330
EF7C85DB7
100
DictionaryVariables
280
     0
  1
96
  0
ENDSEC
  0
EOF
