  0
SECTION
  2
HEADER
  9
$ACADVER
  1
AC1014
  9
$ACADMAINTVER
 70
     9
  9
$DWGCODEPAGE
  3
ANSI_932
  9
$INSBASE
 10
0.0
 20
0.0
 30
0.0
  9
$EXTMIN
 10
0.0
 20
0.0
 30
0.0
  9
$EXTMAX
 10
361.999998
 20
273.0
 30
0.0
  9
$LIMMIN
 10
0.0
 20
0.0
  9
$LIMMAX
 10
180.999999
 20
273.0
  9
$ORTHOMODE
 70
     1
  9
$REGENMODE
 70
     1
  9
$FILLMODE
 70
     1
  9
$QTEXTMODE
 70
     0
  9
$MIRRTEXT
 70
     0
  9
$DRAGMODE
 70
     2
  9
$LTSCALE
 40
5.0
  9
$OSMODE
 70
   167
  9
$ATTMODE
 70
     1
  9
$TEXTSIZE
 40
3.0
  9
$TRACEWID
 40
0.05
  9
$TEXTSTYLE
  7
BIGFONT
  9
$CLAYER
  8
JISSEN
  9
$CELTYPE
  6
BYLAYER
  9
$CECOLOR
 62
   256
  9
$CELTSCALE
 40
1.0
  9
$DELOBJ
 70
     1
  9
$DISPSILH
 70
     0
  9
$DIMSCALE
 40
0.0
  9
$DIMASZ
 40
1.5
  9
$DIMEXO
 40
1.0
  9
$DIMDLI
 40
6.0
  9
$DIMRND
 40
0.0
  9
$DIMDLE
 40
0.0
  9
$DIMEXE
 40
1.0
  9
$DIMTP
 40
0.0
  9
$DIMTM
 40
0.0
  9
$DIMTXT
 40
3.0
  9
$DIMCEN
 40
1.0
  9
$DIMTSZ
 40
0.0
  9
$DIMTOL
 70
     0
  9
$DIMLIM
 70
     0
  9
$DIMTIH
 70
     0
  9
$DIMTOH
 70
     0
  9
$DIMSE1
 70
     0
  9
$DIMSE2
 70
     0
  9
$DIMTAD
 70
     0
  9
$DIMZIN
 70
     8
  9
$DIMBLK
  1
ARROW
  9
$DIMASO
 70
     0
  9
$DIMSHO
 70
     0
  9
$DIMPOST
  1

  9
$DIMAPOST
  1

  9
$DIMALT
 70
     0
  9
$DIMALTD
 70
     2
  9
$DIMALTF
 40
25.4
  9
$DIMLFAC
 40
1.0
  9
$DIMTOFL
 70
     1
  9
$DIMTVP
 40
1.0
  9
$DIMTIX
 70
     0
  9
$DIMSOXD
 70
     0
  9
$DIMSAH
 70
     1
  9
$DIMBLK1
  1
OPEN30
  9
$DIMBLK2
  1
OPEN30
  9
$DIMSTYLE
  2
IMAO
  9
$DIMCLRD
 70
     0
  9
$DIMCLRE
 70
     0
  9
$DIMCLRT
 70
     0
  9
$DIMTFAC
 40
1.0
  9
$DIMGAP
 40
0.09
  9
$DIMJUST
 70
     0
  9
$DIMSD1
 70
     0
  9
$DIMSD2
 70
     0
  9
$DIMTOLJ
 70
     1
  9
$DIMTZIN
 70
     0
  9
$DIMALTZ
 70
     0
  9
$DIMALTTZ
 70
     0
  9
$DIMFIT
 70
     3
  9
$DIMUPT
 70
     0
  9
$DIMUNIT
 70
     2
  9
$DIMDEC
 70
     4
  9
$DIMTDEC
 70
     4
  9
$DIMALTU
 70
     2
  9
$DIMALTTD
 70
     2
  9
$DIMTXSTY
  7
STANDARD
  9
$DIMAUNIT
 70
     0
  9
$LUNITS
 70
     2
  9
$LUPREC
 70
     2
  9
$SKETCHINC
 40
0.1
  9
$FILLETRAD
 40
2.0
  9
$AUNITS
 70
     0
  9
$AUPREC
 70
     2
  9
$MENU
  1
stdr12j
  9
$ELEVATION
 40
0.0
  9
$PELEVATION
 40
0.0
  9
$THICKNESS
 40
0.0
  9
$LIMCHECK
 70
     0
  9
$BLIPMODE
 70
     0
  9
$CHAMFERA
 40
0.0
  9
$CHAMFERB
 40
0.0
  9
$CHAMFERC
 40
0.0
  9
$CHAMFERD
 40
0.0
  9
$SKPOLY
 70
     0
  9
$TDCREATE
 40
2450354.446970717
  9
$TDUPDATE
 40
2453334.726774918
  9
$TDINDWG
 40
0.7480766667
  9
$TDUSRTIMER
 40
0.7480766667
  9
$USRTIMER
 70
     1
  9
$ANGBASE
 50
0.0
  9
$ANGDIR
 70
     0
  9
$PDMODE
 70
     0
  9
$PDSIZE
 40
0.0
  9
$PLINEWID
 40
0.0
  9
$COORDS
 70
     2
  9
$SPLFRAME
 70
     0
  9
$SPLINETYPE
 70
     6
  9
$SPLINESEGS
 70
     8
  9
$ATTDIA
 70
     0
  9
$ATTREQ
 70
     1
  9
$HANDLING
 70
 22529
  9
$HANDSEED
  5
1D76AF046F
  9
$SURFTAB1
 70
     6
  9
$SURFTAB2
 70
     6
  9
$SURFTYPE
 70
     6
  9
$SURFU
 70
     6
  9
$SURFV
 70
     6
  9
$UCSNAME
  2

  9
$UCSORG
 10
0.0
 20
0.0
 30
0.0
  9
$UCSXDIR
 10
1.0
 20
0.0
 30
0.0
  9
$UCSYDIR
 10
0.0
 20
1.0
 30
0.0
  9
$PUCSNAME
  2

  9
$PUCSORG
 10
0.0
 20
0.0
 30
0.0
  9
$PUCSXDIR
 10
1.0
 20
0.0
 30
0.0
  9
$PUCSYDIR
 10
0.0
 20
1.0
 30
0.0
  9
$USERI1
 70
     4
  9
$USERI2
 70
     1
  9
$USERI3
 70
     1
  9
$USERI4
 70
     0
  9
$USERI5
 70
     0
  9
$USERR1
 40
1.0
  9
$USERR2
 40
3.0
  9
$USERR3
 40
3.0
  9
$USERR4
 40
1.5
  9
$USERR5
 40
10.0
  9
$WORLDVIEW
 70
     1
  9
$SHADEDGE
 70
     3
  9
$SHADEDIF
 70
    70
  9
$TILEMODE
 70
     1
  9
$MAXACTVP
 70
    16
  9
$PINSBASE
 10
0.0
 20
0.0
 30
0.0
  9
$PLIMCHECK
 70
     0
  9
$PEXTMIN
 10
1.000000000000000E+20
 20
1.000000000000000E+20
 30
1.000000000000000E+20
  9
$PEXTMAX
 10
-1.000000000000000E+20
 20
-1.000000000000000E+20
 30
-1.000000000000000E+20
  9
$PLIMMIN
 10
0.0
 20
0.0
  9
$PLIMMAX
 10
12.0
 20
9.0
  9
$UNITMODE
 70
     0
  9
$VISRETAIN
 70
     0
  9
$PLINEGEN
 70
     0
  9
$PSLTSCALE
 70
     0
  9
$TREEDEPTH
 70
  3020
  9
$PICKSTYLE
 70
     1
  9
$CMLSTYLE
  2
STANDARD
  9
$CMLJUST
 70
     0
  9
$CMLSCALE
 40
1.0
  9
$PROXYGRAPHICS
 70
     1
  9
$MEASUREMENT
 70
     0
  0
ENDSEC
  0
SECTION
  2
CLASSES
  0
CLASS
  1
LWPOLYLINE
  2
AcDbPolyline
  3
AutoCAD 2000
 90
        0
280
     0
281
     1
  0
CLASS
  1
ACDBDICTIONARYWDFLT
  2
AcDbDictionaryWithDefault
  3
AutoCAD 2000
 90
        0
280
     0
281
     0
  0
CLASS
  1
ACDBPLACEHOLDER
  2
AcDbPlaceHolder
  3
AutoCAD 2000
 90
        0
280
     0
281
     0
  0
CLASS
  1
LAYOUT
  2
AcDbLayout
  3
AutoCAD 2000
 90
        0
280
     0
281
     0
  0
CLASS
  1
LONG_TRANSACTION
  2
AcDbLongTransaction
  3
AutoCAD 2000
 90
        0
280
     0
281
     0
  0
CLASS
  1
LWPOLYLINE
  2
AcDbPolyline
  3
AutoCAD 2000
 90
        0
280
     0
281
     1
  0
CLASS
  1
HATCH
  2
AcDbHatch
  3
AutoCAD 2000
 90
        0
280
     0
281
     1
  0
CLASS
  1
XRECORD
  2
AcDbXrecord
  3
AutoCAD 2000
 90
        0
280
     0
281
     0
  0
CLASS
  1
LONG_TRANSACTION
  2
AcDbLongTransaction
  3
AutoCAD 2000
 90
        0
280
     0
281
     0
  0
CLASS
  1
LWPOLYLINE
  2
AcDbPolyline
  3
AutoCAD 2000
 90
        0
280
     0
281
     1
  0
CLASS
  1
HATCH
  2
AcDbHatch
  3
AutoCAD 2000
 90
        0
280
     0
281
     1
  0
CLASS
  1
XRECORD
  2
AcDbXrecord
  3
AutoCAD 2000
 90
        0
280
     0
281
     0
  0
CLASS
  1
DICTIONARYVAR
  2
AcDbDictionaryVar
  3
AutoCAD 2000
 90
        0
280
     0
281
     0
  0
CLASS
  1
LONG_TRANSACTION
  2
AcDbLongTransaction
  3
AutoCAD 2000
 90
        0
280
     0
281
     0
  0
CLASS
  1
LWPOLYLINE
  2
AcDbPolyline
  3
AutoCAD 2000
 90
        0
280
     0
281
     1
  0
CLASS
  1
HATCH
  2
AcDbHatch
  3
AutoCAD 2000
 90
        0
280
     0
281
     1
  0
CLASS
  1
XRECORD
  2
AcDbXrecord
  3
AutoCAD 2000
 90
        0
280
     0
281
     0
  0
ENDSEC
  0
SECTION
  2
TABLES
  0
TABLE
  2
VPORT
  5
1D76AEFB38
330
0
100
AcDbSymbolTable
 70
    10
  0
VPORT
  5
1D76AEFB71
330
1D76AEFB38
100
AcDbSymbolTableRecord
100
AcDbViewportTableRecord
  2
2
 70
     0
 10
0.5
 20
0.0
 11
1.0
 21
1.0
 12
0.9240309999999999
 22
1.052651
 13
0.0
 23
0.0
 14
1.0
 24
1.0
 15
10.0
 25
10.0
 16
0.0
 26
0.0
 36
1.0
 17
0.0
 27
0.0
 37
0.0
 40
2.105302
 41
0.877814
 42
50.0
 43
0.0
 44
0.0
 50
0.0
 51
0.0
 71
     0
 72
   500
 73
     1
 74
     1
 75
     0
 76
     0
 77
     0
 78
     0
  0
VPORT
  5
1D76AEFB72
330
1D76AEFB38
100
AcDbSymbolTableRecord
100
AcDbViewportTableRecord
  2
2
 70
     0
 10
0.0
 20
0.0
 11
0.5
 21
1.0
 12
0.9240309999999999
 22
1.052651
 13
0.0
 23
0.0
 14
1.0
 24
1.0
 15
10.0
 25
10.0
 16
0.0
 26
0.0
 36
1.0
 17
0.0
 27
0.0
 37
0.0
 40
2.105302
 41
0.877814
 42
50.0
 43
0.0
 44
0.0
 50
0.0
 51
0.0
 71
     0
 72
   500
 73
     1
 74
     1
 75
     0
 76
     0
 77
     0
 78
     0
  0
VPORT
  5
1D76AEFB73
330
1D76AEFB38
100
AcDbSymbolTableRecord
100
AcDbViewportTableRecord
  2
3
 70
     0
 10
0.0
 20
0.5
 11
1.0
 21
1.0
 12
2.832169999999999
 22
1.052651
 13
0.0
 23
0.0
 14
1.0
 24
1.0
 15
10.0
 25
10.0
 16
0.0
 26
0.0
 36
1.0
 17
0.0
 27
0.0
 37
0.0
 40
2.105302
 41
3.571429
 42
50.0
 43
0.0
 44
0.0
 50
0.0
 51
0.0
 71
     0
 72
   500
 73
     1
 74
     1
 75
     0
 76
     0
 77
     0
 78
     0
  0
VPORT
  5
1D76AEFB74
330
1D76AEFB38
100
AcDbSymbolTableRecord
100
AcDbViewportTableRecord
  2
3
 70
     0
 10
0.0
 20
0.0
 11
1.0
 21
0.5
 12
2.856741999999999
 22
1.052651
 13
0.0
 23
0.0
 14
1.0
 24
1.0
 15
10.0
 25
10.0
 16
0.0
 26
0.0
 36
1.0
 17
0.0
 27
0.0
 37
0.0
 40
2.105302
 41
3.594770999999999
 42
50.0
 43
0.0
 44
0.0
 50
0.0
 51
0.0
 71
     0
 72
   500
 73
     1
 74
     1
 75
     0
 76
     0
 77
     0
 78
     0
  0
VPORT
  5
1D76AEFB75
330
1D76AEFB38
100
AcDbSymbolTableRecord
100
AcDbViewportTableRecord
  2
4
 70
     0
 10
0.5
 20
0.0
 11
1.0
 21
0.5
 12
2.886858
 22
1.052651
 13
0.0
 23
0.0
 14
1.0
 24
1.0
 15
10.0
 25
10.0
 16
0.0
 26
0.0
 36
1.0
 17
0.0
 27
0.0
 37
0.0
 40
4.275206999999999
 41
1.784314
 42
50.0
 43
0.0
 44
0.0
 50
0.0
 51
0.0
 71
     0
 72
   500
 73
     1
 74
     1
 75
     0
 76
     0
 77
     0
 78
     0
  0
VPORT
  5
1D76AEFB76
330
1D76AEFB38
100
AcDbSymbolTableRecord
100
AcDbViewportTableRecord
  2
4
 70
     0
 10
0.5
 20
0.5
 11
1.0
 21
1.0
 12
2.86209
 22
1.052651
 13
0.0
 23
0.0
 14
1.0
 24
1.0
 15
10.0
 25
10.0
 16
0.0
 26
0.0
 36
1.0
 17
0.0
 27
0.0
 37
0.0
 40
4.275206999999999
 41
1.772726999999999
 42
50.0
 43
0.0
 44
0.0
 50
0.0
 51
0.0
 71
     0
 72
   500
 73
     1
 74
     1
 75
     0
 76
     0
 77
     0
 78
     0
  0
VPORT
  5
1D76AEFB77
330
1D76AEFB38
100
AcDbSymbolTableRecord
100
AcDbViewportTableRecord
  2
4
 70
     0
 10
0.0
 20
0.5
 11
0.5
 21
1.0
 12
2.86209
 22
1.052651
 13
0.0
 23
0.0
 14
1.0
 24
1.0
 15
10.0
 25
10.0
 16
0.0
 26
0.0
 36
1.0
 17
0.0
 27
0.0
 37
0.0
 40
4.275206999999999
 41
1.772726999999999
 42
50.0
 43
0.0
 44
0.0
 50
0.0
 51
0.0
 71
     0
 72
   500
 73
     1
 74
     1
 75
     0
 76
     0
 77
     0
 78
     0
  0
VPORT
  5
1D76AEFB78
330
1D76AEFB38
100
AcDbSymbolTableRecord
100
AcDbViewportTableRecord
  2
4
 70
     0
 10
0.0
 20
0.0
 11
0.5
 21
0.5
 12
2.886858
 22
1.052651
 13
0.0
 23
0.0
 14
1.0
 24
1.0
 15
10.0
 25
10.0
 16
0.0
 26
0.0
 36
1.0
 17
0.0
 27
0.0
 37
0.0
 40
4.275206999999999
 41
1.784314
 42
50.0
 43
0.0
 44
0.0
 50
0.0
 51
0.0
 71
     0
 72
   500
 73
     1
 74
     1
 75
     0
 76
     0
 77
     0
 78
     0
  0
VPORT
  5
1D76AF044B
330
1D76AEFB38
100
AcDbSymbolTableRecord
100
AcDbViewportTableRecord
  2
*ACTIVE
 70
     0
 10
0.0
 20
0.0
 11
1.0
 21
1.0
 12
259.9551043477132
 22
136.5000012712941
 13
0.0
 23
0.0
 14
1.0
 24
1.0
 15
10.0
 25
10.0
 16
0.0
 26
0.0
 36
1.0
 17
0.0
 27
0.0
 37
0.0
 40
276.1606794174368
 41
1.771962616822429
 42
50.0
 43
0.0
 44
0.0
 50
0.0
 51
0.0
 71
     0
 72
   500
 73
     1
 74
     0
 75
     0
 76
     0
 77
     0
 78
     0
  0
ENDTAB
  0
TABLE
  2
LTYPE
  5
1D76AEFB35
330
0
100
AcDbSymbolTable
 70
     3
  0
LTYPE
  5
1D76AEFB42
330
1D76AEFB35
100
AcDbSymbolTableRecord
100
AcDbLinetypeTableRecord
  2
BYBLOCK
 70
     0
  3

 72
    65
 73
     0
 40
0.0
  0
LTYPE
  5
1D76AEFB43
330
1D76AEFB35
100
AcDbSymbolTableRecord
100
AcDbLinetypeTableRecord
  2
BYLAYER
 70
     0
  3

 72
    65
 73
     0
 40
0.0
  0
LTYPE
  5
1D76AEFB44
330
1D76AEFB35
100
AcDbSymbolTableRecord
100
AcDbLinetypeTableRecord
  2
CONTINUOUS
 70
     0
  3
実線
 72
    65
 73
     0
 40
0.0
  0
LTYPE
  5
1D76AEFB70
330
1D76AEFB35
100
AcDbSymbolTableRecord
100
AcDbLinetypeTableRecord
  2
HIDDEN
 70
     0
  3
_ _ _ _ _ _ _ _ _ _ _ _ _ _ _ _ _ _ _ _ _ _ _
 72
    65
 73
     2
 40
0.375
 49
0.25
 74
     0
 49
-0.125
 74
     0
  0
LTYPE
  5
1D76AF0143
330
1D76AEFB35
100
AcDbSymbolTableRecord
100
AcDbLinetypeTableRecord
  2
PHANTOM
 70
     0
  3
_____ _ _ _____ _ _ _____ _ _ _____ _ _ ____
 72
    65
 73
     6
 40
2.5
 49
1.25
 74
     0
 49
-0.25
 74
     0
 49
0.25
 74
     0
 49
-0.25
 74
     0
 49
0.25
 74
     0
 49
-0.25
 74
     0
  0
ENDTAB
  0
TABLE
  2
LAYER
  5
1D76AEFB32
330
0
100
AcDbSymbolTable
 70
     8
  0
LAYER
  5
1D76AEFB3F
330
1D76AEFB32
100
AcDbSymbolTableRecord
100
AcDbLayerTableRecord
  2
0
 70
     0
 62
     6
  6
CONTINUOUS
  0
LAYER
  5
1D76AEFB7F
330
1D76AEFB32
100
AcDbSymbolTableRecord
100
AcDbLayerTableRecord
  2
SUNPOU
 70
     0
 62
     3
  6
CONTINUOUS
  0
LAYER
  5
1D76AEFB80
330
1D76AEFB32
100
AcDbSymbolTableRecord
100
AcDbLayerTableRecord
  2
TEXT
 70
     0
 62
     3
  6
CONTINUOUS
  0
LAYER
  5
1D76AEFB81
330
1D76AEFB32
100
AcDbSymbolTableRecord
100
AcDbLayerTableRecord
  2
SAISEN
 70
     0
 62
     4
  6
CONTINUOUS
  0
LAYER
  5
1D76AEFB82
330
1D76AEFB32
100
AcDbSymbolTableRecord
100
AcDbLayerTableRecord
  2
JISSEN
 70
     0
 62
     7
  6
CONTINUOUS
  0
LAYER
  5
1D76AEFB84
330
1D76AEFB32
100
AcDbSymbolTableRecord
100
AcDbLayerTableRecord
  2
TENSEN
 70
     0
 62
     2
  6
HIDDEN
  0
LAYER
  5
1D76AEFB86
330
1D76AEFB32
100
AcDbSymbolTableRecord
100
AcDbLayerTableRecord
  2
WAKU
 70
     0
 62
     5
  6
CONTINUOUS
  0
LAYER
  5
1D76AF0144
330
1D76AEFB32
100
AcDbSymbolTableRecord
100
AcDbLayerTableRecord
  2
NITEN
 70
     0
 62
     2
  6
PHANTOM
  0
ENDTAB
  0
TABLE
  2
STYLE
  5
1D76AEFB33
330
0
100
AcDbSymbolTable
 70
     3
  0
STYLE
  5
1D76AEFB40
330
1D76AEFB33
100
AcDbSymbolTableRecord
100
AcDbTextStyleTableRecord
  2
STANDARD
 70
     0
 40
0.0
 41
1.0
 50
0.0
 71
     0
 42
3.0
  3
SIMPLEX
  4

  0
STYLE
  5
1D76AEFB69
330
1D76AEFB33
100
AcDbSymbolTableRecord
100
AcDbTextStyleTableRecord
  2
K
 70
     0
 40
0.0
 41
1.0
 50
0.0
 71
     0
 42
3.0
  3
ROMANS
  4
bigfont.shx
  0
STYLE
  5
1D76AEFB6B
330
1D76AEFB33
100
AcDbSymbolTableRecord
100
AcDbTextStyleTableRecord
  2
BIGFONT
 70
     0
 40
0.0
 41
1.0
 50
0.0
 71
     0
 42
3.0
  3
txt.shx
  4
bigfont
  0
ENDTAB
  0
TABLE
  2
VIEW
  5
1D76AEFB36
330
0
100
AcDbSymbolTable
 70
     0
  0
ENDTAB
  0
TABLE
  2
UCS
  5
1D76AEFB37
330
0
100
AcDbSymbolTable
 70
     0
  0
ENDTAB
  0
TABLE
  2
APPID
  5
1D76AEFB39
330
0
100
AcDbSymbolTable
 70
     1
  0
APPID
  5
1D76AEFB41
330
1D76AEFB39
100
AcDbSymbolTableRecord
100
AcDbRegAppTableRecord
  2
ACAD
 70
     0
  0
ENDTAB
  0
TABLE
  2
DIMSTYLE
  5
1D76AEFB3A
330
0
100
AcDbSymbolTable
 70
     1
  0
DIMSTYLE
105
1D76AEFB7B
330
1D76AEFB3A
100
AcDbSymbolTableRecord
100
AcDbDimStyleTableRecord
  2
IMAO
 70
     0
  3

  4

  5

  6

  7

 40
1.0
 41
1.5
 42
1.0
 43
6.0
 44
1.0
 45
0.0
 46
0.0
 47
495.0
 48
0.0
140
3.0
141
0.0
142
0.0
143
25.4
144
1.0
145
0.0
146
1.0
147
0.09
 71
     0
 72
     0
 73
     0
 74
     0
 75
     0
 76
     0
 77
     1
 78
     8
170
     0
171
     2
172
     1
173
     0
174
     1
175
     0
176
     0
177
     0
178
     0
270
     2
271
     2
272
     2
273
     2
274
     2
340
1D76AEFB6B
275
     0
280
     0
281
     0
282
     0
283
     1
284
     8
285
     8
286
     8
287
     5
288
     0
  0
ENDTAB
  0
TABLE
  2
BLOCK_RECORD
  5
1D76AEFB31
330
0
100
AcDbSymbolTable
 70
     4
  0
BLOCK_RECORD
  5
1D76AEFB48
102
{ACAD_XDICTIONARY
360
1D76AF03EE
102
}
330
1D76AEFB31
100
AcDbSymbolTableRecord
100
AcDbBlockTableRecord
  2
*MODEL_SPACE
  0
BLOCK_RECORD
  5
1D76AEFB45
102
{ACAD_XDICTIONARY
360
1D76AF03EC
102
}
330
1D76AEFB31
100
AcDbSymbolTableRecord
100
AcDbBlockTableRecord
  2
*PAPER_SPACE
  0
BLOCK_RECORD
  5
1D76AEFB51
330
1D76AEFB31
100
AcDbSymbolTableRecord
100
AcDbBlockTableRecord
  2
STDGX5
  0
BLOCK_RECORD
  5
1D76AEFB56
330
1D76AEFB31
100
AcDbSymbolTableRecord
100
AcDbBlockTableRecord
  2
STDR12J
  0
BLOCK_RECORD
  5
1D76AEFB57
330
1D76AEFB31
100
AcDbSymbolTableRecord
100
AcDbBlockTableRecord
  2
ARROW
  0
BLOCK_RECORD
  5
1D76AF005C
330
1D76AEFB31
100
AcDbSymbolTableRecord
100
AcDbBlockTableRecord
  2
_OPEN30
  0
ENDTAB
  0
ENDSEC
  0
SECTION
  2
BLOCKS
  0
BLOCK
  5
1D76AEFB8B
330
1D76AEFB48
100
AcDbEntity
  8
0
100
AcDbBlockBegin
  2
*MODEL_SPACE
 70
     0
 10
0.0
 20
0.0
 30
0.0
  3
*MODEL_SPACE
  1

  0
ENDBLK
  5
1D76AEFB8C
330
1D76AEFB48
100
AcDbEntity
  8
0
100
AcDbBlockEnd
  0
BLOCK
  5
1D76AEFB89
330
1D76AEFB45
100
AcDbEntity
 67
     1
  8
0
100
AcDbBlockBegin
  2
*PAPER_SPACE
 70
     0
 10
0.0
 20
0.0
 30
0.0
  3
*PAPER_SPACE
  1

  0
ENDBLK
  5
1D76AEFB8A
330
1D76AEFB45
100
AcDbEntity
 67
     1
  8
0
100
AcDbBlockEnd
  0
BLOCK
  5
234
330
1D76AEFB51
100
AcDbEntity
  8
0
100
AcDbBlockBegin
  2
STDGX5
 70
     0
 10
0.0
 20
0.0
 30
0.0
  3
STDGX5
  1

  0
ENDBLK
  5
235
330
1D76AEFB51
100
AcDbEntity
  8
0
100
AcDbBlockEnd
  0
BLOCK
  5
355
330
1D76AEFB56
100
AcDbEntity
  8
0
100
AcDbBlockBegin
  2
STDR12J
 70
     0
 10
0.0
 20
0.0
 30
0.0
  3
STDR12J
  1

  0
ENDBLK
  5
37A
330
1D76AEFB56
100
AcDbEntity
  8
0
100
AcDbBlockEnd
  0
BLOCK
  5
357
330
1D76AEFB57
100
AcDbEntity
  8
0
100
AcDbBlockBegin
  2
ARROW
 70
     0
 10
1.0
 20
0.5
 30
0.0
  3
ARROW
  1

  0
LINE
  5
358
330
1D76AEFB57
100
AcDbEntity
  8
0
100
AcDbLine
 10
1.0
 20
0.5
 30
0.0
 11
-0.5
 21
0.098076
 31
0.0
  0
LINE
  5
359
330
1D76AEFB57
100
AcDbEntity
  8
0
100
AcDbLine
 10
0.0
 20
0.5
 30
0.0
 11
1.0
 21
0.5
 31
0.0
  0
LINE
  5
35A
330
1D76AEFB57
100
AcDbEntity
  8
0
100
AcDbLine
 10
1.0
 20
0.5
 30
0.0
 11
-0.5
 21
0.9019239999999999
 31
0.0
  0
ENDBLK
  5
35B
330
1D76AEFB57
100
AcDbEntity
  8
0
100
AcDbBlockEnd
  0
BLOCK
  5
1D76AF005D
330
1D76AF005C
100
AcDbEntity
  8
0
100
AcDbBlockBegin
  2
_OPEN30
 70
     0
 10
0.0
 20
0.0
 30
0.0
  3
_OPEN30
  1

  0
LINE
  5
1D76AF005E
330
1D76AF005C
100
AcDbEntity
  8
0
  6
BYBLOCK
 62
     0
100
AcDbLine
 10
-1.0
 20
0.267949
 30
0.0
 11
0.0
 21
0.0
 31
0.0
  0
LINE
  5
1D76AF005F
330
1D76AF005C
100
AcDbEntity
  8
0
  6
BYBLOCK
 62
     0
100
AcDbLine
 10
0.0
 20
0.0
 30
0.0
 11
-1.0
 21
-0.267949
 31
0.0
  0
LINE
  5
1D76AF0060
330
1D76AF005C
100
AcDbEntity
  8
0
  6
BYBLOCK
 62
     0
100
AcDbLine
 10
0.0
 20
0.0
 30
0.0
 11
-1.0
 21
0.0
 31
0.0
  0
ENDBLK
  5
1D76AF0061
330
1D76AF005C
100
AcDbEntity
  8
0
100
AcDbBlockEnd
  0
ENDSEC
  0
SECTION
  2
ENTITIES
  0
INSERT
  5
55
330
1D76AEFB48
100
AcDbEntity
  8
JISSEN
100
AcDbBlockReference
  2
STDGX5
 10
0.0
 20
0.0
 30
0.0
  0
TEXT
  5
9F
330
1D76AEFB48
100
AcDbEntity
  8
TEXT
100
AcDbText
 10
121.4620719999999
 20
54.429308
 30
0.0
 40
4.0
  1
　　　　
  7
K
100
AcDbText
  0
INSERT
  5
37B
330
1D76AEFB48
100
AcDbEntity
  8
JISSEN
100
AcDbBlockReference
  2
STDR12J
 10
0.0
 20
0.0
 30
0.0
  0
LINE
  5
D96C777
330
1D76AEFB48
100
AcDbEntity
  8
JISSEN
100
AcDbLine
 10
91.499999
 20
267.0
 30
0.0
 11
180.999999
 21
267.0
 31
0.0
  0
LINE
  5
D96C778
330
1D76AEFB48
100
AcDbEntity
  8
JISSEN
100
AcDbLine
 10
91.499999
 20
261.0
 30
0.0
 11
180.999999
 21
261.0
 31
0.0
  0
TEXT
  5
D96C779
330
1D76AEFB48
100
AcDbEntity
  8
TEXT
100
AcDbText
 10
107.899999
 20
268.5
 30
0.0
 40
3.0
  1
名      称
  7
K
 72
     4
 11
116.499999
 21
270.0
 31
0.0
100
AcDbText
  0
TEXT
  5
D96C77A
330
1D76AEFB48
100
AcDbEntity
  8
TEXT
100
AcDbText
 10
93.299999
 20
268.5
 30
0.0
 40
3.0
  1
番号
  7
K
 72
     4
 11
96.499999
 21
270.0
 31
0.0
100
AcDbText
  0
LINE
  5
D96C77B
330
1D76AEFB48
100
AcDbEntity
  8
JISSEN
100
AcDbLine
 10
91.499999
 20
249.0
 30
0.0
 11
91.499999
 21
273.0
 31
0.0
  0
LINE
  5
D96C77C
330
1D76AEFB48
100
AcDbEntity
  8
JISSEN
100
AcDbLine
 10
101.4999989999999
 20
273.0
 30
0.0
 11
101.4999989999999
 21
249.0
 31
0.0
  0
TEXT
  5
D96C77D
330
1D76AEFB48
100
AcDbEntity
  8
TEXT
100
AcDbText
 10
135.1999989999999
 20
268.5
 30
0.0
 40
3.0
  1
材    質
  7
K
 72
     4
 11
141.9999989999999
 21
270.0
 31
0.0
100
AcDbText
  0
LINE
  5
D96C77E
330
1D76AEFB48
100
AcDbEntity
  8
JISSEN
100
AcDbLine
 10
131.499999
 20
273.0
 30
0.0
 11
131.499999
 21
249.0
 31
0.0
  0
LINE
  5
D96C77F
330
1D76AEFB48
100
AcDbEntity
  8
JISSEN
100
AcDbLine
 10
152.4999989999999
 20
249.0
 30
0.0
 11
152.4999989999999
 21
273.0
 31
0.0
  0
TEXT
  5
D96C780
330
1D76AEFB48
100
AcDbEntity
  8
TEXT
100
AcDbText
 10
165.6999989999999
 20
268.5
 30
0.0
 40
3.0
  1
備    考
  7
K
 72
     4
 11
172.499999
 21
270.0
 31
0.0
100
AcDbText
  0
TEXT
  5
D96C781
330
1D76AEFB48
100
AcDbEntity
  8
TEXT
100
AcDbText
 10
154.799999
 20
268.5
 30
0.0
 40
3.0
  1
個数
  7
K
 72
     4
 11
157.999999
 21
270.0
 31
0.0
100
AcDbText
  0
LINE
  5
D96C782
330
1D76AEFB48
100
AcDbEntity
  8
JISSEN
100
AcDbLine
 10
163.499999
 20
273.0
 30
0.0
 11
163.499999
 21
249.0
 31
0.0
  0
TEXT
  5
1D76AEFD13
330
1D76AEFB48
100
AcDbEntity
  8
SUNPOU
100
AcDbText
 10
95.34046999999999
 20
262.486772
 30
0.0
 40
3.0
  1
1
  7
K
100
AcDbText
  0
TEXT
  5
1D76AEFD15
330
1D76AEFB48
100
AcDbEntity
  8
SUNPOU
100
AcDbText
 10
156.6822479999999
 20
262.486772
 30
0.0
 40
3.0
  1
1
  7
K
100
AcDbText
  0
ARC
  5
1D76AEFF00
330
1D76AEFB48
100
AcDbEntity
  8
JISSEN
100
AcDbCircle
 10
93.741905
 20
92.01507900000001
 30
0.0
 40
8.0
100
AcDbArc
 50
205.0
 51
315.0
  0
ARC
  5
1D76AEFF01
330
1D76AEFB48
100
AcDbEntity
  8
JISSEN
100
AcDbCircle
 10
91.18757700000001
 20
106.647043
 30
0.0
 40
26.0
100
AcDbArc
 50
227.5127879999999
 51
312.487212
  0
ARC
  5
1D76AEFF02
330
1D76AEFB48
100
AcDbEntity
  8
JISSEN
100
AcDbCircle
 10
91.18757700000001
 20
106.647043
 30
0.0
 40
29.0
100
AcDbArc
 50
180.0
 51
0.0
  0
LINE
  5
1D76AEFF03
330
1D76AEFB48
100
AcDbEntity
  8
JISSEN
100
AcDbLine
 10
91.18757700000001
 20
104.525722
 30
0.0
 11
107.804586
 21
87.908713
 31
0.0
  0
ARC
  5
1D76AEFF07
330
1D76AEFB48
100
AcDbEntity
  8
JISSEN
100
AcDbCircle
 10
91.18757700000001
 20
106.647043
 30
0.0
 40
29.0
100
AcDbArc
 50
0.0
 51
180.0
  0
ARC
  5
1D76AEFF08
330
1D76AEFB48
100
AcDbEntity
  8
JISSEN
100
AcDbCircle
 10
91.18757700000001
 20
106.647043
 30
0.0
 40
26.0
100
AcDbArc
 50
47.512788
 51
132.4872119999999
  0
ARC
  5
1D76AEFF09
330
1D76AEFB48
100
AcDbEntity
  8
JISSEN
100
AcDbCircle
 10
93.741905
 20
121.279006
 30
0.0
 40
8.0
100
AcDbArc
 50
45.0
 51
155.0
  0
CIRCLE
  5
1D76AEFF0A
330
1D76AEFB48
100
AcDbEntity
  8
JISSEN
 62
     7
100
AcDbCircle
 10
113.687577
 20
112.147043
 30
0.0
 40
1.5
  0
ARC
  5
1D76AEFF0C
330
1D76AEFB48
100
AcDbEntity
  8
JISSEN
 62
     7
100
AcDbCircle
 10
115.887577
 20
112.147043
 30
0.0
 40
6.75
100
AcDbArc
 50
343.816701
 51
16.18329899999999
  0
LINE
  5
1D76AEFF0D
330
1D76AEFB48
100
AcDbEntity
  8
JISSEN
 62
     7
100
AcDbLine
 10
120.687577
 20
114.7720429999999
 30
0.0
 11
120.687577
 21
109.5220429999999
 31
0.0
  0
LINE
  5
1D76AEFF0F
330
1D76AEFB48
100
AcDbEntity
  8
JISSEN
100
AcDbLine
 10
100.687577
 20
113.362899
 30
0.0
 11
100.687577
 21
110.931186
 31
0.0
  0
LINE
  5
1D76AEFF10
330
1D76AEFB48
100
AcDbEntity
  8
SAISEN
 62
     4
100
AcDbLine
 10
101.1849769999999
 20
110.6470429999999
 30
0.0
 11
101.1849769999999
 21
113.6470429999999
 31
0.0
  0
ARC
  5
1D76AEFF11
330
1D76AEFB48
100
AcDbEntity
  8
JISSEN
100
AcDbCircle
 10
91.18757700000001
 20
106.647043
 30
0.0
 40
26.0
100
AcDbArc
 50
0.0
 51
42.48721200000001
  0
LINE
  5
1D76AEFF13
330
1D76AEFB48
100
AcDbEntity
  8
TENSEN
100
AcDbLine
 10
110.687577
 20
115.5470429999999
 30
0.0
 11
116.687577
 21
115.5470429999999
 31
0.0
  0
ARC
  5
1D76AEFF14
330
1D76AEFB48
100
AcDbEntity
  8
JISSEN
 62
     7
100
AcDbCircle
 10
121.433743
 20
113.7566
 30
0.0
 40
0.975
100
AcDbArc
 50
16.18329899999999
 51
87.0
  0
LINE
  5
1D76AEFF15
330
1D76AEFB48
100
AcDbEntity
  8
JISSEN
 62
     7
100
AcDbLine
 10
121.4847699999999
 20
114.7302629999999
 30
0.0
 11
120.687577
 21
114.7720429999999
 31
0.0
  0
LINE
  5
1D76AEFF16
330
1D76AEFB48
100
AcDbEntity
  8
SAISEN
 62
     4
100
AcDbLine
 10
120.687577
 20
113.362899
 30
0.0
 11
119.399228
 21
113.362899
 31
0.0
  0
LINE
  5
1D76AEFF17
330
1D76AEFB48
100
AcDbEntity
  8
JISSEN
 62
     7
100
AcDbLine
 10
120.687577
 20
113.6470429999999
 30
0.0
 11
119.330072
 21
113.6470429999999
 31
0.0
  0
LINE
  5
1D76AEFF18
330
1D76AEFB48
100
AcDbEntity
  8
SAISEN
 62
     4
100
AcDbLine
 10
110.687577
 20
113.362899
 30
0.0
 11
100.687577
 21
113.362899
 31
0.0
  0
LINE
  5
1D76AEFF19
330
1D76AEFB48
100
AcDbEntity
  8
JISSEN
 62
     7
100
AcDbLine
 10
110.687577
 20
113.6470429999999
 30
0.0
 11
101.1849769999999
 21
113.6470429999999
 31
0.0
  0
LINE
  5
1D76AEFF1A
330
1D76AEFB48
100
AcDbEntity
  8
JISSEN
100
AcDbLine
 10
104.376917
 20
121.957703
 30
0.0
 11
99.398759
 21
126.93586
 31
0.0
  0
ARC
  5
1D76AEFF1B
330
1D76AEFB48
100
AcDbEntity
  8
JISSEN
100
AcDbCircle
 10
108.8652469999999
 20
124.324712
 30
0.0
 40
1.5
100
AcDbArc
 50
315.0
 51
135.0
  0
LINE
  5
1D76AEFF1C
330
1D76AEFB48
100
AcDbEntity
  8
JISSEN
100
AcDbLine
 10
110.687577
 20
115.6470429999999
 30
0.0
 11
106.498237
 21
119.8363819999999
 31
0.0
  0
LINE
  5
1D76AEFF1D
330
1D76AEFB48
100
AcDbEntity
  8
JISSEN
100
AcDbLine
 10
101.1849769999999
 20
113.6470429999999
 30
0.0
 11
100.687577
 21
113.362899
 31
0.0
  0
LINE
  5
1D76AEFF1E
330
1D76AEFB48
100
AcDbEntity
  8
TENSEN
100
AcDbLine
 10
110.687577
 20
97.74704300000001
 30
0.0
 11
116.687577
 21
97.74704300000001
 31
0.0
  0
ARC
  5
1D76AEFF1F
330
1D76AEFB48
100
AcDbEntity
  8
JISSEN
100
AcDbCircle
 10
91.18757700000001
 20
106.647043
 30
0.0
 40
26.0
100
AcDbArc
 50
317.512788
 51
0.0
  0
CIRCLE
  5
1D76AEFF20
330
1D76AEFB48
100
AcDbEntity
  8
JISSEN
 62
     7
100
AcDbCircle
 10
113.687577
 20
101.147043
 30
0.0
 40
1.5
  0
LINE
  5
1D76AEFF21
330
1D76AEFB48
100
AcDbEntity
  8
JISSEN
 62
     7
100
AcDbLine
 10
120.687577
 20
98.52204300000002
 30
0.0
 11
120.687577
 21
103.772043
 31
0.0
  0
ARC
  5
1D76AEFF22
330
1D76AEFB48
100
AcDbEntity
  8
JISSEN
 62
     7
100
AcDbCircle
 10
115.887577
 20
101.147043
 30
0.0
 40
6.75
100
AcDbArc
 50
343.816701
 51
16.18329899999999
  0
ARC
  5
1D76AEFF24
330
1D76AEFB48
100
AcDbEntity
  8
JISSEN
 62
     7
100
AcDbCircle
 10
121.433743
 20
110.537485
 30
0.0
 40
0.975
100
AcDbArc
 50
273.0
 51
343.816701
  0
LINE
  5
1D76AEFF25
330
1D76AEFB48
100
AcDbEntity
  8
JISSEN
 62
     7
100
AcDbLine
 10
120.687577
 20
109.5220429999999
 30
0.0
 11
121.4847699999999
 21
109.563822
 31
0.0
  0
LINE
  5
1D76AEFF26
330
1D76AEFB48
100
AcDbEntity
  8
JISSEN
 62
     7
100
AcDbLine
 10
119.9103899999999
 20
110.6470429999999
 30
0.0
 11
120.687577
 21
110.6470429999999
 31
0.0
  0
LINE
  5
1D76AEFF27
330
1D76AEFB48
100
AcDbEntity
  8
SAISEN
 62
     4
100
AcDbLine
 10
120.687577
 20
110.931186
 30
0.0
 11
119.869385
 21
110.931186
 31
0.0
  0
ARC
  5
1D76AEFF28
330
1D76AEFB48
100
AcDbEntity
  8
JISSEN
 62
     7
100
AcDbCircle
 10
121.433743
 20
102.7565999999999
 30
0.0
 40
0.975
100
AcDbArc
 50
16.18329899999999
 51
87.0
  0
LINE
  5
1D76AEFF29
330
1D76AEFB48
100
AcDbEntity
  8
SAISEN
 62
     4
100
AcDbLine
 10
120.687577
 20
102.3628989999999
 30
0.0
 11
119.869385
 21
102.3628989999999
 31
0.0
  0
LINE
  5
1D76AEFF2A
330
1D76AEFB48
100
AcDbEntity
  8
JISSEN
 62
     7
100
AcDbLine
 10
119.9103899999999
 20
102.647043
 30
0.0
 11
120.687577
 21
102.647043
 31
0.0
  0
LINE
  5
1D76AEFF2B
330
1D76AEFB48
100
AcDbEntity
  8
JISSEN
 62
     7
100
AcDbLine
 10
120.687577
 20
103.772043
 30
0.0
 11
121.4847699999999
 21
103.7302629999999
 31
0.0
  0
ARC
  5
1D76AEFF2C
330
1D76AEFB48
100
AcDbEntity
  8
JISSEN
 62
     7
100
AcDbCircle
 10
121.433743
 20
99.53748500000001
 30
0.0
 40
0.975
100
AcDbArc
 50
273.0
 51
343.816701
  0
LINE
  5
1D76AEFF2D
330
1D76AEFB48
100
AcDbEntity
  8
JISSEN
 62
     7
100
AcDbLine
 10
120.687577
 20
99.64704300000001
 30
0.0
 11
119.330072
 21
99.64704300000001
 31
0.0
  0
LINE
  5
1D76AEFF2E
330
1D76AEFB48
100
AcDbEntity
  8
SAISEN
 62
     4
100
AcDbLine
 10
120.687577
 20
99.931186
 30
0.0
 11
119.399228
 21
99.931186
 31
0.0
  0
LINE
  5
1D76AEFF2F
330
1D76AEFB48
100
AcDbEntity
  8
JISSEN
 62
     7
100
AcDbLine
 10
121.4847699999999
 20
98.563822
 30
0.0
 11
120.687577
 21
98.52204300000002
 31
0.0
  0
LINE
  5
1D76AEFF33
330
1D76AEFB48
100
AcDbEntity
  8
JISSEN
 62
     7
100
AcDbLine
 10
101.1849769999999
 20
102.647043
 30
0.0
 11
110.687577
 21
102.647043
 31
0.0
  0
LINE
  5
1D76AEFF34
330
1D76AEFB48
100
AcDbEntity
  8
SAISEN
 62
     4
100
AcDbLine
 10
110.687577
 20
102.3628989999999
 30
0.0
 11
100.687577
 21
102.3628989999999
 31
0.0
  0
LINE
  5
1D76AEFF35
330
1D76AEFB48
100
AcDbEntity
  8
JISSEN
 62
     7
100
AcDbLine
 10
110.687577
 20
99.64704300000001
 30
0.0
 11
101.1849769999999
 21
99.64704300000001
 31
0.0
  0
LINE
  5
1D76AEFF36
330
1D76AEFB48
100
AcDbEntity
  8
SAISEN
 62
     4
100
AcDbLine
 10
110.687577
 20
99.931186
 30
0.0
 11
100.687577
 21
99.931186
 31
0.0
  0
LINE
  5
1D76AEFF37
330
1D76AEFB48
100
AcDbEntity
  8
SAISEN
 62
     4
100
AcDbLine
 10
110.687577
 20
110.931186
 30
0.0
 11
100.687577
 21
110.931186
 31
0.0
  0
LINE
  5
1D76AEFF38
330
1D76AEFB48
100
AcDbEntity
  8
JISSEN
 62
     7
100
AcDbLine
 10
101.1849769999999
 20
110.6470429999999
 30
0.0
 11
110.687577
 21
110.6470429999999
 31
0.0
  0
LINE
  5
1D76AEFF3B
330
1D76AEFB48
100
AcDbEntity
  8
JISSEN
100
AcDbLine
 10
110.687577
 20
97.64704300000001
 30
0.0
 11
106.498237
 21
93.45770300000001
 31
0.0
  0
LINE
  5
1D76AEFF3C
330
1D76AEFB48
100
AcDbEntity
  8
SAISEN
 62
     4
100
AcDbLine
 10
101.1849769999999
 20
102.647043
 30
0.0
 11
101.1849769999999
 21
99.64704300000001
 31
0.0
  0
LINE
  5
1D76AEFF3D
330
1D76AEFB48
100
AcDbEntity
  8
JISSEN
100
AcDbLine
 10
100.687577
 20
99.931186
 30
0.0
 11
100.687577
 21
102.3628989999999
 31
0.0
  0
LINE
  5
1D76AEFF3E
330
1D76AEFB48
100
AcDbEntity
  8
JISSEN
100
AcDbLine
 10
101.1849769999999
 20
110.6470429999999
 30
0.0
 11
100.687577
 21
110.931186
 31
0.0
  0
LINE
  5
1D76AEFF3F
330
1D76AEFB48
100
AcDbEntity
  8
JISSEN
100
AcDbLine
 10
101.1849769999999
 20
102.647043
 30
0.0
 11
100.687577
 21
102.3628989999999
 31
0.0
  0
LINE
  5
1D76AEFF40
330
1D76AEFB48
100
AcDbEntity
  8
JISSEN
100
AcDbLine
 10
101.1849769999999
 20
99.64704300000001
 30
0.0
 11
100.687577
 21
99.931186
 31
0.0
  0
LINE
  5
1D76AEFF41
330
1D76AEFB48
100
AcDbEntity
  8
JISSEN
100
AcDbLine
 10
104.376917
 20
91.336382
 30
0.0
 11
99.398759
 21
86.35822500000001
 31
0.0
  0
ARC
  5
1D76AEFF42
330
1D76AEFB48
100
AcDbEntity
  8
JISSEN
100
AcDbCircle
 10
108.8652469999999
 20
88.96937300000001
 30
0.0
 40
1.5
100
AcDbArc
 50
225.0
 51
45.0
  0
CIRCLE
  5
1D76AEFF44
330
1D76AEFB48
100
AcDbEntity
  8
JISSEN
 62
     7
100
AcDbCircle
 10
78.687577
 20
112.147043
 30
0.0
 40
1.5
  0
LINE
  5
1D76AEFF45
330
1D76AEFB48
100
AcDbEntity
  8
JISSEN
100
AcDbLine
 10
89.06625699999999
 20
106.647043
 30
0.0
 11
72.449247
 21
123.264052
 31
0.0
  0
LINE
  5
1D76AEFF46
330
1D76AEFB48
100
AcDbEntity
  8
JISSEN
100
AcDbLine
 10
109.925907
 20
90.03003299999999
 30
0.0
 11
93.308897
 21
106.647043
 31
0.0
  0
LINE
  5
1D76AEFF47
330
1D76AEFB48
100
AcDbEntity
  8
TENSEN
100
AcDbLine
 10
81.687577
 20
106.647043
 30
0.0
 11
81.687577
 21
114.822043
 31
0.0
  0
LINE
  5
1D76AEFF48
330
1D76AEFB48
100
AcDbEntity
  8
TENSEN
100
AcDbLine
 10
75.687577
 20
106.647043
 30
0.0
 11
75.687577
 21
114.822043
 31
0.0
  0
ARC
  5
1D76AEFF49
330
1D76AEFB48
100
AcDbEntity
  8
JISSEN
100
AcDbCircle
 10
91.18757700000001
 20
106.647043
 30
0.0
 40
26.0
100
AcDbArc
 50
137.5127879999999
 51
180.0
  0
ARC
  5
1D76AEFF4A
330
1D76AEFB48
100
AcDbEntity
  8
JISSEN
100
AcDbCircle
 10
73.50990799999999
 20
124.324712
 30
0.0
 40
1.5
100
AcDbArc
 50
45.0
 51
225.0
  0
LINE
  5
1D76AEFF4B
330
1D76AEFB48
100
AcDbEntity
  8
JISSEN
100
AcDbLine
 10
83.68757700000001
 20
118.6470429999999
 30
0.0
 11
86.49144300000001
 21
124.6599519999999
 31
0.0
  0
LINE
  5
1D76AEFF4C
330
1D76AEFB48
100
AcDbEntity
  8
JISSEN
100
AcDbLine
 10
83.68757700000001
 20
116.2683629999999
 30
0.0
 11
83.68757700000001
 21
118.6470429999999
 31
0.0
  0
LINE
  5
1D76AEFF4D
330
1D76AEFB48
100
AcDbEntity
  8
TENSEN
100
AcDbLine
 10
75.687577
 20
114.822043
 30
0.0
 11
81.687577
 21
114.822043
 31
0.0
  0
ARC
  5
1D76AEFF4E
330
1D76AEFB48
100
AcDbEntity
  8
JISSEN
100
AcDbCircle
 10
73.50990799999999
 20
88.96937300000001
 30
0.0
 40
1.5
100
AcDbArc
 50
135.0
 51
315.0
  0
LINE
  5
1D76AEFF50
330
1D76AEFB48
100
AcDbEntity
  8
JISSEN
100
AcDbLine
 10
83.68757700000001
 20
94.64704300000001
 30
0.0
 11
86.49144300000001
 21
88.63413299999999
 31
0.0
  0
LINE
  5
1D76AEFF51
330
1D76AEFB48
100
AcDbEntity
  8
JISSEN
100
AcDbLine
 10
109.925907
 20
123.264052
 30
0.0
 11
74.57056800000001
 21
87.908713
 31
0.0
  0
LINE
  5
1D76AEFF52
330
1D76AEFB48
100
AcDbEntity
  8
JISSEN
100
AcDbLine
 10
83.68757700000001
 20
106.647043
 30
0.0
 11
83.68757700000001
 21
101.2683629999999
 31
0.0
  0
LINE
  5
1D76AEFF53
330
1D76AEFB48
100
AcDbEntity
  8
JISSEN
100
AcDbLine
 10
83.68757700000001
 20
106.647043
 30
0.0
 11
83.68757700000001
 21
112.025722
 31
0.0
  0
LINE
  5
1D76AEFF54
330
1D76AEFB48
100
AcDbEntity
  8
JISSEN
100
AcDbLine
 10
83.68757700000001
 20
97.025722
 30
0.0
 11
83.68757700000001
 21
94.64704300000001
 31
0.0
  0
LINE
  5
1D76AEFF55
330
1D76AEFB48
100
AcDbEntity
  8
TENSEN
100
AcDbLine
 10
75.687577
 20
106.647043
 30
0.0
 11
75.687577
 21
98.47204300000001
 31
0.0
  0
LINE
  5
1D76AEFF56
330
1D76AEFB48
100
AcDbEntity
  8
TENSEN
100
AcDbLine
 10
81.687577
 20
106.647043
 30
0.0
 11
81.687577
 21
98.47204300000001
 31
0.0
  0
CIRCLE
  5
1D76AEFF57
330
1D76AEFB48
100
AcDbEntity
  8
JISSEN
 62
     7
100
AcDbCircle
 10
78.687577
 20
101.147043
 30
0.0
 40
1.5
  0
LINE
  5
1D76AEFF58
330
1D76AEFB48
100
AcDbEntity
  8
TENSEN
100
AcDbLine
 10
75.687577
 20
98.47204300000001
 30
0.0
 11
81.687577
 21
98.47204300000001
 31
0.0
  0
ARC
  5
1D76AEFF59
330
1D76AEFB48
100
AcDbEntity
  8
JISSEN
100
AcDbCircle
 10
91.18757700000001
 20
106.647043
 30
0.0
 40
26.0
100
AcDbArc
 50
180.0
 51
222.487212
  0
LINE
  5
1D76AEFFAB
330
1D76AEFB48
100
AcDbEntity
  8
SAISEN
 62
     4
100
AcDbLine
 10
110.687577
 20
218.121089
 30
0.0
 11
100.687577
 21
218.121089
 31
0.0
  0
LINE
  5
1D76AEFFAC
330
1D76AEFB48
100
AcDbEntity
  8
JISSEN
 62
     7
100
AcDbLine
 10
110.687577
 20
220.836945
 30
0.0
 11
101.1849769999999
 21
220.836945
 31
0.0
  0
LINE
  5
1D76AEFFAD
330
1D76AEFB48
100
AcDbEntity
  8
SAISEN
 62
     4
100
AcDbLine
 10
110.687577
 20
220.552802
 30
0.0
 11
100.687577
 21
220.552802
 31
0.0
  0
LINE
  5
1D76AEFFAE
330
1D76AEFB48
100
AcDbEntity
  8
JISSEN
 62
     7
100
AcDbLine
 10
101.1849769999999
 20
217.836945
 30
0.0
 11
110.687577
 21
217.836945
 31
0.0
  0
LINE
  5
1D76AEFFAF
330
1D76AEFB48
100
AcDbEntity
  8
JISSEN
100
AcDbLine
 10
91.18757700000001
 20
216.336945
 30
0.0
 11
119.187577
 21
216.336945
 31
0.0
  0
LINE
  5
1D76AEFFB0
330
1D76AEFB48
100
AcDbEntity
  8
JISSEN
100
AcDbLine
 10
119.187577
 20
214.336945
 30
0.0
 11
91.18757700000001
 21
214.336945
 31
0.0
  0
LINE
  5
1D76AEFFB1
330
1D76AEFB48
100
AcDbEntity
  8
JISSEN
100
AcDbLine
 10
119.187577
 20
203.3369449999999
 30
0.0
 11
91.18757700000001
 21
203.3369449999999
 31
0.0
  0
LINE
  5
1D76AEFFB2
330
1D76AEFB48
100
AcDbEntity
  8
JISSEN
100
AcDbLine
 10
119.187577
 20
206.3369449999999
 30
0.0
 11
91.18757700000001
 21
206.3369449999999
 31
0.0
  0
LINE
  5
1D76AEFFB3
330
1D76AEFB48
100
AcDbEntity
  8
JISSEN
100
AcDbLine
 10
103.365247
 20
173.3369449999999
 30
0.0
 11
91.18757700000001
 21
173.3369449999999
 31
0.0
  0
LINE
  5
1D76AEFFB4
330
1D76AEFB48
100
AcDbEntity
  8
JISSEN
100
AcDbLine
 10
103.365247
 20
176.3369449999999
 30
0.0
 11
91.18757700000001
 21
176.3369449999999
 31
0.0
  0
LINE
  5
1D76AEFFB5
330
1D76AEFB48
100
AcDbEntity
  8
JISSEN
100
AcDbLine
 10
103.365247
 20
179.3369449999999
 30
0.0
 11
91.18757700000001
 21
179.3369449999999
 31
0.0
  0
LINE
  5
1D76AEFFB6
330
1D76AEFB48
100
AcDbEntity
  8
JISSEN
100
AcDbLine
 10
91.18757700000001
 20
187.336945
 30
0.0
 11
119.187577
 21
187.336945
 31
0.0
  0
LINE
  5
1D76AEFFB7
330
1D76AEFB48
100
AcDbEntity
  8
JISSEN
100
AcDbLine
 10
119.187577
 20
184.3369449999999
 30
0.0
 11
91.18757700000001
 21
184.3369449999999
 31
0.0
  0
ARC
  5
1D76AEFFB8
330
1D76AEFB48
100
AcDbEntity
  8
JISSEN
100
AcDbCircle
 10
119.187577
 20
185.8369449999999
 30
0.0
 40
1.5
100
AcDbArc
 50
270.0
 51
90.0
  0
ARC
  5
1D76AEFFB9
330
1D76AEFB48
100
AcDbEntity
  8
JISSEN
100
AcDbCircle
 10
103.365247
 20
180.3369449999999
 30
0.0
 40
7.0
100
AcDbArc
 50
270.0
 51
0.0
  0
ARC
  5
1D76AEFFBA
330
1D76AEFB48
100
AcDbEntity
  8
JISSEN
100
AcDbCircle
 10
103.365247
 20
183.336945
 30
0.0
 40
7.0
100
AcDbArc
 50
270.0
 51
0.0
  0
LINE
  5
1D76AEFFBB
330
1D76AEFB48
100
AcDbEntity
  8
JISSEN
100
AcDbLine
 10
110.3652469999999
 20
180.3369449999999
 30
0.0
 11
110.3652469999999
 21
184.3369449999999
 31
0.0
  0
ARC
  5
1D76AEFFBC
330
1D76AEFB48
100
AcDbEntity
  8
JISSEN
100
AcDbCircle
 10
103.365247
 20
183.336945
 30
0.0
 40
4.0
100
AcDbArc
 50
270.0
 51
0.0
  0
LINE
  5
1D76AEFFBD
330
1D76AEFB48
100
AcDbEntity
  8
JISSEN
100
AcDbLine
 10
107.365247
 20
183.336945
 30
0.0
 11
107.365247
 21
184.3369449999999
 31
0.0
  0
LINE
  5
1D76AEFFBE
330
1D76AEFB48
100
AcDbEntity
  8
JISSEN
100
AcDbLine
 10
107.365247
 20
206.3369449999999
 30
0.0
 11
107.365247
 21
214.336945
 31
0.0
  0
LINE
  5
1D76AEFFBF
330
1D76AEFB48
100
AcDbEntity
  8
JISSEN
100
AcDbLine
 10
110.3652469999999
 20
206.3369449999999
 30
0.0
 11
110.3652469999999
 21
214.336945
 31
0.0
  0
ARC
  5
1D76AEFFC0
330
1D76AEFB48
100
AcDbEntity
  8
JISSEN
100
AcDbCircle
 10
119.187577
 20
204.836945
 30
0.0
 40
1.5
100
AcDbArc
 50
270.0
 51
90.0
  0
LINE
  5
1D76AEFFC1
330
1D76AEFB48
100
AcDbEntity
  8
JISSEN
100
AcDbLine
 10
107.365247
 20
187.336945
 30
0.0
 11
107.365247
 21
203.3369449999999
 31
0.0
  0
LINE
  5
1D76AEFFC2
330
1D76AEFB48
100
AcDbEntity
  8
JISSEN
100
AcDbLine
 10
110.3652469999999
 20
187.336945
 30
0.0
 11
110.3652469999999
 21
203.3369449999999
 31
0.0
  0
LINE
  5
1D76AEFFC3
330
1D76AEFB48
100
AcDbEntity
  8
JISSEN
100
AcDbLine
 10
110.687577
 20
222.336945
 30
0.0
 11
116.687577
 21
222.336945
 31
0.0
  0
LINE
  5
1D76AEFFC4
330
1D76AEFB48
100
AcDbEntity
  8
JISSEN
100
AcDbLine
 10
116.687577
 20
222.336945
 30
0.0
 11
116.687577
 21
216.336945
 31
0.0
  0
ARC
  5
1D76AEFFC5
330
1D76AEFB48
100
AcDbEntity
  8
JISSEN
 62
     7
100
AcDbCircle
 10
115.887577
 20
219.336945
 30
0.0
 40
6.75
100
AcDbArc
 50
343.816701
 51
16.18329899999999
  0
LINE
  5
1D76AEFFC6
330
1D76AEFB48
100
AcDbEntity
  8
JISSEN
 62
     7
100
AcDbLine
 10
120.687577
 20
221.961945
 30
0.0
 11
120.687577
 21
216.711945
 31
0.0
  0
LINE
  5
1D76AEFFC7
330
1D76AEFB48
100
AcDbEntity
  8
JISSEN
 62
     7
100
AcDbLine
 10
116.687577
 20
217.836945
 30
0.0
 11
120.687577
 21
217.836945
 31
0.0
  0
LINE
  5
1D76AEFFC8
330
1D76AEFB48
100
AcDbEntity
  8
SAISEN
 62
     4
100
AcDbLine
 10
120.687577
 20
218.121089
 30
0.0
 11
116.687577
 21
218.121089
 31
0.0
  0
ARC
  5
1D76AEFFC9
330
1D76AEFB48
100
AcDbEntity
  8
JISSEN
 62
     7
100
AcDbCircle
 10
121.433743
 20
217.7273879999999
 30
0.0
 40
0.975
100
AcDbArc
 50
273.0
 51
343.816701
  0
LINE
  5
1D76AEFFCA
330
1D76AEFB48
100
AcDbEntity
  8
JISSEN
 62
     7
100
AcDbLine
 10
120.687577
 20
216.711945
 30
0.0
 11
121.4847699999999
 21
216.753724
 31
0.0
  0
LINE
  5
1D76AEFFCB
330
1D76AEFB48
100
AcDbEntity
  8
JISSEN
100
AcDbLine
 10
119.187577
 20
216.336945
 30
0.0
 11
119.187577
 21
214.336945
 31
0.0
  0
LINE
  5
1D76AEFFCC
330
1D76AEFB48
100
AcDbEntity
  8
JISSEN
 62
     7
100
AcDbLine
 10
120.687577
 20
220.836945
 30
0.0
 11
116.687577
 21
220.836945
 31
0.0
  0
LINE
  5
1D76AEFFCD
330
1D76AEFB48
100
AcDbEntity
  8
SAISEN
 62
     4
100
AcDbLine
 10
120.687577
 20
220.552802
 30
0.0
 11
116.687577
 21
220.552802
 31
0.0
  0
ARC
  5
1D76AEFFCE
330
1D76AEFB48
100
AcDbEntity
  8
JISSEN
 62
     7
100
AcDbCircle
 10
121.433743
 20
220.946502
 30
0.0
 40
0.975
100
AcDbArc
 50
16.18329899999999
 51
87.0
  0
LINE
  5
1D76AEFFCF
330
1D76AEFB48
100
AcDbEntity
  8
JISSEN
 62
     7
100
AcDbLine
 10
121.4847699999999
 20
221.920166
 30
0.0
 11
120.687577
 21
221.961945
 31
0.0
  0
LINE
  5
1D76AEFFD1
330
1D76AEFB48
100
AcDbEntity
  8
JISSEN
100
AcDbLine
 10
110.687577
 20
216.336945
 30
0.0
 11
110.687577
 21
222.336945
 31
0.0
  0
ARC
  5
1D76AEFFD2
330
1D76AEFB48
100
AcDbEntity
  8
JISSEN
100
AcDbCircle
 10
108.8652469999999
 20
211.111945
 30
0.0
 40
6.025
100
AcDbArc
 50
72.39449399999999
 51
119.862834
  0
LINE
  5
1D76AEFFD3
330
1D76AEFB48
100
AcDbEntity
  8
JISSEN
100
AcDbLine
 10
110.687577
 20
216.336945
 30
0.0
 11
110.687577
 21
214.336945
 31
0.0
  0
LINE
  5
1D76AEFFDD
330
1D76AEFB48
100
AcDbEntity
  8
JISSEN
100
AcDbLine
 10
100.687577
 20
220.552802
 30
0.0
 11
100.687577
 21
218.121089
 31
0.0
  0
LINE
  5
1D76AEFFDE
330
1D76AEFB48
100
AcDbEntity
  8
SAISEN
 62
     4
100
AcDbLine
 10
101.1849769999999
 20
217.836945
 30
0.0
 11
101.1849769999999
 21
220.836945
 31
0.0
  0
LINE
  5
1D76AEFFDF
330
1D76AEFB48
100
AcDbEntity
  8
JISSEN
100
AcDbLine
 10
101.1849769999999
 20
217.836945
 30
0.0
 11
100.687577
 21
218.121089
 31
0.0
  0
LINE
  5
1D76AEFFE0
330
1D76AEFB48
100
AcDbEntity
  8
JISSEN
100
AcDbLine
 10
101.1849769999999
 20
220.836945
 30
0.0
 11
100.687577
 21
220.552802
 31
0.0
  0
LINE
  5
1D76AF0032
330
1D76AEFB48
100
AcDbEntity
  8
JISSEN
100
AcDbLine
 10
91.18757700000001
 20
206.3369449999999
 30
0.0
 11
63.187577
 21
206.3369449999999
 31
0.0
  0
LINE
  5
1D76AF0034
330
1D76AEFB48
100
AcDbEntity
  8
JISSEN
100
AcDbLine
 10
91.18757700000001
 20
203.3369449999999
 30
0.0
 11
63.187577
 21
203.3369449999999
 31
0.0
  0
LINE
  5
1D76AF0035
330
1D76AEFB48
100
AcDbEntity
  8
JISSEN
100
AcDbLine
 10
63.187577
 20
187.336945
 30
0.0
 11
91.18757700000001
 21
187.336945
 31
0.0
  0
LINE
  5
1D76AF0037
330
1D76AEFB48
100
AcDbEntity
  8
JISSEN
100
AcDbLine
 10
91.18757700000001
 20
184.3369449999999
 30
0.0
 11
63.187577
 21
184.3369449999999
 31
0.0
  0
LINE
  5
1D76AF0038
330
1D76AEFB48
100
AcDbEntity
  8
JISSEN
100
AcDbLine
 10
91.18757700000001
 20
216.336945
 30
0.0
 11
63.187577
 21
216.336945
 31
0.0
  0
LINE
  5
1D76AF0039
330
1D76AEFB48
100
AcDbEntity
  8
JISSEN
100
AcDbLine
 10
63.187577
 20
214.336945
 30
0.0
 11
91.18757700000001
 21
214.336945
 31
0.0
  0
LINE
  5
1D76AF003A
330
1D76AEFB48
100
AcDbEntity
  8
JISSEN
100
AcDbLine
 10
75.009908
 20
206.3369449999999
 30
0.0
 11
75.009908
 21
214.336945
 31
0.0
  0
LINE
  5
1D76AF003B
330
1D76AEFB48
100
AcDbEntity
  8
JISSEN
100
AcDbLine
 10
72.00990799999999
 20
206.3369449999999
 30
0.0
 11
72.00990799999999
 21
214.336945
 31
0.0
  0
LINE
  5
1D76AF003C
330
1D76AEFB48
100
AcDbEntity
  8
JISSEN
100
AcDbLine
 10
91.18757700000001
 20
179.3369449999999
 30
0.0
 11
79.00990799999999
 21
179.3369449999999
 31
0.0
  0
LINE
  5
1D76AF003D
330
1D76AEFB48
100
AcDbEntity
  8
JISSEN
100
AcDbLine
 10
91.18757700000001
 20
176.3369449999999
 30
0.0
 11
79.00990799999999
 21
176.3369449999999
 31
0.0
  0
LINE
  5
1D76AF003E
330
1D76AEFB48
100
AcDbEntity
  8
JISSEN
100
AcDbLine
 10
91.18757700000001
 20
173.3369449999999
 30
0.0
 11
79.00990799999999
 21
173.3369449999999
 31
0.0
  0
LINE
  5
1D76AF003F
330
1D76AEFB48
100
AcDbEntity
  8
JISSEN
100
AcDbLine
 10
72.00990799999999
 20
187.336945
 30
0.0
 11
72.00990799999999
 21
203.3369449999999
 31
0.0
  0
LINE
  5
1D76AF0040
330
1D76AEFB48
100
AcDbEntity
  8
JISSEN
100
AcDbLine
 10
75.009908
 20
187.336945
 30
0.0
 11
75.009908
 21
203.3369449999999
 31
0.0
  0
ARC
  5
1D76AF0041
330
1D76AEFB48
100
AcDbEntity
  8
JISSEN
100
AcDbCircle
 10
79.00990799999999
 20
180.3369449999999
 30
0.0
 40
7.0
100
AcDbArc
 50
180.0
 51
270.0
  0
ARC
  5
1D76AF0042
330
1D76AEFB48
100
AcDbEntity
  8
JISSEN
100
AcDbCircle
 10
79.00990799999999
 20
183.336945
 30
0.0
 40
7.0
100
AcDbArc
 50
180.0
 51
270.0
  0
ARC
  5
1D76AF0043
330
1D76AEFB48
100
AcDbEntity
  8
JISSEN
100
AcDbCircle
 10
79.00990799999999
 20
183.336945
 30
0.0
 40
4.0
100
AcDbArc
 50
180.0
 51
270.0
  0
LINE
  5
1D76AF0044
330
1D76AEFB48
100
AcDbEntity
  8
JISSEN
100
AcDbLine
 10
72.00990799999999
 20
180.3369449999999
 30
0.0
 11
72.00990799999999
 21
184.3369449999999
 31
0.0
  0
LINE
  5
1D76AF0045
330
1D76AEFB48
100
AcDbEntity
  8
JISSEN
100
AcDbLine
 10
75.009908
 20
183.336945
 30
0.0
 11
75.009908
 21
184.3369449999999
 31
0.0
  0
LINE
  5
1D76AF0046
330
1D76AEFB48
100
AcDbEntity
  8
JISSEN
100
AcDbLine
 10
75.687577
 20
222.336945
 30
0.0
 11
81.687577
 21
222.336945
 31
0.0
  0
LINE
  5
1D76AF0048
330
1D76AEFB48
100
AcDbEntity
  8
JISSEN
100
AcDbLine
 10
81.687577
 20
222.336945
 30
0.0
 11
81.687577
 21
216.336945
 31
0.0
  0
LINE
  5
1D76AF0049
330
1D76AEFB48
100
AcDbEntity
  8
JISSEN
100
AcDbLine
 10
83.68757700000001
 20
216.336945
 30
0.0
 11
83.68757700000001
 21
214.336945
 31
0.0
  0
ARC
  5
1D76AF004A
330
1D76AEFB48
100
AcDbEntity
  8
JISSEN
100
AcDbCircle
 10
73.50990799999999
 20
211.111945
 30
0.0
 40
6.025
100
AcDbArc
 50
68.811408
 51
119.862834
  0
LINE
  5
1D76AF004B
330
1D76AEFB48
100
AcDbEntity
  8
JISSEN
100
AcDbLine
 10
75.687577
 20
216.336945
 30
0.0
 11
75.687577
 21
222.336945
 31
0.0
  0
ARC
  5
1D76AF004C
330
1D76AEFB48
100
AcDbEntity
  8
JISSEN
100
AcDbCircle
 10
63.187577
 20
185.8369449999999
 30
0.0
 40
1.5
100
AcDbArc
 50
90.0
 51
270.0
  0
ARC
  5
1D76AF004D
330
1D76AEFB48
100
AcDbEntity
  8
JISSEN
100
AcDbCircle
 10
63.187577
 20
204.836945
 30
0.0
 40
1.5
100
AcDbArc
 50
90.0
 51
270.0
  0
LINE
  5
1D76AF004E
330
1D76AEFB48
100
AcDbEntity
  8
JISSEN
100
AcDbLine
 10
63.187577
 20
216.336945
 30
0.0
 11
63.187577
 21
214.336945
 31
0.0
  0
LWPOLYLINE
  5
1D76AF008C
330
1D76AEFB48
100
AcDbEntity
  8
WAKU
100
AcDbPolyline
 90
        4
 70
     1
 43
0.0
 10
180.999999
 20
0.0
 10
0.0
 20
0.0
 10
0.0
 20
273.0
 10
180.999999
 20
273.0
  0
LINE
  5
1D76AF00B3
330
1D76AEFB48
100
AcDbEntity
  8
JISSEN
100
AcDbLine
 10
91.499999
 20
255.0
 30
0.0
 11
180.999999
 21
255.0
 31
0.0
  0
TEXT
  5
1D76AF00B4
330
1D76AEFB48
100
AcDbEntity
  8
SUNPOU
100
AcDbText
 10
95.34046999999999
 20
256.486772
 30
0.0
 40
3.0
  1
2
  7
K
100
AcDbText
  0
TEXT
  5
1D76AF00B6
330
1D76AEFB48
100
AcDbEntity
  8
SUNPOU
100
AcDbText
 10
156.6822479999999
 20
256.486772
 30
0.0
 40
3.0
  1
1
  7
K
100
AcDbText
  0
TEXT
  5
1D76AF00B7
330
1D76AEFB48
100
AcDbEntity
  8
TEXT
100
AcDbText
 10
136.0714275714285
 20
256.4999999999999
 30
0.0
 40
3.0
  1
SPCC
  7
K
 72
     4
 11
141.9999989999999
 21
258.0
 31
0.0
100
AcDbText
  0
TEXT
  5
1D76AF00B8
330
1D76AEFB48
100
AcDbEntity
  8
TEXT
100
AcDbText
 10
135.7142847142857
 20
250.4999999999999
 30
0.0
 40
3.0
  1
SWRM
  7
K
 72
     4
 11
141.9999989999999
 21
252.0
 31
0.0
100
AcDbText
  0
LINE
  5
1D76AF00B9
330
1D76AEFB48
100
AcDbEntity
  8
JISSEN
100
AcDbLine
 10
91.499999
 20
249.0
 30
0.0
 11
180.999999
 21
249.0
 31
0.0
  0
TEXT
  5
1D76AF00BB
330
1D76AEFB48
100
AcDbEntity
  8
SUNPOU
100
AcDbText
 10
95.34046999999999
 20
250.486772
 30
0.0
 40
3.0
  1
3
  7
K
100
AcDbText
  0
TEXT
  5
1D76AF00BC
330
1D76AEFB48
100
AcDbEntity
  8
SUNPOU
100
AcDbText
 10
156.6822479999999
 20
250.486772
 30
0.0
 40
3.0
  1
2
  7
K
100
AcDbText
  0
TEXT
  5
1D76AF00BD
330
1D76AEFB48
100
AcDbEntity
  8
TEXT
100
AcDbText
 10
111.5999989999999
 20
262.3999999999999
 30
0.0
 40
3.0
  1
ガード
  7
K
 72
     4
 11
116.499999
 21
264.0
 31
0.0
100
AcDbText
  0
TEXT
  5
1D76AF00BE
330
1D76AEFB48
100
AcDbEntity
  8
TEXT
100
AcDbText
 10
107.799999
 20
250.4999999999999
 30
0.0
 40
3.0
  1
ナベ小ネジ
  7
K
 72
     4
 11
116.499999
 21
252.0
 31
0.0
100
AcDbText
  0
TEXT
  5
1D76AF00BF
330
1D76AEFB48
100
AcDbEntity
  8
TEXT
100
AcDbText
 10
104.599999
 20
256.3999999999999
 30
0.0
 40
3.0
  1
ベースプレート
  7
K
 72
     4
 11
116.499999
 21
258.0
 31
0.0
100
AcDbText
  0
TEXT
  5
1D76AF00C0
330
1D76AEFB48
100
AcDbEntity
  8
TEXT
100
AcDbText
 10
135.7142847142857
 20
262.5
 30
0.0
 40
3.0
  1
SWRM
  7
K
 72
     4
 11
141.9999989999999
 21
264.0
 31
0.0
100
AcDbText
  0
CIRCLE
  5
1D76AF00C1
330
1D76AEFB48
100
AcDbEntity
  8
SUNPOU
100
AcDbCircle
 10
138.687577
 20
221.466695
 30
0.0
 40
3.5
  0
TEXT
  5
1D76AF00C2
330
1D76AEFB48
100
AcDbEntity
  8
SUNPOU
100
AcDbText
 10
137.2590055714285
 20
219.966695
 30
0.0
 40
3.0
  1
3
  7
K
 72
     4
 11
138.687577
 21
221.466695
 31
0.0
100
AcDbText
  0
CIRCLE
  5
1D76AF00C3
330
1D76AEFB48
100
AcDbEntity
  8
SUNPOU
100
AcDbCircle
 10
138.687577
 20
201.466695
 30
0.0
 40
3.5
  0
TEXT
  5
1D76AF00C4
330
1D76AEFB48
100
AcDbEntity
  8
SUNPOU
100
AcDbText
 10
137.2590055714285
 20
199.9666949999999
 30
0.0
 40
3.0
  1
2
  7
K
 72
     4
 11
138.687577
 21
201.466695
 31
0.0
100
AcDbText
  0
CIRCLE
  5
1D76AF00C5
330
1D76AEFB48
100
AcDbEntity
  8
SUNPOU
100
AcDbCircle
 10
138.687577
 20
181.4666949999999
 30
0.0
 40
3.5
  0
TEXT
  5
1D76AF00C6
330
1D76AEFB48
100
AcDbEntity
  8
SUNPOU
100
AcDbText
 10
137.4732912857142
 20
179.9666949999999
 30
0.0
 40
3.0
  1
1
  7
K
 72
     4
 11
138.687577
 21
181.4666949999999
 31
0.0
100
AcDbText
  0
LINE
  5
1D76AF00C9
330
1D76AEFB48
100
AcDbEntity
  8
SUNPOU
100
AcDbLine
 10
122.637559
 20
219.3211269999999
 30
0.0
 11
135.218437
 21
221.0029399999999
 31
0.0
  0
INSERT
  5
1D76AF00CA
330
1D76AEFB48
100
AcDbEntity
  8
SUNPOU
100
AcDbBlockReference
  2
_OPEN30
 10
122.637559
 20
219.3211269999999
 30
0.0
 41
2.25
 42
2.25
 43
2.25
 50
187.6141639999999
  0
INSERT
  5
1D76AF00CE
330
1D76AEFB48
100
AcDbEntity
  8
SUNPOU
100
AcDbBlockReference
  2
_OPEN30
 10
119.187577
 20
215.179118
 30
0.0
 41
2.25
 42
2.25
 43
2.25
 50
144.8850679999999
  0
LINE
  5
1D76AF00CF
330
1D76AEFB48
100
AcDbEntity
  8
SUNPOU
100
AcDbLine
 10
119.187577
 20
215.179118
 30
0.0
 11
135.824578
 21
203.4799589999999
 31
0.0
  0
INSERT
  5
1D76AF00D1
330
1D76AEFB48
100
AcDbEntity
  8
SUNPOU
100
AcDbBlockReference
  2
_OPEN30
 10
120.6603019999999
 20
185.5521949999999
 30
0.0
 41
2.25
 42
2.25
 43
2.25
 50
167.230819
  0
LINE
  5
1D76AF00D2
330
1D76AEFB48
100
AcDbEntity
  8
SUNPOU
100
AcDbLine
 10
120.6603019999999
 20
185.5521949999999
 30
0.0
 11
135.2741379999999
 21
182.240279
 31
0.0
  0
TEXT
  5
1D76AF00D3
330
1D76AEFB48
100
AcDbEntity
  8
TEXT
100
AcDbText
 10
164.5699989999999
 20
262.5
 30
0.0
 40
3.0
  1
ユニクロメッキ
 41
0.65
  7
K
 72
     4
 11
172.499999
 21
264.0
 31
0.0
100
AcDbText
  0
TEXT
  5
1D76AF00D4
330
1D76AEFB48
100
AcDbEntity
  8
TEXT
100
AcDbText
 10
164.5699989999999
 20
256.4999999999999
 30
0.0
 40
3.0
  1
ユニクロメッキ
 41
0.65
  7
K
 72
     4
 11
172.499999
 21
258.0
 31
0.0
100
AcDbText
  0
LINE
  5
1D76AF00DA
330
1D76AEFB48
100
AcDbEntity
  8
JISSEN
100
AcDbLine
 10
107.804586
 20
125.385372
 30
0.0
 11
72.449247
 21
90.03003299999999
 31
0.0
  0
LINE
  5
1D76AF00DB
330
1D76AEFB48
100
AcDbEntity
  8
JISSEN
100
AcDbLine
 10
91.18757700000001
 20
108.7683629999999
 30
0.0
 11
74.57056800000001
 21
125.385372
 31
0.0
  0
LINE
  5
1D76AF0133
330
1D76AEFB48
100
AcDbEntity
  8
TENSEN
100
AcDbLine
 10
110.687577
 20
97.74704299999999
 30
0.0
 11
110.687577
 21
115.5470429999999
 31
0.0
  0
LINE
  5
1D76AF0134
330
1D76AEFB48
100
AcDbEntity
  8
TENSEN
100
AcDbLine
 10
116.687577
 20
97.74704300000001
 30
0.0
 11
116.687577
 21
115.5470429999999
 31
0.0
  0
LINE
  5
1D76AF0135
330
1D76AEFB48
100
AcDbEntity
  8
JISSEN
100
AcDbLine
 10
110.687577
 20
115.6470429999999
 30
0.0
 11
110.687577
 21
115.5470429999999
 31
0.0
  0
LINE
  5
1D76AF0136
330
1D76AEFB48
100
AcDbEntity
  8
JISSEN
100
AcDbLine
 10
110.687577
 20
97.64704300000001
 30
0.0
 11
110.687577
 21
97.74704300000001
 31
0.0
  0
LINE
  5
1D76AF0282
330
1D76AEFB48
100
AcDbEntity
  8
JISSEN
100
AcDbLine
 10
287.6751808631635
 20
140.5952814305589
 30
0.0
 11
287.6751808631635
 21
148.5952814305589
 31
0.0
  0
LINE
  5
1D76AF0283
330
1D76AEFB48
100
AcDbEntity
  8
JISSEN
100
AcDbLine
 10
290.6751808631635
 20
140.5952814305589
 30
0.0
 11
290.6751808631635
 21
148.5952814305589
 31
0.0
  0
LINE
  5
1D76AF0284
330
1D76AEFB48
100
AcDbEntity
  8
JISSEN
100
AcDbLine
 10
271.9975109031635
 20
140.5952814305589
 30
0.0
 11
271.9975109031635
 21
148.5952814305589
 31
0.0
  0
LINE
  5
1D76AF0285
330
1D76AEFB48
100
AcDbEntity
  8
JISSEN
100
AcDbLine
 10
273.738804442467
 20
148.1635059099452
 30
0.0
 11
273.738804442467
 21
140.5952814305589
 31
0.0
  0
LINE
  5
1D76AF0286
330
1D76AEFB48
100
AcDbEntity
  8
JISSEN
100
AcDbLine
 10
271.0024860235615
 20
140.5952814305589
 30
0.0
 11
271.0024860235614
 21
148.5952814305589
 31
0.0
  0
LINE
  5
1D76AF0287
330
1D76AEFB48
100
AcDbEntity
  8
JISSEN
100
AcDbLine
 10
269.2611924842581
 20
148.1635059099452
 30
0.0
 11
269.2611924842581
 21
140.5952814305589
 31
0.0
  0
LINE
  5
1D76AF0288
330
1D76AEFB48
100
AcDbEntity
  8
JISSEN
100
AcDbLine
 10
269.2611924842581
 20
148.1635059099452
 30
0.0
 11
269.2611924842581
 21
140.5952814305589
 31
0.0
  0
LINE
  5
1D76AF0289
330
1D76AEFB48
100
AcDbEntity
  8
JISSEN
100
AcDbLine
 10
252.3198418631634
 20
140.5952814305589
 30
0.0
 11
252.3198418631634
 21
148.5952814305589
 31
0.0
  0
LINE
  5
1D76AF028A
330
1D76AEFB48
100
AcDbEntity
  8
JISSEN
100
AcDbLine
 10
255.3198418631634
 20
140.5952814305589
 30
0.0
 11
255.3198418631634
 21
148.5952814305589
 31
0.0
  0
LINE
  5
1D76AF028B
330
1D76AEFB48
100
AcDbEntity
  8
JISSEN
100
AcDbLine
 10
299.4975108631635
 20
137.5952814305589
 30
0.0
 11
271.4975108631634
 21
137.5952814305589
 31
0.0
  0
LINE
  5
1D76AF028C
330
1D76AEFB48
100
AcDbEntity
  8
JISSEN
100
AcDbLine
 10
299.4975108631635
 20
140.5952814305589
 30
0.0
 11
271.4975108631634
 21
140.5952814305589
 31
0.0
  0
LINE
  5
1D76AF028D
330
1D76AEFB48
100
AcDbEntity
  8
JISSEN
100
AcDbLine
 10
271.4975108631634
 20
121.5952814305589
 30
0.0
 11
299.4975108631635
 21
121.5952814305589
 31
0.0
  0
LINE
  5
1D76AF028E
330
1D76AEFB48
100
AcDbEntity
  8
JISSEN
100
AcDbLine
 10
299.4975108631635
 20
118.5952814305589
 30
0.0
 11
271.4975108631634
 21
118.5952814305589
 31
0.0
  0
LINE
  5
1D76AF028F
330
1D76AEFB48
100
AcDbEntity
  8
JISSEN
100
AcDbLine
 10
266.6009218015139
 20
126.5306130630902
 30
0.0
 11
260.5885475866926
 21
126.5306130630902
 31
0.0
  0
LINE
  5
1D76AF0290
330
1D76AEFB48
100
AcDbEntity
  8
JISSEN
100
AcDbLine
 10
271.4975108631634
 20
140.5952814305589
 30
0.0
 11
243.4975108631635
 21
140.5952814305589
 31
0.0
  0
LINE
  5
1D76AF0291
330
1D76AEFB48
100
AcDbEntity
  8
JISSEN
100
AcDbLine
 10
271.4975108631634
 20
137.5952814305589
 30
0.0
 11
243.4975108631635
 21
137.5952814305589
 31
0.0
  0
LINE
  5
1D76AF0292
330
1D76AEFB48
100
AcDbEntity
  8
JISSEN
100
AcDbLine
 10
243.4975108631635
 20
121.5952814305589
 30
0.0
 11
271.4975108631634
 21
121.5952814305589
 31
0.0
  0
LINE
  5
1D76AF0293
330
1D76AEFB48
100
AcDbEntity
  8
JISSEN
100
AcDbLine
 10
271.4975108631634
 20
118.5952814305589
 30
0.0
 11
243.4975108631635
 21
118.5952814305589
 31
0.0
  0
LINE
  5
1D76AF0294
330
1D76AEFB48
100
AcDbEntity
  8
JISSEN
100
AcDbLine
 10
271.4975108631634
 20
113.5952814305589
 30
0.0
 11
259.3198418631634
 21
113.5952814305589
 31
0.0
  0
LINE
  5
1D76AF0295
330
1D76AEFB48
100
AcDbEntity
  8
JISSEN
100
AcDbLine
 10
271.4975108631634
 20
110.5952814305589
 30
0.0
 11
259.3198418631634
 21
110.5952814305589
 31
0.0
  0
LINE
  5
1D76AF0296
330
1D76AEFB48
100
AcDbEntity
  8
JISSEN
100
AcDbLine
 10
271.4975108631634
 20
107.5952814305589
 30
0.0
 11
259.3198418631634
 21
107.5952814305589
 31
0.0
  0
LINE
  5
1D76AF0297
330
1D76AEFB48
100
AcDbEntity
  8
JISSEN
100
AcDbLine
 10
263.0627517137446
 20
123.7445350424993
 30
0.0
 11
267.5198989449545
 21
123.7445350424993
 31
0.0
  0
LINE
  5
1D76AF0298
330
1D76AEFB48
100
AcDbEntity
  8
JISSEN
100
AcDbLine
 10
267.5198989449545
 20
124.7395599221013
 30
0.0
 11
262.5447745469447
 21
124.7395599221013
 31
0.0
  0
ARC
  5
1D76AF0299
330
1D76AEFB48
100
AcDbEntity
  8
JISSEN
100
AcDbCircle
 10
243.4975108631635
 20
120.0952814305589
 30
0.0
 40
1.5
100
AcDbArc
 50
90.0
 51
270.0
  0
ARC
  5
1D76AF029A
330
1D76AEFB48
100
AcDbEntity
  8
JISSEN
100
AcDbCircle
 10
259.3198418631634
 20
114.5952814305589
 30
0.0
 40
7.0
100
AcDbArc
 50
180.0
 51
270.0
  0
ARC
  5
1D76AF029B
330
1D76AEFB48
100
AcDbEntity
  8
JISSEN
100
AcDbCircle
 10
259.3198418631634
 20
117.5952814305589
 30
0.0
 40
7.0
100
AcDbArc
 50
180.0
 51
270.0
  0
ARC
  5
1D76AF029C
330
1D76AEFB48
100
AcDbEntity
  8
JISSEN
100
AcDbCircle
 10
259.3198418631634
 20
117.5952814305589
 30
0.0
 40
4.0
100
AcDbArc
 50
180.0
 51
270.0
  0
LINE
  5
1D76AF029D
330
1D76AEFB48
100
AcDbEntity
  8
JISSEN
100
AcDbLine
 10
252.3198418631634
 20
114.5952814305589
 30
0.0
 11
252.3198418631634
 21
118.5952814305589
 31
0.0
  0
LINE
  5
1D76AF029E
330
1D76AEFB48
100
AcDbEntity
  8
JISSEN
100
AcDbLine
 10
255.3198418631634
 20
117.5952814305589
 30
0.0
 11
255.3198418631634
 21
118.5952814305589
 31
0.0
  0
ARC
  5
1D76AF029F
330
1D76AEFB48
100
AcDbEntity
  8
JISSEN
100
AcDbCircle
 10
243.4975108631635
 20
139.0952814305589
 30
0.0
 40
1.5
100
AcDbArc
 50
90.0
 51
270.0
  0
LINE
  5
1D76AF02A0
330
1D76AEFB48
100
AcDbEntity
  8
JISSEN
100
AcDbLine
 10
252.3198418631634
 20
121.5952814305589
 30
0.0
 11
252.3198418631634
 21
137.5952814305589
 31
0.0
  0
LINE
  5
1D76AF02A1
330
1D76AEFB48
100
AcDbEntity
  8
JISSEN
100
AcDbLine
 10
255.3198418631634
 20
121.5952814305589
 30
0.0
 11
255.3198418631634
 21
137.5952814305589
 31
0.0
  0
LINE
  5
1D76AF02A2
330
1D76AEFB48
100
AcDbEntity
  8
JISSEN
100
AcDbLine
 10
258.6296489480795
 20
124.2420474823003
 30
0.0
 11
260.3856556225748
 21
125.4716165929285
 31
0.0
  0
LINE
  5
1D76AF02A3
330
1D76AEFB48
100
AcDbEntity
  8
JISSEN
100
AcDbLine
 10
258.3159188086361
 20
125.2370723619023
 30
0.0
 11
259.8149327980521
 21
126.286693257173
 31
0.0
  0
LINE
  5
1D76AF02A4
330
1D76AEFB48
100
AcDbEntity
  8
JISSEN
100
AcDbLine
 10
255.3198418631634
 20
124.2420474823003
 30
0.0
 11
261.7464575238701
 21
124.2420474823003
 31
0.0
  0
LINE
  5
1D76AF02A5
330
1D76AEFB48
100
AcDbEntity
  8
JISSEN
100
AcDbLine
 10
262.2151674017767
 20
123.9340574127937
 30
0.0
 11
255.3198418631634
 21
123.9340574127937
 31
0.0
  0
LINE
  5
1D76AF02A6
330
1D76AEFB48
100
AcDbEntity
  8
JISSEN
100
AcDbLine
 10
258.6296489480795
 20
124.2420474823003
 30
0.0
 11
255.3198418631634
 21
124.2420474823003
 31
0.0
  0
LINE
  5
1D76AF02A7
330
1D76AEFB48
100
AcDbEntity
  8
JISSEN
100
AcDbLine
 10
255.3198418631634
 20
125.2370723619023
 30
0.0
 11
258.3159188086361
 21
125.2370723619023
 31
0.0
  0
LINE
  5
1D76AF02A8
330
1D76AEFB48
100
AcDbEntity
  8
JISSEN
100
AcDbLine
 10
261.4325983852558
 20
124.5931391526578
 30
0.0
 11
260.8783073408316
 21
125.3847488029075
 31
0.0
  0
LINE
  5
1D76AF02A9
330
1D76AEFB48
100
AcDbEntity
  8
JISSEN
100
AcDbLine
 10
261.6933840050759
 20
125.9554716274303
 30
0.0
 11
262.5447745469447
 21
124.7395599221013
 31
0.0
  0
ARC
  5
1D76AF02AA
330
1D76AEFB48
100
AcDbEntity
  8
JISSEN
100
AcDbCircle
 10
263.0627517137446
 20
125.7345848017033
 30
0.0
 40
1.99004975920398
100
AcDbArc
 50
214.9999999999984
 51
270.0
  0
ARC
  5
1D76AF02AB
330
1D76AEFB48
100
AcDbEntity
  8
JISSEN
100
AcDbCircle
 10
260.5885475866926
 20
125.1818568387897
 30
0.0
 40
1.348756224300497
100
AcDbArc
 50
34.99999999999843
 51
124.999999999997
  0
ARC
  5
1D76AF02AC
330
1D76AEFB48
100
AcDbEntity
  8
JISSEN
100
AcDbCircle
 10
260.5885475866926
 20
125.1818568387897
 30
0.0
 40
0.3537313446985074
100
AcDbArc
 50
34.99999999999843
 51
125.000000000001
  0
LINE
  5
1D76AF02AD
330
1D76AEFB48
100
AcDbEntity
  8
JISSEN
100
AcDbLine
 10
283.6751808631635
 20
113.5952814305589
 30
0.0
 11
271.4975108631634
 21
113.5952814305589
 31
0.0
  0
LINE
  5
1D76AF02AE
330
1D76AEFB48
100
AcDbEntity
  8
JISSEN
100
AcDbLine
 10
283.6751808631635
 20
107.5952814305589
 30
0.0
 11
271.4975108631634
 21
107.5952814305589
 31
0.0
  0
LINE
  5
1D76AF02AF
330
1D76AEFB48
100
AcDbEntity
  8
JISSEN
100
AcDbLine
 10
283.6751808631635
 20
110.5952814305589
 30
0.0
 11
271.4975108631634
 21
110.5952814305589
 31
0.0
  0
ARC
  5
1D76AF02B0
330
1D76AEFB48
100
AcDbEntity
  8
JISSEN
100
AcDbCircle
 10
283.6751808631635
 20
114.5952814305589
 30
0.0
 40
7.0
100
AcDbArc
 50
270.0
 51
0.0
  0
ARC
  5
1D76AF02B1
330
1D76AEFB48
100
AcDbEntity
  8
JISSEN
100
AcDbCircle
 10
283.6751808631635
 20
117.5952814305589
 30
0.0
 40
7.0
100
AcDbArc
 50
270.0
 51
0.0
  0
ARC
  5
1D76AF02B2
330
1D76AEFB48
100
AcDbEntity
  8
JISSEN
100
AcDbCircle
 10
283.6751808631635
 20
117.5952814305589
 30
0.0
 40
4.0
100
AcDbArc
 50
270.0
 51
0.0
  0
LINE
  5
1D76AF02B3
330
1D76AEFB48
100
AcDbEntity
  8
JISSEN
100
AcDbLine
 10
287.6751808631635
 20
117.5952814305589
 30
0.0
 11
287.6751808631635
 21
118.5952814305589
 31
0.0
  0
LINE
  5
1D76AF02B4
330
1D76AEFB48
100
AcDbEntity
  8
JISSEN
100
AcDbLine
 10
290.6751808631635
 20
114.5952814305589
 30
0.0
 11
290.6751808631635
 21
118.5952814305589
 31
0.0
  0
ARC
  5
1D76AF02B5
330
1D76AEFB48
100
AcDbEntity
  8
JISSEN
100
AcDbCircle
 10
279.9372452129805
 20
125.7345848017033
 30
0.0
 40
1.99004975920398
100
AcDbArc
 50
270.0
 51
325.0000000000015
  0
LINE
  5
1D76AF02B6
330
1D76AEFB48
100
AcDbEntity
  8
JISSEN
100
AcDbLine
 10
282.4114493400325
 20
126.5306130630902
 30
0.0
 11
276.3990751252114
 21
126.5306130630902
 31
0.0
  0
LINE
  5
1D76AF02B7
330
1D76AEFB48
100
AcDbEntity
  8
JISSEN
100
AcDbLine
 10
275.4800979817705
 20
124.7395599221013
 30
0.0
 11
280.4552223797805
 21
124.7395599221013
 31
0.0
  0
ARC
  5
1D76AF02B8
330
1D76AEFB48
100
AcDbEntity
  8
JISSEN
100
AcDbCircle
 10
269.8383069144273
 20
131.0452459437824
 30
0.0
 40
3.402985088238805
100
AcDbArc
 50
323.9962166699959
 51
0.0000000000113991
  0
ARC
  5
1D76AF02B9
330
1D76AEFB48
100
AcDbEntity
  8
JISSEN
100
AcDbCircle
 10
273.1616900122977
 20
131.0452459437824
 30
0.0
 40
3.402985088238805
100
AcDbArc
 50
180.0
 51
216.0037833300039
  0
LINE
  5
1D76AF02BA
330
1D76AEFB48
100
AcDbEntity
  8
JISSEN
100
AcDbLine
 10
276.4751228613724
 20
126.2320972415043
 30
0.0
 11
273.8811772862222
 21
136.4143042814853
 31
0.0
  0
LINE
  5
1D76AF02BB
330
1D76AEFB48
100
AcDbEntity
  8
JISSEN
100
AcDbLine
 10
266.5248740653526
 20
126.2320972415043
 30
0.0
 11
269.1188196405029
 21
136.4143042814853
 31
0.0
  0
LINE
  5
1D76AF02BC
330
1D76AEFB48
100
AcDbEntity
  8
JISSEN
100
AcDbLine
 10
271.4999984633626
 20
129.0448397098016
 30
0.0
 11
273.9875606623675
 21
129.0448397098016
 31
0.0
  0
LINE
  5
1D76AF02BD
330
1D76AEFB48
100
AcDbEntity
  8
JISSEN
100
AcDbLine
 10
275.4800979817705
 20
123.2470226026983
 30
0.0
 11
271.4999984633626
 21
123.2470226026983
 31
0.0
  0
LINE
  5
1D76AF02BE
330
1D76AEFB48
100
AcDbEntity
  8
JISSEN
100
AcDbLine
 10
276.4751228613726
 20
123.2470226026983
 30
0.0
 11
271.4999984633626
 21
123.2470226026983
 31
0.0
  0
LINE
  5
1D76AF02BF
330
1D76AEFB48
100
AcDbEntity
  8
JISSEN
100
AcDbLine
 10
268.1645296165379
 20
124.7395599221013
 30
0.0
 11
274.8354673101872
 21
124.7395599221013
 31
0.0
  0
LINE
  5
1D76AF02C0
330
1D76AEFB48
100
AcDbEntity
  8
JISSEN
100
AcDbLine
 10
269.0124362643576
 20
124.7395599221013
 30
0.0
 11
269.0124362643576
 21
129.0448397098016
 31
0.0
  0
LINE
  5
1D76AF02C1
330
1D76AEFB48
100
AcDbEntity
  8
JISSEN
100
AcDbLine
 10
266.5248740653524
 20
124.7395599221013
 30
0.0
 11
266.5248740653526
 21
126.2320972415043
 31
0.0
  0
LINE
  5
1D76AF02C2
330
1D76AEFB48
100
AcDbEntity
  8
JISSEN
100
AcDbLine
 10
266.5248740653524
 20
123.2470226026983
 30
0.0
 11
271.4999984633626
 21
123.2470226026983
 31
0.0
  0
LINE
  5
1D76AF02C3
330
1D76AEFB48
100
AcDbEntity
  8
JISSEN
100
AcDbLine
 10
266.5248740653526
 20
124.7395599221013
 30
0.0
 11
267.5198989449547
 21
124.7395599221013
 31
0.0
  0
LINE
  5
1D76AF02C4
330
1D76AEFB48
100
AcDbEntity
  8
JISSEN
100
AcDbLine
 10
266.5248740653524
 20
123.7445350424993
 30
0.0
 11
266.5248740653524
 21
123.2470226026983
 31
0.0
  0
LINE
  5
1D76AF02C5
330
1D76AEFB48
100
AcDbEntity
  8
0
 62
     7
100
AcDbLine
 10
266.5248740653526
 20
123.7445350424993
 30
0.0
 11
267.5198989449546
 21
123.7445350424993
 31
0.0
  0
LINE
  5
1D76AF02C6
330
1D76AEFB48
100
AcDbEntity
  8
JISSEN
 48
2.0
100
AcDbLine
 10
267.5198989449546
 20
123.7445350424993
 30
0.0
 11
267.5198989449547
 21
124.7395599221013
 31
0.0
  0
LINE
  5
1D76AF02C7
330
1D76AEFB48
100
AcDbEntity
  8
0
 62
     7
100
AcDbLine
 10
267.5198989449545
 20
123.7445350424993
 30
0.0
 11
267.5198989449545
 21
124.2420474823003
 31
0.0
  0
LINE
  5
1D76AF02C8
330
1D76AEFB48
100
AcDbEntity
  8
JISSEN
100
AcDbLine
 10
268.1645296165379
 20
123.2470226026983
 30
0.0
 11
268.1645296165379
 21
124.7395599221013
 31
0.0
  0
LINE
  5
1D76AF02C9
330
1D76AEFB48
100
AcDbEntity
  8
JISSEN
100
AcDbLine
 10
271.4999984633626
 20
129.0448397098016
 30
0.0
 11
269.0124362643576
 21
129.0448397098016
 31
0.0
  0
LINE
  5
1D76AF02CA
330
1D76AEFB48
100
AcDbEntity
  8
JISSEN
100
AcDbLine
 10
276.4751228613724
 20
124.7395599221013
 30
0.0
 11
276.4751228613724
 21
126.2320972415043
 31
0.0
  0
LINE
  5
1D76AF02CB
330
1D76AEFB48
100
AcDbEntity
  8
JISSEN
100
AcDbLine
 10
273.9875606623675
 20
124.7395599221013
 30
0.0
 11
273.9875606623675
 21
129.0448397098016
 31
0.0
  0
LINE
  5
1D76AF02CC
330
1D76AEFB48
100
AcDbEntity
  8
JISSEN
100
AcDbLine
 10
275.4800979817705
 20
124.7395599221013
 30
0.0
 11
276.4751228613724
 21
124.7395599221013
 31
0.0
  0
LINE
  5
1D76AF02CD
330
1D76AEFB48
100
AcDbEntity
  8
JISSEN
100
AcDbLine
 10
275.4800979817703
 20
124.7395599221013
 30
0.0
 11
276.4751228613724
 21
124.7395599221013
 31
0.0
  0
LINE
  5
1D76AF02CE
330
1D76AEFB48
100
AcDbEntity
  8
0
 62
     7
100
AcDbLine
 10
279.9372452129805
 20
123.7445350424993
 30
0.0
 11
275.4800979817704
 21
123.7445350424993
 31
0.0
  0
LINE
  5
1D76AF02CF
330
1D76AEFB48
100
AcDbEntity
  8
JISSEN
100
AcDbLine
 10
274.8354673101872
 20
123.2470226026983
 30
0.0
 11
274.8354673101872
 21
124.7395599221013
 31
0.0
  0
LINE
  5
1D76AF02D0
330
1D76AEFB48
100
AcDbEntity
  8
JISSEN
 48
2.0
100
AcDbLine
 10
275.4800979817704
 20
123.7445350424993
 30
0.0
 11
275.4800979817703
 21
124.7395599221013
 31
0.0
  0
LINE
  5
1D76AF02D1
330
1D76AEFB48
100
AcDbEntity
  8
0
 62
     7
100
AcDbLine
 10
275.4800979817705
 20
123.7445350424993
 30
0.0
 11
275.4800979817705
 21
124.2420474823003
 31
0.0
  0
LINE
  5
1D76AF02D2
330
1D76AEFB48
100
AcDbEntity
  8
JISSEN
100
AcDbLine
 10
276.4751228613726
 20
123.7445350424993
 30
0.0
 11
276.4751228613726
 21
123.2470226026983
 31
0.0
  0
LINE
  5
1D76AF02D3
330
1D76AEFB48
100
AcDbEntity
  8
JISSEN
100
AcDbLine
 10
273.8143764988543
 20
136.3626436323391
 30
0.0
 11
272.2558265005568
 21
135.2597542249674
 31
0.0
  0
LINE
  5
1D76AF02D4
330
1D76AEFB48
100
AcDbEntity
  8
JISSEN
100
AcDbLine
 10
273.6275525293894
 20
137.3501717786771
 30
0.0
 11
272.1834905851195
 21
136.7387763219312
 31
0.0
  0
LINE
  5
1D76AF02D5
330
1D76AEFB48
100
AcDbEntity
  8
JISSEN
100
AcDbLine
 10
271.9975109031635
 20
135.1286220431111
 30
0.0
 11
271.9975109031635
 21
137.5952814305589
 31
0.0
  0
LINE
  5
1D76AF02D6
330
1D76AEFB48
100
AcDbEntity
  8
JISSEN
100
AcDbLine
 10
271.0024860235615
 20
135.0769602585017
 30
0.0
 11
271.0024860235615
 21
137.5952814305589
 31
0.0
  0
LINE
  5
1D76AF02D7
330
1D76AEFB48
100
AcDbEntity
  8
JISSEN
100
AcDbLine
 10
269.1856204278708
 20
136.3626436323391
 30
0.0
 11
270.7441704261682
 21
135.2597542249674
 31
0.0
  0
LINE
  5
1D76AF02D8
330
1D76AEFB48
100
AcDbEntity
  8
JISSEN
100
AcDbLine
 10
271.5853581031336
 20
135.0769602585017
 30
0.0
 11
271.4146388235915
 21
135.0769602585017
 31
0.0
  0
ARC
  5
1D76AF02D9
330
1D76AEFB48
100
AcDbEntity
  8
JISSEN
100
AcDbCircle
 10
271.681060935502
 20
136.0719851381036
 30
0.0
 40
0.99502487960199
100
AcDbArc
 50
270.0
 51
305.2846806551534
  0
ARC
  5
1D76AF02DA
330
1D76AEFB48
100
AcDbEntity
  8
JISSEN
100
AcDbCircle
 10
271.318935991223
 20
136.0719851381036
 30
0.0
 40
0.99502487960199
100
AcDbArc
 50
234.7153193448465
 51
270.0
  0
LINE
  5
1D76AF02DB
330
1D76AEFB48
100
AcDbEntity
  8
JISSEN
100
AcDbLine
 10
269.7587049240591
 20
131.0452459437824
 30
0.0
 11
269.7587049240591
 21
135.9571071907329
 31
0.0
  0
LINE
  5
1D76AF02DC
330
1D76AEFB48
100
AcDbEntity
  8
JISSEN
100
AcDbLine
 10
269.3724443973358
 20
137.3501717786771
 30
0.0
 11
270.8165063416055
 21
136.7387763219312
 31
0.0
  0
ARC
  5
1D76AF02DD
330
1D76AEFB48
100
AcDbEntity
  8
JISSEN
100
AcDbCircle
 10
269.7603859929256
 20
138.2664554844353
 30
0.0
 40
0.99502487960199
100
AcDbArc
 50
222.4176565380105
 51
247.0528861314107
  0
LINE
  5
1D76AF02DE
330
1D76AEFB48
100
AcDbEntity
  8
JISSEN
100
AcDbLine
 10
268.7653611133238
 20
137.5952814305589
 30
0.0
 11
268.7653611133238
 21
137.1748745454755
 31
0.0
  0
ARC
  5
1D76AF02DF
330
1D76AEFB48
100
AcDbEntity
  8
JISSEN
100
AcDbCircle
 10
269.7603859929256
 20
137.1748745454753
 30
0.0
 40
0.99502487960199
100
AcDbArc
 50
180.0
 51
234.7153193448465
  0
ARC
  5
1D76AF02E0
330
1D76AEFB48
100
AcDbEntity
  8
JISSEN
100
AcDbCircle
 10
271.7955489895296
 20
137.6550600276894
 30
0.0
 40
0.99502487960199
100
AcDbArc
 50
270.0
 51
292.9471138685891
  0
ARC
  5
1D76AF02E1
330
1D76AEFB48
100
AcDbEntity
  8
JISSEN
100
AcDbCircle
 10
271.2044479371957
 20
137.6550600276894
 30
0.0
 40
0.99502487960199
100
AcDbArc
 50
247.0528861314107
 51
270.0
  0
LINE
  5
1D76AF02E2
330
1D76AEFB48
100
AcDbEntity
  8
JISSEN
100
AcDbLine
 10
271.7955489895296
 20
136.6600351480875
 30
0.0
 11
271.0024860235615
 21
136.6600351480875
 31
0.0
  0
LINE
  5
1D76AF02E3
330
1D76AEFB48
100
AcDbEntity
  8
JISSEN
100
AcDbLine
 10
273.2412920026661
 20
131.0452459437831
 30
0.0
 11
273.2412920026661
 21
135.9571071907329
 31
0.0
  0
ARC
  5
1D76AF02E4
330
1D76AEFB48
100
AcDbEntity
  8
JISSEN
100
AcDbCircle
 10
273.2396109337994
 20
138.2664554844353
 30
0.0
 40
0.99502487960199
100
AcDbArc
 50
292.9471138685891
 51
317.5823434619894
  0
LINE
  5
1D76AF02E5
330
1D76AEFB48
100
AcDbEntity
  8
JISSEN
100
AcDbLine
 10
274.2346358134013
 20
137.5952814305589
 30
0.0
 11
274.2346358134013
 21
137.1748745454755
 31
0.0
  0
ARC
  5
1D76AF02E6
330
1D76AEFB48
100
AcDbEntity
  8
JISSEN
100
AcDbCircle
 10
271.4999984633626
 20
135.6848335977232
 30
0.0
 40
2.487562199004975
100
AcDbArc
 50
14.2922513521486
 51
14.59291434228396
  0
ARC
  5
1D76AF02E7
330
1D76AEFB48
100
AcDbEntity
  8
JISSEN
100
AcDbCircle
 10
273.2396109337994
 20
137.1748745454753
 30
0.0
 40
0.99502487960199
100
AcDbArc
 50
305.2846806551534
 51
0.0
  0
LINE
  5
1D76AF02E8
330
1D76AEFB48
100
AcDbEntity
  8
JISSEN
100
AcDbLine
 10
287.6751808631635
 20
121.5952814305589
 30
0.0
 11
287.6751808631635
 21
137.5952814305589
 31
0.0
  0
LINE
  5
1D76AF02E9
330
1D76AEFB48
100
AcDbEntity
  8
JISSEN
100
AcDbLine
 10
290.6751808631635
 20
121.5952814305589
 30
0.0
 11
290.6751808631635
 21
137.5952814305589
 31
0.0
  0
LINE
  5
1D76AF02EA
330
1D76AEFB48
100
AcDbEntity
  8
JISSEN
100
AcDbLine
 10
280.7848295249484
 20
123.9340574127937
 30
0.0
 11
287.6751808631635
 21
123.9340574127937
 31
0.0
  0
LINE
  5
1D76AF02EB
330
1D76AEFB48
100
AcDbEntity
  8
JISSEN
100
AcDbLine
 10
287.6751808631635
 20
124.2420474823003
 30
0.0
 11
281.2535394028549
 21
124.2420474823003
 31
0.0
  0
LINE
  5
1D76AF02EC
330
1D76AEFB48
100
AcDbEntity
  8
JISSEN
100
AcDbLine
 10
287.6751808631635
 20
124.2420474823003
 30
0.0
 11
284.3703479786459
 21
124.2420474823003
 31
0.0
  0
LINE
  5
1D76AF02ED
330
1D76AEFB48
100
AcDbEntity
  8
JISSEN
100
AcDbLine
 10
284.684078118089
 20
125.2370723619023
 30
0.0
 11
287.6751808631635
 21
125.2370723619023
 31
0.0
  0
LINE
  5
1D76AF02EE
330
1D76AEFB48
100
AcDbEntity
  8
JISSEN
100
AcDbLine
 10
284.3703479786456
 20
124.2420474823003
 30
0.0
 11
282.6143413041502
 21
125.4716165929285
 31
0.0
  0
LINE
  5
1D76AF02EF
330
1D76AEFB48
100
AcDbEntity
  8
JISSEN
100
AcDbLine
 10
281.3066129216492
 20
125.9554716274303
 30
0.0
 11
280.4552223797805
 21
124.7395599221013
 31
0.0
  0
LINE
  5
1D76AF02F0
330
1D76AEFB48
100
AcDbEntity
  8
JISSEN
100
AcDbLine
 10
281.5673985414692
 20
124.5931391526578
 30
0.0
 11
282.1216895858936
 21
125.3847488029075
 31
0.0
  0
LINE
  5
1D76AF02F1
330
1D76AEFB48
100
AcDbEntity
  8
JISSEN
100
AcDbLine
 10
284.684078118089
 20
125.2370723619023
 30
0.0
 11
283.185064128673
 21
126.286693257173
 31
0.0
  0
ARC
  5
1D76AF02F2
330
1D76AEFB48
100
AcDbEntity
  8
JISSEN
100
AcDbCircle
 10
282.4114493400325
 20
125.1818568387897
 30
0.0
 40
0.3537313446985074
100
AcDbArc
 50
54.99999999999896
 51
145.0000000000015
  0
ARC
  5
1D76AF02F3
330
1D76AEFB48
100
AcDbEntity
  8
JISSEN
100
AcDbCircle
 10
282.4114493400325
 20
125.1818568387897
 30
0.0
 40
1.348756224300497
100
AcDbArc
 50
55.00000000000292
 51
145.0000000000015
  0
TEXT
  5
1D76AF02F4
330
1D76AEFB48
100
AcDbEntity
  8
SUNPOU
100
AcDbText
 10
304.984915968331
 20
7.84942403797811
 30
0.0
 40
3.0
  1
XP   ,XP-V   ガード取付状態
  7
K
100
AcDbText
  0
LINE
  5
1D76AF02F5
330
1D76AEFB48
100
AcDbEntity
  8
TEXT
100
AcDbLine
 10
312.2178676114165
 20
10.8487244599828
 30
0.0
 11
312.2178676114165
 21
7.848724459982804
 31
0.0
  0
LINE
  5
1D76AF02F6
330
1D76AEFB48
100
AcDbEntity
  8
TEXT
100
AcDbLine
 10
313.0178676114165
 20
10.8487244599828
 30
0.0
 11
313.0178676114165
 21
7.848724459982804
 31
0.0
  0
TEXT
  5
1D76AF02F7
330
1D76AEFB48
100
AcDbEntity
  8
SUNPOU
100
AcDbText
 10
304.984915968331
 20
2.84942403797811
 30
0.0
 40
3.0
  1
尺度　1/1
  7
K
100
AcDbText
  0
LINE
  5
1D76AF02F8
330
1D76AEFB48
100
AcDbEntity
  8
TEXT
100
AcDbLine
 10
311.6178676114166
 20
7.848724459982804
 30
0.0
 11
313.6178676114166
 21
7.848724459982804
 31
0.0
  0
LINE
  5
1D76AF02F9
330
1D76AEFB48
100
AcDbEntity
  8
TEXT
100
AcDbLine
 10
311.6178676114166
 20
10.8487244599828
 30
0.0
 11
313.6178676114166
 21
10.8487244599828
 31
0.0
  0
ARC
  5
1D76AF02FA
330
1D76AEFB48
100
AcDbEntity
  8
JISSEN
100
AcDbCircle
 10
299.4975108631635
 20
120.0952814305589
 30
0.0
 40
1.5
100
AcDbArc
 50
270.0
 51
90.0
  0
ARC
  5
1D76AF02FB
330
1D76AEFB48
100
AcDbEntity
  8
JISSEN
100
AcDbCircle
 10
299.4975108631635
 20
139.0952814305589
 30
0.0
 40
1.5
100
AcDbArc
 50
270.0
 51
90.0
  0
LINE
  5
1D76AF02FC
330
1D76AEFB48
100
AcDbEntity
  8
JISSEN
100
AcDbLine
 10
281.9982415536853
 20
162.0577398122191
 30
0.0
 11
309.0179770683858
 21
162.0577398122195
 31
0.0
  0
LINE
  5
1D76AF02FD
330
1D76AEFB48
100
AcDbEntity
  8
JISSEN
100
AcDbLine
 10
281.8419837451647
 20
167.0577398122194
 30
0.0
 11
309.0179770683864
 21
167.0577398122193
 31
0.0
  0
HATCH
  5
1D76AF02FE
330
1D76AEFB48
100
AcDbEntity
  8
JISSEN
 62
     0
100
AcDbHatch
 10
0.0
 20
0.0
 30
0.0
210
0.0
220
0.0
230
1.0
  2
ANSI31
 70
     0
 71
     0
 91
        2
 92
        7
 72
     0
 73
     1
 93
       50
 10
310.3125653924784
 20
165.5949270409991
 10
310.1905269669245
 20
165.6610014392433
 10
310.0288377714332
 20
165.7246134265794
 10
309.8537160188261
 20
165.787732924309
 10
309.691379921922
 20
165.8523298537368
 10
309.5680476935397
 20
165.9203741361657
 10
309.5099375464986
 20
165.9938356928993
 10
309.532483983133
 20
166.0747719437445
 10
309.6079866638388
 20
166.1655903025272
 10
309.6979615385184
 20
166.2687856815695
 10
309.7639245570862
 20
166.3868529932051
 10
309.7673916694485
 20
166.5222871497604
 10
309.6698788255137
 20
166.6775830635625
 10
309.4329019751901
 20
166.8552356469395
 10
309.0179770683864
 20
167.0577398122193
 10
291.517977068386
 20
167.0577398122194
 10
291.517977068386
 20
162.0577398122193
 10
309.0179770683858
 20
162.0577398122195
 10
309.4130350038324
 20
162.216667370708
 10
309.6144634723875
 20
162.3558643657925
 10
309.661331850945
 20
162.478888171494
 10
309.5927095163992
 20
162.5892961618337
 10
309.4476658456437
 20
162.6906457108319
 10
309.2652702155745
 20
162.786494192515
 10
309.0845920030787
 20
162.8803989808887
 10
308.9447005850572
 20
162.9759174499889
 10
308.8464978819112
 20
163.1168131507466
 10
308.9008906079052
 20
163.2871496480657
 10
308.959160152349
 20
163.396495682142
 10
309.0228520345285
 20
163.5069497925931
 10
309.0733577960339
 20
163.6174962348218
 10
309.0920689784584
 20
163.7271192642364
 10
309.0603771233941
 20
163.8348031362449
 10
308.9665646523044
 20
163.9398142578599
 10
308.8264775061375
 20
164.0425476425176
 10
308.6628525057119
 20
164.1436804552579
 10
308.4984264718511
 20
164.2438898611262
 10
308.3559362253706
 20
164.3438530251595
 10
308.2581185870917
 20
164.4442471124014
 10
308.2277103778337
 20
164.5457492878928
 10
308.2874484184162
 20
164.6490367166753
 10
308.4514636328756
 20
164.7544479822595
 10
308.6994633581134
 20
164.8609673420324
 10
309.0025490342469
 20
164.9672404718494
 10
309.3318221013987
 20
165.071913047569
 10
309.6583839996763
 20
165.1736307450426
 10
309.9533361692097
 20
165.271039240131
 10
310.1877800501106
 20
165.3627842086883
 10
310.332817082499
 20
165.4475113265708
 10
310.3687348352764
 20
165.5244203105425
 97
        0
 92
        7
 72
     0
 73
     1
 93
       50
 10
251.517977068386
 20
167.0577398122196
 10
234.0179770683861
 20
167.0577398122195
 10
233.603052161582
 20
166.8552356469394
 10
233.3660753112583
 20
166.6775830635625
 10
233.2685624673235
 20
166.5222871497603
 10
233.2720295796858
 20
166.3868529932052
 10
233.3379925982535
 20
166.2687856815695
 10
233.4279674729359
 20
166.1655903025241
 10
233.503470153639
 20
166.0747719437445
 10
233.5260165902735
 20
165.9938356928993
 10
233.4679064432325
 20
165.9203741361658
 10
233.3445742148498
 20
165.8523298537369
 10
233.1822381179451
 20
165.7877329243091
 10
233.0071163653378
 20
165.7246134265789
 10
232.8454271698477
 20
165.6610014392434
 10
232.7233887442937
 20
165.594927040999
 10
232.6672193014958
 20
165.5244203105426
 10
232.703137054273
 20
165.4475113265708
 10
232.8481740866615
 20
165.3627842086884
 10
233.0826179675634
 20
165.2710392401308
 10
233.3775701370925
 20
165.1736307450432
 10
233.7041320353762
 20
165.071913047569
 10
234.0334051025247
 20
164.9672404718494
 10
234.3364907786587
 20
164.8609673420322
 10
234.5844905038968
 20
164.7544479822595
 10
234.7485057183557
 20
164.6490367166754
 10
234.8082437589384
 20
164.5457492878927
 10
234.7778355496803
 20
164.4442471124014
 10
234.6800179114016
 20
164.3438530251598
 10
234.5375276649213
 20
164.2438898611263
 10
234.3731016310555
 20
164.1436804552571
 10
234.2094766306345
 20
164.0425476425176
 10
234.0693894844678
 20
163.9398142578599
 10
233.9755770133779
 20
163.8348031362449
 10
233.9438851583137
 20
163.7271192642363
 10
233.9625963407381
 20
163.6174962348215
 10
234.0131021022437
 20
163.5069497925926
 10
234.0767939844223
 20
163.3964956821434
 10
234.135063528867
 20
163.2871496480656
 10
234.1894562548609
 20
163.1168131507466
 10
234.0912535517147
 20
162.9759174499889
 10
233.9513621336932
 20
162.8803989808887
 10
233.7706839212019
 20
162.786494192511
 10
233.5882882911283
 20
162.690645710832
 10
233.443244620373
 20
162.5892961618338
 10
233.374622285827
 20
162.4788881714941
 10
233.4214906643846
 20
162.3558643657925
 10
233.6229191329398
 20
162.216667370708
 10
234.0179770683863
 20
162.0577398122195
 10
251.517977068386
 20
162.0577398122194
 97
        0
 75
     0
 76
     1
 52
0.0
 41
20.0
 77
     0
 78
     1
 53
45.0
 43
213.1584723049411
 44
-544.296717388326
 45
-1.767766952966368
 46
1.767766952966368
 79
     0
 47
0.1350417537953048
 98
        2
 10
378.0817185888647
 20
164.2419036694693
 10
321.9871269487478
 20
165.727363069607
  0
LINE
  5
1D76AF02FF
330
1D76AEFB48
100
AcDbEntity
  8
JISSEN
100
AcDbLine
 10
271.4975108631634
 20
150.5952814305589
 30
0.0
 11
299.4975108631635
 21
150.5952814305589
 31
0.0
  0
LINE
  5
1D76AF0300
330
1D76AEFB48
100
AcDbEntity
  8
JISSEN
100
AcDbLine
 10
299.4975108631635
 20
148.5952814305589
 30
0.0
 11
271.4975108631634
 21
148.5952814305589
 31
0.0
  0
LINE
  5
1D76AF0301
330
1D76AEFB48
100
AcDbEntity
  8
JISSEN
100
AcDbLine
 10
290.9975108631634
 20
156.5952814305589
 30
0.0
 11
296.9975108631635
 21
156.5952814305589
 31
0.0
  0
LINE
  5
1D76AF0302
330
1D76AEFB48
100
AcDbEntity
  8
JISSEN
100
AcDbLine
 10
234.0179770683864
 20
162.0577398122195
 30
0.0
 11
260.9005460272239
 21
162.0577398122194
 31
0.0
  0
LINE
  5
1D76AF0303
330
1D76AEFB48
100
AcDbEntity
  8
JISSEN
100
AcDbLine
 10
261.0568038357446
 20
167.0577398122197
 30
0.0
 11
234.0179770683862
 21
167.0577398122195
 31
0.0
  0
POLYLINE
  5
1D76AF0304
330
1D76AEFB48
100
AcDbEntity
  8
JISSEN
 62
     0
100
AcDb2dPolyline
 66
     1
 10
0.0
 20
0.0
 30
0.0
 70
     4
 75
     6
  0
VERTEX
  5
1D76AF0305
330
1D76AF0304
100
AcDbEntity
  8
JISSEN
 62
     0
100
AcDbVertex
100
AcDb2dVertex
 10
234.017977068386
 20
167.0577398122195
 30
0.0
 70
    16
  0
VERTEX
  5
1D76AF0306
330
1D76AF0304
100
AcDbEntity
  8
JISSEN
 62
     0
100
AcDbVertex
100
AcDb2dVertex
 10
234.017977068386
 20
167.0577398122195
 30
0.0
 70
     8
  0
VERTEX
  5
1D76AF0307
330
1D76AF0304
100
AcDbEntity
  8
JISSEN
 62
     0
100
AcDbVertex
100
AcDb2dVertex
 10
233.6030521615821
 20
166.8552356469394
 30
0.0
 70
     8
  0
VERTEX
  5
1D76AF0308
330
1D76AF0304
100
AcDbEntity
  8
JISSEN
 62
     0
100
AcDbVertex
100
AcDb2dVertex
 10
233.3660753112583
 20
166.6775830635624
 30
0.0
 70
     8
  0
VERTEX
  5
1D76AF0309
330
1D76AF0304
100
AcDbEntity
  8
JISSEN
 62
     0
100
AcDbVertex
100
AcDb2dVertex
 10
233.2685624673235
 20
166.5222871497603
 30
0.0
 70
     8
  0
VERTEX
  5
1D76AF030A
330
1D76AF0304
100
AcDbEntity
  8
JISSEN
 62
     0
100
AcDbVertex
100
AcDb2dVertex
 10
233.2720295796857
 20
166.3868529932052
 30
0.0
 70
     8
  0
VERTEX
  5
1D76AF030B
330
1D76AF0304
100
AcDbEntity
  8
JISSEN
 62
     0
100
AcDbVertex
100
AcDb2dVertex
 10
233.3379925982535
 20
166.2687856815696
 30
0.0
 70
     8
  0
VERTEX
  5
1D76AF030C
330
1D76AF0304
100
AcDbEntity
  8
JISSEN
 62
     0
100
AcDbVertex
100
AcDb2dVertex
 10
233.427967472935
 20
166.1655903025252
 30
0.0
 70
     8
  0
VERTEX
  5
1D76AF030D
330
1D76AF0304
100
AcDbEntity
  8
JISSEN
 62
     0
100
AcDbVertex
100
AcDb2dVertex
 10
233.503470153639
 20
166.0747719437445
 30
0.0
 70
     8
  0
VERTEX
  5
1D76AF030E
330
1D76AF0304
100
AcDbEntity
  8
JISSEN
 62
     0
100
AcDbVertex
100
AcDb2dVertex
 10
233.5260165902736
 20
165.9938356928993
 30
0.0
 70
     8
  0
VERTEX
  5
1D76AF030F
330
1D76AF0304
100
AcDbEntity
  8
JISSEN
 62
     0
100
AcDbVertex
100
AcDb2dVertex
 10
233.4679064432325
 20
165.9203741361658
 30
0.0
 70
     8
  0
VERTEX
  5
1D76AF0310
330
1D76AF0304
100
AcDbEntity
  8
JISSEN
 62
     0
100
AcDbVertex
100
AcDb2dVertex
 10
233.3445742148498
 20
165.8523298537369
 30
0.0
 70
     8
  0
VERTEX
  5
1D76AF0311
330
1D76AF0304
100
AcDbEntity
  8
JISSEN
 62
     0
100
AcDbVertex
100
AcDb2dVertex
 10
233.1822381179451
 20
165.7877329243091
 30
0.0
 70
     8
  0
VERTEX
  5
1D76AF0312
330
1D76AF0304
100
AcDbEntity
  8
JISSEN
 62
     0
100
AcDbVertex
100
AcDb2dVertex
 10
233.0071163653381
 20
165.7246134265789
 30
0.0
 70
     8
  0
VERTEX
  5
1D76AF0313
330
1D76AF0304
100
AcDbEntity
  8
JISSEN
 62
     0
100
AcDbVertex
100
AcDb2dVertex
 10
232.8454271698476
 20
165.6610014392434
 30
0.0
 70
     8
  0
VERTEX
  5
1D76AF0314
330
1D76AF0304
100
AcDbEntity
  8
JISSEN
 62
     0
100
AcDbVertex
100
AcDb2dVertex
 10
232.7233887442937
 20
165.594927040999
 30
0.0
 70
     8
  0
VERTEX
  5
1D76AF0315
330
1D76AF0304
100
AcDbEntity
  8
JISSEN
 62
     0
100
AcDbVertex
100
AcDb2dVertex
 10
232.6672193014958
 20
165.5244203105426
 30
0.0
 70
     8
  0
VERTEX
  5
1D76AF0316
330
1D76AF0304
100
AcDbEntity
  8
JISSEN
 62
     0
100
AcDbVertex
100
AcDb2dVertex
 10
232.7031370542729
 20
165.4475113265708
 30
0.0
 70
     8
  0
VERTEX
  5
1D76AF0317
330
1D76AF0304
100
AcDbEntity
  8
JISSEN
 62
     0
100
AcDbVertex
100
AcDb2dVertex
 10
232.8481740866613
 20
165.3627842086883
 30
0.0
 70
     8
  0
VERTEX
  5
1D76AF0318
330
1D76AF0304
100
AcDbEntity
  8
JISSEN
 62
     0
100
AcDbVertex
100
AcDb2dVertex
 10
233.0826179675625
 20
165.271039240131
 30
0.0
 70
     8
  0
VERTEX
  5
1D76AF0319
330
1D76AF0304
100
AcDbEntity
  8
JISSEN
 62
     0
100
AcDbVertex
100
AcDb2dVertex
 10
233.3775701370948
 20
165.1736307450429
 30
0.0
 70
     8
  0
VERTEX
  5
1D76AF031A
330
1D76AF0304
100
AcDbEntity
  8
JISSEN
 62
     0
100
AcDbVertex
100
AcDb2dVertex
 10
233.7041320353762
 20
165.0719130475678
 30
0.0
 70
     8
  0
VERTEX
  5
1D76AF031B
330
1D76AF0304
100
AcDbEntity
  8
JISSEN
 62
     0
100
AcDbVertex
100
AcDb2dVertex
 10
234.0334051025249
 20
164.9672404718495
 30
0.0
 70
     8
  0
VERTEX
  5
1D76AF031C
330
1D76AF0304
100
AcDbEntity
  8
JISSEN
 62
     0
100
AcDbVertex
100
AcDb2dVertex
 10
234.336490778659
 20
164.8609673420322
 30
0.0
 70
     8
  0
VERTEX
  5
1D76AF031D
330
1D76AF0304
100
AcDbEntity
  8
JISSEN
 62
     0
100
AcDbVertex
100
AcDb2dVertex
 10
234.5844905038966
 20
164.7544479822595
 30
0.0
 70
     8
  0
VERTEX
  5
1D76AF031E
330
1D76AF0304
100
AcDbEntity
  8
JISSEN
 62
     0
100
AcDbVertex
100
AcDb2dVertex
 10
234.7485057183557
 20
164.6490367166753
 30
0.0
 70
     8
  0
VERTEX
  5
1D76AF031F
330
1D76AF0304
100
AcDbEntity
  8
JISSEN
 62
     0
100
AcDbVertex
100
AcDb2dVertex
 10
234.8082437589384
 20
164.5457492878928
 30
0.0
 70
     8
  0
VERTEX
  5
1D76AF0320
330
1D76AF0304
100
AcDbEntity
  8
JISSEN
 62
     0
100
AcDbVertex
100
AcDb2dVertex
 10
234.7778355496805
 20
164.4442471124015
 30
0.0
 70
     8
  0
VERTEX
  5
1D76AF0321
330
1D76AF0304
100
AcDbEntity
  8
JISSEN
 62
     0
100
AcDbVertex
100
AcDb2dVertex
 10
234.6800179114016
 20
164.3438530251596
 30
0.0
 70
     8
  0
VERTEX
  5
1D76AF0322
330
1D76AF0304
100
AcDbEntity
  8
JISSEN
 62
     0
100
AcDbVertex
100
AcDb2dVertex
 10
234.537527664921
 20
164.2438898611261
 30
0.0
 70
     8
  0
VERTEX
  5
1D76AF0323
330
1D76AF0304
100
AcDbEntity
  8
JISSEN
 62
     0
100
AcDbVertex
100
AcDb2dVertex
 10
234.3731016310589
 20
164.1436804552592
 30
0.0
 70
     8
  0
VERTEX
  5
1D76AF0324
330
1D76AF0304
100
AcDbEntity
  8
JISSEN
 62
     0
100
AcDbVertex
100
AcDb2dVertex
 10
234.2094766306347
 20
164.0425476425176
 30
0.0
 70
     8
  0
VERTEX
  5
1D76AF0325
330
1D76AF0304
100
AcDbEntity
  8
JISSEN
 62
     0
100
AcDbVertex
100
AcDb2dVertex
 10
234.0693894844678
 20
163.9398142578599
 30
0.0
 70
     8
  0
VERTEX
  5
1D76AF0326
330
1D76AF0304
100
AcDbEntity
  8
JISSEN
 62
     0
100
AcDbVertex
100
AcDb2dVertex
 10
233.9755770133779
 20
163.8348031362449
 30
0.0
 70
     8
  0
VERTEX
  5
1D76AF0327
330
1D76AF0304
100
AcDbEntity
  8
JISSEN
 62
     0
100
AcDbVertex
100
AcDb2dVertex
 10
233.9438851583135
 20
163.7271192642364
 30
0.0
 70
     8
  0
VERTEX
  5
1D76AF0328
330
1D76AF0304
100
AcDbEntity
  8
JISSEN
 62
     0
100
AcDbVertex
100
AcDb2dVertex
 10
233.9625963407381
 20
163.6174962348214
 30
0.0
 70
     8
  0
VERTEX
  5
1D76AF0329
330
1D76AF0304
100
AcDbEntity
  8
JISSEN
 62
     0
100
AcDbVertex
100
AcDb2dVertex
 10
234.0131021022437
 20
163.5069497925929
 30
0.0
 70
     8
  0
VERTEX
  5
1D76AF032A
330
1D76AF0304
100
AcDbEntity
  8
JISSEN
 62
     0
100
AcDbVertex
100
AcDb2dVertex
 10
234.0767939844226
 20
163.3964956821436
 30
0.0
 70
     8
  0
VERTEX
  5
1D76AF032B
330
1D76AF0304
100
AcDbEntity
  8
JISSEN
 62
     0
100
AcDbVertex
100
AcDb2dVertex
 10
234.135063528867
 20
163.2871496480657
 30
0.0
 70
     8
  0
VERTEX
  5
1D76AF032C
330
1D76AF0304
100
AcDbEntity
  8
JISSEN
 62
     0
100
AcDbVertex
100
AcDb2dVertex
 10
234.1693022771689
 20
163.1799274349523
 30
0.0
 70
     8
  0
VERTEX
  5
1D76AF032D
330
1D76AF0304
100
AcDbEntity
  8
JISSEN
 62
     0
100
AcDbVertex
100
AcDb2dVertex
 10
234.1609017709208
 20
163.0758447873959
 30
0.0
 70
     8
  0
VERTEX
  5
1D76AF032E
330
1D76AF0304
100
AcDbEntity
  8
JISSEN
 62
     0
100
AcDbVertex
100
AcDb2dVertex
 10
234.0912535517147
 20
162.9759174499889
 30
0.0
 70
     8
  0
VERTEX
  5
1D76AF032F
330
1D76AF0304
100
AcDbEntity
  8
JISSEN
 62
     0
100
AcDbVertex
100
AcDb2dVertex
 10
233.9513621336932
 20
162.8803989808887
 30
0.0
 70
     8
  0
VERTEX
  5
1D76AF0330
330
1D76AF0304
100
AcDbEntity
  8
JISSEN
 62
     0
100
AcDbVertex
100
AcDb2dVertex
 10
233.7706839211998
 20
162.78649419251
 30
0.0
 70
     8
  0
VERTEX
  5
1D76AF0331
330
1D76AF0304
100
AcDbEntity
  8
JISSEN
 62
     0
100
AcDbVertex
100
AcDb2dVertex
 10
233.5882882911284
 20
162.690645710832
 30
0.0
 70
     8
  0
VERTEX
  5
1D76AF0332
330
1D76AF0304
100
AcDbEntity
  8
JISSEN
 62
     0
100
AcDbVertex
100
AcDb2dVertex
 10
233.443244620373
 20
162.5892961618337
 30
0.0
 70
     8
  0
VERTEX
  5
1D76AF0333
330
1D76AF0304
100
AcDbEntity
  8
JISSEN
 62
     0
100
AcDbVertex
100
AcDb2dVertex
 10
233.3746222858269
 20
162.478888171494
 30
0.0
 70
     8
  0
VERTEX
  5
1D76AF0334
330
1D76AF0304
100
AcDbEntity
  8
JISSEN
 62
     0
100
AcDbVertex
100
AcDb2dVertex
 10
233.4214906643846
 20
162.3558643657925
 30
0.0
 70
     8
  0
VERTEX
  5
1D76AF0335
330
1D76AF0304
100
AcDbEntity
  8
JISSEN
 62
     0
100
AcDbVertex
100
AcDb2dVertex
 10
233.6229191329398
 20
162.216667370708
 30
0.0
 70
     8
  0
VERTEX
  5
1D76AF0336
330
1D76AF0304
100
AcDbEntity
  8
JISSEN
 62
     0
100
AcDbVertex
100
AcDb2dVertex
 10
234.017977068386
 20
162.0577398122196
 30
0.0
 70
     8
  0
VERTEX
  5
1D76AF0337
330
1D76AF0304
100
AcDbEntity
  8
JISSEN
 62
     0
100
AcDbVertex
100
AcDb2dVertex
 10
232.6400385304091
 20
166.482375562422
 30
0.0
 70
    16
  0
VERTEX
  5
1D76AF0338
330
1D76AF0304
100
AcDbEntity
  8
JISSEN
 62
     0
100
AcDbVertex
100
AcDb2dVertex
 10
234.5013797279903
 20
165.9150389397504
 30
0.0
 70
    16
  0
VERTEX
  5
1D76AF0339
330
1D76AF0304
100
AcDbEntity
  8
JISSEN
 62
     0
100
AcDbVertex
100
AcDb2dVertex
 10
231.4412126980623
 20
165.5368145246366
 30
0.0
 70
    16
  0
VERTEX
  5
1D76AF033A
330
1D76AF0304
100
AcDbEntity
  8
JISSEN
 62
     0
100
AcDbVertex
100
AcDb2dVertex
 10
235.9525918053982
 20
164.6227709211289
 30
0.0
 70
    16
  0
VERTEX
  5
1D76AF033B
330
1D76AF0304
100
AcDbEntity
  8
JISSEN
 62
     0
100
AcDbVertex
100
AcDb2dVertex
 10
233.2394543904801
 20
163.8663220909006
 30
0.0
 70
    16
  0
VERTEX
  5
1D76AF033C
330
1D76AF0304
100
AcDbEntity
  8
JISSEN
 62
     0
100
AcDbVertex
100
AcDb2dVertex
 10
234.9430527129493
 20
162.9207595327375
 30
0.0
 70
    16
  0
VERTEX
  5
1D76AF033D
330
1D76AF0304
100
AcDbEntity
  8
JISSEN
 62
     0
100
AcDbVertex
100
AcDb2dVertex
 10
232.6715882829907
 20
162.5110161629677
 30
0.0
 70
    16
  0
VERTEX
  5
1D76AF033E
330
1D76AF0304
100
AcDbEntity
  8
JISSEN
 62
     0
100
AcDbVertex
100
AcDb2dVertex
 10
234.017977068386
 20
162.0577398122195
 30
0.0
 70
    16
  0
SEQEND
  5
1D76AF033F
330
1D76AF0304
100
AcDbEntity
  8
JISSEN
 62
     0
  0
LWPOLYLINE
  5
1D76AF0340
330
1D76AEFB48
100
AcDbEntity
  8
NITEN
100
AcDbPolyline
 90
       15
 70
     1
 43
0.0
 10
257.4493937904547
 20
162.1113030487207
 42
0.4142135623730927
 10
258.9493937904546
 20
160.6113030487207
 10
282.0434449614512
 20
160.6113030487207
 10
283.9493937904547
 20
160.6113030487207
 42
0.4142135623730925
 10
285.4493937904547
 20
162.1113030487207
 10
285.4493937904547
 20
173.1573190749386
 42
-0.4142135623730943
 10
290.4493937904547
 20
178.1573190749386
 42
0.4142135623730951
 10
292.4493937904547
 20
180.1573190749387
 10
292.4493937904546
 20
200.6113030487207
 42
0.4142135623730948
 10
290.4493937904547
 20
202.6113030487207
 10
252.4493937904547
 20
202.6113030487207
 42
0.4142135623730951
 10
250.4493937904547
 20
200.6113030487207
 10
250.4493937904547
 20
180.1573190749387
 42
0.4142135623730951
 10
252.4493937904547
 20
178.1573190749386
 42
-0.4142135623730961
 10
257.4493937904547
 20
173.1573190749386
  0
LINE
  5
1D76AF0341
330
1D76AEFB48
100
AcDbEntity
  8
JISSEN
100
AcDbLine
 10
282.1072113591993
 20
158.5704058285688
 30
0.0
 11
261.0522372275417
 21
158.570405828569
 31
0.0
  0
LINE
  5
1D76AF0342
330
1D76AEFB48
100
AcDbEntity
  8
JISSEN
100
AcDbLine
 10
281.0024860635616
 20
156.5803560693649
 30
0.0
 11
261.9975108631634
 21
156.580356069365
 31
0.0
  0
LINE
  5
1D76AF0343
330
1D76AEFB48
100
AcDbEntity
  8
JISSEN
100
AcDbLine
 10
262.793530766845
 20
172.5007541429967
 30
0.0
 11
280.20646615988
 21
172.5007541429967
 31
0.0
  0
LINE
  5
1D76AF0344
330
1D76AEFB48
100
AcDbEntity
  8
JISSEN
100
AcDbLine
 10
261.28083490532
 20
170.9880582814716
 30
0.0
 11
271.4999984633626
 21
170.9880582814716
 31
0.0
  0
LINE
  5
1D76AF0345
330
1D76AEFB48
100
AcDbEntity
  8
JISSEN
100
AcDbLine
 10
271.4975108631634
 20
150.5952814305589
 30
0.0
 11
243.4975108631635
 21
150.5952814305589
 31
0.0
  0
LINE
  5
1D76AF0346
330
1D76AEFB48
100
AcDbEntity
  8
JISSEN
100
AcDbLine
 10
243.4975108631635
 20
148.5952814305589
 30
0.0
 11
271.4975108631634
 21
148.5952814305589
 31
0.0
  0
LINE
  5
1D76AF0347
330
1D76AEFB48
100
AcDbEntity
  8
JISSEN
100
AcDbLine
 10
251.517977068386
 20
162.0577398122195
 30
0.0
 11
251.517977068386
 21
167.0577398122195
 31
0.0
  0
LINE
  5
1D76AF0348
330
1D76AEFB48
100
AcDbEntity
  8
JISSEN
 48
2.0
100
AcDbLine
 10
260.8927855675257
 20
158.5704058285688
 30
0.0
 11
261.28083490532
 21
170.9880582814716
 31
0.0
  0
LINE
  5
1D76AF0349
330
1D76AEFB48
100
AcDbEntity
  8
SAISEN
 48
2.0
100
AcDbLine
 10
261.9975108631634
 20
156.914640147224
 30
0.0
 11
262.4746077518502
 21
172.1818311280018
 31
0.0
  0
ARC
  5
1D76AF034A
330
1D76AEFB48
100
AcDbEntity
  8
JISSEN
100
AcDbCircle
 10
253.8198418631634
 20
145.3702814305589
 30
0.0
 40
6.025
100
AcDbArc
 50
68.81140800000081
 51
119.8628339999991
  0
LINE
  5
1D76AF034B
330
1D76AEFB48
100
AcDbEntity
  8
JISSEN
100
AcDbLine
 10
243.4975108631635
 20
150.5952814305589
 30
0.0
 11
243.4975108631635
 21
148.5952814305589
 31
0.0
  0
LINE
  5
1D76AF034C
330
1D76AEFB48
100
AcDbEntity
  8
JISSEN
100
AcDbLine
 10
255.9975108631635
 20
150.5952814305589
 30
0.0
 11
255.9975108631635
 21
156.5952814305589
 31
0.0
  0
LINE
  5
1D76AF034D
330
1D76AEFB48
100
AcDbEntity
  8
JISSEN
100
AcDbLine
 10
261.9975108631634
 20
151.5544989523135
 30
0.0
 11
261.9975108631634
 21
157.575380948967
 31
0.0
  0
LINE
  5
1D76AF034E
330
1D76AEFB48
100
AcDbEntity
  8
JISSEN
100
AcDbLine
 10
261.9975108631634
 20
156.5952814305589
 30
0.0
 11
261.9975108631634
 21
150.5952814305589
 31
0.0
  0
ARC
  5
1D76AF034F
330
1D76AEFB48
100
AcDbEntity
  8
JISSEN
100
AcDbCircle
 10
262.9925357427655
 20
151.5544989523136
 30
0.0
 40
0.99502487960199
100
AcDbArc
 50
180.0
 51
254.5823611510043
  0
LINE
  5
1D76AF0350
330
1D76AEFB48
100
AcDbEntity
  8
JISSEN
100
AcDbLine
 10
263.9975108631634
 20
150.5952814305589
 30
0.0
 11
263.9975108631634
 21
148.5952814305589
 31
0.0
  0
LINE
  5
1D76AF0351
330
1D76AEFB48
100
AcDbEntity
  8
JISSEN
100
AcDbLine
 10
255.9975108631635
 20
156.5952814305589
 30
0.0
 11
261.9975108631634
 21
156.5952814305589
 31
0.0
  0
ARC
  5
1D76AF0352
330
1D76AEFB48
100
AcDbEntity
  8
JISSEN
100
AcDbCircle
 10
260.9970392986137
 20
157.5753809489669
 30
0.0
 40
1.000471564549803
100
AcDbArc
 50
0.0
 51
95.98134164212964
  0
LINE
  5
1D76AF0353
330
1D76AEFB48
100
AcDbEntity
  8
JISSEN
100
AcDbLine
 10
261.9975108631634
 20
157.575380948967
 30
0.0
 11
261.9975108631634
 21
156.580356069365
 31
0.0
  0
LINE
  5
1D76AF0354
330
1D76AEFB48
100
AcDbEntity
  8
JISSEN
100
AcDbLine
 10
262.7935307668451
 20
172.5007541429967
 30
0.0
 11
261.28083490532
 21
170.9880582814716
 31
0.0
  0
LINE
  5
1D76AF0355
330
1D76AEFB48
100
AcDbEntity
  8
JISSEN
100
AcDbLine
 10
291.517977068386
 20
167.0577398122195
 30
0.0
 11
291.517977068386
 21
162.0577398122196
 31
0.0
  0
LINE
  5
1D76AF0356
330
1D76AEFB48
100
AcDbEntity
  8
JISSEN
 48
2.0
100
AcDbLine
 10
282.1072113591993
 20
158.5704058285688
 30
0.0
 11
281.719162021405
 21
170.9880582814716
 31
0.0
  0
LINE
  5
1D76AF0357
330
1D76AEFB48
100
AcDbEntity
  8
SAISEN
 48
2.0
100
AcDbLine
 10
281.0024860635616
 20
156.914640147224
 30
0.0
 11
280.5253891748749
 21
172.1818311280018
 31
0.0
  0
LINE
  5
1D76AF0358
330
1D76AEFB48
100
AcDbEntity
  8
JISSEN
100
AcDbLine
 10
268.7636800444571
 20
156.580356069365
 30
0.0
 11
268.7636800444571
 21
150.5952814305589
 31
0.0
  0
LINE
  5
1D76AF0359
330
1D76AEFB48
100
AcDbEntity
  8
JISSEN
100
AcDbLine
 10
271.0024860235614
 20
150.5952814305589
 30
0.0
 11
271.0024860235615
 21
156.580356069365
 31
0.0
  0
LINE
  5
1D76AF035A
330
1D76AEFB48
100
AcDbEntity
  8
JISSEN
100
AcDbLine
 10
271.9975109031635
 20
150.5952814305589
 30
0.0
 11
271.9975109031635
 21
156.580356069365
 31
0.0
  0
LINE
  5
1D76AF035B
330
1D76AEFB48
100
AcDbEntity
  8
JISSEN
100
AcDbLine
 10
274.2346358134013
 20
156.580356069365
 30
0.0
 11
274.2346358134013
 21
150.5952814305589
 31
0.0
  0
ARC
  5
1D76AF035C
330
1D76AEFB48
100
AcDbEntity
  8
JISSEN
100
AcDbCircle
 10
268.7653611133238
 20
148.1226417526175
 30
0.0
 40
0.4975124398009951
100
AcDbArc
 50
4.71140864706215
 51
71.80618256874392
  0
ARC
  5
1D76AF035D
330
1D76AEFB48
100
AcDbEntity
  8
JISSEN
100
AcDbCircle
 10
274.2346358134013
 20
148.1226417526175
 30
0.0
 40
0.4975124398009951
100
AcDbArc
 50
108.193817431256
 51
175.2885913529378
  0
LINE
  5
1D76AF035E
330
1D76AEFB48
100
AcDbEntity
  8
SAISEN
 62
     4
100
AcDbLine
 10
281.4998860635615
 20
152.0952814305589
 30
0.0
 11
281.4998860635615
 21
155.0952814305589
 31
0.0
  0
LINE
  5
1D76AF035F
330
1D76AEFB48
100
AcDbEntity
  8
JISSEN
100
AcDbLine
 10
281.0024860635616
 20
154.8111384305589
 30
0.0
 11
281.0024860635616
 21
152.3794254305589
 31
0.0
  0
LINE
  5
1D76AF0360
330
1D76AEFB48
100
AcDbEntity
  8
JISSEN
100
AcDbLine
 10
281.0024860635616
 20
151.5544989523136
 30
0.0
 11
281.0024860635616
 21
157.575380948967
 31
0.0
  0
LINE
  5
1D76AF0361
330
1D76AEFB48
100
AcDbEntity
  8
JISSEN
100
AcDbLine
 10
290.9975108631634
 20
150.5952814305589
 30
0.0
 11
290.9975108631634
 21
156.5952814305589
 31
0.0
  0
ARC
  5
1D76AF0362
330
1D76AEFB48
100
AcDbEntity
  8
JISSEN
100
AcDbCircle
 10
289.1751808631635
 20
145.3702814305589
 30
0.0
 40
6.025
100
AcDbArc
 50
72.3944940000003
 51
119.8628339999991
  0
LINE
  5
1D76AF0363
330
1D76AEFB48
100
AcDbEntity
  8
SAISEN
 62
     4
100
AcDbLine
 10
291.0024860635616
 20
152.3794254305589
 30
0.0
 11
281.0024860635616
 21
152.3794254305589
 31
0.0
  0
LINE
  5
1D76AF0364
330
1D76AEFB48
100
AcDbEntity
  8
JISSEN
 62
     7
100
AcDbLine
 10
281.4998860635615
 20
152.0952814305589
 30
0.0
 11
291.0024860635616
 21
152.0952814305589
 31
0.0
  0
LINE
  5
1D76AF0365
330
1D76AEFB48
100
AcDbEntity
  8
JISSEN
100
AcDbLine
 10
281.4998860635615
 20
152.0952814305589
 30
0.0
 11
281.0024860635616
 21
152.3794254305589
 31
0.0
  0
ARC
  5
1D76AF0366
330
1D76AEFB48
100
AcDbEntity
  8
JISSEN
100
AcDbCircle
 10
280.0074611839595
 20
151.5544989523136
 30
0.0
 40
0.99502487960199
100
AcDbArc
 50
285.4176388489956
 51
0.0
  0
LINE
  5
1D76AF0367
330
1D76AEFB48
100
AcDbEntity
  8
JISSEN
100
AcDbLine
 10
290.9975108631634
 20
150.5952814305589
 30
0.0
 11
290.9975108631634
 21
148.5952814305589
 31
0.0
  0
LINE
  5
1D76AF0368
330
1D76AEFB48
100
AcDbEntity
  8
JISSEN
 62
     7
100
AcDbLine
 10
291.0024860635616
 20
155.0952814305589
 30
0.0
 11
281.4998860635615
 21
155.0952814305589
 31
0.0
  0
LINE
  5
1D76AF0369
330
1D76AEFB48
100
AcDbEntity
  8
SAISEN
 62
     4
100
AcDbLine
 10
291.0024860635616
 20
154.8111384305589
 30
0.0
 11
281.0024860635616
 21
154.8111384305589
 31
0.0
  0
ARC
  5
1D76AF036A
330
1D76AEFB48
100
AcDbEntity
  8
JISSEN
100
AcDbCircle
 10
282.0029576281114
 20
157.5753809489668
 30
0.0
 40
1.000471564549803
100
AcDbArc
 50
84.01865835787035
 51
180.0
  0
LINE
  5
1D76AF036B
330
1D76AEFB48
100
AcDbEntity
  8
JISSEN
100
AcDbLine
 10
281.0024860635616
 20
157.575380948967
 30
0.0
 11
281.0024860635616
 21
156.580356069365
 31
0.0
  0
LINE
  5
1D76AF036C
330
1D76AEFB48
100
AcDbEntity
  8
JISSEN
100
AcDbLine
 10
281.4998860635615
 20
155.0952814305589
 30
0.0
 11
281.0024860635616
 21
154.8111384305589
 31
0.0
  0
LINE
  5
1D76AF036D
330
1D76AEFB48
100
AcDbEntity
  8
JISSEN
100
AcDbLine
 10
281.719162021405
 20
170.9880582814716
 30
0.0
 11
271.4999984633626
 21
170.9880582814716
 31
0.0
  0
LINE
  5
1D76AF036E
330
1D76AEFB48
100
AcDbEntity
  8
JISSEN
100
AcDbLine
 10
280.2064661598799
 20
172.5007541429967
 30
0.0
 11
281.719162021405
 21
170.9880582814716
 31
0.0
  0
LWPOLYLINE
  5
1D76AF036F
330
1D76AEFB48
100
AcDbEntity
  8
NITEN
100
AcDbPolyline
 90
        5
 70
     0
 43
0.0
 10
288.4493937904547
 20
202.6113030487207
 10
288.4493937904547
 20
223.4490206998665
 42
-0.5882352941176475
 10
271.4493937904547
 20
223.4490206998665
 42
0.5882352941176476
 10
254.4493937904547
 20
223.4490206998663
 10
254.4493937904547
 20
202.6113030487207
  0
LWPOLYLINE
  5
1D76AF0370
330
1D76AEFB48
100
AcDbEntity
  8
NITEN
100
AcDbPolyline
 90
        2
 70
     0
 43
0.0
 10
288.4493937904547
 20
223.4490206998665
 42
0.5882352941176294
 10
271.4493937904546
 20
223.4490206998668
 42
0.5882352941176294
  0
POLYLINE
  5
1D76AF0371
330
1D76AEFB48
100
AcDbEntity
  8
JISSEN
 62
     0
100
AcDb2dPolyline
 66
     1
 10
0.0
 20
0.0
 30
0.0
 70
     4
 75
     6
  0
VERTEX
  5
1D76AF0372
330
1D76AF0371
100
AcDbEntity
  8
JISSEN
 62
     0
100
AcDbVertex
100
AcDb2dVertex
 10
309.017977068386
 20
167.0577398122195
 30
0.0
 70
    16
  0
VERTEX
  5
1D76AF0373
330
1D76AF0371
100
AcDbEntity
  8
JISSEN
 62
     0
100
AcDbVertex
100
AcDb2dVertex
 10
309.017977068386
 20
167.0577398122195
 30
0.0
 70
     8
  0
VERTEX
  5
1D76AF0374
330
1D76AF0371
100
AcDbEntity
  8
JISSEN
 62
     0
100
AcDbVertex
100
AcDb2dVertex
 10
309.4329019751901
 20
166.8552356469394
 30
0.0
 70
     8
  0
VERTEX
  5
1D76AF0375
330
1D76AF0371
100
AcDbEntity
  8
JISSEN
 62
     0
100
AcDbVertex
100
AcDb2dVertex
 10
309.6698788255137
 20
166.6775830635624
 30
0.0
 70
     8
  0
VERTEX
  5
1D76AF0376
330
1D76AF0371
100
AcDbEntity
  8
JISSEN
 62
     0
100
AcDbVertex
100
AcDb2dVertex
 10
309.7673916694486
 20
166.5222871497603
 30
0.0
 70
     8
  0
VERTEX
  5
1D76AF0377
330
1D76AF0371
100
AcDbEntity
  8
JISSEN
 62
     0
100
AcDbVertex
100
AcDb2dVertex
 10
309.7639245570862
 20
166.3868529932052
 30
0.0
 70
     8
  0
VERTEX
  5
1D76AF0378
330
1D76AF0371
100
AcDbEntity
  8
JISSEN
 62
     0
100
AcDbVertex
100
AcDb2dVertex
 10
309.6979615385187
 20
166.2687856815696
 30
0.0
 70
     8
  0
VERTEX
  5
1D76AF0379
330
1D76AF0371
100
AcDbEntity
  8
JISSEN
 62
     0
100
AcDbVertex
100
AcDb2dVertex
 10
309.6079866638369
 20
166.1655903025252
 30
0.0
 70
     8
  0
VERTEX
  5
1D76AF037A
330
1D76AF0371
100
AcDbEntity
  8
JISSEN
 62
     0
100
AcDbVertex
100
AcDb2dVertex
 10
309.532483983133
 20
166.0747719437445
 30
0.0
 70
     8
  0
VERTEX
  5
1D76AF037B
330
1D76AF0371
100
AcDbEntity
  8
JISSEN
 62
     0
100
AcDbVertex
100
AcDb2dVertex
 10
309.5099375464986
 20
165.9938356928993
 30
0.0
 70
     8
  0
VERTEX
  5
1D76AF037C
330
1D76AF0371
100
AcDbEntity
  8
JISSEN
 62
     0
100
AcDbVertex
100
AcDb2dVertex
 10
309.5680476935397
 20
165.9203741361658
 30
0.0
 70
     8
  0
VERTEX
  5
1D76AF037D
330
1D76AF0371
100
AcDbEntity
  8
JISSEN
 62
     0
100
AcDbVertex
100
AcDb2dVertex
 10
309.6913799219223
 20
165.8523298537369
 30
0.0
 70
     8
  0
VERTEX
  5
1D76AF037E
330
1D76AF0371
100
AcDbEntity
  8
JISSEN
 62
     0
100
AcDbVertex
100
AcDb2dVertex
 10
309.8537160188268
 20
165.7877329243091
 30
0.0
 70
     8
  0
VERTEX
  5
1D76AF037F
330
1D76AF0371
100
AcDbEntity
  8
JISSEN
 62
     0
100
AcDbVertex
100
AcDb2dVertex
 10
310.0288377714341
 20
165.7246134265789
 30
0.0
 70
     8
  0
VERTEX
  5
1D76AF0380
330
1D76AF0371
100
AcDbEntity
  8
JISSEN
 62
     0
100
AcDbVertex
100
AcDb2dVertex
 10
310.1905269669243
 20
165.6610014392434
 30
0.0
 70
     8
  0
VERTEX
  5
1D76AF0381
330
1D76AF0371
100
AcDbEntity
  8
JISSEN
 62
     0
100
AcDbVertex
100
AcDb2dVertex
 10
310.3125653924783
 20
165.594927040999
 30
0.0
 70
     8
  0
VERTEX
  5
1D76AF0382
330
1D76AF0371
100
AcDbEntity
  8
JISSEN
 62
     0
100
AcDbVertex
100
AcDb2dVertex
 10
310.3687348352764
 20
165.5244203105426
 30
0.0
 70
     8
  0
VERTEX
  5
1D76AF0383
330
1D76AF0371
100
AcDbEntity
  8
JISSEN
 62
     0
100
AcDbVertex
100
AcDb2dVertex
 10
310.332817082499
 20
165.4475113265708
 30
0.0
 70
     8
  0
VERTEX
  5
1D76AF0384
330
1D76AF0371
100
AcDbEntity
  8
JISSEN
 62
     0
100
AcDbVertex
100
AcDb2dVertex
 10
310.1877800501108
 20
165.3627842086883
 30
0.0
 70
     8
  0
VERTEX
  5
1D76AF0385
330
1D76AF0371
100
AcDbEntity
  8
JISSEN
 62
     0
100
AcDbVertex
100
AcDb2dVertex
 10
309.9533361692095
 20
165.271039240131
 30
0.0
 70
     8
  0
VERTEX
  5
1D76AF0386
330
1D76AF0371
100
AcDbEntity
  8
JISSEN
 62
     0
100
AcDbVertex
100
AcDb2dVertex
 10
309.6583839996772
 20
165.1736307450429
 30
0.0
 70
     8
  0
VERTEX
  5
1D76AF0387
330
1D76AF0371
100
AcDbEntity
  8
JISSEN
 62
     0
100
AcDbVertex
100
AcDb2dVertex
 10
309.3318221013958
 20
165.0719130475678
 30
0.0
 70
     8
  0
VERTEX
  5
1D76AF0388
330
1D76AF0371
100
AcDbEntity
  8
JISSEN
 62
     0
100
AcDbVertex
100
AcDb2dVertex
 10
309.0025490342473
 20
164.9672404718495
 30
0.0
 70
     8
  0
VERTEX
  5
1D76AF0389
330
1D76AF0371
100
AcDbEntity
  8
JISSEN
 62
     0
100
AcDbVertex
100
AcDb2dVertex
 10
308.699463358113
 20
164.8609673420322
 30
0.0
 70
     8
  0
VERTEX
  5
1D76AF038A
330
1D76AF0371
100
AcDbEntity
  8
JISSEN
 62
     0
100
AcDbVertex
100
AcDb2dVertex
 10
308.4514636328756
 20
164.7544479822595
 30
0.0
 70
     8
  0
VERTEX
  5
1D76AF038B
330
1D76AF0371
100
AcDbEntity
  8
JISSEN
 62
     0
100
AcDbVertex
100
AcDb2dVertex
 10
308.2874484184162
 20
164.6490367166753
 30
0.0
 70
     8
  0
VERTEX
  5
1D76AF038C
330
1D76AF0371
100
AcDbEntity
  8
JISSEN
 62
     0
100
AcDbVertex
100
AcDb2dVertex
 10
308.2277103778337
 20
164.5457492878928
 30
0.0
 70
     8
  0
VERTEX
  5
1D76AF038D
330
1D76AF0371
100
AcDbEntity
  8
JISSEN
 62
     0
100
AcDbVertex
100
AcDb2dVertex
 10
308.2581185870917
 20
164.4442471124015
 30
0.0
 70
     8
  0
VERTEX
  5
1D76AF038E
330
1D76AF0371
100
AcDbEntity
  8
JISSEN
 62
     0
100
AcDbVertex
100
AcDb2dVertex
 10
308.3559362253706
 20
164.3438530251596
 30
0.0
 70
     8
  0
VERTEX
  5
1D76AF038F
330
1D76AF0371
100
AcDbEntity
  8
JISSEN
 62
     0
100
AcDbVertex
100
AcDb2dVertex
 10
308.4984264718509
 20
164.2438898611261
 30
0.0
 70
     8
  0
VERTEX
  5
1D76AF0390
330
1D76AF0371
100
AcDbEntity
  8
JISSEN
 62
     0
100
AcDbVertex
100
AcDb2dVertex
 10
308.662852505713
 20
164.1436804552592
 30
0.0
 70
     8
  0
VERTEX
  5
1D76AF0391
330
1D76AF0371
100
AcDbEntity
  8
JISSEN
 62
     0
100
AcDbVertex
100
AcDb2dVertex
 10
308.8264775061375
 20
164.0425476425176
 30
0.0
 70
     8
  0
VERTEX
  5
1D76AF0392
330
1D76AF0371
100
AcDbEntity
  8
JISSEN
 62
     0
100
AcDbVertex
100
AcDb2dVertex
 10
308.9665646523044
 20
163.9398142578599
 30
0.0
 70
     8
  0
VERTEX
  5
1D76AF0393
330
1D76AF0371
100
AcDbEntity
  8
JISSEN
 62
     0
100
AcDbVertex
100
AcDb2dVertex
 10
309.0603771233941
 20
163.8348031362449
 30
0.0
 70
     8
  0
VERTEX
  5
1D76AF0394
330
1D76AF0371
100
AcDbEntity
  8
JISSEN
 62
     0
100
AcDbVertex
100
AcDb2dVertex
 10
309.0920689784584
 20
163.7271192642364
 30
0.0
 70
     8
  0
VERTEX
  5
1D76AF0395
330
1D76AF0371
100
AcDbEntity
  8
JISSEN
 62
     0
100
AcDbVertex
100
AcDb2dVertex
 10
309.0733577960338
 20
163.6174962348214
 30
0.0
 70
     8
  0
VERTEX
  5
1D76AF0396
330
1D76AF0371
100
AcDbEntity
  8
JISSEN
 62
     0
100
AcDbVertex
100
AcDb2dVertex
 10
309.0228520345283
 20
163.5069497925929
 30
0.0
 70
     8
  0
VERTEX
  5
1D76AF0397
330
1D76AF0371
100
AcDbEntity
  8
JISSEN
 62
     0
100
AcDbVertex
100
AcDb2dVertex
 10
308.9591601523495
 20
163.3964956821436
 30
0.0
 70
     8
  0
VERTEX
  5
1D76AF0398
330
1D76AF0371
100
AcDbEntity
  8
JISSEN
 62
     0
100
AcDbVertex
100
AcDb2dVertex
 10
308.9008906079052
 20
163.2871496480657
 30
0.0
 70
     8
  0
VERTEX
  5
1D76AF0399
330
1D76AF0371
100
AcDbEntity
  8
JISSEN
 62
     0
100
AcDbVertex
100
AcDb2dVertex
 10
308.8666518596032
 20
163.1799274349523
 30
0.0
 70
     8
  0
VERTEX
  5
1D76AF039A
330
1D76AF0371
100
AcDbEntity
  8
JISSEN
 62
     0
100
AcDbVertex
100
AcDb2dVertex
 10
308.8750523658513
 20
163.0758447873959
 30
0.0
 70
     8
  0
VERTEX
  5
1D76AF039B
330
1D76AF0371
100
AcDbEntity
  8
JISSEN
 62
     0
100
AcDbVertex
100
AcDb2dVertex
 10
308.9447005850572
 20
162.9759174499889
 30
0.0
 70
     8
  0
VERTEX
  5
1D76AF039C
330
1D76AF0371
100
AcDbEntity
  8
JISSEN
 62
     0
100
AcDbVertex
100
AcDb2dVertex
 10
309.0845920030787
 20
162.8803989808887
 30
0.0
 70
     8
  0
VERTEX
  5
1D76AF039D
330
1D76AF0371
100
AcDbEntity
  8
JISSEN
 62
     0
100
AcDbVertex
100
AcDb2dVertex
 10
309.2652702155721
 20
162.78649419251
 30
0.0
 70
     8
  0
VERTEX
  5
1D76AF039E
330
1D76AF0371
100
AcDbEntity
  8
JISSEN
 62
     0
100
AcDbVertex
100
AcDb2dVertex
 10
309.4476658456437
 20
162.690645710832
 30
0.0
 70
     8
  0
VERTEX
  5
1D76AF039F
330
1D76AF0371
100
AcDbEntity
  8
JISSEN
 62
     0
100
AcDbVertex
100
AcDb2dVertex
 10
309.5927095163992
 20
162.5892961618337
 30
0.0
 70
     8
  0
VERTEX
  5
1D76AF03A0
330
1D76AF0371
100
AcDbEntity
  8
JISSEN
 62
     0
100
AcDbVertex
100
AcDb2dVertex
 10
309.661331850945
 20
162.478888171494
 30
0.0
 70
     8
  0
VERTEX
  5
1D76AF03A1
330
1D76AF0371
100
AcDbEntity
  8
JISSEN
 62
     0
100
AcDbVertex
100
AcDb2dVertex
 10
309.6144634723875
 20
162.3558643657925
 30
0.0
 70
     8
  0
VERTEX
  5
1D76AF03A2
330
1D76AF0371
100
AcDbEntity
  8
JISSEN
 62
     0
100
AcDbVertex
100
AcDb2dVertex
 10
309.4130350038324
 20
162.216667370708
 30
0.0
 70
     8
  0
VERTEX
  5
1D76AF03A3
330
1D76AF0371
100
AcDbEntity
  8
JISSEN
 62
     0
100
AcDbVertex
100
AcDb2dVertex
 10
309.017977068386
 20
162.0577398122196
 30
0.0
 70
     8
  0
VERTEX
  5
1D76AF03A4
330
1D76AF0371
100
AcDbEntity
  8
JISSEN
 62
     0
100
AcDbVertex
100
AcDb2dVertex
 10
310.3959156063631
 20
166.482375562422
 30
0.0
 70
    16
  0
VERTEX
  5
1D76AF03A5
330
1D76AF0371
100
AcDbEntity
  8
JISSEN
 62
     0
100
AcDbVertex
100
AcDb2dVertex
 10
308.5345744087819
 20
165.9150389397504
 30
0.0
 70
    16
  0
VERTEX
  5
1D76AF03A6
330
1D76AF0371
100
AcDbEntity
  8
JISSEN
 62
     0
100
AcDbVertex
100
AcDb2dVertex
 10
311.5947414387099
 20
165.5368145246366
 30
0.0
 70
    16
  0
VERTEX
  5
1D76AF03A7
330
1D76AF0371
100
AcDbEntity
  8
JISSEN
 62
     0
100
AcDbVertex
100
AcDb2dVertex
 10
307.083362331374
 20
164.6227709211289
 30
0.0
 70
    16
  0
VERTEX
  5
1D76AF03A8
330
1D76AF0371
100
AcDbEntity
  8
JISSEN
 62
     0
100
AcDbVertex
100
AcDb2dVertex
 10
309.796499746292
 20
163.8663220909006
 30
0.0
 70
    16
  0
VERTEX
  5
1D76AF03A9
330
1D76AF0371
100
AcDbEntity
  8
JISSEN
 62
     0
100
AcDbVertex
100
AcDb2dVertex
 10
308.0929014238229
 20
162.9207595327375
 30
0.0
 70
    16
  0
VERTEX
  5
1D76AF03AA
330
1D76AF0371
100
AcDbEntity
  8
JISSEN
 62
     0
100
AcDbVertex
100
AcDb2dVertex
 10
310.3643658537814
 20
162.5110161629677
 30
0.0
 70
    16
  0
VERTEX
  5
1D76AF03AB
330
1D76AF0371
100
AcDbEntity
  8
JISSEN
 62
     0
100
AcDbVertex
100
AcDb2dVertex
 10
309.017977068386
 20
162.0577398122195
 30
0.0
 70
    16
  0
SEQEND
  5
1D76AF03AC
330
1D76AF0371
100
AcDbEntity
  8
JISSEN
 62
     0
  0
ARC
  5
1D76AF03AD
330
1D76AEFB48
100
AcDbEntity
  8
JISSEN
 62
     7
100
AcDbCircle
 10
296.2024860635615
 20
153.5952814305589
 30
0.0
 40
6.75
100
AcDbArc
 50
343.8167009999998
 51
16.18329900000017
  0
LINE
  5
1D76AF03AE
330
1D76AEFB48
100
AcDbEntity
  8
JISSEN
 62
     7
100
AcDbLine
 10
301.0024860635616
 20
156.2202814305589
 30
0.0
 11
301.0024860635616
 21
150.9702814305589
 31
0.0
  0
LINE
  5
1D76AF03AF
330
1D76AEFB48
100
AcDbEntity
  8
JISSEN
100
AcDbLine
 10
296.9975108631635
 20
156.5952814305589
 30
0.0
 11
296.9975108631635
 21
150.5952814305589
 31
0.0
  0
LINE
  5
1D76AF03B0
330
1D76AEFB48
100
AcDbEntity
  8
JISSEN
 62
     7
100
AcDbLine
 10
301.0024860635616
 20
150.9702814305589
 30
0.0
 11
301.7996790635616
 21
151.0120604305589
 31
0.0
  0
LINE
  5
1D76AF03B1
330
1D76AEFB48
100
AcDbEntity
  8
JISSEN
 62
     7
100
AcDbLine
 10
297.0024860635616
 20
152.0952814305589
 30
0.0
 11
301.0024860635616
 21
152.0952814305589
 31
0.0
  0
LINE
  5
1D76AF03B2
330
1D76AEFB48
100
AcDbEntity
  8
SAISEN
 62
     4
100
AcDbLine
 10
301.0024860635616
 20
152.3794254305589
 30
0.0
 11
297.0024860635616
 21
152.3794254305589
 31
0.0
  0
LINE
  5
1D76AF03B3
330
1D76AEFB48
100
AcDbEntity
  8
JISSEN
100
AcDbLine
 10
299.4975108631635
 20
150.5952814305589
 30
0.0
 11
299.4975108631635
 21
148.5952814305589
 31
0.0
  0
ARC
  5
1D76AF03B4
330
1D76AEFB48
100
AcDbEntity
  8
JISSEN
 62
     7
100
AcDbCircle
 10
301.7486520635614
 20
151.9857244305589
 30
0.0
 40
0.975
100
AcDbArc
 50
272.9999999999991
 51
343.8167009999998
  0
LINE
  5
1D76AF03B5
330
1D76AEFB48
100
AcDbEntity
  8
JISSEN
 62
     7
100
AcDbLine
 10
301.7996790635616
 20
156.1785024305589
 30
0.0
 11
301.0024860635616
 21
156.2202814305589
 31
0.0
  0
LINE
  5
1D76AF03B6
330
1D76AEFB48
100
AcDbEntity
  8
JISSEN
 62
     7
100
AcDbLine
 10
301.0024860635616
 20
155.0952814305589
 30
0.0
 11
297.0024860635616
 21
155.0952814305589
 31
0.0
  0
LINE
  5
1D76AF03B7
330
1D76AEFB48
100
AcDbEntity
  8
SAISEN
 62
     4
100
AcDbLine
 10
301.0024860635616
 20
154.8111384305589
 30
0.0
 11
297.0024860635616
 21
154.8111384305589
 31
0.0
  0
ARC
  5
1D76AF03B8
330
1D76AEFB48
100
AcDbEntity
  8
JISSEN
 62
     7
100
AcDbCircle
 10
301.7486520635614
 20
155.2048384305589
 30
0.0
 40
0.975
100
AcDbArc
 50
16.18329900000017
 51
87.00000000000093
  0
LWPOLYLINE
  5
1D76AF03B9
330
1D76AEFB48
100
AcDbEntity
  8
WAKU
100
AcDbPolyline
 90
        4
 70
     1
 43
0.0
 10
361.999998
 20
0.0
 10
180.999999
 20
0.0
 10
180.999999
 20
273.0
 10
361.999998
 20
273.0
  0
TEXT
  5
1D76AF03BA
330
1D76AEFB48
100
AcDbEntity
  8
SUNPOU
100
AcDbText
 10
136.6665504237743
 20
7.84942403797811
 30
0.0
 40
3.0
  1
XP   ,XP-V   ガード
  7
K
100
AcDbText
  0
LINE
  5
1D76AF03BB
330
1D76AEFB48
100
AcDbEntity
  8
TEXT
100
AcDbLine
 10
144.6995020668598
 20
10.8487244599828
 30
0.0
 11
144.6995020668598
 21
7.848724459982804
 31
0.0
  0
LINE
  5
1D76AF03BC
330
1D76AEFB48
100
AcDbEntity
  8
TEXT
100
AcDbLine
 10
143.8995020668598
 20
10.8487244599828
 30
0.0
 11
143.8995020668598
 21
7.848724459982804
 31
0.0
  0
TEXT
  5
1D76AF03BD
330
1D76AEFB48
100
AcDbEntity
  8
SUNPOU
100
AcDbText
 10
136.6665504237743
 20
2.84942403797811
 30
0.0
 40
3.0
  1
尺度　1/1
  7
K
100
AcDbText
  0
LINE
  5
1D76AF03BE
330
1D76AEFB48
100
AcDbEntity
  8
TEXT
100
AcDbLine
 10
143.2995020668598
 20
7.848724459982804
 30
0.0
 11
145.2995020668598
 21
7.848724459982804
 31
0.0
  0
LINE
  5
1D76AF03BF
330
1D76AEFB48
100
AcDbEntity
  8
TEXT
100
AcDbLine
 10
143.2995020668598
 20
10.8487244599828
 30
0.0
 11
145.2995020668598
 21
10.8487244599828
 31
0.0
  0
LINE
  5
1D76AF03C0
330
1D76AEFB48
100
AcDbEntity
  8
TEXT
100
AcDbLine
 10
163.1256613145794
 20
10.8487244599828
 30
0.0
 11
163.1256613145794
 21
7.848724459982804
 31
0.0
  0
LINE
  5
1D76AF03C1
330
1D76AEFB48
100
AcDbEntity
  8
TEXT
100
AcDbLine
 10
163.9256613145794
 20
10.8487244599828
 30
0.0
 11
163.9256613145794
 21
7.848724459982804
 31
0.0
  0
LINE
  5
1D76AF03C2
330
1D76AEFB48
100
AcDbEntity
  8
TEXT
100
AcDbLine
 10
162.5256613145794
 20
7.848724459982804
 30
0.0
 11
164.5256613145794
 21
7.848724459982804
 31
0.0
  0
LINE
  5
1D76AF03C3
330
1D76AEFB48
100
AcDbEntity
  8
TEXT
100
AcDbLine
 10
162.5256613145794
 20
10.8487244599828
 30
0.0
 11
164.5256613145794
 21
10.8487244599828
 31
0.0
  0
LINE
  5
1D76AF03C4
330
1D76AEFB48
100
AcDbEntity
  8
TEXT
100
AcDbLine
 10
332.339883200132
 20
10.8487244599828
 30
0.0
 11
332.339883200132
 21
7.848724459982804
 31
0.0
  0
LINE
  5
1D76AF03C5
330
1D76AEFB48
100
AcDbEntity
  8
TEXT
100
AcDbLine
 10
331.539883200132
 20
10.8487244599828
 30
0.0
 11
331.539883200132
 21
7.848724459982804
 31
0.0
  0
LINE
  5
1D76AF03C6
330
1D76AEFB48
100
AcDbEntity
  8
TEXT
100
AcDbLine
 10
330.939883200132
 20
7.848724459982804
 30
0.0
 11
332.939883200132
 21
7.848724459982804
 31
0.0
  0
LINE
  5
1D76AF03C7
330
1D76AEFB48
100
AcDbEntity
  8
TEXT
100
AcDbLine
 10
330.939883200132
 20
10.8487244599828
 30
0.0
 11
332.939883200132
 21
10.8487244599828
 31
0.0
  0
TEXT
  5
1D76AF0409
330
1D76AEFB48
100
AcDbEntity
  8
TEXT
100
AcDbText
 10
169.2857132857142
 20
250.4999999999999
 30
0.0
 40
3.0
  1
M3
  7
K
 72
     4
 11
172.499999
 21
252.0
 31
0.0
100
AcDbText
  0
ENDSEC
  0
SECTION
  2
OBJECTS
  0
DICTIONARY
  5
1D76AEFB3C
330
0
100
AcDbDictionary
  3
ACAD_GROUP
350
1D76AEFB3D
  3
ACAD_LAYOUT
350
1D76AF00EF
  3
ACAD_MLINESTYLE
350
1D76AEFB3E
  3
ACAD_PLOTSETTINGS
350
1D76AF00F0
  3
ACAD_PLOTSTYLENAME
350
1D76AF00ED
  3
ACDBHEADERROUNDTRIPXREC
350
1D76AF044C
  3
ACDBVARIABLEDICTIONARY
350
1D76AF0449
  0
DICTIONARY
  5
1D76AF03EE
330
1D76AEFB48
100
AcDbDictionary
280
     1
  3
ACAD_LAYOUTSELFREF
360
1D76AF046E
  0
DICTIONARY
  5
1D76AF03EC
330
1D76AEFB45
100
AcDbDictionary
280
     1
  3
ACAD_LAYOUTSELFREF
360
1D76AF046D
  0
DICTIONARY
  5
1D76AEFB3D
102
{ACAD_REACTORS
330
1D76AEFB3C
102
}
330
0
100
AcDbDictionary
  0
DICTIONARY
  5
1D76AF00EF
102
{ACAD_REACTORS
330
1D76AEFB3C
102
}
330
1D76AEFB3C
100
AcDbDictionary
  0
DICTIONARY
  5
1D76AEFB3E
102
{ACAD_REACTORS
330
1D76AEFB3C
102
}
330
0
100
AcDbDictionary
  3
STANDARD
350
1D76AEFB4B
  0
DICTIONARY
  5
1D76AF00F0
102
{ACAD_REACTORS
330
1D76AEFB3C
102
}
330
1D76AEFB3C
100
AcDbDictionary
  0
ACDBDICTIONARYWDFLT
  5
1D76AF00ED
102
{ACAD_REACTORS
330
1D76AEFB3C
102
}
330
1D76AEFB3C
100
AcDbDictionary
281
     1
  3
Normal
350
1D76AF00EE
100
AcDbDictionaryWithDefault
340
1D76AF00EE
  0
DICTIONARY
  5
1D76AF044C
102
{ACAD_REACTORS
330
1D76AEFB3C
102
}
330
1D76AEFB3C
100
AcDbDictionary
  3
CEPSNTYPE
350
1D76AF0456
  3
DIMSTYLEDATA
350
1D76AF045A
  3
FINGERPRINTGUID
350
1D76AF0457
  3
HYPERLINKBASE
350
1D76AF044F
  3
INSUNITS
350
1D76AF0455
  3
LAYOUTDICT
350
1D76AF0451
  3
LWETCUNION
350
1D76AF0454
  3
PLOTSETDICT
350
1D76AF0452
  3
PLOTSTYLNAMDICT
350
1D76AF0453
  3
PSVPSCALE
350
1D76AF0459
  3
PUCSBASE
350
1D76AF045D
  3
PUCSORGBACK
350
1D76AF0463
  3
PUCSORGBOTTOM
350
1D76AF045F
  3
PUCSORGFRONT
350
1D76AF0462
  3
PUCSORGLEFT
350
1D76AF0460
  3
PUCSORGRIGHT
350
1D76AF0461
  3
PUCSORGTOP
350
1D76AF045E
  3
PUCSORTHOREF
350
1D76AF045B
  3
PUCSORTHOVIEW
350
1D76AF045C
  3
STYLESHEET
350
1D76AF0450
  3
TSTACKALIGN
350
1D76AF044D
  3
TSTACKSIZE
350
1D76AF044E
  3
UCSBASE
350
1D76AF0466
  3
UCSORGBACK
350
1D76AF046C
  3
UCSORGBOTTOM
350
1D76AF0468
  3
UCSORGFRONT
350
1D76AF046B
  3
UCSORGLEFT
350
1D76AF0469
  3
UCSORGRIGHT
350
1D76AF046A
  3
UCSORGTOP
350
1D76AF0467
  3
UCSORTHOREF
350
1D76AF0464
  3
UCSORTHOVIEW
350
1D76AF0465
  3
VERSIONGUID
350
1D76AF0458
  0
DICTIONARY
  5
1D76AF0449
102
{ACAD_REACTORS
330
1D76AEFB3C
102
}
330
1D76AEFB3C
100
AcDbDictionary
  3
DIMASSOC
350
1D76AF044A
  0
XRECORD
  5
1D76AF046E
102
{ACAD_REACTORS
330
1D76AF03EE
102
}
330
1D76AF03EE
100
AcDbXrecord
340
1D76AEFB48
  0
XRECORD
  5
1D76AF046D
102
{ACAD_REACTORS
330
1D76AF03EC
102
}
330
1D76AF03EC
100
AcDbXrecord
340
1D76AEFB45
  0
MLINESTYLE
  5
1D76AEFB4B
102
{ACAD_REACTORS
330
1D76AEFB3E
102
}
330
0
100
AcDbMlineStyle
  2
STANDARD
 70
     0
  3

 62
     0
 51
90.0
 52
90.0
 71
     2
 49
0.5
 62
   256
  6
BYLAYER
 49
-0.5
 62
   256
  6
BYLAYER
  0
ACDBPLACEHOLDER
  5
1D76AF00EE
102
{ACAD_REACTORS
330
1D76AF00ED
102
}
330
1D76AF00ED
100
AcDbPlaceHolder
280
     0
  0
XRECORD
  5
1D76AF0456
102
{ACAD_REACTORS
330
1D76AF044C
102
}
330
1D76AF044C
100
AcDbXrecord
 90
        0
  0
XRECORD
  5
1D76AF045A
102
{ACAD_REACTORS
330
1D76AF044C
102
}
330
1D76AF044C
100
AcDbXrecord
1000
DSTYLE
1002
{
1070
   341
340
1D76AF005C
1070
   342
340
1D76AEFB57
1070
   343
340
1D76AF005C
1070
   344
340
1D76AF005C
1002
}
  0
XRECORD
  5
1D76AF0457
102
{ACAD_REACTORS
330
1D76AF044C
102
}
330
1D76AF044C
100
AcDbXrecord
  1
{540CF9A2-60AA-416C-83D4-0BB15D469461}
  0
XRECORD
  5
1D76AF044F
102
{ACAD_REACTORS
330
1D76AF044C
102
}
330
1D76AF044C
100
AcDbXrecord
  1

  0
XRECORD
  5
1D76AF0455
102
{ACAD_REACTORS
330
1D76AF044C
102
}
330
1D76AF044C
100
AcDbXrecord
 90
        0
  0
XRECORD
  5
1D76AF0451
102
{ACAD_REACTORS
330
1D76AF044C
102
}
330
1D76AF044C
100
AcDbXrecord
340
1D76AF00EF
  0
XRECORD
  5
1D76AF0454
102
{ACAD_REACTORS
330
1D76AF044C
102
}
330
1D76AF044C
100
AcDbXrecord
 90
    14877
  0
XRECORD
  5
1D76AF0452
102
{ACAD_REACTORS
330
1D76AF044C
102
}
330
1D76AF044C
100
AcDbXrecord
340
1D76AF00F0
  0
XRECORD
  5
1D76AF0453
102
{ACAD_REACTORS
330
1D76AF044C
102
}
330
1D76AF044C
100
AcDbXrecord
340
1D76AF00ED
  0
XRECORD
  5
1D76AF0459
102
{ACAD_REACTORS
330
1D76AF044C
102
}
330
1D76AF044C
100
AcDbXrecord
 40
0.0
  0
XRECORD
  5
1D76AF045D
102
{ACAD_REACTORS
330
1D76AF044C
102
}
330
1D76AF044C
100
AcDbXrecord
340
0
  0
XRECORD
  5
1D76AF0463
102
{ACAD_REACTORS
330
1D76AF044C
102
}
330
1D76AF044C
100
AcDbXrecord
 10
0.0
 20
0.0
 30
0.0
  0
XRECORD
  5
1D76AF045F
102
{ACAD_REACTORS
330
1D76AF044C
102
}
330
1D76AF044C
100
AcDbXrecord
 10
0.0
 20
0.0
 30
0.0
  0
XRECORD
  5
1D76AF0462
102
{ACAD_REACTORS
330
1D76AF044C
102
}
330
1D76AF044C
100
AcDbXrecord
 10
0.0
 20
0.0
 30
0.0
  0
XRECORD
  5
1D76AF0460
102
{ACAD_REACTORS
330
1D76AF044C
102
}
330
1D76AF044C
100
AcDbXrecord
 10
0.0
 20
0.0
 30
0.0
  0
XRECORD
  5
1D76AF0461
102
{ACAD_REACTORS
330
1D76AF044C
102
}
330
1D76AF044C
100
AcDbXrecord
 10
0.0
 20
0.0
 30
0.0
  0
XRECORD
  5
1D76AF045E
102
{ACAD_REACTORS
330
1D76AF044C
102
}
330
1D76AF044C
100
AcDbXrecord
 10
0.0
 20
0.0
 30
0.0
  0
XRECORD
  5
1D76AF045B
102
{ACAD_REACTORS
330
1D76AF044C
102
}
330
1D76AF044C
100
AcDbXrecord
340
0
  0
XRECORD
  5
1D76AF045C
102
{ACAD_REACTORS
330
1D76AF044C
102
}
330
1D76AF044C
100
AcDbXrecord
 70
     0
  0
XRECORD
  5
1D76AF0450
102
{ACAD_REACTORS
330
1D76AF044C
102
}
330
1D76AF044C
100
AcDbXrecord
  1

  0
XRECORD
  5
1D76AF044D
102
{ACAD_REACTORS
330
1D76AF044C
102
}
330
1D76AF044C
100
AcDbXrecord
 90
        1
  0
XRECORD
  5
1D76AF044E
102
{ACAD_REACTORS
330
1D76AF044C
102
}
330
1D76AF044C
100
AcDbXrecord
 90
       70
  0
XRECORD
  5
1D76AF0466
102
{ACAD_REACTORS
330
1D76AF044C
102
}
330
1D76AF044C
100
AcDbXrecord
340
0
  0
XRECORD
  5
1D76AF046C
102
{ACAD_REACTORS
330
1D76AF044C
102
}
330
1D76AF044C
100
AcDbXrecord
 10
0.0
 20
0.0
 30
0.0
  0
XRECORD
  5
1D76AF0468
102
{ACAD_REACTORS
330
1D76AF044C
102
}
330
1D76AF044C
100
AcDbXrecord
 10
0.0
 20
0.0
 30
0.0
  0
XRECORD
  5
1D76AF046B
102
{ACAD_REACTORS
330
1D76AF044C
102
}
330
1D76AF044C
100
AcDbXrecord
 10
0.0
 20
0.0
 30
0.0
  0
XRECORD
  5
1D76AF0469
102
{ACAD_REACTORS
330
1D76AF044C
102
}
330
1D76AF044C
100
AcDbXrecord
 10
0.0
 20
0.0
 30
0.0
  0
XRECORD
  5
1D76AF046A
102
{ACAD_REACTORS
330
1D76AF044C
102
}
330
1D76AF044C
100
AcDbXrecord
 10
0.0
 20
0.0
 30
0.0
  0
XRECORD
  5
1D76AF0467
102
{ACAD_REACTORS
330
1D76AF044C
102
}
330
1D76AF044C
100
AcDbXrecord
 10
0.0
 20
0.0
 30
0.0
  0
XRECORD
  5
1D76AF0464
102
{ACAD_REACTORS
330
1D76AF044C
102
}
330
1D76AF044C
100
AcDbXrecord
340
0
  0
XRECORD
  5
1D76AF0465
102
{ACAD_REACTORS
330
1D76AF044C
102
}
330
1D76AF044C
100
AcDbXrecord
 70
     0
  0
XRECORD
  5
1D76AF0458
102
{ACAD_REACTORS
330
1D76AF044C
102
}
330
1D76AF044C
100
AcDbXrecord
  1
{FB97A387-FAFC-4810-83BB-64DB2ED8D4BA}
  0
DICTIONARYVAR
  5
1D76AF044A
102
{ACAD_REACTORS
330
1D76AF0449
102
}
330
1D76AF0449
100
DictionaryVariables
280
     0
  1
0
  0
ENDSEC
  0
EOF
