  0
SECTION
  2
HEADER
  9
$ACADVER
  1
AC1014
  9
$ACADMAINTVER
 70
     9
  9
$DWGCODEPAGE
  3
ANSI_932
  9
$INSBASE
 10
0.0
 20
0.0
 30
0.0
  9
$EXTMIN
 10
-0.0220903011392011
 20
-0.0208250686071097
 30
-0.000000000000013
  9
$EXTMAX
 10
362.0193348171751
 20
273.0000012714103
 30
0.0000000000000023
  9
$LIMMIN
 10
0.0
 20
0.0
  9
$LIMMAX
 10
180.9999992799999
 20
272.9999999999999
  9
$ORTHOMODE
 70
     1
  9
$REGENMODE
 70
     1
  9
$FILLMODE
 70
     1
  9
$QTEXTMODE
 70
     0
  9
$MIRRTEXT
 70
     0
  9
$DRAGMODE
 70
     2
  9
$LTSCALE
 40
5.0
  9
$OSMODE
 70
   167
  9
$ATTMODE
 70
     1
  9
$TEXTSIZE
 40
0.2
  9
$TRACEWID
 40
0.05
  9
$TEXTSTYLE
  7
STANDARD
  9
$CLAYER
  8
JISSEN
  9
$CELTYPE
  6
BYLAYER
  9
$CECOLOR
 62
   256
  9
$CELTSCALE
 40
1.0
  9
$DELOBJ
 70
     1
  9
$DISPSILH
 70
     0
  9
$DIMSCALE
 40
0.0
  9
$DIMASZ
 40
1.5
  9
$DIMEXO
 40
0.75
  9
$DIMDLI
 40
6.0
  9
$DIMRND
 40
0.0
  9
$DIMDLE
 40
0.0
  9
$DIMEXE
 40
1.0
  9
$DIMTP
 40
495.0
  9
$DIMTM
 40
0.0
  9
$DIMTXT
 40
3.0
  9
$DIMCEN
 40
0.0
  9
$DIMTSZ
 40
0.0
  9
$DIMTOL
 70
     0
  9
$DIMLIM
 70
     0
  9
$DIMTIH
 70
     0
  9
$DIMTOH
 70
     0
  9
$DIMSE1
 70
     0
  9
$DIMSE2
 70
     0
  9
$DIMTAD
 70
     3
  9
$DIMZIN
 70
     8
  9
$DIMBLK
  1
ARROWANG
  9
$DIMASO
 70
     0
  9
$DIMSHO
 70
     0
  9
$DIMPOST
  1

  9
$DIMAPOST
  1

  9
$DIMALT
 70
     0
  9
$DIMALTD
 70
     2
  9
$DIMALTF
 40
25.4
  9
$DIMLFAC
 40
1.0
  9
$DIMTOFL
 70
     1
  9
$DIMTVP
 40
0.0
  9
$DIMTIX
 70
     1
  9
$DIMSOXD
 70
     0
  9
$DIMSAH
 70
     1
  9
$DIMBLK1
  1
ARROWANG
  9
$DIMBLK2
  1
ARROWANG
  9
$DIMSTYLE
  2
IMAO
  9
$DIMCLRD
 70
   256
  9
$DIMCLRE
 70
   256
  9
$DIMCLRT
 70
   256
  9
$DIMTFAC
 40
1.0
  9
$DIMGAP
 40
1.0
  9
$DIMJUST
 70
     0
  9
$DIMSD1
 70
     0
  9
$DIMSD2
 70
     0
  9
$DIMTOLJ
 70
     1
  9
$DIMTZIN
 70
     0
  9
$DIMALTZ
 70
     0
  9
$DIMALTTZ
 70
     0
  9
$DIMFIT
 70
     3
  9
$DIMUPT
 70
     0
  9
$DIMUNIT
 70
     2
  9
$DIMDEC
 70
     2
  9
$DIMTDEC
 70
     2
  9
$DIMALTU
 70
     2
  9
$DIMALTTD
 70
     2
  9
$DIMTXSTY
  7
K
  9
$DIMAUNIT
 70
     0
  9
$LUNITS
 70
     2
  9
$LUPREC
 70
     2
  9
$SKETCHINC
 40
0.1
  9
$FILLETRAD
 40
0.0
  9
$AUNITS
 70
     0
  9
$AUPREC
 70
     2
  9
$MENU
  1
STDR12J
  9
$ELEVATION
 40
0.0
  9
$PELEVATION
 40
0.0
  9
$THICKNESS
 40
0.0
  9
$LIMCHECK
 70
     0
  9
$BLIPMODE
 70
     0
  9
$CHAMFERA
 40
0.0
  9
$CHAMFERB
 40
0.0
  9
$CHAMFERC
 40
0.0
  9
$CHAMFERD
 40
0.0
  9
$SKPOLY
 70
     0
  9
$TDCREATE
 40
2450694.750535185
  9
$TDUPDATE
 40
2453334.724740138
  9
$TDINDWG
 40
0.1184842940
  9
$TDUSRTIMER
 40
0.1184842940
  9
$USRTIMER
 70
     1
  9
$ANGBASE
 50
0.0
  9
$ANGDIR
 70
     0
  9
$PDMODE
 70
     0
  9
$PDSIZE
 40
0.0
  9
$PLINEWID
 40
0.0
  9
$COORDS
 70
     2
  9
$SPLFRAME
 70
     0
  9
$SPLINETYPE
 70
     6
  9
$SPLINESEGS
 70
     8
  9
$ATTDIA
 70
     0
  9
$ATTREQ
 70
     1
  9
$HANDLING
 70
 22529
  9
$HANDSEED
  5
318338C2
  9
$SURFTAB1
 70
     6
  9
$SURFTAB2
 70
     6
  9
$SURFTYPE
 70
     6
  9
$SURFU
 70
     6
  9
$SURFV
 70
     6
  9
$UCSNAME
  2

  9
$UCSORG
 10
0.0
 20
0.0
 30
0.0
  9
$UCSXDIR
 10
1.0
 20
0.0
 30
0.0
  9
$UCSYDIR
 10
0.0
 20
1.0
 30
0.0
  9
$PUCSNAME
  2

  9
$PUCSORG
 10
0.0
 20
0.0
 30
0.0
  9
$PUCSXDIR
 10
1.0
 20
0.0
 30
0.0
  9
$PUCSYDIR
 10
0.0
 20
1.0
 30
0.0
  9
$USERI1
 70
     4
  9
$USERI2
 70
     1
  9
$USERI3
 70
     1
  9
$USERI4
 70
     1
  9
$USERI5
 70
     1
  9
$USERR1
 40
1.0
  9
$USERR2
 40
3.0
  9
$USERR3
 40
3.0
  9
$USERR4
 40
1.5
  9
$USERR5
 40
10.0
  9
$WORLDVIEW
 70
     1
  9
$SHADEDGE
 70
     3
  9
$SHADEDIF
 70
    70
  9
$TILEMODE
 70
     1
  9
$MAXACTVP
 70
    16
  9
$PINSBASE
 10
0.0
 20
0.0
 30
0.0
  9
$PLIMCHECK
 70
     0
  9
$PEXTMIN
 10
1.000000000000000E+20
 20
1.000000000000000E+20
 30
1.000000000000000E+20
  9
$PEXTMAX
 10
-1.000000000000000E+20
 20
-1.000000000000000E+20
 30
-1.000000000000000E+20
  9
$PLIMMIN
 10
0.0
 20
0.0
  9
$PLIMMAX
 10
12.0
 20
9.0
  9
$UNITMODE
 70
     0
  9
$VISRETAIN
 70
     0
  9
$PLINEGEN
 70
     0
  9
$PSLTSCALE
 70
     0
  9
$TREEDEPTH
 70
     0
  9
$PICKSTYLE
 70
     1
  9
$CMLSTYLE
  2
STANDARD
  9
$CMLJUST
 70
     0
  9
$CMLSCALE
 40
1.0
  9
$PROXYGRAPHICS
 70
     1
  9
$MEASUREMENT
 70
     0
  0
ENDSEC
  0
SECTION
  2
CLASSES
  0
CLASS
  1
LWPOLYLINE
  2
AcDbPolyline
  3
AutoCAD 2000
 90
        0
280
     0
281
     1
  0
CLASS
  1
XRECORD
  2
AcDbXrecord
  3
AutoCAD 2000
 90
        0
280
     0
281
     0
  0
CLASS
  1
HATCH
  2
AcDbHatch
  3
AutoCAD 2000
 90
        0
280
     0
281
     1
  0
CLASS
  1
ACDBDICTIONARYWDFLT
  2
AcDbDictionaryWithDefault
  3
AutoCAD 2000
 90
        0
280
     0
281
     0
  0
CLASS
  1
ACDBPLACEHOLDER
  2
AcDbPlaceHolder
  3
AutoCAD 2000
 90
        0
280
     0
281
     0
  0
CLASS
  1
LAYOUT
  2
AcDbLayout
  3
AutoCAD 2000
 90
        0
280
     0
281
     0
  0
CLASS
  1
LONG_TRANSACTION
  2
AcDbLongTransaction
  3
AutoCAD 2000
 90
        0
280
     0
281
     0
  0
CLASS
  1
LWPOLYLINE
  2
AcDbPolyline
  3
AutoCAD 2000
 90
        0
280
     0
281
     1
  0
CLASS
  1
HATCH
  2
AcDbHatch
  3
AutoCAD 2000
 90
        0
280
     0
281
     1
  0
CLASS
  1
XRECORD
  2
AcDbXrecord
  3
AutoCAD 2000
 90
        0
280
     0
281
     0
  0
CLASS
  1
LONG_TRANSACTION
  2
AcDbLongTransaction
  3
AutoCAD 2000
 90
        0
280
     0
281
     0
  0
CLASS
  1
LWPOLYLINE
  2
AcDbPolyline
  3
AutoCAD 2000
 90
        0
280
     0
281
     1
  0
CLASS
  1
HATCH
  2
AcDbHatch
  3
AutoCAD 2000
 90
        0
280
     0
281
     1
  0
CLASS
  1
XRECORD
  2
AcDbXrecord
  3
AutoCAD 2000
 90
        0
280
     0
281
     0
  0
CLASS
  1
LONG_TRANSACTION
  2
AcDbLongTransaction
  3
AutoCAD 2000
 90
        0
280
     0
281
     0
  0
CLASS
  1
LWPOLYLINE
  2
AcDbPolyline
  3
AutoCAD 2000
 90
        0
280
     0
281
     1
  0
CLASS
  1
HATCH
  2
AcDbHatch
  3
AutoCAD 2000
 90
        0
280
     0
281
     1
  0
CLASS
  1
XRECORD
  2
AcDbXrecord
  3
AutoCAD 2000
 90
        0
280
     0
281
     0
  0
CLASS
  1
LONG_TRANSACTION
  2
AcDbLongTransaction
  3
AutoCAD 2000
 90
        0
280
     0
281
     0
  0
CLASS
  1
LWPOLYLINE
  2
AcDbPolyline
  3
AutoCAD 2000
 90
        0
280
     0
281
     1
  0
CLASS
  1
HATCH
  2
AcDbHatch
  3
AutoCAD 2000
 90
        0
280
     0
281
     1
  0
CLASS
  1
XRECORD
  2
AcDbXrecord
  3
AutoCAD 2000
 90
        0
280
     0
281
     0
  0
CLASS
  1
LONG_TRANSACTION
  2
AcDbLongTransaction
  3
AutoCAD 2000
 90
        0
280
     0
281
     0
  0
CLASS
  1
LWPOLYLINE
  2
AcDbPolyline
  3
AutoCAD 2000
 90
        0
280
     0
281
     1
  0
CLASS
  1
HATCH
  2
AcDbHatch
  3
AutoCAD 2000
 90
        0
280
     0
281
     1
  0
CLASS
  1
XRECORD
  2
AcDbXrecord
  3
AutoCAD 2000
 90
        0
280
     0
281
     0
  0
CLASS
  1
LONG_TRANSACTION
  2
AcDbLongTransaction
  3
AutoCAD 2000
 90
        0
280
     0
281
     0
  0
CLASS
  1
LWPOLYLINE
  2
AcDbPolyline
  3
AutoCAD 2000
 90
        0
280
     0
281
     1
  0
CLASS
  1
HATCH
  2
AcDbHatch
  3
AutoCAD 2000
 90
        0
280
     0
281
     1
  0
CLASS
  1
XRECORD
  2
AcDbXrecord
  3
AutoCAD 2000
 90
        0
280
     0
281
     0
  0
CLASS
  1
LONG_TRANSACTION
  2
AcDbLongTransaction
  3
AutoCAD 2000
 90
        0
280
     0
281
     0
  0
CLASS
  1
LWPOLYLINE
  2
AcDbPolyline
  3
AutoCAD 2000
 90
        0
280
     0
281
     1
  0
CLASS
  1
HATCH
  2
AcDbHatch
  3
AutoCAD 2000
 90
        0
280
     0
281
     1
  0
CLASS
  1
XRECORD
  2
AcDbXrecord
  3
AutoCAD 2000
 90
        0
280
     0
281
     0
  0
CLASS
  1
DICTIONARYVAR
  2
AcDbDictionaryVar
  3
AutoCAD 2000
 90
        0
280
     0
281
     0
  0
CLASS
  1
LONG_TRANSACTION
  2
AcDbLongTransaction
  3
AutoCAD 2000
 90
        0
280
     0
281
     0
  0
CLASS
  1
LWPOLYLINE
  2
AcDbPolyline
  3
AutoCAD 2000
 90
        0
280
     0
281
     1
  0
CLASS
  1
HATCH
  2
AcDbHatch
  3
AutoCAD 2000
 90
        0
280
     0
281
     1
  0
CLASS
  1
XRECORD
  2
AcDbXrecord
  3
AutoCAD 2000
 90
        0
280
     0
281
     0
  0
ENDSEC
  0
SECTION
  2
TABLES
  0
TABLE
  2
VPORT
  5
3183249F
330
0
100
AcDbSymbolTable
 70
    10
  0
VPORT
  5
318324C3
330
3183249F
100
AcDbSymbolTableRecord
100
AcDbViewportTableRecord
  2
2
 70
     0
 10
0.5
 20
0.0
 11
1.0
 21
1.0
 12
0.9240312421264802
 22
1.052650975462766
 13
0.0
 23
0.0
 14
1.0
 24
1.0
 15
10.0
 25
10.0
 16
0.0
 26
0.0
 36
1.0
 17
0.0
 27
0.0
 37
0.0
 40
2.105301950925533
 41
0.8778135048231511
 42
50.0
 43
0.0
 44
0.0
 50
0.0
 51
0.0
 71
     0
 72
   500
 73
     1
 74
     1
 75
     0
 76
     0
 77
     0
 78
     0
  0
VPORT
  5
318324C4
330
3183249F
100
AcDbSymbolTableRecord
100
AcDbViewportTableRecord
  2
2
 70
     0
 10
0.0
 20
0.0
 11
0.5
 21
1.0
 12
0.9240312421264802
 22
1.052650975462766
 13
0.0
 23
0.0
 14
1.0
 24
1.0
 15
10.0
 25
10.0
 16
0.0
 26
0.0
 36
1.0
 17
0.0
 27
0.0
 37
0.0
 40
2.105301950925533
 41
0.8778135048231511
 42
50.0
 43
0.0
 44
0.0
 50
0.0
 51
0.0
 71
     0
 72
   500
 73
     1
 74
     1
 75
     0
 76
     0
 77
     0
 78
     0
  0
VPORT
  5
318324C5
330
3183249F
100
AcDbSymbolTableRecord
100
AcDbViewportTableRecord
  2
3
 70
     0
 10
0.0
 20
0.5
 11
1.0
 21
1.0
 12
2.832169994473273
 22
1.052650975462766
 13
0.0
 23
0.0
 14
1.0
 24
1.0
 15
10.0
 25
10.0
 16
0.0
 26
0.0
 36
1.0
 17
0.0
 27
0.0
 37
0.0
 40
2.105301950925533
 41
3.571428571428571
 42
50.0
 43
0.0
 44
0.0
 50
0.0
 51
0.0
 71
     0
 72
   500
 73
     1
 74
     1
 75
     0
 76
     0
 77
     0
 78
     0
  0
VPORT
  5
318324C6
330
3183249F
100
AcDbSymbolTableRecord
100
AcDbViewportTableRecord
  2
3
 70
     0
 10
0.0
 20
0.0
 11
1.0
 21
0.5
 12
2.856741679241311
 22
1.052650975462766
 13
0.0
 23
0.0
 14
1.0
 24
1.0
 15
10.0
 25
10.0
 16
0.0
 26
0.0
 36
1.0
 17
0.0
 27
0.0
 37
0.0
 40
2.105301950925533
 41
3.594771241830065
 42
50.0
 43
0.0
 44
0.0
 50
0.0
 51
0.0
 71
     0
 72
   500
 73
     1
 74
     1
 75
     0
 76
     0
 77
     0
 78
     0
  0
VPORT
  5
318324C7
330
3183249F
100
AcDbSymbolTableRecord
100
AcDbViewportTableRecord
  2
4
 70
     0
 10
0.5
 20
0.0
 11
1.0
 21
0.5
 12
2.886857516709719
 22
1.052650975462766
 13
0.0
 23
0.0
 14
1.0
 24
1.0
 15
10.0
 25
10.0
 16
0.0
 26
0.0
 36
1.0
 17
0.0
 27
0.0
 37
0.0
 40
4.27520703030907
 41
1.784313725490195
 42
50.0
 43
0.0
 44
0.0
 50
0.0
 51
0.0
 71
     0
 72
   500
 73
     1
 74
     1
 75
     0
 76
     0
 77
     0
 78
     0
  0
VPORT
  5
318324C8
330
3183249F
100
AcDbSymbolTableRecord
100
AcDbViewportTableRecord
  2
4
 70
     0
 10
0.5
 20
0.5
 11
1.0
 21
1.0
 12
2.862090274555523
 22
1.052650975462766
 13
0.0
 23
0.0
 14
1.0
 24
1.0
 15
10.0
 25
10.0
 16
0.0
 26
0.0
 36
1.0
 17
0.0
 27
0.0
 37
0.0
 40
4.27520703030907
 41
1.772727272727272
 42
50.0
 43
0.0
 44
0.0
 50
0.0
 51
0.0
 71
     0
 72
   500
 73
     1
 74
     1
 75
     0
 76
     0
 77
     0
 78
     0
  0
VPORT
  5
318324C9
330
3183249F
100
AcDbSymbolTableRecord
100
AcDbViewportTableRecord
  2
4
 70
     0
 10
0.0
 20
0.5
 11
0.5
 21
1.0
 12
2.862090274555523
 22
1.052650975462766
 13
0.0
 23
0.0
 14
1.0
 24
1.0
 15
10.0
 25
10.0
 16
0.0
 26
0.0
 36
1.0
 17
0.0
 27
0.0
 37
0.0
 40
4.27520703030907
 41
1.772727272727272
 42
50.0
 43
0.0
 44
0.0
 50
0.0
 51
0.0
 71
     0
 72
   500
 73
     1
 74
     1
 75
     0
 76
     0
 77
     0
 78
     0
  0
VPORT
  5
318324CA
330
3183249F
100
AcDbSymbolTableRecord
100
AcDbViewportTableRecord
  2
4
 70
     0
 10
0.0
 20
0.0
 11
0.5
 21
0.5
 12
2.886857516709719
 22
1.052650975462766
 13
0.0
 23
0.0
 14
1.0
 24
1.0
 15
10.0
 25
10.0
 16
0.0
 26
0.0
 36
1.0
 17
0.0
 27
0.0
 37
0.0
 40
4.27520703030907
 41
1.784313725490195
 42
50.0
 43
0.0
 44
0.0
 50
0.0
 51
0.0
 71
     0
 72
   500
 73
     1
 74
     1
 75
     0
 76
     0
 77
     0
 78
     0
  0
VPORT
  5
3183389E
330
3183249F
100
AcDbSymbolTableRecord
100
AcDbViewportTableRecord
  2
*ACTIVE
 70
     0
 10
0.0
 20
0.0
 11
1.0
 21
1.0
 12
180.9986222580179
 22
136.4895881014016
 13
0.0
 23
0.0
 14
1.0
 24
1.0
 15
10.0
 25
10.0
 16
0.0
 26
0.0
 36
1.0
 17
0.0
 27
0.0
 37
0.0
 40
276.077029619943
 41
1.771962616822429
 42
50.0
 43
0.0
 44
0.0
 50
0.0
 51
0.0
 71
     0
 72
   500
 73
     1
 74
     0
 75
     0
 76
     0
 77
     0
 78
     0
  0
ENDTAB
  0
TABLE
  2
LTYPE
  5
3183249C
330
0
100
AcDbSymbolTable
 70
     2
  0
LTYPE
  5
318324A9
330
3183249C
100
AcDbSymbolTableRecord
100
AcDbLinetypeTableRecord
  2
BYBLOCK
 70
     0
  3

 72
    65
 73
     0
 40
0.0
  0
LTYPE
  5
318324AA
330
3183249C
100
AcDbSymbolTableRecord
100
AcDbLinetypeTableRecord
  2
BYLAYER
 70
     0
  3

 72
    65
 73
     0
 40
0.0
  0
LTYPE
  5
318324AB
330
3183249C
100
AcDbSymbolTableRecord
100
AcDbLinetypeTableRecord
  2
CONTINUOUS
 70
     0
  3
実線
 72
    65
 73
     0
 40
0.0
  0
LTYPE
  5
318324C1
330
3183249C
100
AcDbSymbolTableRecord
100
AcDbLinetypeTableRecord
  2
PHANTOM
 70
     0
  3
_____ _ _ _____ _ _ _____ _ _ _____ _ _ ____
 72
    65
 73
     6
 40
2.5
 49
1.25
 74
     0
 49
-0.25
 74
     0
 49
0.25
 74
     0
 49
-0.25
 74
     0
 49
0.25
 74
     0
 49
-0.25
 74
     0
  0
ENDTAB
  0
TABLE
  2
LAYER
  5
31832499
330
0
100
AcDbSymbolTable
 70
     7
  0
LAYER
  5
318324A6
330
31832499
100
AcDbSymbolTableRecord
100
AcDbLayerTableRecord
  2
0
 70
     0
 62
     7
  6
CONTINUOUS
  0
LAYER
  5
318324D0
330
31832499
100
AcDbSymbolTableRecord
100
AcDbLayerTableRecord
  2
NITEN
 70
     0
 62
     2
  6
PHANTOM
  0
LAYER
  5
318324D2
330
31832499
100
AcDbSymbolTableRecord
100
AcDbLayerTableRecord
  2
SUNPOU
 70
     0
 62
     3
  6
CONTINUOUS
  0
LAYER
  5
318324D3
330
31832499
100
AcDbSymbolTableRecord
100
AcDbLayerTableRecord
  2
TEXT
 70
     0
 62
     3
  6
CONTINUOUS
  0
LAYER
  5
318324D5
330
31832499
100
AcDbSymbolTableRecord
100
AcDbLayerTableRecord
  2
JISSEN
 70
     0
 62
     7
  6
CONTINUOUS
  0
LAYER
  5
318324D9
330
31832499
100
AcDbSymbolTableRecord
100
AcDbLayerTableRecord
  2
WAKU
 70
     0
 62
     5
  6
CONTINUOUS
  0
LAYER
  5
318324EC
330
31832499
100
AcDbSymbolTableRecord
100
AcDbLayerTableRecord
  2
SCALE
 70
     0
 62
     7
  6
CONTINUOUS
  0
ENDTAB
  0
TABLE
  2
STYLE
  5
3183249A
330
0
100
AcDbSymbolTable
 70
     2
  0
STYLE
  5
318324A7
330
3183249A
100
AcDbSymbolTableRecord
100
AcDbTextStyleTableRecord
  2
STANDARD
 70
     0
 40
0.0
 41
1.0
 50
0.0
 71
     0
 42
0.2
  3
ROMANS.shx
  4
bigfont.shx
  0
STYLE
  5
318324BE
330
3183249A
100
AcDbSymbolTableRecord
100
AcDbTextStyleTableRecord
  2
K
 70
     0
 40
0.0
 41
1.0
 50
0.0
 71
     0
 42
3.0
  3
ROMANS
  4
EXTFONT
  0
ENDTAB
  0
TABLE
  2
VIEW
  5
3183249D
330
0
100
AcDbSymbolTable
 70
     0
  0
ENDTAB
  0
TABLE
  2
UCS
  5
3183249E
330
0
100
AcDbSymbolTable
 70
     0
  0
ENDTAB
  0
TABLE
  2
APPID
  5
318324A0
330
0
100
AcDbSymbolTable
 70
     7
  0
APPID
  5
318324A8
330
318324A0
100
AcDbSymbolTableRecord
100
AcDbRegAppTableRecord
  2
ACAD
 70
     0
  0
APPID
  5
3183298D
330
318324A0
100
AcDbSymbolTableRecord
100
AcDbRegAppTableRecord
  2
X_OBJNAME
 70
     0
  0
APPID
  5
3183298E
330
318324A0
100
AcDbSymbolTableRecord
100
AcDbRegAppTableRecord
  2
X_PARAM_BALLOON
 70
     0
  0
APPID
  5
3183298F
330
318324A0
100
AcDbSymbolTableRecord
100
AcDbRegAppTableRecord
  2
X_PARAM_TXTPATERN
 70
     0
  0
APPID
  5
31832990
330
318324A0
100
AcDbSymbolTableRecord
100
AcDbRegAppTableRecord
  2
X_PARAM_CTXTPATERN
 70
     0
  0
APPID
  5
31832991
330
318324A0
100
AcDbSymbolTableRecord
100
AcDbRegAppTableRecord
  2
X_PARAM_SYSVAL
 70
     0
  0
APPID
  5
31832992
330
318324A0
100
AcDbSymbolTableRecord
100
AcDbRegAppTableRecord
  2
X_DEFINELIST
 70
     0
  0
ENDTAB
  0
TABLE
  2
DIMSTYLE
  5
318324A1
330
0
100
AcDbSymbolTable
 70
     1
  0
DIMSTYLE
105
318324CD
330
318324A1
100
AcDbSymbolTableRecord
100
AcDbDimStyleTableRecord
  2
IMAO
 70
     0
  3

  4

  5
ARROWANG
  6
ARROWANG
  7
ARROWANG
 40
1.0
 41
1.5
 42
0.75
 43
6.0
 44
1.0
 45
0.0
 46
0.0
 47
495.0
 48
0.0
140
3.0
141
0.0
142
0.0
143
25.4
144
1.0
145
0.0
146
1.0
147
1.0
 71
     0
 72
     0
 73
     0
 74
     0
 75
     0
 76
     0
 77
     3
 78
     8
170
     0
171
     2
172
     1
173
     1
174
     1
175
     0
176
   256
177
   256
178
   256
270
     2
271
     2
272
     2
273
     2
274
     2
340
318324BE
275
     0
280
     0
281
     0
282
     0
283
     1
284
     0
285
     0
286
     0
287
     3
288
     0
  0
ENDTAB
  0
TABLE
  2
BLOCK_RECORD
  5
31832498
330
0
100
AcDbSymbolTable
 70
     2
  0
BLOCK_RECORD
  5
318324AF
102
{ACAD_XDICTIONARY
360
3183341B
102
}
330
31832498
100
AcDbSymbolTableRecord
100
AcDbBlockTableRecord
  2
*MODEL_SPACE
  0
BLOCK_RECORD
  5
318324AC
102
{ACAD_XDICTIONARY
360
31833419
102
}
330
31832498
100
AcDbSymbolTableRecord
100
AcDbBlockTableRecord
  2
*PAPER_SPACE
  0
BLOCK_RECORD
  5
318324B9
330
31832498
100
AcDbSymbolTableRecord
100
AcDbBlockTableRecord
  2
ARROWANG
  0
BLOCK_RECORD
  5
318334B4
330
31832498
100
AcDbSymbolTableRecord
100
AcDbBlockTableRecord
  2
ARROW
  0
ENDTAB
  0
ENDSEC
  0
SECTION
  2
BLOCKS
  0
BLOCK
  5
318324DE
330
318324AF
100
AcDbEntity
  8
0
100
AcDbBlockBegin
  2
*MODEL_SPACE
 70
     0
 10
0.0
 20
0.0
 30
0.0
  3
*MODEL_SPACE
  1

  0
ENDBLK
  5
318324DF
330
318324AF
100
AcDbEntity
  8
0
100
AcDbBlockEnd
  0
BLOCK
  5
318324DC
330
318324AC
100
AcDbEntity
 67
     1
  8
0
100
AcDbBlockBegin
  2
*PAPER_SPACE
 70
     0
 10
0.0
 20
0.0
 30
0.0
  3
*PAPER_SPACE
  1

  0
ENDBLK
  5
318324DD
330
318324AC
100
AcDbEntity
 67
     1
  8
0
100
AcDbBlockEnd
  0
BLOCK
  5
1D
330
318324B9
100
AcDbEntity
  8
0
100
AcDbBlockBegin
  2
ARROWANG
 70
     0
 10
0.0
 20
0.0
 30
0.0
  3
ARROWANG
  1

  0
LINE
  5
1E
330
318324B9
100
AcDbEntity
  8
SUNPOU
100
AcDbLine
 10
0.0
 20
0.0
 30
0.0
 11
-1.499999999999957
 21
0.4019237886467409
 31
0.0
  0
LINE
  5
1F
330
318324B9
100
AcDbEntity
  8
SUNPOU
100
AcDbLine
 10
0.0
 20
0.0
 30
0.0
 11
-1.500000000000028
 21
-0.4019237886467124
 31
0.0
  0
ENDBLK
  5
20
330
318324B9
100
AcDbEntity
  8
0
100
AcDbBlockEnd
  0
BLOCK
  5
318334B8
330
318334B4
100
AcDbEntity
  8
0
100
AcDbBlockBegin
  2
ARROW
 70
     0
 10
1.0
 20
0.5
 30
0.0
  3
ARROW
  1

  0
LINE
  5
318334B5
330
318334B4
100
AcDbEntity
  8
0
100
AcDbLine
 10
1.0
 20
0.5
 30
0.0
 11
-0.5000000000000214
 21
0.0980762113533018
 31
0.0
  0
LINE
  5
318334B6
330
318334B4
100
AcDbEntity
  8
0
100
AcDbLine
 10
0.0
 20
0.5
 30
0.0
 11
1.0
 21
0.5
 31
0.0
  0
LINE
  5
318334B7
330
318334B4
100
AcDbEntity
  8
0
100
AcDbLine
 10
1.0
 20
0.5
 30
0.0
 11
-0.4999999999999574
 21
0.9019237886467408
 31
0.0
  0
ENDBLK
  5
318334B9
330
318334B4
100
AcDbEntity
  8
0
100
AcDbBlockEnd
  0
ENDSEC
  0
SECTION
  2
ENTITIES
  0
LWPOLYLINE
  5
3183277D
330
318324AF
100
AcDbEntity
  8
WAKU
100
AcDbPolyline
 90
        4
 70
     1
 43
0.0
 10
0.0
 20
0.0
 10
180.9999992799999
 20
0.0
 10
180.9999992799999
 20
272.9999999999999
 10
0.0
 20
272.9999999999999
  0
LINE
  5
31832EED
330
318324AF
100
AcDbEntity
  8
JISSEN
100
AcDbLine
 10
14.81801656861307
 20
122.3757707387148
 30
0.0
 11
14.81801656861307
 21
123.6701942300828
 31
0.0
  0
LINE
  5
31832EEE
330
318324AF
100
AcDbEntity
  8
JISSEN
100
AcDbLine
 10
10.80939587895784
 20
122.3757707387148
 30
0.0
 11
10.80939587895784
 21
123.6701942300828
 31
0.0
  0
LINE
  5
31832EEF
330
318324AF
100
AcDbEntity
  8
JISSEN
100
AcDbLine
 10
37.86758553413017
 20
141.0158569456112
 30
0.0
 11
37.86758553413011
 21
122.3757707387145
 31
0.0
  0
LINE
  5
31832EF0
330
318324AF
100
AcDbEntity
  8
JISSEN
100
AcDbLine
 10
40.8740510513715
 20
84.29387418699041
 30
0.0
 11
40.87405105137159
 21
158.4533569456112
 31
0.0
  0
LINE
  5
31832EF1
330
318324AF
100
AcDbEntity
  8
JISSEN
100
AcDbLine
 10
70.93870622378517
 20
122.3757707387146
 30
0.0
 11
70.93870622378517
 21
123.6701942300828
 31
0.0
  0
LINE
  5
31832EF2
330
318324AF
100
AcDbEntity
  8
JISSEN
100
AcDbLine
 10
66.93008553413003
 20
122.3757707387146
 30
0.0
 11
66.93008553413003
 21
123.6701942300828
 31
0.0
  0
LINE
  5
31832EF3
330
318324AF
100
AcDbEntity
  8
JISSEN
100
AcDbLine
 10
40.87405105137139
 20
84.29387418699041
 30
0.0
 11
40.87405105137159
 21
158.4533569456112
 31
0.0
  0
LINE
  5
31832EF4
330
318324AF
100
AcDbEntity
  8
JISSEN
100
AcDbLine
 10
43.88051656861302
 20
141.0158569456111
 30
0.0
 11
43.88051656861302
 21
122.3757707387145
 31
0.0
  0
LINE
  5
31832F04
330
318324AF
100
AcDbEntity
  8
JISSEN
100
AcDbLine
 10
111.9909377133287
 20
122.3757707387146
 30
0.0
 11
111.9909377133287
 21
148.4318052214732
 31
0.0
  0
LINE
  5
31832F05
330
318324AF
100
AcDbEntity
  8
JISSEN
100
AcDbLine
 10
107.9823170236735
 20
122.3757707387146
 30
0.0
 11
107.9823170236735
 21
148.4318052214732
 31
0.0
  0
LINE
  5
31832F06
330
318324AF
100
AcDbEntity
  8
JISSEN
100
AcDbLine
 10
110.487704954708
 20
120.8725379800939
 30
0.0
 11
110.487704954708
 21
150.7654753209751
 31
0.0
  0
LINE
  5
31832F07
330
318324AF
100
AcDbEntity
  8
JISSEN
100
AcDbLine
 10
109.4855497822942
 20
120.8725379800939
 30
0.0
 11
109.4855497822942
 21
150.7654753209751
 31
0.0
  0
LINE
  5
31832F08
330
318324AF
100
AcDbEntity
  8
JISSEN
100
AcDbLine
 10
138.5480497822942
 20
120.8725379800939
 30
0.0
 11
138.5480497822942
 21
150.7654753209751
 31
0.0
  0
LINE
  5
31832F09
330
318324AF
100
AcDbEntity
  8
JISSEN
100
AcDbLine
 10
137.5458946098804
 20
120.8725379800939
 30
0.0
 11
137.5458946098804
 21
150.7654753209751
 31
0.0
  0
LINE
  5
31832F0A
330
318324AF
100
AcDbEntity
  8
JISSEN
100
AcDbLine
 10
140.0512825409149
 20
122.3757707387146
 30
0.0
 11
140.0512825409149
 21
148.4318052214732
 31
0.0
  0
LINE
  5
31832F0B
330
318324AF
100
AcDbEntity
  8
JISSEN
100
AcDbLine
 10
136.0426618512597
 20
122.3757707387146
 30
0.0
 11
136.0426618512597
 21
148.4318052214732
 31
0.0
  0
LINE
  5
31832F0C
330
318324AF
100
AcDbEntity
  8
JISSEN
100
AcDbLine
 10
155.0836101271219
 20
122.3757707387146
 30
0.0
 11
155.0836101271219
 21
141.2008929483366
 31
0.0
  0
LINE
  5
31832F0D
330
318324AF
100
AcDbEntity
  8
JISSEN
100
AcDbLine
 10
92.94998943746662
 20
122.3757707387146
 30
0.0
 11
92.94998943746662
 21
141.2008929483366
 31
0.0
  0
LINE
  5
31832F0E
330
318324AF
100
AcDbEntity
  8
JISSEN
100
AcDbLine
 10
159.092230816777
 20
119.3693052214732
 30
0.0
 11
159.092230816777
 21
146.4274948766456
 31
0.0
  0
LINE
  5
31832F0F
330
318324AF
100
AcDbEntity
  8
JISSEN
100
AcDbLine
 10
88.94136874781144
 20
119.3693052214732
 30
0.0
 11
88.94136874781144
 21
146.4274948766456
 31
0.0
  0
LINE
  5
31832F12
330
318324AF
100
AcDbEntity
  8
JISSEN
100
AcDbLine
 10
43.88051656861273
 20
91.19072319511634
 30
0.0
 11
41.64686600732079
 21
88.08322619933866
 31
0.0
  0
LINE
  5
31832F13
330
318324AF
100
AcDbEntity
  8
JISSEN
100
AcDbLine
 10
43.12921122769407
 20
87.092770867009
 30
0.0
 11
41.6844494504248
 21
84.766469009458
 31
0.0
  0
LINE
  5
31832F14
330
318324AF
100
AcDbEntity
  8
JISSEN
100
AcDbLine
 10
43.88051656861302
 20
118.3671500490594
 30
0.0
 11
40.87405105137159
 21
119.87038280768
 31
0.0
  0
LINE
  5
31832F15
330
318324AF
100
AcDbEntity
  8
JISSEN
100
AcDbLine
 10
43.88051656861302
 20
122.3757707387145
 30
0.0
 11
40.87405105137159
 21
120.8725379800939
 31
0.0
  0
LINE
  5
31832F17
330
318324AF
100
AcDbEntity
  8
JISSEN
100
AcDbLine
 10
74.94732691344058
 20
119.8703828076801
 30
0.0
 11
40.87405105137159
 21
119.87038280768
 31
0.0
  0
LINE
  5
31832F18
330
318324AF
100
AcDbEntity
  8
JISSEN
100
AcDbLine
 10
74.94732691344058
 20
120.8725379800939
 30
0.0
 11
40.87405105137159
 21
120.8725379800939
 31
0.0
  0
ARC
  5
31832F19
330
318324AF
100
AcDbEntity
  8
JISSEN
100
AcDbCircle
 10
40.87405105137139
 20
117.0727265576913
 30
0.0
 40
30.06465517241381
100
AcDbArc
 50
270.0
 51
0.0
  0
LINE
  5
31832F1A
330
318324AF
100
AcDbEntity
  8
JISSEN
100
AcDbLine
 10
37.86758553413017
 20
91.19072319511634
 30
0.0
 11
40.10123609542211
 21
88.08322619933866
 31
0.0
  0
ARC
  5
31832F1B
330
318324AF
100
AcDbEntity
  8
JISSEN
100
AcDbCircle
 10
40.87405105137167
 20
117.0727265576913
 30
0.0
 40
30.06465517241381
100
AcDbArc
 50
179.9999999999997
 51
269.9999999999997
  0
ARC
  5
31832F1C
330
318324AF
100
AcDbEntity
  8
JISSEN
100
AcDbCircle
 10
40.87405105137167
 20
117.0727265576913
 30
0.0
 40
26.05603448275864
100
AcDbArc
 50
179.9999999999997
 51
263.3741904351752
  0
LINE
  5
31832F1D
330
318324AF
100
AcDbEntity
  8
JISSEN
100
AcDbLine
 10
38.6188908750488
 20
87.092770867009
 30
0.0
 11
40.06365265231806
 21
84.766469009458
 31
0.0
  0
ARC
  5
31832F1E
330
318324AF
100
AcDbEntity
  8
JISSEN
100
AcDbCircle
 10
40.91498448543894
 20
88.66814375535915
 30
0.0
 40
1.002155172413793
100
AcDbArc
 50
215.7083580904089
 51
267.6590794515606
  0
ARC
  5
31832F1F
330
318324AF
100
AcDbEntity
  8
JISSEN
100
AcDbCircle
 10
40.91498448543887
 20
85.29519303909035
 30
0.0
 40
1.002155172413793
100
AcDbArc
 50
211.842561891716
 51
267.6590794515606
  0
ARC
  5
31832F20
330
318324AF
100
AcDbEntity
  8
JISSEN
100
AcDbCircle
 10
40.83311761730397
 20
85.29519303909035
 30
0.0
 40
1.002155172413793
100
AcDbArc
 50
272.340920548439
 51
328.1574381082836
  0
ARC
  5
31832F21
330
318324AF
100
AcDbEntity
  8
JISSEN
100
AcDbCircle
 10
40.83311761730397
 20
88.66814375535915
 30
0.0
 40
1.002155172413793
100
AcDbArc
 50
272.340920548439
 51
324.2916419095909
  0
LINE
  5
31832F22
330
318324AF
100
AcDbEntity
  8
JISSEN
100
AcDbLine
 10
10.80939587895755
 20
120.872537980094
 30
0.0
 11
14.81801656861279
 21
122.3757707387147
 31
0.0
  0
LINE
  5
31832F23
330
318324AF
100
AcDbEntity
  8
JISSEN
100
AcDbLine
 10
10.80939587895755
 20
119.8703828076802
 30
0.0
 11
14.81801656861279
 21
118.3671500490595
 31
0.0
  0
LINE
  5
31832F24
330
318324AF
100
AcDbEntity
  8
JISSEN
100
AcDbLine
 10
10.80939587895755
 20
118.3671500490595
 30
0.0
 11
37.86758553413003
 21
118.3671500490594
 31
0.0
  0
LINE
  5
31832F25
330
318324AF
100
AcDbEntity
  8
JISSEN
100
AcDbLine
 10
10.80939587895773
 20
122.3757707387147
 30
0.0
 11
37.86758553413011
 21
122.3757707387145
 31
0.0
  0
LINE
  5
31832F26
330
318324AF
100
AcDbEntity
  8
JISSEN
100
AcDbLine
 10
6.800775189302328
 20
120.872537980094
 30
0.0
 11
40.87405105137145
 21
120.8725379800939
 31
0.0
  0
LINE
  5
31832F27
330
318324AF
100
AcDbEntity
  8
JISSEN
100
AcDbLine
 10
6.800775189302328
 20
119.8703828076803
 30
0.0
 11
40.87405105137145
 21
119.87038280768
 31
0.0
  0
LINE
  5
31832F28
330
318324AF
100
AcDbEntity
  8
JISSEN
100
AcDbLine
 10
10.80939587895784
 20
118.3671500490595
 30
0.0
 11
10.80939587895784
 21
117.0727265576914
 31
0.0
  0
LINE
  5
31832F29
330
318324AF
100
AcDbEntity
  8
JISSEN
100
AcDbLine
 10
6.800775189302328
 20
119.8703828076803
 30
0.0
 11
6.800775189302328
 21
120.872537980094
 31
0.0
  0
LINE
  5
31832F2A
330
318324AF
100
AcDbEntity
  8
JISSEN
100
AcDbLine
 10
6.800775189302328
 20
120.872537980094
 30
0.0
 11
10.80939587895773
 21
122.3757707387147
 31
0.0
  0
LINE
  5
31832F2B
330
318324AF
100
AcDbEntity
  8
JISSEN
100
AcDbLine
 10
10.80939587895755
 20
118.3671500490595
 30
0.0
 11
6.800775189302328
 21
119.8703828076803
 31
0.0
  0
LINE
  5
31832F2C
330
318324AF
100
AcDbEntity
  8
JISSEN
100
AcDbLine
 10
37.86758553413003
 20
118.3671500490594
 30
0.0
 11
37.86758553412994
 21
91.19072319511639
 31
0.0
  0
LINE
  5
31832F32
330
318324AF
100
AcDbEntity
  8
JISSEN
100
AcDbLine
 10
14.81801656861296
 20
118.3671500490595
 30
0.0
 11
14.81801656861296
 21
117.0727265576914
 31
0.0
  0
LINE
  5
31832F35
330
318324AF
100
AcDbEntity
  8
JISSEN
100
AcDbLine
 10
37.86758553413011
 20
122.3757707387145
 30
0.0
 11
40.87405105137145
 21
120.8725379800939
 31
0.0
  0
LINE
  5
31832F36
330
318324AF
100
AcDbEntity
  8
JISSEN
100
AcDbLine
 10
37.86758553413003
 20
118.3671500490594
 30
0.0
 11
40.87405105137145
 21
119.87038280768
 31
0.0
  0
ARC
  5
31832F4A
330
318324AF
100
AcDbEntity
  8
JISSEN
100
AcDbCircle
 10
124.0167997822942
 20
119.3693052214732
 30
0.0
 40
35.07543103448278
100
AcDbArc
 50
294.7076041099962
 51
0.0
  0
LINE
  5
31832F4B
330
318324AF
100
AcDbEntity
  8
JISSEN
100
AcDbLine
 10
107.9823170236735
 20
118.3671500490594
 30
0.0
 11
92.96615743770017
 21
118.3671500490594
 31
0.0
  0
LINE
  5
31832F4C
330
318324AF
100
AcDbEntity
  8
JISSEN
100
AcDbLine
 10
107.9823170236735
 20
122.3757707387146
 30
0.0
 11
92.94998943746662
 21
122.3757707387145
 31
0.0
  0
ARC
  5
31832F4D
330
318324AF
100
AcDbEntity
  8
JISSEN
100
AcDbCircle
 10
124.0167997822942
 20
119.3693052214732
 30
0.0
 40
31.06681034482761
100
AcDbArc
 50
181.8485716452286
 51
238.9270490278473
  0
ARC
  5
31832F4E
330
318324AF
100
AcDbEntity
  8
JISSEN
100
AcDbCircle
 10
124.0167997822942
 20
119.3693052214732
 30
0.0
 40
35.07543103448278
100
AcDbArc
 50
180.0
 51
245.2923958900037
  0
LINE
  5
31832F4F
330
318324AF
100
AcDbEntity
  8
JISSEN
100
AcDbLine
 10
159.0779113913855
 20
120.8725379800939
 30
0.0
 11
88.95568817320286
 21
120.8725379800939
 31
0.0
  0
LINE
  5
31832F50
330
318324AF
100
AcDbEntity
  8
JISSEN
100
AcDbLine
 10
159.0779113913855
 20
119.8703828076801
 30
0.0
 11
88.95568817320286
 21
119.8703828076801
 31
0.0
  0
ARC
  5
31832F51
330
318324AF
100
AcDbEntity
  8
JISSEN
100
AcDbCircle
 10
40.87405105137139
 20
117.0727265576913
 30
0.0
 40
26.05603448275864
100
AcDbArc
 50
276.6258095648244
 51
0.0
  0
LINE
  5
31832F52
330
318324AF
100
AcDbEntity
  8
JISSEN
100
AcDbLine
 10
70.9387062237854
 20
118.3671500490594
 30
0.0
 11
74.94732691344058
 21
119.8703828076801
 31
0.0
  0
LINE
  5
31832F53
330
318324AF
100
AcDbEntity
  8
JISSEN
100
AcDbLine
 10
74.94732691344058
 20
120.8725379800939
 30
0.0
 11
70.9387062237854
 21
122.3757707387146
 31
0.0
  0
LINE
  5
31832F54
330
318324AF
100
AcDbEntity
  8
JISSEN
100
AcDbLine
 10
43.88051656861302
 20
118.3671500490594
 30
0.0
 11
43.88051656861302
 21
91.19072319511639
 31
0.0
  0
LINE
  5
31832F57
330
318324AF
100
AcDbEntity
  8
JISSEN
100
AcDbLine
 10
70.9387062237854
 20
122.3757707387146
 30
0.0
 11
43.88051656861302
 21
122.3757707387145
 31
0.0
  0
LINE
  5
31832F58
330
318324AF
100
AcDbEntity
  8
JISSEN
100
AcDbLine
 10
70.9387062237854
 20
118.3671500490594
 30
0.0
 11
43.88051656861302
 21
118.3671500490594
 31
0.0
  0
LINE
  5
31832F6E
330
318324AF
100
AcDbEntity
  8
JISSEN
100
AcDbLine
 10
70.9387062237854
 20
119.8703828076801
 30
0.0
 11
66.93008553413022
 21
118.3671500490594
 31
0.0
  0
LINE
  5
31832F6F
330
318324AF
100
AcDbEntity
  8
JISSEN
100
AcDbLine
 10
66.93008553413003
 20
118.3671500490593
 30
0.0
 11
66.93008553413003
 21
117.0727265576913
 31
0.0
  0
LINE
  5
31832F70
330
318324AF
100
AcDbEntity
  8
JISSEN
100
AcDbLine
 10
70.93870622378517
 20
118.3671500490593
 30
0.0
 11
70.93870622378517
 21
117.0727265576913
 31
0.0
  0
LINE
  5
31832F71
330
318324AF
100
AcDbEntity
  8
JISSEN
100
AcDbLine
 10
70.9387062237854
 20
120.8725379800939
 30
0.0
 11
66.93008553413022
 21
122.3757707387146
 31
0.0
  0
LINE
  5
31832F72
330
318324AF
100
AcDbEntity
  8
JISSEN
100
AcDbLine
 10
74.94732691344058
 20
119.8703828076801
 30
0.0
 11
74.94732691344058
 21
120.8725379800939
 31
0.0
  0
LINE
  5
31832F73
330
318324AF
100
AcDbEntity
  8
JISSEN
100
AcDbLine
 10
89.00582277858095
 20
119.8922042663414
 30
0.0
 11
92.96615743770017
 21
118.3671500490593
 31
0.0
  0
LINE
  5
31832F74
330
318324AF
100
AcDbEntity
  8
JISSEN
100
AcDbLine
 10
88.95942620390099
 20
120.8503772801326
 30
0.0
 11
92.94998943746662
 21
122.3757707387146
 31
0.0
  0
LINE
  5
31832F75
330
318324AF
100
AcDbEntity
  8
JISSEN
100
AcDbLine
 10
110.487704954708
 20
87.0080713852775
 30
0.0
 11
111.9909377133287
 21
90.72449161587076
 31
0.0
  0
LINE
  5
31832F76
330
318324AF
100
AcDbEntity
  8
JISSEN
100
AcDbLine
 10
109.4855497822942
 20
87.0080713852775
 30
0.0
 11
107.9823170236735
 21
92.76024534208289
 31
0.0
  0
LINE
  5
31832F77
330
318324AF
100
AcDbEntity
  8
JISSEN
100
AcDbLine
 10
109.4855497822942
 20
87.0080713852775
 30
0.0
 11
109.4855497822942
 21
119.8703828076801
 31
0.0
  0
LINE
  5
31832F78
330
318324AF
100
AcDbEntity
  8
JISSEN
100
AcDbLine
 10
110.487704954708
 20
87.0080713852775
 30
0.0
 11
110.487704954708
 21
119.8703828076801
 31
0.0
  0
LINE
  5
31832F79
330
318324AF
100
AcDbEntity
  8
JISSEN
100
AcDbLine
 10
137.5458946098804
 20
87.0080713852775
 30
0.0
 11
136.0426618512597
 21
90.72449161587076
 31
0.0
  0
LINE
  5
31832F7A
330
318324AF
100
AcDbEntity
  8
JISSEN
100
AcDbLine
 10
138.5480497822942
 20
87.0080713852775
 30
0.0
 11
140.0512825409149
 21
92.76024534208289
 31
0.0
  0
LINE
  5
31832F7B
330
318324AF
100
AcDbEntity
  8
JISSEN
100
AcDbLine
 10
137.5458946098804
 20
87.0080713852775
 30
0.0
 11
137.5458946098804
 21
119.8703828076801
 31
0.0
  0
LINE
  5
31832F7C
330
318324AF
100
AcDbEntity
  8
JISSEN
100
AcDbLine
 10
138.5480497822942
 20
87.0080713852775
 30
0.0
 11
138.5480497822942
 21
119.8703828076801
 31
0.0
  0
ARC
  5
31832F7D
330
318324AF
100
AcDbEntity
  8
JISSEN
100
AcDbCircle
 10
124.0167997822942
 20
119.3693052214732
 30
0.0
 40
35.07543103448278
100
AcDbArc
 50
247.3119088491312
 51
292.6880911508687
  0
LINE
  5
31832F7E
330
318324AF
100
AcDbEntity
  8
JISSEN
100
AcDbLine
 10
110.487704954708
 20
87.0080713852775
 30
0.0
 11
109.4855497822942
 21
87.0080713852775
 31
0.0
  0
LINE
  5
31832F7F
330
318324AF
100
AcDbEntity
  8
JISSEN
100
AcDbLine
 10
137.5458946098804
 20
87.0080713852775
 30
0.0
 11
138.5480497822942
 21
87.0080713852775
 31
0.0
  0
ARC
  5
31832F85
330
318324AF
100
AcDbEntity
  8
JISSEN
100
AcDbCircle
 10
124.0167997822942
 20
119.3693052214732
 30
0.0
 40
31.06681034482761
100
AcDbArc
 50
247.2260275993407
 51
292.7739724006593
  0
LINE
  5
31832F87
330
318324AF
100
AcDbEntity
  8
JISSEN
100
AcDbLine
 10
136.0426618512597
 20
118.3671500490594
 30
0.0
 11
111.9909377133287
 21
118.3671500490594
 31
0.0
  0
LINE
  5
31832F89
330
318324AF
100
AcDbEntity
  8
JISSEN
100
AcDbLine
 10
111.9909377133287
 20
90.72449161587076
 30
0.0
 11
111.9909377133287
 21
118.3671500490594
 31
0.0
  0
LINE
  5
31832F8A
330
318324AF
100
AcDbEntity
  8
JISSEN
100
AcDbLine
 10
107.9823170236735
 20
92.76024534208275
 30
0.0
 11
107.9823170236735
 21
118.3671500490593
 31
0.0
  0
LINE
  5
31832F9B
330
318324AF
100
AcDbEntity
  8
JISSEN
100
AcDbLine
 10
107.9823170236735
 20
118.3671500490594
 30
0.0
 11
109.4855497822942
 21
119.8703828076801
 31
0.0
  0
LINE
  5
31832F9C
330
318324AF
100
AcDbEntity
  8
JISSEN
100
AcDbLine
 10
110.487704954708
 20
119.8703828076801
 30
0.0
 11
111.9909377133287
 21
118.3671500490594
 31
0.0
  0
LINE
  5
31832F9D
330
318324AF
100
AcDbEntity
  8
JISSEN
100
AcDbLine
 10
110.487704954708
 20
120.8725379800939
 30
0.0
 11
111.9909377133287
 21
122.3757707387146
 31
0.0
  0
LINE
  5
31832F9E
330
318324AF
100
AcDbEntity
  8
JISSEN
100
AcDbLine
 10
109.4855497822942
 20
120.8725379800939
 30
0.0
 11
107.9823170236735
 21
122.3757707387146
 31
0.0
  0
ARC
  5
31832FB6
330
318324AF
100
AcDbEntity
  8
JISSEN
100
AcDbCircle
 10
124.0167997822942
 20
119.3693052214732
 30
0.0
 40
31.06681034482761
100
AcDbArc
 50
301.0729509721526
 51
358.1514283547712
  0
LINE
  5
31832FB7
330
318324AF
100
AcDbEntity
  8
JISSEN
100
AcDbLine
 10
140.0512825409149
 20
92.76024534208275
 30
0.0
 11
140.0512825409149
 21
118.3671500490593
 31
0.0
  0
LINE
  5
31832FB8
330
318324AF
100
AcDbEntity
  8
JISSEN
100
AcDbLine
 10
136.0426618512597
 20
90.72449161587076
 30
0.0
 11
136.0426618512597
 21
118.3671500490594
 31
0.0
  0
LINE
  5
31832FBA
330
318324AF
100
AcDbEntity
  8
JISSEN
100
AcDbLine
 10
155.0836101271219
 20
122.3757707387146
 30
0.0
 11
140.0512825409149
 21
122.3757707387146
 31
0.0
  0
LINE
  5
31832FBB
330
318324AF
100
AcDbEntity
  8
JISSEN
100
AcDbLine
 10
155.0674421268883
 20
118.3671500490593
 30
0.0
 11
140.0512825409149
 21
118.3671500490594
 31
0.0
  0
LINE
  5
31832FC7
330
318324AF
100
AcDbEntity
  8
JISSEN
100
AcDbLine
 10
137.5458946098804
 20
119.8703828076801
 30
0.0
 11
136.0426618512597
 21
118.3671500490594
 31
0.0
  0
LINE
  5
31832FC8
330
318324AF
100
AcDbEntity
  8
JISSEN
100
AcDbLine
 10
140.0512825409149
 20
118.3671500490594
 30
0.0
 11
138.5480497822942
 21
119.8703828076801
 31
0.0
  0
LINE
  5
31832FC9
330
318324AF
100
AcDbEntity
  8
JISSEN
100
AcDbLine
 10
138.5480497822942
 20
120.8725379800939
 30
0.0
 11
140.0512825409149
 21
122.3757707387146
 31
0.0
  0
LINE
  5
31832FCA
330
318324AF
100
AcDbEntity
  8
JISSEN
100
AcDbLine
 10
137.5458946098804
 20
120.8725379800939
 30
0.0
 11
136.0426618512597
 21
122.3757707387146
 31
0.0
  0
LINE
  5
31832FCB
330
318324AF
100
AcDbEntity
  8
JISSEN
100
AcDbLine
 10
159.0277767860074
 20
119.8922042663414
 30
0.0
 11
155.0674421268883
 21
118.3671500490593
 31
0.0
  0
LINE
  5
31832FCC
330
318324AF
100
AcDbEntity
  8
JISSEN
100
AcDbLine
 10
159.0741733606875
 20
120.8503772801326
 30
0.0
 11
155.0836101271219
 21
122.3757707387146
 31
0.0
  0
LINE
  5
31832FD0
330
318324AF
100
AcDbEntity
  8
JISSEN
100
AcDbLine
 10
43.88051656861302
 20
141.0158569456111
 30
0.0
 11
41.60668096712533
 21
144.2807528078355
 31
0.0
  0
LINE
  5
31832FD1
330
318324AF
100
AcDbEntity
  8
JISSEN
100
AcDbLine
 10
43.88051656861302
 20
151.8391328076801
 30
0.0
 11
41.60668096712533
 21
155.1040286699045
 31
0.0
  0
LINE
  5
31832FD2
330
318324AF
100
AcDbEntity
  8
JISSEN
100
AcDbLine
 10
27.84603380999228
 20
158.4533569456112
 30
0.0
 11
53.90206829275095
 21
158.4533569456112
 31
0.0
  0
LINE
  5
31832FD3
330
318324AF
100
AcDbEntity
  8
JISSEN
100
AcDbLine
 10
49.89344760309572
 20
156.8407988215269
 30
0.0
 11
40.87405105137139
 21
156.8407988215269
 31
0.0
  0
LINE
  5
31832FD4
330
318324AF
100
AcDbEntity
  8
JISSEN
100
AcDbLine
 10
46.88698208585416
 20
151.8391328076801
 30
0.0
 11
40.87405105137159
 21
151.8391328076801
 31
0.0
  0
LINE
  5
31832FDB
330
318324AF
100
AcDbEntity
  8
JISSEN
100
AcDbLine
 10
31.85465449964743
 20
148.4318052214732
 30
0.0
 11
31.85465449964743
 21
158.4533569456112
 31
0.0
  0
LINE
  5
31832FDC
330
318324AF
100
AcDbEntity
  8
JISSEN
100
AcDbLine
 10
27.84603380999229
 20
150.7654753209752
 30
0.0
 11
27.84603380999229
 21
158.4533569456112
 31
0.0
  0
ARC
  5
31832FDD
330
318324AF
100
AcDbEntity
  8
JISSEN
100
AcDbCircle
 10
40.87405105137174
 20
123.6701942300828
 30
0.0
 40
26.05603448275864
100
AcDbArc
 50
108.1357779242495
 51
179.9999999999997
  0
ARC
  5
31832FDE
330
318324AF
100
AcDbEntity
  8
JISSEN
100
AcDbCircle
 10
40.87405105137174
 20
123.6701942300828
 30
0.0
 40
30.06465517241381
100
AcDbArc
 50
115.6792886194598
 51
179.9999999999997
  0
LINE
  5
3183302C
330
318324AF
100
AcDbEntity
  8
JISSEN
100
AcDbLine
 10
27.84603380999229
 20
150.7654753209752
 30
0.0
 11
30.77333097746873
 21
148.4318052214732
 31
0.0
  0
LINE
  5
3183302D
330
318324AF
100
AcDbEntity
  8
JISSEN
100
AcDbLine
 10
27.84603380999229
 20
151.0696203341609
 30
0.0
 11
27.3383886132633
 21
151.1032713250924
 31
0.0
  0
LINE
  5
3183302E
330
318324AF
100
AcDbEntity
  8
JISSEN
100
AcDbLine
 10
27.84603380999229
 20
152.7410724628525
 30
0.0
 11
27.33838861326353
 21
152.7410724628525
 31
0.0
  0
LINE
  5
3183302F
330
318324AF
100
AcDbEntity
  8
JISSEN
100
AcDbLine
 10
27.3383886132633
 20
151.1032713250924
 30
0.0
 11
27.33838861326353
 21
152.7410724628525
 31
0.0
  0
LINE
  5
31833031
330
318324AF
100
AcDbEntity
  8
JISSEN
100
AcDbLine
 10
37.86758553413017
 20
141.0158569456112
 30
0.0
 11
40.1414211356178
 21
144.2807528078355
 31
0.0
  0
ARC
  5
31833033
330
318324AF
100
AcDbEntity
  8
JISSEN
100
AcDbCircle
 10
40.96378796772405
 20
143.7080157101654
 30
0.0
 40
1.002155172413793
100
AcDbArc
 50
95.13737048418205
 51
145.1447309264219
  0
LINE
  5
31833034
330
318324AF
100
AcDbEntity
  8
JISSEN
100
AcDbLine
 10
34.86112001688883
 20
148.4318052214732
 30
0.0
 11
30.77333097746873
 21
148.4318052214732
 31
0.0
  0
LINE
  5
31833035
330
318324AF
100
AcDbEntity
  8
JISSEN
100
AcDbLine
 10
37.86758553413022
 20
151.8391328076801
 30
0.0
 11
40.14142113561786
 21
155.1040286699045
 31
0.0
  0
LINE
  5
31833036
330
318324AF
100
AcDbEntity
  8
JISSEN
100
AcDbLine
 10
34.86112001688911
 20
151.8391328076801
 30
0.0
 11
40.87405105137159
 21
151.8391328076801
 31
0.0
  0
LINE
  5
31833037
330
318324AF
100
AcDbEntity
  8
JISSEN
100
AcDbLine
 10
31.85465449964743
 20
156.8407988215269
 30
0.0
 11
40.87405105137179
 21
156.8407988215269
 31
0.0
  0
ARC
  5
31833038
330
318324AF
100
AcDbEntity
  8
JISSEN
100
AcDbCircle
 10
40.96378796772405
 20
154.5312915722345
 30
0.0
 40
1.002155172413793
100
AcDbArc
 50
95.13737048418205
 51
145.1447309264219
  0
LINE
  5
31833039
330
318324AF
100
AcDbEntity
  8
JISSEN
100
AcDbLine
 10
34.86112001688883
 20
141.0158569456112
 30
0.0
 11
34.86112001688883
 21
151.8391328076801
 31
0.0
  0
ARC
  5
3183303A
330
318324AF
100
AcDbEntity
  8
JISSEN
100
AcDbCircle
 10
40.78431413501914
 20
143.7080157101654
 30
0.0
 40
1.002155172413793
100
AcDbArc
 50
34.85526907357778
 51
84.86262951581769
  0
ARC
  5
3183303B
330
318324AF
100
AcDbEntity
  8
JISSEN
100
AcDbCircle
 10
40.78431413501914
 20
154.5312915722345
 30
0.0
 40
1.002155172413793
100
AcDbArc
 50
34.85526907357778
 51
84.86262951581769
  0
LINE
  5
31833057
330
318324AF
100
AcDbEntity
  8
JISSEN
100
AcDbLine
 10
120.008179092639
 20
148.4318052214732
 30
0.0
 11
99.8148782681871
 21
148.4318052214732
 31
0.0
  0
LINE
  5
31833059
330
318324AF
100
AcDbEntity
  8
JISSEN
100
AcDbLine
 10
107.9823170236735
 20
148.4318052214732
 30
0.0
 11
99.37979145027084
 21
148.4318052214732
 31
0.0
  0
LINE
  5
3183305A
330
318324AF
100
AcDbEntity
  8
JISSEN
100
AcDbLine
 10
102.9715411616045
 20
158.4533569456112
 30
0.0
 11
91.41217487822737
 21
150.9703280693878
 31
0.0
  0
LINE
  5
3183305B
330
318324AF
100
AcDbEntity
  8
JISSEN
100
AcDbLine
 10
53.90206829275095
 20
150.7654753209751
 30
0.0
 11
53.90206829275095
 21
158.4533569456112
 31
0.0
  0
LINE
  5
3183305C
330
318324AF
100
AcDbEntity
  8
JISSEN
100
AcDbLine
 10
49.89344760309572
 20
148.4318052214732
 30
0.0
 11
49.89344760309572
 21
158.4533569456112
 31
0.0
  0
ARC
  5
3183305D
330
318324AF
100
AcDbEntity
  8
JISSEN
100
AcDbCircle
 10
40.87405105137139
 20
123.6701942300828
 30
0.0
 40
30.06465517241381
100
AcDbArc
 50
0.0
 51
64.32071138053993
  0
ARC
  5
3183305E
330
318324AF
100
AcDbEntity
  8
JISSEN
100
AcDbCircle
 10
40.87405105137139
 20
123.6701942300828
 30
0.0
 40
26.05603448275864
100
AcDbArc
 50
0.0
 51
71.86422207575017
  0
LINE
  5
3183306A
330
318324AF
100
AcDbEntity
  8
JISSEN
100
AcDbLine
 10
46.88698208585435
 20
148.4318052214732
 30
0.0
 11
50.97477112527446
 21
148.4318052214732
 31
0.0
  0
LINE
  5
3183306B
330
318324AF
100
AcDbEntity
  8
JISSEN
100
AcDbLine
 10
53.90206829275095
 20
150.7654753209751
 30
0.0
 11
50.97477112527446
 21
148.4318052214732
 31
0.0
  0
LINE
  5
3183306C
330
318324AF
100
AcDbEntity
  8
JISSEN
100
AcDbLine
 10
46.88698208585435
 20
141.0158569456111
 30
0.0
 11
46.88698208585435
 21
151.8391328076801
 31
0.0
  0
LINE
  5
3183306D
330
318324AF
100
AcDbEntity
  8
JISSEN
100
AcDbLine
 10
46.88698208585435
 20
141.0158569456112
 30
0.0
 11
43.88051656861302
 21
141.0158569456111
 31
0.0
  0
LINE
  5
31833070
330
318324AF
100
AcDbEntity
  8
JISSEN
100
AcDbLine
 10
53.90206829275095
 20
151.0704910470271
 30
0.0
 11
54.39657826843575
 21
151.1032713250924
 31
0.0
  0
LINE
  5
31833072
330
318324AF
100
AcDbEntity
  8
JISSEN
100
AcDbLine
 10
54.39657826843575
 20
152.7410724628526
 30
0.0
 11
53.90206829275095
 21
152.7410724628526
 31
0.0
  0
LINE
  5
31833073
330
318324AF
100
AcDbEntity
  8
JISSEN
100
AcDbLine
 10
54.39657826843575
 20
152.7410724628526
 30
0.0
 11
54.39657826843575
 21
151.1032713250924
 31
0.0
  0
CIRCLE
  5
31833078
330
318324AF
100
AcDbEntity
  8
JISSEN
100
AcDbCircle
 10
94.35300667884609
 20
146.4274948766456
 30
0.0
 40
2.254849137931036
  0
LINE
  5
31833079
330
318324AF
100
AcDbEntity
  8
JISSEN
100
AcDbLine
 10
97.79534604975237
 20
152.189887118025
 30
0.0
 11
100.4805511737463
 21
156.8407988215269
 31
0.0
  0
ARC
  5
3183307A
330
318324AF
100
AcDbEntity
  8
JISSEN
100
AcDbCircle
 10
99.96507564436321
 20
150.9371931525077
 30
0.0
 40
2.505387931034484
100
AcDbArc
 50
150.0000000000001
 51
270.0
  0
ARC
  5
3183307B
330
318324AF
100
AcDbEntity
  8
JISSEN
100
AcDbCircle
 10
94.35300667884609
 20
146.4274948766456
 30
0.0
 40
5.411637931034486
100
AcDbArc
 50
54.94886325255603
 51
22.61986494804061
  0
CIRCLE
  5
3183307C
330
318324AF
100
AcDbEntity
  8
JISSEN
100
AcDbCircle
 10
94.35300667884609
 20
146.4274948766456
 30
0.0
 40
4.008620689655175
  0
LWPOLYLINE
  5
3183307D
330
318324AF
100
AcDbEntity
  8
JISSEN
100
AcDbPolyline
 90
        6
 70
     1
 43
0.0
 10
92.36264139738963
 20
142.9800810835421
 10
90.37227611593326
 20
146.4274948766457
 10
92.36264139738963
 20
149.8749086697491
 10
96.34337196030216
 20
149.8749086697491
 10
98.33373724175855
 20
146.4274948766457
 10
96.34337196030216
 20
142.9800810835421
  0
LINE
  5
31833084
330
318324AF
100
AcDbEntity
  8
JISSEN
100
AcDbLine
 10
108.4833946098804
 20
149.2096952546404
 30
0.0
 11
108.4833946098804
 21
158.4533569456112
 31
0.0
  0
LINE
  5
31833086
330
318324AF
100
AcDbEntity
  8
JISSEN
100
AcDbLine
 10
139.550204954708
 20
149.2096952546404
 30
0.0
 11
139.550204954708
 21
158.4533569456112
 31
0.0
  0
LINE
  5
31833087
330
318324AF
100
AcDbEntity
  8
JISSEN
100
AcDbLine
 10
145.0620584029839
 20
158.4533569456112
 30
0.0
 11
156.6214246863611
 21
150.9703280693878
 31
0.0
  0
LINE
  5
31833089
330
318324AF
100
AcDbEntity
  8
SCALE
 48
0.5
100
AcDbLine
 10
114.9974032305701
 20
153.4425810835422
 30
0.0
 11
133.0361963340183
 21
153.4425810835422
 31
0.0
  0
LINE
  5
3183308A
330
318324AF
100
AcDbEntity
  8
JISSEN
100
AcDbLine
 10
148.0685239202252
 20
148.4318052214732
 30
0.0
 11
128.0254204719494
 21
148.4318052214732
 31
0.0
  0
LINE
  5
3183308B
330
318324AF
100
AcDbEntity
  8
SCALE
 48
0.5
100
AcDbLine
 10
127.0232652995355
 20
150.4361155663008
 30
0.0
 11
133.0361963340183
 21
150.4361155663008
 31
0.0
  0
LINE
  5
31833092
330
318324AF
100
AcDbEntity
  8
JISSEN
100
AcDbLine
 10
136.0426618512597
 20
148.4318052214732
 30
0.0
 11
127.0232652995355
 21
148.4318052214732
 31
0.0
  0
LINE
  5
318330E0
330
318324AF
100
AcDbEntity
  8
JISSEN
100
AcDbLine
 10
121.010334265053
 20
148.4318052214732
 30
0.0
 11
111.9909377133287
 21
148.4318052214732
 31
0.0
  0
LINE
  5
318330E1
330
318324AF
100
AcDbEntity
  8
SCALE
 48
0.5
100
AcDbLine
 10
120.008179092639
 20
150.4361155663008
 30
0.0
 11
114.9974032305701
 21
150.4361155663008
 31
0.0
  0
LINE
  5
318330E2
330
318324AF
100
AcDbEntity
  8
SCALE
 48
0.5
100
AcDbLine
 10
114.9974032305701
 20
150.4361155663008
 30
0.0
 11
121.0103342650529
 21
150.4361155663008
 31
0.0
  0
ARC
  5
318330E8
330
318324AF
100
AcDbEntity
  8
SCALE
 48
0.5
100
AcDbCircle
 10
114.9974032305701
 20
151.9393483249215
 30
0.0
 40
1.503232758620684
100
AcDbArc
 50
90.0
 51
270.0
  0
LINE
  5
318330EC
330
318324AF
100
AcDbEntity
  8
JISSEN
100
AcDbLine
 10
109.4855497822942
 20
150.7654753209751
 30
0.0
 11
110.487704954708
 21
150.7654753209751
 31
0.0
  0
LINE
  5
318330ED
330
318324AF
100
AcDbEntity
  8
JISSEN
100
AcDbLine
 10
107.9823170236735
 20
148.4318052214732
 30
0.0
 11
109.4855497822942
 21
150.7654753209751
 31
0.0
  0
LINE
  5
318330EE
330
318324AF
100
AcDbEntity
  8
JISSEN
100
AcDbLine
 10
110.487704954708
 20
150.7654753209751
 30
0.0
 11
111.9909377133287
 21
148.4318052214732
 31
0.0
  0
LINE
  5
318330F1
330
318324AF
100
AcDbEntity
  8
SCALE
 48
0.5
100
AcDbLine
 10
121.010334265053
 20
148.4318052214732
 30
0.0
 11
121.0103342650529
 21
150.4361155663008
 31
0.0
  0
LINE
  5
318330F2
330
318324AF
100
AcDbEntity
  8
SCALE
 48
0.5
100
AcDbLine
 10
127.0232652995354
 20
148.4318052214732
 30
0.0
 11
127.0232652995355
 21
150.4361155663008
 31
0.0
  0
LINE
  5
31833116
330
318324AF
100
AcDbEntity
  8
JISSEN
100
AcDbLine
 10
148.0685239202252
 20
148.4318052214732
 30
0.0
 11
140.0512825409149
 21
148.4318052214732
 31
0.0
  0
ARC
  5
31833119
330
318324AF
100
AcDbEntity
  8
SCALE
 48
0.5
100
AcDbCircle
 10
133.0361963340183
 20
151.9393483249215
 30
0.0
 40
1.503232758620684
100
AcDbArc
 50
270.0
 51
90.0
  0
LINE
  5
3183311C
330
318324AF
100
AcDbEntity
  8
JISSEN
100
AcDbLine
 10
138.5480497822942
 20
150.7654753209751
 30
0.0
 11
137.5458946098804
 21
150.7654753209751
 31
0.0
  0
LINE
  5
3183311D
330
318324AF
100
AcDbEntity
  8
JISSEN
100
AcDbLine
 10
137.5458946098804
 20
150.7654753209751
 30
0.0
 11
136.0426618512597
 21
148.4318052214732
 31
0.0
  0
LINE
  5
3183311E
330
318324AF
100
AcDbEntity
  8
JISSEN
100
AcDbLine
 10
140.0512825409149
 20
148.4318052214732
 30
0.0
 11
138.5480497822942
 21
150.7654753209751
 31
0.0
  0
CIRCLE
  5
3183311F
330
318324AF
100
AcDbEntity
  8
JISSEN
100
AcDbCircle
 10
153.6805928857424
 20
146.4274948766456
 30
0.0
 40
2.254849137931036
  0
LINE
  5
31833120
330
318324AF
100
AcDbEntity
  8
JISSEN
100
AcDbLine
 10
150.2382535148361
 20
152.189887118025
 30
0.0
 11
147.553048390842
 21
156.8407988215269
 31
0.0
  0
LWPOLYLINE
  5
31833121
330
318324AF
100
AcDbEntity
  8
JISSEN
100
AcDbPolyline
 90
        6
 70
     1
 43
0.0
 10
155.6709581671988
 20
142.9800810835421
 10
157.661323448655
 20
146.4274948766457
 10
155.6709581671988
 20
149.8749086697491
 10
151.690227604286
 20
149.8749086697491
 10
149.6998623228299
 20
146.4274948766457
 10
151.690227604286
 20
142.9800810835421
  0
CIRCLE
  5
31833122
330
318324AF
100
AcDbEntity
  8
JISSEN
100
AcDbCircle
 10
153.6805928857424
 20
146.4274948766456
 30
0.0
 40
4.008620689655175
  0
ARC
  5
31833123
330
318324AF
100
AcDbEntity
  8
JISSEN
100
AcDbCircle
 10
153.6805928857424
 20
146.4274948766456
 30
0.0
 40
5.411637931034486
100
AcDbArc
 50
157.3801350519593
 51
125.0511367474439
  0
ARC
  5
31833124
330
318324AF
100
AcDbEntity
  8
JISSEN
100
AcDbCircle
 10
148.0685239202252
 20
150.9371931525077
 30
0.0
 40
2.505387931034484
100
AcDbArc
 50
270.0
 51
29.99999999999989
  0
LINE
  5
3183312B
330
318324AF
100
AcDbEntity
  8
JISSEN
100
AcDbLine
 10
145.0620584029839
 20
158.4533569456112
 30
0.0
 11
102.9715411616045
 21
158.4533569456112
 31
0.0
  0
TEXT
  5
318333DA
330
318324AF
100
AcDbEntity
  8
TEXT
100
AcDbText
 10
129.4749992799999
 20
267.9374999999999
 30
0.0
 40
3.375
  1
材    質
 72
     4
 11
137.1249992799999
 21
269.6249999999999
 31
0.0
100
AcDbText
  0
LINE
  5
318333DB
330
318324AF
100
AcDbEntity
  8
JISSEN
100
AcDbLine
 10
80.31249927999997
 20
259.4999999999999
 30
0.0
 11
180.9999992799999
 21
259.4999999999999
 31
0.0
  0
LINE
  5
318333DC
330
318324AF
100
AcDbEntity
  8
JISSEN
100
AcDbLine
 10
80.31249927999997
 20
266.2499999999999
 30
0.0
 11
180.9999992799999
 21
266.2499999999999
 31
0.0
  0
TEXT
  5
318333DD
330
318324AF
100
AcDbEntity
  8
TEXT
100
AcDbText
 10
98.76249927999998
 20
267.9374999999999
 30
0.0
 40
3.375
  1
名      称
 72
     4
 11
108.4374992799999
 21
269.6249999999999
 31
0.0
100
AcDbText
  0
TEXT
  5
318333DE
330
318324AF
100
AcDbEntity
  8
TEXT
100
AcDbText
 10
99.39464213714282
 20
261.3749999999999
 30
0.0
 40
3.0
  1
ガード EP
 72
     4
 11
108.4374992799999
 21
262.8749999999999
 31
0.0
100
AcDbText
  0
LINE
  5
318333DF
330
318324AF
100
AcDbEntity
  8
JISSEN
100
AcDbLine
 10
91.56249927999997
 20
272.9999999999999
 30
0.0
 11
91.56249927999997
 21
259.4999999999999
 31
0.0
  0
LINE
  5
318333E0
330
318324AF
100
AcDbEntity
  8
JISSEN
100
AcDbLine
 10
80.31249927999997
 20
259.4999999999999
 30
0.0
 11
80.31249927999997
 21
272.9999999999999
 31
0.0
  0
TEXT
  5
318333E1
330
318324AF
100
AcDbEntity
  8
TEXT
100
AcDbText
 10
82.33749927999998
 20
267.9374999999999
 30
0.0
 40
3.375
  1
番号
 72
     4
 11
85.93749927999997
 21
269.6249999999999
 31
0.0
100
AcDbText
  0
LINE
  5
318333E2
330
318324AF
100
AcDbEntity
  8
JISSEN
100
AcDbLine
 10
125.3124992799999
 20
272.9999999999999
 30
0.0
 11
125.3124992799999
 21
259.4999999999999
 31
0.0
  0
TEXT
  5
318333E3
330
318324AF
100
AcDbEntity
  8
TEXT
100
AcDbText
 10
132.6964278514285
 20
261.3749999999999
 30
0.0
 40
3.0
  1
ZDC
 72
     4
 11
137.1249992799999
 21
262.8749999999999
 31
0.0
100
AcDbText
  0
TEXT
  5
318333E4
330
318324AF
100
AcDbEntity
  8
TEXT
100
AcDbText
 10
163.78749928
 20
267.9374999999999
 30
0.0
 40
3.375
  1
備    考
 72
     4
 11
171.43749928
 21
269.6249999999999
 31
0.0
100
AcDbText
  0
LINE
  5
318333E5
330
318324AF
100
AcDbEntity
  8
JISSEN
100
AcDbLine
 10
161.3124992799999
 20
272.9999999999999
 30
0.0
 11
161.3124992799999
 21
259.4999999999999
 31
0.0
  0
LINE
  5
318333E6
330
318324AF
100
AcDbEntity
  8
JISSEN
100
AcDbLine
 10
148.9374992799999
 20
259.4999999999999
 30
0.0
 11
148.9374992799999
 21
272.9999999999999
 31
0.0
  0
TEXT
  5
318333E7
330
318324AF
100
AcDbEntity
  8
TEXT
100
AcDbText
 10
153.9107135657142
 20
261.3749999999999
 30
0.0
 40
3.0
  1
1
 72
     4
 11
155.1249992799999
 21
262.8749999999999
 31
0.0
100
AcDbText
  0
TEXT
  5
318333E8
330
318324AF
100
AcDbEntity
  8
TEXT
100
AcDbText
 10
151.5249992799999
 20
267.9374999999999
 30
0.0
 40
3.375
  1
個数
 72
     4
 11
155.1249992799999
 21
269.6249999999999
 31
0.0
100
AcDbText
  0
LINE
  5
3183360B
330
318324AF
100
AcDbEntity
  8
JISSEN
100
AcDbLine
 10
272.4999982106995
 20
254.9999996893844
 30
0.0
 11
361.9999982106997
 21
254.9999996893844
 31
0.0
  0
LINE
  5
3183360C
330
318324AF
100
AcDbEntity
  8
JISSEN
100
AcDbLine
 10
272.4999982106995
 20
266.9999996893844
 30
0.0
 11
361.9999982106997
 21
266.9999996893844
 31
0.0
  0
LINE
  5
3183360D
330
318324AF
100
AcDbEntity
  8
JISSEN
100
AcDbLine
 10
272.4999982106995
 20
260.9999996893844
 30
0.0
 11
361.9999982106997
 21
260.9999996893844
 31
0.0
  0
LINE
  5
3183360F
330
318324AF
100
AcDbEntity
  8
JISSEN
100
AcDbLine
 10
258.1012363558186
 20
136.5468831197221
 30
0.0
 11
258.5209725062505
 21
149.9777687313234
 31
0.0
  0
LINE
  5
31833610
330
318324AF
100
AcDbEntity
  8
JISSEN
100
AcDbLine
 10
284.9659674362401
 20
136.5468831197221
 30
0.0
 11
284.546231285808
 21
149.9777687313234
 31
0.0
  0
ARC
  5
31833611
330
318324AF
100
AcDbEntity
  8
NITEN
100
AcDbCircle
 10
286.4999985726997
 20
141.5916499332524
 30
0.0
 40
1.5
100
AcDbArc
 50
270.0
 51
0.0
  0
ARC
  5
31833612
330
318324AF
100
AcDbEntity
  8
NITEN
100
AcDbCircle
 10
256.4999985726996
 20
141.5916499332524
 30
0.0
 40
1.499999999999943
100
AcDbArc
 50
179.9999999999989
 51
270.0
  0
LINE
  5
31833613
330
318324AF
100
AcDbEntity
  8
JISSEN
100
AcDbLine
 10
255.4991191374086
 20
123.1190320620115
 30
0.0
 11
247.4818777580982
 21
123.1190320620115
 31
0.0
  0
ARC
  5
31833614
330
318324AF
100
AcDbEntity
  8
JISSEN
100
AcDbCircle
 10
279.5171675310547
 20
114.5312368830866
 30
0.0
 40
30.06465517241381
100
AcDbArc
 50
180.0
 51
215.5224877918808
  0
LINE
  5
31833615
330
318324AF
100
AcDbEntity
  8
JISSEN
100
AcDbLine
 10
255.4991191374086
 20
93.0543768895977
 30
0.0
 11
240.4829595514352
 21
93.0543768895977
 31
0.0
  0
LINE
  5
31833616
330
318324AF
100
AcDbEntity
  8
JISSEN
100
AcDbLine
 10
255.4991191374086
 20
97.06299757925286
 30
0.0
 11
240.4667915512016
 21
97.06299757925279
 31
0.0
  0
ARC
  5
31833617
330
318324AF
100
AcDbEntity
  8
JISSEN
100
AcDbCircle
 10
271.5336018960292
 20
94.05653206201151
 30
0.0
 40
31.06681034482761
100
AcDbArc
 50
181.8485716452284
 51
238.9270490278476
  0
ARC
  5
31833618
330
318324AF
100
AcDbEntity
  8
JISSEN
100
AcDbCircle
 10
271.5336018960292
 20
94.05653206201151
 30
0.0
 40
35.07543103448278
100
AcDbArc
 50
180.0
 51
245.2923958900036
  0
LINE
  5
31833619
330
318324AF
100
AcDbEntity
  8
JISSEN
100
AcDbLine
 10
306.5947135051205
 20
95.55976482063218
 30
0.0
 11
236.4724902869379
 21
95.55976482063218
 31
0.0
  0
LINE
  5
3183361A
330
318324AF
100
AcDbEntity
  8
JISSEN
100
AcDbLine
 10
306.5947135051205
 20
94.55760964821838
 30
0.0
 11
236.4724902869379
 21
94.55760964821838
 31
0.0
  0
LINE
  5
3183361B
330
318324AF
100
AcDbEntity
  8
JISSEN
100
AcDbLine
 10
250.4883432753396
 20
133.1405837861494
 30
0.0
 11
238.9289769919624
 21
125.657554909926
 31
0.0
  0
LINE
  5
3183361C
330
318324AF
100
AcDbEntity
  8
JISSEN
100
AcDbLine
 10
240.4667915512016
 20
97.06299757925286
 30
0.0
 11
240.4667915512016
 21
115.8881197888748
 31
0.0
  0
LINE
  5
3183361D
330
318324AF
100
AcDbEntity
  8
JISSEN
100
AcDbLine
 10
236.4581708615465
 20
94.05653206201151
 30
0.0
 11
236.4581708615465
 21
121.1147217171838
 31
0.0
  0
LINE
  5
3183361E
330
318324AF
100
AcDbEntity
  8
JISSEN
100
AcDbLine
 10
236.522624892316
 20
94.57943110687967
 30
0.0
 11
240.4829595514352
 21
93.05437688959761
 31
0.0
  0
LINE
  5
3183361F
330
318324AF
100
AcDbEntity
  8
JISSEN
100
AcDbLine
 10
236.476228317636
 20
95.53760412067088
 30
0.0
 11
240.4667915512016
 21
97.06299757925286
 31
0.0
  0
CIRCLE
  5
31833620
330
318324AF
100
AcDbEntity
  8
JISSEN
100
AcDbCircle
 10
241.8698087925811
 20
121.1147217171838
 30
0.0
 40
2.254849137931036
  0
ARC
  5
31833621
330
318324AF
100
AcDbEntity
  8
JISSEN
100
AcDbCircle
 10
241.8698087925811
 20
121.1147217171838
 30
0.0
 40
5.411637931034486
100
AcDbArc
 50
54.94886325255648
 51
22.61986494804123
  0
CIRCLE
  5
31833622
330
318324AF
100
AcDbEntity
  8
JISSEN
100
AcDbCircle
 10
241.8698087925811
 20
121.1147217171838
 30
0.0
 40
4.008620689655175
  0
LWPOLYLINE
  5
31833623
330
318324AF
100
AcDbEntity
  8
JISSEN
100
AcDbPolyline
 90
        6
 70
     1
 43
0.0
 10
239.8794435111247
 20
117.6673079240804
 10
237.8890782296682
 20
121.1147217171839
 10
239.8794435111247
 20
124.5621355102873
 10
243.8601740740372
 20
124.5621355102873
 10
245.8505393554935
 20
121.1147217171839
 10
243.8601740740372
 20
117.6673079240804
  0
LINE
  5
31833624
330
318324AF
100
AcDbEntity
  8
JISSEN
100
AcDbLine
 10
245.3121481634874
 20
126.8771139585632
 30
0.0
 11
247.9973532874814
 21
131.5280256620651
 31
0.0
  0
ARC
  5
31833625
330
318324AF
100
AcDbEntity
  8
JISSEN
100
AcDbCircle
 10
247.4818777580982
 20
125.6244199930459
 30
0.0
 40
2.505387931034484
100
AcDbArc
 50
149.999999999999
 51
270.0
  0
LINE
  5
31833626
330
318324AF
100
AcDbEntity
  8
SUNPOU
100
AcDbLine
 10
299.0406525084051
 20
72.29307579093758
 30
0.0
 11
306.8355169295516
 21
50.013255935283
 31
0.0
  0
LINE
  5
31833627
330
318324AF
100
AcDbEntity
  8
SUNPOU
100
AcDbLine
 10
271.5336018960292
 20
79.45890100544807
 30
0.0
 11
281.8355169295516
 21
50.013255935283
 31
0.0
  0
CIRCLE
  5
31833628
330
318324AF
100
AcDbEntity
  8
SUNPOU
100
AcDbCircle
 10
308.81692367867
 20
44.34986231532789
 30
0.0
 40
6.0
  0
CIRCLE
  5
31833629
330
318324AF
100
AcDbEntity
  8
SUNPOU
100
AcDbCircle
 10
283.81692367867
 20
44.34986231532789
 30
0.0
 40
6.0
  0
TEXT
  5
3183362A
330
318324AF
100
AcDbEntity
  8
SUNPOU
100
AcDbText
 10
281.9954951072414
 20
42.0998623153279
 30
0.0
 40
4.5
  1
1
  7
K
 72
     4
 11
283.81692367867
 21
44.34986231532789
 31
0.0
100
AcDbText
  0
TEXT
  5
3183362B
330
318324AF
100
AcDbEntity
  8
TEXT
100
AcDbText
 10
321.8454747812401
 20
7.849423588069726
 30
0.0
 40
3.0
  1
EPQR ガード取付状態
100
AcDbText
  0
TEXT
  5
3183362C
330
318324AF
100
AcDbEntity
  8
TEXT
100
AcDbText
 10
321.8454747812401
 20
2.849423588069726
 30
0.0
 40
3.0
  1
尺度　1/1
100
AcDbText
  0
TEXT
  5
3183362D
330
318324AF
100
AcDbEntity
  8
SUNPOU
100
AcDbText
 10
306.6740665358128
 20
42.0998623153279
 30
0.0
 40
4.5
  1
2
  7
K
 72
     4
 11
308.81692367867
 21
44.34986231532789
 31
0.0
100
AcDbText
  0
ARC
  5
3183362E
330
318324AF
100
AcDbEntity
  8
JISSEN
100
AcDbCircle
 10
271.5336018960292
 20
94.05653206201151
 30
0.0
 40
35.07543103448278
100
AcDbArc
 50
294.7076041099964
 51
0.0
  0
ARC
  5
3183362F
330
318324AF
100
AcDbEntity
  8
JISSEN
100
AcDbCircle
 10
271.5336018960292
 20
94.05653206201151
 30
0.0
 40
31.06681034482761
100
AcDbArc
 50
301.0729509721523
 51
358.1514283547715
  0
LINE
  5
31833630
330
318324AF
100
AcDbEntity
  8
JISSEN
100
AcDbLine
 10
306.5445788997425
 20
94.57943110687967
 30
0.0
 11
302.5842442406233
 21
93.05437688959761
 31
0.0
  0
LINE
  5
31833631
330
318324AF
100
AcDbEntity
  8
JISSEN
100
AcDbLine
 10
306.5909754744225
 20
95.53760412067088
 30
0.0
 11
302.6004122408569
 21
97.06299757925286
 31
0.0
  0
ARC
  5
31833632
330
318324AF
100
AcDbEntity
  8
JISSEN
100
AcDbCircle
 10
301.1973949994775
 20
121.1147217171838
 30
0.0
 40
5.411637931034486
100
AcDbArc
 50
157.3801350519587
 51
125.0511367474435
  0
ARC
  5
31833633
330
318324AF
100
AcDbEntity
  8
JISSEN
100
AcDbCircle
 10
279.5171675310547
 20
114.5312368830866
 30
0.0
 40
24.05172413793105
100
AcDbArc
 50
213.7021609846638
 51
226.5752706056641
  0
LINE
  5
31833634
330
318324AF
100
AcDbEntity
  8
JISSEN
100
AcDbLine
 10
275.5085468413994
 20
97.97985057456877
 30
0.0
 11
275.5085468413996
 21
97.06299757925286
 31
0.0
  0
LINE
  5
31833635
330
318324AF
100
AcDbEntity
  8
JISSEN
100
AcDbLine
 10
267.4913054620892
 20
97.06299757925286
 30
0.0
 11
267.4913054620892
 21
97.97985057456877
 31
0.0
  0
ARC
  5
31833636
330
318324AF
100
AcDbEntity
  8
JISSEN
100
AcDbCircle
 10
263.482684772434
 20
114.5312368830866
 30
0.0
 40
24.05172413793105
100
AcDbArc
 50
313.4247293943358
 51
326.5880956500692
  0
ARC
  5
31833637
330
318324AF
100
AcDbEntity
  8
JISSEN
100
AcDbCircle
 10
263.482684772434
 20
114.5312368830866
 30
0.0
 40
30.06465517241381
100
AcDbArc
 50
324.4775122081191
 51
0.0
  0
LINE
  5
31833638
330
318324AF
100
AcDbEntity
  8
JISSEN
100
AcDbLine
 10
259.5077398270638
 20
97.06299757925286
 30
0.0
 11
259.5077398270638
 21
123.1190320620115
 31
0.0
  0
LINE
  5
31833639
330
318324AF
100
AcDbEntity
  8
JISSEN
100
AcDbLine
 10
255.4991191374086
 20
97.06299757925286
 30
0.0
 11
255.4991191374086
 21
123.1190320620115
 31
0.0
  0
LINE
  5
3183363A
330
318324AF
100
AcDbEntity
  8
JISSEN
100
AcDbLine
 10
258.004507068443
 20
95.55976482063218
 30
0.0
 11
258.004507068443
 21
125.4527021615134
 31
0.0
  0
LINE
  5
3183363B
330
318324AF
100
AcDbEntity
  8
JISSEN
100
AcDbLine
 10
257.0023518960292
 20
95.55976482063218
 30
0.0
 11
257.0023518960292
 21
125.4527021615134
 31
0.0
  0
LINE
  5
3183363C
330
318324AF
100
AcDbEntity
  8
JISSEN
100
AcDbLine
 10
286.0648518960292
 20
95.55976482063218
 30
0.0
 11
286.0648518960292
 21
125.4527021615134
 31
0.0
  0
LINE
  5
3183363D
330
318324AF
100
AcDbEntity
  8
JISSEN
100
AcDbLine
 10
285.0626967236155
 20
95.55976482063218
 30
0.0
 11
285.0626967236155
 21
125.4527021615134
 31
0.0
  0
LINE
  5
3183363E
330
318324AF
100
AcDbEntity
  8
JISSEN
100
AcDbLine
 10
287.5680846546499
 20
97.06299757925286
 30
0.0
 11
287.5680846546499
 21
123.1190320620115
 31
0.0
  0
LINE
  5
3183363F
330
318324AF
100
AcDbEntity
  8
JISSEN
100
AcDbLine
 10
283.5594639649948
 20
97.06299757925286
 30
0.0
 11
283.5594639649948
 21
123.1190320620115
 31
0.0
  0
LINE
  5
31833640
330
318324AF
100
AcDbEntity
  8
JISSEN
100
AcDbLine
 10
302.6004122408569
 20
97.06299757925286
 30
0.0
 11
302.6004122408569
 21
115.8881197888748
 31
0.0
  0
ARC
  5
31833641
330
318324AF
100
AcDbEntity
  8
JISSEN
100
AcDbCircle
 10
271.5336018960292
 20
94.05653206201151
 30
0.0
 40
35.07543103448278
100
AcDbArc
 50
247.3119088491316
 51
292.6880911508683
  0
LINE
  5
31833642
330
318324AF
100
AcDbEntity
  8
JISSEN
100
AcDbLine
 10
283.5594639649947
 20
80.41200721251122
 30
0.0
 11
259.5077398270638
 21
80.41200721251115
 31
0.0
  0
LINE
  5
31833643
330
318324AF
100
AcDbEntity
  8
JISSEN
100
AcDbLine
 10
283.5594639649948
 20
79.45890100544811
 30
0.0
 11
259.5077398270638
 21
79.45890100544804
 31
0.0
  0
LINE
  5
31833644
330
318324AF
100
AcDbEntity
  8
JISSEN
100
AcDbLine
 10
283.5594639649948
 20
91.71238629497755
 30
0.0
 11
276.7612408069168
 21
83.67321269372691
 31
0.0
  0
ARC
  5
31833645
330
318324AF
100
AcDbEntity
  8
JISSEN
100
AcDbCircle
 10
271.5336018960292
 20
94.05653206201151
 30
0.0
 40
31.06681034482761
100
AcDbArc
 50
247.2260275993408
 51
292.7739724006591
  0
LINE
  5
31833646
330
318324AF
100
AcDbEntity
  8
JISSEN
100
AcDbLine
 10
283.5594639649948
 20
97.06299757925286
 30
0.0
 11
259.5077398270638
 21
97.06299757925286
 31
0.0
  0
LINE
  5
31833647
330
318324AF
100
AcDbEntity
  8
JISSEN
100
AcDbLine
 10
283.5594639649948
 20
93.0543768895977
 30
0.0
 11
259.5077398270638
 21
93.0543768895977
 31
0.0
  0
LINE
  5
31833648
330
318324AF
100
AcDbEntity
  8
JISSEN
100
AcDbLine
 10
274.9544743152032
 20
82.79896724044006
 30
0.0
 11
278.8676332139851
 21
82.79896724044006
 31
0.0
  0
LINE
  5
31833649
330
318324AF
100
AcDbEntity
  8
JISSEN
100
AcDbLine
 10
257.0023518960292
 20
61.69529822581575
 30
0.0
 11
257.0023518960292
 21
94.55760964821838
 31
0.0
  0
LINE
  5
3183364A
330
318324AF
100
AcDbEntity
  8
JISSEN
100
AcDbLine
 10
258.004507068443
 20
61.69529822581575
 30
0.0
 11
258.004507068443
 21
94.55760964821838
 31
0.0
  0
LINE
  5
3183364B
330
318324AF
100
AcDbEntity
  8
JISSEN
100
AcDbLine
 10
259.5077398270638
 20
65.411718456409
 30
0.0
 11
259.5077398270638
 21
93.0543768895977
 31
0.0
  0
LINE
  5
3183364C
330
318324AF
100
AcDbEntity
  8
JISSEN
100
AcDbLine
 10
255.4991191374086
 20
67.447472182621
 30
0.0
 11
255.4991191374086
 21
93.05437688959761
 31
0.0
  0
LINE
  5
3183364D
330
318324AF
100
AcDbEntity
  8
JISSEN
100
AcDbLine
 10
258.004507068443
 20
61.69529822581575
 30
0.0
 11
259.5077398270638
 21
65.411718456409
 31
0.0
  0
LINE
  5
3183364E
330
318324AF
100
AcDbEntity
  8
JISSEN
100
AcDbLine
 10
257.0023518960292
 20
61.69529822581575
 30
0.0
 11
255.4991191374086
 21
67.44747218262114
 31
0.0
  0
LINE
  5
3183364F
330
318324AF
100
AcDbEntity
  8
JISSEN
100
AcDbLine
 10
258.004507068443
 20
61.69529822581575
 30
0.0
 11
257.0023518960292
 21
61.69529822581575
 31
0.0
  0
LINE
  5
31833650
330
318324AF
100
AcDbEntity
  8
JISSEN
100
AcDbLine
 10
259.5077398270638
 20
91.63274043806358
 30
0.0
 11
266.2386114965719
 21
83.67321269372698
 31
0.0
  0
ARC
  5
31833651
330
318324AF
100
AcDbEntity
  8
JISSEN
100
AcDbCircle
 10
262.8286936417381
 20
81.26739778640644
 30
0.0
 40
0.4008620689655177
100
AcDbArc
 50
30.00000000000148
 51
146.3490341753976
  0
ARC
  5
31833652
330
318324AF
100
AcDbEntity
  8
JISSEN
100
AcDbCircle
 10
262.5791682715576
 20
81.79681206802582
 30
0.0
 40
1.002155172413793
100
AcDbArc
 50
47.91894748809162
 51
146.349034175398
  0
LINE
  5
31833653
330
318324AF
100
AcDbEntity
  8
JISSEN
100
AcDbLine
 10
262.5482794126292
 20
80.41200721251115
 30
0.0
 11
264.1995705780734
 21
82.79896724044006
 31
0.0
  0
LINE
  5
31833654
330
318324AF
100
AcDbEntity
  8
JISSEN
100
AcDbLine
 10
255.0397467995834
 20
81.15820296609419
 30
0.0
 11
252.7431924132706
 21
80.41200721251115
 31
0.0
1001
ACAD
1000
ASC_BOUNDS
1002
{
1070
    19
1002
}
  0
LINE
  5
31833655
330
318324AF
100
AcDbEntity
  8
JISSEN
100
AcDbLine
 10
252.7431924132706
 20
80.41200721251115
 30
0.0
 11
253.0528753925472
 21
79.45890100544804
 31
0.0
1001
ACAD
1000
ASC_BOUNDS
1002
{
1070
    19
1002
}
  0
LINE
  5
31833656
330
318324AF
100
AcDbEntity
  8
JISSEN
100
AcDbLine
 10
255.4991191374086
 20
79.45890100544811
 30
0.0
 11
253.0528753925472
 21
79.45890100544804
 31
0.0
  0
LINE
  5
31833657
330
318324AF
100
AcDbEntity
  8
JISSEN
100
AcDbLine
 10
255.4991191374086
 20
80.41200721251115
 30
0.0
 11
252.7431924132706
 21
80.41200721251115
 31
0.0
  0
LINE
  5
31833658
330
318324AF
100
AcDbEntity
  8
JISSEN
100
AcDbLine
 10
255.4991191374086
 20
81.15820296609426
 30
0.0
 11
255.0397467995836
 21
81.15820296609426
 31
0.0
  0
LINE
  5
31833659
330
318324AF
100
AcDbEntity
  8
JISSEN
100
AcDbLine
 10
261.7777188242468
 20
80.41200721251115
 30
0.0
 11
262.4950045677862
 21
81.48952837921257
 31
0.0
  0
LINE
  5
3183365A
330
318324AF
100
AcDbEntity
  8
JISSEN
100
AcDbLine
 10
260.4534363411896
 20
80.41200721251115
 30
0.0
 11
261.7449455866779
 21
82.35213855004117
 31
0.0
  0
LINE
  5
3183365B
330
318324AF
100
AcDbEntity
  8
JISSEN
100
AcDbLine
 10
260.3199049279643
 20
82.79896724044006
 30
0.0
 11
262.5791682715576
 21
82.79896724044006
 31
0.0
  0
ARC
  5
3183365C
330
318324AF
100
AcDbEntity
  8
JISSEN
100
AcDbCircle
 10
259.7739147260635
 20
81.44054590423321
 30
0.0
 40
1.358421336206897
100
AcDbArc
 50
70.26879749382185
 51
101.2998914339685
  0
LINE
  5
3183365D
330
318324AF
100
AcDbEntity
  8
JISSEN
100
AcDbLine
 10
259.5077398270638
 20
82.05762248443873
 30
0.0
 11
260.3199049279643
 21
82.79896724044006
 31
0.0
  0
LINE
  5
3183365E
330
318324AF
100
AcDbEntity
  8
JISSEN
100
AcDbLine
 10
255.4991191374086
 20
93.0543768895977
 30
0.0
 11
257.0023518960292
 21
94.55760964821838
 31
0.0
  0
LINE
  5
3183365F
330
318324AF
100
AcDbEntity
  8
JISSEN
100
AcDbLine
 10
257.0023518960292
 20
95.55976482063218
 30
0.0
 11
255.4991191374086
 21
97.06299757925286
 31
0.0
  0
LINE
  5
31833660
330
318324AF
100
AcDbEntity
  8
JISSEN
100
AcDbLine
 10
258.004507068443
 20
94.55760964821838
 30
0.0
 11
259.5077398270638
 21
93.0543768895977
 31
0.0
  0
LINE
  5
31833661
330
318324AF
100
AcDbEntity
  8
JISSEN
100
AcDbLine
 10
258.004507068443
 20
95.55976482063218
 30
0.0
 11
259.5077398270638
 21
97.06299757925286
 31
0.0
  0
ARC
  5
31833662
330
318324AF
100
AcDbEntity
  8
JISSEN
100
AcDbCircle
 10
254.7138270138133
 20
88.47520240032805
 30
0.0
 40
12.52693965517241
100
AcDbArc
 50
343.7397952916878
 51
16.26020470831218
  0
ARC
  5
31833663
330
318324AF
100
AcDbEntity
  8
JISSEN
100
AcDbCircle
 10
288.2860252896753
 20
88.47520240032805
 30
0.0
 40
12.52693965517241
100
AcDbArc
 50
163.7397952916878
 51
196.2602047083121
  0
LINE
  5
31833664
330
318324AF
100
AcDbEntity
  8
JISSEN
100
AcDbLine
 10
269.2743385524357
 20
82.79896724044006
 30
0.0
 11
273.7928652396228
 21
82.79896724044006
 31
0.0
  0
LINE
  5
31833665
330
318324AF
100
AcDbEntity
  8
JISSEN
100
AcDbLine
 10
268.6721946058431
 20
80.41200721251115
 30
0.0
 11
268.4103795568489
 21
81.52041564101173
 31
0.0
  0
LINE
  5
31833666
330
318324AF
100
AcDbEntity
  8
JISSEN
100
AcDbLine
 10
267.9015954363508
 20
80.41200721251115
 30
0.0
 11
268.2164181768853
 21
81.52466243171087
 31
0.0
  0
LINE
  5
31833667
330
318324AF
100
AcDbEntity
  8
JISSEN
100
AcDbLine
 10
269.0424922946418
 20
80.5414031991784
 30
0.0
 11
268.6003874475066
 21
82.41307841696229
 31
0.0
  0
LINE
  5
31833668
330
318324AF
100
AcDbEntity
  8
JISSEN
100
AcDbLine
 10
269.0292036460215
 20
80.41200721251115
 30
0.0
 11
269.2743385524357
 21
82.79896724044006
 31
0.0
  0
LINE
  5
31833669
330
318324AF
100
AcDbEntity
  8
JISSEN
100
AcDbLine
 10
267.0583748535652
 20
80.41200721251115
 30
0.0
 11
267.6305805476888
 21
82.43431237045802
 31
0.0
  0
LINE
  5
3183366A
330
318324AF
100
AcDbEntity
  8
JISSEN
100
AcDbLine
 10
268.1127294768554
 20
82.79896724044006
 30
0.0
 11
264.1995705780734
 21
82.79896724044006
 31
0.0
  0
LINE
  5
3183366B
330
318324AF
100
AcDbEntity
  8
JISSEN
100
AcDbLine
 10
263.1758503768759
 20
81.46782882088922
 30
0.0
 11
263.2226348888992
 21
81.38679566905734
 31
0.0
  0
LINE
  5
3183366C
330
318324AF
100
AcDbEntity
  8
JISSEN
100
AcDbLine
 10
263.250793841445
 20
82.54060913945684
 30
0.0
 11
263.6010967942148
 21
81.9338666272181
 31
0.0
  0
LINE
  5
3183366D
330
318324AF
100
AcDbEntity
  8
JISSEN
100
AcDbLine
 10
266.2386114965719
 20
82.7541813292694
 30
0.0
 11
266.2386114965719
 21
83.81109405778273
 31
0.0
  0
ARC
  5
3183366E
330
318324AF
100
AcDbEntity
  8
JISSEN
100
AcDbCircle
 10
268.3128479627187
 20
81.49737788846573
 30
0.0
 40
0.1002155172413794
100
AcDbArc
 50
13.29012998990861
 51
164.201284926493
  0
ARC
  5
3183366F
330
318324AF
100
AcDbEntity
  8
JISSEN
100
AcDbCircle
 10
268.1127294768554
 20
82.29788965423225
 30
0.0
 40
0.5010775862068969
100
AcDbArc
 50
13.29012998990298
 51
164.2012849264971
  0
LINE
  5
31833670
330
318324AF
100
AcDbEntity
  8
JISSEN
100
AcDbLine
 10
274.3950091862155
 20
80.41200721251122
 30
0.0
 11
274.6568242352096
 21
81.52041564101173
 31
0.0
  0
LINE
  5
31833671
330
318324AF
100
AcDbEntity
  8
JISSEN
100
AcDbLine
 10
275.165608355708
 20
80.41200721251122
 30
0.0
 11
274.8507856151733
 21
81.52466243171087
 31
0.0
  0
LINE
  5
31833672
330
318324AF
100
AcDbEntity
  8
JISSEN
100
AcDbLine
 10
276.0088289384933
 20
80.41200721251122
 30
0.0
 11
275.4366232443698
 21
82.43431237045802
 31
0.0
  0
LINE
  5
31833673
330
318324AF
100
AcDbEntity
  8
JISSEN
100
AcDbLine
 10
273.7928652396228
 20
82.79896724044006
 30
0.0
 11
274.0380001460375
 21
80.41200721251122
 31
0.0
  0
LINE
  5
31833674
330
318324AF
100
AcDbEntity
  8
JISSEN
100
AcDbLine
 10
274.0247114974171
 20
80.54140319917953
 30
0.0
 11
274.466816344552
 21
82.41307841696229
 31
0.0
  0
INSERT
  5
31833675
330
318324AF
100
AcDbEntity
  8
SUNPOU
100
AcDbBlockReference
  2
ARROW
 10
271.5336018960293
 20
79.45890100544755
 30
0.0
 41
-1.500000000000006
 42
1.5
 43
1.5
 50
289.2830067619238
  0
ARC
  5
31833676
330
318324AF
100
AcDbEntity
  8
JISSEN
100
AcDbCircle
 10
274.7543558293399
 20
81.49737788846573
 30
0.0
 40
0.1002155172413794
100
AcDbArc
 50
15.79871507350692
 51
166.7098700100913
  0
ARC
  5
31833677
330
318324AF
100
AcDbEntity
  8
JISSEN
100
AcDbCircle
 10
274.9544743152032
 20
82.29788965423225
 30
0.0
 40
0.5010775862068969
100
AcDbArc
 50
15.79871507350286
 51
166.709870010097
  0
LINE
  5
31833678
330
318324AF
100
AcDbEntity
  8
JISSEN
100
AcDbLine
 10
276.7612408069168
 20
82.7541813292694
 30
0.0
 11
276.7612408069168
 21
83.81109405778273
 31
0.0
  0
LINE
  5
31833679
330
318324AF
100
AcDbEntity
  8
JISSEN
100
AcDbLine
 10
285.0626967236155
 20
61.69529822581575
 30
0.0
 11
285.0626967236155
 21
94.55760964821838
 31
0.0
  0
LINE
  5
3183367A
330
318324AF
100
AcDbEntity
  8
JISSEN
100
AcDbLine
 10
286.0648518960292
 20
61.69529822581575
 30
0.0
 11
286.0648518960292
 21
94.55760964821838
 31
0.0
  0
LINE
  5
3183367B
330
318324AF
100
AcDbEntity
  8
JISSEN
100
AcDbLine
 10
287.5680846546499
 20
67.447472182621
 30
0.0
 11
287.5680846546499
 21
93.05437688959761
 31
0.0
  0
LINE
  5
3183367C
330
318324AF
100
AcDbEntity
  8
JISSEN
100
AcDbLine
 10
283.5594639649948
 20
65.411718456409
 30
0.0
 11
283.5594639649948
 21
93.0543768895977
 31
0.0
  0
LINE
  5
3183367D
330
318324AF
100
AcDbEntity
  8
JISSEN
100
AcDbLine
 10
285.0626967236155
 20
61.69529822581575
 30
0.0
 11
283.5594639649948
 21
65.411718456409
 31
0.0
  0
LINE
  5
3183367E
330
318324AF
100
AcDbEntity
  8
JISSEN
100
AcDbLine
 10
286.0648518960292
 20
61.69529822581575
 30
0.0
 11
287.5680846546499
 21
67.44747218262114
 31
0.0
  0
LINE
  5
3183367F
330
318324AF
100
AcDbEntity
  8
JISSEN
100
AcDbLine
 10
285.0626967236155
 20
61.69529822581575
 30
0.0
 11
286.0648518960292
 21
61.69529822581575
 31
0.0
  0
INSERT
  5
31833680
330
318324AF
100
AcDbEntity
  8
SUNPOU
100
AcDbBlockReference
  2
ARROW
 10
299.0406525084052
 20
72.29307579093705
 30
0.0
 41
-1.500000000000006
 42
1.5
 43
1.5
 50
289.2830067619238
  0
LINE
  5
31833681
330
318324AF
100
AcDbEntity
  8
JISSEN
100
AcDbLine
 10
302.6004122408569
 20
97.06299757925286
 30
0.0
 11
287.5680846546499
 21
97.06299757925286
 31
0.0
  0
LINE
  5
31833682
330
318324AF
100
AcDbEntity
  8
JISSEN
100
AcDbLine
 10
302.5842442406233
 20
93.05437688959761
 30
0.0
 11
287.5680846546499
 21
93.0543768895977
 31
0.0
  0
LINE
  5
31833683
330
318324AF
100
AcDbEntity
  8
JISSEN
100
AcDbLine
 10
280.5189243794293
 20
80.41200721251122
 30
0.0
 11
278.8676332139851
 21
82.79896724044006
 31
0.0
  0
LINE
  5
31833684
330
318324AF
100
AcDbEntity
  8
JISSEN
100
AcDbLine
 10
281.2894849678116
 20
80.41200721251122
 30
0.0
 11
280.5721992242723
 21
81.48952837921257
 31
0.0
  0
LINE
  5
31833685
330
318324AF
100
AcDbEntity
  8
JISSEN
100
AcDbLine
 10
282.6137674508688
 20
80.41200721251122
 30
0.0
 11
281.3222582053806
 21
82.35213855004117
 31
0.0
  0
ARC
  5
31833686
330
318324AF
100
AcDbEntity
  8
JISSEN
100
AcDbCircle
 10
280.4880355205008
 20
81.79681206802582
 30
0.0
 40
1.002155172413793
100
AcDbArc
 50
33.65096582460191
 51
132.0810525119083
  0
LINE
  5
31833687
330
318324AF
100
AcDbEntity
  8
JISSEN
100
AcDbLine
 10
282.7472988640943
 20
82.79896724044006
 30
0.0
 11
280.4880355205008
 21
82.79896724044006
 31
0.0
  0
LINE
  5
31833688
330
318324AF
100
AcDbEntity
  8
JISSEN
100
AcDbLine
 10
279.8164099506135
 20
82.54060913945684
 30
0.0
 11
279.4661069978437
 21
81.9338666272181
 31
0.0
  0
ARC
  5
31833689
330
318324AF
100
AcDbEntity
  8
JISSEN
100
AcDbCircle
 10
280.2385101503205
 20
81.26739778640644
 30
0.0
 40
0.4008620689655177
100
AcDbArc
 50
33.65096582460239
 51
149.9999999999985
  0
LINE
  5
3183368A
330
318324AF
100
AcDbEntity
  8
JISSEN
100
AcDbLine
 10
279.8913534151827
 20
81.46782882088922
 30
0.0
 11
279.8445689031592
 21
81.38679566905734
 31
0.0
  0
ARC
  5
3183368B
330
318324AF
100
AcDbEntity
  8
JISSEN
100
AcDbCircle
 10
283.2932890659951
 20
81.44054590423321
 30
0.0
 40
1.358421336206897
100
AcDbArc
 50
78.70010856603477
 51
109.7312025061781
  0
LINE
  5
3183368C
330
318324AF
100
AcDbEntity
  8
JISSEN
100
AcDbLine
 10
283.5594639649948
 20
82.05762248443873
 30
0.0
 11
282.7472988640943
 21
82.79896724044006
 31
0.0
  0
LINE
  5
3183368D
330
318324AF
100
AcDbEntity
  8
JISSEN
100
AcDbLine
 10
288.0274569924752
 20
81.15820296609426
 30
0.0
 11
290.3240113787878
 21
80.41200721251122
 31
0.0
1001
ACAD
1000
ASC_BOUNDS
1002
{
1070
    19
1002
}
  0
LINE
  5
3183368E
330
318324AF
100
AcDbEntity
  8
JISSEN
100
AcDbLine
 10
290.0143283995113
 20
79.45890100544811
 30
0.0
 11
287.5680846546499
 21
79.45890100544811
 31
0.0
  0
LINE
  5
3183368F
330
318324AF
100
AcDbEntity
  8
JISSEN
100
AcDbLine
 10
290.3240113787878
 20
80.41200721251122
 30
0.0
 11
287.5680846546499
 21
80.41200721251122
 31
0.0
  0
LINE
  5
31833690
330
318324AF
100
AcDbEntity
  8
JISSEN
100
AcDbLine
 10
290.3240113787878
 20
80.41200721251122
 30
0.0
 11
290.0143283995113
 21
79.45890100544811
 31
0.0
1001
ACAD
1000
ASC_BOUNDS
1002
{
1070
    19
1002
}
  0
LINE
  5
31833691
330
318324AF
100
AcDbEntity
  8
JISSEN
100
AcDbLine
 10
287.5680846546499
 20
81.15820296609433
 30
0.0
 11
288.0274569924752
 21
81.15820296609426
 31
0.0
1001
ACAD
1000
ASC_BOUNDS
1002
{
1070
    19
1002
}
  0
LINE
  5
31833692
330
318324AF
100
AcDbEntity
  8
JISSEN
100
AcDbLine
 10
285.0626967236155
 20
94.55760964821838
 30
0.0
 11
283.5594639649948
 21
93.0543768895977
 31
0.0
  0
LINE
  5
31833693
330
318324AF
100
AcDbEntity
  8
JISSEN
100
AcDbLine
 10
285.0626967236155
 20
95.55976482063218
 30
0.0
 11
283.5594639649948
 21
97.06299757925286
 31
0.0
  0
LINE
  5
31833694
330
318324AF
100
AcDbEntity
  8
JISSEN
100
AcDbLine
 10
287.5680846546499
 20
93.0543768895977
 30
0.0
 11
286.0648518960292
 21
94.55760964821838
 31
0.0
  0
LINE
  5
31833695
330
318324AF
100
AcDbEntity
  8
JISSEN
100
AcDbLine
 10
286.0648518960292
 20
95.55976482063218
 30
0.0
 11
287.5680846546499
 21
97.06299757925286
 31
0.0
  0
LINE
  5
31833696
330
318324AF
100
AcDbEntity
  8
JISSEN
100
AcDbLine
 10
283.5594639649948
 20
123.1190320620115
 30
0.0
 11
259.5077398270638
 21
123.1190320620114
 31
0.0
  0
ARC
  5
31833697
330
318324AF
100
AcDbEntity
  8
JISSEN
100
AcDbCircle
 10
277.0117796000202
 20
98.55792509912509
 30
0.0
 40
1.002155172413793
100
AcDbArc
 50
275.0532481512539
 51
0.0
  0
ARC
  5
31833698
330
318324AF
100
AcDbEntity
  8
JISSEN
100
AcDbCircle
 10
265.4869951172614
 20
106.8523095961309
 30
0.0
 40
13.52909482758621
100
AcDbArc
 50
317.7945535962691
 51
0.0
  0
LINE
  5
31833699
330
318324AF
100
AcDbEntity
  8
JISSEN
100
AcDbLine
 10
263.015282930512
 20
120.8854907009493
 30
0.0
 11
280.0519208615465
 21
120.8854907009492
 31
0.0
  0
ARC
  5
3183369A
330
318324AF
100
AcDbEntity
  8
JISSEN
100
AcDbCircle
 10
265.4869951172614
 20
111.8630854581999
 30
0.0
 40
13.52909482758621
100
AcDbArc
 50
0.0
 51
41.82741212371039
  0
LINE
  5
3183369B
330
318324AF
100
AcDbEntity
  8
JISSEN
100
AcDbLine
 10
284.9659674362401
 20
136.5468831197221
 30
0.0
 11
258.1012363558186
 21
136.5468831197221
 31
0.0
  0
LINE
  5
3183369C
330
318324AF
100
AcDbEntity
  8
JISSEN
100
AcDbLine
 10
260.0088174132707
 20
135.4455406827011
 30
0.0
 11
283.0583863787879
 21
135.4455406827011
 31
0.0
  0
LINE
  5
3183369D
330
318324AF
100
AcDbEntity
  8
JISSEN
100
AcDbLine
 10
273.8800446862271
 20
133.4412303378735
 30
0.0
 11
283.0583863787879
 21
133.4412303378735
 31
0.0
  0
LINE
  5
3183369E
330
318324AF
100
AcDbEntity
  8
JISSEN
100
AcDbLine
 10
292.5788605167189
 20
133.1405837861494
 30
0.0
 11
250.4883432753396
 21
133.1405837861494
 31
0.0
  0
LINE
  5
3183369F
330
318324AF
100
AcDbEntity
  8
NITEN
100
AcDbLine
 10
256.4999985726996
 20
140.0916499332524
 30
0.0
 11
286.4999985726997
 21
140.0916499332524
 31
0.0
  0
ARC
  5
318336A0
330
318324AF
100
AcDbEntity
  8
JISSEN
100
AcDbCircle
 10
266.4423077838695
 20
115.8414546017083
 30
0.0
 40
17.03663793103449
100
AcDbArc
 50
154.7117681535793
 51
184.7012200115903
  0
ARC
  5
318336A1
330
318324AF
100
AcDbEntity
  8
JISSEN
100
AcDbCircle
 10
266.4891502896754
 20
114.5312368830866
 30
0.0
 40
15.0323275862069
100
AcDbArc
 50
145.1598775111247
 51
180.0
  0
ARC
  5
318336A2
330
318324AF
100
AcDbEntity
  8
JISSEN
100
AcDbCircle
 10
277.512857186227
 20
111.8630854581999
 30
0.0
 40
13.52909482758621
100
AcDbArc
 50
138.1725878762896
 51
180.0
  0
ARC
  5
318336A3
330
318324AF
100
AcDbEntity
  8
JISSEN
100
AcDbCircle
 10
264.2755968703926
 20
115.493294367633
 30
0.0
 40
10.82880430439393
100
AcDbArc
 50
144.1423893548383
 51
169.5833810006728
  0
LINE
  5
318336A4
330
318324AF
100
AcDbEntity
  8
JISSEN
100
AcDbLine
 10
264.7026313898911
 20
102.50092798787
 30
0.0
 11
261.0646404197996
 21
102.1826450199773
 31
0.0
  0
ARC
  5
318336A5
330
318324AF
100
AcDbEntity
  8
JISSEN
100
AcDbCircle
 10
263.9837623586408
 20
106.6445596735797
 30
0.0
 40
4.008620689655175
100
AcDbArc
 50
94.99999999999976
 51
180.0
  0
ARC
  5
318336A6
330
318324AF
100
AcDbEntity
  8
JISSEN
100
AcDbCircle
 10
279.5171675310547
 20
114.5312368830866
 30
0.0
 40
26.05603448275864
100
AcDbArc
 50
173.5656684449006
 51
202.8116279939227
  0
ARC
  5
318336A7
330
318324AF
100
AcDbEntity
  8
JISSEN
100
AcDbCircle
 10
279.5171675310547
 20
114.5312368830866
 30
0.0
 40
28.06034482758622
100
AcDbArc
 50
180.0
 51
202.0243128370419
  0
ARC
  5
318336A8
330
318324AF
100
AcDbEntity
  8
JISSEN
100
AcDbCircle
 10
260.9772968413995
 20
103.1809866894011
 30
0.0
 40
1.002155172413793
100
AcDbArc
 50
180.0
 51
274.9999999999997
  0
LINE
  5
318336A9
330
318324AF
100
AcDbEntity
  8
JISSEN
100
AcDbLine
 10
259.9751416689857
 20
106.6598719533872
 30
0.0
 11
259.9751416689857
 21
106.6598719533872
 31
0.0
  0
LINE
  5
318336AA
330
318324AF
100
AcDbEntity
  8
JISSEN
100
AcDbLine
 10
259.9751416689857
 20
103.1809866894011
 30
0.0
 11
259.9751416689857
 21
106.6445596735797
 31
0.0
  0
LINE
  5
318336AB
330
318324AF
100
AcDbEntity
  8
JISSEN
100
AcDbLine
 10
263.9837623586407
 20
106.8523095961309
 30
0.0
 11
263.9837623586407
 21
111.8630854581999
 31
0.0
  0
LINE
  5
318336AC
330
318324AF
100
AcDbEntity
  8
JISSEN
100
AcDbLine
 10
274.0053140827789
 20
106.9918787237729
 30
0.0
 11
274.0053140827789
 21
110.6684926430424
 31
0.0
  0
LINE
  5
318336AD
330
318324AF
100
AcDbEntity
  8
JISSEN
100
AcDbLine
 10
268.9945382207098
 20
106.9918787237729
 30
0.0
 11
268.9945382207098
 21
110.6684926430424
 31
0.0
  0
LINE
  5
318336AE
330
318324AF
100
AcDbEntity
  8
JISSEN
100
AcDbLine
 10
266.9902278758821
 20
108.1050035616481
 30
0.0
 11
266.9902278758821
 21
111.8630854581999
 31
0.0
  0
LINE
  5
318336AF
330
318324AF
100
AcDbEntity
  8
JISSEN
100
AcDbLine
 10
276.0096244276063
 20
108.1050035616481
 30
0.0
 11
276.0096244276063
 21
111.8630854581999
 31
0.0
  0
LINE
  5
318336B0
330
318324AF
100
AcDbEntity
  8
JISSEN
100
AcDbLine
 10
274.0053140827789
 20
101.3871781607756
 30
0.0
 11
273.04388494856
 21
114.8471860398399
 31
0.0
  0
LINE
  5
318336B1
330
318324AF
100
AcDbEntity
  8
JISSEN
100
AcDbLine
 10
269.9559673549287
 20
114.8471860398399
 30
0.0
 11
268.9945382207098
 21
101.3871781607756
 31
0.0
  0
ARC
  5
318336B2
330
318324AF
100
AcDbEntity
  8
JISSEN
100
AcDbCircle
 10
277.512857186227
 20
106.8523095961309
 30
0.0
 40
13.52909482758621
100
AcDbArc
 50
180.0
 51
222.2054464037322
  0
LINE
  5
318336B3
330
318324AF
100
AcDbEntity
  8
JISSEN
100
AcDbLine
 10
268.8692688241581
 20
106.6017708030275
 30
0.0
 11
268.8692688241581
 21
102.0920725271654
 31
0.0
  0
LINE
  5
318336B4
330
318324AF
100
AcDbEntity
  8
JISSEN
100
AcDbLine
 10
267.4913054620891
 20
97.41893595013724
 30
0.0
 11
265.8998013485399
 21
97.55966503406439
 31
0.0
  0
LINE
  5
318336B5
330
318324AF
100
AcDbEntity
  8
JISSEN
100
AcDbLine
 10
266.4182642266804
 20
99.10980264322484
 30
0.0
 11
267.8013030062212
 21
99.10980264322484
 31
0.0
  0
ARC
  5
318336B6
330
318324AF
100
AcDbEntity
  8
JISSEN
100
AcDbCircle
 10
265.9880727034684
 20
98.55792509912509
 30
0.0
 40
1.002155172413793
100
AcDbArc
 50
180.0
 51
264.946751848746
  0
LINE
  5
318336B7
330
318324AF
100
AcDbEntity
  8
JISSEN
100
AcDbLine
 10
264.9859175310547
 20
98.02293335277882
 30
0.0
 11
264.8355942551926
 21
98.02293335277882
 31
0.0
  0
LINE
  5
318336B8
330
318324AF
100
AcDbEntity
  8
JISSEN
100
AcDbLine
 10
264.9859175310547
 20
100.9976952292493
 30
0.0
 11
264.8355942551926
 21
100.9976952292493
 31
0.0
  0
LINE
  5
318336B9
330
318324AF
100
AcDbEntity
  8
JISSEN
100
AcDbLine
 10
264.8355942551926
 20
100.9976952292493
 30
0.0
 11
264.8355942551926
 21
98.02293335277882
 31
0.0
  0
LINE
  5
318336BA
330
318324AF
100
AcDbEntity
  8
JISSEN
100
AcDbLine
 10
264.9859175310547
 20
101.7423008163448
 30
0.0
 11
264.9859175310547
 21
98.02293335277882
 31
0.0
  0
ARC
  5
318336BB
330
318324AF
100
AcDbEntity
  8
JISSEN
100
AcDbCircle
 10
267.2610457417671
 20
98.40981022622834
 30
0.0
 40
0.4877343958118496
100
AcDbArc
 50
298.1707402297526
 51
355.8150838748825
  0
ARC
  5
318336BC
330
318324AF
100
AcDbEntity
  8
JISSEN
100
AcDbCircle
 10
267.4913054620892
 20
101.3871781607756
 30
0.0
 40
1.50323275862069
100
AcDbArc
 50
284.2500326978035
 51
0.0
  0
LINE
  5
318336BD
330
318324AF
100
AcDbEntity
  8
JISSEN
100
AcDbLine
 10
267.7474797028659
 20
98.37421749736739
 30
0.0
 11
267.8613319872881
 21
99.93019871780495
 31
0.0
  0
LINE
  5
318336BE
330
318324AF
100
AcDbEntity
  8
JISSEN
100
AcDbLine
 10
268.4934606345028
 20
106.6017708030275
 30
0.0
 11
268.8692688241581
 21
106.6017708030275
 31
0.0
  0
ARC
  5
318336BF
330
318324AF
100
AcDbEntity
  8
JISSEN
100
AcDbCircle
 10
271.4999261517442
 20
126.2194203255485
 30
0.0
 40
19.39008315435972
100
AcDbArc
 50
262.5760704103743
 51
263.7573957713725
  0
ARC
  5
318336C0
330
318324AF
100
AcDbEntity
  8
JISSEN
100
AcDbCircle
 10
271.4999261517443
 20
87.76433712199736
 30
0.0
 40
19.39008315435972
100
AcDbArc
 50
96.22224717316003
 51
97.42392958962561
  0
ARC
  5
318336C1
330
318324AF
100
AcDbEntity
  8
JISSEN
100
AcDbCircle
 10
268.8692688241581
 20
106.9024173547517
 30
0.0
 40
1.202586206896552
100
AcDbArc
 50
270.0
 51
291.4232972478953
  0
LWPOLYLINE
  5
318336C2
330
318324AF
100
AcDbEntity
  8
JISSEN
100
AcDbPolyline
 90
        2
 70
     0
 43
0.0
 10
269.3405768141144
 20
106.2317184684409
 42
-0.0047313531205596
 10
268.8692688241579
 20
106.262404951879
 42
-0.0263064786181953
  0
ARC
  5
318336C3
330
318324AF
100
AcDbEntity
  8
JISSEN
100
AcDbCircle
 10
268.4934606345028
 20
108.1050035616481
 30
0.0
 40
1.50323275862069
100
AcDbArc
 50
180.0
 51
270.0
  0
LINE
  5
318336C4
330
318324AF
100
AcDbEntity
  8
JISSEN
100
AcDbLine
 10
274.1305834793304
 20
106.6017708030275
 30
0.0
 11
274.1305834793304
 21
102.0920725271654
 31
0.0
  0
LINE
  5
318336C5
330
318324AF
100
AcDbEntity
  8
JISSEN
100
AcDbLine
 10
275.5085468413994
 20
97.41893595013724
 30
0.0
 11
277.1000509549486
 21
97.55966503406439
 31
0.0
  0
ARC
  5
318336C6
330
318324AF
100
AcDbEntity
  8
JISSEN
100
AcDbCircle
 10
275.7388065617214
 20
98.40981022622834
 30
0.0
 40
0.4877343958118496
100
AcDbArc
 50
184.1849161251174
 51
241.8292597702474
  0
ARC
  5
318336C7
330
318324AF
100
AcDbEntity
  8
JISSEN
100
AcDbCircle
 10
275.5085468413994
 20
101.3871781607756
 30
0.0
 40
1.50323275862069
100
AcDbArc
 50
180.0
 51
255.7499673021964
  0
LINE
  5
318336C8
330
318324AF
100
AcDbEntity
  8
JISSEN
100
AcDbLine
 10
275.1385203162005
 20
99.93019871780495
 30
0.0
 11
275.2523726006228
 21
98.37421749736739
 31
0.0
  0
LINE
  5
318336C9
330
318324AF
100
AcDbEntity
  8
JISSEN
100
AcDbLine
 10
275.1985492972674
 20
99.10980264322484
 30
0.0
 11
276.5815880768081
 21
99.10980264322484
 31
0.0
  0
ARC
  5
318336CA
330
318324AF
100
AcDbEntity
  8
JISSEN
100
AcDbCircle
 10
271.4999261517443
 20
87.76433712199736
 30
0.0
 40
19.39008315435972
100
AcDbArc
 50
82.5760704103744
 51
83.77775282683996
  0
LINE
  5
318336CB
330
318324AF
100
AcDbEntity
  8
JISSEN
100
AcDbLine
 10
274.5063916689856
 20
106.6017708030275
 30
0.0
 11
274.1305834793304
 21
106.6017708030275
 31
0.0
  0
ARC
  5
318336CC
330
318324AF
100
AcDbEntity
  8
JISSEN
100
AcDbCircle
 10
271.4999261517442
 20
126.2194203255485
 30
0.0
 40
19.39008315435972
100
AcDbArc
 50
276.2426042286274
 51
277.4239295896289
  0
ARC
  5
318336CD
330
318324AF
100
AcDbEntity
  8
JISSEN
100
AcDbCircle
 10
274.1305834793304
 20
106.9024173547517
 30
0.0
 40
1.202586206896552
100
AcDbArc
 50
248.5767027521151
 51
270.0
  0
LWPOLYLINE
  5
318336CE
330
318324AF
100
AcDbEntity
  8
JISSEN
100
AcDbPolyline
 90
        2
 70
     0
 43
0.0
 10
274.1305834793304
 20
106.262404951879
 42
-0.0047313531205585
 10
273.6592754893741
 20
106.2317184684409
 42
-0.0078363086204064
  0
ARC
  5
318336CF
330
318324AF
100
AcDbEntity
  8
JISSEN
100
AcDbCircle
 10
274.5063916689856
 20
108.1050035616481
 30
0.0
 40
1.50323275862069
100
AcDbArc
 50
270.0
 51
0.0
  0
LINE
  5
318336D0
330
318324AF
100
AcDbEntity
  8
JISSEN
100
AcDbLine
 10
273.2536977034684
 20
114.8471860398399
 30
0.0
 11
269.7461546000202
 21
114.8471860398399
 31
0.0
  0
LINE
  5
318336D1
330
318324AF
100
AcDbEntity
  8
JISSEN
100
AcDbLine
 10
273.2536977034684
 20
115.6320450488405
 30
0.0
 11
269.7461546000202
 21
115.6320450488405
 31
0.0
  0
LINE
  5
318336D2
330
318324AF
100
AcDbEntity
  8
JISSEN
100
AcDbLine
 10
269.7461546000202
 20
117.3649711330342
 30
0.0
 11
273.2536977034684
 21
117.3649711330342
 31
0.0
  0
LINE
  5
318336D3
330
318324AF
100
AcDbEntity
  8
JISSEN
100
AcDbLine
 10
268.4934606345029
 20
114.0408803293315
 30
0.0
 11
268.4934606345029
 21
111.076549099456
 31
0.0
  0
ARC
  5
318336D4
330
318324AF
100
AcDbEntity
  8
JISSEN
100
AcDbCircle
 10
277.512857186227
 20
111.8630854581999
 30
0.0
 40
10.52262931034483
100
AcDbArc
 50
165.8509954910652
 51
180.0
  0
LINE
  5
318336D5
330
318324AF
100
AcDbEntity
  8
JISSEN
100
AcDbLine
 10
263.9837623586407
 20
110.6684926430423
 30
0.0
 11
263.6343880450403
 21
110.6379263512752
 31
0.0
  0
LINE
  5
318336D6
330
318324AF
100
AcDbEntity
  8
JISSEN
100
AcDbLine
 10
266.9902278758821
 20
110.9447819549431
 30
0.0
 11
269.6941538437076
 21
111.1817968827454
 31
0.0
  0
LINE
  5
318336D7
330
318324AF
100
AcDbEntity
  8
JISSEN
100
AcDbLine
 10
266.9902278758821
 20
110.8441821690596
 30
0.0
 11
269.6869228706383
 21
111.0805632597744
 31
0.0
  0
ARC
  5
318336D8
330
318324AF
100
AcDbEntity
  8
JISSEN
100
AcDbCircle
 10
271.4999261517443
 20
91.44095104126682
 30
0.0
 40
19.39008315435972
100
AcDbArc
 50
95.43647494168643
 51
97.42392958962561
  0
LINE
  5
318336D9
330
318324AF
100
AcDbEntity
  8
JISSEN
100
AcDbLine
 10
266.9902278758821
 20
110.4928031170252
 30
0.0
 11
268.9945382207098
 21
110.3171135910081
 31
0.0
  0
ARC
  5
318336DA
330
318324AF
100
AcDbEntity
  8
JISSEN
100
AcDbCircle
 10
271.4999261517446
 20
119.3707953731635
 30
0.0
 40
5.010775862068968
100
AcDbArc
 50
239.9999999999999
 51
243.6791901783919
  0
LINE
  5
318336DB
330
318324AF
100
AcDbEntity
  8
JISSEN
100
AcDbLine
 10
269.7461546000202
 20
114.8471860398399
 30
0.0
 11
269.7461546000202
 21
117.3649711330342
 31
0.0
  0
ARC
  5
318336DC
330
318324AF
100
AcDbEntity
  8
JISSEN
100
AcDbCircle
 10
268.7670793701828
 20
114.0678268375103
 30
0.0
 40
1.50323275862069
100
AcDbArc
 50
90.0
 51
165.8509954910652
  0
ARC
  5
318336DD
330
318324AF
100
AcDbEntity
  8
JISSEN
100
AcDbCircle
 10
271.4999261517443
 20
94.88529394241494
 30
0.0
 40
19.39008315435972
100
AcDbArc
 50
94.7019833989483
 51
98.91979517632513
  0
ARC
  5
318336DE
330
318324AF
100
AcDbEntity
  8
JISSEN
100
AcDbCircle
 10
269.2893031941892
 20
114.2206494179276
 30
0.0
 40
0.6455192838242088
100
AcDbArc
 50
103.6591051852965
 51
180.0
  0
LWPOLYLINE
  5
318336DF
330
318324AF
100
AcDbEntity
  8
JISSEN
100
AcDbPolyline
 90
        3
 70
     0
 43
0.0
 10
269.74615460002
 20
114.9516319056605
 42
0.0069244247785686
 10
269.4803286048316
 20
114.9153641058509
 42
0.0222413121313502
 10
269.1368672730861
 20
114.8479120708462
 42
0.3154119100223803
  0
LINE
  5
318336E0
330
318324AF
100
AcDbEntity
  8
JISSEN
100
AcDbLine
 10
268.643783910365
 20
114.0638699122306
 30
0.0
 11
268.643783910365
 21
114.2206494179276
 31
0.0
  0
LINE
  5
318336E1
330
318324AF
100
AcDbEntity
  8
JISSEN
100
AcDbLine
 10
268.2309400660219
 20
115.4721997841039
 30
0.0
 11
268.99453822071
 21
115.031336183942
 31
0.0
  0
ARC
  5
318336E2
330
318324AF
100
AcDbEntity
  8
JISSEN
100
AcDbCircle
 10
269.2951847724339
 20
115.7714906306137
 30
0.0
 40
0.2004310344827588
100
AcDbArc
 50
270.0
 51
0.0
  0
LINE
  5
318336E3
330
318324AF
100
AcDbEntity
  8
JISSEN
100
AcDbLine
 10
268.7670793701828
 20
115.5710595961309
 30
0.0
 11
269.2951847724339
 21
115.5710595961309
 31
0.0
  0
ARC
  5
318336E4
330
318324AF
100
AcDbEntity
  8
JISSEN
100
AcDbCircle
 10
269.7962623586409
 20
116.7912168075976
 30
0.0
 40
0.3006465517241381
100
AcDbArc
 50
99.59406822683844
 51
180.0
  0
LINE
  5
318336E5
330
318324AF
100
AcDbEntity
  8
JISSEN
100
AcDbLine
 10
269.4956158069166
 20
115.7714906306137
 30
0.0
 11
269.4956158069166
 21
118.59089106397
 31
0.0
  0
LINE
  5
318336E6
330
318324AF
100
AcDbEntity
  8
JISSEN
100
AcDbLine
 10
274.5063916689857
 20
114.0408803293314
 30
0.0
 11
274.5063916689857
 21
111.0765490994561
 31
0.0
  0
ARC
  5
318336E7
330
318324AF
100
AcDbEntity
  8
JISSEN
100
AcDbCircle
 10
265.4869951172614
 20
111.8630854581999
 30
0.0
 40
10.52262931034483
100
AcDbArc
 50
0.0
 51
14.14900450893474
  0
ARC
  5
318336E8
330
318324AF
100
AcDbEntity
  8
JISSEN
100
AcDbCircle
 10
271.4999261517443
 20
91.44095104126682
 30
0.0
 40
19.39008315435972
100
AcDbArc
 50
82.5760704103744
 51
84.56352505831359
  0
LINE
  5
318336E9
330
318324AF
100
AcDbEntity
  8
JISSEN
100
AcDbLine
 10
276.0096244276064
 20
110.8441821690596
 30
0.0
 11
273.3129294328504
 21
111.0805632597744
 31
0.0
  0
LINE
  5
318336EA
330
318324AF
100
AcDbEntity
  8
JISSEN
100
AcDbLine
 10
276.0096244276064
 20
110.9447819549431
 30
0.0
 11
273.3056984597809
 21
111.1817968827454
 31
0.0
  0
LINE
  5
318336EB
330
318324AF
100
AcDbEntity
  8
JISSEN
100
AcDbLine
 10
276.0096244276064
 20
110.4928031170252
 30
0.0
 11
274.0053140827789
 21
110.3171135910081
 31
0.0
  0
ARC
  5
318336EC
330
318324AF
100
AcDbEntity
  8
JISSEN
100
AcDbCircle
 10
271.4999261517443
 20
94.88529394241494
 30
0.0
 40
19.39008315435972
100
AcDbArc
 50
81.08020482367489
 51
85.29801660105169
  0
LWPOLYLINE
  5
318336ED
330
318324AF
100
AcDbEntity
  8
JISSEN
100
AcDbPolyline
 90
        3
 70
     0
 43
0.0
 10
273.8629850304024
 20
114.8479120708463
 42
0.0222413121313491
 10
273.5195236986569
 20
114.9153641058509
 42
0.0069244247785704
 10
273.2536977034684
 20
114.9516319056605
 42
0.0155729562488785
  0
ARC
  5
318336EE
330
318324AF
100
AcDbEntity
  8
JISSEN
100
AcDbCircle
 10
273.7046675310546
 20
115.7714906306137
 30
0.0
 40
0.2004310344827588
100
AcDbArc
 50
180.0
 51
270.0
  0
LINE
  5
318336EF
330
318324AF
100
AcDbEntity
  8
JISSEN
100
AcDbLine
 10
273.2536977034684
 20
117.3649711330342
 30
0.0
 11
273.2536977034684
 21
114.8471860398399
 31
0.0
  0
ARC
  5
318336F0
330
318324AF
100
AcDbEntity
  8
JISSEN
100
AcDbCircle
 10
273.2035899448477
 20
116.7912168075976
 30
0.0
 40
0.3006465517241381
100
AcDbArc
 50
0.0
 51
80.40593177313514
  0
LINE
  5
318336F1
330
318324AF
100
AcDbEntity
  8
JISSEN
100
AcDbLine
 10
273.5042364965718
 20
115.7714906306137
 30
0.0
 11
273.5042364965718
 21
118.59089106397
 31
0.0
  0
ARC
  5
318336F2
330
318324AF
100
AcDbEntity
  8
JISSEN
100
AcDbCircle
 10
271.4999261517446
 20
119.3707953731635
 30
0.0
 40
5.010775862068968
100
AcDbArc
 50
296.320809821608
 51
299.9999999999999
  0
ARC
  5
318336F3
330
318324AF
100
AcDbEntity
  8
JISSEN
100
AcDbCircle
 10
274.2327729333057
 20
114.0678268375103
 30
0.0
 40
1.50323275862069
100
AcDbArc
 50
14.14900450893474
 51
90.0
  0
ARC
  5
318336F4
330
318324AF
100
AcDbEntity
  8
JISSEN
100
AcDbCircle
 10
273.7105491092994
 20
114.2206494179276
 30
0.0
 40
0.6455192838242088
100
AcDbArc
 50
0.0
 51
76.34089481470343
  0
LINE
  5
318336F5
330
318324AF
100
AcDbEntity
  8
JISSEN
100
AcDbLine
 10
274.3560683931236
 20
114.2206494179276
 30
0.0
 11
274.3560683931236
 21
114.0638699122306
 31
0.0
  0
LINE
  5
318336F6
330
318324AF
100
AcDbEntity
  8
JISSEN
100
AcDbLine
 10
274.7689122374671
 20
115.4721997841038
 30
0.0
 11
274.005314082779
 21
115.031336183942
 31
0.0
  0
LINE
  5
318336F7
330
318324AF
100
AcDbEntity
  8
JISSEN
100
AcDbLine
 10
274.2327729333057
 20
115.5710595961309
 30
0.0
 11
273.7046675310546
 21
115.5710595961309
 31
0.0
  0
LINE
  5
318336F8
330
318324AF
100
AcDbEntity
  8
JISSEN
100
AcDbLine
 10
268.527136378788
 20
123.1190320620115
 30
0.0
 11
259.5077398270638
 21
123.1190320620115
 31
0.0
  0
LINE
  5
318336F9
330
318324AF
100
AcDbEntity
  8
JISSEN
100
AcDbLine
 10
260.0088174132707
 20
133.4412303378735
 30
0.0
 11
269.1198076172615
 21
133.4412303378735
 31
0.0
  0
LINE
  5
318336FA
330
318324AF
100
AcDbEntity
  8
JISSEN
100
AcDbLine
 10
256.0001967236155
 20
123.8969220951787
 30
0.0
 11
256.0001967236155
 21
133.1405837861494
 31
0.0
  0
LINE
  5
318336FB
330
318324AF
100
AcDbEntity
  8
JISSEN
100
AcDbLine
 10
255.4991191374086
 20
123.1190320620115
 30
0.0
 11
257.0023518960292
 21
125.4527021615134
 31
0.0
  0
LINE
  5
318336FC
330
318324AF
100
AcDbEntity
  8
JISSEN
100
AcDbLine
 10
258.004507068443
 20
125.4527021615134
 30
0.0
 11
259.5077398270638
 21
123.1190320620115
 31
0.0
  0
LINE
  5
318336FD
330
318324AF
100
AcDbEntity
  8
JISSEN
100
AcDbLine
 10
257.0023518960292
 20
125.4527021615134
 30
0.0
 11
258.004507068443
 21
125.4527021615134
 31
0.0
  0
LINE
  5
318336FE
330
318324AF
100
AcDbEntity
  8
JISSEN
100
AcDbLine
 10
260.0088174132707
 20
135.4455406827011
 30
0.0
 11
258.1012363558186
 21
136.5468831197221
 31
0.0
  0
LINE
  5
318336FF
330
318324AF
100
AcDbEntity
  8
JISSEN
100
AcDbLine
 10
260.0088174132706
 20
133.1405837861493
 30
0.0
 11
260.0088174132707
 21
135.4455406827011
 31
0.0
  0
LINE
  5
31833700
330
318324AF
100
AcDbEntity
  8
JISSEN
100
AcDbLine
 10
262.2135587925811
 20
133.4412303378735
 30
0.0
 11
262.2135587925811
 21
133.1405837861494
 31
0.0
  0
ARC
  5
31833701
330
318324AF
100
AcDbEntity
  8
JISSEN
100
AcDbCircle
 10
271.4999261517443
 20
131.0635114885397
 30
0.0
 40
10.96206155572236
100
AcDbArc
 50
255.6397940472943
 51
284.3602059527056
  0
LINE
  5
31833702
330
318324AF
100
AcDbEntity
  8
JISSEN
100
AcDbLine
 10
276.5007207682633
 20
119.8084335120927
 30
0.0
 11
266.5664830237951
 21
119.8084335120927
 31
0.0
  0
LINE
  5
31833703
330
318324AF
100
AcDbEntity
  8
JISSEN
100
AcDbLine
 10
263.0152829305121
 20
123.1190320620115
 30
0.0
 11
263.015282930512
 21
120.8854907009493
 31
0.0
  0
LINE
  5
31833704
330
318324AF
100
AcDbEntity
  8
JISSEN
100
AcDbLine
 10
269.1198076172615
 20
133.4412303378735
 30
0.0
 11
269.1198076172615
 21
135.4455406827011
 31
0.0
  0
LINE
  5
31833705
330
318324AF
100
AcDbEntity
  8
JISSEN
100
AcDbLine
 10
267.5249812063741
 20
133.4412303378735
 30
0.0
 11
267.5249812063741
 21
133.1405837861494
 31
0.0
  0
LINE
  5
31833706
330
318324AF
100
AcDbEntity
  8
JISSEN
100
AcDbLine
 10
273.8800446862271
 20
133.4412303378735
 30
0.0
 11
273.8800446862271
 21
135.4455406827011
 31
0.0
  0
LINE
  5
31833707
330
318324AF
100
AcDbEntity
  8
JISSEN
100
AcDbLine
 10
275.5422225856845
 20
133.4412303378735
 30
0.0
 11
275.5422225856845
 21
133.1405837861494
 31
0.0
  0
ARC
  5
31833708
330
318324AF
100
AcDbEntity
  8
JISSEN
100
AcDbCircle
 10
278.724255433096
 20
115.493294367633
 30
0.0
 40
10.82880430439393
100
AcDbArc
 50
356.8068888039074
 51
35.24470412043482
  0
ARC
  5
31833709
330
318324AF
100
AcDbEntity
  8
JISSEN
100
AcDbCircle
 10
276.5575445196191
 20
115.8414546017083
 30
0.0
 40
17.03663793103449
100
AcDbArc
 50
355.2987799884096
 51
25.28823184642066
  0
ARC
  5
3183370A
330
318324AF
100
AcDbEntity
  8
JISSEN
100
AcDbCircle
 10
276.5107020138133
 20
114.5312368830866
 30
0.0
 40
15.0323275862069
100
AcDbArc
 50
0.0
 51
34.84012248887526
  0
CIRCLE
  5
3183370B
330
318324AF
100
AcDbEntity
  8
JISSEN
100
AcDbCircle
 10
301.1973949994775
 20
121.1147217171838
 30
0.0
 40
2.254849137931036
  0
LWPOLYLINE
  5
3183370C
330
318324AF
100
AcDbEntity
  8
JISSEN
100
AcDbPolyline
 90
        6
 70
     1
 43
0.0
 10
303.1877602809338
 20
117.6673079240804
 10
305.1781255623901
 20
121.1147217171839
 10
303.1877602809338
 20
124.5621355102873
 10
299.2070297180211
 20
124.5621355102873
 10
297.2166644365649
 20
121.1147217171839
 10
299.2070297180211
 20
117.6673079240804
  0
CIRCLE
  5
3183370D
330
318324AF
100
AcDbEntity
  8
JISSEN
100
AcDbCircle
 10
301.1973949994775
 20
121.1147217171838
 30
0.0
 40
4.008620689655175
  0
ARC
  5
3183370E
330
318324AF
100
AcDbEntity
  8
JISSEN
100
AcDbCircle
 10
263.482684772434
 20
114.5312368830866
 30
0.0
 40
28.06034482758622
100
AcDbArc
 50
337.975687162958
 51
0.0
  0
ARC
  5
3183370F
330
318324AF
100
AcDbEntity
  8
JISSEN
100
AcDbCircle
 10
279.0160899448478
 20
106.6445596735798
 30
0.0
 40
4.008620689655175
100
AcDbArc
 50
0.0
 51
85.00000000000021
  0
LINE
  5
31833710
330
318324AF
100
AcDbEntity
  8
JISSEN
100
AcDbLine
 10
279.0160899448476
 20
106.8523095961309
 30
0.0
 11
279.0160899448476
 21
111.8630854581999
 31
0.0
  0
ARC
  5
31833711
330
318324AF
100
AcDbEntity
  8
JISSEN
100
AcDbCircle
 10
263.482684772434
 20
114.5312368830866
 30
0.0
 40
26.05603448275864
100
AcDbArc
 50
337.5734509758027
 51
0.7891762481350045
  0
ARC
  5
31833712
330
318324AF
100
AcDbEntity
  8
JISSEN
100
AcDbCircle
 10
282.0225554620891
 20
103.1809866894011
 30
0.0
 40
1.002155172413793
100
AcDbArc
 50
265.0000000000002
 51
0.0
  0
LINE
  5
31833713
330
318324AF
100
AcDbEntity
  8
JISSEN
100
AcDbLine
 10
278.2972209135974
 20
102.50092798787
 30
0.0
 11
281.935211883689
 21
102.1826450199773
 31
0.0
  0
LINE
  5
31833714
330
318324AF
100
AcDbEntity
  8
JISSEN
100
AcDbLine
 10
278.164258048296
 20
98.02293335277882
 30
0.0
 11
278.0139347724339
 21
98.02293335277882
 31
0.0
  0
LINE
  5
31833715
330
318324AF
100
AcDbEntity
  8
JISSEN
100
AcDbLine
 10
278.0139347724339
 20
100.9976952292493
 30
0.0
 11
278.1642580482961
 21
100.9976952292493
 31
0.0
  0
LINE
  5
31833716
330
318324AF
100
AcDbEntity
  8
JISSEN
100
AcDbLine
 10
278.164258048296
 20
100.9976952292493
 30
0.0
 11
278.164258048296
 21
98.02293335277882
 31
0.0
  0
LINE
  5
31833717
330
318324AF
100
AcDbEntity
  8
JISSEN
100
AcDbLine
 10
278.0139347724339
 20
101.7423008163448
 30
0.0
 11
278.0139347724339
 21
98.02293335277882
 31
0.0
  0
LINE
  5
31833718
330
318324AF
100
AcDbEntity
  8
JISSEN
100
AcDbLine
 10
283.0247106345028
 20
106.6598719533872
 30
0.0
 11
283.0247106345028
 21
106.6598719533872
 31
0.0
  0
LINE
  5
31833719
330
318324AF
100
AcDbEntity
  8
JISSEN
100
AcDbLine
 10
283.024710634503
 20
103.1809866894011
 30
0.0
 11
283.024710634503
 21
106.6445596735798
 31
0.0
  0
LINE
  5
3183371A
330
318324AF
100
AcDbEntity
  8
JISSEN
100
AcDbLine
 10
279.0160899448478
 20
110.6684926430424
 30
0.0
 11
279.3654642584483
 21
110.6379263512752
 31
0.0
  0
LINE
  5
3183371B
330
318324AF
100
AcDbEntity
  8
JISSEN
100
AcDbLine
 10
295.5853260339603
 20
123.1190320620115
 30
0.0
 11
287.5680846546499
 21
123.1190320620115
 31
0.0
  0
LINE
  5
3183371C
330
318324AF
100
AcDbEntity
  8
JISSEN
100
AcDbLine
 10
287.0670070684431
 20
123.8969220951787
 30
0.0
 11
287.0670070684431
 21
133.1405837861494
 31
0.0
  0
LINE
  5
3183371D
330
318324AF
100
AcDbEntity
  8
JISSEN
100
AcDbLine
 10
285.0626967236155
 20
125.4527021615134
 30
0.0
 11
283.5594639649948
 21
123.1190320620115
 31
0.0
  0
LINE
  5
3183371E
330
318324AF
100
AcDbEntity
  8
JISSEN
100
AcDbLine
 10
280.0519208615465
 20
123.1190320620115
 30
0.0
 11
280.0519208615465
 21
120.8854907009492
 31
0.0
  0
LINE
  5
3183371F
330
318324AF
100
AcDbEntity
  8
JISSEN
100
AcDbLine
 10
287.5680846546499
 20
123.1190320620115
 30
0.0
 11
286.0648518960292
 21
125.4527021615134
 31
0.0
  0
LINE
  5
31833720
330
318324AF
100
AcDbEntity
  8
JISSEN
100
AcDbLine
 10
286.0648518960292
 20
125.4527021615134
 30
0.0
 11
285.0626967236155
 21
125.4527021615134
 31
0.0
  0
LINE
  5
31833721
330
318324AF
100
AcDbEntity
  8
JISSEN
100
AcDbLine
 10
283.0583863787879
 20
135.4455406827011
 30
0.0
 11
284.9659674362401
 21
136.5468831197221
 31
0.0
  0
LINE
  5
31833722
330
318324AF
100
AcDbEntity
  8
JISSEN
100
AcDbLine
 10
283.0583863787878
 20
133.1405837861493
 30
0.0
 11
283.0583863787879
 21
135.4455406827011
 31
0.0
  0
LINE
  5
31833723
330
318324AF
100
AcDbEntity
  8
JISSEN
100
AcDbLine
 10
280.8536449994775
 20
133.4412303378735
 30
0.0
 11
280.8536449994775
 21
133.1405837861494
 31
0.0
  0
LINE
  5
31833724
330
318324AF
100
AcDbEntity
  8
JISSEN
100
AcDbLine
 10
292.5788605167189
 20
133.1405837861494
 30
0.0
 11
304.1382268000961
 21
125.657554909926
 31
0.0
  0
LINE
  5
31833725
330
318324AF
100
AcDbEntity
  8
JISSEN
100
AcDbLine
 10
297.7550556285711
 20
126.8771139585632
 30
0.0
 11
295.0698505045771
 21
131.5280256620651
 31
0.0
  0
ARC
  5
31833726
330
318324AF
100
AcDbEntity
  8
JISSEN
100
AcDbCircle
 10
295.5853260339603
 20
125.6244199930459
 30
0.0
 40
2.505387931034484
100
AcDbArc
 50
270.0
 51
30.00000000000095
  0
LINE
  5
31833727
330
318324AF
100
AcDbEntity
  8
JISSEN
100
AcDbLine
 10
306.609032930512
 20
94.05653206201151
 30
0.0
 11
306.609032930512
 21
121.1147217171838
 31
0.0
  0
ARC
  5
31833728
330
318324AF
100
AcDbEntity
  8
NITEN
100
AcDbCircle
 10
249.9999985726997
 20
180.0916499332524
 30
0.0
 40
2.0
100
AcDbArc
 50
90.0
 51
180.0
  0
ARC
  5
31833729
330
318324AF
100
AcDbEntity
  8
NITEN
100
AcDbCircle
 10
249.9999985726997
 20
159.6376659594704
 30
0.0
 40
2.0
100
AcDbArc
 50
180.0
 51
270.0
  0
LINE
  5
3183372A
330
318324AF
100
AcDbEntity
  8
NITEN
100
AcDbLine
 10
247.9999985726997
 20
180.0916499332524
 30
0.0
 11
247.9999985726997
 21
159.6376659594703
 31
0.0
  0
LINE
  5
3183372B
330
318324AF
100
AcDbEntity
  8
NITEN
100
AcDbLine
 10
290.9999985726997
 20
182.0916499332524
 30
0.0
 11
290.9999985726997
 21
202.9293675843983
 31
0.0
  0
LINE
  5
3183372C
330
318324AF
100
AcDbEntity
  8
NITEN
100
AcDbLine
 10
251.9999985726997
 20
202.9293675843979
 30
0.0
 11
251.9999985726997
 21
182.0916499332524
 31
0.0
  0
LINE
  5
3183372D
330
318324AF
100
AcDbEntity
  8
JISSEN
100
AcDbLine
 10
260.5878901139468
 20
151.9811010275287
 30
0.0
 11
282.4793136781118
 21
151.9811010275287
 31
0.0
  0
LINE
  5
3183372E
330
318324AF
100
AcDbEntity
  8
JISSEN
100
AcDbLine
 10
282.4793136781118
 20
151.9811010275287
 30
0.0
 11
260.5878901139469
 21
151.9811010275287
 31
0.0
  0
LINE
  5
3183372F
330
318324AF
100
AcDbEntity
  8
JISSEN
100
AcDbLine
 10
284.546231285808
 20
149.9777687313234
 30
0.0
 11
258.5209725062505
 21
149.9777687313234
 31
0.0
  0
LINE
  5
31833730
330
318324AF
100
AcDbEntity
  8
NITEN
100
AcDbLine
 10
292.9999985726995
 20
182.0916499332524
 30
0.0
 11
249.9999985726997
 21
182.0916499332524
 31
0.0
  0
LINE
  5
31833731
330
318324AF
100
AcDbEntity
  8
NITEN
100
AcDbLine
 10
254.9999985726997
 20
152.6376659594703
 30
0.0
 11
254.9999985726997
 21
141.5916499332524
 31
0.0
  0
LINE
  5
31833732
330
318324AF
100
AcDbEntity
  8
JISSEN
100
AcDbLine
 10
258.5209725062505
 20
149.9777687313234
 30
0.0
 11
260.5878901139468
 21
151.9811010275287
 31
0.0
  0
ARC
  5
31833733
330
318324AF
100
AcDbEntity
  8
NITEN
100
AcDbCircle
 10
249.9999985726997
 20
152.6376659594704
 30
0.0
 40
5.0
100
AcDbArc
 50
0.0
 51
90.0
  0
LINE
  5
31833734
330
318324AF
100
AcDbEntity
  8
NITEN
100
AcDbLine
 10
294.9999985726997
 20
159.6376659594703
 30
0.0
 11
294.9999985726996
 21
180.0916499332524
 31
0.0
  0
ARC
  5
31833735
330
318324AF
100
AcDbEntity
  8
NITEN
100
AcDbCircle
 10
292.9999985726997
 20
152.6376659594704
 30
0.0
 40
5.0
100
AcDbArc
 50
90.0
 51
180.0
  0
LINE
  5
31833736
330
318324AF
100
AcDbEntity
  8
NITEN
100
AcDbLine
 10
287.9999985726997
 20
141.5916499332524
 30
0.0
 11
287.9999985726997
 21
152.6376659594703
 31
0.0
  0
LINE
  5
31833737
330
318324AF
100
AcDbEntity
  8
JISSEN
100
AcDbLine
 10
284.546231285808
 20
149.9777687313234
 30
0.0
 11
282.4793136781118
 21
151.9811010275287
 31
0.0
  0
ARC
  5
31833738
330
318324AF
100
AcDbEntity
  8
NITEN
100
AcDbCircle
 10
292.9999985726997
 20
159.6376659594704
 30
0.0
 40
2.0
100
AcDbArc
 50
270.0
 51
0.0
  0
ARC
  5
31833739
330
318324AF
100
AcDbEntity
  8
NITEN
100
AcDbCircle
 10
292.9999985726995
 20
180.0916499332524
 30
0.0
 40
1.999999999999971
100
AcDbArc
 50
359.9999999999992
 51
90.0
  0
LWPOLYLINE
  5
3183373A
330
318324AF
100
AcDbEntity
  8
NITEN
100
AcDbPolyline
 90
        2
 70
     0
 43
0.0
 10
290.9999985726997
 20
202.9293675843983
 42
0.5195636805304642
 10
271.4999985726997
 20
202.9293675843984
 42
0.5882352941176294
  0
ARC
  5
3183373B
330
318324AF
100
AcDbEntity
  8
NITEN
100
AcDbCircle
 10
281.2499985726997
 20
209.7793675843983
 30
0.0
 40
11.91574588517228
100
AcDbArc
 50
215.0905003001232
 51
324.9094996998767
  0
ARC
  5
3183373C
330
318324AF
100
AcDbEntity
  8
NITEN
100
AcDbCircle
 10
261.7499985726998
 20
196.0793675843981
 30
0.0
 40
11.91574588517225
100
AcDbArc
 50
35.09050030012478
 51
144.9094996998772
  0
TEXT
  5
3183373D
330
318324AF
100
AcDbEntity
  8
TEXT
100
AcDbText
 10
288.4571410678424
 20
256.4999996893844
 30
0.0
 40
3.0
  1
ガード EP
 72
     4
 11
297.4999982106995
 21
257.9999996893844
 31
0.0
100
AcDbText
  0
TEXT
  5
3183373E
330
318324AF
100
AcDbEntity
  8
TEXT
100
AcDbText
 10
288.8999982106995
 20
268.4999996893844
 30
0.0
 40
3.0
  1
名      称
  7
K
 72
     4
 11
297.4999982106995
 21
269.9999996893844
 31
0.0
100
AcDbText
  0
TEXT
  5
3183373F
330
318324AF
100
AcDbEntity
  8
TEXT
100
AcDbText
 10
283.7857124964138
 20
262.6428568322416
 30
0.0
 40
3.0
  1
EPQR 型ヘッド
 72
     4
 11
297.4999982106995
 21
263.9999996893844
 31
0.0
100
AcDbText
  0
LINE
  5
31833740
330
318324AF
100
AcDbEntity
  8
JISSEN
100
AcDbLine
 10
272.4999982106995
 20
254.9999996893844
 30
0.0
 11
272.4999982106995
 21
272.9999996893844
 31
0.0
  0
LINE
  5
31833741
330
318324AF
100
AcDbEntity
  8
JISSEN
100
AcDbLine
 10
282.4999982106995
 20
272.9999996893844
 30
0.0
 11
282.4999982106995
 21
254.9999996893844
 31
0.0
  0
TEXT
  5
31833742
330
318324AF
100
AcDbEntity
  8
TEXT
100
AcDbText
 10
276.2857124964138
 20
262.4999996893844
 30
0.0
 40
3.0
  1
1
  7
K
 72
     4
 11
277.4999982106995
 21
263.9999996893844
 31
0.0
100
AcDbText
  0
TEXT
  5
31833743
330
318324AF
100
AcDbEntity
  8
TEXT
100
AcDbText
 10
276.0714267821281
 20
256.4999996893844
 30
0.0
 40
3.0
  1
2
  7
K
 72
     4
 11
277.4999982106995
 21
257.9999996893844
 31
0.0
100
AcDbText
  0
TEXT
  5
31833744
330
318324AF
100
AcDbEntity
  8
TEXT
100
AcDbText
 10
274.2999982106995
 20
268.4999996893844
 30
0.0
 40
3.0
  1
番号
  7
K
 72
     4
 11
277.4999982106995
 21
269.9999996893844
 31
0.0
100
AcDbText
  0
LINE
  5
31833745
330
318324AF
100
AcDbEntity
  8
JISSEN
100
AcDbLine
 10
333.4999982106995
 20
254.9999996893844
 30
0.0
 11
333.4999982106995
 21
272.9999996893844
 31
0.0
  0
LINE
  5
31833746
330
318324AF
100
AcDbEntity
  8
JISSEN
100
AcDbLine
 10
344.4999982106995
 20
272.9999996893844
 30
0.0
 11
344.4999982106995
 21
254.9999996893844
 31
0.0
  0
TEXT
  5
31833747
330
318324AF
100
AcDbEntity
  8
TEXT
100
AcDbText
 10
337.6795466971088
 20
262.4999996893844
 30
0.0
 40
3.0
  1
1
 72
     4
 11
338.8938324113945
 21
263.9999996893844
 31
0.0
100
AcDbText
  0
LINE
  5
31833748
330
318324AF
100
AcDbEntity
  8
JISSEN
100
AcDbLine
 10
312.4999982106995
 20
272.9999996893844
 30
0.0
 11
312.4999982106995
 21
254.9999996893844
 31
0.0
  0
TEXT
  5
3183374A
330
318324AF
100
AcDbEntity
  8
TEXT
100
AcDbText
 10
317.8249982106995
 20
264.2999996893844
 30
0.0
 40
3.0
  1
%%u      
  7
K
 72
     4
 11
322.9999982106996
 21
263.9999996893844
 31
0.0
100
AcDbText
  0
TEXT
  5
3183374B
330
318324AF
100
AcDbEntity
  8
TEXT
100
AcDbText
 10
337.6795466971088
 20
256.4999996893844
 30
0.0
 40
3.0
  1
1
 72
     4
 11
338.8938324113945
 21
257.9999996893844
 31
0.0
100
AcDbText
  0
TEXT
  5
3183374C
330
318324AF
100
AcDbEntity
  8
TEXT
100
AcDbText
 10
316.1999982106995
 20
268.4999996893844
 30
0.0
 40
3.0
  1
材    質
  7
K
 72
     4
 11
322.9999982106996
 21
269.9999996893844
 31
0.0
100
AcDbText
  0
TEXT
  5
3183374D
330
318324AF
100
AcDbEntity
  8
TEXT
100
AcDbText
 10
346.6999982106995
 20
268.4999996893844
 30
0.0
 40
3.0
  1
備    考
  7
K
 72
     4
 11
353.4999982106995
 21
269.9999996893844
 31
0.0
100
AcDbText
  0
TEXT
  5
3183374E
330
318324AF
100
AcDbEntity
  8
TEXT
100
AcDbText
 10
335.7999982106996
 20
268.4999996893844
 30
0.0
 40
3.0
  1
個数
  7
K
 72
     4
 11
338.9999982106995
 21
269.9999996893844
 31
0.0
100
AcDbText
  0
LWPOLYLINE
  5
3183374F
330
318324AF
100
AcDbEntity
  8
WAKU
100
AcDbPolyline
 90
        4
 70
     1
 43
0.0
 10
180.9999992799999
 20
0.0
 10
361.9999985599999
 20
0.0
 10
361.9999985599999
 20
272.9999999999999
 10
180.9999992799999
 20
272.9999999999999
  0
LINE
  5
31833750
330
318324AF
100
AcDbEntity
  8
JISSEN
100
AcDbLine
 10
34.86112001688883
 20
141.0158569456112
 30
0.0
 11
37.86758553413017
 21
141.0158569456112
 31
0.0
  0
TEXT
  5
31833790
330
318324AF
100
AcDbEntity
  8
TEXT
100
AcDbText
 10
154.2895586131385
 20
2.849423588069726
 30
0.0
 40
3.0
  1
尺度　1/1
100
AcDbText
  0
TEXT
  5
31833791
330
318324AF
100
AcDbEntity
  8
TEXT
100
AcDbText
 10
154.2895586131385
 20
7.849423588069726
 30
0.0
 40
3.0
  1
ガード EP
100
AcDbText
  0
TEXT
  5
31833815
330
318324AF
100
AcDbEntity
  8
SUNPOU
100
AcDbText
 10
85.43352627376775
 20
177.5659506697491
 30
0.0
 40
4.5
  1
M4×0.7
  7
K
100
AcDbText
  0
LINE
  5
31833816
330
318324AF
100
AcDbEntity
  8
SUNPOU
100
AcDbLine
 10
82.23934512231414
 20
176.7090566697491
 30
0.0
 11
111.4583779635437
 21
176.7090566697491
 31
0.0
  0
INSERT
  5
31833817
330
318324AF
100
AcDbEntity
  8
SUNPOU
100
AcDbBlockReference
  2
ARROWANG
 10
92.97392312231414
 20
149.8749086697491
 30
0.0
 41
-1.799999999999992
 42
1.800000000000011
 43
1.8
 50
111.8031000000001
  0
LINE
  5
31833818
330
318324AF
100
AcDbEntity
  8
SUNPOU
100
AcDbLine
 10
92.97392312231414
 20
149.8749086697491
 30
0.0
 11
82.23934512231414
 21
176.7090566697491
 31
0.0
  0
INSERT
  5
31833819
330
318324AF
100
AcDbEntity
  8
SUNPOU
100
AcDbBlockReference
  2
ARROWANG
 10
152.3015093292105
 20
149.8749086697491
 30
0.0
 41
-1.799999999999992
 42
1.800000000000011
 43
1.8
 50
111.8031000000001
  0
LINE
  5
3183381A
330
318324AF
100
AcDbEntity
  8
SUNPOU
100
AcDbLine
 10
152.3015093292105
 20
149.8749086697491
 30
0.0
 11
141.5669313292105
 21
176.7090566697491
 31
0.0
  0
LINE
  5
3183381B
330
318324AF
100
AcDbEntity
  8
SUNPOU
100
AcDbLine
 10
141.5669313292105
 20
176.7090566697491
 30
0.0
 11
170.78596417044
 21
176.7090566697491
 31
0.0
  0
TEXT
  5
3183381C
330
318324AF
100
AcDbEntity
  8
SUNPOU
100
AcDbText
 10
144.7611124806641
 20
177.5659506697491
 30
0.0
 40
4.5
  1
M4×0.7
  7
K
100
AcDbText
  0
TEXT
  5
3183385C
330
318324AF
100
AcDbEntity
  8
TEXT
100
AcDbText
 10
317.2589267821281
 20
256.8749996893844
 30
0.0
 40
3.0
  1
ZDC
 72
     4
 11
321.6874982106995
 21
258.3749996893844
 31
0.0
100
AcDbText
  0
ENDSEC
  0
SECTION
  2
OBJECTS
  0
DICTIONARY
  5
318324A3
330
0
100
AcDbDictionary
  3
ACAD_GROUP
350
318324A4
  3
ACAD_LAYOUT
350
318333ED
  3
ACAD_MLINESTYLE
350
318324A5
  3
ACAD_PLOTSETTINGS
350
318333EE
  3
ACAD_PLOTSTYLENAME
350
318333EB
  3
ACDBHEADERROUNDTRIPXREC
350
3183389F
  3
ACDBVARIABLEDICTIONARY
350
3183389C
  0
DICTIONARY
  5
3183341B
330
318324AF
100
AcDbDictionary
280
     1
  3
ACAD_LAYOUTSELFREF
360
318338C1
  0
DICTIONARY
  5
31833419
330
318324AC
100
AcDbDictionary
280
     1
  3
ACAD_LAYOUTSELFREF
360
318338C0
  0
DICTIONARY
  5
318324A4
102
{ACAD_REACTORS
330
318324A3
102
}
330
318324A3
100
AcDbDictionary
  0
DICTIONARY
  5
318333ED
102
{ACAD_REACTORS
330
318324A3
102
}
330
318324A3
100
AcDbDictionary
  0
DICTIONARY
  5
318324A5
102
{ACAD_REACTORS
330
318324A3
102
}
330
318324A3
100
AcDbDictionary
  3
STANDARD
350
318324B2
  0
DICTIONARY
  5
318333EE
102
{ACAD_REACTORS
330
318324A3
102
}
330
318324A3
100
AcDbDictionary
  0
ACDBDICTIONARYWDFLT
  5
318333EB
102
{ACAD_REACTORS
330
318324A3
102
}
330
318324A3
100
AcDbDictionary
281
     1
  3
Normal
350
318333EC
100
AcDbDictionaryWithDefault
340
318333EC
  0
DICTIONARY
  5
3183389F
102
{ACAD_REACTORS
330
318324A3
102
}
330
318324A3
100
AcDbDictionary
  3
CEPSNTYPE
350
318338A9
  3
DIMSTYLEDATA
350
318338AD
  3
FINGERPRINTGUID
350
318338AA
  3
HYPERLINKBASE
350
318338A2
  3
INSUNITS
350
318338A8
  3
LAYOUTDICT
350
318338A4
  3
LWETCUNION
350
318338A7
  3
PLOTSETDICT
350
318338A5
  3
PLOTSTYLNAMDICT
350
318338A6
  3
PSVPSCALE
350
318338AC
  3
PUCSBASE
350
318338B0
  3
PUCSORGBACK
350
318338B6
  3
PUCSORGBOTTOM
350
318338B2
  3
PUCSORGFRONT
350
318338B5
  3
PUCSORGLEFT
350
318338B3
  3
PUCSORGRIGHT
350
318338B4
  3
PUCSORGTOP
350
318338B1
  3
PUCSORTHOREF
350
318338AE
  3
PUCSORTHOVIEW
350
318338AF
  3
STYLESHEET
350
318338A3
  3
TSTACKALIGN
350
318338A0
  3
TSTACKSIZE
350
318338A1
  3
UCSBASE
350
318338B9
  3
UCSORGBACK
350
318338BF
  3
UCSORGBOTTOM
350
318338BB
  3
UCSORGFRONT
350
318338BE
  3
UCSORGLEFT
350
318338BC
  3
UCSORGRIGHT
350
318338BD
  3
UCSORGTOP
350
318338BA
  3
UCSORTHOREF
350
318338B7
  3
UCSORTHOVIEW
350
318338B8
  3
VERSIONGUID
350
318338AB
  0
DICTIONARY
  5
3183389C
102
{ACAD_REACTORS
330
318324A3
102
}
330
318324A3
100
AcDbDictionary
  3
DIMASSOC
350
3183389D
  0
XRECORD
  5
318338C1
102
{ACAD_REACTORS
330
3183341B
102
}
330
3183341B
100
AcDbXrecord
340
318324AF
  0
XRECORD
  5
318338C0
102
{ACAD_REACTORS
330
31833419
102
}
330
31833419
100
AcDbXrecord
340
318324AC
  0
MLINESTYLE
  5
318324B2
102
{ACAD_REACTORS
330
318324A5
102
}
330
318324A5
100
AcDbMlineStyle
  2
STANDARD
 70
     0
  3

 62
     0
 51
90.0
 52
90.0
 71
     2
 49
0.5
 62
   256
  6
BYLAYER
 49
-0.5
 62
   256
  6
BYLAYER
  0
ACDBPLACEHOLDER
  5
318333EC
102
{ACAD_REACTORS
330
318333EB
102
}
330
318333EB
100
AcDbPlaceHolder
280
     0
  0
XRECORD
  5
318338A9
102
{ACAD_REACTORS
330
3183389F
102
}
330
3183389F
100
AcDbXrecord
 90
        0
  0
XRECORD
  5
318338AD
102
{ACAD_REACTORS
330
3183389F
102
}
330
3183389F
100
AcDbXrecord
1000
DSTYLE
1002
{
1070
   341
340
318324B9
1070
   342
340
318324B9
1070
   343
340
318324B9
1070
   344
340
318324B9
1002
}
  0
XRECORD
  5
318338AA
102
{ACAD_REACTORS
330
3183389F
102
}
330
3183389F
100
AcDbXrecord
  1
{0092E426-373B-47CB-8E07-F51568D90FC8}
  0
XRECORD
  5
318338A2
102
{ACAD_REACTORS
330
3183389F
102
}
330
3183389F
100
AcDbXrecord
  1

  0
XRECORD
  5
318338A8
102
{ACAD_REACTORS
330
3183389F
102
}
330
3183389F
100
AcDbXrecord
 90
        0
  0
XRECORD
  5
318338A4
102
{ACAD_REACTORS
330
3183389F
102
}
330
3183389F
100
AcDbXrecord
340
318333ED
  0
XRECORD
  5
318338A7
102
{ACAD_REACTORS
330
3183389F
102
}
330
3183389F
100
AcDbXrecord
 90
    14877
  0
XRECORD
  5
318338A5
102
{ACAD_REACTORS
330
3183389F
102
}
330
3183389F
100
AcDbXrecord
340
318333EE
  0
XRECORD
  5
318338A6
102
{ACAD_REACTORS
330
3183389F
102
}
330
3183389F
100
AcDbXrecord
340
318333EB
  0
XRECORD
  5
318338AC
102
{ACAD_REACTORS
330
3183389F
102
}
330
3183389F
100
AcDbXrecord
 40
0.0
  0
XRECORD
  5
318338B0
102
{ACAD_REACTORS
330
3183389F
102
}
330
3183389F
100
AcDbXrecord
340
0
  0
XRECORD
  5
318338B6
102
{ACAD_REACTORS
330
3183389F
102
}
330
3183389F
100
AcDbXrecord
 10
0.0
 20
0.0
 30
0.0
  0
XRECORD
  5
318338B2
102
{ACAD_REACTORS
330
3183389F
102
}
330
3183389F
100
AcDbXrecord
 10
0.0
 20
0.0
 30
0.0
  0
XRECORD
  5
318338B5
102
{ACAD_REACTORS
330
3183389F
102
}
330
3183389F
100
AcDbXrecord
 10
0.0
 20
0.0
 30
0.0
  0
XRECORD
  5
318338B3
102
{ACAD_REACTORS
330
3183389F
102
}
330
3183389F
100
AcDbXrecord
 10
0.0
 20
0.0
 30
0.0
  0
XRECORD
  5
318338B4
102
{ACAD_REACTORS
330
3183389F
102
}
330
3183389F
100
AcDbXrecord
 10
0.0
 20
0.0
 30
0.0
  0
XRECORD
  5
318338B1
102
{ACAD_REACTORS
330
3183389F
102
}
330
3183389F
100
AcDbXrecord
 10
0.0
 20
0.0
 30
0.0
  0
XRECORD
  5
318338AE
102
{ACAD_REACTORS
330
3183389F
102
}
330
3183389F
100
AcDbXrecord
340
0
  0
XRECORD
  5
318338AF
102
{ACAD_REACTORS
330
3183389F
102
}
330
3183389F
100
AcDbXrecord
 70
     0
  0
XRECORD
  5
318338A3
102
{ACAD_REACTORS
330
3183389F
102
}
330
3183389F
100
AcDbXrecord
  1

  0
XRECORD
  5
318338A0
102
{ACAD_REACTORS
330
3183389F
102
}
330
3183389F
100
AcDbXrecord
 90
        1
  0
XRECORD
  5
318338A1
102
{ACAD_REACTORS
330
3183389F
102
}
330
3183389F
100
AcDbXrecord
 90
       70
  0
XRECORD
  5
318338B9
102
{ACAD_REACTORS
330
3183389F
102
}
330
3183389F
100
AcDbXrecord
340
0
  0
XRECORD
  5
318338BF
102
{ACAD_REACTORS
330
3183389F
102
}
330
3183389F
100
AcDbXrecord
 10
0.0
 20
0.0
 30
0.0
  0
XRECORD
  5
318338BB
102
{ACAD_REACTORS
330
3183389F
102
}
330
3183389F
100
AcDbXrecord
 10
0.0
 20
0.0
 30
0.0
  0
XRECORD
  5
318338BE
102
{ACAD_REACTORS
330
3183389F
102
}
330
3183389F
100
AcDbXrecord
 10
0.0
 20
0.0
 30
0.0
  0
XRECORD
  5
318338BC
102
{ACAD_REACTORS
330
3183389F
102
}
330
3183389F
100
AcDbXrecord
 10
0.0
 20
0.0
 30
0.0
  0
XRECORD
  5
318338BD
102
{ACAD_REACTORS
330
3183389F
102
}
330
3183389F
100
AcDbXrecord
 10
0.0
 20
0.0
 30
0.0
  0
XRECORD
  5
318338BA
102
{ACAD_REACTORS
330
3183389F
102
}
330
3183389F
100
AcDbXrecord
 10
0.0
 20
0.0
 30
0.0
  0
XRECORD
  5
318338B7
102
{ACAD_REACTORS
330
3183389F
102
}
330
3183389F
100
AcDbXrecord
340
0
  0
XRECORD
  5
318338B8
102
{ACAD_REACTORS
330
3183389F
102
}
330
3183389F
100
AcDbXrecord
 70
     0
  0
XRECORD
  5
318338AB
102
{ACAD_REACTORS
330
3183389F
102
}
330
3183389F
100
AcDbXrecord
  1
{9BE382A2-23A6-49E5-AA93-1D8F32D2ADF0}
  0
DICTIONARYVAR
  5
3183389D
102
{ACAD_REACTORS
330
3183389C
102
}
330
3183389C
100
DictionaryVariables
280
     0
  1
0
  0
ENDSEC
  0
EOF
