  0
SECTION
  2
HEADER
  9
$ACADVER
  1
AC1014
  9
$ACADMAINTVER
 70
     9
  9
$DWGCODEPAGE
  3
ANSI_932
  9
$INSBASE
 10
0.0
 20
0.0
 30
0.0
  9
$EXTMIN
 10
-0.0058776843825399
 20
-0.0115630231639443
 30
-0.0000000000000058
  9
$EXTMAX
 10
543.039461581686
 20
273.0136233254121
 30
0.0000000000000104
  9
$LIMMIN
 10
0.0
 20
0.0
  9
$LIMMAX
 10
181.0
 20
273.0
  9
$ORTHOMODE
 70
     1
  9
$REGENMODE
 70
     1
  9
$FILLMODE
 70
     1
  9
$QTEXTMODE
 70
     0
  9
$MIRRTEXT
 70
     0
  9
$DRAGMODE
 70
     2
  9
$LTSCALE
 40
7.5
  9
$OSMODE
 70
   167
  9
$ATTMODE
 70
     1
  9
$TEXTSIZE
 40
4.5
  9
$TRACEWID
 40
0.05
  9
$TEXTSTYLE
  7
K
  9
$CLAYER
  8
JISSEN
  9
$CELTYPE
  6
BYLAYER
  9
$CECOLOR
 62
   256
  9
$CELTSCALE
 40
1.0
  9
$DELOBJ
 70
     1
  9
$DISPSILH
 70
     0
  9
$DIMSCALE
 40
1.5
  9
$DIMASZ
 40
1.5
  9
$DIMEXO
 40
1.0
  9
$DIMDLI
 40
6.0
  9
$DIMRND
 40
0.0
  9
$DIMDLE
 40
0.0
  9
$DIMEXE
 40
1.0
  9
$DIMTP
 40
0.0
  9
$DIMTM
 40
0.0
  9
$DIMTXT
 40
3.0
  9
$DIMCEN
 40
1.0
  9
$DIMTSZ
 40
0.0
  9
$DIMTOL
 70
     0
  9
$DIMLIM
 70
     0
  9
$DIMTIH
 70
     0
  9
$DIMTOH
 70
     0
  9
$DIMSE1
 70
     0
  9
$DIMSE2
 70
     0
  9
$DIMTAD
 70
     0
  9
$DIMZIN
 70
     8
  9
$DIMBLK
  1
ARROW
  9
$DIMASO
 70
     0
  9
$DIMSHO
 70
     0
  9
$DIMPOST
  1

  9
$DIMAPOST
  1

  9
$DIMALT
 70
     0
  9
$DIMALTD
 70
     2
  9
$DIMALTF
 40
25.4
  9
$DIMLFAC
 40
1.0
  9
$DIMTOFL
 70
     1
  9
$DIMTVP
 40
1.0
  9
$DIMTIX
 70
     0
  9
$DIMSOXD
 70
     0
  9
$DIMSAH
 70
     0
  9
$DIMBLK1
  1
ARROWANG
  9
$DIMBLK2
  1
ARROWANG
  9
$DIMSTYLE
  2
IMAO
  9
$DIMCLRD
 70
     0
  9
$DIMCLRE
 70
     0
  9
$DIMCLRT
 70
     0
  9
$DIMTFAC
 40
1.0
  9
$DIMGAP
 40
0.09
  9
$DIMJUST
 70
     0
  9
$DIMSD1
 70
     0
  9
$DIMSD2
 70
     0
  9
$DIMTOLJ
 70
     1
  9
$DIMTZIN
 70
     0
  9
$DIMALTZ
 70
     0
  9
$DIMALTTZ
 70
     0
  9
$DIMFIT
 70
     3
  9
$DIMUPT
 70
     0
  9
$DIMUNIT
 70
     2
  9
$DIMDEC
 70
     4
  9
$DIMTDEC
 70
     4
  9
$DIMALTU
 70
     2
  9
$DIMALTTD
 70
     2
  9
$DIMTXSTY
  7
STANDARD
  9
$DIMAUNIT
 70
     0
  9
$LUNITS
 70
     2
  9
$LUPREC
 70
     2
  9
$SKETCHINC
 40
0.1
  9
$FILLETRAD
 40
7.0
  9
$AUNITS
 70
     0
  9
$AUPREC
 70
     2
  9
$MENU
  1
stdr12j
  9
$ELEVATION
 40
0.0
  9
$PELEVATION
 40
0.0
  9
$THICKNESS
 40
0.0
  9
$LIMCHECK
 70
     0
  9
$BLIPMODE
 70
     0
  9
$CHAMFERA
 40
0.0
  9
$CHAMFERB
 40
0.0
  9
$CHAMFERC
 40
0.0
  9
$CHAMFERD
 40
0.0
  9
$SKPOLY
 70
     0
  9
$TDCREATE
 40
2450354.465940393
  9
$TDUPDATE
 40
2453334.725350405
  9
$TDINDWG
 40
0.0932215278
  9
$TDUSRTIMER
 40
0.0932215278
  9
$USRTIMER
 70
     1
  9
$ANGBASE
 50
0.0
  9
$ANGDIR
 70
     0
  9
$PDMODE
 70
     0
  9
$PDSIZE
 40
0.0
  9
$PLINEWID
 40
0.0
  9
$COORDS
 70
     2
  9
$SPLFRAME
 70
     0
  9
$SPLINETYPE
 70
     6
  9
$SPLINESEGS
 70
     8
  9
$ATTDIA
 70
     0
  9
$ATTREQ
 70
     1
  9
$HANDLING
 70
 22529
  9
$HANDSEED
  5
1D76AF1012
  9
$SURFTAB1
 70
     6
  9
$SURFTAB2
 70
     6
  9
$SURFTYPE
 70
     6
  9
$SURFU
 70
     6
  9
$SURFV
 70
     6
  9
$UCSNAME
  2

  9
$UCSORG
 10
0.0
 20
0.0
 30
0.0
  9
$UCSXDIR
 10
1.0
 20
0.0
 30
0.0
  9
$UCSYDIR
 10
0.0
 20
1.0
 30
0.0
  9
$PUCSNAME
  2

  9
$PUCSORG
 10
0.0
 20
0.0
 30
0.0
  9
$PUCSXDIR
 10
1.0
 20
0.0
 30
0.0
  9
$PUCSYDIR
 10
0.0
 20
1.0
 30
0.0
  9
$USERI1
 70
     4
  9
$USERI2
 70
     1
  9
$USERI3
 70
     1
  9
$USERI4
 70
     0
  9
$USERI5
 70
     0
  9
$USERR1
 40
1.5
  9
$USERR2
 40
3.0
  9
$USERR3
 40
3.0
  9
$USERR4
 40
1.5
  9
$USERR5
 40
8.0
  9
$WORLDVIEW
 70
     1
  9
$SHADEDGE
 70
     3
  9
$SHADEDIF
 70
    70
  9
$TILEMODE
 70
     1
  9
$MAXACTVP
 70
    16
  9
$PINSBASE
 10
0.0
 20
0.0
 30
0.0
  9
$PLIMCHECK
 70
     0
  9
$PEXTMIN
 10
1.000000000000000E+20
 20
1.000000000000000E+20
 30
1.000000000000000E+20
  9
$PEXTMAX
 10
-1.000000000000000E+20
 20
-1.000000000000000E+20
 30
-1.000000000000000E+20
  9
$PLIMMIN
 10
0.0
 20
0.0
  9
$PLIMMAX
 10
12.0
 20
9.0
  9
$UNITMODE
 70
     0
  9
$VISRETAIN
 70
     0
  9
$PLINEGEN
 70
     0
  9
$PSLTSCALE
 70
     0
  9
$TREEDEPTH
 70
  3020
  9
$PICKSTYLE
 70
     1
  9
$CMLSTYLE
  2
STANDARD
  9
$CMLJUST
 70
     0
  9
$CMLSCALE
 40
1.0
  9
$PROXYGRAPHICS
 70
     1
  9
$MEASUREMENT
 70
     0
  0
ENDSEC
  0
SECTION
  2
CLASSES
  0
CLASS
  1
LWPOLYLINE
  2
AcDbPolyline
  3
AutoCAD 2000
 90
        0
280
     0
281
     1
  0
CLASS
  1
ACDBDICTIONARYWDFLT
  2
AcDbDictionaryWithDefault
  3
AutoCAD 2000
 90
        0
280
     0
281
     0
  0
CLASS
  1
ACDBPLACEHOLDER
  2
AcDbPlaceHolder
  3
AutoCAD 2000
 90
        0
280
     0
281
     0
  0
CLASS
  1
LAYOUT
  2
AcDbLayout
  3
AutoCAD 2000
 90
        0
280
     0
281
     0
  0
CLASS
  1
LONG_TRANSACTION
  2
AcDbLongTransaction
  3
AutoCAD 2000
 90
        0
280
     0
281
     0
  0
CLASS
  1
LWPOLYLINE
  2
AcDbPolyline
  3
AutoCAD 2000
 90
        0
280
     0
281
     1
  0
CLASS
  1
HATCH
  2
AcDbHatch
  3
AutoCAD 2000
 90
        0
280
     0
281
     1
  0
CLASS
  1
XRECORD
  2
AcDbXrecord
  3
AutoCAD 2000
 90
        0
280
     0
281
     0
  0
CLASS
  1
LONG_TRANSACTION
  2
AcDbLongTransaction
  3
AutoCAD 2000
 90
        0
280
     0
281
     0
  0
CLASS
  1
LWPOLYLINE
  2
AcDbPolyline
  3
AutoCAD 2000
 90
        0
280
     0
281
     1
  0
CLASS
  1
HATCH
  2
AcDbHatch
  3
AutoCAD 2000
 90
        0
280
     0
281
     1
  0
CLASS
  1
XRECORD
  2
AcDbXrecord
  3
AutoCAD 2000
 90
        0
280
     0
281
     0
  0
CLASS
  1
DICTIONARYVAR
  2
AcDbDictionaryVar
  3
AutoCAD 2000
 90
        0
280
     0
281
     0
  0
CLASS
  1
LONG_TRANSACTION
  2
AcDbLongTransaction
  3
AutoCAD 2000
 90
        0
280
     0
281
     0
  0
CLASS
  1
LWPOLYLINE
  2
AcDbPolyline
  3
AutoCAD 2000
 90
        0
280
     0
281
     1
  0
CLASS
  1
HATCH
  2
AcDbHatch
  3
AutoCAD 2000
 90
        0
280
     0
281
     1
  0
CLASS
  1
XRECORD
  2
AcDbXrecord
  3
AutoCAD 2000
 90
        0
280
     0
281
     0
  0
ENDSEC
  0
SECTION
  2
TABLES
  0
TABLE
  2
VPORT
  5
1D76AF030B
330
0
100
AcDbSymbolTable
 70
    10
  0
VPORT
  5
1D76AF033F
330
1D76AF030B
100
AcDbSymbolTableRecord
100
AcDbViewportTableRecord
  2
2
 70
     0
 10
0.5
 20
0.0
 11
1.0
 21
1.0
 12
0.9240309999999999
 22
1.052651
 13
0.0
 23
0.0
 14
1.0
 24
1.0
 15
10.0
 25
10.0
 16
0.0
 26
0.0
 36
1.0
 17
0.0
 27
0.0
 37
0.0
 40
2.105302
 41
0.877814
 42
50.0
 43
0.0
 44
0.0
 50
0.0
 51
0.0
 71
     0
 72
   500
 73
     1
 74
     1
 75
     0
 76
     0
 77
     0
 78
     0
  0
VPORT
  5
1D76AF0340
330
1D76AF030B
100
AcDbSymbolTableRecord
100
AcDbViewportTableRecord
  2
2
 70
     0
 10
0.0
 20
0.0
 11
0.5
 21
1.0
 12
0.9240309999999999
 22
1.052651
 13
0.0
 23
0.0
 14
1.0
 24
1.0
 15
10.0
 25
10.0
 16
0.0
 26
0.0
 36
1.0
 17
0.0
 27
0.0
 37
0.0
 40
2.105302
 41
0.877814
 42
50.0
 43
0.0
 44
0.0
 50
0.0
 51
0.0
 71
     0
 72
   500
 73
     1
 74
     1
 75
     0
 76
     0
 77
     0
 78
     0
  0
VPORT
  5
1D76AF0341
330
1D76AF030B
100
AcDbSymbolTableRecord
100
AcDbViewportTableRecord
  2
3
 70
     0
 10
0.0
 20
0.5
 11
1.0
 21
1.0
 12
2.832169999999999
 22
1.052651
 13
0.0
 23
0.0
 14
1.0
 24
1.0
 15
10.0
 25
10.0
 16
0.0
 26
0.0
 36
1.0
 17
0.0
 27
0.0
 37
0.0
 40
2.105302
 41
3.571429
 42
50.0
 43
0.0
 44
0.0
 50
0.0
 51
0.0
 71
     0
 72
   500
 73
     1
 74
     1
 75
     0
 76
     0
 77
     0
 78
     0
  0
VPORT
  5
1D76AF0342
330
1D76AF030B
100
AcDbSymbolTableRecord
100
AcDbViewportTableRecord
  2
3
 70
     0
 10
0.0
 20
0.0
 11
1.0
 21
0.5
 12
2.856741999999999
 22
1.052651
 13
0.0
 23
0.0
 14
1.0
 24
1.0
 15
10.0
 25
10.0
 16
0.0
 26
0.0
 36
1.0
 17
0.0
 27
0.0
 37
0.0
 40
2.105302
 41
3.594770999999999
 42
50.0
 43
0.0
 44
0.0
 50
0.0
 51
0.0
 71
     0
 72
   500
 73
     1
 74
     1
 75
     0
 76
     0
 77
     0
 78
     0
  0
VPORT
  5
1D76AF0343
330
1D76AF030B
100
AcDbSymbolTableRecord
100
AcDbViewportTableRecord
  2
4
 70
     0
 10
0.5
 20
0.0
 11
1.0
 21
0.5
 12
2.886858
 22
1.052651
 13
0.0
 23
0.0
 14
1.0
 24
1.0
 15
10.0
 25
10.0
 16
0.0
 26
0.0
 36
1.0
 17
0.0
 27
0.0
 37
0.0
 40
4.275206999999999
 41
1.784314
 42
50.0
 43
0.0
 44
0.0
 50
0.0
 51
0.0
 71
     0
 72
   500
 73
     1
 74
     1
 75
     0
 76
     0
 77
     0
 78
     0
  0
VPORT
  5
1D76AF0344
330
1D76AF030B
100
AcDbSymbolTableRecord
100
AcDbViewportTableRecord
  2
4
 70
     0
 10
0.5
 20
0.5
 11
1.0
 21
1.0
 12
2.86209
 22
1.052651
 13
0.0
 23
0.0
 14
1.0
 24
1.0
 15
10.0
 25
10.0
 16
0.0
 26
0.0
 36
1.0
 17
0.0
 27
0.0
 37
0.0
 40
4.275206999999999
 41
1.772726999999999
 42
50.0
 43
0.0
 44
0.0
 50
0.0
 51
0.0
 71
     0
 72
   500
 73
     1
 74
     1
 75
     0
 76
     0
 77
     0
 78
     0
  0
VPORT
  5
1D76AF0345
330
1D76AF030B
100
AcDbSymbolTableRecord
100
AcDbViewportTableRecord
  2
4
 70
     0
 10
0.0
 20
0.5
 11
0.5
 21
1.0
 12
2.86209
 22
1.052651
 13
0.0
 23
0.0
 14
1.0
 24
1.0
 15
10.0
 25
10.0
 16
0.0
 26
0.0
 36
1.0
 17
0.0
 27
0.0
 37
0.0
 40
4.275206999999999
 41
1.772726999999999
 42
50.0
 43
0.0
 44
0.0
 50
0.0
 51
0.0
 71
     0
 72
   500
 73
     1
 74
     1
 75
     0
 76
     0
 77
     0
 78
     0
  0
VPORT
  5
1D76AF0346
330
1D76AF030B
100
AcDbSymbolTableRecord
100
AcDbViewportTableRecord
  2
4
 70
     0
 10
0.0
 20
0.0
 11
0.5
 21
0.5
 12
2.886858
 22
1.052651
 13
0.0
 23
0.0
 14
1.0
 24
1.0
 15
10.0
 25
10.0
 16
0.0
 26
0.0
 36
1.0
 17
0.0
 27
0.0
 37
0.0
 40
4.275206999999999
 41
1.784314
 42
50.0
 43
0.0
 44
0.0
 50
0.0
 51
0.0
 71
     0
 72
   500
 73
     1
 74
     1
 75
     0
 76
     0
 77
     0
 78
     0
  0
VPORT
  5
1D76AF0FEE
330
1D76AF030B
100
AcDbSymbolTableRecord
100
AcDbViewportTableRecord
  2
*ACTIVE
 70
     0
 10
0.0
 20
0.0
 11
1.0
 21
1.0
 12
271.5167919486517
 22
136.5010301511241
 13
0.0
 23
0.0
 14
1.0
 24
1.0
 15
10.0
 25
10.0
 16
0.0
 26
0.0
 36
1.0
 17
0.0
 27
0.0
 37
0.0
 40
308.4014965047878
 41
1.771962616822429
 42
50.0
 43
0.0
 44
0.0
 50
0.0
 51
0.0
 71
     0
 72
   500
 73
     1
 74
     0
 75
     0
 76
     0
 77
     0
 78
     0
  0
ENDTAB
  0
TABLE
  2
LTYPE
  5
1D76AF0308
330
0
100
AcDbSymbolTable
 70
     4
  0
LTYPE
  5
1D76AF0315
330
1D76AF0308
100
AcDbSymbolTableRecord
100
AcDbLinetypeTableRecord
  2
BYBLOCK
 70
     0
  3

 72
    65
 73
     0
 40
0.0
  0
LTYPE
  5
1D76AF0316
330
1D76AF0308
100
AcDbSymbolTableRecord
100
AcDbLinetypeTableRecord
  2
BYLAYER
 70
     0
  3

 72
    65
 73
     0
 40
0.0
  0
LTYPE
  5
1D76AF0317
330
1D76AF0308
100
AcDbSymbolTableRecord
100
AcDbLinetypeTableRecord
  2
CONTINUOUS
 70
     0
  3
実線
 72
    65
 73
     0
 40
0.0
  0
LTYPE
  5
1D76AF033C
330
1D76AF0308
100
AcDbSymbolTableRecord
100
AcDbLinetypeTableRecord
  2
CENTER
 70
     0
  3
____ _ ____ _ ____ _ ____ _ ____ _ ____ _ ____
 72
    65
 73
     4
 40
2.0
 49
1.25
 74
     0
 49
-0.25
 74
     0
 49
0.25
 74
     0
 49
-0.25
 74
     0
  0
LTYPE
  5
1D76AF033D
330
1D76AF0308
100
AcDbSymbolTableRecord
100
AcDbLinetypeTableRecord
  2
PHANTOM
 70
     0
  3
_____ _ _ _____ _ _ _____ _ _ _____ _ _ ____
 72
    65
 73
     6
 40
2.5
 49
1.25
 74
     0
 49
-0.25
 74
     0
 49
0.25
 74
     0
 49
-0.25
 74
     0
 49
0.25
 74
     0
 49
-0.25
 74
     0
  0
LTYPE
  5
1D76AF033E
330
1D76AF0308
100
AcDbSymbolTableRecord
100
AcDbLinetypeTableRecord
  2
HIDDEN
 70
     0
  3
_ _ _ _ _ _ _ _ _ _ _ _ _ _ _ _ _ _ _ _ _ _ _
 72
    65
 73
     2
 40
0.375
 49
0.25
 74
     0
 49
-0.125
 74
     0
  0
ENDTAB
  0
TABLE
  2
LAYER
  5
1D76AF0305
330
0
100
AcDbSymbolTable
 70
     9
  0
LAYER
  5
1D76AF0312
330
1D76AF0305
100
AcDbSymbolTableRecord
100
AcDbLayerTableRecord
  2
0
 70
     0
 62
     6
  6
CONTINUOUS
  0
LAYER
  5
1D76AF034A
330
1D76AF0305
100
AcDbSymbolTableRecord
100
AcDbLayerTableRecord
  2
ITTEN
 70
     0
 62
     1
  6
CENTER
  0
LAYER
  5
1D76AF034B
330
1D76AF0305
100
AcDbSymbolTableRecord
100
AcDbLayerTableRecord
  2
NITEN
 70
     0
 62
     2
  6
PHANTOM
  0
LAYER
  5
1D76AF034D
330
1D76AF0305
100
AcDbSymbolTableRecord
100
AcDbLayerTableRecord
  2
SUNPOU
 70
     0
 62
     3
  6
CONTINUOUS
  0
LAYER
  5
1D76AF034E
330
1D76AF0305
100
AcDbSymbolTableRecord
100
AcDbLayerTableRecord
  2
TEXT
 70
     0
 62
     3
  6
CONTINUOUS
  0
LAYER
  5
1D76AF034F
330
1D76AF0305
100
AcDbSymbolTableRecord
100
AcDbLayerTableRecord
  2
SAISEN
 70
     0
 62
     4
  6
CONTINUOUS
  0
LAYER
  5
1D76AF0350
330
1D76AF0305
100
AcDbSymbolTableRecord
100
AcDbLayerTableRecord
  2
JISSEN
 70
     0
 62
     7
  6
CONTINUOUS
  0
LAYER
  5
1D76AF0352
330
1D76AF0305
100
AcDbSymbolTableRecord
100
AcDbLayerTableRecord
  2
TENSEN
 70
     0
 62
     2
  6
HIDDEN
  0
LAYER
  5
1D76AF0354
330
1D76AF0305
100
AcDbSymbolTableRecord
100
AcDbLayerTableRecord
  2
WAKU
 70
     0
 62
     5
  6
CONTINUOUS
  0
ENDTAB
  0
TABLE
  2
STYLE
  5
1D76AF0306
330
0
100
AcDbSymbolTable
 70
     2
  0
STYLE
  5
1D76AF0313
330
1D76AF0306
100
AcDbSymbolTableRecord
100
AcDbTextStyleTableRecord
  2
STANDARD
 70
     0
 40
0.0
 41
1.0
 50
0.0
 71
     0
 42
3.0
  3
SIMPLEX
  4

  0
STYLE
  5
1D76AF0337
330
1D76AF0306
100
AcDbSymbolTableRecord
100
AcDbTextStyleTableRecord
  2
K
 70
     0
 40
0.0
 41
1.0
 50
0.0
 71
     0
 42
4.5
  3
ROMANS
  4
bigfont.shx
  0
ENDTAB
  0
TABLE
  2
VIEW
  5
1D76AF0309
330
0
100
AcDbSymbolTable
 70
     0
  0
ENDTAB
  0
TABLE
  2
UCS
  5
1D76AF030A
330
0
100
AcDbSymbolTable
 70
     0
  0
ENDTAB
  0
TABLE
  2
APPID
  5
1D76AF030C
330
0
100
AcDbSymbolTable
 70
     1
  0
APPID
  5
1D76AF0314
330
1D76AF030C
100
AcDbSymbolTableRecord
100
AcDbRegAppTableRecord
  2
ACAD
 70
     0
  0
ENDTAB
  0
TABLE
  2
DIMSTYLE
  5
1D76AF030D
330
0
100
AcDbSymbolTable
 70
     2
  0
DIMSTYLE
105
1D76AF0349
330
1D76AF030D
100
AcDbSymbolTableRecord
100
AcDbDimStyleTableRecord
  2
IMAO
 70
     0
  3

  4

  5
ARROWANG
  6
ARROWANG
  7
ARROWANG
 40
1.0
 41
1.5
 42
1.0
 43
6.0
 44
1.0
 45
0.0
 46
0.0
 47
495.0
 48
0.0
140
3.0
141
0.0
142
0.0
143
25.4
144
1.0
145
0.0
146
1.0
147
0.09
 71
     0
 72
     0
 73
     0
 74
     0
 75
     0
 76
     0
 77
     1
 78
     8
170
     0
171
     2
172
     1
173
     0
174
     1
175
     0
176
     0
177
     0
178
     0
270
     2
271
     2
272
     2
273
     2
274
     2
340
1D76AF0337
275
     0
280
     0
281
     0
282
     0
283
     1
284
     8
285
     8
286
     8
287
     5
288
     0
  0
DIMSTYLE
105
1D76AF0366
330
1D76AF030D
100
AcDbSymbolTableRecord
100
AcDbDimStyleTableRecord
  2
STANDARD
 70
     0
  3

  4

  5

  6

  7

 40
1.0
 41
0.18
 42
0.0625
 43
0.38
 44
0.18
 45
0.0
 46
0.0
 47
0.0
 48
0.0
140
0.18
141
0.09
142
0.0
143
25.4
144
1.0
145
0.0
146
1.0
147
0.09
 71
     0
 72
     0
 73
     1
 74
     1
 75
     0
 76
     0
 77
     0
 78
     0
170
     0
171
     2
172
     0
173
     0
174
     0
175
     0
176
     0
177
     0
178
     0
270
     2
271
     2
272
     2
273
     2
274
     2
340
1D76AF0337
275
     0
280
     0
281
     0
282
     0
283
     1
284
     0
285
     0
286
     0
287
     5
288
     0
  0
ENDTAB
  0
TABLE
  2
BLOCK_RECORD
  5
1D76AF0304
330
0
100
AcDbSymbolTable
 70
     4
  0
BLOCK_RECORD
  5
1D76AF031B
102
{ACAD_XDICTIONARY
360
1D76AF0F7C
102
}
330
1D76AF0304
100
AcDbSymbolTableRecord
100
AcDbBlockTableRecord
  2
*MODEL_SPACE
  0
BLOCK_RECORD
  5
1D76AF0318
102
{ACAD_XDICTIONARY
360
1D76AF0F7A
102
}
330
1D76AF0304
100
AcDbSymbolTableRecord
100
AcDbBlockTableRecord
  2
*PAPER_SPACE
  0
BLOCK_RECORD
  5
1D76AF0324
330
1D76AF0304
100
AcDbSymbolTableRecord
100
AcDbBlockTableRecord
  2
STDGX5
  0
BLOCK_RECORD
  5
1D76AF0325
330
1D76AF0304
100
AcDbSymbolTableRecord
100
AcDbBlockTableRecord
  2
ARROWANG
  0
BLOCK_RECORD
  5
1D76AF0326
330
1D76AF0304
100
AcDbSymbolTableRecord
100
AcDbBlockTableRecord
  2
STDR12J
  0
BLOCK_RECORD
  5
1D76AF0327
330
1D76AF0304
100
AcDbSymbolTableRecord
100
AcDbBlockTableRecord
  2
ARROW
  0
ENDTAB
  0
ENDSEC
  0
SECTION
  2
BLOCKS
  0
BLOCK
  5
1D76AF0359
330
1D76AF031B
100
AcDbEntity
  8
0
100
AcDbBlockBegin
  2
*MODEL_SPACE
 70
     0
 10
0.0
 20
0.0
 30
0.0
  3
*MODEL_SPACE
  1

  0
ENDBLK
  5
1D76AF035A
330
1D76AF031B
100
AcDbEntity
  8
0
100
AcDbBlockEnd
  0
BLOCK
  5
1D76AF0357
330
1D76AF0318
100
AcDbEntity
 67
     1
  8
0
100
AcDbBlockBegin
  2
*PAPER_SPACE
 70
     0
 10
0.0
 20
0.0
 30
0.0
  3
*PAPER_SPACE
  1

  0
ENDBLK
  5
1D76AF0358
330
1D76AF0318
100
AcDbEntity
 67
     1
  8
0
100
AcDbBlockEnd
  0
BLOCK
  5
234
330
1D76AF0324
100
AcDbEntity
  8
0
100
AcDbBlockBegin
  2
STDGX5
 70
     0
 10
0.0
 20
0.0
 30
0.0
  3
STDGX5
  1

  0
ENDBLK
  5
235
330
1D76AF0324
100
AcDbEntity
  8
0
100
AcDbBlockEnd
  0
BLOCK
  5
236
330
1D76AF0325
100
AcDbEntity
  8
0
100
AcDbBlockBegin
  2
ARROWANG
 70
     0
 10
0.0
 20
0.0
 30
0.0
  3
ARROWANG
  1

  0
LINE
  5
237
330
1D76AF0325
100
AcDbEntity
  8
SUNPOU
100
AcDbLine
 10
0.0
 20
0.0
 30
0.0
 11
-1.5
 21
0.401924
 31
0.0
  0
LINE
  5
238
330
1D76AF0325
100
AcDbEntity
  8
SUNPOU
100
AcDbLine
 10
0.0
 20
0.0
 30
0.0
 11
-1.5
 21
-0.401924
 31
0.0
  0
ENDBLK
  5
239
330
1D76AF0325
100
AcDbEntity
  8
0
100
AcDbBlockEnd
  0
BLOCK
  5
355
330
1D76AF0326
100
AcDbEntity
  8
0
100
AcDbBlockBegin
  2
STDR12J
 70
     0
 10
0.0
 20
0.0
 30
0.0
  3
STDR12J
  1

  0
ENDBLK
  5
37A
330
1D76AF0326
100
AcDbEntity
  8
0
100
AcDbBlockEnd
  0
BLOCK
  5
357
330
1D76AF0327
100
AcDbEntity
  8
0
100
AcDbBlockBegin
  2
ARROW
 70
     0
 10
1.0
 20
0.5
 30
0.0
  3
ARROW
  1

  0
LINE
  5
358
330
1D76AF0327
100
AcDbEntity
  8
0
100
AcDbLine
 10
1.0
 20
0.5
 30
0.0
 11
-0.5
 21
0.098076
 31
0.0
  0
LINE
  5
359
330
1D76AF0327
100
AcDbEntity
  8
0
100
AcDbLine
 10
0.0
 20
0.5
 30
0.0
 11
1.0
 21
0.5
 31
0.0
  0
LINE
  5
35A
330
1D76AF0327
100
AcDbEntity
  8
0
100
AcDbLine
 10
1.0
 20
0.5
 30
0.0
 11
-0.5
 21
0.9019239999999999
 31
0.0
  0
ENDBLK
  5
35B
330
1D76AF0327
100
AcDbEntity
  8
0
100
AcDbBlockEnd
  0
ENDSEC
  0
SECTION
  2
ENTITIES
  0
INSERT
  5
55
330
1D76AF031B
100
AcDbEntity
  8
JISSEN
100
AcDbBlockReference
  2
STDGX5
 10
0.0
 20
0.0
 30
0.0
  0
TEXT
  5
9F
330
1D76AF031B
100
AcDbEntity
  8
TEXT
100
AcDbText
 10
121.4620719999999
 20
54.429308
 30
0.0
 40
4.0
  1
　　　　
  7
K
100
AcDbText
  0
INSERT
  5
37B
330
1D76AF031B
100
AcDbEntity
  8
JISSEN
100
AcDbBlockReference
  2
STDR12J
 10
0.0
 20
0.0
 30
0.0
  0
TEXT
  5
914BC56
330
1D76AF031B
100
AcDbEntity
  8
TEXT
100
AcDbText
 10
109.7999993333332
 20
262.3999999999998
 30
0.0
 40
2.999999999999997
  1
ガ ー ド
  7
K
 72
     4
 11
116.4999993333332
 21
263.9999999999998
 31
0.0
100
AcDbText
  0
TEXT
  5
914BC57
330
1D76AF031B
100
AcDbEntity
  8
TEXT
100
AcDbText
 10
137.5714279047618
 20
262.4999999999998
 30
0.0
 40
2.999999999999997
  1
ZDC
  7
K
 72
     4
 11
141.9999993333332
 21
263.9999999999998
 31
0.0
100
AcDbText
  0
TEXT
  5
914BC58
330
1D76AF031B
100
AcDbEntity
  8
TEXT
100
AcDbText
 10
156.7857136190474
 20
262.4999999999998
 30
0.0
 40
2.999999999999997
  1
1
  7
K
 72
     4
 11
157.9999993333332
 21
263.9999999999998
 31
0.0
100
AcDbText
  0
LINE
  5
D96C777
330
1D76AF031B
100
AcDbEntity
  8
JISSEN
100
AcDbLine
 10
91.49999933333328
 20
266.9999999999997
 30
0.0
 11
180.9999993333332
 21
266.9999999999997
 31
0.0
  0
LINE
  5
D96C778
330
1D76AF031B
100
AcDbEntity
  8
JISSEN
100
AcDbLine
 10
91.49999933333328
 20
260.9999999999998
 30
0.0
 11
180.9999993333332
 21
260.9999999999998
 31
0.0
  0
TEXT
  5
D96C779
330
1D76AF031B
100
AcDbEntity
  8
TEXT
100
AcDbText
 10
107.8999993333332
 20
268.4999999999997
 30
0.0
 40
2.999999999999997
  1
名      称
  7
K
 72
     4
 11
116.4999993333332
 21
269.9999999999997
 31
0.0
100
AcDbText
  0
TEXT
  5
D96C77A
330
1D76AF031B
100
AcDbEntity
  8
TEXT
100
AcDbText
 10
93.29999933333327
 20
268.4999999999997
 30
0.0
 40
2.999999999999997
  1
番号
  7
K
 72
     4
 11
96.49999933333328
 21
269.9999999999997
 31
0.0
100
AcDbText
  0
LINE
  5
D96C77B
330
1D76AF031B
100
AcDbEntity
  8
JISSEN
100
AcDbLine
 10
91.49999933333328
 20
260.9999999999998
 30
0.0
 11
91.49999933333328
 21
272.9999999999997
 31
0.0
  0
LINE
  5
D96C77C
330
1D76AF031B
100
AcDbEntity
  8
JISSEN
100
AcDbLine
 10
101.4999993333332
 20
272.9999999999997
 30
0.0
 11
101.4999993333332
 21
260.9999999999998
 31
0.0
  0
TEXT
  5
D96C77D
330
1D76AF031B
100
AcDbEntity
  8
TEXT
100
AcDbText
 10
135.1999993333332
 20
268.4999999999997
 30
0.0
 40
2.999999999999997
  1
材    質
  7
K
 72
     4
 11
141.9999993333332
 21
269.9999999999997
 31
0.0
100
AcDbText
  0
LINE
  5
D96C77E
330
1D76AF031B
100
AcDbEntity
  8
JISSEN
100
AcDbLine
 10
131.4999993333332
 20
272.9999999999997
 30
0.0
 11
131.4999993333332
 21
260.9999999999998
 31
0.0
  0
LINE
  5
D96C77F
330
1D76AF031B
100
AcDbEntity
  8
JISSEN
100
AcDbLine
 10
152.4999993333332
 20
260.9999999999998
 30
0.0
 11
152.4999993333332
 21
272.9999999999997
 31
0.0
  0
TEXT
  5
D96C780
330
1D76AF031B
100
AcDbEntity
  8
TEXT
100
AcDbText
 10
165.6999993333332
 20
268.4999999999997
 30
0.0
 40
2.999999999999997
  1
備    考
  7
K
 72
     4
 11
172.4999993333332
 21
269.9999999999997
 31
0.0
100
AcDbText
  0
TEXT
  5
D96C781
330
1D76AF031B
100
AcDbEntity
  8
TEXT
100
AcDbText
 10
154.7999993333332
 20
268.4999999999997
 30
0.0
 40
2.999999999999997
  1
個数
  7
K
 72
     4
 11
157.9999993333332
 21
269.9999999999997
 31
0.0
100
AcDbText
  0
LINE
  5
D96C782
330
1D76AF031B
100
AcDbEntity
  8
JISSEN
100
AcDbLine
 10
163.4999993333332
 20
272.9999999999997
 30
0.0
 11
163.4999993333332
 21
260.9999999999998
 31
0.0
  0
LWPOLYLINE
  5
1D76AF002F
330
1D76AF031B
100
AcDbEntity
  8
JISSEN
100
AcDbPolyline
 90
       15
 70
     0
 43
0.0
 10
59.42811866666662
 20
122.9942539999999
 10
68.24707333333329
 20
122.9942539999999
 42
0.493145
 10
69.69596199999995
 20
124.8824826666665
 10
68.21339599999994
 20
130.4154953333332
 42
0.165101
 10
68.03481333333327
 20
130.6827626666665
 10
65.15707333333328
 20
132.8909306666665
 42
0.165101
 10
64.85269266666661
 20
132.9942539999999
 10
42.67811866666663
 20
132.9942539999999
 10
20.50354533333331
 20
132.9942539999999
 42
0.165101
 10
20.19916466666665
 20
132.8909306666665
 10
17.32142399999998
 20
130.6827626666665
 42
0.165101
 10
17.14284199999998
 20
130.4154953333332
 10
15.66027533333332
 20
124.8824826666665
 42
0.493145
 10
17.10916399999999
 20
122.9942539999999
 10
25.92811866666664
 20
122.9942539999999
  0
LINE
  5
1D76AF0045
330
1D76AF031B
100
AcDbEntity
  8
JISSEN
100
AcDbLine
 10
9.797711999999989
 20
124.5164826666665
 30
0.0
 11
16.87489266666665
 21
129.4154953333332
 31
0.0
  0
LINE
  5
1D76AF0046
330
1D76AF031B
100
AcDbEntity
  8
JISSEN
100
AcDbLine
 10
75.55852599999991
 20
124.5164826666665
 30
0.0
 11
68.48134533333331
 21
129.4154953333332
 31
0.0
  0
LINE
  5
1D76AF0047
330
1D76AF031B
100
AcDbEntity
  8
JISSEN
100
AcDbLine
 10
27.17811866666664
 20
132.9942539999999
 30
0.0
 11
27.17811866666664
 21
125.1371113333332
 31
0.0
  0
LINE
  5
1D76AF0048
330
1D76AF031B
100
AcDbEntity
  8
JISSEN
100
AcDbLine
 10
58.17811866666665
 20
132.9942539999999
 30
0.0
 11
58.17811866666665
 21
125.1371113333332
 31
0.0
  0
LWPOLYLINE
  5
1D76AF004A
330
1D76AF031B
100
AcDbEntity
  8
JISSEN
100
AcDbPolyline
 90
        4
 70
     0
 43
0.0
 10
59.17811866666663
 20
92.99425399999995
 10
72.67811866666662
 20
92.99425399999995
 10
77.67811866666661
 20
94.49425399999993
 10
7.67811866666666
 20
94.49425399999993
  0
LWPOLYLINE
  5
1D76AF0050
330
1D76AF031B
100
AcDbEntity
  8
JISSEN
100
AcDbPolyline
 90
        4
 70
     0
 43
0.0
 10
59.17811866666663
 20
96.99425399999995
 10
72.67811866666662
 20
96.99425399999995
 10
77.67811866666661
 20
95.49425399999995
 10
7.67811866666666
 20
95.49425399999995
  0
LWPOLYLINE
  5
1D76AF0057
330
1D76AF031B
100
AcDbEntity
  8
JISSEN
100
AcDbPolyline
 90
        2
 70
     0
 43
0.0
 10
30.17811866666664
 20
96.99425399999995
 10
55.17811866666662
 20
96.99425399999995
  0
LWPOLYLINE
  5
1D76AF005B
330
1D76AF031B
100
AcDbEntity
  8
JISSEN
100
AcDbPolyline
 90
        2
 70
     0
 43
0.0
 10
30.42811866666664
 20
92.99425399999995
 10
54.92811866666663
 20
92.99425399999995
  0
ARC
  5
1D76AF005F
330
1D76AF031B
100
AcDbEntity
  8
JISSEN
100
AcDbCircle
 10
42.67811866666664
 20
92.99425399999995
 30
0.0
 40
29.99999999999998
100
AcDbArc
 50
246.417804
 51
293.582196
  0
LWPOLYLINE
  5
1D76AF0060
330
1D76AF031B
100
AcDbEntity
  8
JISSEN
100
AcDbPolyline
 90
        2
 70
     0
 43
0.0
 10
30.17811866666664
 20
122.9942539999999
 10
42.67811866666663
 20
122.9942539999999
  0
ARC
  5
1D76AF0064
330
1D76AF031B
100
AcDbEntity
  8
JISSEN
100
AcDbCircle
 10
42.67811866666664
 20
92.99425399999995
 30
0.0
 40
34.99999999999997
100
AcDbArc
 50
180.0
 51
0.0
  0
LWPOLYLINE
  5
1D76AF0065
330
1D76AF031B
100
AcDbEntity
  8
JISSEN
100
AcDbPolyline
 90
        5
 70
     1
 43
0.0
 10
26.17811866666665
 20
92.99425399999995
 10
25.92811866666664
 20
82.04113199999993
 10
25.75464666666665
 20
68.22338199999994
 10
27.67811866666665
 20
61.37147733333327
 10
27.67811866666665
 20
94.49425399999993
  0
LWPOLYLINE
  5
1D76AF006C
330
1D76AF031B
100
AcDbEntity
  8
JISSEN
100
AcDbPolyline
 90
        4
 70
     1
 43
0.0
 10
28.67811866666665
 20
60.91622399999995
 10
30.67619066666664
 20
65.49964133333329
 10
30.42811866666664
 20
92.99425399999995
 10
28.67811866666665
 20
94.49425399999993
  0
ARC
  5
1D76AF0072
330
1D76AF031B
100
AcDbEntity
  8
JISSEN
100
AcDbCircle
 10
42.67811866666664
 20
92.99425399999995
 30
0.0
 40
29.99999999999998
100
AcDbArc
 50
180.0
 51
235.659091
  0
LWPOLYLINE
  5
1D76AF0073
330
1D76AF031B
100
AcDbEntity
  8
JISSEN
100
AcDbPolyline
 90
        6
 70
     1
 43
0.0
 10
14.75491399999999
 20
116.8301526666665
 10
16.58170866666665
 20
119.9942539999999
 10
14.75491399999999
 20
123.1583553333332
 10
11.10132399999999
 20
123.1583553333332
 10
9.274529333333326
 20
119.9942539999999
 10
11.10132399999999
 20
116.8301526666665
  0
LWPOLYLINE
  5
1D76AF007B
330
1D76AF031B
100
AcDbEntity
  8
JISSEN
100
AcDbPolyline
 90
        3
 70
     0
 43
0.0
 10
7.67811866666666
 20
94.49425399999993
 10
12.67811866666666
 20
92.99425399999995
 10
26.17811866666665
 20
92.99425399999995
  0
LWPOLYLINE
  5
1D76AF0080
330
1D76AF031B
100
AcDbEntity
  8
JISSEN
100
AcDbPolyline
 90
        3
 70
     0
 43
0.0
 10
7.67811866666666
 20
95.49425399999995
 10
12.67811866666666
 20
96.99425399999995
 10
26.17811866666665
 20
96.99425399999995
  0
LWPOLYLINE
  5
1D76AF0086
330
1D76AF031B
100
AcDbEntity
  8
JISSEN
100
AcDbPolyline
 90
        6
 70
     1
 43
0.0
 10
14.92811866666665
 20
116.5301526666665
 10
16.92811866666665
 20
119.9942539999999
 10
14.92811866666665
 20
123.4583553333332
 10
10.92811866666665
 20
123.4583553333332
 10
8.928118666666659
 20
119.9942539999999
 10
10.92811866666665
 20
116.5301526666665
  0
ARC
  5
1D76AF008E
330
1D76AF031B
100
AcDbEntity
  8
JISSEN
100
AcDbCircle
 10
12.92811866666665
 20
119.9942539999999
 30
0.0
 40
5.499999999999996
100
AcDbArc
 50
60.495476
 51
33.055731
  0
LINE
  5
1D76AF008F
330
1D76AF031B
100
AcDbEntity
  8
JISSEN
100
AcDbLine
 10
7.678118666666648
 20
118.3548946666665
 30
0.0
 11
7.678118666666648
 21
92.99425399999995
 31
0.0
  0
LINE
  5
1D76AF0090
330
1D76AF031B
100
AcDbEntity
  8
JISSEN
100
AcDbLine
 10
12.67811866666664
 20
114.4999386666665
 30
0.0
 11
12.67811866666664
 21
96.99425399999995
 31
0.0
  0
CIRCLE
  5
1D76AF0092
330
1D76AF031B
100
AcDbEntity
  8
JISSEN
100
AcDbCircle
 10
12.92811866666665
 20
119.9942539999999
 30
0.0
 40
1.999999999999998
  0
LWPOLYLINE
  5
1D76AF0093
330
1D76AF031B
100
AcDbEntity
  8
JISSEN
100
AcDbPolyline
 90
        4
 70
     1
 43
0.0
 10
27.67811866666665
 20
95.49425399999995
 10
27.67811866666665
 20
125.9942539999999
 10
25.92811866666664
 20
122.9942539999999
 10
26.17811866666665
 20
96.99425399999995
  0
LWPOLYLINE
  5
1D76AF0099
330
1D76AF031B
100
AcDbEntity
  8
JISSEN
100
AcDbPolyline
 90
        4
 70
     1
 43
0.0
 10
30.17811866666664
 20
96.99425399999995
 10
28.67811866666665
 20
95.49425399999995
 10
28.67811866666665
 20
125.9942539999999
 10
30.17811866666664
 20
122.9942539999999
  0
ARC
  5
1D76AF009F
330
1D76AF031B
100
AcDbEntity
  8
JISSEN
100
AcDbCircle
 10
42.67811866666664
 20
92.99425399999995
 30
0.0
 40
29.99999999999998
100
AcDbArc
 50
304.340909
 51
0.0
  0
LWPOLYLINE
  5
1D76AF00A0
330
1D76AF031B
100
AcDbEntity
  8
JISSEN
100
AcDbPolyline
 90
        5
 70
     1
 43
0.0
 10
59.17811866666663
 20
92.99425399999995
 10
59.42811866666662
 20
82.04113199999993
 10
59.60159066666662
 20
68.22338199999994
 10
57.67811866666662
 20
61.37147733333327
 10
57.67811866666662
 20
94.49425399999993
  0
LWPOLYLINE
  5
1D76AF00A7
330
1D76AF031B
100
AcDbEntity
  8
JISSEN
100
AcDbPolyline
 90
        4
 70
     1
 43
0.0
 10
56.67811866666663
 20
60.91622399999995
 10
54.68004666666661
 20
65.49964133333329
 10
54.92811866666663
 20
92.99425399999995
 10
56.67811866666663
 20
94.49425399999993
  0
LWPOLYLINE
  5
1D76AF00AD
330
1D76AF031B
100
AcDbEntity
  8
JISSEN
100
AcDbPolyline
 90
        2
 70
     0
 43
0.0
 10
42.67811866666663
 20
122.9942539999999
 10
55.17811866666662
 20
122.9942539999999
 42
0.493145
  0
LWPOLYLINE
  5
1D76AF00B1
330
1D76AF031B
100
AcDbEntity
  8
JISSEN
100
AcDbPolyline
 90
        4
 70
     1
 43
0.0
 10
55.17811866666662
 20
96.99425399999995
 10
56.67811866666663
 20
95.49425399999995
 10
56.67811866666663
 20
125.9942539999999
 10
55.17811866666662
 20
122.9942539999999
  0
LWPOLYLINE
  5
1D76AF00B7
330
1D76AF031B
100
AcDbEntity
  8
JISSEN
100
AcDbPolyline
 90
        4
 70
     1
 43
0.0
 10
57.67811866666662
 20
95.49425399999995
 10
57.67811866666662
 20
125.9942539999999
 10
59.42811866666662
 20
122.9942539999999
 10
59.17811866666663
 20
96.99425399999995
  0
LINE
  5
1D76AF00C1
330
1D76AF031B
100
AcDbEntity
  8
JISSEN
100
AcDbLine
 10
72.67811866666659
 20
114.4999386666665
 30
0.0
 11
72.67811866666659
 21
96.99425399999995
 31
0.0
  0
LINE
  5
1D76AF00C2
330
1D76AF031B
100
AcDbEntity
  8
JISSEN
100
AcDbLine
 10
77.67811866666659
 20
118.3548946666665
 30
0.0
 11
77.67811866666659
 21
92.99425399999995
 31
0.0
  0
LWPOLYLINE
  5
1D76AF00C3
330
1D76AF031B
100
AcDbEntity
  8
JISSEN
100
AcDbPolyline
 90
        6
 70
     1
 43
0.0
 10
70.60132399999995
 20
116.8301526666665
 10
68.77452933333329
 20
119.9942539999999
 10
70.60132399999995
 20
123.1583553333332
 10
74.25491399999994
 20
123.1583553333332
 10
76.0817086666666
 20
119.9942539999999
 10
74.25491399999994
 20
116.8301526666665
  0
CIRCLE
  5
1D76AF00CD
330
1D76AF031B
100
AcDbEntity
  8
JISSEN
100
AcDbCircle
 10
72.42811866666659
 20
119.9942539999999
 30
0.0
 40
1.999999999999998
  0
LWPOLYLINE
  5
1D76AF00CE
330
1D76AF031B
100
AcDbEntity
  8
JISSEN
100
AcDbPolyline
 90
        6
 70
     1
 43
0.0
 10
70.42811866666662
 20
116.5301526666665
 10
68.42811866666662
 20
119.9942539999999
 10
70.42811866666662
 20
123.4583553333332
 10
74.42811866666662
 20
123.4583553333332
 10
76.42811866666661
 20
119.9942539999999
 10
74.42811866666662
 20
116.5301526666665
  0
ARC
  5
1D76AF00D6
330
1D76AF031B
100
AcDbEntity
  8
JISSEN
100
AcDbCircle
 10
72.42811866666659
 20
119.9942539999999
 30
0.0
 40
5.499999999999996
100
AcDbArc
 50
146.9442689999999
 51
119.5045239999999
  0
LINE
  5
1D76AF00E5
330
1D76AF031B
100
AcDbEntity
  8
JISSEN
100
AcDbLine
 10
42.67811866666664
 20
206.7835719999998
 30
0.0
 11
30.17811866666665
 21
206.7835719999998
 31
0.0
  0
LINE
  5
1D76AF00E6
330
1D76AF031B
100
AcDbEntity
  8
JISSEN
100
AcDbLine
 10
30.17811866666665
 20
201.7835719999998
 30
0.0
 11
42.67811866666664
 21
201.7835719999998
 31
0.0
  0
LWPOLYLINE
  5
1D76AF00E9
330
1D76AF031B
100
AcDbEntity
  8
JISSEN
100
AcDbPolyline
 90
       12
 70
     0
 43
0.0
 10
35.67811866666664
 20
194.7835719999998
 10
30.17811866666664
 20
194.7835719999998
 42
-0.4142140000000001
 10
29.67811866666664
 20
195.2835719999998
 10
29.67811866666664
 20
195.3335719999998
 42
0.4142140000000001
 10
26.72811866666664
 20
198.2835719999998
 10
24.67811866666664
 20
198.2835719999998
 10
24.67811866666664
 20
210.2835719999998
 10
26.72811866666664
 20
210.2835719999998
 42
0.4142140000000001
 10
29.67811866666664
 20
213.2335719999998
 10
29.67811866666664
 20
213.2835719999998
 42
-0.4142140000000001
 10
30.17811866666664
 20
213.7835719999998
 10
35.67811866666664
 20
213.7835719999998
  0
LWPOLYLINE
  5
1D76AF00F7
330
1D76AF031B
100
AcDbEntity
  8
JISSEN
100
AcDbPolyline
 90
        7
 70
     0
 43
0.0
 10
15.63034466666665
 20
202.2688633333332
 10
15.63034466666665
 20
195.2835719999998
 10
26.17811866666665
 20
195.2835719999998
 42
-0.4142140000000001
 10
27.17811866666664
 20
194.2835719999998
 10
27.17811866666664
 20
191.7835719999999
 42
0.4142140000000001
 10
28.17811866666664
 20
190.7835719999998
 10
42.67811866666663
 20
190.7835719999998
  0
LWPOLYLINE
  5
1D76AF0100
330
1D76AF031B
100
AcDbEntity
  8
JISSEN
100
AcDbPolyline
 90
       13
 70
     0
 43
0.0
 10
69.72589266666663
 20
206.2982806666665
 10
69.72589266666663
 20
213.2835719999998
 10
59.17811866666663
 20
213.2835719999998
 42
-0.4142140000000001
 10
58.17811866666662
 20
214.2835719999998
 10
58.17811866666662
 20
216.7835719999998
 42
0.4142140000000001
 10
57.17811866666663
 20
217.7835719999998
 10
42.67811866666663
 20
217.7835719999998
 10
28.17811866666664
 20
217.7835719999998
 42
0.4142140000000001
 10
27.17811866666664
 20
216.7835719999998
 10
27.17811866666664
 20
214.2835719999998
 42
-0.4142140000000001
 10
26.17811866666665
 20
213.2835719999998
 10
15.63034466666665
 20
213.2835719999998
 10
15.63034466666665
 20
206.2982806666665
  0
LWPOLYLINE
  5
1D76AF010F
330
1D76AF031B
100
AcDbEntity
  8
JISSEN
100
AcDbPolyline
 90
        7
 70
     0
 43
0.0
 10
77.32411399999993
 20
209.5888999999998
 42
0.088979
 10
73.51100399999996
 20
221.0306606666665
 42
0.227248
 10
51.61836866666663
 20
237.2180393333331
 42
0.051562
 10
42.67625266666664
 20
238.1426366666664
 42
0.051562
 10
33.73413733333331
 20
237.2180393333331
 42
0.227248
 10
11.84150199999999
 20
221.0306606666665
 42
0.089025
 10
8.027499333333327
 20
209.5827453333331
 42
0.128403
  0
LWPOLYLINE
  5
1D76AF0118
330
1D76AF031B
100
AcDbEntity
  8
JISSEN
100
AcDbPolyline
 90
        7
 70
     0
 43
0.0
 10
8.027499333333327
 20
198.9843986666665
 42
0.089025
 10
11.84150199999999
 20
187.5364833333332
 42
0.227248
 10
33.73413733333331
 20
171.3491046666665
 42
0.051562
 10
42.67625266666664
 20
170.4245073333332
 42
0.051562
 10
51.61836866666663
 20
171.3491046666665
 42
0.227248
 10
73.51100399999996
 20
187.5364833333332
 42
0.088979
 10
77.32411399999993
 20
198.9782439999998
 42
0.128403
  0
LWPOLYLINE
  5
1D76AF0121
330
1D76AF031B
100
AcDbEntity
  8
JISSEN
100
AcDbPolyline
 90
        5
 70
     0
 43
0.0
 10
30.17755466666664
 20
176.4761173333331
 42
0.04104
 10
34.5203693333333
 20
175.2712253333332
 42
0.051769
 10
42.67625266666664
 20
174.4245073333331
 42
0.051769
 10
50.83213666666662
 20
175.2712253333332
 42
0.041071
 10
55.17811866666662
 20
176.4772833333332
 42
0.128606
  0
LWPOLYLINE
  5
1D76AF0128
330
1D76AF031B
100
AcDbEntity
  8
JISSEN
100
AcDbPolyline
 90
        5
 70
     0
 43
0.0
 10
55.17811866666662
 20
232.0898606666665
 42
0.041071
 10
50.83213666666662
 20
233.2959186666664
 42
0.051769
 10
42.67625266666664
 20
234.1426366666664
 42
0.051769
 10
34.5203693333333
 20
233.2959186666664
 42
0.04104
 10
30.17755466666664
 20
232.0910266666664
 42
0.128645
  0
LWPOLYLINE
  5
1D76AF012F
330
1D76AF031B
100
AcDbEntity
  8
JISSEN
100
AcDbPolyline
 90
        3
 70
     0
 43
0.0
 10
25.67901399999998
 20
229.9548053333331
 42
0.138486
 10
15.36490666666665
 20
219.1369166666665
 42
0.074183
 10
12.29789266666665
 20
210.7835719999998
 42
0.000347
  0
LWPOLYLINE
  5
1D76AF0134
330
1D76AF031B
100
AcDbEntity
  8
JISSEN
100
AcDbPolyline
 90
        4
 70
     0
 43
0.0
 10
27.42811866666665
 20
217.4450099999998
 10
27.42811866666665
 20
235.3032513333331
 10
25.67811866666664
 20
229.9520693333331
 10
25.67811866666664
 20
213.3153259999998
  0
LWPOLYLINE
  5
1D76AF013A
330
1D76AF031B
100
AcDbEntity
  8
JISSEN
100
AcDbPolyline
 90
        4
 70
     0
 43
0.0
 10
28.42811866666664
 20
217.7835719999998
 10
28.42811866666664
 20
235.7054266666664
 10
30.17811866666664
 20
232.0898606666665
 10
30.17811866666664
 20
217.7835719999998
  0
LWPOLYLINE
  5
1D76AF0142
330
1D76AF031B
100
AcDbEntity
  8
JISSEN
100
AcDbPolyline
 90
        3
 70
     0
 43
0.0
 10
12.29789266666665
 20
197.7835719999998
 42
0.074183
 10
15.36490666666665
 20
189.4302279999998
 42
0.138486
 10
25.67901399999998
 20
178.6123386666665
 42
0.051769
  0
LWPOLYLINE
  5
1D76AF0147
330
1D76AF031B
100
AcDbEntity
  8
JISSEN
100
AcDbPolyline
 90
        4
 70
     0
 43
0.0
 10
13.20227333333332
 20
202.8554646666665
 42
0.136564
 10
13.46058333333332
 20
202.7835719999998
 10
16.15568533333332
 20
202.7835719999998
 42
0.16142
 10
16.45434666666665
 20
202.8825713333331
  0
LWPOLYLINE
  5
1D76AF014D
330
1D76AF031B
100
AcDbEntity
  8
JISSEN
100
AcDbPolyline
 90
        4
 70
     0
 43
0.0
 10
16.45434666666665
 20
205.6845726666665
 42
0.16142
 10
16.15568533333332
 20
205.7835719999998
 10
13.46058333333332
 20
205.7835719999998
 42
0.136564
 10
13.20227333333332
 20
205.7116793333332
  0
ARC
  5
1D76AF0153
330
1D76AF031B
100
AcDbEntity
  8
JISSEN
100
AcDbCircle
 10
14.94948266666665
 20
202.3852046666664
 30
0.0
 40
0.4999999999999997
100
AcDbArc
 50
238.894194
 51
306.678364
  0
ARC
  5
1D76AF0154
330
1D76AF031B
100
AcDbEntity
  8
JISSEN
100
AcDbCircle
 10
14.94948266666665
 20
206.1819393333331
 30
0.0
 40
0.4999999999999997
100
AcDbArc
 50
53.32163600000001
 51
121.105806
  0
LWPOLYLINE
  5
1D76AF0155
330
1D76AF031B
100
AcDbEntity
  8
JISSEN
100
AcDbPolyline
 90
        6
 70
     0
 43
0.0
 10
15.63034466666665
 20
210.7835719999998
 10
10.42811866666665
 20
210.7835719999998
 42
0.4142140000000001
 10
7.42811866666666
 20
207.7835719999998
 10
7.42811866666666
 20
200.7835719999998
 42
0.4142140000000001
 10
10.42811866666665
 20
197.7835719999998
 10
15.63034466666665
 20
197.7835719999998
  0
LINE
  5
1D76AF015E
330
1D76AF031B
100
AcDbEntity
  8
JISSEN
100
AcDbLine
 10
11.26112666666665
 20
204.0267079999998
 30
0.0
 11
14.69117266666666
 21
201.9570973333332
 31
0.0
  0
LINE
  5
1D76AF015F
330
1D76AF031B
100
AcDbEntity
  8
JISSEN
100
AcDbLine
 10
14.69117266666666
 20
206.6100466666665
 30
0.0
 11
11.26112666666665
 21
204.5404366666665
 31
0.0
  0
ARC
  5
1D76AF0160
330
1D76AF031B
100
AcDbEntity
  8
JISSEN
100
AcDbCircle
 10
11.41611266666666
 20
204.2835719999998
 30
0.0
 40
0.2999999999999998
100
AcDbArc
 50
121.105806
 51
238.894194
  0
LINE
  5
1D76AF0161
330
1D76AF031B
100
AcDbEntity
  8
JISSEN
100
AcDbLine
 10
30.17811866666665
 20
201.7835719999998
 30
0.0
 11
30.17811866666665
 21
194.7835719999998
 31
0.0
  0
LWPOLYLINE
  5
1D76AF0162
330
1D76AF031B
100
AcDbEntity
  8
JISSEN
100
AcDbPolyline
 90
        2
 70
     0
 43
0.0
 10
17.32142399999998
 20
213.2835719999998
 10
17.32142399999998
 20
195.2835719999998
  0
LWPOLYLINE
  5
1D76AF0166
330
1D76AF031B
100
AcDbEntity
  8
JISSEN
100
AcDbPolyline
 90
        2
 70
     0
 43
0.0
 10
20.50354533333331
 20
213.2835719999998
 10
20.50354533333331
 20
195.2835719999998
  0
LWPOLYLINE
  5
1D76AF016A
330
1D76AF031B
100
AcDbEntity
  8
JISSEN
100
AcDbPolyline
 90
        4
 70
     0
 43
0.0
 10
27.42811866666665
 20
191.1221339999998
 10
27.42811866666665
 20
173.2638926666665
 10
25.67811866666664
 20
178.6150753333332
 10
25.67811866666664
 20
195.2518179999998
  0
LWPOLYLINE
  5
1D76AF0170
330
1D76AF031B
100
AcDbEntity
  8
JISSEN
100
AcDbPolyline
 90
        4
 70
     0
 43
0.0
 10
28.42811866666664
 20
190.7835719999998
 10
28.42811866666664
 20
172.8617179999998
 10
30.17811866666664
 20
176.4772833333332
 10
30.17811866666664
 20
190.7835719999998
  0
ARC
  5
1D76AF0176
330
1D76AF031B
100
AcDbEntity
  8
JISSEN
100
AcDbCircle
 10
16.82142399999998
 20
203.7794073333331
 30
0.0
 40
0.4999999999999997
100
AcDbArc
 50
306.678364
 51
0.0
  0
LINE
  5
1D76AF0177
330
1D76AF031B
100
AcDbEntity
  8
JISSEN
100
AcDbLine
 10
15.24814399999996
 20
201.9842039999998
 30
0.0
 11
17.12008533333334
 21
203.3784066666664
 31
0.0
  0
LINE
  5
1D76AF0178
330
1D76AF031B
100
AcDbEntity
  8
JISSEN
100
AcDbLine
 10
17.12008533333334
 20
205.1887373333332
 30
0.0
 11
15.24814399999996
 21
206.5829399999998
 31
0.0
  0
ARC
  5
1D76AF0179
330
1D76AF031B
100
AcDbEntity
  8
JISSEN
100
AcDbCircle
 10
16.82142399999998
 20
204.7877366666665
 30
0.0
 40
0.4999999999999997
100
AcDbArc
 50
0.0
 51
53.32163600000001
  0
LWPOLYLINE
  5
1D76AF017A
330
1D76AF031B
100
AcDbEntity
  8
JISSEN
100
AcDbPolyline
 90
        2
 70
     0
 43
0.0
 10
30.17811866666664
 20
213.7835719999998
 10
30.17811866666664
 20
206.7835719999998
  0
LWPOLYLINE
  5
1D76AF017E
330
1D76AF031B
100
AcDbEntity
  8
JISSEN
100
AcDbPolyline
 90
        3
 70
     0
 43
0.0
 10
24.67811866666664
 20
201.7835719999998
 10
25.67811866666664
 20
201.7835719999998
 10
25.67811866666664
 20
198.2835719999998
  0
LWPOLYLINE
  5
1D76AF0183
330
1D76AF031B
100
AcDbEntity
  8
JISSEN
100
AcDbPolyline
 90
        3
 70
     0
 43
0.0
 10
25.67811866666664
 20
210.2835719999998
 10
25.67811866666664
 20
206.7835719999998
 10
24.67811866666664
 20
206.7835719999998
  0
LWPOLYLINE
  5
1D76AF0189
330
1D76AF031B
100
AcDbEntity
  8
JISSEN
100
AcDbPolyline
 90
        4
 70
     0
 43
0.0
 10
57.92811866666663
 20
217.4450099999998
 10
57.92811866666663
 20
235.3032513333331
 10
59.67811866666663
 20
229.9520693333331
 10
59.67811866666663
 20
213.3153259999998
  0
LWPOLYLINE
  5
1D76AF018F
330
1D76AF031B
100
AcDbEntity
  8
JISSEN
100
AcDbPolyline
 90
        4
 70
     0
 43
0.0
 10
56.92811866666662
 20
217.7835719999998
 10
56.92811866666662
 20
235.7054266666664
 10
55.17811866666662
 20
232.0898606666665
 10
55.17811866666662
 20
217.7835719999998
  0
LWPOLYLINE
  5
1D76AF0195
330
1D76AF031B
100
AcDbEntity
  8
JISSEN
100
AcDbPolyline
 90
        3
 70
     0
 43
0.0
 10
73.05461333333328
 20
210.7835719999998
 42
0.074183
 10
69.98759866666661
 20
219.1369166666665
 42
0.138436
 10
59.67811866666663
 20
229.9520693333331
  0
LWPOLYLINE
  5
1D76AF019B
330
1D76AF031B
100
AcDbEntity
  8
JISSEN
100
AcDbPolyline
 90
        3
 70
     0
 43
0.0
 10
59.67811866666663
 20
178.6150753333332
 42
0.138436
 10
69.98759866666661
 20
189.4302279999998
 42
0.074183
 10
73.05461333333328
 20
197.7835719999998
 42
0.128998
  0
LWPOLYLINE
  5
1D76AF01A0
330
1D76AF031B
100
AcDbEntity
  8
JISSEN
100
AcDbPolyline
 90
        7
 70
     0
 43
0.0
 10
42.67811866666663
 20
190.7835719999998
 10
57.17811866666663
 20
190.7835719999998
 42
0.4142140000000001
 10
58.17811866666662
 20
191.7835719999999
 10
58.17811866666662
 20
194.2835719999998
 42
-0.4142140000000001
 10
59.17811866666663
 20
195.2835719999998
 10
69.72589266666663
 20
195.2835719999998
 10
69.72589266666663
 20
202.2688633333332
  0
LINE
  5
1D76AF01AC
330
1D76AF031B
100
AcDbEntity
  8
JISSEN
100
AcDbLine
 10
55.17811866666665
 20
206.7835719999998
 30
0.0
 11
42.67811866666664
 21
206.7835719999998
 31
0.0
  0
LINE
  5
1D76AF01AD
330
1D76AF031B
100
AcDbEntity
  8
JISSEN
100
AcDbLine
 10
42.67811866666664
 20
201.7835719999998
 30
0.0
 11
55.17811866666665
 21
201.7835719999998
 31
0.0
  0
LINE
  5
1D76AF01AE
330
1D76AF031B
100
AcDbEntity
  8
JISSEN
100
AcDbLine
 10
47.9447853333333
 20
193.4835719999998
 30
0.0
 11
49.67811866666664
 21
194.7835719999998
 31
0.0
  0
LINE
  5
1D76AF01AF
330
1D76AF031B
100
AcDbEntity
  8
JISSEN
100
AcDbLine
 10
47.9447853333333
 20
215.0835719999998
 30
0.0
 11
49.67811866666664
 21
213.7835719999998
 31
0.0
  0
LINE
  5
1D76AF01B2
330
1D76AF031B
100
AcDbEntity
  8
JISSEN
100
AcDbLine
 10
48.34478533333328
 20
193.7835719999998
 30
0.0
 11
37.01145199999996
 21
193.7835719999998
 31
0.0
  0
LINE
  5
1D76AF01B3
330
1D76AF031B
100
AcDbEntity
  8
JISSEN
100
AcDbLine
 10
38.01145199999996
 20
193.2835719999998
 30
0.0
 11
47.34478533333327
 21
193.2835719999998
 31
0.0
  0
LINE
  5
1D76AF01B4
330
1D76AF031B
100
AcDbEntity
  8
JISSEN
100
AcDbLine
 10
35.67811866666664
 20
194.7835719999998
 30
0.0
 11
37.411452
 21
193.4835719999998
 31
0.0
  0
ARC
  5
1D76AF01B5
330
1D76AF031B
100
AcDbEntity
  8
JISSEN
100
AcDbCircle
 10
38.01145199999996
 20
194.2835719999998
 30
0.0
 40
0.9999999999999992
100
AcDbArc
 50
233.130102
 51
270.0
  0
ARC
  5
1D76AF01B7
330
1D76AF031B
100
AcDbEntity
  8
JISSEN
100
AcDbCircle
 10
47.34478533333327
 20
194.2835719999998
 30
0.0
 40
0.9999999999999992
100
AcDbArc
 50
270.0
 51
306.8698979999999
  0
LINE
  5
1D76AF01B8
330
1D76AF031B
100
AcDbEntity
  8
JISSEN
100
AcDbLine
 10
37.01145199999996
 20
214.7835719999998
 30
0.0
 11
48.34478533333328
 21
214.7835719999998
 31
0.0
  0
LINE
  5
1D76AF01B9
330
1D76AF031B
100
AcDbEntity
  8
JISSEN
100
AcDbLine
 10
38.01145199999996
 20
215.2835719999998
 30
0.0
 11
47.34478533333327
 21
215.2835719999998
 31
0.0
  0
LINE
  5
1D76AF01BA
330
1D76AF031B
100
AcDbEntity
  8
JISSEN
100
AcDbLine
 10
35.67811866666664
 20
213.7835719999998
 30
0.0
 11
37.411452
 21
215.0835719999998
 31
0.0
  0
ARC
  5
1D76AF01BB
330
1D76AF031B
100
AcDbEntity
  8
JISSEN
100
AcDbCircle
 10
38.01145199999996
 20
214.2835719999998
 30
0.0
 40
0.9999999999999992
100
AcDbArc
 50
90.0
 51
126.869898
  0
ARC
  5
1D76AF01BD
330
1D76AF031B
100
AcDbEntity
  8
JISSEN
100
AcDbCircle
 10
47.34478533333327
 20
214.2835719999998
 30
0.0
 40
0.9999999999999992
100
AcDbArc
 50
53.130102
 51
90.0
  0
LINE
  5
1D76AF01BE
330
1D76AF031B
100
AcDbEntity
  8
JISSEN
100
AcDbLine
 10
55.17811866666665
 20
201.7835719999998
 30
0.0
 11
55.17811866666665
 21
194.7835719999998
 31
0.0
  0
LWPOLYLINE
  5
1D76AF01BF
330
1D76AF031B
100
AcDbEntity
  8
JISSEN
100
AcDbPolyline
 90
       12
 70
     0
 43
0.0
 10
49.67811866666663
 20
213.7835719999998
 10
55.17811866666662
 20
213.7835719999998
 42
-0.4142140000000001
 10
55.67811866666662
 20
213.2835719999998
 10
55.67811866666662
 20
213.2335719999998
 42
0.4142140000000001
 10
58.62811866666662
 20
210.2835719999998
 10
60.67811866666662
 20
210.2835719999998
 10
60.67811866666662
 20
198.2835719999998
 10
58.62811866666662
 20
198.2835719999998
 42
0.4142140000000001
 10
55.67811866666662
 20
195.3335719999998
 10
55.67811866666662
 20
195.2835719999998
 42
-0.4142140000000001
 10
55.17811866666662
 20
194.7835719999998
 10
49.67811866666663
 20
194.7835719999998
  0
LWPOLYLINE
  5
1D76AF01CD
330
1D76AF031B
100
AcDbEntity
  8
JISSEN
100
AcDbPolyline
 90
        2
 70
     0
 43
0.0
 10
64.85269266666661
 20
213.2835719999998
 10
64.85269266666661
 20
195.2835719999998
  0
LWPOLYLINE
  5
1D76AF01D1
330
1D76AF031B
100
AcDbEntity
  8
JISSEN
100
AcDbPolyline
 90
        4
 70
     0
 43
0.0
 10
56.92811866666662
 20
190.7835719999998
 10
56.92811866666662
 20
172.8617179999998
 10
55.17811866666662
 20
176.4772833333332
 10
55.17811866666662
 20
190.7835719999998
  0
LWPOLYLINE
  5
1D76AF01D7
330
1D76AF031B
100
AcDbEntity
  8
JISSEN
100
AcDbPolyline
 90
        4
 70
     0
 43
0.0
 10
57.92811866666663
 20
191.1221339999998
 10
57.92811866666663
 20
173.2638926666665
 10
59.67811866666663
 20
178.6150753333332
 10
59.67811866666663
 20
195.2518179999998
  0
LWPOLYLINE
  5
1D76AF01DD
330
1D76AF031B
100
AcDbEntity
  8
JISSEN
100
AcDbPolyline
 90
        2
 70
     0
 43
0.0
 10
55.17811866666662
 20
213.7835719999998
 10
55.17811866666662
 20
206.7835719999998
  0
LWPOLYLINE
  5
1D76AF01E1
330
1D76AF031B
100
AcDbEntity
  8
JISSEN
100
AcDbPolyline
 90
        3
 70
     0
 43
0.0
 10
60.67811866666662
 20
201.7835719999998
 10
59.67811866666663
 20
201.7835719999998
 10
59.67811866666663
 20
198.2835719999998
  0
LWPOLYLINE
  5
1D76AF01E6
330
1D76AF031B
100
AcDbEntity
  8
JISSEN
100
AcDbPolyline
 90
        3
 70
     0
 43
0.0
 10
59.67811866666663
 20
210.2835719999998
 10
59.67811866666663
 20
206.7835719999998
 10
60.67811866666662
 20
206.7835719999998
  0
LINE
  5
1D76AF01F1
330
1D76AF031B
100
AcDbEntity
  8
JISSEN
100
AcDbLine
 10
68.03481333333326
 20
204.2835719999998
 30
0.0
 11
68.03481333333326
 21
195.2835719999998
 31
0.0
  0
LINE
  5
1D76AF01F2
330
1D76AF031B
100
AcDbEntity
  8
JISSEN
100
AcDbLine
 10
74.09511066666664
 20
204.0267079999998
 30
0.0
 11
70.66506466666658
 21
201.9570973333332
 31
0.0
  0
LINE
  5
1D76AF01F3
330
1D76AF031B
100
AcDbEntity
  8
JISSEN
100
AcDbLine
 10
70.66506466666658
 20
206.6100466666665
 30
0.0
 11
74.09511066666664
 21
204.5404366666665
 31
0.0
  0
LWPOLYLINE
  5
1D76AF01F4
330
1D76AF031B
100
AcDbEntity
  8
JISSEN
100
AcDbPolyline
 90
        6
 70
     0
 43
0.0
 10
69.72589266666663
 20
210.7835719999998
 10
74.92811866666662
 20
210.7835719999998
 42
-0.4142140000000001
 10
77.9281186666666
 20
207.7835719999998
 10
77.9281186666666
 20
200.7835719999998
 42
-0.4142140000000001
 10
74.92811866666662
 20
197.7835719999998
 10
69.72589266666663
 20
197.7835719999998
  0
LINE
  5
1D76AF01FC
330
1D76AF031B
100
AcDbEntity
  8
JISSEN
100
AcDbLine
 10
68.03481333333326
 20
213.2835719999998
 30
0.0
 11
68.03481333333326
 21
204.2835719999998
 31
0.0
  0
LINE
  5
1D76AF01FD
330
1D76AF031B
100
AcDbEntity
  8
JISSEN
100
AcDbLine
 10
70.10809333333327
 20
201.9842039999998
 30
0.0
 11
68.23615266666661
 21
203.3784066666664
 31
0.0
  0
LINE
  5
1D76AF01FE
330
1D76AF031B
100
AcDbEntity
  8
JISSEN
100
AcDbLine
 10
68.23615266666661
 20
205.1887373333332
 30
0.0
 11
70.10809333333327
 21
206.5829399999998
 31
0.0
  0
LWPOLYLINE
  5
1D76AF01FF
330
1D76AF031B
100
AcDbEntity
  8
JISSEN
100
AcDbPolyline
 90
        4
 70
     0
 43
0.0
 10
68.90189133333328
 20
205.6845726666665
 42
-0.16142
 10
69.20055199999996
 20
205.7835719999998
 10
71.89565399999995
 20
205.7835719999998
 42
-0.136564
 10
72.15396399999995
 20
205.7116793333332
  0
LWPOLYLINE
  5
1D76AF0205
330
1D76AF031B
100
AcDbEntity
  8
JISSEN
100
AcDbPolyline
 90
        4
 70
     0
 43
0.0
 10
72.15396399999995
 20
202.8554646666665
 42
-0.136564
 10
71.89565399999995
 20
202.7835719999998
 10
69.20055199999996
 20
202.7835719999998
 42
-0.16142
 10
68.90189133333328
 20
202.8825713333331
  0
ARC
  5
1D76AF020B
330
1D76AF031B
100
AcDbEntity
  8
JISSEN
100
AcDbCircle
 10
68.53481333333326
 20
203.7794073333331
 30
0.0
 40
0.4999999999999997
100
AcDbArc
 50
180.0
 51
233.3216359999999
  0
ARC
  5
1D76AF020C
330
1D76AF031B
100
AcDbEntity
  8
JISSEN
100
AcDbCircle
 10
68.53481333333326
 20
204.7877366666665
 30
0.0
 40
0.4999999999999997
100
AcDbArc
 50
126.678364
 51
180.0
  0
ARC
  5
1D76AF020D
330
1D76AF031B
100
AcDbEntity
  8
JISSEN
100
AcDbCircle
 10
70.40675466666664
 20
202.3852046666664
 30
0.0
 40
0.4999999999999997
100
AcDbArc
 50
233.3216359999999
 51
301.105806
  0
ARC
  5
1D76AF020E
330
1D76AF031B
100
AcDbEntity
  8
JISSEN
100
AcDbCircle
 10
70.40675466666664
 20
206.1819393333331
 30
0.0
 40
0.4999999999999997
100
AcDbArc
 50
58.89419399999999
 51
126.678364
  0
ARC
  5
1D76AF020F
330
1D76AF031B
100
AcDbEntity
  8
JISSEN
100
AcDbCircle
 10
73.94012466666663
 20
204.2835719999998
 30
0.0
 40
0.2999999999999998
100
AcDbArc
 50
301.105806
 51
58.89419399999999
  0
LWPOLYLINE
  5
1D76AF0218
330
1D76AF031B
100
AcDbEntity
  8
JISSEN
100
AcDbPolyline
 90
        8
 70
     0
 43
0.0
 10
130.1276166666665
 20
122.9942539999999
 10
124.9825539999999
 20
122.9942539999999
 10
123.1276166666665
 20
124.9942539999999
 10
123.1276166666665
 20
132.9942539999999
 10
149.1276166666665
 20
132.9942539999999
 10
149.1276166666665
 20
124.9942539999999
 10
147.2726793333332
 20
122.9942539999999
 10
142.1276166666665
 20
122.9942539999999
  0
LWPOLYLINE
  5
1D76AF0222
330
1D76AF031B
100
AcDbEntity
  8
JISSEN
100
AcDbPolyline
 90
        4
 70
     0
 43
0.0
 10
133.6434179999999
 20
125.5316919999999
 10
135.2212433333332
 20
128.9167306666665
 42
-0.635303
 10
137.0317199999999
 20
128.9215679999998
 10
138.6481306666665
 20
125.5015953333332
  0
LINE
  5
1D76AF0228
330
1D76AF031B
100
AcDbEntity
  8
JISSEN
100
AcDbLine
 10
127.1276166666666
 20
122.9942539999999
 30
0.0
 11
127.1276166666666
 21
132.9942539999999
 31
0.0
  0
LINE
  5
1D76AF0229
330
1D76AF031B
100
AcDbEntity
  8
JISSEN
100
AcDbLine
 10
145.1276166666665
 20
132.9942539999999
 30
0.0
 11
145.1276166666665
 21
122.9942539999999
 31
0.0
  0
LWPOLYLINE
  5
1D76AF022B
330
1D76AF031B
100
AcDbEntity
  8
JISSEN
100
AcDbPolyline
 90
       14
 70
     0
 43
0.0
 10
139.0109499999998
 20
96.99425399999995
 10
138.8695359999998
 20
114.4942539999999
 10
136.6276166666665
 20
118.0068239999999
 10
136.6276166666665
 20
95.49425399999995
 10
139.0109499999998
 20
96.99425399999995
 10
162.5276166666665
 20
96.99425399999995
 10
170.1276166666665
 20
95.49425399999995
 10
170.1276166666665
 20
94.49425399999993
 10
162.5276166666665
 20
92.99425399999995
 10
139.0432733333332
 20
92.99425399999995
 10
136.6276166666665
 20
94.49425399999993
 10
136.6276166666665
 20
57.99425399999996
 10
139.2776166666665
 20
63.99425399999995
 10
139.0432733333332
 20
92.99425399999995
  0
LINE
  5
1D76AF023F
330
1D76AF031B
100
AcDbEntity
  8
JISSEN
100
AcDbLine
 10
170.1276166666665
 20
94.49425399999995
 30
0.0
 11
102.1276166666666
 21
94.49425399999995
 31
0.0
  0
LINE
  5
1D76AF0240
330
1D76AF031B
100
AcDbEntity
  8
JISSEN
100
AcDbLine
 10
102.1276166666666
 20
95.49425399999995
 30
0.0
 11
170.1276166666665
 21
95.49425399999995
 31
0.0
  0
LWPOLYLINE
  5
1D76AF0241
330
1D76AF031B
100
AcDbEntity
  8
JISSEN
100
AcDbPolyline
 90
        5
 70
     0
 43
0.0
 10
166.5276166666665
 20
96.20477999999991
 42
0.083934
 10
165.4920346666665
 20
110.1454239999999
 42
-0.022046
 10
165.4747359999998
 20
110.2318526666665
 42
0.146478
 10
162.5276166666665
 20
116.4220399999999
 42
0.175008
 10
149.1276166666665
 20
124.9942539999999
 42
0.175008
  0
ARC
  5
1D76AF0248
330
1D76AF031B
100
AcDbEntity
  8
JISSEN
100
AcDbCircle
 10
134.5841446666665
 20
97.1159306666666
 30
0.0
 40
27.94373666666664
100
AcDbArc
 50
359.7505139999999
 51
67.832797
  0
LWPOLYLINE
  5
1D76AF0249
330
1D76AF031B
100
AcDbEntity
  8
JISSEN
100
AcDbPolyline
 90
        3
 70
     0
 43
0.0
 10
136.1276166666665
 20
58.00906333333329
 42
0.4193540000000001
 10
166.5276166666665
 20
86.67270733333326
 42
0.033485
 10
166.5746319999998
 20
93.7930066666666
  0
LWPOLYLINE
  5
1D76AF024E
330
1D76AF031B
100
AcDbEntity
  8
JISSEN
100
AcDbPolyline
 90
        3
 70
     0
 43
0.0
 10
139.2776166666665
 20
63.99425399999995
 42
0.121025
 10
153.6809419999998
 20
72.99425399999994
 42
0.204254
 10
162.5276166666665
 20
92.99425399999995
  0
LWPOLYLINE
  5
1D76AF0253
330
1D76AF031B
100
AcDbEntity
  8
JISSEN
100
AcDbPolyline
 90
       14
 70
     0
 43
0.0
 10
133.2119606666665
 20
92.99425399999995
 10
132.9776166666665
 20
63.99425399999995
 10
135.6276166666665
 20
57.99425399999996
 10
135.6276166666665
 20
94.49425399999993
 10
133.2119606666665
 20
92.99425399999995
 10
109.7276166666665
 20
92.99425399999995
 10
102.1276166666666
 20
94.49425399999993
 10
102.1276166666666
 20
95.49425399999995
 10
109.7276166666665
 20
96.99425399999995
 10
133.2442833333332
 20
96.99425399999995
 10
135.6276166666665
 20
95.49425399999995
 10
135.6276166666665
 20
117.9816839999999
 10
133.3856979999999
 20
114.4942539999999
 10
133.2442833333332
 20
96.99425399999995
  0
LWPOLYLINE
  5
1D76AF0264
330
1D76AF031B
100
AcDbEntity
  8
JISSEN
100
AcDbPolyline
 90
        5
 70
     0
 43
0.0
 10
105.7276166666665
 20
96.20477999999991
 42
-0.083934
 10
106.7631993333332
 20
110.1454239999999
 42
0.022046
 10
106.7804979999999
 20
110.2318526666665
 42
-0.146478
 10
109.7276166666665
 20
116.4220399999999
 42
-0.175008
 10
123.1276166666665
 20
124.9942539999999
 42
-0.175008
  0
ARC
  5
1D76AF026B
330
1D76AF031B
100
AcDbEntity
  8
JISSEN
100
AcDbCircle
 10
137.6710886666666
 20
97.1159306666666
 30
0.0
 40
27.94373666666664
100
AcDbArc
 50
112.167203
 51
180.2494859999999
  0
LWPOLYLINE
  5
1D76AF026C
330
1D76AF031B
100
AcDbEntity
  8
JISSEN
100
AcDbPolyline
 90
        3
 70
     0
 43
0.0
 10
136.1276166666665
 20
58.00906333333329
 42
-0.4193540000000001
 10
105.7276166666665
 20
86.67270733333326
 42
-0.033485
 10
105.6806019999999
 20
93.7930066666666
  0
LWPOLYLINE
  5
1D76AF0271
330
1D76AF031B
100
AcDbEntity
  8
JISSEN
100
AcDbPolyline
 90
        3
 70
     0
 43
0.0
 10
132.9776166666665
 20
63.99425399999995
 42
-0.121025
 10
118.5742919999999
 20
72.99425399999994
 42
-0.204254
 10
109.7276166666665
 20
92.99425399999995
  0
LWPOLYLINE
  5
1D76AF0278
330
1D76AF031B
100
AcDbEntity
  8
TENSEN
100
AcDbPolyline
 90
        2
 70
     0
 43
0.0
 10
130.1276166666665
 20
118.4942539999999
 10
138.6276166666665
 20
118.4942539999999
  0
LWPOLYLINE
  5
1D76AF027C
330
1D76AF031B
100
AcDbEntity
  8
TENSEN
100
AcDbPolyline
 90
        2
 70
     0
 43
0.0
 10
130.1276166666665
 20
121.4942539999999
 10
138.6276166666665
 20
121.4942539999999
  0
LWPOLYLINE
  5
1D76AF0280
330
1D76AF031B
100
AcDbEntity
  8
TENSEN
100
AcDbPolyline
 90
        2
 70
     0
 43
0.0
 10
130.1276166666665
 20
121.9942539999999
 10
138.6276166666665
 20
121.9942539999999
  0
LWPOLYLINE
  5
1D76AF0284
330
1D76AF031B
100
AcDbEntity
  8
TENSEN
100
AcDbPolyline
 90
        2
 70
     0
 43
0.0
 10
138.6276166666665
 20
117.9942539999999
 10
130.1276166666665
 20
117.9942539999999
  0
LWPOLYLINE
  5
1D76AF0289
330
1D76AF031B
100
AcDbEntity
  8
JISSEN
100
AcDbPolyline
 90
       10
 70
     0
 43
0.0
 10
133.3856979999999
 20
114.4942539999999
 10
131.1276166666665
 20
114.4942539999999
 42
-0.4142140000000001
 10
130.1276166666665
 20
115.4942539999999
 10
130.1276166666665
 20
124.4942539999999
 42
-0.4142140000000001
 10
131.1276166666665
 20
125.4942539999999
 10
141.1276166666665
 20
125.4942539999999
 42
-0.4142140000000001
 10
142.1276166666665
 20
124.4942539999999
 10
142.1276166666665
 20
115.4942539999999
 42
-0.4142140000000001
 10
141.1276166666665
 20
114.4942539999999
 10
138.8695359999998
 20
114.4942539999999
  0
LINE
  5
1D76AF0295
330
1D76AF031B
100
AcDbEntity
  8
JISSEN
100
AcDbLine
 10
136.1276166666665
 20
95.49425399999995
 30
0.0
 11
136.1276166666665
 21
94.49425399999995
 31
0.0
  0
LWPOLYLINE
  5
1D76AF0296
330
1D76AF031B
100
AcDbEntity
  8
SAISEN
100
AcDbPolyline
 90
        2
 70
     0
 43
0.0
 10
124.6276166666665
 20
118.4942539999999
 10
130.1276166666665
 20
118.4942539999999
  0
LWPOLYLINE
  5
1D76AF029A
330
1D76AF031B
100
AcDbEntity
  8
SAISEN
100
AcDbPolyline
 90
        2
 70
     0
 43
0.0
 10
124.6276166666665
 20
121.4942539999999
 10
130.1276166666665
 20
121.4942539999999
  0
LWPOLYLINE
  5
1D76AF029E
330
1D76AF031B
100
AcDbEntity
  8
JISSEN
100
AcDbPolyline
 90
        6
 70
     0
 43
0.0
 10
130.1276166666665
 20
117.9942539999999
 10
125.1276166666665
 20
117.9942539999999
 10
124.6276166666665
 20
118.4942539999999
 10
124.6276166666665
 20
121.4942539999999
 10
125.1276166666665
 20
121.9942539999999
 10
130.1276166666665
 20
121.9942539999999
  0
LWPOLYLINE
  5
1D76AF02A6
330
1D76AF031B
100
AcDbEntity
  8
JISSEN
100
AcDbPolyline
 90
        2
 70
     0
 43
0.0
 10
125.1276166666665
 20
121.9942539999999
 10
125.1276166666665
 20
117.9942539999999
  0
LINE
  5
1D76AF02AA
330
1D76AF031B
100
AcDbEntity
  8
JISSEN
100
AcDbLine
 10
130.1276166666665
 20
116.4942539999999
 30
0.0
 11
133.6276166666665
 21
116.4942539999999
 31
0.0
  0
LINE
  5
1D76AF02AB
330
1D76AF031B
100
AcDbEntity
  8
JISSEN
100
AcDbLine
 10
130.1276166666665
 20
123.4942539999999
 30
0.0
 11
133.6276166666665
 21
123.4942539999999
 31
0.0
  0
LINE
  5
1D76AF02AC
330
1D76AF031B
100
AcDbEntity
  8
JISSEN
100
AcDbLine
 10
133.6276166666665
 20
123.4942539999999
 30
0.0
 11
133.6276166666665
 21
116.4942539999999
 31
0.0
  0
LINE
  5
1D76AF02AD
330
1D76AF031B
100
AcDbEntity
  8
JISSEN
100
AcDbLine
 10
139.6276166666665
 20
116.4942539999999
 30
0.0
 11
142.1276166666665
 21
116.4942539999999
 31
0.0
  0
LINE
  5
1D76AF02AE
330
1D76AF031B
100
AcDbEntity
  8
JISSEN
100
AcDbLine
 10
139.6276166666665
 20
123.4942539999999
 30
0.0
 11
142.1276166666665
 21
123.4942539999999
 31
0.0
  0
LWPOLYLINE
  5
1D76AF02AF
330
1D76AF031B
100
AcDbEntity
  8
TENSEN
100
AcDbPolyline
 90
        6
 70
     1
 43
0.0
 10
138.6276166666665
 20
123.4942539999999
 10
139.6276166666665
 20
123.4942539999999
 42
-0.4142140000000001
 10
141.6276166666665
 20
121.4942539999999
 10
141.6276166666665
 20
118.4942539999999
 42
-0.4142140000000001
 10
139.6276166666665
 20
116.4942539999999
 10
138.6276166666665
 20
116.4942539999999
  0
LINE
  5
1D76AF02C2
330
1D76AF031B
100
AcDbEntity
  8
JISSEN
100
AcDbLine
 10
127.1276166666666
 20
130.6827626666665
 30
0.0
 11
145.1276166666665
 21
130.6827626666665
 31
0.0
  0
LINE
  5
1D76AF075A
330
1D76AF031B
100
AcDbEntity
  8
JISSEN
100
AcDbLine
 10
453.4999992759998
 20
254.9999999999999
 30
0.0
 11
542.9999992759998
 21
254.9999999999999
 31
0.0
  0
LINE
  5
1D76AF075B
330
1D76AF031B
100
AcDbEntity
  8
JISSEN
100
AcDbLine
 10
453.4999992759998
 20
260.9999999999999
 30
0.0
 11
542.9999992759998
 21
260.9999999999999
 31
0.0
  0
LINE
  5
1D76AF075C
330
1D76AF031B
100
AcDbEntity
  8
JISSEN
100
AcDbLine
 10
453.4999992759998
 20
266.9999999999999
 30
0.0
 11
542.9999992759998
 21
266.9999999999999
 31
0.0
  0
LINE
  5
1D76AF075E
330
1D76AF031B
100
AcDbEntity
  8
JISSEN
100
AcDbLine
 10
456.5310322670194
 20
132.5883405388706
 30
0.0
 11
456.5310322670194
 21
128.0883405388706
 31
0.0
  0
LINE
  5
1D76AF075F
330
1D76AF031B
100
AcDbEntity
  8
JISSEN
100
AcDbLine
 10
451.2810322670194
 20
132.5883405388706
 30
0.0
 11
451.2810322670194
 21
128.0883405388706
 31
0.0
  0
ARC
  5
1D76AF0760
330
1D76AF031B
100
AcDbEntity
  8
JISSEN
100
AcDbCircle
 10
447.9060322670194
 20
132.8383405388706
 30
0.0
 40
13.5
100
AcDbArc
 50
317.7945535962691
 51
0.0
  0
ARC
  5
1D76AF0761
330
1D76AF031B
100
AcDbEntity
  8
JISSEN
100
AcDbCircle
 10
459.9060322670194
 20
132.8383405388706
 30
0.0
 40
13.5
100
AcDbArc
 50
180.0
 51
222.2054464037312
  0
LINE
  5
1D76AF0762
330
1D76AF031B
100
AcDbEntity
  8
JISSEN
100
AcDbLine
 10
452.3653938117024
 20
140.8160236999049
 30
0.0
 11
451.4060322670196
 21
127.384962074344
 31
0.0
  0
LINE
  5
1D76AF0763
330
1D76AF031B
100
AcDbEntity
  8
JISSEN
100
AcDbLine
 10
456.4060322670195
 20
127.384962074344
 30
0.0
 11
455.4466707223366
 21
140.8160236999049
 31
0.0
  0
LINE
  5
1D76AF0764
330
1D76AF031B
100
AcDbEntity
  8
JISSEN
100
AcDbLine
 10
488.9060322670194
 20
143.3613943726285
 30
0.0
 11
488.9060322670194
 21
118.0007540037038
 31
0.0
  0
LINE
  5
1D76AF0765
330
1D76AF031B
100
AcDbEntity
  8
JISSEN
100
AcDbLine
 10
483.9060322670194
 20
139.5064387597449
 30
0.0
 11
483.9060322670194
 21
122.0007540037038
 31
0.0
  0
ARC
  5
1D76AF0766
330
1D76AF031B
100
AcDbEntity
  8
JISSEN
100
AcDbCircle
 10
445.9060322670194
 20
140.5007540037038
 30
0.0
 40
28.0
100
AcDbArc
 50
337.975687162958
 51
0.0
  0
ARC
  5
1D76AF0767
330
1D76AF031B
100
AcDbEntity
  8
JISSEN
100
AcDbCircle
 10
461.9060322670194
 20
140.5007540037038
 30
0.0
 40
28.0
100
AcDbArc
 50
180.0
 51
202.0243128370419
  0
ARC
  5
1D76AF0768
330
1D76AF031B
100
AcDbEntity
  8
JISSEN
100
AcDbCircle
 10
461.9060322670194
 20
140.5007540037038
 30
0.0
 40
30.0
100
AcDbArc
 50
180.0
 51
215.2092056449253
  0
LWPOLYLINE
  5
1D76AF0769
330
1D76AF031B
100
AcDbEntity
  8
JISSEN
100
AcDbPolyline
 90
        4
 70
     1
 43
0.0
 10
466.4060322670194
 20
122.0007540037038
 10
467.9060322670194
 20
120.5007540037039
 10
467.9060322670194
 20
151.0007540037039
 10
466.4060322670194
 20
148.0007540037039
  0
LWPOLYLINE
  5
1D76AF076A
330
1D76AF031B
100
AcDbEntity
  8
JISSEN
100
AcDbPolyline
 90
        4
 70
     1
 43
0.0
 10
468.9060322670194
 20
120.5007540037039
 10
468.9060322670194
 20
151.0007540037039
 10
470.6560322670194
 20
148.0007540037038
 10
470.4060322670194
 20
122.0007540037038
  0
LWPOLYLINE
  5
1D76AF076B
330
1D76AF031B
100
AcDbEntity
  8
JISSEN
100
AcDbPolyline
 90
        4
 70
     1
 43
0.0
 10
438.9060322670194
 20
120.5007540037039
 10
438.9060322670194
 20
151.0007540037039
 10
437.1560322670194
 20
148.0007540037038
 10
437.4060322670194
 20
122.0007540037038
  0
LWPOLYLINE
  5
1D76AF076C
330
1D76AF031B
100
AcDbEntity
  8
JISSEN
100
AcDbPolyline
 90
        4
 70
     1
 43
0.0
 10
441.4060322670194
 20
122.0007540037038
 10
439.9060322670194
 20
120.5007540037039
 10
439.9060322670194
 20
151.0007540037039
 10
441.4060322670194
 20
148.0007540037039
  0
LINE
  5
1D76AF076D
330
1D76AF031B
100
AcDbEntity
  8
JISSEN
100
AcDbLine
 10
418.9060322670194
 20
143.3613943726284
 30
0.0
 11
418.9060322670194
 21
118.0007540037038
 31
0.0
  0
LINE
  5
1D76AF076E
330
1D76AF031B
100
AcDbEntity
  8
JISSEN
100
AcDbLine
 10
423.9060322670194
 20
139.5064387597449
 30
0.0
 11
423.9060322670194
 21
122.0007540037038
 31
0.0
  0
ARC
  5
1D76AF076F
330
1D76AF031B
100
AcDbEntity
  8
JISSEN
100
AcDbCircle
 10
445.9060322670194
 20
140.5007540037038
 30
0.0
 40
30.0
100
AcDbArc
 50
324.7907943550746
 51
0.0
  0
LWPOLYLINE
  5
1D76AF0770
330
1D76AF031B
100
AcDbEntity
  8
JISSEN
100
AcDbPolyline
 90
        3
 70
     0
 43
0.0
 10
418.9060322670194
 20
120.5007540037039
 10
423.9060322670194
 20
122.0007540037038
 10
437.4060322670194
 20
122.0007540037038
  0
LWPOLYLINE
  5
1D76AF0771
330
1D76AF031B
100
AcDbEntity
  8
JISSEN
100
AcDbPolyline
 90
        3
 70
     0
 43
0.0
 10
418.9060322670194
 20
119.5007540037039
 10
423.9060322670194
 20
118.0007540037038
 10
437.4060322670194
 20
118.0007540037038
  0
ARC
  5
1D76AF0772
330
1D76AF031B
100
AcDbEntity
  8
JISSEN
100
AcDbCircle
 10
453.9060322670194
 20
118.0007540037038
 30
0.0
 40
30.0
100
AcDbArc
 50
180.0
 51
235.6590914470854
  0
LWPOLYLINE
  5
1D76AF0773
330
1D76AF031B
100
AcDbEntity
  8
JISSEN
100
AcDbPolyline
 90
        4
 70
     0
 43
0.0
 10
470.4060322670194
 20
118.0007540037038
 10
483.9060322670194
 20
118.0007540037038
 10
488.9060322670194
 20
119.5007540037039
 10
418.9060322670194
 20
119.5007540037039
  0
LWPOLYLINE
  5
1D76AF0774
330
1D76AF031B
100
AcDbEntity
  8
JISSEN
100
AcDbPolyline
 90
        4
 70
     0
 43
0.0
 10
470.4060322670194
 20
122.0007540037038
 10
483.9060322670194
 20
122.0007540037038
 10
488.9060322670194
 20
120.5007540037039
 10
418.9060322670194
 20
120.5007540037039
  0
ARC
  5
1D76AF0775
330
1D76AF031B
100
AcDbEntity
  8
JISSEN
100
AcDbCircle
 10
453.9060322670194
 20
118.0007540037038
 30
0.0
 40
35.0
100
AcDbArc
 50
180.0
 51
0.0
  0
TEXT
  5
1D76AF0776
330
1D76AF031B
100
AcDbEntity
  8
SUNPOU
100
AcDbText
 10
507.5606049433896
 20
7.849423898685245
 30
0.0
 40
3.0
  1
DP ガード取付状態
  7
K
100
AcDbText
  0
TEXT
  5
1D76AF0777
330
1D76AF031B
100
AcDbEntity
  8
SUNPOU
100
AcDbText
 10
507.5606049433896
 20
2.849423898685245
 30
0.0
 40
3.0
  1
尺度　1/1
  7
K
100
AcDbText
  0
LINE
  5
1D76AF0778
330
1D76AF031B
100
AcDbEntity
  8
SUNPOU
100
AcDbLine
 10
481.8745839330392
 20
96.9588881713882
 30
0.0
 11
491.6599510902686
 21
76.83181590054409
 31
0.0
  0
ARC
  5
1D76AF0779
330
1D76AF031B
100
AcDbEntity
  8
JISSEN
100
AcDbCircle
 10
453.9060322670194
 20
118.0007540037038
 30
0.0
 40
30.0
100
AcDbArc
 50
304.3409085529146
 51
0.0
  0
LWPOLYLINE
  5
1D76AF077A
330
1D76AF031B
100
AcDbEntity
  8
JISSEN
100
AcDbPolyline
 90
        5
 70
     1
 43
0.0
 10
470.4060322670194
 20
118.0007540037038
 10
470.6560322670194
 20
107.0476318649005
 10
470.8295041759105
 20
93.22988202573403
 10
468.9060322670194
 20
86.37797740202008
 10
468.9060322670193
 20
119.5007540037039
  0
LWPOLYLINE
  5
1D76AF077B
330
1D76AF031B
100
AcDbEntity
  8
JISSEN
100
AcDbPolyline
 90
        4
 70
     1
 43
0.0
 10
467.9060322670194
 20
85.92272413901302
 10
465.9079602936402
 20
90.50614137424842
 10
466.1560322670194
 20
118.0007540037038
 10
467.9060322670194
 20
119.5007540037039
  0
LWPOLYLINE
  5
1D76AF077C
330
1D76AF031B
100
AcDbEntity
  8
JISSEN
100
AcDbPolyline
 90
        5
 70
     1
 43
0.0
 10
437.4060322670194
 20
118.0007540037038
 10
437.1560322670194
 20
107.0476318649005
 10
436.9825603581282
 20
93.22988202573403
 10
438.9060322670194
 20
86.37797740202008
 10
438.9060322670194
 20
119.5007540037039
  0
LWPOLYLINE
  5
1D76AF077D
330
1D76AF031B
100
AcDbEntity
  8
JISSEN
100
AcDbPolyline
 90
        4
 70
     1
 43
0.0
 10
439.9060322670194
 20
85.92272413901302
 10
441.9041042403985
 20
90.50614137424842
 10
441.6560322670194
 20
118.0007540037038
 10
439.9060322670194
 20
119.5007540037039
  0
LINE
  5
1D76AF077E
330
1D76AF031B
100
AcDbEntity
  8
SUNPOU
100
AcDbLine
 10
457.1382898171899
 20
106.7007540037037
 30
0.0
 11
471.6599510902685
 21
76.83181590054409
 31
0.0
  0
CIRCLE
  5
1D76AF077F
330
1D76AF031B
100
AcDbEntity
  8
SUNPOU
100
AcDbCircle
 10
474.2834052206566
 20
71.43575359310637
 30
0.0
 40
6.0
  0
TEXT
  5
1D76AF0780
330
1D76AF031B
100
AcDbEntity
  8
SUNPOU
100
AcDbText
 10
472.461976649228
 20
69.18575359310636
 30
0.0
 40
4.5
  1
1
  7
K
 72
     4
 11
474.2834052206566
 21
71.43575359310637
 31
0.0
100
AcDbText
  0
LINE
  5
1D76AF0781
330
1D76AF031B
100
AcDbEntity
  8
JISSEN
100
AcDbLine
 10
457.5967013842727
 20
125.1124841385514
 30
0.0
 11
458.976765886868
 21
125.1124841385514
 31
0.0
  0
LINE
  5
1D76AF0782
330
1D76AF031B
100
AcDbEntity
  8
JISSEN
100
AcDbLine
 10
458.1609551765013
 20
107.863526654173
 30
0.0
 11
457.8006600210624
 21
109.1368917372371
 31
0.0
  0
INSERT
  5
1D76AF0783
330
1D76AF031B
100
AcDbEntity
  8
SUNPOU
100
AcDbBlockReference
  2
ARROW
 10
457.1382898171899
 20
106.7007540037036
 30
0.0
 41
-1.499999999999991
 42
1.5
 43
1.5
 50
295.9280644736455
  0
LINE
  5
1D76AF0784
330
1D76AF031B
100
AcDbEntity
  8
JISSEN
100
AcDbLine
 10
457.3195479713133
 20
109.5007624031976
 30
0.0
 11
461.2242914746141
 21
109.5007624031977
 31
0.0
  0
LINE
  5
1D76AF0785
330
1D76AF031B
100
AcDbEntity
  8
JISSEN
100
AcDbLine
 10
463.4265993175712
 20
106.7007540037038
 30
0.0
 11
453.9060322670194
 21
106.7007540037038
 31
0.0
  0
ARC
  5
1D76AF0786
330
1D76AF031B
100
AcDbEntity
  8
JISSEN
100
AcDbCircle
 10
453.9060322670194
 20
118.0007540037038
 30
0.0
 40
30.0
100
AcDbArc
 50
246.4178037857017
 51
293.5821962142982
  0
LINE
  5
1D76AF0787
330
1D76AF031B
100
AcDbEntity
  8
JISSEN
100
AcDbLine
 10
466.0556829646647
 20
106.8787189011607
 30
0.0
 11
441.7563815693742
 21
106.8787189011607
 31
0.0
  0
LINE
  5
1D76AF0788
330
1D76AF031B
100
AcDbEntity
  8
JISSEN
100
AcDbLine
 10
441.7474960758418
 20
107.8635266541729
 30
0.0
 11
466.0645684581968
 21
107.863526654173
 31
0.0
  0
LWPOLYLINE
  5
1D76AF0789
330
1D76AF031B
100
AcDbEntity
  8
JISSEN
100
AcDbPolyline
 90
        2
 70
     0
 43
0.0
 10
441.4060322670194
 20
122.0007540037038
 10
466.4060322670194
 20
122.0007540037038
  0
LWPOLYLINE
  5
1D76AF078A
330
1D76AF031B
100
AcDbEntity
  8
JISSEN
100
AcDbPolyline
 90
        2
 70
     0
 43
0.0
 10
441.6560322670194
 20
118.0007540037038
 10
466.1560322670193
 20
118.0007540037038
  0
LINE
  5
1D76AF078B
330
1D76AF031B
100
AcDbEntity
  8
JISSEN
100
AcDbLine
 10
456.1604369797666
 20
109.5007624031977
 30
0.0
 11
456.328577052252
 21
107.863526654173
 31
0.0
  0
ARC
  5
1D76AF078C
330
1D76AF031B
100
AcDbEntity
  8
JISSEN
100
AcDbCircle
 10
457.3195479713133
 20
109.0007624031967
 30
0.0
 40
0.5
100
AcDbArc
 50
15.79871507350289
 51
166.7098700100968
  0
LINE
  5
1D76AF078D
330
1D76AF031B
100
AcDbEntity
  8
JISSEN
100
AcDbLine
 10
451.4834874817871
 20
107.863526654173
 30
0.0
 11
451.6516275542723
 21
109.5007624031977
 31
0.0
  0
ARC
  5
1D76AF078E
330
1D76AF031B
100
AcDbEntity
  8
JISSEN
100
AcDbCircle
 10
450.4925165627254
 20
109.0007624031967
 30
0.0
 40
0.5
100
AcDbArc
 50
13.29012998990317
 51
164.2012849264971
  0
ARC
  5
1D76AF078F
330
1D76AF031B
100
AcDbEntity
  8
JISSEN
100
AcDbCircle
 10
445.7392449220008
 20
108.5007624031971
 30
0.0
 40
1.0
100
AcDbArc
 50
47.91894748809134
 51
146.3490341753983
  0
LINE
  5
1D76AF0790
330
1D76AF031B
100
AcDbEntity
  8
JISSEN
100
AcDbLine
 10
445.4551387059036
 20
107.863526654173
 30
0.0
 11
446.5877730594248
 21
109.5007624031977
 31
0.0
  0
LINE
  5
1D76AF0791
330
1D76AF031B
100
AcDbEntity
  8
JISSEN
100
AcDbLine
 10
441.7470362199776
 20
107.9144939548493
 30
0.0
 11
443.4848402092536
 21
109.5007624031977
 31
0.0
  0
ARC
  5
1D76AF0792
330
1D76AF031B
100
AcDbEntity
  8
JISSEN
100
AcDbCircle
 10
442.9400241798301
 20
108.1452624031976
 30
0.0
 40
1.355499999999999
100
AcDbArc
 50
70.26879749382175
 51
124.999999999997
  0
LINE
  5
1D76AF0793
330
1D76AF031B
100
AcDbEntity
  8
JISSEN
100
AcDbLine
 10
436.8185436034934
 20
108.2007540037038
 30
0.0
 11
437.1823517520984
 21
108.2007540037038
 31
0.0
  0
LINE
  5
1D76AF0794
330
1D76AF031B
100
AcDbEntity
  8
JISSEN
100
AcDbLine
 10
437.1539116862737
 20
106.8787189011607
 30
0.0
 11
435.0796804446863
 21
106.8787189011607
 31
0.0
  0
LINE
  5
1D76AF0795
330
1D76AF031B
100
AcDbEntity
  8
JISSEN
100
AcDbLine
 10
434.9060322670194
 20
107.8635266541729
 30
0.0
 11
437.1746546921811
 21
107.8635266541729
 31
0.0
  0
LINE
  5
1D76AF0796
330
1D76AF031B
100
AcDbEntity
  8
JISSEN
100
AcDbLine
 10
435.0796804446863
 20
106.8787189011604
 30
0.0
 11
434.9060322670194
 21
107.8635266541729
 31
0.0
  0
LINE
  5
1D76AF0797
330
1D76AF031B
100
AcDbEntity
  8
JISSEN
100
AcDbLine
 10
434.9060322670194
 20
107.8635266541729
 30
0.0
 11
435.9060322670189
 21
108.0398536348811
 31
0.0
  0
LINE
  5
1D76AF0798
330
1D76AF031B
100
AcDbEntity
  8
JISSEN
100
AcDbLine
 10
435.9060322670189
 20
108.0398536348811
 30
0.0
 11
436.8185436034933
 21
108.2007540037038
 31
0.0
  0
LINE
  5
1D76AF0799
330
1D76AF031B
100
AcDbEntity
  8
JISSEN
100
AcDbLine
 10
441.7376203042569
 20
108.9580901006149
 30
0.0
 11
442.1625413203563
 21
109.2556229992314
 31
0.0
  0
LINE
  5
1D76AF079A
330
1D76AF031B
100
AcDbEntity
  8
JISSEN
100
AcDbLine
 10
451.2749001080131
 20
107.863526654173
 30
0.0
 11
450.979125806558
 21
109.1157034481575
 31
0.0
  0
LINE
  5
1D76AF079B
330
1D76AF031B
100
AcDbEntity
  8
JISSEN
100
AcDbLine
 10
444.3854652164676
 20
106.7007540037038
 30
0.0
 11
453.9060322670194
 21
106.7007540037038
 31
0.0
  0
LINE
  5
1D76AF079C
330
1D76AF031B
100
AcDbEntity
  8
JISSEN
100
AcDbLine
 10
444.3854652164676
 20
106.7007540037038
 30
0.0
 11
444.2608528537316
 21
106.8787189011607
 31
0.0
  0
LINE
  5
1D76AF079D
330
1D76AF031B
100
AcDbEntity
  8
JISSEN
100
AcDbLine
 10
444.1137448202754
 20
107.863526654173
 30
0.0
 11
444.9068162644002
 21
109.0548946347136
 31
0.0
  0
ARC
  5
1D76AF079E
330
1D76AF031B
100
AcDbEntity
  8
JISSEN
100
AcDbCircle
 10
450.6922046862534
 20
108.2019721681093
 30
0.0
 40
0.1
100
AcDbArc
 50
13.29012998990878
 51
164.2012849264932
  0
LINE
  5
1D76AF079F
330
1D76AF031B
100
AcDbEntity
  8
JISSEN
100
AcDbLine
 10
450.8749001080131
 20
107.863526654173
 30
0.0
 11
450.78952653502
 21
108.2249603771015
 31
0.0
  0
LINE
  5
1D76AF07A0
330
1D76AF031B
100
AcDbEntity
  8
JISSEN
100
AcDbLine
 10
450.4925165627254
 20
107.863526654173
 30
0.0
 11
450.5959822763037
 21
108.2291980349174
 31
0.0
  0
LINE
  5
1D76AF07A1
330
1D76AF031B
100
AcDbEntity
  8
JISSEN
100
AcDbLine
 10
449.6511093575374
 20
107.863526654173
 30
0.0
 11
450.0114045129764
 21
109.1368917372371
 31
0.0
  0
ARC
  5
1D76AF07A2
330
1D76AF031B
100
AcDbEntity
  8
JISSEN
100
AcDbCircle
 10
457.1198598477852
 20
108.2019721681093
 30
0.0
 40
0.1
100
AcDbArc
 50
15.79871507350672
 51
166.7098700100912
  0
LINE
  5
1D76AF07A3
330
1D76AF031B
100
AcDbEntity
  8
JISSEN
100
AcDbLine
 10
457.3195479713133
 20
107.863526654173
 30
0.0
 11
457.2160822577351
 21
108.2291980349174
 31
0.0
  0
LINE
  5
1D76AF07A4
330
1D76AF031B
100
AcDbEntity
  8
JISSEN
100
AcDbLine
 10
456.9371644260257
 20
107.863526654173
 30
0.0
 11
457.0225379990188
 21
108.2249603771015
 31
0.0
  0
LINE
  5
1D76AF07A5
330
1D76AF031B
100
AcDbEntity
  8
JISSEN
100
AcDbLine
 10
456.5371644260257
 20
107.863526654173
 30
0.0
 11
456.8329387274808
 21
109.1157034481575
 31
0.0
  0
LINE
  5
1D76AF07A6
330
1D76AF031B
100
AcDbEntity
  8
JISSEN
100
AcDbLine
 10
443.4848402092536
 20
109.5007624031977
 30
0.0
 11
445.7392449220008
 21
109.5007624031977
 31
0.0
  0
LINE
  5
1D76AF07A7
330
1D76AF031B
100
AcDbEntity
  8
JISSEN
100
AcDbLine
 10
441.6561588506205
 20
117.9867243371073
 30
0.0
 11
448.8322027823873
 21
109.5007624031977
 31
0.0
  0
ARC
  5
1D76AF07A8
330
1D76AF031B
100
AcDbEntity
  8
JISSEN
100
AcDbCircle
 10
461.9060322670194
 20
140.5007540037038
 30
0.0
 40
24.0
100
AcDbArc
 50
211.3322067072326
 51
230.428780542768
  0
ARC
  5
1D76AF07A9
330
1D76AF031B
100
AcDbEntity
  8
JISSEN
100
AcDbCircle
 10
437.1560322670194
 20
114.5007540037038
 30
0.0
 40
12.49999999999999
100
AcDbArc
 50
343.7397952916875
 51
16.26020470831243
  0
LINE
  5
1D76AF07AA
330
1D76AF031B
100
AcDbEntity
  8
JISSEN
100
AcDbLine
 10
450.4925165627254
 20
109.5007624031977
 30
0.0
 11
446.5877730594248
 21
109.5007624031977
 31
0.0
  0
ARC
  5
1D76AF07AB
330
1D76AF031B
100
AcDbEntity
  8
JISSEN
100
AcDbCircle
 10
447.9060322670194
 20
109.0473190215647
 30
0.0
 40
1.0
100
AcDbArc
 50
26.96482331252983
 51
40.21909874455624
  0
LINE
  5
1D76AF07AC
330
1D76AF031B
100
AcDbEntity
  8
JISSEN
100
AcDbLine
 10
451.6516275542723
 20
109.5007624031977
 30
0.0
 11
456.1604369797666
 21
109.5007624031977
 31
0.0
  0
ARC
  5
1D76AF07AD
330
1D76AF031B
100
AcDbEntity
  8
JISSEN
100
AcDbCircle
 10
449.9060322670195
 20
127.384962074344
 30
0.0
 40
1.5
100
AcDbArc
 50
284.2500326978035
 51
0.0
  0
LINE
  5
1D76AF07AE
330
1D76AF031B
100
AcDbEntity
  8
JISSEN
100
AcDbLine
 10
449.9060322670195
 20
122.0007540037038
 30
0.0
 11
449.9060322670195
 21
123.984962074344
 31
0.0
  0
ARC
  5
1D76AF07AF
330
1D76AF031B
100
AcDbEntity
  8
JISSEN
100
AcDbCircle
 10
449.6762677288917
 20
124.4139970815914
 30
0.0
 40
0.4866855046380603
100
AcDbArc
 50
298.1707402297525
 51
355.8150838748825
  0
LINE
  5
1D76AF07B0
330
1D76AF031B
100
AcDbEntity
  8
JISSEN
100
AcDbLine
 10
450.1616555954504
 20
124.3784808962334
 30
0.0
 11
450.2752630362502
 21
125.9311159204979
 31
0.0
  0
LINE
  5
1D76AF07B1
330
1D76AF031B
100
AcDbEntity
  8
JISSEN
100
AcDbLine
 10
448.8352986471708
 20
125.1124841385514
 30
0.0
 11
450.2153631497663
 21
125.1124841385514
 31
0.0
  0
ARC
  5
1D76AF07B2
330
1D76AF031B
100
AcDbEntity
  8
JISSEN
100
AcDbCircle
 10
457.9060322670195
 20
127.384962074344
 30
0.0
 40
1.5
100
AcDbArc
 50
180.0
 51
255.7499673021964
  0
LINE
  5
1D76AF07B3
330
1D76AF031B
100
AcDbEntity
  8
JISSEN
100
AcDbLine
 10
457.9060322670195
 20
123.984962074344
 30
0.0
 11
457.9060322670195
 21
122.0007540037038
 31
0.0
  0
ARC
  5
1D76AF07B4
330
1D76AF031B
100
AcDbEntity
  8
JISSEN
100
AcDbCircle
 10
458.1357968051474
 20
124.4139970815914
 30
0.0
 40
0.4866855046380603
100
AcDbArc
 50
184.1849161251174
 51
241.8292597702474
  0
LINE
  5
1D76AF07B5
330
1D76AF031B
100
AcDbEntity
  8
JISSEN
100
AcDbLine
 10
457.5368014977888
 20
125.9311159204979
 30
0.0
 11
457.6504089385886
 21
124.3784808962334
 31
0.0
  0
ARC
  5
1D76AF07B6
330
1D76AF031B
100
AcDbEntity
  8
JISSEN
100
AcDbCircle
 10
462.072819612038
 20
108.5007624031971
 30
0.0
 40
1.0
100
AcDbArc
 50
33.65096582460159
 51
132.0810525119086
  0
LINE
  5
1D76AF07B7
330
1D76AF031B
100
AcDbEntity
  8
JISSEN
100
AcDbLine
 10
462.3569258281352
 20
107.863526654173
 30
0.0
 11
461.2242914746141
 21
109.5007624031976
 31
0.0
  0
LINE
  5
1D76AF07B8
330
1D76AF031B
100
AcDbEntity
  8
JISSEN
100
AcDbLine
 10
466.0650283140612
 20
107.9144939548493
 30
0.0
 11
464.327224324785
 21
109.5007624031976
 31
0.0
  0
ARC
  5
1D76AF07B9
330
1D76AF031B
100
AcDbEntity
  8
JISSEN
100
AcDbCircle
 10
464.8720403542086
 20
108.1452624031976
 30
0.0
 40
1.355499999999999
100
AcDbArc
 50
55.00000000000298
 51
109.731202506171
  0
LINE
  5
1D76AF07BA
330
1D76AF031B
100
AcDbEntity
  8
JISSEN
100
AcDbLine
 10
470.6374098418575
 20
107.8635266541731
 30
0.0
 11
472.9060322670194
 21
107.8635266541731
 31
0.0
  0
LINE
  5
1D76AF07BB
330
1D76AF031B
100
AcDbEntity
  8
JISSEN
100
AcDbLine
 10
472.7323840893524
 20
106.8787189011607
 30
0.0
 11
470.6581528477649
 21
106.8787189011607
 31
0.0
  0
LINE
  5
1D76AF07BC
330
1D76AF031B
100
AcDbEntity
  8
JISSEN
100
AcDbLine
 10
472.9060322670194
 20
107.8635266541731
 30
0.0
 11
470.9935209305455
 21
108.2007540037041
 31
0.0
  0
LINE
  5
1D76AF07BD
330
1D76AF031B
100
AcDbEntity
  8
JISSEN
100
AcDbLine
 10
463.4265993175712
 20
106.7007540037038
 30
0.0
 11
463.5512116803072
 21
106.8787189011607
 31
0.0
  0
LINE
  5
1D76AF07BE
330
1D76AF031B
100
AcDbEntity
  8
JISSEN
100
AcDbLine
 10
463.6983197137634
 20
107.863526654173
 30
0.0
 11
462.9052482696386
 21
109.0548946347136
 31
0.0
  0
LINE
  5
1D76AF07BF
330
1D76AF031B
100
AcDbEntity
  8
JISSEN
100
AcDbLine
 10
466.0744442297819
 20
108.9580901006149
 30
0.0
 11
465.6495232136824
 21
109.2556229992314
 31
0.0
  0
LINE
  5
1D76AF07C0
330
1D76AF031B
100
AcDbEntity
  8
JISSEN
100
AcDbLine
 10
470.6297127819404
 20
108.2007540037038
 30
0.0
 11
470.9935209305467
 21
108.2007540037038
 31
0.0
  0
INSERT
  5
1D76AF07C1
330
1D76AF031B
100
AcDbEntity
  8
SUNPOU
100
AcDbBlockReference
  2
ARROW
 10
481.8745839330394
 20
96.95888817138797
 30
0.0
 41
-1.499999999999991
 42
1.5
 43
1.5
 50
295.9280644736455
  0
LINE
  5
1D76AF07C2
330
1D76AF031B
100
AcDbEntity
  8
JISSEN
100
AcDbLine
 10
472.7323840893524
 20
106.8787189011607
 30
0.0
 11
472.9060322670194
 21
107.8635266541731
 31
0.0
  0
LINE
  5
1D76AF07C3
330
1D76AF031B
100
AcDbEntity
  8
JISSEN
100
AcDbLine
 10
466.1559056834183
 20
117.9867243371073
 30
0.0
 11
458.9798617516516
 21
109.5007624031976
 31
0.0
  0
ARC
  5
1D76AF07C4
330
1D76AF031B
100
AcDbEntity
  8
JISSEN
100
AcDbCircle
 10
470.6560322670193
 20
114.5007540037038
 30
0.0
 40
12.49999999999999
100
AcDbArc
 50
163.7397952916875
 51
196.2602047083124
  0
ARC
  5
1D76AF07C5
330
1D76AF031B
100
AcDbEntity
  8
JISSEN
100
AcDbCircle
 10
459.9060322670194
 20
109.0473190215647
 30
0.0
 40
1.0
100
AcDbArc
 50
139.7809012554437
 51
153.0351766874614
  0
LINE
  5
1D76AF07C6
330
1D76AF031B
100
AcDbEntity
  8
JISSEN
100
AcDbLine
 10
464.327224324785
 20
109.5007624031976
 30
0.0
 11
462.072819612038
 21
109.5007624031976
 31
0.0
  0
ARC
  5
1D76AF07C7
330
1D76AF031B
100
AcDbEntity
  8
JISSEN
100
AcDbCircle
 10
445.9060322670194
 20
140.5007540037038
 30
0.0
 40
24.0
100
AcDbArc
 50
309.5712194572318
 51
328.6677932927674
  0
CIRCLE
  5
1D76AF07C8
330
1D76AF031B
100
AcDbEntity
  8
SUNPOU
100
AcDbCircle
 10
494.2834052206566
 20
71.43575359310637
 30
0.0
 40
6.0
  0
TEXT
  5
1D76AF07C9
330
1D76AF031B
100
AcDbEntity
  8
SUNPOU
100
AcDbText
 10
492.1405480777994
 20
69.18575359310636
 30
0.0
 40
4.5
  1
2
  7
K
 72
     4
 11
494.2834052206566
 21
71.43575359310637
 31
0.0
100
AcDbText
  0
LWPOLYLINE
  5
1D76AF07CA
330
1D76AF031B
100
AcDbEntity
  8
JISSEN
100
AcDbPolyline
 90
       15
 70
     0
 43
0.0
 10
470.6560322670194
 20
148.0007540037038
 10
479.4749868780697
 20
148.0007540037039
 42
0.493145426031304
 10
480.9238756175034
 20
149.8889825713576
 10
479.4413092393441
 20
155.4219956202412
 42
0.1651006681921958
 10
479.262727040704
 20
155.6892627678356
 10
476.384986598093
 20
157.8974306738494
 42
0.1651006681921981
 10
476.0806058835886
 20
158.0007540037039
 10
453.9060322670194
 20
158.0007540037039
 10
431.7314586504501
 20
158.0007540037039
 42
0.1651006681921981
 10
431.4270779359457
 20
157.8974306738494
 10
428.5493374933347
 20
155.6892627678356
 42
0.1651006681921958
 10
428.3707552946946
 20
155.4219956202412
 10
426.8881889165353
 20
149.8889825713576
 42
0.493145426031304
 10
428.337077655969
 20
148.0007540037039
 10
437.1560322670194
 20
148.0007540037039
  0
LINE
  5
1D76AF07CB
330
1D76AF031B
100
AcDbEntity
  8
JISSEN
100
AcDbLine
 10
421.0256252317488
 20
149.5229826349794
 30
0.0
 11
428.1028061022635
 21
154.4219956202412
 31
0.0
  0
ARC
  5
1D76AF07CC
330
1D76AF031B
100
AcDbEntity
  8
JISSEN
100
AcDbCircle
 10
424.1560322670194
 20
145.0007540037038
 30
0.0
 40
5.5
100
AcDbArc
 50
60.4954761027045
 51
33.05573115085406
  0
LWPOLYLINE
  5
1D76AF07CD
330
1D76AF031B
100
AcDbEntity
  8
JISSEN
100
AcDbPolyline
 90
        6
 70
     1
 43
0.0
 10
426.1560322670194
 20
141.5366523885661
 10
428.1560322670194
 20
145.0007540037038
 10
426.1560322670194
 20
148.4648556188416
 10
422.1560322670194
 20
148.4648556188416
 10
420.1560322670194
 20
145.0007540037038
 10
422.1560322670194
 20
141.5366523885661
  0
LWPOLYLINE
  5
1D76AF07CE
330
1D76AF031B
100
AcDbEntity
  8
JISSEN
100
AcDbPolyline
 90
        6
 70
     1
 43
0.0
 10
425.9828271862625
 20
141.8366523885661
 10
427.8096221055057
 20
145.0007540037038
 10
425.9828271862625
 20
148.1648556188416
 10
422.3292373477762
 20
148.1648556188416
 10
420.5024424285332
 20
145.0007540037038
 10
422.3292373477764
 20
141.8366523885661
  0
CIRCLE
  5
1D76AF07CF
330
1D76AF031B
100
AcDbEntity
  8
JISSEN
100
AcDbCircle
 10
424.1560322670194
 20
145.0007540037038
 30
0.0
 40
2.0
  0
LWPOLYLINE
  5
1D76AF07D0
330
1D76AF031B
100
AcDbEntity
  8
NITEN
100
AcDbPolyline
 90
        5
 70
     0
 43
0.0
 10
470.9060322670194
 20
202.6113029094276
 10
470.9060322670194
 20
223.4490205605735
 42
-0.5882352941176475
 10
453.9060322670194
 20
223.4490205605735
 42
0.5882352941176476
 10
436.9060322670194
 20
223.4490205605732
 10
436.9060322670194
 20
202.6113029094276
  0
LINE
  5
1D76AF07D1
330
1D76AF031B
100
AcDbEntity
  8
JISSEN
100
AcDbLine
 10
486.7864393022899
 20
149.5229826349794
 30
0.0
 11
479.7092584317753
 21
154.4219956202412
 31
0.0
  0
ARC
  5
1D76AF07D2
330
1D76AF031B
100
AcDbEntity
  8
JISSEN
100
AcDbCircle
 10
483.6560322670193
 20
145.0007540037038
 30
0.0
 40
5.5
100
AcDbArc
 50
146.9442688491449
 51
119.5045238972955
  0
LWPOLYLINE
  5
1D76AF07D3
330
1D76AF031B
100
AcDbEntity
  8
JISSEN
100
AcDbPolyline
 90
        6
 70
     1
 43
0.0
 10
481.6560322670193
 20
141.5366523885661
 10
479.6560322670193
 20
145.0007540037038
 10
481.6560322670193
 20
148.4648556188416
 10
485.6560322670193
 20
148.4648556188416
 10
487.6560322670193
 20
145.0007540037038
 10
485.6560322670193
 20
141.5366523885661
  0
LWPOLYLINE
  5
1D76AF07D4
330
1D76AF031B
100
AcDbEntity
  8
JISSEN
100
AcDbPolyline
 90
        6
 70
     1
 43
0.0
 10
481.8292373477762
 20
141.8366523885661
 10
480.002442428533
 20
145.0007540037038
 10
481.8292373477762
 20
148.1648556188416
 10
485.4828271862624
 20
148.1648556188416
 10
487.3096221055056
 20
145.0007540037038
 10
485.4828271862624
 20
141.8366523885661
  0
LWPOLYLINE
  5
1D76AF07D5
330
1D76AF031B
100
AcDbEntity
  8
NITEN
100
AcDbPolyline
 90
       15
 70
     1
 43
0.0
 10
439.9060322670194
 20
162.1113029094276
 42
0.4142135623730927
 10
441.4060322670194
 20
160.6113029094276
 10
464.500083438016
 20
160.6113029094276
 10
466.4060322670194
 20
160.6113029094276
 42
0.4142135623730925
 10
467.9060322670194
 20
162.1113029094276
 10
467.9060322670194
 20
173.1573189356456
 42
-0.4142135623730943
 10
472.9060322670194
 20
178.1573189356456
 42
0.4142135623730951
 10
474.9060322670194
 20
180.1573189356456
 10
474.9060322670194
 20
200.6113029094276
 42
0.4142135623730948
 10
472.9060322670194
 20
202.6113029094276
 10
434.9060322670194
 20
202.6113029094276
 42
0.4142135623730951
 10
432.9060322670194
 20
200.6113029094276
 10
432.9060322670194
 20
180.1573189356456
 42
0.4142135623730951
 10
434.9060322670194
 20
178.1573189356456
 42
-0.4142135623730961
 10
439.9060322670194
 20
173.1573189356456
  0
LINE
  5
1D76AF07D6
330
1D76AF031B
100
AcDbEntity
  8
JISSEN
100
AcDbLine
 10
458.8624691631841
 20
145.7254496759599
 30
0.0
 11
448.9495953708547
 21
145.72544967596
 31
0.0
  0
ARC
  5
1D76AF07D7
330
1D76AF031B
100
AcDbEntity
  8
JISSEN
100
AcDbCircle
 10
456.633001958728
 20
140.0383405388706
 30
0.0
 40
1.5
100
AcDbArc
 50
14.14900450893472
 51
90.0
  0
ARC
  5
1D76AF07D8
330
1D76AF031B
100
AcDbEntity
  8
JISSEN
100
AcDbCircle
 10
447.9060322670194
 20
137.8383405388706
 30
0.0
 40
10.5
100
AcDbArc
 50
0.0
 51
14.14900450893472
  0
ARC
  5
1D76AF07D9
330
1D76AF031B
100
AcDbEntity
  8
JISSEN
100
AcDbCircle
 10
456.9060322670194
 20
134.0883405388706
 30
0.0
 40
1.5
100
AcDbArc
 50
270.0
 51
0.0
  0
ARC
  5
1D76AF07DA
330
1D76AF031B
100
AcDbEntity
  8
JISSEN
100
AcDbCircle
 10
447.9060322670194
 20
137.8383405388706
 30
0.0
 40
13.5
100
AcDbArc
 50
0.0
 51
40.96178855235445
  0
LINE
  5
1D76AF07DB
330
1D76AF031B
100
AcDbEntity
  8
JISSEN
100
AcDbLine
 10
462.4060322670194
 20
172.5007540037038
 30
0.0
 11
453.9060322670194
 21
172.5007540037038
 31
0.0
  0
LINE
  5
1D76AF07DC
330
1D76AF031B
100
AcDbEntity
  8
JISSEN
100
AcDbLine
 10
464.1840864949316
 20
170.7226997757916
 30
0.0
 11
443.6279780391072
 21
170.7226997757916
 31
0.0
  0
LWPOLYLINE
  5
1D76AF07DD
330
1D76AF031B
100
AcDbEntity
  8
JISSEN
100
AcDbPolyline
 90
        2
 70
     0
 43
0.0
 10
453.9060322670194
 20
148.0007540037038
 10
466.4060322670194
 20
148.0007540037039
 42
0.493145426031304
  0
LINE
  5
1D76AF07DE
330
1D76AF031B
100
AcDbEntity
  8
JISSEN
100
AcDbLine
 10
464.5695466213452
 20
158.3885921218126
 30
0.0
 11
453.9060322670194
 21
158.3885921218126
 31
0.0
  0
LINE
  5
1D76AF07DF
330
1D76AF031B
100
AcDbEntity
  8
JISSEN
100
AcDbLine
 10
463.4060322670194
 20
158.0007540037039
 30
0.0
 11
453.9060322670194
 21
158.0007540037039
 31
0.0
  0
LINE
  5
1D76AF07E0
330
1D76AF031B
100
AcDbEntity
  8
JISSEN
100
AcDbLine
 10
446.4060322670194
 20
146.6883405388714
 30
0.0
 11
461.4060322670194
 21
146.6883405388714
 31
0.0
  0
LINE
  5
1D76AF07E1
330
1D76AF031B
100
AcDbEntity
  8
JISSEN
100
AcDbLine
 10
438.4060322670194
 20
158.0007540037039
 30
0.0
 11
438.4060322670194
 21
150.143611146561
 31
0.0
  0
LWPOLYLINE
  5
1D76AF07E2
330
1D76AF031B
100
AcDbEntity
  8
JISSEN
100
AcDbPolyline
 90
        2
 70
     0
 43
0.0
 10
441.4060322670194
 20
148.0007540037039
 10
453.9060322670194
 20
148.0007540037038
  0
ARC
  5
1D76AF07E3
330
1D76AF031B
100
AcDbEntity
  8
JISSEN
100
AcDbCircle
 10
448.9060322670194
 20
140.5007540037038
 30
0.0
 40
17.0
100
AcDbArc
 50
153.8210312959876
 51
180.0
  0
ARC
  5
1D76AF07E4
330
1D76AF031B
100
AcDbEntity
  8
JISSEN
100
AcDbCircle
 10
448.9060322670194
 20
140.5007540037038
 30
0.0
 40
15.0
100
AcDbArc
 50
149.9999999999991
 51
180.0
  0
ARC
  5
1D76AF07E5
330
1D76AF031B
100
AcDbEntity
  8
JISSEN
100
AcDbCircle
 10
446.6947854834971
 20
139.8990962808592
 30
0.0
 40
10.80551655320168
100
AcDbArc
 50
151.65714641651
 51
176.8080854238748
  0
ARC
  5
1D76AF07E6
330
1D76AF031B
100
AcDbEntity
  8
JISSEN
100
AcDbCircle
 10
461.9060322670194
 20
140.5007540037038
 30
0.0
 40
26.0
100
AcDbArc
 50
180.0
 51
198.9091960083252
  0
ARC
  5
1D76AF07E7
330
1D76AF031B
100
AcDbEntity
  8
JISSEN
100
AcDbCircle
 10
448.8453373146952
 20
139.3468020662754
 30
0.0
 40
11.0
100
AcDbArc
 50
128.1196922672763
 51
132.5552199034
  0
LINE
  5
1D76AF07E8
330
1D76AF031B
100
AcDbEntity
  8
JISSEN
100
AcDbLine
 10
455.6560322670195
 20
143.328394201501
 30
0.0
 11
455.6560322670195
 21
140.8160236999049
 31
0.0
  0
LINE
  5
1D76AF07E9
330
1D76AF031B
100
AcDbEntity
  8
JISSEN
100
AcDbLine
 10
452.1560322670195
 20
140.8160236999049
 30
0.0
 11
452.1560322670195
 21
143.328394201501
 31
0.0
  0
LINE
  5
1D76AF07EA
330
1D76AF031B
100
AcDbEntity
  8
JISSEN
100
AcDbLine
 10
451.9060322670194
 20
141.7383405388706
 30
0.0
 11
451.9060322670194
 21
144.5516777454885
 31
0.0
  0
LINE
  5
1D76AF07EB
330
1D76AF031B
100
AcDbEntity
  8
JISSEN
100
AcDbLine
 10
455.9060322670194
 20
141.7383405388706
 30
0.0
 11
455.9060322670194
 21
144.5516777454885
 31
0.0
  0
ARC
  5
1D76AF07EC
330
1D76AF031B
100
AcDbEntity
  8
JISSEN
100
AcDbCircle
 10
459.9060322670194
 20
137.8383405388706
 30
0.0
 40
13.5
100
AcDbArc
 50
139.0382114476455
 51
180.0
  0
ARC
  5
1D76AF07ED
330
1D76AF031B
100
AcDbEntity
  8
JISSEN
100
AcDbCircle
 10
452.0093024148576
 20
128.5471856902109
 30
0.0
 40
10.00141397672728
100
AcDbArc
 50
94.32888202861118
 51
100.3564926490359
  0
ARC
  5
1D76AF07EE
330
1D76AF031B
100
AcDbEntity
  8
JISSEN
100
AcDbCircle
 10
451.7001633373301
 20
140.1908344685774
 30
0.0
 40
0.6441310703106079
100
AcDbArc
 50
103.6591051852965
 51
180.0
  0
ARC
  5
1D76AF07EF
330
1D76AF031B
100
AcDbEntity
  8
JISSEN
100
AcDbCircle
 10
451.1790625753109
 20
140.0383405388706
 30
0.0
 40
1.5
100
AcDbArc
 50
90.0
 51
165.8509954910652
  0
LINE
  5
1D76AF07F0
330
1D76AF031B
100
AcDbEntity
  8
JISSEN
100
AcDbLine
 10
450.6440762589009
 20
141.4396933285898
 30
0.0
 11
451.4060322670197
 21
140.9997778221917
 31
0.0
  0
ARC
  5
1D76AF07F1
330
1D76AF031B
100
AcDbEntity
  8
JISSEN
100
AcDbCircle
 10
452.0093024148584
 20
122.6802711707542
 30
0.0
 40
10.00141397672734
100
AcDbArc
 50
94.32888202861446
 51
97.36809719179866
  0
LINE
  5
1D76AF07F2
330
1D76AF031B
100
AcDbEntity
  8
JISSEN
100
AcDbLine
 10
450.9060322670194
 20
132.5883405388706
 30
0.0
 11
451.2810322670194
 21
132.5883405388706
 31
0.0
  0
LINE
  5
1D76AF07F3
330
1D76AF031B
100
AcDbEntity
  8
JISSEN
100
AcDbLine
 10
449.4060322670194
 20
134.0883405388706
 30
0.0
 11
449.4060322670194
 21
137.8383405388706
 31
0.0
  0
LINE
  5
1D76AF07F4
330
1D76AF031B
100
AcDbEntity
  8
JISSEN
100
AcDbLine
 10
450.1560322670195
 20
137.202410652425
 30
0.0
 11
450.1560322670195
 21
136.4851287222008
 31
0.0
  0
LINE
  5
1D76AF07F5
330
1D76AF031B
100
AcDbEntity
  8
JISSEN
100
AcDbLine
 10
446.4060322670194
 20
132.8383405388706
 30
0.0
 11
446.4060322670194
 21
137.8383405388706
 31
0.0
  0
LINE
  5
1D76AF07F6
330
1D76AF031B
100
AcDbEntity
  8
JISSEN
100
AcDbLine
 10
450.1560322670195
 20
136.1767394906032
 30
0.0
 11
450.1560322670195
 21
136.4851287222008
 31
0.0
  0
LINE
  5
1D76AF07F7
330
1D76AF031B
100
AcDbEntity
  8
JISSEN
100
AcDbLine
 10
450.1560322669912
 20
136.4851287218068
 30
0.0
 11
450.1560322669912
 21
136.4851287223487
 31
0.0
  0
LINE
  5
1D76AF07F8
330
1D76AF031B
100
AcDbEntity
  8
JISSEN
100
AcDbLine
 10
450.1560322670195
 20
136.1767394906032
 30
0.0
 11
450.1560322670195
 21
132.7893024331938
 31
0.0
  0
ARC
  5
1D76AF07F9
330
1D76AF031B
100
AcDbEntity
  8
JISSEN
100
AcDbCircle
 10
450.9060322670194
 20
134.0883405388706
 30
0.0
 40
1.5
100
AcDbArc
 50
180.0
 51
270.0
  0
LINE
  5
1D76AF07FA
330
1D76AF031B
100
AcDbEntity
  8
JISSEN
100
AcDbLine
 10
450.1560322670195
 20
138.3193448773642
 30
0.0
 11
450.1560322670195
 21
137.5089805736353
 31
0.0
  0
LINE
  5
1D76AF07FB
330
1D76AF031B
100
AcDbEntity
  8
JISSEN
100
AcDbLine
 10
450.1560322671285
 20
137.5089805514116
 30
0.0
 11
450.1560322671285
 21
137.5089806277465
 31
0.0
  0
LINE
  5
1D76AF07FC
330
1D76AF031B
100
AcDbEntity
  8
JISSEN
100
AcDbLine
 10
450.1560322670195
 20
137.202410652425
 30
0.0
 11
450.1560322670195
 21
137.5089805736353
 31
0.0
  0
ARC
  5
1D76AF07FD
330
1D76AF031B
100
AcDbEntity
  8
JISSEN
100
AcDbCircle
 10
450.223444927928
 20
138.3193448773642
 30
0.0
 40
0.0674126609085717
100
AcDbArc
 50
100.3564926490458
 51
180.0000000000244
  0
ARC
  5
1D76AF07FE
330
1D76AF031B
100
AcDbEntity
  8
JISSEN
100
AcDbCircle
 10
459.9060322670194
 20
137.8383405388706
 30
0.0
 40
10.5
100
AcDbArc
 50
165.8509954910652
 51
180.0
  0
LINE
  5
1D76AF07FF
330
1D76AF031B
100
AcDbEntity
  8
JISSEN
100
AcDbLine
 10
451.0560322670195
 20
138.5030662418807
 30
0.0
 11
451.0560322670195
 21
140.1908344685774
 31
0.0
  0
LINE
  5
1D76AF0800
330
1D76AF031B
100
AcDbEntity
  8
JISSEN
100
AcDbLine
 10
457.6560322670196
 20
136.4851287222008
 30
0.0
 11
457.6560322670196
 21
137.202410652425
 31
0.0
  0
ARC
  5
1D76AF0801
330
1D76AF031B
100
AcDbEntity
  8
JISSEN
100
AcDbCircle
 10
451.2810322670194
 20
132.8883405388706
 30
0.0
 40
1.199999999999999
100
AcDbArc
 50
270.0
 51
291.4232972478953
  0
ARC
  5
1D76AF0802
330
1D76AF031B
100
AcDbEntity
  8
JISSEN
100
AcDbCircle
 10
453.134099594198
 20
157.0837282959577
 30
0.0
 40
24.90306398983168
100
AcDbArc
 50
265.7326069421967
 51
266.816945111796
  0
ARC
  5
1D76AF0803
330
1D76AF031B
100
AcDbEntity
  8
JISSEN
100
AcDbCircle
 10
453.1340995941952
 20
107.8211324198591
 30
0.0
 40
24.90306398982979
100
AcDbArc
 50
93.10594061441934
 51
94.32888202860793
  0
LINE
  5
1D76AF0804
330
1D76AF031B
100
AcDbEntity
  8
JISSEN
100
AcDbLine
 10
457.6561074240576
 20
136.1732513726979
 30
0.0
 11
457.6561074240576
 21
136.5019851532675
 31
0.0
  0
ARC
  5
1D76AF0805
330
1D76AF031B
100
AcDbEntity
  8
JISSEN
100
AcDbCircle
 10
455.8027621191814
 20
122.6802711707526
 30
0.0
 40
10.00141397672887
100
AcDbArc
 50
82.63190280820792
 51
85.67111797138881
  0
LINE
  5
1D76AF0806
330
1D76AF031B
100
AcDbEntity
  8
JISSEN
100
AcDbLine
 10
456.9060322670194
 20
132.5883405388706
 30
0.0
 11
456.5310322670194
 21
132.5883405388706
 31
0.0
  0
ARC
  5
1D76AF0807
330
1D76AF031B
100
AcDbEntity
  8
JISSEN
100
AcDbCircle
 10
454.6779649398439
 20
107.8211324198598
 30
0.0
 40
24.90306398982914
100
AcDbArc
 50
85.67111797139208
 51
86.89405938558067
  0
ARC
  5
1D76AF0808
330
1D76AF031B
100
AcDbEntity
  8
JISSEN
100
AcDbCircle
 10
454.6779649398436
 20
157.0837282959543
 30
0.0
 40
24.90306398982813
100
AcDbArc
 50
273.1830548881973
 51
274.2673930577966
  0
ARC
  5
1D76AF0809
330
1D76AF031B
100
AcDbEntity
  8
JISSEN
100
AcDbCircle
 10
456.5310322670194
 20
132.8883405388706
 30
0.0
 40
1.199999999999999
100
AcDbArc
 50
248.5767027521151
 51
270.0
  0
LINE
  5
1D76AF080A
330
1D76AF031B
100
AcDbEntity
  8
JISSEN
100
AcDbLine
 10
457.6560322670196
 20
132.789302433194
 30
0.0
 11
457.6560322670196
 21
136.1767394906032
 31
0.0
  0
LINE
  5
1D76AF080B
330
1D76AF031B
100
AcDbEntity
  8
JISSEN
100
AcDbLine
 10
455.6560322670195
 20
140.8160236999049
 30
0.0
 11
452.1560322670195
 21
140.8160236999049
 31
0.0
  0
LINE
  5
1D76AF080C
330
1D76AF031B
100
AcDbEntity
  8
JISSEN
100
AcDbLine
 10
455.6560322670195
 20
141.599194840069
 30
0.0
 11
452.1560322670195
 21
141.599194840069
 31
0.0
  0
ARC
  5
1D76AF080D
330
1D76AF031B
100
AcDbEntity
  8
JISSEN
100
AcDbCircle
 10
453.1340995941965
 20
113.6880469393148
 30
0.0
 40
24.90306398983088
100
AcDbArc
 50
92.13758614180552
 51
94.32888202860793
  0
ARC
  5
1D76AF080E
330
1D76AF031B
100
AcDbEntity
  8
JISSEN
100
AcDbCircle
 10
453.3299421261093
 20
131.3258452818768
 30
0.0
 40
9.665948963623709
100
AcDbArc
 50
96.97567628298457
 51
98.56261218149002
  0
ARC
  5
1D76AF080F
330
1D76AF031B
100
AcDbEntity
  8
JISSEN
100
AcDbCircle
 10
453.9060322670198
 20
145.3299048411139
 30
0.0
 40
5.0
100
AcDbArc
 50
239.9999999999999
 51
243.6791901783919
  0
LINE
  5
1D76AF0810
330
1D76AF031B
100
AcDbEntity
  8
JISSEN
100
AcDbLine
 10
451.1790625753109
 20
141.5383405388706
 30
0.0
 11
451.7060322670194
 21
141.5383405388706
 31
0.0
  0
ARC
  5
1D76AF0811
330
1D76AF031B
100
AcDbEntity
  8
JISSEN
100
AcDbCircle
 10
452.4755959146302
 20
136.9999861955637
 30
0.0
 40
3.927849752435048
100
AcDbArc
 50
98.56261218149661
 51
103.6591051852965
  0
ARC
  5
1D76AF0812
330
1D76AF031B
100
AcDbEntity
  8
JISSEN
100
AcDbCircle
 10
451.7060322670195
 20
141.7383405388706
 30
0.0
 40
0.2
100
AcDbArc
 50
270.0
 51
0.0
  0
ARC
  5
1D76AF0813
330
1D76AF031B
100
AcDbEntity
  8
JISSEN
100
AcDbCircle
 10
455.8027621191812
 20
128.5471856902094
 30
0.0
 40
10.00141397672878
100
AcDbArc
 50
79.64350735096406
 51
85.67111797138881
  0
ARC
  5
1D76AF0814
330
1D76AF031B
100
AcDbEntity
  8
JISSEN
100
AcDbCircle
 10
454.6779649398419
 20
113.6880469393165
 30
0.0
 40
24.90306398982923
100
AcDbArc
 50
85.67111797138881
 51
87.86241385819122
  0
LINE
  5
1D76AF0815
330
1D76AF031B
100
AcDbEntity
  8
JISSEN
100
AcDbLine
 10
457.6560322670196
 20
137.5089805736353
 30
0.0
 11
457.6560322670196
 21
138.3193448773642
 31
0.0
  0
LINE
  5
1D76AF0816
330
1D76AF031B
100
AcDbEntity
  8
JISSEN
100
AcDbLine
 10
457.6561074240576
 20
137.2064153514811
 30
0.0
 11
457.6561074240576
 21
137.5104321023995
 31
0.0
  0
ARC
  5
1D76AF0817
330
1D76AF031B
100
AcDbEntity
  8
JISSEN
100
AcDbCircle
 10
457.5886196061109
 20
138.3193448773642
 30
0.0
 40
0.0674126609086159
100
AcDbArc
 50
0.0000000000244267
 51
79.64350735095742
  0
ARC
  5
1D76AF0818
330
1D76AF031B
100
AcDbEntity
  8
JISSEN
100
AcDbCircle
 10
456.1119011967089
 20
140.1908344685774
 30
0.0
 40
0.6441310703106079
100
AcDbArc
 50
0.0
 51
76.34089481470343
  0
LINE
  5
1D76AF0819
330
1D76AF031B
100
AcDbEntity
  8
JISSEN
100
AcDbLine
 10
456.7560322670195
 20
140.1908344685774
 30
0.0
 11
456.7560322670195
 21
138.5030662418807
 31
0.0
  0
LINE
  5
1D76AF081A
330
1D76AF031B
100
AcDbEntity
  8
JISSEN
100
AcDbLine
 10
457.1679882751387
 20
141.4396933285898
 30
0.0
 11
456.4060322670197
 21
140.9997778221917
 31
0.0
  0
ARC
  5
1D76AF081B
330
1D76AF031B
100
AcDbEntity
  8
JISSEN
100
AcDbCircle
 10
454.482122407929
 20
131.3258452818773
 30
0.0
 40
9.665948963623366
100
AcDbArc
 50
81.43738781850339
 51
83.02432371701215
  0
ARC
  5
1D76AF081C
330
1D76AF031B
100
AcDbEntity
  8
JISSEN
100
AcDbCircle
 10
455.3364686194087
 20
136.9999861955635
 30
0.0
 40
3.927849752435279
100
AcDbArc
 50
76.34089481470343
 51
81.43738781850339
  0
ARC
  5
1D76AF081D
330
1D76AF031B
100
AcDbEntity
  8
JISSEN
100
AcDbCircle
 10
456.1060322670194
 20
141.7383405388706
 30
0.0
 40
0.2
100
AcDbArc
 50
180.0
 51
270.0
  0
ARC
  5
1D76AF081E
330
1D76AF031B
100
AcDbEntity
  8
JISSEN
100
AcDbCircle
 10
453.9060322670198
 20
145.3299048411139
 30
0.0
 40
5.0
100
AcDbArc
 50
296.320809821608
 51
300.0
  0
LINE
  5
1D76AF081F
330
1D76AF031B
100
AcDbEntity
  8
JISSEN
100
AcDbLine
 10
456.633001958728
 20
141.5383405388706
 30
0.0
 11
456.1060322670194
 21
141.5383405388706
 31
0.0
  0
ARC
  5
1D76AF0820
330
1D76AF031B
100
AcDbEntity
  8
JISSEN
100
AcDbCircle
 10
453.7441497583162
 20
155.6866853508783
 30
0.0
 40
9.4
100
AcDbArc
 50
253.2252557359049
 51
264.1496496988334
  0
LINE
  5
1D76AF0821
330
1D76AF031B
100
AcDbEntity
  8
JISSEN
100
AcDbLine
 10
446.4060322670194
 20
148.0007540037039
 30
0.0
 11
446.4060322670194
 21
146.6883405388714
 31
0.0
  0
LINE
  5
1D76AF0822
330
1D76AF031B
100
AcDbEntity
  8
JISSEN
100
AcDbLine
 10
454.702296814214
 20
146.3356450761672
 30
0.0
 11
452.7860027024182
 21
146.335645076167
 31
0.0
  0
LINE
  5
1D76AF0823
330
1D76AF031B
100
AcDbEntity
  8
JISSEN
100
AcDbLine
 10
452.1560322670195
 20
143.328394201501
 30
0.0
 11
455.6560322670195
 21
143.328394201501
 31
0.0
  0
ARC
  5
1D76AF0824
330
1D76AF031B
100
AcDbEntity
  8
JISSEN
100
AcDbCircle
 10
452.2060322670194
 20
142.7558737563341
 30
0.0
 40
0.3
100
AcDbArc
 50
99.59406822683844
 51
180.0
  0
ARC
  5
1D76AF0825
330
1D76AF031B
100
AcDbEntity
  8
JISSEN
100
AcDbCircle
 10
453.7441497583162
 20
155.6866853508783
 30
0.0
 40
9.4
100
AcDbArc
 50
275.8503503011665
 51
286.774744264095
  0
ARC
  5
1D76AF0826
330
1D76AF031B
100
AcDbEntity
  8
JISSEN
100
AcDbCircle
 10
455.6060322670195
 20
142.7558737563341
 30
0.0
 40
0.3
100
AcDbArc
 50
0.0
 51
80.40593177313514
  0
LINE
  5
1D76AF0827
330
1D76AF031B
100
AcDbEntity
  8
JISSEN
100
AcDbLine
 10
445.4060322670194
 20
172.5007540037038
 30
0.0
 11
443.6279780391072
 21
170.7226997757916
 31
0.0
  0
LINE
  5
1D76AF0828
330
1D76AF031B
100
AcDbEntity
  8
JISSEN
100
AcDbLine
 10
443.2425179126935
 20
158.3885921218126
 30
0.0
 11
444.4060322670194
 21
158.0007540037039
 31
0.0
  0
LINE
  5
1D76AF0829
330
1D76AF031B
100
AcDbEntity
  8
JISSEN
100
AcDbLine
 10
443.2425179126935
 20
158.3885921218126
 30
0.0
 11
453.9060322670194
 21
158.3885921218126
 31
0.0
  0
LINE
  5
1D76AF082A
330
1D76AF031B
100
AcDbEntity
  8
JISSEN
100
AcDbLine
 10
443.2425179126935
 20
158.3885921218126
 30
0.0
 11
443.6279780391072
 21
170.7226997757916
 31
0.0
  0
LINE
  5
1D76AF082B
330
1D76AF031B
100
AcDbEntity
  8
SAISEN
100
AcDbLine
 10
444.827463843745
 20
171.9221855804295
 30
0.0
 11
444.3925379387593
 21
158.0052521131239
 31
0.0
  0
LINE
  5
1D76AF082C
330
1D76AF031B
100
AcDbEntity
  8
JISSEN
100
AcDbLine
 10
444.4060322670194
 20
158.0007540037039
 30
0.0
 11
453.9060322670194
 21
158.0007540037039
 31
0.0
  0
LINE
  5
1D76AF082D
330
1D76AF031B
100
AcDbEntity
  8
JISSEN
100
AcDbLine
 10
445.4060322670194
 20
172.5007540037038
 30
0.0
 11
453.9060322670194
 21
172.5007540037038
 31
0.0
  0
LINE
  5
1D76AF082E
330
1D76AF031B
100
AcDbEntity
  8
JISSEN
100
AcDbLine
 10
469.4060322670194
 20
158.0007540037039
 30
0.0
 11
469.4060322670193
 21
150.143611146561
 31
0.0
  0
ARC
  5
1D76AF082F
330
1D76AF031B
100
AcDbEntity
  8
JISSEN
100
AcDbCircle
 10
458.9060322670194
 20
140.5007540037038
 30
0.0
 40
15.0
100
AcDbArc
 50
0.0
 51
30.00000000000057
  0
ARC
  5
1D76AF0830
330
1D76AF031B
100
AcDbEntity
  8
JISSEN
100
AcDbCircle
 10
461.1172790505418
 20
139.8990962808592
 30
0.0
 40
10.80551655320168
100
AcDbArc
 50
3.191914576125969
 51
28.34285358348992
  0
LINE
  5
1D76AF0831
330
1D76AF031B
100
AcDbEntity
  8
JISSEN
100
AcDbLine
 10
461.4060322670194
 20
132.8383405388706
 30
0.0
 11
461.4060322670194
 21
137.8383405388706
 31
0.0
  0
LINE
  5
1D76AF0832
330
1D76AF031B
100
AcDbEntity
  8
JISSEN
100
AcDbLine
 10
458.4060322670194
 20
134.0883405388706
 30
0.0
 11
458.4060322670194
 21
137.8383405388706
 31
0.0
  0
ARC
  5
1D76AF0833
330
1D76AF031B
100
AcDbEntity
  8
JISSEN
100
AcDbCircle
 10
445.9060322670194
 20
140.5007540037038
 30
0.0
 40
26.0
100
AcDbArc
 50
341.0908039916747
 51
0.0
  0
LINE
  5
1D76AF0834
330
1D76AF031B
100
AcDbEntity
  8
JISSEN
100
AcDbLine
 10
461.4060322670194
 20
148.0007540037039
 30
0.0
 11
461.4060322670194
 21
146.6883405388714
 31
0.0
  0
ARC
  5
1D76AF0835
330
1D76AF031B
100
AcDbEntity
  8
JISSEN
100
AcDbCircle
 10
458.9667272193436
 20
139.3468020662754
 30
0.0
 40
11.0
100
AcDbArc
 50
47.44478009659998
 51
51.88030773272367
  0
ARC
  5
1D76AF0836
330
1D76AF031B
100
AcDbEntity
  8
JISSEN
100
AcDbCircle
 10
458.9060322670194
 20
140.5007540037038
 30
0.0
 40
17.0
100
AcDbArc
 50
0.0
 51
26.17896870401215
  0
CIRCLE
  5
1D76AF0837
330
1D76AF031B
100
AcDbEntity
  8
JISSEN
100
AcDbCircle
 10
483.6560322670193
 20
145.0007540037038
 30
0.0
 40
2.0
  0
LINE
  5
1D76AF0838
330
1D76AF031B
100
AcDbEntity
  8
SAISEN
100
AcDbLine
 10
462.9846006902937
 20
171.9221855804295
 30
0.0
 11
463.4195265952794
 21
158.0052521131239
 31
0.0
  0
LINE
  5
1D76AF0839
330
1D76AF031B
100
AcDbEntity
  8
JISSEN
100
AcDbLine
 10
464.5695466213452
 20
158.3885921218126
 30
0.0
 11
464.1840864949316
 21
170.7226997757916
 31
0.0
  0
LINE
  5
1D76AF083A
330
1D76AF031B
100
AcDbEntity
  8
JISSEN
100
AcDbLine
 10
464.5695466213452
 20
158.3885921218126
 30
0.0
 11
463.4060322670194
 21
158.0007540037039
 31
0.0
  0
LINE
  5
1D76AF083B
330
1D76AF031B
100
AcDbEntity
  8
JISSEN
100
AcDbLine
 10
462.4060322670194
 20
172.5007540037038
 30
0.0
 11
464.1840864949316
 21
170.7226997757916
 31
0.0
  0
TEXT
  5
1D76AF083C
330
1D76AF031B
100
AcDbEntity
  8
TEXT
100
AcDbText
 10
468.6714278474283
 20
256.7857142857142
 30
0.0
 40
3.0
  1
ガード S,D
  7
K
 72
     4
 11
478.4999992759998
 21
257.9999999999999
 31
0.0
100
AcDbText
  0
TEXT
  5
1D76AF083D
330
1D76AF031B
100
AcDbEntity
  8
TEXT
100
AcDbText
 10
469.8999992759998
 20
268.4999999999999
 30
0.0
 40
3.0
  1
名      称
  7
K
 72
     4
 11
478.4999992759998
 21
269.9999999999999
 31
0.0
100
AcDbText
  0
TEXT
  5
1D76AF083E
330
1D76AF031B
100
AcDbEntity
  8
TEXT
100
AcDbText
 10
467.7142849902855
 20
262.4999999999999
 30
0.0
 40
3.0
  1
DP 型ヘッド
  7
K
 72
     4
 11
478.4999992759998
 21
263.9999999999999
 31
0.0
100
AcDbText
  0
LINE
  5
1D76AF083F
330
1D76AF031B
100
AcDbEntity
  8
JISSEN
100
AcDbLine
 10
463.4999992759998
 20
272.9999999999999
 30
0.0
 11
463.4999992759998
 21
254.9999999999999
 31
0.0
  0
LINE
  5
1D76AF0840
330
1D76AF031B
100
AcDbEntity
  8
JISSEN
100
AcDbLine
 10
453.4999992759998
 20
254.9999999999999
 30
0.0
 11
453.4999992759998
 21
272.9999999999999
 31
0.0
  0
TEXT
  5
1D76AF0841
330
1D76AF031B
100
AcDbEntity
  8
TEXT
100
AcDbText
 10
457.285713561714
 20
262.4999999999999
 30
0.0
 40
3.0
  1
1
  7
K
 72
     4
 11
458.4999992759998
 21
263.9999999999999
 31
0.0
100
AcDbText
  0
TEXT
  5
1D76AF0842
330
1D76AF031B
100
AcDbEntity
  8
TEXT
100
AcDbText
 10
457.3830716815341
 20
256.4999999999999
 30
0.0
 40
3.0
  1
2
  7
K
 72
     4
 11
458.8116431101055
 21
257.9999999999999
 31
0.0
100
AcDbText
  0
LWPOLYLINE
  5
1D76AF0843
330
1D76AF031B
100
AcDbEntity
  8
NITEN
100
AcDbPolyline
 90
        2
 70
     0
 43
0.0
 10
470.9060322670195
 20
223.4490205605735
 42
0.5882352941176294
 10
453.9060322670194
 20
223.4490205605737
 42
0.5882352941176294
  0
TEXT
  5
1D76AF0844
330
1D76AF031B
100
AcDbEntity
  8
TEXT
100
AcDbText
 10
455.2999992759998
 20
268.4999999999999
 30
0.0
 40
3.0
  1
番号
  7
K
 72
     4
 11
458.4999992759998
 21
269.9999999999999
 31
0.0
100
AcDbText
  0
LINE
  5
1D76AF0845
330
1D76AF031B
100
AcDbEntity
  8
JISSEN
100
AcDbLine
 10
493.4999992759998
 20
272.9999999999999
 30
0.0
 11
493.4999992759998
 21
254.9999999999999
 31
0.0
  0
LINE
  5
1D76AF0846
330
1D76AF031B
100
AcDbEntity
  8
JISSEN
100
AcDbLine
 10
525.4999992759998
 20
272.9999999999999
 30
0.0
 11
525.4999992759998
 21
254.9999999999999
 31
0.0
  0
LINE
  5
1D76AF0847
330
1D76AF031B
100
AcDbEntity
  8
JISSEN
100
AcDbLine
 10
514.4999992759998
 20
254.9999999999999
 30
0.0
 11
514.4999992759998
 21
272.9999999999999
 31
0.0
  0
TEXT
  5
1D76AF0848
330
1D76AF031B
100
AcDbEntity
  8
TEXT
100
AcDbText
 10
518.6795477624091
 20
262.4999999999999
 30
0.0
 40
3.0
  1
1
  7
K
 72
     4
 11
519.8938334766948
 21
263.9999999999999
 31
0.0
100
AcDbText
  0
TEXT
  5
1D76AF0849
330
1D76AF031B
100
AcDbEntity
  8
TEXT
100
AcDbText
 10
499.5714278474284
 20
256.4999999999999
 30
0.0
 40
3.0
  1
ZDC
  7
K
 72
     4
 11
503.9999992759998
 21
257.9999999999999
 31
0.0
100
AcDbText
  0
TEXT
  5
1D76AF084A
330
1D76AF031B
100
AcDbEntity
  8
TEXT
100
AcDbText
 10
498.8249992759998
 20
264.2999999999999
 30
0.0
 40
3.0
  1
%%u      
  7
K
 72
     4
 11
503.9999992759998
 21
263.9999999999999
 31
0.0
100
AcDbText
  0
TEXT
  5
1D76AF084B
330
1D76AF031B
100
AcDbEntity
  8
TEXT
100
AcDbText
 10
518.6795477624091
 20
256.580835176341
 30
0.0
 40
3.0
  1
1
  7
K
 72
     4
 11
519.8938334766948
 21
258.080835176341
 31
0.0
100
AcDbText
  0
TEXT
  5
1D76AF084C
330
1D76AF031B
100
AcDbEntity
  8
TEXT
100
AcDbText
 10
497.1999992759998
 20
268.4999999999999
 30
0.0
 40
3.0
  1
材    質
  7
K
 72
     4
 11
503.9999992759998
 21
269.9999999999999
 31
0.0
100
AcDbText
  0
TEXT
  5
1D76AF084D
330
1D76AF031B
100
AcDbEntity
  8
TEXT
100
AcDbText
 10
527.6999992759998
 20
268.4999999999999
 30
0.0
 40
3.0
  1
備    考
  7
K
 72
     4
 11
534.4999992759998
 21
269.9999999999999
 31
0.0
100
AcDbText
  0
TEXT
  5
1D76AF084E
330
1D76AF031B
100
AcDbEntity
  8
TEXT
100
AcDbText
 10
516.7999992759997
 20
268.4999999999999
 30
0.0
 40
3.0
  1
個数
  7
K
 72
     4
 11
519.9999992759997
 21
269.9999999999999
 31
0.0
100
AcDbText
  0
LWPOLYLINE
  5
1D76AF084F
330
1D76AF031B
100
AcDbEntity
  8
WAKU
100
AcDbPolyline
 90
        4
 70
     1
 43
0.0
 10
0.0
 20
0.0
 10
181.0
 20
0.0
 10
181.0
 20
273.0
 10
0.0
 20
273.0
  0
LWPOLYLINE
  5
1D76AF0850
330
1D76AF031B
100
AcDbEntity
  8
WAKU
100
AcDbPolyline
 90
        4
 70
     1
 43
0.0
 10
362.0
 20
0.0
 10
543.0
 20
0.0
 10
543.0
 20
273.0
 10
362.0
 20
273.0
  0
TEXT
  5
1D76AF0851
330
1D76AF031B
100
AcDbEntity
  8
SUNPOU
100
AcDbText
 10
157.839092031552
 20
7.849423898685245
 30
0.0
 40
3.0
  1
ガード S,D
  7
K
100
AcDbText
  0
TEXT
  5
1D76AF0852
330
1D76AF031B
100
AcDbEntity
  8
SUNPOU
100
AcDbText
 10
157.839092031552
 20
2.849423898685245
 30
0.0
 40
3.0
  1
尺度　1/1
  7
K
100
AcDbText
  0
LINE
  5
1D76AF0E2A
330
1D76AF031B
100
AcDbEntity
  8
JISSEN
100
AcDbLine
 10
272.4999991036875
 20
267.0000000743804
 30
0.0
 11
361.9999991036876
 21
267.0000000743804
 31
0.0
  0
LINE
  5
1D76AF0E2B
330
1D76AF031B
100
AcDbEntity
  8
JISSEN
100
AcDbLine
 10
272.4999991036875
 20
261.0000000743804
 30
0.0
 11
361.9999991036876
 21
261.0000000743804
 31
0.0
  0
LINE
  5
1D76AF0E2C
330
1D76AF031B
100
AcDbEntity
  8
JISSEN
100
AcDbLine
 10
272.4999991036875
 20
255.0000000743804
 30
0.0
 11
361.9999991036876
 21
255.0000000743804
 31
0.0
  0
LINE
  5
1D76AF0E2E
330
1D76AF031B
100
AcDbEntity
  8
JISSEN
100
AcDbLine
 10
260.3365689113778
 20
139.6114079525679
 30
0.0
 11
260.7220290377914
 21
127.2773002985889
 31
0.0
  0
LINE
  5
1D76AF0E2F
330
1D76AF031B
100
AcDbEntity
  8
SAISEN
100
AcDbLine
 10
261.9215148424293
 20
126.077814493951
 30
0.0
 11
261.4865889374436
 21
139.9947479612566
 31
0.0
  0
LINE
  5
1D76AF0E30
330
1D76AF031B
100
AcDbEntity
  8
SAISEN
100
AcDbLine
 10
280.078651688978
 20
126.077814493951
 30
0.0
 11
280.5135775939637
 21
139.9947479612566
 31
0.0
  0
LINE
  5
1D76AF0E31
330
1D76AF031B
100
AcDbEntity
  8
JISSEN
100
AcDbLine
 10
281.6635976200295
 20
139.6114079525679
 30
0.0
 11
281.2781374936158
 21
127.2773002985889
 31
0.0
  0
LWPOLYLINE
  5
1D76AF0E32
330
1D76AF031B
100
AcDbEntity
  8
NITEN
100
AcDbPolyline
 90
       15
 70
     1
 43
0.0
 10
285.0000832657036
 20
135.8886971649529
 42
0.4142135623730927
 10
283.5000832657036
 20
137.3886971649528
 10
260.4060320947071
 20
137.3886971649528
 10
258.5000832657036
 20
137.3886971649528
 42
0.4142135623730925
 10
257.0000832657036
 20
135.8886971649529
 10
257.0000832657036
 20
124.8426811387349
 42
-0.4142135623730943
 10
252.0000832657036
 20
119.8426811387349
 42
0.4142135623730951
 10
250.0000832657036
 20
117.8426811387349
 10
250.0000832657036
 20
97.38869716495294
 42
0.4142135623730948
 10
252.0000832657036
 20
95.38869716495293
 10
290.0000832657036
 20
95.38869716495293
 42
0.4142135623730951
 10
292.0000832657036
 20
97.38869716495294
 10
292.0000832657036
 20
117.8426811387349
 42
0.4142135623730951
 10
290.0000832657036
 20
119.8426811387349
 42
-0.4142135623730961
 10
285.0000832657036
 20
124.8426811387349
  0
TEXT
  5
1D76AF0E33
330
1D76AF031B
100
AcDbEntity
  8
SUNPOU
100
AcDbText
 10
326.97183996651
 20
7.849423973065768
 30
0.0
 40
3.0
  1
DU ガード取付状態
  7
K
100
AcDbText
  0
TEXT
  5
1D76AF0E34
330
1D76AF031B
100
AcDbEntity
  8
SUNPOU
100
AcDbText
 10
326.97183996651
 20
2.849423973065768
 30
0.0
 40
3.0
  1
尺度　1/1
  7
K
100
AcDbText
  0
LWPOLYLINE
  5
1D76AF0E35
330
1D76AF031B
100
AcDbEntity
  8
NITEN
100
AcDbPolyline
 90
        5
 70
     0
 43
0.0
 10
254.0000832657036
 20
95.38869716495293
 10
254.0000832657036
 20
74.55097951380707
 42
-0.5882352941176475
 10
271.0000832657036
 20
74.55097951380707
 42
0.5882352941176476
 10
288.0000832657036
 20
74.55097951380736
 10
288.0000832657036
 20
95.38869716495293
  0
LWPOLYLINE
  5
1D76AF0E36
330
1D76AF031B
100
AcDbEntity
  8
NITEN
100
AcDbPolyline
 90
        2
 70
     0
 43
0.0
 10
254.0000832657035
 20
74.55097951380707
 42
0.5882352941176294
 10
271.0000832657036
 20
74.55097951380679
 42
0.5882352941176294
  0
LINE
  5
1D76AF0E37
330
1D76AF031B
100
AcDbEntity
  8
JISSEN
100
AcDbLine
 10
279.5000832657036
 20
125.4992460706766
 30
0.0
 11
271.0000832657036
 21
125.4992460706766
 31
0.0
  0
LINE
  5
1D76AF0E38
330
1D76AF031B
100
AcDbEntity
  8
JISSEN
100
AcDbLine
 10
260.7220290377914
 20
127.2773002985889
 30
0.0
 11
281.2781374936158
 21
127.2773002985889
 31
0.0
  0
LINE
  5
1D76AF0E39
330
1D76AF031B
100
AcDbEntity
  8
JISSEN
100
AcDbLine
 10
262.5000832657036
 20
125.4992460706766
 30
0.0
 11
271.0000832657036
 21
125.4992460706766
 31
0.0
  0
LINE
  5
1D76AF0E3A
330
1D76AF031B
100
AcDbEntity
  8
JISSEN
100
AcDbLine
 10
262.5000832657036
 20
125.4992460706766
 30
0.0
 11
260.7220290377914
 21
127.2773002985889
 31
0.0
  0
LINE
  5
1D76AF0E3B
330
1D76AF031B
100
AcDbEntity
  8
JISSEN
100
AcDbLine
 10
279.5000832657036
 20
125.4992460706766
 30
0.0
 11
281.2781374936158
 21
127.2773002985889
 31
0.0
  0
ARC
  5
1D76AF0E3C
330
1D76AF031B
100
AcDbEntity
  8
JISSEN
100
AcDbCircle
 10
279.0000832657036
 20
157.4992460706766
 30
0.0
 40
30.0
100
AcDbArc
 50
144.7907943550746
 51
180.0
  0
LWPOLYLINE
  5
1D76AF0E3D
330
1D76AF031B
100
AcDbEntity
  8
JISSEN
100
AcDbPolyline
 90
        4
 70
     0
 43
0.0
 10
254.5000832657037
 20
175.9992460706766
 10
241.0000832657037
 20
175.9992460706766
 10
236.0000832657037
 20
177.4992460706766
 10
306.0000832657036
 20
177.4992460706766
  0
LWPOLYLINE
  5
1D76AF0E3E
330
1D76AF031B
100
AcDbEntity
  8
JISSEN
100
AcDbPolyline
 90
        4
 70
     0
 43
0.0
 10
254.5000832657037
 20
179.9992460706766
 10
241.0000832657037
 20
179.9992460706766
 10
236.0000832657037
 20
178.4992460706766
 10
306.0000832657036
 20
178.4992460706766
  0
LWPOLYLINE
  5
1D76AF0E3F
330
1D76AF031B
100
AcDbEntity
  8
JISSEN
100
AcDbPolyline
 90
       15
 70
     0
 43
0.0
 10
254.2500832657037
 20
149.9992460706766
 10
245.4311286546533
 20
149.9992460706766
 42
0.493145426031304
 10
243.9822399152197
 20
148.1110175030229
 10
245.4648062933788
 20
142.5780044541393
 42
0.1651006681921958
 10
245.643388492019
 20
142.3107373065449
 10
248.52112893463
 20
140.102569400531
 42
0.1651006681921981
 10
248.8255096491343
 20
139.9992460706766
 10
271.0000832657036
 20
139.9992460706766
 10
293.1746568822729
 20
139.9992460706766
 42
0.1651006681921981
 10
293.4790375967774
 20
140.102569400531
 10
296.3567780393883
 20
142.3107373065449
 42
0.1651006681921958
 10
296.5353602380285
 20
142.5780044541393
 10
298.0179266161877
 20
148.1110175030228
 42
0.493145426031304
 10
296.5690378767541
 20
149.9992460706766
 10
287.7500832657036
 20
149.9992460706766
  0
ARC
  5
1D76AF0E40
330
1D76AF031B
100
AcDbEntity
  8
JISSEN
100
AcDbCircle
 10
271.0000832657036
 20
179.9992460706766
 30
0.0
 40
35.0
100
AcDbArc
 50
0.0
 51
180.0
  0
ARC
  5
1D76AF0E41
330
1D76AF031B
100
AcDbEntity
  8
JISSEN
100
AcDbCircle
 10
271.0000832657036
 20
179.9992460706766
 30
0.0
 40
30.0
100
AcDbArc
 50
124.340908552917
 51
180.0
  0
ARC
  5
1D76AF0E42
330
1D76AF031B
100
AcDbEntity
  8
JISSEN
100
AcDbCircle
 10
266.0000832657036
 20
157.4992460706766
 30
0.0
 40
17.0
100
AcDbArc
 50
180.0
 51
206.1789687040133
  0
LINE
  5
1D76AF0E43
330
1D76AF031B
100
AcDbEntity
  8
JISSEN
100
AcDbLine
 10
241.0000832657036
 20
158.4935613146356
 30
0.0
 11
241.0000832657036
 21
175.9992460706766
 31
0.0
  0
LINE
  5
1D76AF0E44
330
1D76AF031B
100
AcDbEntity
  8
JISSEN
100
AcDbLine
 10
236.0000832657036
 20
154.638605701752
 30
0.0
 11
236.0000832657036
 21
179.9992460706766
 31
0.0
  0
CIRCLE
  5
1D76AF0E45
330
1D76AF031B
100
AcDbEntity
  8
JISSEN
100
AcDbCircle
 10
241.2500832657036
 20
152.9992460706766
 30
0.0
 40
2.0
  0
LWPOLYLINE
  5
1D76AF0E46
330
1D76AF031B
100
AcDbEntity
  8
JISSEN
100
AcDbPolyline
 90
        6
 70
     1
 43
0.0
 10
243.2500832657037
 20
156.4633476858144
 10
245.2500832657037
 20
152.9992460706766
 10
243.2500832657037
 20
149.5351444555389
 10
239.2500832657038
 20
149.5351444555389
 10
237.2500832657038
 20
152.9992460706766
 10
239.2500832657038
 20
156.4633476858144
  0
LWPOLYLINE
  5
1D76AF0E47
330
1D76AF031B
100
AcDbEntity
  8
JISSEN
100
AcDbPolyline
 90
        6
 70
     1
 43
0.0
 10
243.0768781849468
 20
156.1633476858144
 10
244.9036731041899
 20
152.9992460706766
 10
243.0768781849468
 20
149.8351444555389
 10
239.4232883464606
 20
149.8351444555389
 10
237.5964934272175
 20
152.9992460706766
 10
239.4232883464606
 20
156.1633476858144
  0
ARC
  5
1D76AF0E48
330
1D76AF031B
100
AcDbEntity
  8
JISSEN
100
AcDbCircle
 10
241.2500832657036
 20
152.9992460706766
 30
0.0
 40
5.5
100
AcDbArc
 50
326.9442688491467
 51
299.5045238972953
  0
LINE
  5
1D76AF0E49
330
1D76AF031B
100
AcDbEntity
  8
JISSEN
100
AcDbLine
 10
238.1196762304331
 20
148.477017439401
 30
0.0
 11
245.1968571009477
 21
143.5780044541393
 31
0.0
  0
LINE
  5
1D76AF0E4A
330
1D76AF031B
100
AcDbEntity
  8
SUNPOU
100
AcDbLine
 10
300.0995981841232
 20
199.4470796650047
 30
0.0
 11
310.6599509179563
 21
221.1681841738363
 31
0.0
  0
LINE
  5
1D76AF0E4B
330
1D76AF031B
100
AcDbEntity
  8
SUNPOU
100
AcDbLine
 10
276.1382896448776
 20
191.2992460706766
 30
0.0
 11
290.6599509179563
 21
221.1681841738363
 31
0.0
  0
LWPOLYLINE
  5
1D76AF0E4C
330
1D76AF031B
100
AcDbEntity
  8
JISSEN
100
AcDbPolyline
 90
        3
 70
     0
 43
0.0
 10
306.0000832657036
 20
177.4992460706766
 10
301.0000832657036
 20
175.9992460706766
 10
287.5000832657036
 20
175.9992460706766
  0
LWPOLYLINE
  5
1D76AF0E4D
330
1D76AF031B
100
AcDbEntity
  8
JISSEN
100
AcDbPolyline
 90
        3
 70
     0
 43
0.0
 10
306.0000832657036
 20
178.4992460706766
 10
301.0000832657036
 20
179.9992460706766
 10
287.5000832657036
 20
179.9992460706766
  0
ARC
  5
1D76AF0E4E
330
1D76AF031B
100
AcDbEntity
  8
JISSEN
100
AcDbCircle
 10
300.7500832657036
 20
152.9992460706766
 30
0.0
 40
5.5
100
AcDbArc
 50
240.4954761027046
 51
213.0557311508532
  0
LINE
  5
1D76AF0E4F
330
1D76AF031B
100
AcDbEntity
  8
JISSEN
100
AcDbLine
 10
274.8382007570003
 20
175.9992460706767
 30
0.0
 11
274.8382007570003
 21
174.0133828120433
 31
0.0
  0
LINE
  5
1D76AF0E50
330
1D76AF031B
100
AcDbEntity
  8
JISSEN
100
AcDbLine
 10
266.8382007570003
 20
174.0133828120433
 30
0.0
 11
266.8382007570003
 21
175.9992460706767
 31
0.0
  0
ARC
  5
1D76AF0E51
330
1D76AF031B
100
AcDbEntity
  8
JISSEN
100
AcDbCircle
 10
279.0000832657036
 20
157.4992460706766
 30
0.0
 40
24.0
100
AcDbArc
 50
129.5712194572326
 51
148.6677932927648
  0
ARC
  5
1D76AF0E52
330
1D76AF031B
100
AcDbEntity
  8
JISSEN
100
AcDbCircle
 10
263.0000832657036
 20
157.4992460706766
 30
0.0
 40
24.0
100
AcDbArc
 50
31.33220670723518
 51
50.42878054276734
  0
LINE
  5
1D76AF0E53
330
1D76AF031B
100
AcDbEntity
  8
JISSEN
100
AcDbLine
 10
301.0000832657036
 20
158.4935613146356
 30
0.0
 11
301.0000832657036
 21
175.9992460706766
 31
0.0
  0
LWPOLYLINE
  5
1D76AF0E54
330
1D76AF031B
100
AcDbEntity
  8
JISSEN
100
AcDbPolyline
 90
        4
 70
     1
 43
0.0
 10
283.5000832657036
 20
175.9992460706766
 10
285.0000832657036
 20
177.4992460706766
 10
285.0000832657036
 20
146.9992460706766
 10
283.5000832657036
 20
149.9992460706766
  0
LWPOLYLINE
  5
1D76AF0E55
330
1D76AF031B
100
AcDbEntity
  8
JISSEN
100
AcDbPolyline
 90
        4
 70
     1
 43
0.0
 10
286.0000832657036
 20
177.4992460706766
 10
286.0000832657036
 20
146.9992460706766
 10
287.7500832657036
 20
149.9992460706766
 10
287.5000832657036
 20
175.9992460706766
  0
LWPOLYLINE
  5
1D76AF0E56
330
1D76AF031B
100
AcDbEntity
  8
JISSEN
100
AcDbPolyline
 90
        4
 70
     1
 43
0.0
 10
256.0000832657036
 20
177.4992460706766
 10
256.0000832657036
 20
146.9992460706766
 10
254.2500832657037
 20
149.9992460706766
 10
254.5000832657037
 20
175.9992460706766
  0
LWPOLYLINE
  5
1D76AF0E57
330
1D76AF031B
100
AcDbEntity
  8
JISSEN
100
AcDbPolyline
 90
        4
 70
     1
 43
0.0
 10
258.5000832657036
 20
175.9992460706766
 10
257.0000832657036
 20
177.4992460706766
 10
257.0000832657036
 20
146.9992460706766
 10
258.5000832657036
 20
149.9992460706766
  0
ARC
  5
1D76AF0E58
330
1D76AF031B
100
AcDbEntity
  8
JISSEN
100
AcDbCircle
 10
264.8382007570004
 20
160.1600043475167
 30
0.0
 40
13.5
100
AcDbArc
 50
319.0382114476453
 51
0.0
  0
ARC
  5
1D76AF0E59
330
1D76AF031B
100
AcDbEntity
  8
JISSEN
100
AcDbCircle
 10
264.8382007570004
 20
165.1600043475167
 30
0.0
 40
13.5
100
AcDbArc
 50
0.0
 51
42.20544640373058
  0
LWPOLYLINE
  5
1D76AF0E5A
330
1D76AF031B
100
AcDbEntity
  8
JISSEN
100
AcDbPolyline
 90
        2
 70
     0
 43
0.0
 10
283.5000832657036
 20
149.9992460706766
 10
271.0000832657036
 20
149.9992460706766
  0
LINE
  5
1D76AF0E5B
330
1D76AF031B
100
AcDbEntity
  8
JISSEN
100
AcDbLine
 10
278.5000832657036
 20
151.311659535509
 30
0.0
 11
263.5000832657036
 21
151.3116595355091
 31
0.0
  0
LINE
  5
1D76AF0E5C
330
1D76AF031B
100
AcDbEntity
  8
JISSEN
100
AcDbLine
 10
281.6635976200295
 20
139.6114079525679
 30
0.0
 11
271.0000832657036
 21
139.6114079525679
 31
0.0
  0
LINE
  5
1D76AF0E5D
330
1D76AF031B
100
AcDbEntity
  8
JISSEN
100
AcDbLine
 10
280.5000832657036
 20
139.9992460706766
 30
0.0
 11
271.0000832657036
 21
139.9992460706766
 31
0.0
  0
ARC
  5
1D76AF0E5E
330
1D76AF031B
100
AcDbEntity
  8
JISSEN
100
AcDbCircle
 10
276.8382007570004
 20
160.1600043475167
 30
0.0
 40
13.5
100
AcDbArc
 50
180.0
 51
220.9617885523546
  0
LINE
  5
1D76AF0E5F
330
1D76AF031B
100
AcDbEntity
  8
JISSEN
100
AcDbLine
 10
268.8382007570004
 20
156.2600043475167
 30
0.0
 11
268.8382007570004
 21
153.4466671408988
 31
0.0
  0
LINE
  5
1D76AF0E60
330
1D76AF031B
100
AcDbEntity
  8
JISSEN
100
AcDbLine
 10
272.8382007570004
 20
156.2600043475167
 30
0.0
 11
272.8382007570004
 21
153.4466671408988
 31
0.0
  0
ARC
  5
1D76AF0E61
330
1D76AF031B
100
AcDbEntity
  8
JISSEN
100
AcDbCircle
 10
266.0000832657036
 20
157.4992460706766
 30
0.0
 40
15.0
100
AcDbArc
 50
180.0
 51
210.0000000000004
  0
ARC
  5
1D76AF0E62
330
1D76AF031B
100
AcDbEntity
  8
JISSEN
100
AcDbCircle
 10
263.7888364821812
 20
158.1009037935213
 30
0.0
 40
10.80551655320168
100
AcDbArc
 50
183.1919145761241
 51
208.3428535834926
  0
LWPOLYLINE
  5
1D76AF0E63
330
1D76AF031B
100
AcDbEntity
  8
JISSEN
100
AcDbPolyline
 90
        2
 70
     0
 43
0.0
 10
271.0000832657036
 20
149.9992460706766
 10
258.5000832657036
 20
149.9992460706766
 42
0.493145426031304
  0
LINE
  5
1D76AF0E64
330
1D76AF031B
100
AcDbEntity
  8
JISSEN
100
AcDbLine
 10
261.5000832657036
 20
139.9992460706766
 30
0.0
 11
271.0000832657036
 21
139.9992460706766
 31
0.0
  0
LINE
  5
1D76AF0E65
330
1D76AF031B
100
AcDbEntity
  8
JISSEN
100
AcDbLine
 10
260.3365689113778
 20
139.6114079525679
 30
0.0
 11
271.0000832657036
 21
139.6114079525679
 31
0.0
  0
LINE
  5
1D76AF0E66
330
1D76AF031B
100
AcDbEntity
  8
JISSEN
100
AcDbLine
 10
255.5000832657036
 20
139.9992460706766
 30
0.0
 11
255.5000832657037
 21
147.8563889278195
 31
0.0
  0
LINE
  5
1D76AF0E67
330
1D76AF031B
100
AcDbEntity
  8
JISSEN
100
AcDbLine
 10
260.3365689113778
 20
139.6114079525679
 30
0.0
 11
261.5000832657036
 21
139.9992460706766
 31
0.0
  0
ARC
  5
1D76AF0E68
330
1D76AF031B
100
AcDbEntity
  8
JISSEN
100
AcDbCircle
 10
265.9393883133794
 20
158.6531980081051
 30
0.0
 40
11.0
100
AcDbArc
 50
227.4447800965992
 51
231.8803077327226
  0
LINE
  5
1D76AF0E69
330
1D76AF031B
100
AcDbEntity
  8
JISSEN
100
AcDbLine
 10
270.0419362098059
 20
151.6626998102202
 30
0.0
 11
271.9582303216017
 21
151.6626998102203
 31
0.0
  0
LINE
  5
1D76AF0E6A
330
1D76AF031B
100
AcDbEntity
  8
JISSEN
100
AcDbLine
 10
265.8817638608356
 20
152.2728952104274
 30
0.0
 11
275.7946376531652
 21
152.2728952104273
 31
0.0
  0
LINE
  5
1D76AF0E6B
330
1D76AF031B
100
AcDbEntity
  8
JISSEN
100
AcDbLine
 10
263.5000832657036
 20
149.9992460706766
 30
0.0
 11
263.5000832657036
 21
151.3116595355091
 31
0.0
  0
ARC
  5
1D76AF0E6C
330
1D76AF031B
100
AcDbEntity
  8
JISSEN
100
AcDbCircle
 10
271.0000832657036
 20
142.311659535509
 30
0.0
 40
9.4
100
AcDbArc
 50
95.85035030116321
 51
106.7747442640945
  0
ARC
  5
1D76AF0E6D
330
1D76AF031B
100
AcDbEntity
  8
JISSEN
100
AcDbCircle
 10
271.0000832657036
 20
142.311659535509
 30
0.0
 40
9.4
100
AcDbArc
 50
73.22525573590541
 51
84.14964969883678
  0
ARC
  5
1D76AF0E6E
330
1D76AF031B
100
AcDbEntity
  8
JISSEN
100
AcDbCircle
 10
276.8382007570004
 20
165.1600043475167
 30
0.0
 40
13.5
100
AcDbArc
 50
137.7945535962694
 51
180.0
  0
ARC
  5
1D76AF0E6F
330
1D76AF031B
100
AcDbEntity
  8
JISSEN
100
AcDbCircle
 10
279.0000832657036
 20
157.4992460706766
 30
0.0
 40
28.0
100
AcDbArc
 50
157.9756871629566
 51
180.0
  0
ARC
  5
1D76AF0E70
330
1D76AF031B
100
AcDbEntity
  8
JISSEN
100
AcDbCircle
 10
279.0000832657036
 20
157.4992460706766
 30
0.0
 40
26.0
100
AcDbArc
 50
161.0908039916741
 51
180.0
  0
LINE
  5
1D76AF0E71
330
1D76AF031B
100
AcDbEntity
  8
JISSEN
100
AcDbLine
 10
274.5882007570003
 20
161.8216053957841
 30
0.0
 11
274.5882007570003
 21
165.2090424531935
 31
0.0
  0
ARC
  5
1D76AF0E72
330
1D76AF031B
100
AcDbEntity
  8
JISSEN
100
AcDbCircle
 10
273.8382007570004
 20
163.9100043475167
 30
0.0
 40
1.5
100
AcDbArc
 50
0.0
 51
90.0
  0
LINE
  5
1D76AF0E73
330
1D76AF031B
100
AcDbEntity
  8
JISSEN
100
AcDbLine
 10
267.0882007570003
 20
165.2090424531934
 30
0.0
 11
267.0882007570003
 21
161.8216053957841
 31
0.0
  0
LINE
  5
1D76AF0E74
330
1D76AF031B
100
AcDbEntity
  8
JISSEN
100
AcDbLine
 10
263.3382007570004
 20
165.1600043475167
 30
0.0
 11
263.3382007570004
 21
160.1600043475167
 31
0.0
  0
ARC
  5
1D76AF0E75
330
1D76AF031B
100
AcDbEntity
  8
JISSEN
100
AcDbCircle
 10
267.8382007570004
 20
163.9100043475167
 30
0.0
 40
1.5
100
AcDbArc
 50
90.0
 51
180.0
  0
LINE
  5
1D76AF0E76
330
1D76AF031B
100
AcDbEntity
  8
JISSEN
100
AcDbLine
 10
272.3788392123174
 20
157.1823211864824
 30
0.0
 11
273.3382007570004
 21
170.6133828120433
 31
0.0
  0
LINE
  5
1D76AF0E77
330
1D76AF031B
100
AcDbEntity
  8
JISSEN
100
AcDbLine
 10
268.3382007570003
 20
170.6133828120433
 30
0.0
 11
269.2975623016832
 21
157.1823211864824
 31
0.0
  0
LINE
  5
1D76AF0E78
330
1D76AF031B
100
AcDbEntity
  8
JISSEN
100
AcDbLine
 10
272.5882007570003
 20
154.6699506848864
 30
0.0
 11
269.0882007570003
 21
154.6699506848864
 31
0.0
  0
LINE
  5
1D76AF0E79
330
1D76AF031B
100
AcDbEntity
  8
JISSEN
100
AcDbLine
 10
269.0882007570003
 20
156.3991500463183
 30
0.0
 11
272.5882007570003
 21
156.3991500463183
 31
0.0
  0
LINE
  5
1D76AF0E7A
330
1D76AF031B
100
AcDbEntity
  8
JISSEN
100
AcDbLine
 10
269.0882007570003
 20
157.1823211864824
 30
0.0
 11
272.5882007570003
 21
157.1823211864824
 31
0.0
  0
LINE
  5
1D76AF0E7B
330
1D76AF031B
100
AcDbEntity
  8
JISSEN
100
AcDbLine
 10
267.9882007570004
 20
157.8075104178099
 30
0.0
 11
267.9882007570004
 21
159.4952786445066
 31
0.0
  0
ARC
  5
1D76AF0E7C
330
1D76AF031B
100
AcDbEntity
  8
JISSEN
100
AcDbCircle
 10
276.8382007570004
 20
160.1600043475167
 30
0.0
 40
10.5
100
AcDbArc
 50
180.0
 51
194.1490045089353
  0
ARC
  5
1D76AF0E7D
330
1D76AF031B
100
AcDbEntity
  8
JISSEN
100
AcDbCircle
 10
268.1112310652919
 20
157.9600043475167
 30
0.0
 40
1.5
100
AcDbArc
 50
194.1490045089353
 51
270.0
  0
LINE
  5
1D76AF0E7E
330
1D76AF031B
100
AcDbEntity
  8
JISSEN
100
AcDbLine
 10
269.0882007570003
 20
154.6699506848864
 30
0.0
 11
269.0882007570003
 21
157.1823211864824
 31
0.0
  0
ARC
  5
1D76AF0E7F
330
1D76AF031B
100
AcDbEntity
  8
JISSEN
100
AcDbCircle
 10
269.1382007570004
 20
155.2424711300532
 30
0.0
 40
0.3
100
AcDbArc
 50
180.0
 51
260.4059317731351
  0
ARC
  5
1D76AF0E80
330
1D76AF031B
100
AcDbEntity
  8
JISSEN
100
AcDbCircle
 10
270.2621106160909
 20
166.6724996045094
 30
0.0
 40
9.665948963622831
100
AcDbArc
 50
261.4373878185001
 51
263.024323717012
  0
ARC
  5
1D76AF0E81
330
1D76AF031B
100
AcDbEntity
  8
JISSEN
100
AcDbCircle
 10
270.838200757
 20
152.6684400452734
 30
0.0
 40
5.0
100
AcDbArc
 50
116.3208098216045
 51
120.0000000000005
  0
ARC
  5
1D76AF0E82
330
1D76AF031B
100
AcDbEntity
  8
JISSEN
100
AcDbCircle
 10
268.6323318273109
 20
157.8075104178099
 30
0.0
 40
0.6441310703106079
100
AcDbArc
 50
180.0
 51
256.3408948147003
  0
LINE
  5
1D76AF0E83
330
1D76AF031B
100
AcDbEntity
  8
JISSEN
100
AcDbLine
 10
267.5762447488813
 20
156.5586515577976
 30
0.0
 11
268.3382007570001
 21
156.9985670641956
 31
0.0
  0
LINE
  5
1D76AF0E84
330
1D76AF031B
100
AcDbEntity
  8
JISSEN
100
AcDbLine
 10
268.1112310652919
 20
156.4600043475167
 30
0.0
 11
268.6382007570003
 21
156.4600043475167
 31
0.0
  0
ARC
  5
1D76AF0E85
330
1D76AF031B
100
AcDbEntity
  8
JISSEN
100
AcDbCircle
 10
269.4077644046111
 20
160.9983586908239
 30
0.0
 40
3.927849752435348
100
AcDbArc
 50
256.3408948147066
 51
261.4373878185001
  0
ARC
  5
1D76AF0E86
330
1D76AF031B
100
AcDbEntity
  8
JISSEN
100
AcDbCircle
 10
268.6382007570005
 20
156.2600043475167
 30
0.0
 40
0.2
100
AcDbArc
 50
0.0
 51
90.0
  0
LINE
  5
1D76AF0E87
330
1D76AF031B
100
AcDbEntity
  8
JISSEN
100
AcDbLine
 10
266.3382007570004
 20
163.9100043475167
 30
0.0
 11
266.3382007570004
 21
160.1600043475167
 31
0.0
  0
LINE
  5
1D76AF0E88
330
1D76AF031B
100
AcDbEntity
  8
JISSEN
100
AcDbLine
 10
267.0882007570003
 20
161.5132161641865
 30
0.0
 11
267.0882007570003
 21
160.7959342339623
 31
0.0
  0
LINE
  5
1D76AF0E89
330
1D76AF031B
100
AcDbEntity
  8
JISSEN
100
AcDbLine
 10
267.0881255999622
 20
160.7919295349062
 30
0.0
 11
267.0881255999622
 21
160.4879127839878
 31
0.0
  0
LINE
  5
1D76AF0E8A
330
1D76AF031B
100
AcDbEntity
  8
JISSEN
100
AcDbLine
 10
267.0881255999622
 20
161.8250935136894
 30
0.0
 11
267.0881255999622
 21
161.4963597331198
 31
0.0
  0
ARC
  5
1D76AF0E8B
330
1D76AF031B
100
AcDbEntity
  8
JISSEN
100
AcDbCircle
 10
268.9414709048386
 20
169.451159196178
 30
0.0
 40
10.0014139767289
100
AcDbArc
 50
259.6435073509671
 51
265.6711179713886
  0
ARC
  5
1D76AF0E8C
330
1D76AF031B
100
AcDbEntity
  8
JISSEN
100
AcDbCircle
 10
267.1556134179089
 20
159.6790000090231
 30
0.0
 40
0.0674126609086159
100
AcDbArc
 50
180.000000000013
 51
259.6435073509607
  0
LINE
  5
1D76AF0E8D
330
1D76AF031B
100
AcDbEntity
  8
JISSEN
100
AcDbLine
 10
267.0882007570003
 20
160.489364312752
 30
0.0
 11
267.0882007570004
 21
159.6790000090231
 31
0.0
  0
ARC
  5
1D76AF0E8E
330
1D76AF031B
100
AcDbEntity
  8
JISSEN
100
AcDbCircle
 10
270.0662680841779
 20
184.3102979470708
 30
0.0
 40
24.90306398982921
100
AcDbArc
 50
265.6711179713886
 51
267.8624138581945
  0
ARC
  5
1D76AF0E8F
330
1D76AF031B
100
AcDbEntity
  8
JISSEN
100
AcDbCircle
 10
264.8382007570004
 20
160.1600043475167
 30
0.0
 40
10.5
100
AcDbArc
 50
345.8509954910646
 51
0.0
  0
LINE
  5
1D76AF0E90
330
1D76AF031B
100
AcDbEntity
  8
JISSEN
100
AcDbLine
 10
273.6882007570003
 20
159.4952786445066
 30
0.0
 11
273.6882007570003
 21
157.8075104178099
 31
0.0
  0
ARC
  5
1D76AF0E91
330
1D76AF031B
100
AcDbEntity
  8
JISSEN
100
AcDbCircle
 10
273.0440696866898
 20
157.8075104178099
 30
0.0
 40
0.6441310703106079
100
AcDbArc
 50
283.6591051852995
 51
0.0
  0
LINE
  5
1D76AF0E92
330
1D76AF031B
100
AcDbEntity
  8
JISSEN
100
AcDbLine
 10
274.1001567651191
 20
156.5586515577975
 30
0.0
 11
273.338200757
 21
156.9985670641956
 31
0.0
  0
ARC
  5
1D76AF0E93
330
1D76AF031B
100
AcDbEntity
  8
JISSEN
100
AcDbCircle
 10
273.565170448709
 20
157.9600043475167
 30
0.0
 40
1.5
100
AcDbArc
 50
270.0
 51
345.8509954910646
  0
LINE
  5
1D76AF0E94
330
1D76AF031B
100
AcDbEntity
  8
JISSEN
100
AcDbLine
 10
272.5882007570003
 20
157.1823211864824
 30
0.0
 11
272.5882007570003
 21
154.6699506848864
 31
0.0
  0
ARC
  5
1D76AF0E95
330
1D76AF031B
100
AcDbEntity
  8
JISSEN
100
AcDbCircle
 10
272.2686371093895
 20
160.9983586908238
 30
0.0
 40
3.927849752435323
100
AcDbArc
 50
278.5626121814933
 51
283.6591051852995
  0
ARC
  5
1D76AF0E96
330
1D76AF031B
100
AcDbEntity
  8
JISSEN
100
AcDbCircle
 10
270.838200757
 20
152.6684400452734
 30
0.0
 40
5.0
100
AcDbArc
 50
59.99999999999946
 51
63.67919017838959
  0
ARC
  5
1D76AF0E97
330
1D76AF031B
100
AcDbEntity
  8
JISSEN
100
AcDbCircle
 10
272.5382007570004
 20
155.2424711300532
 30
0.0
 40
0.3
100
AcDbArc
 50
279.5940682268385
 51
0.0
  0
ARC
  5
1D76AF0E98
330
1D76AF031B
100
AcDbEntity
  8
JISSEN
100
AcDbCircle
 10
271.4142908979099
 20
166.6724996045104
 30
0.0
 40
9.665948963623756
100
AcDbArc
 50
276.9756762829814
 51
278.5626121814933
  0
ARC
  5
1D76AF0E99
330
1D76AF031B
100
AcDbEntity
  8
JISSEN
100
AcDbCircle
 10
273.0382007570004
 20
156.2600043475167
 30
0.0
 40
0.2
100
AcDbArc
 50
90.0
 51
180.0
  0
LINE
  5
1D76AF0E9A
330
1D76AF031B
100
AcDbEntity
  8
JISSEN
100
AcDbLine
 10
273.565170448709
 20
156.4600043475167
 30
0.0
 11
273.0382007570004
 21
156.4600043475167
 31
0.0
  0
ARC
  5
1D76AF0E9B
330
1D76AF031B
100
AcDbEntity
  8
JISSEN
100
AcDbCircle
 10
272.7349306091623
 20
169.4511591961763
 30
0.0
 40
10.00141397672717
100
AcDbArc
 50
274.3288820286112
 51
280.3564926490392
  0
ARC
  5
1D76AF0E9C
330
1D76AF031B
100
AcDbEntity
  8
JISSEN
100
AcDbCircle
 10
271.6101334298234
 20
184.3102979470725
 30
0.0
 40
24.90306398983088
100
AcDbArc
 50
272.1375861418054
 51
274.3288820286045
  0
LINE
  5
1D76AF0E9D
330
1D76AF031B
100
AcDbEntity
  8
JISSEN
100
AcDbLine
 10
275.3382007570004
 20
163.9100043475167
 30
0.0
 11
275.3382007570004
 21
160.1600043475167
 31
0.0
  0
LINE
  5
1D76AF0E9E
330
1D76AF031B
100
AcDbEntity
  8
JISSEN
100
AcDbLine
 10
274.5882007570003
 20
160.7959342339623
 30
0.0
 11
274.5882007570003
 21
161.5132161641865
 31
0.0
  0
LINE
  5
1D76AF0E9F
330
1D76AF031B
100
AcDbEntity
  8
JISSEN
100
AcDbLine
 10
274.5882007570003
 20
160.7959342339623
 30
0.0
 11
274.5882007570003
 21
160.489364312752
 31
0.0
  0
LINE
  5
1D76AF0EA0
330
1D76AF031B
100
AcDbEntity
  8
JISSEN
100
AcDbLine
 10
274.5882007568912
 20
160.4893643349758
 30
0.0
 11
274.5882007568912
 21
160.4893642586408
 31
0.0
  0
LINE
  5
1D76AF0EA1
330
1D76AF031B
100
AcDbEntity
  8
JISSEN
100
AcDbLine
 10
274.5882007570287
 20
161.5132161645805
 30
0.0
 11
274.5882007570287
 21
161.5132161640386
 31
0.0
  0
LINE
  5
1D76AF0EA2
330
1D76AF031B
100
AcDbEntity
  8
JISSEN
100
AcDbLine
 10
274.5882007570003
 20
161.8216053957841
 30
0.0
 11
274.5882007570003
 21
161.5132161641865
 31
0.0
  0
ARC
  5
1D76AF0EA3
330
1D76AF031B
100
AcDbEntity
  8
JISSEN
100
AcDbCircle
 10
274.5207880960918
 20
159.6790000090231
 30
0.0
 40
0.0674126609085984
100
AcDbArc
 50
280.3564926490328
 51
0.0
  0
LINE
  5
1D76AF0EA4
330
1D76AF031B
100
AcDbEntity
  8
JISSEN
100
AcDbLine
 10
274.5882007570003
 20
159.6790000090231
 30
0.0
 11
274.5882007570003
 21
160.489364312752
 31
0.0
  0
ARC
  5
1D76AF0EA5
330
1D76AF031B
100
AcDbEntity
  8
JISSEN
100
AcDbCircle
 10
270.0662680841763
 20
140.9146165904319
 30
0.0
 40
24.90306398982924
100
AcDbArc
 50
93.18305488819406
 51
94.26739305779676
  0
ARC
  5
1D76AF0EA6
330
1D76AF031B
100
AcDbEntity
  8
JISSEN
100
AcDbCircle
 10
268.2132007570004
 20
165.1100043475167
 30
0.0
 40
1.199999999999999
100
AcDbArc
 50
68.57670275211202
 51
90.0
  0
ARC
  5
1D76AF0EA7
330
1D76AF031B
100
AcDbEntity
  8
JISSEN
100
AcDbCircle
 10
270.0662680841773
 20
190.1772124665275
 30
0.0
 40
24.90306398982924
100
AcDbArc
 50
265.671117971389
 51
266.8940593855773
  0
ARC
  5
1D76AF0EA8
330
1D76AF031B
100
AcDbEntity
  8
JISSEN
100
AcDbCircle
 10
268.9414709048385
 20
175.3180737156347
 30
0.0
 40
10.00141397672889
100
AcDbArc
 50
262.6319028082046
 51
265.6711179713886
  0
LINE
  5
1D76AF0EA9
330
1D76AF031B
100
AcDbEntity
  8
JISSEN
100
AcDbLine
 10
267.8382007570004
 20
165.4100043475167
 30
0.0
 11
268.2132007570004
 21
165.4100043475167
 31
0.0
  0
LINE
  5
1D76AF0EAA
330
1D76AF031B
100
AcDbEntity
  8
JISSEN
100
AcDbLine
 10
268.2132007570004
 20
165.4100043475167
 30
0.0
 11
268.2132007570004
 21
169.9100043475167
 31
0.0
  0
LINE
  5
1D76AF0EAB
330
1D76AF031B
100
AcDbEntity
  8
JISSEN
100
AcDbLine
 10
267.1475316397472
 20
172.8858607478359
 30
0.0
 11
265.7674671371518
 21
172.8858607478359
 31
0.0
  0
ARC
  5
1D76AF0EAC
330
1D76AF031B
100
AcDbEntity
  8
JISSEN
100
AcDbCircle
 10
266.6084362188726
 20
173.5843478047959
 30
0.0
 40
0.4866855046380603
100
AcDbArc
 50
4.184916125117227
 51
61.82925977025042
  0
LINE
  5
1D76AF0EAD
330
1D76AF031B
100
AcDbEntity
  8
JISSEN
100
AcDbLine
 10
267.2074315262311
 20
172.0672289658894
 30
0.0
 11
267.0938240854312
 21
173.6198639901539
 31
0.0
  0
ARC
  5
1D76AF0EAE
330
1D76AF031B
100
AcDbEntity
  8
JISSEN
100
AcDbCircle
 10
266.8382007570004
 20
170.6133828120433
 30
0.0
 40
1.5
100
AcDbArc
 50
0.0
 51
75.74996730219952
  0
ARC
  5
1D76AF0EAF
330
1D76AF031B
100
AcDbEntity
  8
JISSEN
100
AcDbCircle
 10
272.734930609162
 20
175.318073715633
 30
0.0
 40
10.00141397672718
100
AcDbArc
 50
274.3288820286112
 51
277.3680971917952
  0
LINE
  5
1D76AF0EB0
330
1D76AF031B
100
AcDbEntity
  8
JISSEN
100
AcDbLine
 10
273.8382007570004
 20
165.4100043475167
 30
0.0
 11
273.4632007570004
 21
165.4100043475167
 31
0.0
  0
ARC
  5
1D76AF0EB1
330
1D76AF031B
100
AcDbEntity
  8
JISSEN
100
AcDbCircle
 10
271.6101334298233
 20
140.9146165904304
 30
0.0
 40
24.90306398983085
100
AcDbArc
 50
85.73260694219674
 51
86.81694511179943
  0
ARC
  5
1D76AF0EB2
330
1D76AF031B
100
AcDbEntity
  8
JISSEN
100
AcDbCircle
 10
273.4632007570004
 20
165.1100043475167
 30
0.0
 40
1.199999999999999
100
AcDbArc
 50
90.0
 51
111.4232972478952
  0
ARC
  5
1D76AF0EB3
330
1D76AF031B
100
AcDbEntity
  8
JISSEN
100
AcDbCircle
 10
271.6101334298234
 20
190.1772124665292
 30
0.0
 40
24.90306398983089
100
AcDbArc
 50
273.1059406144225
 51
274.3288820286045
  0
LINE
  5
1D76AF0EB4
330
1D76AF031B
100
AcDbEntity
  8
JISSEN
100
AcDbLine
 10
273.4632007570004
 20
165.4100043475167
 30
0.0
 11
273.4632007570004
 21
169.9100043475167
 31
0.0
  0
ARC
  5
1D76AF0EB5
330
1D76AF031B
100
AcDbEntity
  8
JISSEN
100
AcDbCircle
 10
274.8382007570003
 20
170.6133828120433
 30
0.0
 40
1.5
100
AcDbArc
 50
104.2500326978067
 51
180.0
  0
ARC
  5
1D76AF0EB6
330
1D76AF031B
100
AcDbEntity
  8
JISSEN
100
AcDbCircle
 10
275.0679652951281
 20
173.5843478047959
 30
0.0
 40
0.4866855046380603
100
AcDbArc
 50
118.1707402297495
 51
175.8150838748823
  0
LINE
  5
1D76AF0EB7
330
1D76AF031B
100
AcDbEntity
  8
JISSEN
100
AcDbLine
 10
274.5825774285695
 20
173.6198639901539
 30
0.0
 11
274.4689699877695
 21
172.0672289658894
 31
0.0
  0
LINE
  5
1D76AF0EB8
330
1D76AF031B
100
AcDbEntity
  8
JISSEN
100
AcDbLine
 10
275.908934376849
 20
172.8858607478359
 30
0.0
 11
274.5288698742534
 21
172.8858607478359
 31
0.0
  0
ARC
  5
1D76AF0EB9
330
1D76AF031B
100
AcDbEntity
  8
JISSEN
100
AcDbCircle
 10
276.0000832657036
 20
157.4992460706766
 30
0.0
 40
15.0
100
AcDbArc
 50
329.9999999999994
 51
0.0
  0
ARC
  5
1D76AF0EBA
330
1D76AF031B
100
AcDbEntity
  8
JISSEN
100
AcDbCircle
 10
278.211330049226
 20
158.1009037935213
 30
0.0
 40
10.80551655320168
100
AcDbArc
 50
331.6571464165133
 51
356.8080854238726
  0
ARC
  5
1D76AF0EBB
330
1D76AF031B
100
AcDbEntity
  8
JISSEN
100
AcDbCircle
 10
276.0000832657036
 20
157.4992460706766
 30
0.0
 40
17.0
100
AcDbArc
 50
333.8210312959867
 51
0.0
  0
CIRCLE
  5
1D76AF0EBC
330
1D76AF031B
100
AcDbEntity
  8
JISSEN
100
AcDbCircle
 10
300.7500832657036
 20
152.9992460706766
 30
0.0
 40
2.0
  0
LWPOLYLINE
  5
1D76AF0EBD
330
1D76AF031B
100
AcDbEntity
  8
JISSEN
100
AcDbPolyline
 90
        6
 70
     1
 43
0.0
 10
298.7500832657037
 20
156.4633476858144
 10
296.7500832657036
 20
152.9992460706766
 10
298.7500832657037
 20
149.5351444555389
 10
302.7500832657036
 20
149.5351444555389
 10
304.7500832657036
 20
152.9992460706766
 10
302.7500832657036
 20
156.4633476858144
  0
LWPOLYLINE
  5
1D76AF0EBE
330
1D76AF031B
100
AcDbEntity
  8
JISSEN
100
AcDbPolyline
 90
        6
 70
     1
 43
0.0
 10
298.9232883464605
 20
156.1633476858144
 10
297.0964934272174
 20
152.9992460706766
 10
298.9232883464605
 20
149.8351444555389
 10
302.5768781849468
 20
149.8351444555389
 10
304.4036731041899
 20
152.9992460706766
 10
302.5768781849467
 20
156.1633476858144
  0
LINE
  5
1D76AF0EBF
330
1D76AF031B
100
AcDbEntity
  8
JISSEN
100
AcDbLine
 10
286.5000832657036
 20
139.9992460706766
 30
0.0
 11
286.5000832657036
 21
147.8563889278195
 31
0.0
  0
LINE
  5
1D76AF0EC0
330
1D76AF031B
100
AcDbEntity
  8
JISSEN
100
AcDbLine
 10
281.6635976200295
 20
139.6114079525679
 30
0.0
 11
280.5000832657036
 21
139.9992460706766
 31
0.0
  0
LINE
  5
1D76AF0EC1
330
1D76AF031B
100
AcDbEntity
  8
JISSEN
100
AcDbLine
 10
278.5000832657036
 20
149.9992460706766
 30
0.0
 11
278.5000832657036
 21
151.311659535509
 31
0.0
  0
ARC
  5
1D76AF0EC2
330
1D76AF031B
100
AcDbEntity
  8
JISSEN
100
AcDbCircle
 10
276.0607782180278
 20
158.6531980081051
 30
0.0
 40
11.0
100
AcDbArc
 50
308.1196922672773
 51
312.5552199034006
  0
LINE
  5
1D76AF0EC3
330
1D76AF031B
100
AcDbEntity
  8
JISSEN
100
AcDbLine
 10
303.8804903009741
 20
148.477017439401
 30
0.0
 11
296.8033094304596
 21
143.5780044541393
 31
0.0
  0
ARC
  5
1D76AF0EC4
330
1D76AF031B
100
AcDbEntity
  8
JISSEN
100
AcDbCircle
 10
263.0000832657036
 20
157.4992460706766
 30
0.0
 40
28.0
100
AcDbArc
 50
0.0
 51
22.02431283704329
  0
ARC
  5
1D76AF0EC5
330
1D76AF031B
100
AcDbEntity
  8
JISSEN
100
AcDbCircle
 10
263.0000832657036
 20
157.4992460706766
 30
0.0
 40
30.0
100
AcDbArc
 50
0.0
 51
35.2092056449253
  0
LINE
  5
1D76AF0EC6
330
1D76AF031B
100
AcDbEntity
  8
JISSEN
100
AcDbLine
 10
278.3382007570004
 20
165.1600043475167
 30
0.0
 11
278.3382007570004
 21
160.1600043475167
 31
0.0
  0
ARC
  5
1D76AF0EC7
330
1D76AF031B
100
AcDbEntity
  8
JISSEN
100
AcDbCircle
 10
263.0000832657036
 20
157.4992460706766
 30
0.0
 40
26.0
100
AcDbArc
 50
0.0
 51
18.90919600832578
  0
INSERT
  5
1D76AF0EC9
330
1D76AF031B
100
AcDbEntity
  8
SUNPOU
100
AcDbBlockReference
  2
ARROW
 10
276.1382896448776
 20
191.2992460706767
 30
0.0
 41
1.499999999999977
 42
1.5
 43
1.5
 50
244.0719355263541
  0
ARC
  5
1D76AF0ECA
330
1D76AF031B
100
AcDbEntity
  8
JISSEN
100
AcDbCircle
 10
271.0000832657036
 20
179.9992460706766
 30
0.0
 40
30.0
100
AcDbArc
 50
66.41780378570221
 51
113.5821962142977
  0
LWPOLYLINE
  5
1D76AF0ECB
330
1D76AF031B
100
AcDbEntity
  8
JISSEN
100
AcDbPolyline
 90
        2
 70
     0
 43
0.0
 10
283.2500832657036
 20
179.9992460706766
 10
258.7500832657036
 20
179.9992460706766
  0
LWPOLYLINE
  5
1D76AF0ECC
330
1D76AF031B
100
AcDbEntity
  8
JISSEN
100
AcDbPolyline
 90
        2
 70
     0
 43
0.0
 10
283.5000832657036
 20
175.9992460706767
 10
258.5000832657036
 20
175.9992460706766
  0
ARC
  5
1D76AF0ECD
330
1D76AF031B
100
AcDbEntity
  8
JISSEN
100
AcDbCircle
 10
276.2921810731647
 20
188.4992460706767
 30
0.0
 40
1.0
100
AcDbArc
 50
20.03172652528331
 51
90.0
  0
ARC
  5
1D76AF0ECE
330
1D76AF031B
100
AcDbEntity
  8
JISSEN
100
AcDbCircle
 10
276.1665342217182
 20
189.1992460706766
 30
0.0
 40
1.3
100
AcDbArc
 50
12.32083218587668
 51
90.0
  0
LINE
  5
1D76AF0ECF
330
1D76AF031B
100
AcDbEntity
  8
JISSEN
100
AcDbLine
 10
271.0000832657036
 20
191.2992460706766
 30
0.0
 11
283.1481282632105
 21
191.2992460706766
 31
0.0
  0
LINE
  5
1D76AF0ED0
330
1D76AF031B
100
AcDbEntity
  8
JISSEN
100
AcDbLine
 10
283.2499566821025
 20
180.0132757372732
 30
0.0
 11
275.7439816841891
 21
188.889394489446
 31
0.0
  0
LINE
  5
1D76AF0ED1
330
1D76AF031B
100
AcDbEntity
  8
JISSEN
100
AcDbLine
 10
283.1481282632105
 20
191.2992460706766
 30
0.0
 11
258.8520382681969
 21
191.2992460706766
 31
0.0
  0
LWPOLYLINE
  5
1D76AF0ED2
330
1D76AF031B
100
AcDbEntity
  8
JISSEN
100
AcDbPolyline
 90
        5
 70
     1
 43
0.0
 10
254.5000832657037
 20
179.9992460706766
 10
254.2500832657037
 20
190.95236820948
 10
254.0766113568125
 20
204.7701180486465
 10
256.0000832657036
 20
211.6220226723604
 10
256.0000832657036
 20
178.4992460706766
  0
LWPOLYLINE
  5
1D76AF0ED3
330
1D76AF031B
100
AcDbEntity
  8
JISSEN
100
AcDbPolyline
 90
        4
 70
     1
 43
0.0
 10
257.0000832657036
 20
212.0772759353675
 10
258.9981552390828
 20
207.4938587001321
 10
258.7500832657036
 20
179.9992460706766
 10
257.0000832657036
 20
178.4992460706766
  0
LINE
  5
1D76AF0ED4
330
1D76AF031B
100
AcDbEntity
  8
JISSEN
100
AcDbLine
 10
258.7502098493048
 20
180.0132757372732
 30
0.0
 11
266.2561848472181
 21
188.889394489446
 31
0.0
  0
ARC
  5
1D76AF0ED5
330
1D76AF031B
100
AcDbEntity
  8
JISSEN
100
AcDbCircle
 10
261.6407509685948
 20
189.1992460706766
 30
0.0
 40
1.3
100
AcDbArc
 50
11.7577571472682
 51
90.0
  0
LINE
  5
1D76AF0ED6
330
1D76AF031B
100
AcDbEntity
  8
JISSEN
100
AcDbLine
 10
263.2395891043127
 20
187.8973589206531
 30
0.0
 11
262.9134742293794
 21
189.464152660738
 31
0.0
  0
ARC
  5
1D76AF0ED7
330
1D76AF031B
100
AcDbEntity
  8
JISSEN
100
AcDbCircle
 10
252.5000832657036
 20
190.0049013375372
 30
0.0
 40
0.5
100
AcDbArc
 50
96.99999999999954
 51
180.0
  0
LINE
  5
1D76AF0ED8
330
1D76AF031B
100
AcDbEntity
  8
JISSEN
100
AcDbLine
 10
253.1626308996013
 20
187.4992460706766
 30
0.0
 11
252.0000832657036
 21
187.4992460706766
 31
0.0
  0
ARC
  5
1D76AF0ED9
330
1D76AF031B
100
AcDbEntity
  8
JISSEN
100
AcDbCircle
 10
253.5937725561972
 20
189.1992460706766
 30
0.0
 40
1.3
100
AcDbArc
 50
90.0
 51
178.8942957104758
  0
ARC
  5
1D76AF0EDA
330
1D76AF031B
100
AcDbEntity
  8
JISSEN
100
AcDbCircle
 10
252.1626308996012
 20
187.5992460706732
 30
0.0
 40
0.1
100
AcDbArc
 50
270.0
 51
358.894295710479
  0
LINE
  5
1D76AF0EDB
330
1D76AF031B
100
AcDbEntity
  8
JISSEN
100
AcDbLine
 10
252.2626122791911
 20
187.5973163724141
 30
0.0
 11
252.2940146215331
 21
189.2243321480444
 31
0.0
  0
LINE
  5
1D76AF0EDC
330
1D76AF031B
100
AcDbEntity
  8
JISSEN
100
AcDbLine
 10
252.0000832657036
 20
187.4992460706766
 30
0.0
 11
252.0000832657036
 21
190.0049013375372
 31
0.0
  0
ARC
  5
1D76AF0EDD
330
1D76AF031B
100
AcDbEntity
  8
JISSEN
100
AcDbCircle
 10
255.0878504708396
 20
189.1992460706766
 30
0.0
 40
1.3
100
AcDbArc
 50
129.1502676331705
 51
174.8427865251739
  0
LINE
  5
1D76AF0EDE
330
1D76AF031B
100
AcDbEntity
  8
JISSEN
100
AcDbLine
 10
254.2463721479899
 20
187.4992460706766
 30
0.0
 11
253.44637214799
 21
187.4992460706766
 31
0.0
  0
ARC
  5
1D76AF0EDF
330
1D76AF031B
100
AcDbEntity
  8
JISSEN
100
AcDbCircle
 10
253.44637214799
 20
187.6992460706766
 30
0.0
 40
0.2
100
AcDbArc
 50
183.9176963714481
 51
354.8427865251771
  0
LINE
  5
1D76AF0EE0
330
1D76AF031B
100
AcDbEntity
  8
JISSEN
100
AcDbLine
 10
253.2629598980536
 20
187.619496797494
 30
0.0
 11
253.2626186679707
 21
187.5976820449386
 31
0.0
  0
LINE
  5
1D76AF0EE1
330
1D76AF031B
100
AcDbEntity
  8
JISSEN
100
AcDbLine
 10
253.1285648749501
 20
189.4126352403632
 30
0.0
 11
253.2468395031798
 21
187.6855813842505
 31
0.0
  0
ARC
  5
1D76AF0EE2
330
1D76AF031B
100
AcDbEntity
  8
JISSEN
100
AcDbCircle
 10
253.1626308996013
 20
187.5992460706777
 30
0.0
 40
0.1
100
AcDbArc
 50
270.0
 51
359.1038427224347
  0
ARC
  5
1D76AF0EE3
330
1D76AF031B
100
AcDbEntity
  8
JISSEN
100
AcDbCircle
 10
254.2463721479899
 20
187.6992460706766
 30
0.0
 40
0.2
100
AcDbArc
 50
270.0
 51
294.2439297532942
  0
LINE
  5
1D76AF0EE4
330
1D76AF031B
100
AcDbEntity
  8
JISSEN
100
AcDbLine
 10
253.6455625084367
 20
187.6812682981473
 30
0.0
 11
253.793113127936
 21
189.3161015921167
 31
0.0
  0
LINE
  5
1D76AF0EE5
330
1D76AF031B
100
AcDbEntity
  8
JISSEN
100
AcDbLine
 10
252.4391485940011
 20
190.5011744133578
 30
0.0
 11
254.2552918136744
 21
190.7241687611222
 31
0.0
  0
ARC
  5
1D76AF0EE6
330
1D76AF031B
100
AcDbEntity
  8
JISSEN
100
AcDbCircle
 10
254.3690492340479
 20
189.5130383187412
 30
0.0
 40
1.244540968917422
100
AcDbArc
 50
127.5871082537672
 51
184.6273535933099
  0
ARC
  5
1D76AF0EE7
330
1D76AF031B
100
AcDbEntity
  8
JISSEN
100
AcDbCircle
 10
259.4336161145386
 20
187.8992460706765
 30
0.0
 40
0.4
100
AcDbArc
 50
190.4362216586944
 51
348.7010440842445
  0
LINE
  5
1D76AF0EE8
330
1D76AF031B
100
AcDbEntity
  8
JISSEN
100
AcDbLine
 10
259.8336161145387
 20
187.4992460706766
 30
0.0
 11
259.4336161145386
 21
187.4992460706766
 31
0.0
  0
LINE
  5
1D76AF0EE9
330
1D76AF031B
100
AcDbEntity
  8
JISSEN
100
AcDbLine
 10
259.0402332535865
 20
187.8267897065025
 30
0.0
 11
258.8309592264428
 21
188.962988251093
 31
0.0
  0
LINE
  5
1D76AF0EEA
330
1D76AF031B
100
AcDbEntity
  8
JISSEN
100
AcDbLine
 10
261.3564361875019
 20
189.4992460706767
 30
0.0
 11
262.9056620326621
 21
189.4992460706767
 31
0.0
  0
ARC
  5
1D76AF0EEB
330
1D76AF031B
100
AcDbEntity
  8
JISSEN
100
AcDbCircle
 10
261.3564361875019
 20
188.6992460706766
 30
0.0
 40
0.8
100
AcDbArc
 50
90.0
 51
161.950033379415
  0
LINE
  5
1D76AF0EEC
330
1D76AF031B
100
AcDbEntity
  8
JISSEN
100
AcDbLine
 10
260.595806854298
 20
188.9471230915357
 30
0.0
 11
260.2139307811405
 21
187.7753075602469
 31
0.0
  0
LINE
  5
1D76AF0EED
330
1D76AF031B
100
AcDbEntity
  8
JISSEN
100
AcDbLine
 10
261.4269573550637
 20
190.4992460706766
 30
0.0
 11
261.6407509685948
 21
190.4992460706766
 31
0.0
  0
LINE
  5
1D76AF0EEE
330
1D76AF031B
100
AcDbEntity
  8
JISSEN
100
AcDbLine
 10
259.82586340616
 20
187.8208747607742
 30
0.0
 11
260.1521536572947
 21
189.4539528278589
 31
0.0
  0
ARC
  5
1D76AF0EEF
330
1D76AF031B
100
AcDbEntity
  8
JISSEN
100
AcDbCircle
 10
261.4269573550637
 20
189.1992460706766
 30
0.0
 40
1.3
100
AcDbArc
 50
90.0
 51
168.7010440842477
  0
ARC
  5
1D76AF0EF0
330
1D76AF031B
100
AcDbEntity
  8
JISSEN
100
AcDbCircle
 10
259.8336161145387
 20
187.8992460706765
 30
0.0
 40
0.4
100
AcDbArc
 50
270.0
 51
341.950033379415
  0
ARC
  5
1D76AF0EF1
330
1D76AF031B
100
AcDbEntity
  8
JISSEN
100
AcDbCircle
 10
254.2500832657037
 20
183.4992460706766
 30
0.0
 40
12.49999999999999
100
AcDbArc
 50
343.7397952916901
 51
16.26020470830987
  0
ARC
  5
1D76AF0EF2
330
1D76AF031B
100
AcDbEntity
  8
JISSEN
100
AcDbCircle
 10
287.7500832657036
 20
183.4992460706766
 30
0.0
 40
12.49999999999999
100
AcDbArc
 50
163.7397952916901
 51
196.2602047083098
  0
ARC
  5
1D76AF0EF3
330
1D76AF031B
100
AcDbEntity
  8
JISSEN
100
AcDbCircle
 10
270.6779509914117
 20
189.1992460706766
 30
0.0
 40
1.3
100
AcDbArc
 50
90.0
 51
168.6811662726068
  0
ARC
  5
1D76AF0EF4
330
1D76AF031B
100
AcDbEntity
  8
JISSEN
100
AcDbCircle
 10
270.5677520869532
 20
188.2992460706766
 30
0.0
 40
1.199999999999999
100
AcDbArc
 50
90.0
 51
162.6940025391983
  0
LINE
  5
1D76AF0EF5
330
1D76AF031B
100
AcDbEntity
  8
JISSEN
100
AcDbLine
 10
263.2500832657036
 20
191.2992460706766
 30
0.0
 11
271.0000832657036
 21
191.2992460706766
 31
0.0
  0
LINE
  5
1D76AF0EF6
330
1D76AF031B
100
AcDbEntity
  8
JISSEN
100
AcDbLine
 10
265.7079854582425
 20
189.4992460706767
 30
0.0
 11
267.6325968128809
 21
189.4992460706767
 31
0.0
  0
ARC
  5
1D76AF0EF7
330
1D76AF031B
100
AcDbEntity
  8
JISSEN
100
AcDbCircle
 10
266.3676857488131
 20
189.1992460706766
 30
0.0
 40
1.3
100
AcDbArc
 50
11.11380719249755
 51
90.0
  0
LINE
  5
1D76AF0EF8
330
1D76AF031B
100
AcDbEntity
  8
JISSEN
100
AcDbLine
 10
266.3676857488131
 20
190.4992460706766
 30
0.0
 11
265.833632309689
 21
190.4992460706766
 31
0.0
  0
ARC
  5
1D76AF0EF9
330
1D76AF031B
100
AcDbEntity
  8
JISSEN
100
AcDbCircle
 10
263.7290980507677
 20
187.9992460706766
 30
0.0
 40
0.5
100
AcDbArc
 50
191.757757147265
 51
347.6791678141201
  0
ARC
  5
1D76AF0EFA
330
1D76AF031B
100
AcDbEntity
  8
JISSEN
100
AcDbCircle
 10
263.9290980507678
 20
187.9992460706766
 30
0.0
 40
0.5
100
AcDbArc
 50
270.0
 51
339.9682734747166
  0
LINE
  5
1D76AF0EFB
330
1D76AF031B
100
AcDbEntity
  8
JISSEN
100
AcDbLine
 10
263.9290980507678
 20
187.4992460706766
 30
0.0
 11
263.7290980507677
 21
187.4992460706766
 31
0.0
  0
ARC
  5
1D76AF0EFC
330
1D76AF031B
100
AcDbEntity
  8
JISSEN
100
AcDbCircle
 10
265.0000832657036
 20
188.9526810528158
 30
0.0
 40
1.0
100
AcDbArc
 50
319.7809012554465
 51
333.0351766874621
  0
ARC
  5
1D76AF0EFD
330
1D76AF031B
100
AcDbEntity
  8
JISSEN
100
AcDbCircle
 10
265.7079854582425
 20
188.4992460706767
 30
0.0
 40
1.0
100
AcDbArc
 50
90.0
 51
159.9682734747166
  0
ARC
  5
1D76AF0EFE
330
1D76AF031B
100
AcDbEntity
  8
JISSEN
100
AcDbCircle
 10
265.833632309689
 20
189.1992460706766
 30
0.0
 40
1.3
100
AcDbArc
 50
90.0
 51
167.6791678141233
  0
LINE
  5
1D76AF0EFF
330
1D76AF031B
100
AcDbEntity
  8
JISSEN
100
AcDbLine
 10
264.2175820778116
 20
187.8925532624691
 30
0.0
 11
264.5635738393755
 21
189.4766473720162
 31
0.0
  0
LINE
  5
1D76AF0F00
330
1D76AF031B
100
AcDbEntity
  8
JISSEN
100
AcDbLine
 10
264.3988495953287
 20
187.8279758561541
 30
0.0
 11
264.7684823691206
 21
188.8417864997217
 31
0.0
  0
LINE
  5
1D76AF0F01
330
1D76AF031B
100
AcDbEntity
  8
JISSEN
100
AcDbLine
 10
266.3709765834299
 20
189.2706129849011
 30
0.0
 11
266.3441057655809
 21
189.4992460706767
 31
0.0
  0
ARC
  5
1D76AF0F02
330
1D76AF031B
100
AcDbEntity
  8
JISSEN
100
AcDbCircle
 10
265.8743944312498
 20
189.2122506157231
 30
0.0
 40
0.5
100
AcDbArc
 50
319.7809012554465
 51
6.703115329654449
  0
LINE
  5
1D76AF0F03
330
1D76AF031B
100
AcDbEntity
  8
JISSEN
100
AcDbLine
 10
267.6433058625939
 20
189.4498320346051
 30
0.0
 11
267.9313378686998
 21
187.9835910104025
 31
0.0
  0
ARC
  5
1D76AF0F04
330
1D76AF031B
100
AcDbEntity
  8
JISSEN
100
AcDbCircle
 10
268.6200856135217
 20
188.0992460706771
 30
0.0
 40
0.6
100
AcDbArc
 50
270.0
 51
342.6940025391983
  0
LINE
  5
1D76AF0F05
330
1D76AF031B
100
AcDbEntity
  8
JISSEN
100
AcDbLine
 10
268.6200856135217
 20
187.4992460706766
 30
0.0
 11
268.5200856135216
 21
187.4992460706766
 31
0.0
  0
LINE
  5
1D76AF0F06
330
1D76AF031B
100
AcDbEntity
  8
JISSEN
100
AcDbLine
 10
269.1084157311236
 20
187.9814849874546
 30
0.0
 11
269.4032357366062
 21
189.4543950843258
 31
0.0
  0
LINE
  5
1D76AF0F07
330
1D76AF031B
100
AcDbEntity
  8
JISSEN
100
AcDbLine
 10
269.192923413378
 20
187.9207611832053
 30
0.0
 11
269.4220764872407
 21
188.6562158456204
 31
0.0
  0
ARC
  5
1D76AF0F08
330
1D76AF031B
100
AcDbEntity
  8
JISSEN
100
AcDbCircle
 10
268.5200856135216
 20
188.0992460706771
 30
0.0
 40
0.6
100
AcDbArc
 50
191.1138071924975
 51
348.6811662726068
  0
ARC
  5
1D76AF0F09
330
1D76AF031B
100
AcDbEntity
  8
JISSEN
100
AcDbCircle
 10
273.4800809178856
 20
188.0992460706771
 30
0.0
 40
0.6
100
AcDbArc
 50
191.3188337273931
 51
348.8861928075056
  0
ARC
  5
1D76AF0F0A
330
1D76AF031B
100
AcDbEntity
  8
JISSEN
100
AcDbCircle
 10
273.3800809178855
 20
188.0992460706771
 30
0.0
 40
0.6
100
AcDbArc
 50
197.3059974608015
 51
270.0
  0
LINE
  5
1D76AF0F0B
330
1D76AF031B
100
AcDbEntity
  8
JISSEN
100
AcDbLine
 10
271.3222155399956
 20
190.4992460706766
 30
0.0
 11
270.6779509914117
 21
190.4992460706766
 31
0.0
  0
LINE
  5
1D76AF0F0C
330
1D76AF031B
100
AcDbEntity
  8
JISSEN
100
AcDbLine
 10
271.4324144444541
 20
189.4992460706767
 30
0.0
 11
271.0000832657036
 21
189.4992460706767
 31
0.0
  0
LINE
  5
1D76AF0F0D
330
1D76AF031B
100
AcDbEntity
  8
JISSEN
100
AcDbLine
 10
270.5677520869532
 20
189.4992460706767
 30
0.0
 11
271.0000832657036
 21
189.4992460706767
 31
0.0
  0
ARC
  5
1D76AF0F0E
330
1D76AF031B
100
AcDbEntity
  8
JISSEN
100
AcDbCircle
 10
271.3222155399955
 20
189.1992460706766
 30
0.0
 40
1.3
100
AcDbArc
 50
11.31883372739317
 51
90.0
  0
ARC
  5
1D76AF0F0F
330
1D76AF031B
100
AcDbEntity
  8
JISSEN
100
AcDbCircle
 10
271.4324144444541
 20
188.2992460706766
 30
0.0
 40
1.199999999999999
100
AcDbArc
 50
17.30599746080162
 51
90.0
  0
LINE
  5
1D76AF0F10
330
1D76AF031B
100
AcDbEntity
  8
JISSEN
100
AcDbLine
 10
272.8917508002837
 20
187.9814849874546
 30
0.0
 11
272.5969307948011
 21
189.4543950843258
 31
0.0
  0
LINE
  5
1D76AF0F11
330
1D76AF031B
100
AcDbEntity
  8
JISSEN
100
AcDbLine
 10
272.8072431180293
 20
187.9207611832053
 30
0.0
 11
272.5780900441666
 21
188.6562158456204
 31
0.0
  0
LINE
  5
1D76AF0F12
330
1D76AF031B
100
AcDbEntity
  8
JISSEN
100
AcDbLine
 10
273.4800809178856
 20
187.4992460706766
 30
0.0
 11
273.3800809178855
 21
187.4992460706766
 31
0.0
  0
LINE
  5
1D76AF0F13
330
1D76AF031B
100
AcDbEntity
  8
JISSEN
100
AcDbLine
 10
276.2921810731648
 20
189.4992460706767
 30
0.0
 11
274.3675697185269
 21
189.4992460706767
 31
0.0
  0
LINE
  5
1D76AF0F14
330
1D76AF031B
100
AcDbEntity
  8
JISSEN
100
AcDbLine
 10
275.6291899479773
 20
189.2706129849011
 30
0.0
 11
275.6560607658264
 21
189.4992460706767
 31
0.0
  0
ARC
  5
1D76AF0F15
330
1D76AF031B
100
AcDbEntity
  8
JISSEN
100
AcDbCircle
 10
276.1257721001576
 20
189.2122506157231
 30
0.0
 40
0.5
100
AcDbArc
 50
173.2968846703455
 51
220.2190987445535
  0
LINE
  5
1D76AF0F16
330
1D76AF031B
100
AcDbEntity
  8
JISSEN
100
AcDbLine
 10
275.6324807825941
 20
190.4992460706766
 30
0.0
 11
276.1665342217182
 21
190.4992460706766
 31
0.0
  0
ARC
  5
1D76AF0F17
330
1D76AF031B
100
AcDbEntity
  8
JISSEN
100
AcDbCircle
 10
275.6324807825941
 20
189.1992460706767
 30
0.0
 40
1.3
100
AcDbArc
 50
90.0
 51
168.8861928075056
  0
LINE
  5
1D76AF0F18
330
1D76AF031B
100
AcDbEntity
  8
JISSEN
100
AcDbLine
 10
274.3568606688134
 20
189.4498320346052
 30
0.0
 11
274.0688286627075
 21
187.9835910104025
 31
0.0
  0
LWPOLYLINE
  5
1D76AF0F19
330
1D76AF031B
100
AcDbEntity
  8
JISSEN
100
AcDbPolyline
 90
        4
 70
     1
 43
0.0
 10
285.0000832657036
 20
212.0772759353675
 10
283.0020112923246
 20
207.4938587001321
 10
283.2500832657036
 20
179.9992460706766
 10
285.0000832657036
 20
178.4992460706766
  0
LWPOLYLINE
  5
1D76AF0F1A
330
1D76AF031B
100
AcDbEntity
  8
JISSEN
100
AcDbPolyline
 90
        5
 70
     1
 43
0.0
 10
287.5000832657036
 20
179.9992460706766
 10
287.7500832657036
 20
190.95236820948
 10
287.9235551745948
 20
204.7701180486465
 10
286.0000832657036
 20
211.6220226723604
 10
286.0000832657036
 20
178.4992460706766
  0
ARC
  5
1D76AF0F1B
330
1D76AF031B
100
AcDbEntity
  8
JISSEN
100
AcDbCircle
 10
271.0000832657036
 20
179.9992460706766
 30
0.0
 40
30.0
100
AcDbArc
 50
0.0
 51
55.65909144708297
  0
ARC
  5
1D76AF0F1C
330
1D76AF031B
100
AcDbEntity
  8
JISSEN
100
AcDbCircle
 10
280.5732091763435
 20
189.1992460706766
 30
0.0
 40
1.3
100
AcDbArc
 50
11.29895591575222
 51
90.0
  0
ARC
  5
1D76AF0F1D
330
1D76AF031B
100
AcDbEntity
  8
JISSEN
100
AcDbCircle
 10
280.6437303439055
 20
188.6992460706766
 30
0.0
 40
0.8
100
AcDbArc
 50
18.04996662058495
 51
90.0
  0
LINE
  5
1D76AF0F1E
330
1D76AF031B
100
AcDbEntity
  8
JISSEN
100
AcDbLine
 10
280.6437303439055
 20
189.4992460706767
 30
0.0
 11
279.0945044987453
 21
189.4992460706767
 31
0.0
  0
ARC
  5
1D76AF0F1F
330
1D76AF031B
100
AcDbEntity
  8
JISSEN
100
AcDbCircle
 10
280.3594155628124
 20
189.1992460706766
 30
0.0
 40
1.3
100
AcDbArc
 50
90.0
 51
168.2422428527318
  0
ARC
  5
1D76AF0F20
330
1D76AF031B
100
AcDbEntity
  8
JISSEN
100
AcDbCircle
 10
278.2710684806395
 20
187.9992460706766
 30
0.0
 40
0.5
100
AcDbArc
 50
192.3208321858766
 51
348.242242852735
  0
LINE
  5
1D76AF0F21
330
1D76AF031B
100
AcDbEntity
  8
JISSEN
100
AcDbLine
 10
278.0710684806395
 20
187.4992460706766
 30
0.0
 11
278.2710684806395
 21
187.4992460706766
 31
0.0
  0
ARC
  5
1D76AF0F22
330
1D76AF031B
100
AcDbEntity
  8
JISSEN
100
AcDbCircle
 10
278.0710684806395
 20
187.9992460706766
 30
0.0
 40
0.5
100
AcDbArc
 50
200.0317265252833
 51
270.0
  0
LINE
  5
1D76AF0F23
330
1D76AF031B
100
AcDbEntity
  8
JISSEN
100
AcDbLine
 10
277.6013169360785
 20
187.8279758561541
 30
0.0
 11
277.2316841622867
 21
188.8417864997217
 31
0.0
  0
LINE
  5
1D76AF0F24
330
1D76AF031B
100
AcDbEntity
  8
JISSEN
100
AcDbLine
 10
277.7825844535956
 20
187.8925532624691
 30
0.0
 11
277.4365926920318
 21
189.4766473720162
 31
0.0
  0
LINE
  5
1D76AF0F25
330
1D76AF031B
100
AcDbEntity
  8
JISSEN
100
AcDbLine
 10
278.7605774270946
 20
187.8973589206531
 30
0.0
 11
279.0866923020279
 21
189.464152660738
 31
0.0
  0
LINE
  5
1D76AF0F26
330
1D76AF031B
100
AcDbEntity
  8
JISSEN
100
AcDbLine
 10
280.5732091763435
 20
190.4992460706766
 30
0.0
 11
280.3594155628124
 21
190.4992460706766
 31
0.0
  0
ARC
  5
1D76AF0F27
330
1D76AF031B
100
AcDbEntity
  8
JISSEN
100
AcDbCircle
 10
282.1665504168687
 20
187.8992460706765
 30
0.0
 40
0.4
100
AcDbArc
 50
198.0499666205849
 51
270.0
  0
LINE
  5
1D76AF0F28
330
1D76AF031B
100
AcDbEntity
  8
JISSEN
100
AcDbLine
 10
282.1743031252474
 20
187.8208747607742
 30
0.0
 11
281.8480128741125
 21
189.4539528278589
 31
0.0
  0
LINE
  5
1D76AF0F29
330
1D76AF031B
100
AcDbEntity
  8
JISSEN
100
AcDbLine
 10
281.4043596771092
 20
188.9471230915357
 30
0.0
 11
281.7862357502667
 21
187.7753075602469
 31
0.0
  0
LINE
  5
1D76AF0F2A
330
1D76AF031B
100
AcDbEntity
  8
JISSEN
100
AcDbLine
 10
282.1665504168687
 20
187.4992460706766
 30
0.0
 11
282.5665504168687
 21
187.4992460706766
 31
0.0
  0
ARC
  5
1D76AF0F2B
330
1D76AF031B
100
AcDbEntity
  8
JISSEN
100
AcDbCircle
 10
282.5665504168687
 20
187.8992460706765
 30
0.0
 40
0.4
100
AcDbArc
 50
191.2989559157553
 51
349.5637783413024
  0
LINE
  5
1D76AF0F2C
330
1D76AF031B
100
AcDbEntity
  8
JISSEN
100
AcDbLine
 10
282.9599332778208
 20
187.8267897065025
 30
0.0
 11
283.1692073049645
 21
188.9629882510931
 31
0.0
  0
ARC
  5
1D76AF0F2D
330
1D76AF031B
100
AcDbEntity
  8
JISSEN
100
AcDbCircle
 10
286.9123160605677
 20
189.1992460706766
 30
0.0
 40
1.3
100
AcDbArc
 50
5.157213474826055
 51
50.84973236682745
  0
LINE
  5
1D76AF0F2E
330
1D76AF031B
100
AcDbEntity
  8
JISSEN
100
AcDbLine
 10
289.5610179374061
 20
190.5011744133578
 30
0.0
 11
287.7448747177329
 21
190.7241687611222
 31
0.0
  0
LINE
  5
1D76AF0F2F
330
1D76AF031B
100
AcDbEntity
  8
JISSEN
100
AcDbLine
 10
287.7537943834173
 20
187.4992460706766
 30
0.0
 11
288.5537943834173
 21
187.4992460706766
 31
0.0
  0
ARC
  5
1D76AF0F30
330
1D76AF031B
100
AcDbEntity
  8
JISSEN
100
AcDbCircle
 10
287.7537943834173
 20
187.6992460706766
 30
0.0
 40
0.2
100
AcDbArc
 50
245.7560702467335
 51
270.0
  0
LINE
  5
1D76AF0F31
330
1D76AF031B
100
AcDbEntity
  8
JISSEN
100
AcDbLine
 10
288.8375356318059
 20
187.4992460706766
 30
0.0
 11
290.0000832657036
 21
187.4992460706766
 31
0.0
  0
ARC
  5
1D76AF0F32
330
1D76AF031B
100
AcDbEntity
  8
JISSEN
100
AcDbCircle
 10
288.8375356318059
 20
187.5992460706777
 30
0.0
 40
0.1
100
AcDbArc
 50
180.8961572775653
 51
270.0
  0
LINE
  5
1D76AF0F33
330
1D76AF031B
100
AcDbEntity
  8
JISSEN
100
AcDbLine
 10
288.7372066333536
 20
187.619496797494
 30
0.0
 11
288.7375478634366
 21
187.5976820449386
 31
0.0
  0
LINE
  5
1D76AF0F34
330
1D76AF031B
100
AcDbEntity
  8
JISSEN
100
AcDbLine
 10
288.8716016564572
 20
189.4126352403632
 30
0.0
 11
288.7533270282274
 21
187.6855813842505
 31
0.0
  0
ARC
  5
1D76AF0F35
330
1D76AF031B
100
AcDbEntity
  8
JISSEN
100
AcDbCircle
 10
289.5000832657036
 20
190.0049013375372
 30
0.0
 40
0.5
100
AcDbArc
 50
0.0
 51
83.00000000000045
  0
ARC
  5
1D76AF0F36
330
1D76AF031B
100
AcDbEntity
  8
JISSEN
100
AcDbCircle
 10
289.837535631806
 20
187.5992460706732
 30
0.0
 40
0.1
100
AcDbArc
 50
181.1057042895209
 51
270.0
  0
LINE
  5
1D76AF0F37
330
1D76AF031B
100
AcDbEntity
  8
JISSEN
100
AcDbLine
 10
289.7375542522162
 20
187.5973163724141
 30
0.0
 11
289.7061519098743
 21
189.2243321480444
 31
0.0
  0
LINE
  5
1D76AF0F38
330
1D76AF031B
100
AcDbEntity
  8
JISSEN
100
AcDbLine
 10
290.0000832657036
 20
187.4992460706766
 30
0.0
 11
290.0000832657036
 21
190.0049013375372
 31
0.0
  0
LINE
  5
1D76AF0F39
330
1D76AF031B
100
AcDbEntity
  8
JISSEN
100
AcDbLine
 10
288.3546040229706
 20
187.6812682981473
 30
0.0
 11
288.2070534034712
 21
189.3161015921167
 31
0.0
  0
ARC
  5
1D76AF0F3A
330
1D76AF031B
100
AcDbEntity
  8
JISSEN
100
AcDbCircle
 10
287.6311172973594
 20
189.5130383187412
 30
0.0
 40
1.244540968917422
100
AcDbArc
 50
355.3726464066901
 51
52.41289174619106
  0
ARC
  5
1D76AF0F3B
330
1D76AF031B
100
AcDbEntity
  8
JISSEN
100
AcDbCircle
 10
288.4063939752101
 20
189.1992460706766
 30
0.0
 40
1.3
100
AcDbArc
 50
1.105704289524198
 51
90.0
  0
ARC
  5
1D76AF0F3C
330
1D76AF031B
100
AcDbEntity
  8
JISSEN
100
AcDbCircle
 10
288.5537943834173
 20
187.6992460706766
 30
0.0
 40
0.2
100
AcDbArc
 50
185.1572134748228
 51
356.0823036285518
  0
INSERT
  5
1D76AF0F3D
330
1D76AF031B
100
AcDbEntity
  8
SUNPOU
100
AcDbBlockReference
  2
ARROW
 10
300.0995981841232
 20
199.4470796650048
 30
0.0
 41
1.499999999999977
 42
1.5
 43
1.5
 50
244.0719355263541
  0
LINE
  5
1D76AF0F3E
330
1D76AF031B
100
AcDbEntity
  8
JISSEN
100
AcDbLine
 10
306.0000832657036
 20
154.6386057017521
 30
0.0
 11
306.0000832657036
 21
179.9992460706766
 31
0.0
  0
TEXT
  5
1D76AF0F3F
330
1D76AF031B
100
AcDbEntity
  8
TEXT
100
AcDbText
 10
286.6428562465446
 20
262.500000148761
 30
0.0
 40
3.0
  1
DU 型ヘッド
  7
K
 72
     4
 11
297.4999991036875
 21
264.000000148761
 31
0.0
100
AcDbText
  0
TEXT
  5
1D76AF0F40
330
1D76AF031B
100
AcDbEntity
  8
TEXT
100
AcDbText
 10
288.8999991036874
 20
268.5000000743804
 30
0.0
 40
3.0
  1
名      称
  7
K
 72
     4
 11
297.4999991036875
 21
270.0000000743804
 31
0.0
100
AcDbText
  0
TEXT
  5
1D76AF0F41
330
1D76AF031B
100
AcDbEntity
  8
TEXT
100
AcDbText
 10
287.671427675116
 20
256.7857143600947
 30
0.0
 40
3.0
  1
ガード S,D
  7
K
 72
     4
 11
297.4999991036875
 21
258.0000000743804
 31
0.0
100
AcDbText
  0
TEXT
  5
1D76AF0F42
330
1D76AF031B
100
AcDbEntity
  8
TEXT
100
AcDbText
 10
276.2857133894017
 20
262.5000000743804
 30
0.0
 40
3.0
  1
1
  7
K
 72
     4
 11
277.4999991036875
 21
264.0000000743804
 31
0.0
100
AcDbText
  0
LINE
  5
1D76AF0F43
330
1D76AF031B
100
AcDbEntity
  8
JISSEN
100
AcDbLine
 10
272.4999991036875
 20
255.0000000743804
 30
0.0
 11
272.4999991036875
 21
273.0000000743804
 31
0.0
  0
LINE
  5
1D76AF0F44
330
1D76AF031B
100
AcDbEntity
  8
JISSEN
100
AcDbLine
 10
282.4999991036875
 20
273.0000000743804
 30
0.0
 11
282.4999991036875
 21
255.0000000743804
 31
0.0
  0
TEXT
  5
1D76AF0F45
330
1D76AF031B
100
AcDbEntity
  8
TEXT
100
AcDbText
 10
276.3830715092218
 20
256.5000000743804
 30
0.0
 40
3.0
  1
2
  7
K
 72
     4
 11
277.8116429377933
 21
258.0000000743804
 31
0.0
100
AcDbText
  0
CIRCLE
  5
1D76AF0F46
330
1D76AF031B
100
AcDbEntity
  8
SUNPOU
100
AcDbCircle
 10
293.2834050483443
 20
226.564246481274
 30
0.0
 40
6.0
  0
TEXT
  5
1D76AF0F47
330
1D76AF031B
100
AcDbEntity
  8
SUNPOU
100
AcDbText
 10
291.4619764769157
 20
224.314246481274
 30
0.0
 40
4.5
  1
1
  7
K
 72
     4
 11
293.2834050483443
 21
226.564246481274
 31
0.0
100
AcDbText
  0
TEXT
  5
1D76AF0F48
330
1D76AF031B
100
AcDbEntity
  8
TEXT
100
AcDbText
 10
274.2999991036875
 20
268.5000000743804
 30
0.0
 40
3.0
  1
番号
  7
K
 72
     4
 11
277.4999991036875
 21
270.0000000743804
 31
0.0
100
AcDbText
  0
TEXT
  5
1D76AF0F49
330
1D76AF031B
100
AcDbEntity
  8
TEXT
100
AcDbText
 10
337.6795475900967
 20
262.5000000743804
 30
0.0
 40
3.0
  1
1
  7
K
 72
     4
 11
338.8938333043824
 21
264.0000000743804
 31
0.0
100
AcDbText
  0
LINE
  5
1D76AF0F4A
330
1D76AF031B
100
AcDbEntity
  8
JISSEN
100
AcDbLine
 10
333.4999991036875
 20
255.0000000743804
 30
0.0
 11
333.4999991036875
 21
273.0000000743804
 31
0.0
  0
LINE
  5
1D76AF0F4B
330
1D76AF031B
100
AcDbEntity
  8
JISSEN
100
AcDbLine
 10
344.4999991036875
 20
273.0000000743804
 30
0.0
 11
344.4999991036875
 21
255.0000000743804
 31
0.0
  0
LINE
  5
1D76AF0F4C
330
1D76AF031B
100
AcDbEntity
  8
JISSEN
100
AcDbLine
 10
312.4999991036875
 20
273.0000000743804
 30
0.0
 11
312.4999991036875
 21
255.0000000743804
 31
0.0
  0
CIRCLE
  5
1D76AF0F4D
330
1D76AF031B
100
AcDbEntity
  8
SUNPOU
100
AcDbCircle
 10
313.2834050483443
 20
226.564246481274
 30
0.0
 40
6.0
  0
TEXT
  5
1D76AF0F4E
330
1D76AF031B
100
AcDbEntity
  8
SUNPOU
100
AcDbText
 10
311.1405479054871
 20
224.314246481274
 30
0.0
 40
4.5
  1
2
  7
K
 72
     4
 11
313.2834050483443
 21
226.564246481274
 31
0.0
100
AcDbText
  0
TEXT
  5
1D76AF0F4F
330
1D76AF031B
100
AcDbEntity
  8
TEXT
100
AcDbText
 10
317.8249991036874
 20
264.3000000743804
 30
0.0
 40
3.0
  1
%%u      
  7
K
 72
     4
 11
322.9999991036875
 21
264.0000000743804
 31
0.0
100
AcDbText
  0
TEXT
  5
1D76AF0F50
330
1D76AF031B
100
AcDbEntity
  8
TEXT
100
AcDbText
 10
318.571427675116
 20
256.5000000743804
 30
0.0
 40
3.0
  1
ZDC
  7
K
 72
     4
 11
322.9999991036875
 21
258.0000000743804
 31
0.0
100
AcDbText
  0
TEXT
  5
1D76AF0F51
330
1D76AF031B
100
AcDbEntity
  8
TEXT
100
AcDbText
 10
337.6795475900967
 20
256.5808352507215
 30
0.0
 40
3.0
  1
1
  7
K
 72
     4
 11
338.8938333043824
 21
258.0808352507215
 31
0.0
100
AcDbText
  0
TEXT
  5
1D76AF0F52
330
1D76AF031B
100
AcDbEntity
  8
TEXT
100
AcDbText
 10
316.1999991036875
 20
268.5000000743804
 30
0.0
 40
3.0
  1
材    質
  7
K
 72
     4
 11
322.9999991036875
 21
270.0000000743804
 31
0.0
100
AcDbText
  0
TEXT
  5
1D76AF0F53
330
1D76AF031B
100
AcDbEntity
  8
TEXT
100
AcDbText
 10
346.6999991036875
 20
268.5000000743804
 30
0.0
 40
3.0
  1
備    考
  7
K
 72
     4
 11
353.4999991036875
 21
270.0000000743804
 31
0.0
100
AcDbText
  0
TEXT
  5
1D76AF0F54
330
1D76AF031B
100
AcDbEntity
  8
TEXT
100
AcDbText
 10
335.7999991036875
 20
268.5000000743804
 30
0.0
 40
3.0
  1
個数
  7
K
 72
     4
 11
338.9999991036875
 21
270.0000000743804
 31
0.0
100
AcDbText
  0
LWPOLYLINE
  5
1D76AF0F55
330
1D76AF031B
100
AcDbEntity
  8
WAKU
100
AcDbPolyline
 90
        4
 70
     1
 43
0.0
 10
181.0
 20
0.0
 10
362.0
 20
0.0
 10
362.0
 20
273.0
 10
181.0
 20
273.0
  0
LINE
  5
1D76AF0FA3
330
1D76AF031B
100
AcDbEntity
  8
SUNPOU
100
AcDbLine
 10
20.51976640642299
 20
137.4359883768274
 30
0.0
 11
39.81714823328104
 21
137.4359883768274
 31
0.0
  0
TEXT
  5
1D76AF0FA4
330
1D76AF031B
100
AcDbEntity
  8
SUNPOU
100
AcDbText
 10
22.46724710676374
 20
138.1605003768274
 30
0.0
 40
3.0
  1
M4×0.7
  7
K
 72
     1
 11
31.05296139247803
 21
138.1605003768274
 31
0.0
100
AcDbText
  0
LINE
  5
1D76AF0FA6
330
1D76AF031B
100
AcDbEntity
  8
SUNPOU
100
AcDbLine
 10
14.43589515777212
 20
123.4583553333332
 30
0.0
 11
20.51976640642299
 21
137.4359883768274
 31
0.0
  0
INSERT
  5
1D76AF0FA7
330
1D76AF031B
100
AcDbEntity
  8
SUNPOU
100
AcDbBlockReference
  2
ARROWANG
 10
14.43589515777212
 20
123.4583553333332
 30
0.0
 41
-1.499999999999996
 42
1.5
 43
1.5
 50
66.47854999999987
  0
LINE
  5
1D76AF0FA8
330
1D76AF031B
100
AcDbEntity
  8
SUNPOU
100
AcDbLine
 10
73.93589515777207
 20
123.4583553333332
 30
0.0
 11
80.01976640642293
 21
137.4359883768274
 31
0.0
  0
TEXT
  5
1D76AF0FA9
330
1D76AF031B
100
AcDbEntity
  8
SUNPOU
100
AcDbText
 10
81.96724710676368
 20
138.1605003768274
 30
0.0
 40
3.0
  1
M4×0.7
  7
K
 72
     1
 11
90.55296139247797
 21
138.1605003768274
 31
0.0
100
AcDbText
  0
LINE
  5
1D76AF0FAA
330
1D76AF031B
100
AcDbEntity
  8
SUNPOU
100
AcDbLine
 10
80.01976640642293
 20
137.4359883768274
 30
0.0
 11
99.317148233281
 21
137.4359883768274
 31
0.0
  0
INSERT
  5
1D76AF0FAB
330
1D76AF031B
100
AcDbEntity
  8
SUNPOU
100
AcDbBlockReference
  2
ARROWANG
 10
73.93589515777207
 20
123.4583553333332
 30
0.0
 41
-1.499999999999996
 42
1.5
 43
1.5
 50
66.47854999999987
  0
ENDSEC
  0
SECTION
  2
OBJECTS
  0
DICTIONARY
  5
1D76AF030F
330
0
100
AcDbDictionary
  3
ACAD_GROUP
350
1D76AF0310
  3
ACAD_LAYOUT
350
1D76AF061A
  3
ACAD_MLINESTYLE
350
1D76AF0311
  3
ACAD_PLOTSETTINGS
350
1D76AF061B
  3
ACAD_PLOTSTYLENAME
350
1D76AF0618
  3
ACDBHEADERROUNDTRIPXREC
350
1D76AF0FEF
  3
ACDBVARIABLEDICTIONARY
350
1D76AF0FEC
  0
DICTIONARY
  5
1D76AF0F7C
330
1D76AF031B
100
AcDbDictionary
280
     1
  3
ACAD_LAYOUTSELFREF
360
1D76AF1011
  0
DICTIONARY
  5
1D76AF0F7A
330
1D76AF0318
100
AcDbDictionary
280
     1
  3
ACAD_LAYOUTSELFREF
360
1D76AF1010
  0
DICTIONARY
  5
1D76AF0310
102
{ACAD_REACTORS
330
1D76AF030F
102
}
330
0
100
AcDbDictionary
  0
DICTIONARY
  5
1D76AF061A
102
{ACAD_REACTORS
330
1D76AF030F
102
}
330
1D76AF030F
100
AcDbDictionary
  0
DICTIONARY
  5
1D76AF0311
102
{ACAD_REACTORS
330
1D76AF030F
102
}
330
0
100
AcDbDictionary
  3
STANDARD
350
1D76AF031E
  0
DICTIONARY
  5
1D76AF061B
102
{ACAD_REACTORS
330
1D76AF030F
102
}
330
1D76AF030F
100
AcDbDictionary
  0
ACDBDICTIONARYWDFLT
  5
1D76AF0618
102
{ACAD_REACTORS
330
1D76AF030F
102
}
330
1D76AF030F
100
AcDbDictionary
281
     1
  3
Normal
350
1D76AF0619
100
AcDbDictionaryWithDefault
340
1D76AF0619
  0
DICTIONARY
  5
1D76AF0FEF
102
{ACAD_REACTORS
330
1D76AF030F
102
}
330
1D76AF030F
100
AcDbDictionary
  3
CEPSNTYPE
350
1D76AF0FF9
  3
DIMSTYLEDATA
350
1D76AF0FFD
  3
FINGERPRINTGUID
350
1D76AF0FFA
  3
HYPERLINKBASE
350
1D76AF0FF2
  3
INSUNITS
350
1D76AF0FF8
  3
LAYOUTDICT
350
1D76AF0FF4
  3
LWETCUNION
350
1D76AF0FF7
  3
PLOTSETDICT
350
1D76AF0FF5
  3
PLOTSTYLNAMDICT
350
1D76AF0FF6
  3
PSVPSCALE
350
1D76AF0FFC
  3
PUCSBASE
350
1D76AF1000
  3
PUCSORGBACK
350
1D76AF1006
  3
PUCSORGBOTTOM
350
1D76AF1002
  3
PUCSORGFRONT
350
1D76AF1005
  3
PUCSORGLEFT
350
1D76AF1003
  3
PUCSORGRIGHT
350
1D76AF1004
  3
PUCSORGTOP
350
1D76AF1001
  3
PUCSORTHOREF
350
1D76AF0FFE
  3
PUCSORTHOVIEW
350
1D76AF0FFF
  3
STYLESHEET
350
1D76AF0FF3
  3
TSTACKALIGN
350
1D76AF0FF0
  3
TSTACKSIZE
350
1D76AF0FF1
  3
UCSBASE
350
1D76AF1009
  3
UCSORGBACK
350
1D76AF100F
  3
UCSORGBOTTOM
350
1D76AF100B
  3
UCSORGFRONT
350
1D76AF100E
  3
UCSORGLEFT
350
1D76AF100C
  3
UCSORGRIGHT
350
1D76AF100D
  3
UCSORGTOP
350
1D76AF100A
  3
UCSORTHOREF
350
1D76AF1007
  3
UCSORTHOVIEW
350
1D76AF1008
  3
VERSIONGUID
350
1D76AF0FFB
  0
DICTIONARY
  5
1D76AF0FEC
102
{ACAD_REACTORS
330
1D76AF030F
102
}
330
1D76AF030F
100
AcDbDictionary
  3
DIMASSOC
350
1D76AF0FED
  0
XRECORD
  5
1D76AF1011
102
{ACAD_REACTORS
330
1D76AF0F7C
102
}
330
1D76AF0F7C
100
AcDbXrecord
340
1D76AF031B
  0
XRECORD
  5
1D76AF1010
102
{ACAD_REACTORS
330
1D76AF0F7A
102
}
330
1D76AF0F7A
100
AcDbXrecord
340
1D76AF0318
  0
MLINESTYLE
  5
1D76AF031E
102
{ACAD_REACTORS
330
1D76AF0311
102
}
330
0
100
AcDbMlineStyle
  2
STANDARD
 70
     0
  3

 62
     0
 51
90.0
 52
90.0
 71
     2
 49
0.5
 62
   256
  6
BYLAYER
 49
-0.5
 62
   256
  6
BYLAYER
  0
ACDBPLACEHOLDER
  5
1D76AF0619
102
{ACAD_REACTORS
330
1D76AF0618
102
}
330
1D76AF0618
100
AcDbPlaceHolder
280
     0
  0
XRECORD
  5
1D76AF0FF9
102
{ACAD_REACTORS
330
1D76AF0FEF
102
}
330
1D76AF0FEF
100
AcDbXrecord
 90
        0
  0
XRECORD
  5
1D76AF0FFD
102
{ACAD_REACTORS
330
1D76AF0FEF
102
}
330
1D76AF0FEF
100
AcDbXrecord
1000
DSTYLE
1002
{
1070
   341
340
1D76AF0327
1070
   342
340
1D76AF0327
1070
   343
340
1D76AF0325
1070
   344
340
1D76AF0325
1002
}
  0
XRECORD
  5
1D76AF0FFA
102
{ACAD_REACTORS
330
1D76AF0FEF
102
}
330
1D76AF0FEF
100
AcDbXrecord
  1
{13B25233-B5E6-48EC-A7EE-28685E3DFABF}
  0
XRECORD
  5
1D76AF0FF2
102
{ACAD_REACTORS
330
1D76AF0FEF
102
}
330
1D76AF0FEF
100
AcDbXrecord
  1

  0
XRECORD
  5
1D76AF0FF8
102
{ACAD_REACTORS
330
1D76AF0FEF
102
}
330
1D76AF0FEF
100
AcDbXrecord
 90
        0
  0
XRECORD
  5
1D76AF0FF4
102
{ACAD_REACTORS
330
1D76AF0FEF
102
}
330
1D76AF0FEF
100
AcDbXrecord
340
1D76AF061A
  0
XRECORD
  5
1D76AF0FF7
102
{ACAD_REACTORS
330
1D76AF0FEF
102
}
330
1D76AF0FEF
100
AcDbXrecord
 90
    14877
  0
XRECORD
  5
1D76AF0FF5
102
{ACAD_REACTORS
330
1D76AF0FEF
102
}
330
1D76AF0FEF
100
AcDbXrecord
340
1D76AF061B
  0
XRECORD
  5
1D76AF0FF6
102
{ACAD_REACTORS
330
1D76AF0FEF
102
}
330
1D76AF0FEF
100
AcDbXrecord
340
1D76AF0618
  0
XRECORD
  5
1D76AF0FFC
102
{ACAD_REACTORS
330
1D76AF0FEF
102
}
330
1D76AF0FEF
100
AcDbXrecord
 40
0.0
  0
XRECORD
  5
1D76AF1000
102
{ACAD_REACTORS
330
1D76AF0FEF
102
}
330
1D76AF0FEF
100
AcDbXrecord
340
0
  0
XRECORD
  5
1D76AF1006
102
{ACAD_REACTORS
330
1D76AF0FEF
102
}
330
1D76AF0FEF
100
AcDbXrecord
 10
0.0
 20
0.0
 30
0.0
  0
XRECORD
  5
1D76AF1002
102
{ACAD_REACTORS
330
1D76AF0FEF
102
}
330
1D76AF0FEF
100
AcDbXrecord
 10
0.0
 20
0.0
 30
0.0
  0
XRECORD
  5
1D76AF1005
102
{ACAD_REACTORS
330
1D76AF0FEF
102
}
330
1D76AF0FEF
100
AcDbXrecord
 10
0.0
 20
0.0
 30
0.0
  0
XRECORD
  5
1D76AF1003
102
{ACAD_REACTORS
330
1D76AF0FEF
102
}
330
1D76AF0FEF
100
AcDbXrecord
 10
0.0
 20
0.0
 30
0.0
  0
XRECORD
  5
1D76AF1004
102
{ACAD_REACTORS
330
1D76AF0FEF
102
}
330
1D76AF0FEF
100
AcDbXrecord
 10
0.0
 20
0.0
 30
0.0
  0
XRECORD
  5
1D76AF1001
102
{ACAD_REACTORS
330
1D76AF0FEF
102
}
330
1D76AF0FEF
100
AcDbXrecord
 10
0.0
 20
0.0
 30
0.0
  0
XRECORD
  5
1D76AF0FFE
102
{ACAD_REACTORS
330
1D76AF0FEF
102
}
330
1D76AF0FEF
100
AcDbXrecord
340
0
  0
XRECORD
  5
1D76AF0FFF
102
{ACAD_REACTORS
330
1D76AF0FEF
102
}
330
1D76AF0FEF
100
AcDbXrecord
 70
     0
  0
XRECORD
  5
1D76AF0FF3
102
{ACAD_REACTORS
330
1D76AF0FEF
102
}
330
1D76AF0FEF
100
AcDbXrecord
  1

  0
XRECORD
  5
1D76AF0FF0
102
{ACAD_REACTORS
330
1D76AF0FEF
102
}
330
1D76AF0FEF
100
AcDbXrecord
 90
        1
  0
XRECORD
  5
1D76AF0FF1
102
{ACAD_REACTORS
330
1D76AF0FEF
102
}
330
1D76AF0FEF
100
AcDbXrecord
 90
       70
  0
XRECORD
  5
1D76AF1009
102
{ACAD_REACTORS
330
1D76AF0FEF
102
}
330
1D76AF0FEF
100
AcDbXrecord
340
0
  0
XRECORD
  5
1D76AF100F
102
{ACAD_REACTORS
330
1D76AF0FEF
102
}
330
1D76AF0FEF
100
AcDbXrecord
 10
0.0
 20
0.0
 30
0.0
  0
XRECORD
  5
1D76AF100B
102
{ACAD_REACTORS
330
1D76AF0FEF
102
}
330
1D76AF0FEF
100
AcDbXrecord
 10
0.0
 20
0.0
 30
0.0
  0
XRECORD
  5
1D76AF100E
102
{ACAD_REACTORS
330
1D76AF0FEF
102
}
330
1D76AF0FEF
100
AcDbXrecord
 10
0.0
 20
0.0
 30
0.0
  0
XRECORD
  5
1D76AF100C
102
{ACAD_REACTORS
330
1D76AF0FEF
102
}
330
1D76AF0FEF
100
AcDbXrecord
 10
0.0
 20
0.0
 30
0.0
  0
XRECORD
  5
1D76AF100D
102
{ACAD_REACTORS
330
1D76AF0FEF
102
}
330
1D76AF0FEF
100
AcDbXrecord
 10
0.0
 20
0.0
 30
0.0
  0
XRECORD
  5
1D76AF100A
102
{ACAD_REACTORS
330
1D76AF0FEF
102
}
330
1D76AF0FEF
100
AcDbXrecord
 10
0.0
 20
0.0
 30
0.0
  0
XRECORD
  5
1D76AF1007
102
{ACAD_REACTORS
330
1D76AF0FEF
102
}
330
1D76AF0FEF
100
AcDbXrecord
340
0
  0
XRECORD
  5
1D76AF1008
102
{ACAD_REACTORS
330
1D76AF0FEF
102
}
330
1D76AF0FEF
100
AcDbXrecord
 70
     0
  0
XRECORD
  5
1D76AF0FFB
102
{ACAD_REACTORS
330
1D76AF0FEF
102
}
330
1D76AF0FEF
100
AcDbXrecord
  1
{21F629DD-3505-47FD-8B7F-FAC71745392A}
  0
DICTIONARYVAR
  5
1D76AF0FED
102
{ACAD_REACTORS
330
1D76AF0FEC
102
}
330
1D76AF0FEC
100
DictionaryVariables
280
     0
  1
0
  0
ENDSEC
  0
EOF
