  0
SECTION
  2
HEADER
  9
$ACADVER
  1
AC1014
  9
$ACADMAINTVER
 70
     9
  9
$DWGCODEPAGE
  3
ANSI_932
  9
$INSBASE
 10
0.0
 20
0.0
 30
0.0
  9
$EXTMIN
 10
-0.0082797065026625
 20
-0.0041627253732486
 30
-0.0000000000112498
  9
$EXTMAX
 10
543.0082872925882
 20
273.0041668297025
 30
0.0000000000002956
  9
$LIMMIN
 10
0.0
 20
0.0
  9
$LIMMAX
 10
181.0
 20
273.0
  9
$ORTHOMODE
 70
     1
  9
$REGENMODE
 70
     1
  9
$FILLMODE
 70
     1
  9
$QTEXTMODE
 70
     0
  9
$MIRRTEXT
 70
     0
  9
$DRAGMODE
 70
     2
  9
$LTSCALE
 40
5.0
  9
$OSMODE
 70
   167
  9
$ATTMODE
 70
     1
  9
$TEXTSIZE
 40
3.0
  9
$TRACEWID
 40
0.05
  9
$TEXTSTYLE
  7
K
  9
$CLAYER
  8
SUNPOU
  9
$CELTYPE
  6
BYLAYER
  9
$CECOLOR
 62
   256
  9
$CELTSCALE
 40
1.0
  9
$DELOBJ
 70
     1
  9
$DISPSILH
 70
     0
  9
$DIMSCALE
 40
1.0
  9
$DIMASZ
 40
1.5
  9
$DIMEXO
 40
1.0
  9
$DIMDLI
 40
6.0
  9
$DIMRND
 40
0.0
  9
$DIMDLE
 40
0.0
  9
$DIMEXE
 40
1.0
  9
$DIMTP
 40
0.0
  9
$DIMTM
 40
0.0
  9
$DIMTXT
 40
3.0
  9
$DIMCEN
 40
1.0
  9
$DIMTSZ
 40
0.0
  9
$DIMTOL
 70
     0
  9
$DIMLIM
 70
     0
  9
$DIMTIH
 70
     0
  9
$DIMTOH
 70
     0
  9
$DIMSE1
 70
     0
  9
$DIMSE2
 70
     0
  9
$DIMTAD
 70
     0
  9
$DIMZIN
 70
     0
  9
$DIMBLK
  1
ARROW
  9
$DIMASO
 70
     0
  9
$DIMSHO
 70
     0
  9
$DIMPOST
  1

  9
$DIMAPOST
  1

  9
$DIMALT
 70
     0
  9
$DIMALTD
 70
     2
  9
$DIMALTF
 40
25.4
  9
$DIMLFAC
 40
1.0
  9
$DIMTOFL
 70
     1
  9
$DIMTVP
 40
1.0
  9
$DIMTIX
 70
     0
  9
$DIMSOXD
 70
     0
  9
$DIMSAH
 70
     0
  9
$DIMBLK1
  1

  9
$DIMBLK2
  1

  9
$DIMSTYLE
  2
STANDARD
  9
$DIMCLRD
 70
     0
  9
$DIMCLRE
 70
     0
  9
$DIMCLRT
 70
     0
  9
$DIMTFAC
 40
1.0
  9
$DIMGAP
 40
0.09
  9
$DIMJUST
 70
     0
  9
$DIMSD1
 70
     0
  9
$DIMSD2
 70
     0
  9
$DIMTOLJ
 70
     1
  9
$DIMTZIN
 70
     0
  9
$DIMALTZ
 70
     0
  9
$DIMALTTZ
 70
     0
  9
$DIMFIT
 70
     3
  9
$DIMUPT
 70
     0
  9
$DIMUNIT
 70
     2
  9
$DIMDEC
 70
     2
  9
$DIMTDEC
 70
     2
  9
$DIMALTU
 70
     2
  9
$DIMALTTD
 70
     2
  9
$DIMTXSTY
  7
K
  9
$DIMAUNIT
 70
     0
  9
$LUNITS
 70
     2
  9
$LUPREC
 70
     2
  9
$SKETCHINC
 40
0.1
  9
$FILLETRAD
 40
0.0
  9
$AUNITS
 70
     0
  9
$AUPREC
 70
     2
  9
$MENU
  1
STDGX
  9
$ELEVATION
 40
0.0
  9
$PELEVATION
 40
0.0
  9
$THICKNESS
 40
0.0
  9
$LIMCHECK
 70
     0
  9
$BLIPMODE
 70
     0
  9
$CHAMFERA
 40
0.0
  9
$CHAMFERB
 40
0.0
  9
$CHAMFERC
 40
0.0
  9
$CHAMFERD
 40
0.0
  9
$SKPOLY
 70
     0
  9
$TDCREATE
 40
2448210.497060185
  9
$TDUPDATE
 40
2453620.707951111
  9
$TDINDWG
 40
0.9129486343
  9
$TDUSRTIMER
 40
0.9129486343
  9
$USRTIMER
 70
     1
  9
$ANGBASE
 50
0.0
  9
$ANGDIR
 70
     0
  9
$PDMODE
 70
     0
  9
$PDSIZE
 40
0.0
  9
$PLINEWID
 40
0.0
  9
$COORDS
 70
     2
  9
$SPLFRAME
 70
     0
  9
$SPLINETYPE
 70
     6
  9
$SPLINESEGS
 70
     8
  9
$ATTDIA
 70
     0
  9
$ATTREQ
 70
     1
  9
$HANDLING
 70
 22529
  9
$HANDSEED
  5
E5D
  9
$SURFTAB1
 70
     6
  9
$SURFTAB2
 70
     6
  9
$SURFTYPE
 70
     6
  9
$SURFU
 70
     6
  9
$SURFV
 70
     6
  9
$UCSNAME
  2

  9
$UCSORG
 10
0.0
 20
0.0
 30
0.0
  9
$UCSXDIR
 10
1.0
 20
0.0
 30
0.0
  9
$UCSYDIR
 10
0.0
 20
1.0
 30
0.0
  9
$PUCSNAME
  2

  9
$PUCSORG
 10
0.0
 20
0.0
 30
0.0
  9
$PUCSXDIR
 10
1.0
 20
0.0
 30
0.0
  9
$PUCSYDIR
 10
0.0
 20
1.0
 30
0.0
  9
$USERI1
 70
     5
  9
$USERI2
 70
     0
  9
$USERI3
 70
     0
  9
$USERI4
 70
     0
  9
$USERI5
 70
     0
  9
$USERR1
 40
1.0
  9
$USERR2
 40
3.0
  9
$USERR3
 40
3.0
  9
$USERR4
 40
1.5
  9
$USERR5
 40
10.0
  9
$WORLDVIEW
 70
     1
  9
$SHADEDGE
 70
     3
  9
$SHADEDIF
 70
    70
  9
$TILEMODE
 70
     1
  9
$MAXACTVP
 70
    48
  9
$PINSBASE
 10
0.0
 20
0.0
 30
0.0
  9
$PLIMCHECK
 70
     0
  9
$PEXTMIN
 10
1.000000000000000E+20
 20
1.000000000000000E+20
 30
1.000000000000000E+20
  9
$PEXTMAX
 10
-1.000000000000000E+20
 20
-1.000000000000000E+20
 30
-1.000000000000000E+20
  9
$PLIMMIN
 10
0.0
 20
0.0
  9
$PLIMMAX
 10
12.0
 20
9.0
  9
$UNITMODE
 70
     0
  9
$VISRETAIN
 70
     0
  9
$PLINEGEN
 70
     0
  9
$PSLTSCALE
 70
     0
  9
$TREEDEPTH
 70
  3020
  9
$PICKSTYLE
 70
     1
  9
$CMLSTYLE
  2
STANDARD
  9
$CMLJUST
 70
     0
  9
$CMLSCALE
 40
1.0
  9
$PROXYGRAPHICS
 70
     1
  9
$MEASUREMENT
 70
     0
  0
ENDSEC
  0
SECTION
  2
CLASSES
  0
CLASS
  1
LWPOLYLINE
  2
AcDbPolyline
  3
AutoCAD 2000
 90
        0
280
     0
281
     1
  0
CLASS
  1
DICTIONARYVAR
  2
AcDbDictionaryVar
  3
AutoCAD 2000
 90
        0
280
     0
281
     0
  0
CLASS
  1
HATCH
  2
AcDbHatch
  3
AutoCAD 2000
 90
        0
280
     0
281
     1
  0
CLASS
  1
ACDBDICTIONARYWDFLT
  2
AcDbDictionaryWithDefault
  3
AutoCAD 2000
 90
        0
280
     0
281
     0
  0
CLASS
  1
ACDBPLACEHOLDER
  2
AcDbPlaceHolder
  3
AutoCAD 2000
 90
        0
280
     0
281
     0
  0
CLASS
  1
LAYOUT
  2
AcDbLayout
  3
AutoCAD 2000
 90
        0
280
     0
281
     0
  0
CLASS
  1
LONG_TRANSACTION
  2
AcDbLongTransaction
  3
AutoCAD 2000
 90
        0
280
     0
281
     0
  0
CLASS
  1
LWPOLYLINE
  2
AcDbPolyline
  3
AutoCAD 2000
 90
        0
280
     0
281
     1
  0
CLASS
  1
HATCH
  2
AcDbHatch
  3
AutoCAD 2000
 90
        0
280
     0
281
     1
  0
CLASS
  1
XRECORD
  2
AcDbXrecord
  3
AutoCAD 2000
 90
        0
280
     0
281
     0
  0
CLASS
  1
LONG_TRANSACTION
  2
AcDbLongTransaction
  3
AutoCAD 2000
 90
        0
280
     0
281
     0
  0
CLASS
  1
LWPOLYLINE
  2
AcDbPolyline
  3
AutoCAD 2000
 90
        0
280
     0
281
     1
  0
CLASS
  1
HATCH
  2
AcDbHatch
  3
AutoCAD 2000
 90
        0
280
     0
281
     1
  0
CLASS
  1
XRECORD
  2
AcDbXrecord
  3
AutoCAD 2000
 90
        0
280
     0
281
     0
  0
CLASS
  1
LONG_TRANSACTION
  2
AcDbLongTransaction
  3
AutoCAD 2000
 90
        0
280
     0
281
     0
  0
CLASS
  1
LWPOLYLINE
  2
AcDbPolyline
  3
AutoCAD 2000
 90
        0
280
     0
281
     1
  0
CLASS
  1
HATCH
  2
AcDbHatch
  3
AutoCAD 2000
 90
        0
280
     0
281
     1
  0
CLASS
  1
XRECORD
  2
AcDbXrecord
  3
AutoCAD 2000
 90
        0
280
     0
281
     0
  0
CLASS
  1
LONG_TRANSACTION
  2
AcDbLongTransaction
  3
AutoCAD 2000
 90
        0
280
     0
281
     0
  0
CLASS
  1
LWPOLYLINE
  2
AcDbPolyline
  3
AutoCAD 2000
 90
        0
280
     0
281
     1
  0
CLASS
  1
HATCH
  2
AcDbHatch
  3
AutoCAD 2000
 90
        0
280
     0
281
     1
  0
CLASS
  1
XRECORD
  2
AcDbXrecord
  3
AutoCAD 2000
 90
        0
280
     0
281
     0
  0
CLASS
  1
LONG_TRANSACTION
  2
AcDbLongTransaction
  3
AutoCAD 2000
 90
        0
280
     0
281
     0
  0
CLASS
  1
LWPOLYLINE
  2
AcDbPolyline
  3
AutoCAD 2000
 90
        0
280
     0
281
     1
  0
CLASS
  1
HATCH
  2
AcDbHatch
  3
AutoCAD 2000
 90
        0
280
     0
281
     1
  0
CLASS
  1
XRECORD
  2
AcDbXrecord
  3
AutoCAD 2000
 90
        0
280
     0
281
     0
  0
ENDSEC
  0
SECTION
  2
TABLES
  0
TABLE
  2
VPORT
  5
8
330
0
100
AcDbSymbolTable
 70
    11
  0
VPORT
  5
28
330
8
100
AcDbSymbolTableRecord
100
AcDbViewportTableRecord
  2
2
 70
     0
 10
0.5
 20
0.0
 11
1.0
 21
1.0
 12
0.924031
 22
1.052651
 13
0.0
 23
0.0
 14
1.0
 24
1.0
 15
10.0
 25
10.0
 16
0.0
 26
0.0
 36
1.0
 17
0.0
 27
0.0
 37
0.0
 40
2.105302
 41
0.877814
 42
50.0
 43
0.0
 44
0.0
 50
0.0
 51
0.0
 71
     0
 72
   500
 73
     1
 74
     1
 75
     0
 76
     0
 77
     0
 78
     0
  0
VPORT
  5
29
330
8
100
AcDbSymbolTableRecord
100
AcDbViewportTableRecord
  2
2
 70
     0
 10
0.0
 20
0.0
 11
0.5
 21
1.0
 12
0.924031
 22
1.052651
 13
0.0
 23
0.0
 14
1.0
 24
1.0
 15
10.0
 25
10.0
 16
0.0
 26
0.0
 36
1.0
 17
0.0
 27
0.0
 37
0.0
 40
2.105302
 41
0.877814
 42
50.0
 43
0.0
 44
0.0
 50
0.0
 51
0.0
 71
     0
 72
   500
 73
     1
 74
     1
 75
     0
 76
     0
 77
     0
 78
     0
  0
VPORT
  5
2A
330
8
100
AcDbSymbolTableRecord
100
AcDbViewportTableRecord
  2
3
 70
     0
 10
0.0
 20
0.5
 11
1.0
 21
1.0
 12
2.832169999999998
 22
1.052651
 13
0.0
 23
0.0
 14
1.0
 24
1.0
 15
10.0
 25
10.0
 16
0.0
 26
0.0
 36
1.0
 17
0.0
 27
0.0
 37
0.0
 40
2.105302
 41
3.571429
 42
50.0
 43
0.0
 44
0.0
 50
0.0
 51
0.0
 71
     0
 72
   500
 73
     1
 74
     1
 75
     0
 76
     0
 77
     0
 78
     0
  0
VPORT
  5
2B
330
8
100
AcDbSymbolTableRecord
100
AcDbViewportTableRecord
  2
3
 70
     0
 10
0.0
 20
0.0
 11
1.0
 21
0.5
 12
2.856741999999998
 22
1.052651
 13
0.0
 23
0.0
 14
1.0
 24
1.0
 15
10.0
 25
10.0
 16
0.0
 26
0.0
 36
1.0
 17
0.0
 27
0.0
 37
0.0
 40
2.105302
 41
3.594770999999998
 42
50.0
 43
0.0
 44
0.0
 50
0.0
 51
0.0
 71
     0
 72
   500
 73
     1
 74
     1
 75
     0
 76
     0
 77
     0
 78
     0
  0
VPORT
  5
2C
330
8
100
AcDbSymbolTableRecord
100
AcDbViewportTableRecord
  2
4
 70
     0
 10
0.5
 20
0.0
 11
1.0
 21
0.5
 12
2.886858
 22
1.052651
 13
0.0
 23
0.0
 14
1.0
 24
1.0
 15
10.0
 25
10.0
 16
0.0
 26
0.0
 36
1.0
 17
0.0
 27
0.0
 37
0.0
 40
4.275206999999999
 41
1.784314
 42
50.0
 43
0.0
 44
0.0
 50
0.0
 51
0.0
 71
     0
 72
   500
 73
     1
 74
     1
 75
     0
 76
     0
 77
     0
 78
     0
  0
VPORT
  5
2D
330
8
100
AcDbSymbolTableRecord
100
AcDbViewportTableRecord
  2
4
 70
     0
 10
0.5
 20
0.5
 11
1.0
 21
1.0
 12
2.86209
 22
1.052651
 13
0.0
 23
0.0
 14
1.0
 24
1.0
 15
10.0
 25
10.0
 16
0.0
 26
0.0
 36
1.0
 17
0.0
 27
0.0
 37
0.0
 40
4.275206999999999
 41
1.772726999999999
 42
50.0
 43
0.0
 44
0.0
 50
0.0
 51
0.0
 71
     0
 72
   500
 73
     1
 74
     1
 75
     0
 76
     0
 77
     0
 78
     0
  0
VPORT
  5
2E
330
8
100
AcDbSymbolTableRecord
100
AcDbViewportTableRecord
  2
4
 70
     0
 10
0.0
 20
0.5
 11
0.5
 21
1.0
 12
2.86209
 22
1.052651
 13
0.0
 23
0.0
 14
1.0
 24
1.0
 15
10.0
 25
10.0
 16
0.0
 26
0.0
 36
1.0
 17
0.0
 27
0.0
 37
0.0
 40
4.275206999999999
 41
1.772726999999999
 42
50.0
 43
0.0
 44
0.0
 50
0.0
 51
0.0
 71
     0
 72
   500
 73
     1
 74
     1
 75
     0
 76
     0
 77
     0
 78
     0
  0
VPORT
  5
2F
330
8
100
AcDbSymbolTableRecord
100
AcDbViewportTableRecord
  2
4
 70
     0
 10
0.0
 20
0.0
 11
0.5
 21
0.5
 12
2.886858
 22
1.052651
 13
0.0
 23
0.0
 14
1.0
 24
1.0
 15
10.0
 25
10.0
 16
0.0
 26
0.0
 36
1.0
 17
0.0
 27
0.0
 37
0.0
 40
4.275206999999999
 41
1.784314
 42
50.0
 43
0.0
 44
0.0
 50
0.0
 51
0.0
 71
     0
 72
   500
 73
     1
 74
     1
 75
     0
 76
     0
 77
     0
 78
     0
  0
VPORT
  5
E39
330
8
100
AcDbSymbolTableRecord
100
AcDbViewportTableRecord
  2
*ACTIVE
 70
     0
 10
0.0
 20
0.0
 11
1.0
 21
1.0
 12
271.5000037930427
 22
136.5000020521646
 13
0.0
 23
0.0
 14
1.0
 24
1.0
 15
10.0
 25
10.0
 16
0.0
 26
0.0
 36
1.0
 17
0.0
 27
0.0
 37
0.0
 40
314.7516065862209
 41
1.731733914940021
 42
50.0
 43
0.0
 44
0.0
 50
0.0
 51
0.0
 71
     0
 72
   500
 73
     1
 74
     0
 75
     0
 76
     0
 77
     0
 78
     0
  0
ENDTAB
  0
TABLE
  2
LTYPE
  5
5
330
0
100
AcDbSymbolTable
 70
     3
  0
LTYPE
  5
11
330
5
100
AcDbSymbolTableRecord
100
AcDbLinetypeTableRecord
  2
BYBLOCK
 70
     0
  3

 72
    65
 73
     0
 40
0.0
  0
LTYPE
  5
12
330
5
100
AcDbSymbolTableRecord
100
AcDbLinetypeTableRecord
  2
BYLAYER
 70
     0
  3

 72
    65
 73
     0
 40
0.0
  0
LTYPE
  5
13
330
5
100
AcDbSymbolTableRecord
100
AcDbLinetypeTableRecord
  2
CONTINUOUS
 70
     0
  3
実線
 72
    65
 73
     0
 40
0.0
  0
LTYPE
  5
27
330
5
100
AcDbSymbolTableRecord
100
AcDbLinetypeTableRecord
  2
HIDDEN
 70
     0
  3
_ _ _ _ _ _ _ _ _ _ _ _ _ _ _ _ _ _ _ _ _ _ _
 72
    65
 73
     2
 40
0.375
 49
0.25
 74
     0
 49
-0.125
 74
     0
  0
LTYPE
  5
88A
330
5
100
AcDbSymbolTableRecord
100
AcDbLinetypeTableRecord
  2
PHANTOM
 70
     0
  3
_____ _ _ _____ _ _ _____ _ _ _____ _ _ ____
 72
    65
 73
     6
 40
2.5
 49
1.25
 74
     0
 49
-0.25
 74
     0
 49
0.25
 74
     0
 49
-0.25
 74
     0
 49
0.25
 74
     0
 49
-0.25
 74
     0
  0
ENDTAB
  0
TABLE
  2
LAYER
  5
2
330
0
100
AcDbSymbolTable
 70
     9
  0
LAYER
  5
E
330
2
100
AcDbSymbolTableRecord
100
AcDbLayerTableRecord
  2
0
 70
     0
 62
     7
  6
CONTINUOUS
  0
LAYER
  5
37
330
2
100
AcDbSymbolTableRecord
100
AcDbLayerTableRecord
  2
TEXT
 70
     0
 62
     3
  6
CONTINUOUS
  0
LAYER
  5
38
330
2
100
AcDbSymbolTableRecord
100
AcDbLayerTableRecord
  2
SAISEN
 70
     0
 62
     4
  6
CONTINUOUS
  0
LAYER
  5
39
330
2
100
AcDbSymbolTableRecord
100
AcDbLayerTableRecord
  2
JISSEN
 70
     0
 62
     7
  6
CONTINUOUS
  0
LAYER
  5
3B
330
2
100
AcDbSymbolTableRecord
100
AcDbLayerTableRecord
  2
TENSEN
 70
     0
 62
     2
  6
HIDDEN
  0
LAYER
  5
3D
330
2
100
AcDbSymbolTableRecord
100
AcDbLayerTableRecord
  2
WAKU
 70
     0
 62
     5
  6
CONTINUOUS
  0
LAYER
  5
88B
330
2
100
AcDbSymbolTableRecord
100
AcDbLayerTableRecord
  2
NITEN
 70
     0
 62
     2
  6
PHANTOM
  0
LAYER
  5
88C
330
2
100
AcDbSymbolTableRecord
100
AcDbLayerTableRecord
  2
HATCH
 70
     0
 62
     4
  6
CONTINUOUS
  0
LAYER
  5
88D
330
2
100
AcDbSymbolTableRecord
100
AcDbLayerTableRecord
  2
SUNPOU
 70
     0
 62
     3
  6
CONTINUOUS
  0
ENDTAB
  0
TABLE
  2
STYLE
  5
3
330
0
100
AcDbSymbolTable
 70
     2
  0
STYLE
  5
F
330
3
100
AcDbSymbolTableRecord
100
AcDbTextStyleTableRecord
  2
STANDARD
 70
     0
 40
0.0
 41
1.0
 50
0.0
 71
     0
 42
3.0
  3
SIMPLEX
  4

  0
STYLE
  5
23
330
3
100
AcDbSymbolTableRecord
100
AcDbTextStyleTableRecord
  2
K
 70
     0
 40
0.0
 41
1.0
 50
0.0
 71
     0
 42
3.0
  3
SIMPLEX
  4
BIGFONT
  0
ENDTAB
  0
TABLE
  2
VIEW
  5
6
330
0
100
AcDbSymbolTable
 70
     0
  0
ENDTAB
  0
TABLE
  2
UCS
  5
7
330
0
100
AcDbSymbolTable
 70
     0
  0
ENDTAB
  0
TABLE
  2
APPID
  5
9
330
0
100
AcDbSymbolTable
 70
     1
  0
APPID
  5
10
330
9
100
AcDbSymbolTableRecord
100
AcDbRegAppTableRecord
  2
ACAD
 70
     0
  0
ENDTAB
  0
TABLE
  2
DIMSTYLE
  5
A
330
0
100
AcDbSymbolTable
 70
     1
  0
DIMSTYLE
105
194
330
A
100
AcDbSymbolTableRecord
100
AcDbDimStyleTableRecord
  2
STANDARD
 70
     0
  3

  4

  5

  6

  7

 40
1.0
 41
0.18
 42
0.0625
 43
0.38
 44
0.18
 45
0.0
 46
0.0
 47
0.0
 48
0.0
140
0.18
141
0.09
142
0.0
143
25.4
144
1.0
145
0.0
146
1.0
147
0.09
 71
     0
 72
     0
 73
     1
 74
     1
 75
     0
 76
     0
 77
     0
 78
     0
170
     0
171
     2
172
     0
173
     0
174
     0
175
     0
176
     0
177
     0
178
     0
270
     2
271
     4
272
     4
273
     2
274
     2
340
F
275
     0
280
     0
281
     0
282
     0
283
     1
284
     0
285
     0
286
     0
287
     3
288
     0
  0
ENDTAB
  0
TABLE
  2
BLOCK_RECORD
  5
1
330
0
100
AcDbSymbolTable
 70
     2
  0
BLOCK_RECORD
  5
17
102
{ACAD_XDICTIONARY
360
867
102
}
330
1
100
AcDbSymbolTableRecord
100
AcDbBlockTableRecord
  2
*MODEL_SPACE
  0
BLOCK_RECORD
  5
14
102
{ACAD_XDICTIONARY
360
865
102
}
330
1
100
AcDbSymbolTableRecord
100
AcDbBlockTableRecord
  2
*PAPER_SPACE
  0
BLOCK_RECORD
  5
1C
330
1
100
AcDbSymbolTableRecord
100
AcDbBlockTableRecord
  2
ARROW
  0
BLOCK_RECORD
  5
D73
330
1
100
AcDbSymbolTableRecord
100
AcDbBlockTableRecord
  2
ARROWANG
  0
ENDTAB
  0
ENDSEC
  0
SECTION
  2
BLOCKS
  0
BLOCK
  5
40
330
17
100
AcDbEntity
  8
0
100
AcDbBlockBegin
  2
*MODEL_SPACE
 70
     0
 10
0.0
 20
0.0
 30
0.0
  3
*MODEL_SPACE
  1

  0
ENDBLK
  5
41
330
17
100
AcDbEntity
  8
0
100
AcDbBlockEnd
  0
BLOCK
  5
3E
330
14
100
AcDbEntity
 67
     1
  8
0
100
AcDbBlockBegin
  2
*PAPER_SPACE
 70
     0
 10
0.0
 20
0.0
 30
0.0
  3
*PAPER_SPACE
  1

  0
ENDBLK
  5
3F
330
14
100
AcDbEntity
 67
     1
  8
0
100
AcDbBlockEnd
  0
BLOCK
  5
42
330
1C
100
AcDbEntity
  8
0
100
AcDbBlockBegin
  2
ARROW
 70
     0
 10
1.0
 20
0.5
 30
0.0
  3
ARROW
  1

  0
LINE
  5
43
330
1C
100
AcDbEntity
  8
0
100
AcDbLine
 10
1.0
 20
0.5
 30
0.0
 11
-0.5
 21
0.098076
 31
0.0
  0
LINE
  5
44
330
1C
100
AcDbEntity
  8
0
100
AcDbLine
 10
0.0
 20
0.5
 30
0.0
 11
1.0
 21
0.5
 31
0.0
  0
LINE
  5
45
330
1C
100
AcDbEntity
  8
0
100
AcDbLine
 10
1.0
 20
0.5
 30
0.0
 11
-0.5
 21
0.9019239999999999
 31
0.0
  0
ENDBLK
  5
46
330
1C
100
AcDbEntity
  8
JISSEN
100
AcDbBlockEnd
  0
BLOCK
  5
D76
330
D73
100
AcDbEntity
  8
0
100
AcDbBlockBegin
  2
ARROWANG
 70
     0
 10
0.0
 20
0.0
 30
0.0
  3
ARROWANG
  1

  0
LINE
  5
D74
330
D73
100
AcDbEntity
  8
SUNPOU
100
AcDbLine
 10
0.0
 20
0.0
 30
0.0
 11
-1.5
 21
0.401924
 31
0.0
  0
LINE
  5
D75
330
D73
100
AcDbEntity
  8
SUNPOU
100
AcDbLine
 10
0.0
 20
0.0
 30
0.0
 11
-1.5
 21
-0.401924
 31
0.0
  0
ENDBLK
  5
D77
330
D73
100
AcDbEntity
  8
0
100
AcDbBlockEnd
  0
ENDSEC
  0
SECTION
  2
ENTITIES
  0
TEXT
  5
77
330
17
100
AcDbEntity
  8
TEXT
100
AcDbText
 10
138.0111368571427
 20
262.4753059999999
 30
0.0
 40
3.0
  1
ADC
  7
K
 72
     4
 11
142.1539939999999
 21
263.9753059999999
 31
0.0
100
AcDbText
  0
TEXT
  5
79
330
17
100
AcDbEntity
  8
TEXT
100
AcDbText
 10
157.576837142857
 20
262.3416059999998
 30
0.0
 40
3.0
  1
1
  7
K
 72
     4
 11
157.9339799999999
 21
263.8416059999999
 31
0.0
100
AcDbText
  0
TEXT
  5
7B
330
17
100
AcDbEntity
  8
TEXT
100
AcDbText
 10
111.4523259999999
 20
262.3753059999998
 30
0.0
 40
3.0
  1
ガード
  7
K
 72
     4
 11
116.3523259999999
 21
263.9753059999999
 31
0.0
100
AcDbText
  0
ARC
  5
7F
330
17
100
AcDbEntity
  8
JISSEN
100
AcDbCircle
 10
120.2304939999999
 20
105.154868
 30
0.0
 40
1.25
100
AcDbArc
 50
270.0
 51
90.0
  0
ARC
  5
84
330
17
100
AcDbEntity
  8
JISSEN
100
AcDbCircle
 10
92.83049400000001
 20
105.154868
 30
0.0
 40
28.65
100
AcDbArc
 50
187.6877939999999
 51
172.312206
  0
LINE
  5
85
330
17
100
AcDbEntity
  8
JISSEN
100
AcDbLine
 10
120.2304939999999
 20
106.4048679999999
 30
0.0
 11
110.285794
 21
106.4048679999999
 31
0.0
  0
LINE
  5
86
330
17
100
AcDbEntity
  8
JISSEN
100
AcDbLine
 10
110.285794
 20
103.904868
 30
0.0
 11
120.2304939999999
 21
103.904868
 31
0.0
  0
LINE
  5
87
330
17
100
AcDbEntity
  8
JISSEN
100
AcDbLine
 10
97.035657
 20
88.16762
 30
0.0
 11
100.1087389999999
 21
78.709648
 31
0.0
  0
LINE
  5
88
330
17
100
AcDbEntity
  8
JISSEN
100
AcDbLine
 10
102.48638
 20
79.482191
 30
0.0
 11
99.41329899999999
 21
88.94016200000001
 31
0.0
  0
ARC
  5
89
330
17
100
AcDbEntity
  8
JISSEN
100
AcDbCircle
 10
101.2975589999999
 20
79.09591999999998
 30
0.0
 40
1.25
100
AcDbArc
 50
198.0
 51
18.0
  0
LINE
  5
8A
330
17
100
AcDbEntity
  8
JISSEN
100
AcDbLine
 10
77.974128
 20
95.90617100000001
 30
0.0
 11
69.928696
 21
90.060823
 31
0.0
  0
LINE
  5
8B
330
17
100
AcDbEntity
  8
JISSEN
100
AcDbLine
 10
71.39816
 20
88.03828100000002
 30
0.0
 11
79.44359099999998
 21
93.883629
 31
0.0
  0
ARC
  5
8C
330
17
100
AcDbEntity
  8
JISSEN
100
AcDbCircle
 10
70.663428
 20
89.04955200000001
 30
0.0
 40
1.25
100
AcDbArc
 50
126.0
 51
306.0
  0
LINE
  5
8D
330
17
100
AcDbEntity
  8
JISSEN
100
AcDbLine
 10
79.44359099999998
 20
116.426107
 30
0.0
 11
71.39816
 21
122.271455
 31
0.0
  0
LINE
  5
8E
330
17
100
AcDbEntity
  8
JISSEN
100
AcDbLine
 10
69.928696
 20
120.2489129999999
 30
0.0
 11
77.974128
 21
114.4035649999999
 31
0.0
  0
ARC
  5
8F
330
17
100
AcDbEntity
  8
JISSEN
100
AcDbCircle
 10
70.663428
 20
121.260184
 30
0.0
 40
1.25
100
AcDbArc
 50
54.0
 51
234.0
  0
LINE
  5
90
330
17
100
AcDbEntity
  8
JISSEN
100
AcDbLine
 10
99.41329899999999
 20
121.369574
 30
0.0
 11
102.48638
 21
130.8275449999999
 31
0.0
  0
LINE
  5
91
330
17
100
AcDbEntity
  8
JISSEN
100
AcDbLine
 10
100.1087389999999
 20
131.600088
 30
0.0
 11
97.035657
 21
122.142116
 31
0.0
  0
ARC
  5
92
330
17
100
AcDbEntity
  8
JISSEN
100
AcDbCircle
 10
101.2975589999999
 20
131.213817
 30
0.0
 40
1.25
100
AcDbArc
 50
342.0
 51
162.0
  0
LINE
  5
94
330
17
100
AcDbEntity
  8
JISSEN
100
AcDbLine
 10
64.43800799999999
 20
108.987524
 30
0.0
 11
61.180494
 21
108.1146759999999
 31
0.0
  0
LINE
  5
96
330
17
100
AcDbEntity
  8
JISSEN
100
AcDbLine
 10
61.180494
 20
102.19506
 30
0.0
 11
64.43800799999999
 21
101.322212
 31
0.0
  0
ARC
  5
A3
330
17
100
AcDbEntity
  8
JISSEN
100
AcDbCircle
 10
76.08049399999998
 20
176.821084
 30
0.0
 40
1.25
100
AcDbArc
 50
90.0
 51
270.0
  0
ARC
  5
A4
330
17
100
AcDbEntity
  8
JISSEN
100
AcDbCircle
 10
109.5804939999998
 20
176.821084
 30
0.0
 40
1.25
100
AcDbArc
 50
135.0
 51
315.0
1001
ACAD
1000
ASC_BOUNDS
1002
{
1070
    19
1005
7A1
1002
}
  0
LINE
  5
A5
330
17
100
AcDbEntity
  8
JISSEN
100
AcDbLine
 10
109.5804939999998
 20
175.571084
 30
0.0
 11
76.08049399999998
 21
175.571084
 31
0.0
  0
LINE
  5
A6
330
17
100
AcDbEntity
  8
JISSEN
100
AcDbLine
 10
121.480494
 20
210.5710839999999
 30
0.0
 11
121.480494
 21
191.352812
 31
0.0
1001
ACAD
1000
ASC_BOUNDS
1002
{
1070
    19
1005
7A1
1002
}
  0
LINE
  5
A9
330
17
100
AcDbEntity
  8
JISSEN
100
AcDbLine
 10
117.9804939999999
 20
190.974132
 30
0.0
 11
117.9804939999999
 21
202.571084
 31
0.0
1001
ACAD
1000
ASC_BOUNDS
1002
{
1070
    19
1005
7A1
1002
}
  0
LINE
  5
AA
330
17
100
AcDbEntity
  8
JISSEN
100
AcDbLine
 10
103.4254
 20
204.071084
 30
0.0
 11
103.4254
 21
191.196213
 31
0.0
  0
LINE
  5
AB
330
17
100
AcDbEntity
  8
JISSEN
100
AcDbLine
 10
102.761204
 20
187.612533
 30
0.0
 11
99.098585
 21
178.071084
 31
0.0
  0
LINE
  5
AC
330
17
100
AcDbEntity
  8
JISSEN
100
AcDbLine
 10
99.098585
 20
178.071084
 30
0.0
 11
96.420723
 21
178.071084
 31
0.0
  0
LINE
  5
AD
330
17
100
AcDbEntity
  8
JISSEN
100
AcDbLine
 10
96.420723
 20
178.071084
 30
0.0
 11
99.128365
 21
185.124734
 31
0.0
  0
LINE
  5
AE
330
17
100
AcDbEntity
  8
JISSEN
100
AcDbLine
 10
99.92539999999999
 20
189.425149
 30
0.0
 11
99.92539999999999
 21
204.071084
 31
0.0
  0
ARC
  5
AF
330
17
100
AcDbEntity
  8
JISSEN
100
AcDbCircle
 10
93.42539999999999
 20
191.196213
 30
0.0
 40
10.0
100
AcDbArc
 50
339.0
 51
0.0
  0
ARC
  5
B0
330
17
100
AcDbEntity
  8
JISSEN
100
AcDbCircle
 10
87.9254
 20
189.425149
 30
0.0
 40
12.0
100
AcDbArc
 50
339.0
 51
0.0
  0
ARC
  5
B1
330
17
100
AcDbEntity
  8
JISSEN
100
AcDbCircle
 10
111.9804939999999
 20
190.974132
 30
0.0
 40
6.0
100
AcDbArc
 50
315.0
 51
0.0
1001
ACAD
1000
ASC_BOUNDS
1002
{
1070
    19
1005
7A1
1002
}
  0
ARC
  5
B2
330
17
100
AcDbEntity
  8
JISSEN
100
AcDbCircle
 10
114.4804939999999
 20
191.352812
 30
0.0
 40
7.0
100
AcDbArc
 50
315.0
 51
0.0
1001
ACAD
1000
ASC_BOUNDS
1002
{
1070
    19
1005
7A1
1002
}
  0
LINE
  5
B3
330
17
100
AcDbEntity
  8
JISSEN
100
AcDbLine
 10
67.924228
 20
204.071084
 30
0.0
 11
67.924228
 21
191.7266229999999
 31
0.0
  0
LINE
  5
B5
330
17
100
AcDbEntity
  8
JISSEN
100
AcDbLine
 10
71.424228
 20
204.071084
 30
0.0
 11
71.424228
 21
191.3302899999999
 31
0.0
  0
ARC
  5
B7
330
17
100
AcDbEntity
  8
JISSEN
100
AcDbCircle
 10
75.924228
 20
191.7266229999999
 30
0.0
 40
8.0
100
AcDbArc
 50
180.0
 51
224.65
  0
ARC
  5
B8
330
17
100
AcDbEntity
  8
JISSEN
100
AcDbCircle
 10
78.424228
 20
191.3302899999999
 30
0.0
 40
7.0
100
AcDbArc
 50
180.0
 51
224.65
  0
LINE
  5
BA
330
17
100
AcDbEntity
  8
JISSEN
100
AcDbLine
 10
118.480494
 20
203.071084
 30
0.0
 11
118.480494
 21
210.5710839999999
 31
0.0
1001
ACAD
1000
ASC_BOUNDS
1002
{
1070
    19
1005
7A1
1002
}
  0
LINE
  5
BC
330
17
100
AcDbEntity
  8
JISSEN
100
AcDbLine
 10
121.480494
 20
210.5710839999999
 30
0.0
 11
61.180494
 21
210.5710839999999
 31
0.0
1001
ACAD
1000
ASC_BOUNDS
1002
{
1070
    19
1005
7A1
1005
7A1
1002
}
  0
LINE
  5
BE
330
17
100
AcDbEntity
  8
JISSEN
100
AcDbLine
 10
61.180494
 20
204.071084
 30
0.0
 11
118.480494
 21
204.071084
 31
0.0
  0
ARC
  5
BF
330
17
100
AcDbEntity
  8
JISSEN
100
AcDbCircle
 10
92.83049400000001
 20
105.154868
 30
0.0
 40
26.65
100
AcDbArc
 50
290.6884059999999
 51
357.3879529999998
  0
ARC
  5
C0
330
17
100
AcDbEntity
  8
JISSEN
100
AcDbCircle
 10
92.83049400000001
 20
105.154868
 30
0.0
 40
26.65
100
AcDbArc
 50
218.688406
 51
285.311594
  0
ARC
  5
C1
330
17
100
AcDbEntity
  8
JISSEN
100
AcDbCircle
 10
92.83049400000001
 20
105.154868
 30
0.0
 40
26.65
100
AcDbArc
 50
146.688406
 51
213.3115939999999
  0
ARC
  5
C2
330
17
100
AcDbEntity
  8
JISSEN
100
AcDbCircle
 10
92.83049400000001
 20
105.154868
 30
0.0
 40
26.65
100
AcDbArc
 50
74.688406
 51
141.3115939999999
  0
ARC
  5
C3
330
17
100
AcDbEntity
  8
JISSEN
100
AcDbCircle
 10
92.83049400000001
 20
105.154868
 30
0.0
 40
26.65
100
AcDbArc
 50
2.688406
 51
69.31159400000002
  0
LINE
  5
C4
330
17
100
AcDbEntity
  8
JISSEN
100
AcDbLine
 10
118.480494
 20
203.071084
 30
0.0
 11
117.9804939999999
 21
202.571084
 31
0.0
1001
ACAD
1000
ASC_BOUNDS
1002
{
1070
    19
1005
7A1
1002
}
  0
ARC
  5
C5
330
17
100
AcDbEntity
  8
JISSEN
100
AcDbCircle
 10
101.6753999999999
 20
204.3419169999999
 30
0.0
 40
1.770833
100
AcDbArc
 50
188.7974109999999
 51
351.202589
  0
LINE
  5
C7
330
17
100
AcDbEntity
  8
JISSEN
100
AcDbLine
 10
66.180494
 20
210.5710839999999
 30
0.0
 11
61.180494
 21
210.5710839999999
 31
0.0
  0
LINE
  5
C8
330
17
100
AcDbEntity
  8
TENSEN
 48
0.8
100
AcDbLine
 10
66.180494
 20
210.5710839999999
 30
0.0
 11
66.180494
 21
204.071084
 31
0.0
  0
LINE
  5
C9
330
17
100
AcDbEntity
  8
TENSEN
 48
0.8
100
AcDbLine
 10
66.180494
 20
209.321084
 30
0.0
 11
61.180494
 21
209.321084
 31
0.0
  0
LINE
  5
CA
330
17
100
AcDbEntity
  8
JISSEN
100
AcDbLine
 10
61.180494
 20
210.5710839999999
 30
0.0
 11
61.180494
 21
204.071084
 31
0.0
  0
LINE
  5
CB
330
17
100
AcDbEntity
  8
TENSEN
 48
0.8
100
AcDbLine
 10
63.680494
 20
208.821084
 30
0.0
 11
63.680494
 21
205.821084
 31
0.0
  0
LINE
  5
CC
330
17
100
AcDbEntity
  8
JISSEN
100
AcDbLine
 10
58.680494
 20
208.821084
 30
0.0
 11
58.680494
 21
205.821084
 31
0.0
  0
LINE
  5
CD
330
17
100
AcDbEntity
  8
JISSEN
100
AcDbLine
 10
58.680494
 20
208.821084
 30
0.0
 11
58.96916899999999
 21
209.321084
 31
0.0
  0
LINE
  5
CE
330
17
100
AcDbEntity
  8
JISSEN
100
AcDbLine
 10
58.680494
 20
205.821084
 30
0.0
 11
58.96916899999999
 21
205.321084
 31
0.0
  0
LINE
  5
CF
330
17
100
AcDbEntity
  8
TENSEN
 48
0.8
100
AcDbLine
 10
63.680494
 20
208.821084
 30
0.0
 11
63.18049399999999
 21
209.321084
 31
0.0
  0
LINE
  5
D0
330
17
100
AcDbEntity
  8
TENSEN
 48
0.8
100
AcDbLine
 10
63.680494
 20
205.821084
 30
0.0
 11
63.18049399999999
 21
205.321084
 31
0.0
  0
LINE
  5
D1
330
17
100
AcDbEntity
  8
JISSEN
100
AcDbLine
 10
58.96916899999999
 20
205.321084
 30
0.0
 11
61.180494
 21
205.321084
 31
0.0
  0
LINE
  5
D2
330
17
100
AcDbEntity
  8
JISSEN
100
AcDbLine
 10
61.180494
 20
209.321084
 30
0.0
 11
58.96916899999999
 21
209.321084
 31
0.0
  0
LINE
  5
D3
330
17
100
AcDbEntity
  8
TENSEN
 48
0.8
100
AcDbLine
 10
61.180494
 20
205.321084
 30
0.0
 11
66.180494
 21
205.321084
 31
0.0
  0
LINE
  5
DB
330
17
100
AcDbEntity
  8
TENSEN
 48
0.8
100
AcDbLine
 10
63.18049399999999
 20
209.321084
 30
0.0
 11
63.18049399999999
 21
205.321084
 31
0.0
  0
LINE
  5
DC
330
17
100
AcDbEntity
  8
JISSEN
100
AcDbLine
 10
58.96916899999999
 20
209.321084
 30
0.0
 11
58.96916899999999
 21
205.321084
 31
0.0
  0
LINE
  5
113
330
17
100
AcDbEntity
  8
JISSEN
100
AcDbLine
 10
109.003125
 20
178.071084
 30
0.0
 11
79.594627
 21
178.071084
 31
0.0
  0
LINE
  5
18D
330
17
100
AcDbEntity
  8
TENSEN
 48
0.8
100
AcDbLine
 10
66.180494
 20
208.921084
 30
0.0
 11
61.180494
 21
208.921084
 31
0.0
  0
LINE
  5
18E
330
17
100
AcDbEntity
  8
SAISEN
100
AcDbLine
 10
61.180494
 20
208.921084
 30
0.0
 11
58.738229
 21
208.921084
 31
0.0
  0
LINE
  5
18F
330
17
100
AcDbEntity
  8
SAISEN
100
AcDbLine
 10
58.738229
 20
205.721084
 30
0.0
 11
61.180494
 21
205.721084
 31
0.0
  0
LINE
  5
190
330
17
100
AcDbEntity
  8
TENSEN
 48
0.8
100
AcDbLine
 10
61.180494
 20
205.721084
 30
0.0
 11
66.180494
 21
205.721084
 31
0.0
  0
CIRCLE
  5
358
330
17
100
AcDbEntity
  8
JISSEN
100
AcDbCircle
 10
92.83049400000001
 20
105.154868
 30
0.0
 40
15.5
  0
ARC
  5
359
330
17
100
AcDbEntity
  8
JISSEN
100
AcDbCircle
 10
92.83049400000001
 20
105.154868
 30
0.0
 40
17.5
100
AcDbArc
 50
4.096044
 51
67.903956
  0
ARC
  5
35B
330
17
100
AcDbEntity
  8
JISSEN
100
AcDbCircle
 10
92.83049400000001
 20
105.154868
 30
0.0
 40
17.5
100
AcDbArc
 50
76.09604399999998
 51
139.903956
  0
ARC
  5
35C
330
17
100
AcDbEntity
  8
JISSEN
100
AcDbCircle
 10
92.83049400000001
 20
105.154868
 30
0.0
 40
17.5
100
AcDbArc
 50
148.096044
 51
211.903956
  0
ARC
  5
35D
330
17
100
AcDbEntity
  8
JISSEN
100
AcDbCircle
 10
92.83049400000001
 20
105.154868
 30
0.0
 40
17.5
100
AcDbArc
 50
220.096044
 51
283.9039559999998
  0
ARC
  5
35E
330
17
100
AcDbEntity
  8
JISSEN
100
AcDbCircle
 10
92.83049400000001
 20
105.154868
 30
0.0
 40
17.5
100
AcDbArc
 50
292.0960439999999
 51
355.9039559999998
  0
LINE
  5
367
330
17
100
AcDbEntity
  8
JISSEN
100
AcDbLine
 10
76.959642
 20
176.863316
 30
0.0
 11
70.23292399999999
 21
186.10443
 31
0.0
  0
LINE
  5
368
330
17
100
AcDbEntity
  8
JISSEN
100
AcDbLine
 10
79.594627
 20
178.071084
 30
0.0
 11
73.444337
 21
186.410871
 31
0.0
  0
LINE
  5
36A
330
17
100
AcDbEntity
  8
JISSEN
100
AcDbLine
 10
119.789903
 20
186.7909939999999
 30
0.0
 11
110.464377
 21
175.9371999999999
 31
0.0
1001
ACAD
1000
ASC_BOUNDS
1002
{
1070
    19
1005
7A1
1002
}
  0
LINE
  5
36B
330
17
100
AcDbEntity
  8
JISSEN
100
AcDbLine
 10
116.581046
 20
187.1225199999999
 30
0.0
 11
108.69661
 21
177.7049669999999
 31
0.0
1001
ACAD
1000
ASC_BOUNDS
1002
{
1070
    19
1005
7A1
1002
}
  0
TEXT
  5
48C
330
17
100
AcDbEntity
  8
TEXT
100
AcDbText
 10
31.75335999999999
 20
5.837048999999998
 30
0.0
 40
4.0
  1

  7
K
 72
     4
 11
31.75335999999999
 21
5.837048999999998
 31
0.0
100
AcDbText
  0
TEXT
  5
499
330
17
100
AcDbEntity
  8
TEXT
100
AcDbText
 10
163.1980908571428
 20
262.5099039999999
 30
0.0
 40
3.0
  1
梨地Crメッキ
 41
0.8
  7
K
 72
     4
 11
171.9409479999999
 21
264.0099039999999
 31
0.0
100
AcDbText
  0
LINE
  5
524
330
17
100
AcDbEntity
  8
JISSEN
100
AcDbLine
 10
89.0
 20
273.0
 30
0.0
 11
89.0
 21
261.0
 31
0.0
  0
LINE
  5
525
330
17
100
AcDbEntity
  8
JISSEN
100
AcDbLine
 10
89.0
 20
261.0
 30
0.0
 11
181.0
 21
261.0
 31
0.0
  0
TEXT
  5
526
330
17
100
AcDbEntity
  8
TEXT
100
AcDbText
 10
105.862851
 20
268.4087759999999
 30
0.0
 40
3.0
  1
名　　　　称
  7
K
 72
     4
 11
116.262851
 21
269.9087759999999
 31
0.0
100
AcDbText
  0
LINE
  5
527
330
17
100
AcDbEntity
  8
JISSEN
100
AcDbLine
 10
89.0
 20
267.0
 30
0.0
 11
181.0
 21
267.0
 31
0.0
  0
LINE
  5
528
330
17
100
AcDbEntity
  8
JISSEN
100
AcDbLine
 10
131.75
 20
273.0
 30
0.0
 11
131.75
 21
261.0
 31
0.0
  0
TEXT
  5
529
330
17
100
AcDbEntity
  8
TEXT
100
AcDbText
 10
90.062557
 20
268.2719949999999
 30
0.0
 40
3.0
  1
番　号
  7
K
 72
     4
 11
95.062557
 21
269.7719949999999
 31
0.0
100
AcDbText
  0
LINE
  5
52A
330
17
100
AcDbEntity
  8
JISSEN
100
AcDbLine
 10
101.75
 20
273.0
 30
0.0
 11
101.75
 21
261.0
 31
0.0
  0
TEXT
  5
52B
330
17
100
AcDbEntity
  8
TEXT
100
AcDbText
 10
135.587084
 20
268.2719949999999
 30
0.0
 40
3.0
  1
材　　質
  7
K
 72
     4
 11
142.387084
 21
269.7719949999999
 31
0.0
100
AcDbText
  0
LINE
  5
52C
330
17
100
AcDbEntity
  8
JISSEN
100
AcDbLine
 10
153.0
 20
273.0
 30
0.0
 11
153.0
 21
261.0
 31
0.0
  0
LINE
  5
52D
330
17
100
AcDbEntity
  8
JISSEN
100
AcDbLine
 10
162.7801749999999
 20
273.0
 30
0.0
 11
162.7801749999999
 21
261.0
 31
0.0
  0
TEXT
  5
52E
330
17
100
AcDbEntity
  8
TEXT
100
AcDbText
 10
154.5263219999999
 20
268.4087759999999
 30
0.0
 40
3.0
  1
個数
  7
K
 72
     4
 11
157.7263219999998
 21
269.9087759999999
 31
0.0
100
AcDbText
  0
TEXT
  5
52F
330
17
100
AcDbEntity
  8
TEXT
100
AcDbText
 10
166.9307199999999
 20
268.4087759999999
 30
0.0
 40
3.0
  1
備　考
  7
K
 72
     4
 11
171.9307199999999
 21
269.9087759999999
 31
0.0
100
AcDbText
  0
LINE
  5
75F
330
17
100
AcDbEntity
  8
JISSEN
100
AcDbLine
 10
58.680494
 20
103.654868
 30
0.0
 11
58.96916899999999
 21
103.1548679999999
 31
0.0
  0
LINE
  5
762
330
17
100
AcDbEntity
  8
JISSEN
100
AcDbLine
 10
58.96916899999999
 20
107.154868
 30
0.0
 11
58.96916899999999
 21
103.1548679999999
 31
0.0
  0
LINE
  5
764
330
17
100
AcDbEntity
  8
JISSEN
100
AcDbLine
 10
58.96916899999999
 20
103.1548679999999
 30
0.0
 11
61.180494
 21
103.1548679999999
 31
0.0
  0
LINE
  5
768
330
17
100
AcDbEntity
  8
JISSEN
100
AcDbLine
 10
61.180494
 20
107.154868
 30
0.0
 11
58.96916899999999
 21
107.154868
 31
0.0
  0
LINE
  5
769
330
17
100
AcDbEntity
  8
SAISEN
100
AcDbLine
 10
61.180494
 20
106.7548679999999
 30
0.0
 11
58.738229
 21
106.7548679999999
 31
0.0
  0
LINE
  5
76A
330
17
100
AcDbEntity
  8
SAISEN
100
AcDbLine
 10
58.738229
 20
103.5548679999999
 30
0.0
 11
61.180494
 21
103.5548679999999
 31
0.0
  0
LINE
  5
76F
330
17
100
AcDbEntity
  8
JISSEN
100
AcDbLine
 10
58.680494
 20
106.6548679999999
 30
0.0
 11
58.680494
 21
103.654868
 31
0.0
  0
LINE
  5
770
330
17
100
AcDbEntity
  8
JISSEN
100
AcDbLine
 10
58.680494
 20
106.6548679999999
 30
0.0
 11
58.96916899999999
 21
107.154868
 31
0.0
  0
LINE
  5
784
330
17
100
AcDbEntity
  8
JISSEN
100
AcDbLine
 10
61.180494
 20
102.19506
 30
0.0
 11
61.180494
 21
108.1146759999999
 31
0.0
  0
ARC
  5
78A
330
17
100
AcDbEntity
  8
JISSEN
100
AcDbCircle
 10
78.239788
 20
177.548678
 30
0.0
 40
1.452066
100
AcDbArc
 50
208.1635879999999
 51
21.085917
  0
LINE
  5
7A6
330
17
100
AcDbEntity
  8
JISSEN
100
AcDbLine
 10
64.440494
 20
210.5710839999999
 30
0.0
 11
64.440494
 21
204.071084
 31
0.0
  0
LINE
  5
7A7
330
17
100
AcDbEntity
  8
TENSEN
 48
0.8
100
AcDbLine
 10
66.180494
 20
106.7548679999999
 30
0.0
 11
61.180494
 21
106.7548679999999
 31
0.0
  0
LINE
  5
7A8
330
17
100
AcDbEntity
  8
TENSEN
 48
0.8
100
AcDbLine
 10
66.180494
 20
107.154868
 30
0.0
 11
61.180494
 21
107.154868
 31
0.0
  0
LINE
  5
7A9
330
17
100
AcDbEntity
  8
TENSEN
 48
0.8
100
AcDbLine
 10
63.18049399999999
 20
107.154868
 30
0.0
 11
63.18049399999999
 21
103.1548679999999
 31
0.0
  0
LINE
  5
7AA
330
17
100
AcDbEntity
  8
TENSEN
 48
0.8
100
AcDbLine
 10
63.680494
 20
106.6548679999999
 30
0.0
 11
63.680494
 21
103.654868
 31
0.0
  0
LINE
  5
7AB
330
17
100
AcDbEntity
  8
TENSEN
 48
0.8
100
AcDbLine
 10
63.680494
 20
106.6548679999999
 30
0.0
 11
63.18049399999999
 21
107.154868
 31
0.0
  0
LINE
  5
7AC
330
17
100
AcDbEntity
  8
TENSEN
 48
0.8
100
AcDbLine
 10
61.180494
 20
103.5548679999999
 30
0.0
 11
66.180494
 21
103.5548679999999
 31
0.0
  0
LINE
  5
7AD
330
17
100
AcDbEntity
  8
TENSEN
 48
0.8
100
AcDbLine
 10
61.180494
 20
103.1548679999999
 30
0.0
 11
66.180494
 21
103.1548679999999
 31
0.0
  0
LINE
  5
7AE
330
17
100
AcDbEntity
  8
TENSEN
 48
0.8
100
AcDbLine
 10
63.680494
 20
103.654868
 30
0.0
 11
63.18049399999999
 21
103.1548679999999
 31
0.0
  0
LINE
  5
9B5
330
17
100
AcDbEntity
  8
JISSEN
100
AcDbLine
 10
275.6247906113045
 20
104.2804183816994
 30
0.0
 11
270.0000823721799
 21
104.2804183816994
 31
0.0
  0
LINE
  5
9B6
330
17
100
AcDbEntity
  8
JISSEN
100
AcDbLine
 10
276.2005866638582
 20
105.780418381701
 30
0.0
 11
270.0000823721799
 21
105.7804183817022
 31
0.0
  0
LINE
  5
9B7
330
17
100
AcDbEntity
  8
JISSEN
100
AcDbLine
 10
273.0000823721764
 20
102.7804183817015
 30
0.0
 11
270.0000823721763
 21
102.7804183817021
 31
0.0
  0
LINE
  5
9B8
330
17
100
AcDbEntity
  8
JISSEN
100
AcDbLine
 10
270.0000823721799
 20
108.3945360593637
 30
0.0
 11
276.9371423441288
 21
108.3945360593626
 31
0.0
1001
ACAD
1000
ASC_BOUNDS
1002
{
1070
    19
1002
}
  0
LINE
  5
9B9
330
17
100
AcDbEntity
  8
JISSEN
100
AcDbLine
 10
277.0949887365383
 20
122.980418381703
 30
0.0
 11
270.0000823721818
 21
122.980418381703
 31
0.0
  0
LINE
  5
9BA
330
17
100
AcDbEntity
  8
JISSEN
100
AcDbLine
 10
286.1727140172869
 20
98.98041838170321
 30
0.0
 11
256.7642153606171
 21
98.98041838170383
 31
0.0
  0
LINE
  5
9BB
330
17
100
AcDbEntity
  8
JISSEN
100
AcDbLine
 10
286.750082372182
 20
96.48041838170321
 30
0.0
 11
253.2500823721819
 21
96.48041838170321
 31
0.0
  0
LINE
  5
9BC
330
17
100
AcDbEntity
  8
JISSEN
100
AcDbLine
 10
298.650082372182
 20
131.4804183817032
 30
0.0
 11
238.350082372182
 21
131.4804183817032
 31
0.0
  0
LINE
  5
9BD
330
17
100
AcDbEntity
  8
JISSEN
100
AcDbLine
 10
238.350082372182
 20
124.980418381703
 30
0.0
 11
295.1500823721819
 21
124.9804183817031
 31
0.0
  0
LWPOLYLINE
  5
9BE
330
17
100
AcDbEntity
  8
NITEN
100
AcDbPolyline
 90
        2
 70
     0
 43
0.0
 10
286.999998934166
 20
200.4286849385763
 42
0.5882352941176295
 10
269.9999989341657
 20
200.4286849385767
 42
0.5882352941176295
  0
LINE
  5
9BF
330
17
100
AcDbEntity
  8
JISSEN
100
AcDbLine
 10
279.0000823721819
 20
149.4804183817068
 30
0.0
 11
270.0000823721818
 21
149.4804183817068
 31
0.0
  0
LINE
  5
9C0
330
17
100
AcDbEntity
  8
JISSEN
100
AcDbLine
 10
280.2620063721818
 20
148.2184933817068
 30
0.0
 11
270.0000823721818
 21
148.2184933817068
 31
0.0
  0
LWPOLYLINE
  5
9C1
330
17
100
AcDbEntity
  8
NITEN
100
AcDbPolyline
 90
       15
 70
     1
 43
0.0
 10
255.9999989341658
 20
139.0909672874306
 42
0.4142135623730927
 10
257.4999989341656
 20
137.5909672874306
 10
280.5940501051624
 20
137.5909672874306
 10
282.4999989341657
 20
137.5909672874306
 42
0.4142135623730925
 10
283.9999989341657
 20
139.0909672874306
 10
283.9999989341657
 20
150.1369833136485
 42
-0.4142135623730943
 10
288.9999989341657
 20
155.1369833136485
 42
0.4142135623730951
 10
290.9999989341658
 20
157.1369833136484
 10
290.9999989341658
 20
177.5909672874306
 42
0.4142135623730949
 10
288.9999989341657
 20
179.5909672874306
 10
250.9999989341658
 20
179.5909672874306
 42
0.4142135623730951
 10
248.9999989341658
 20
177.5909672874306
 10
248.9999989341658
 20
157.1369833136484
 42
0.4142135623730951
 10
250.9999989341658
 20
155.1369833136485
 42
-0.4142135623730961
 10
255.9999989341658
 20
150.1369833136485
  0
LINE
  5
9C2
330
17
100
AcDbEntity
  8
JISSEN
100
AcDbLine
 10
270.0000823721818
 20
133.7211853817031
 30
0.0
 11
280.6213153721818
 21
133.7211853817031
 31
0.0
  0
ARC
  5
9C3
330
17
100
AcDbEntity
  8
JISSEN
100
AcDbCircle
 10
270.0000823721818
 20
123.980418381703
 30
0.0
 40
1.0
100
AcDbArc
 50
270.0
 51
0.000000000000007
  0
LINE
  5
9C4
330
17
100
AcDbEntity
  8
JISSEN
100
AcDbLine
 10
270.0000823721818
 20
121.480418381703
 30
0.0
 11
271.0000823721819
 21
121.480418381703
 31
0.0
  0
LINE
  5
9C5
330
17
100
AcDbEntity
  8
JISSEN
100
AcDbLine
 10
271.0000823721819
 20
114.7873173817032
 30
0.0
 11
270.0000823721818
 21
114.7873173817032
 31
0.0
  0
LINE
  5
9C6
102
{ACAD_REACTORS
330
9CA
102
}
330
17
100
AcDbEntity
  8
JISSEN
100
AcDbLine
 10
296.3500823721819
 20
131.4804183817031
 30
0.0
 11
270.0000823721818
 21
131.4804183817031
 31
0.0
  0
LINE
  5
9C7
330
17
100
AcDbEntity
  8
JISSEN
100
AcDbLine
 10
270.0000823721818
 20
113.683539381703
 30
0.0
 11
271.0000823721819
 21
113.683539381703
 31
0.0
  0
LINE
  5
9C8
330
17
100
AcDbEntity
  8
JISSEN
100
AcDbLine
 10
270.0000823721818
 20
110.1445360593638
 30
0.0
 11
277.0934853001708
 21
110.1445360593636
 31
0.0
1001
ACAD
1000
ASC_BOUNDS
1002
{
1070
    19
1002
}
  0
LWPOLYLINE
  5
9C9
330
17
100
AcDbEntity
  8
NITEN
100
AcDbPolyline
 90
        5
 70
     0
 43
0.0
 10
286.9999989341657
 20
179.5909672874306
 10
286.9999989341657
 20
200.4286849385763
 42
-0.5882352941176476
 10
269.9999989341657
 20
200.4286849385763
 42
0.5882352941176477
 10
252.9999989341658
 20
200.428684938576
 10
252.9999989341658
 20
179.5909672874306
  0
HATCH
  5
9CA
330
17
100
AcDbEntity
  8
HATCH
100
AcDbHatch
 10
0.0
 20
0.0
 30
0.0
210
0.0
220
0.0
230
1.0
  2
_U
 70
     0
 71
     1
 91
        2
 92
        7
 72
     0
 73
     1
 93
       15
 10
287.5000823721819
 20
136.480418381703
 10
287.5000823721818
 20
131.4804183817031
 10
296.3500823721819
 20
131.4804183817031
 10
335.2741456300815
 20
131.4804183817031
 10
335.5837091475606
 20
132.2285869255581
 10
335.9139657402753
 20
132.7661579231864
 10
336.2951017666251
 20
133.1893783118109
 10
336.7052741794189
 20
133.5306914034356
 10
337.122639931468
 20
133.8225405100658
 10
337.5253559755746
 20
134.097368943702
 10
337.891579264554
 20
134.3876200163521
 10
338.1994667512131
 20
134.7257370400189
 10
338.4271753883612
 20
135.1441633267068
 10
338.5690807450412
 20
135.6607813034701
 10
338.7336679232912
 20
136.480418381703
 97
        5
330
AB7
330
AB0
330
AB5
330
9C6
330
AAF
 92
        7
 72
     0
 73
     1
 93
       14
 10
201.2663299450404
 20
136.4804183817031
 10
201.4309171232904
 20
135.6607813034713
 10
201.5728224799707
 20
135.1441633267069
 10
201.8005311171186
 20
134.725737040019
 10
202.108418603778
 20
134.3876200163518
 10
202.4746418927572
 20
134.0973689437019
 10
202.8773579368651
 20
133.8225405100623
 10
203.2947236889131
 20
133.5306914034353
 10
203.7048961017067
 20
133.1893783118106
 10
204.0860321280563
 20
132.7661579231863
 10
204.4162887207709
 20
132.228586925558
 10
204.7258522382501
 20
131.4804183817031
 10
252.5000823721819
 20
131.4804183817031
 10
252.5000823721818
 20
136.4804183817031
 97
        4
330
A37
330
A38
330
A36
330
A3F
 75
     0
 76
     0
 52
45.0
 41
2.0
 77
     0
 78
     1
 53
45.0
 43
179.9999989341658
 44
-48.84817577884937
 45
-1.414213562373094
 46
1.414213562373094
 79
     0
 47
0.2346837798524018
 98
        2
 10
297.2263864240103
 20
134.3360502173588
 10
246.2585811303545
 20
135.0401012711297
  0
LINE
  5
9CC
330
17
100
AcDbEntity
  8
JISSEN
100
AcDbLine
 10
238.350082372182
 20
131.4804183817032
 30
0.0
 11
238.350082372182
 21
124.980418381703
 31
0.0
  0
LINE
  5
9CD
330
17
100
AcDbEntity
  8
JISSEN
100
AcDbLine
 10
241.610082372182
 20
131.4804183817032
 30
0.0
 11
241.610082372182
 21
124.980418381703
 31
0.0
  0
LINE
  5
9CE
330
17
100
AcDbEntity
  8
JISSEN
100
AcDbLine
 10
257.2500823721822
 20
110.1445360593638
 30
0.0
 11
257.2500823721824
 21
108.5945360593604
 31
0.0
1001
ACAD
1000
ASC_BOUNDS
1002
{
1070
    19
1002
}
  0
ARC
  5
9CF
330
17
100
AcDbEntity
  8
JISSEN
100
AcDbCircle
 10
255.593816883
 20
112.2396242734368
 30
0.0
 40
7.0
100
AcDbArc
 50
180.0
 51
224.6499999999989
  0
ARC
  5
9D0
330
17
100
AcDbEntity
  8
JISSEN
100
AcDbCircle
 10
253.093816883
 20
112.6359572615366
 30
0.0
 40
8.0
100
AcDbArc
 50
180.0
 51
224.6499999999989
  0
LINE
  5
9D1
330
17
100
AcDbEntity
  8
JISSEN
100
AcDbLine
 10
254.1292308407839
 20
97.77265106929769
 30
0.0
 11
247.4025126364562
 21
107.0137640975415
 31
0.0
  0
ARC
  5
9D2
330
17
100
AcDbEntity
  8
JISSEN
100
AcDbCircle
 10
255.4093771294872
 20
98.45801238681364
 30
0.0
 40
1.452065651418106
100
AcDbArc
 50
208.1635875388369
 51
21.08591664036319
  0
ARC
  5
9D3
330
17
100
AcDbEntity
  8
JISSEN
100
AcDbCircle
 10
253.2500823721819
 20
97.73041838170321
 30
0.0
 40
1.25
100
AcDbArc
 50
90.0
 51
270.0
  0
LINE
  5
9D4
330
17
100
AcDbEntity
  8
JISSEN
100
AcDbLine
 10
256.7500823721833
 20
104.2804183816995
 30
0.0
 11
270.0000823721799
 21
104.2804183816994
 31
0.0
  0
LINE
  5
9D5
330
17
100
AcDbEntity
  8
JISSEN
100
AcDbLine
 10
270.0000823721799
 20
108.3945360593637
 30
0.0
 11
257.4500823721825
 21
108.3945360593618
 31
0.0
1001
ACAD
1000
ASC_BOUNDS
1002
{
1070
    19
1002
}
  0
LINE
  5
9D6
330
17
100
AcDbEntity
  8
JISSEN
100
AcDbLine
 10
267.0000823721836
 20
102.7804183817016
 30
0.0
 11
258.2500823721832
 21
102.7804183817002
 31
0.0
  0
LINE
  5
9D7
330
17
100
AcDbEntity
  8
JISSEN
100
AcDbLine
 10
256.7500823721831
 20
105.7804183816999
 30
0.0
 11
270.0000823721799
 21
105.7804183817022
 31
0.0
  0
LINE
  5
9D8
330
17
100
AcDbEntity
  8
JISSEN
100
AcDbLine
 10
258.2500823721832
 20
102.7804183817002
 30
0.0
 11
256.7500823721833
 21
104.2804183816995
 31
0.0
  0
LINE
  5
9D9
330
17
100
AcDbEntity
  8
JISSEN
100
AcDbLine
 10
256.7642153606171
 20
98.98041838170387
 30
0.0
 11
250.613925667274
 21
107.3202052549412
 31
0.0
  0
LINE
  5
9DA
330
17
100
AcDbEntity
  8
JISSEN
100
AcDbLine
 10
256.7500823721831
 20
105.7804183816994
 30
0.0
 11
256.7500823721833
 21
104.2804183816995
 31
0.0
  0
ARC
  5
9DB
330
17
100
AcDbEntity
  8
JISSEN
100
AcDbCircle
 10
257.4500823721825
 20
108.5945360593615
 30
0.0
 40
0.2
100
AcDbArc
 50
180.0000000000114
 51
270.0000000000065
1001
ACAD
1000
ASC_BOUNDS
1002
{
1070
    19
1002
}
  0
LINE
  5
9DC
330
17
100
AcDbEntity
  8
JISSEN
100
AcDbLine
 10
267.0000823721836
 20
102.7804183817015
 30
0.0
 11
270.0000823721836
 21
102.7804183817021
 31
0.0
  0
LINE
  5
9DD
330
17
100
AcDbEntity
  8
JISSEN
100
AcDbLine
 10
263.7500823721828
 20
106.9267580549633
 30
0.0
 11
267.5000823721799
 21
107.198954251007
 31
0.0
  0
LINE
  5
9DE
330
17
100
AcDbEntity
  8
JISSEN
100
AcDbLine
 10
263.750082372183
 20
105.780418381701
 30
0.0
 11
263.7500823721824
 21
108.3945360593626
 31
0.0
  0
LINE
  5
9DF
330
17
100
AcDbEntity
  8
JISSEN
100
AcDbLine
 10
260.4759885502139
 20
106.5630542154012
 30
0.0
 11
261.3119383357354
 21
106.0804183817016
 31
0.0
  0
LINE
  5
9E0
330
17
100
AcDbEntity
  8
JISSEN
100
AcDbLine
 10
261.5851434164924
 20
106.1536234624584
 30
0.0
 11
261.8775645563676
 21
106.6601117339297
 31
0.0
  0
LINE
  5
9E1
330
17
100
AcDbEntity
  8
JISSEN
100
AcDbLine
 10
261.8775645563672
 20
108.3945360593625
 30
0.0
 11
261.8775645563677
 21
105.7804183817008
 31
0.0
  0
ARC
  5
9E2
330
17
100
AcDbEntity
  8
JISSEN
100
AcDbCircle
 10
261.4119383357353
 20
106.2536234624585
 30
0.0
 40
0.2
100
AcDbArc
 50
240.0000000000111
 51
330.0000000000102
  0
ARC
  5
9E3
330
17
100
AcDbEntity
  8
JISSEN
100
AcDbCircle
 10
261.9127286669292
 20
107.4125562036401
 30
0.0
 40
1.0
100
AcDbArc
 50
100.8935918178659
 51
149.113415096416
  0
ARC
  5
9E4
330
17
100
AcDbEntity
  8
JISSEN
100
AcDbCircle
 10
260.5759885502138
 20
106.736259296158
 30
0.0
 40
0.2
100
AcDbArc
 50
149.1134150964273
 51
240.0000000000111
  0
LINE
  5
9E5
330
17
100
AcDbEntity
  8
JISSEN
100
AcDbLine
 10
261.0545435454115
 20
107.9258965363629
 30
0.0
 11
260.4043515259098
 21
106.8389273627029
 31
0.0
  0
LINE
  5
9E6
330
17
100
AcDbEntity
  8
JISSEN
100
AcDbLine
 10
267.5000823721799
 20
105.7804183817018
 30
0.0
 11
267.50008237218
 21
108.3945360593632
 31
0.0
  0
LINE
  5
9E7
330
17
100
AcDbEntity
  8
JISSEN
100
AcDbLine
 10
248.5938168829999
 20
122.980418381703
 30
0.0
 11
270.0000823721818
 21
122.980418381703
 31
0.0
  0
LINE
  5
9E8
330
17
100
AcDbEntity
  8
JISSEN
100
AcDbLine
 10
248.5938168829999
 20
123.980418381703
 30
0.0
 11
269.0000823721819
 21
123.980418381703
 31
0.0
  0
LINE
  5
9E9
330
17
100
AcDbEntity
  8
JISSEN
100
AcDbLine
 10
249.3269883721819
 20
121.480418381703
 30
0.0
 11
248.5938168829999
 21
121.480418381703
 31
0.0
  0
LINE
  5
9EA
330
17
100
AcDbEntity
  8
JISSEN
100
AcDbLine
 10
249.089341372182
 20
121.2628513817032
 30
0.0
 11
249.620095372182
 21
115.2434013817031
 31
0.0
  0
LINE
  5
9EB
330
17
100
AcDbEntity
  8
JISSEN
100
AcDbLine
 10
249.2416063721818
 20
114.4597473817031
 30
0.0
 11
250.6297053721818
 21
113.7295343817031
 31
0.0
  0
LINE
  5
9EC
330
17
100
AcDbEntity
  8
JISSEN
100
AcDbLine
 10
255.4708793555801
 20
110.1445360593635
 30
0.0
 11
248.5938168829999
 21
113.3780111544117
 31
0.0
1001
ACAD
1000
ASC_BOUNDS
1002
{
1070
    19
1002
}
  0
LINE
  5
9ED
330
17
100
AcDbEntity
  8
JISSEN
100
AcDbLine
 10
245.093816883
 20
124.980418381703
 30
0.0
 11
245.093816883
 21
112.6359572615366
 31
0.0
  0
LINE
  5
9EE
330
17
100
AcDbEntity
  8
JISSEN
100
AcDbLine
 10
248.5938168829999
 20
124.980418381703
 30
0.0
 11
248.5938168829999
 21
112.2396242734368
 31
0.0
  0
ARC
  5
9EF
330
17
100
AcDbEntity
  8
JISSEN
100
AcDbCircle
 10
249.040508372182
 20
114.7057763817032
 30
0.0
 40
1.0
100
AcDbArc
 50
245.1745949999999
 51
270.0
  0
LINE
  5
9F0
330
17
100
AcDbEntity
  8
JISSEN
100
AcDbLine
 10
249.040508372182
 20
113.7057763817032
 30
0.0
 11
249.1141833721818
 21
113.7057763817032
 31
0.0
  0
ARC
  5
9F1
330
17
100
AcDbEntity
  8
JISSEN
100
AcDbCircle
 10
249.1141833721818
 20
113.755776381703
 30
0.0
 40
0.05
100
AcDbArc
 50
270.0
 51
65.17459500000001
  0
LINE
  5
9F2
330
17
100
AcDbEntity
  8
JISSEN
100
AcDbLine
 10
249.1351753721819
 20
113.8011553817031
 30
0.0
 11
248.5938168829999
 21
114.0515896186971
 31
0.0
  0
LINE
  5
9F3
330
17
100
AcDbEntity
  8
JISSEN
100
AcDbLine
 10
248.5938168829999
 20
113.8105990328015
 30
0.0
 11
248.6206533721818
 21
113.7981843817031
 31
0.0
  0
ARC
  5
9F4
330
17
100
AcDbEntity
  8
JISSEN
100
AcDbCircle
 10
249.8468393721819
 20
115.6102663817031
 30
0.0
 40
1.3
100
AcDbArc
 50
195.449966128954
 51
242.2532620000001
  0
LINE
  5
9F5
330
17
100
AcDbEntity
  8
JISSEN
100
AcDbLine
 10
238.350082372182
 20
130.230418381703
 30
0.0
 11
236.1387575067748
 21
130.230418381703
 31
0.0
  0
LINE
  5
9F6
330
17
100
AcDbEntity
  8
JISSEN
100
AcDbLine
 10
236.1387575067748
 20
126.2304183817032
 30
0.0
 11
238.350082372182
 21
126.2304183817032
 31
0.0
  0
LINE
  5
9F7
330
17
100
AcDbEntity
  8
JISSEN
100
AcDbLine
 10
236.1387575067748
 20
130.230418381703
 30
0.0
 11
236.1387575067748
 21
126.2304183817032
 31
0.0
  0
LINE
  5
9F8
330
17
100
AcDbEntity
  8
JISSEN
100
AcDbLine
 10
235.850082372182
 20
129.7304183817032
 30
0.0
 11
235.850082372182
 21
126.7304183817032
 31
0.0
  0
LINE
  5
9F9
330
17
100
AcDbEntity
  8
JISSEN
100
AcDbLine
 10
235.850082372182
 20
129.7304183817032
 30
0.0
 11
236.1387575067748
 21
130.230418381703
 31
0.0
  0
LINE
  5
9FA
330
17
100
AcDbEntity
  8
JISSEN
100
AcDbLine
 10
235.850082372182
 20
126.7304183816996
 30
0.0
 11
236.1387575067748
 21
126.2304183817032
 31
0.0
  0
LINE
  5
9FB
330
17
100
AcDbEntity
  8
SAISEN
100
AcDbLine
 10
238.350082372182
 20
129.830418381703
 30
0.0
 11
235.9078173991004
 21
129.830418381703
 31
0.0
  0
LINE
  5
9FC
330
17
100
AcDbEntity
  8
SAISEN
100
AcDbLine
 10
235.9078173990988
 20
126.6304183817032
 30
0.0
 11
238.350082372182
 21
126.6304183817031
 31
0.0
  0
LINE
  5
9FD
330
17
100
AcDbEntity
  8
JISSEN
100
AcDbLine
 10
243.5000823721818
 20
123.980418381703
 30
0.0
 11
244.5000823721819
 21
122.980418381703
 31
0.0
  0
LINE
  5
9FE
330
17
100
AcDbEntity
  8
JISSEN
100
AcDbLine
 10
243.5000823721818
 20
123.980418381703
 30
0.0
 11
245.093816883
 21
123.980418381703
 31
0.0
  0
LINE
  5
9FF
330
17
100
AcDbEntity
  8
JISSEN
100
AcDbLine
 10
243.5000823721818
 20
124.980418381703
 30
0.0
 11
243.5000823721818
 21
123.980418381703
 31
0.0
  0
ARC
  5
A00
330
17
100
AcDbEntity
  8
JISSEN
100
AcDbCircle
 10
249.2885683721818
 20
121.280418381703
 30
0.0
 40
0.2
100
AcDbArc
 50
90.0
 51
185.0389269999999
  0
LINE
  5
A01
330
17
100
AcDbEntity
  8
JISSEN
100
AcDbLine
 10
244.5000823721819
 20
122.980418381703
 30
0.0
 11
245.093816883
 21
122.9804183817032
 31
0.0
  0
LINE
  5
A02
330
17
100
AcDbEntity
  8
JISSEN
100
AcDbLine
 10
244.5000823721819
 20
122.980418381703
 30
0.0
 11
245.093816883
 21
122.980418381703
 31
0.0
  0
LINE
  5
A03
330
17
100
AcDbEntity
  8
JISSEN
100
AcDbLine
 10
263.2582293721819
 20
114.881142381703
 30
0.0
 11
263.0187773721818
 21
121.287888381703
 31
0.0
  0
LINE
  5
A04
330
17
100
AcDbEntity
  8
JISSEN
100
AcDbLine
 10
260.6298773721819
 20
121.221717381703
 30
0.0
 11
260.8438553721819
 21
115.076877381703
 31
0.0
  0
LINE
  5
A05
330
17
100
AcDbEntity
  8
JISSEN
100
AcDbLine
 10
260.204135372182
 20
121.1692133817032
 30
0.0
 11
260.4309693721818
 21
115.1000653817032
 31
0.0
  0
LINE
  5
A06
330
17
100
AcDbEntity
  8
JISSEN
100
AcDbLine
 10
268.5000823721819
 20
120.980418381703
 30
0.0
 11
268.5000823721819
 21
114.183539381703
 31
0.0
  0
LINE
  5
A07
330
17
100
AcDbEntity
  8
JISSEN
100
AcDbLine
 10
250.0942733721819
 20
115.0579683817031
 30
0.0
 11
249.5261653721818
 21
121.298550381703
 31
0.0
  0
LINE
  5
A08
330
17
100
AcDbEntity
  8
JISSEN
100
AcDbLine
 10
255.3790613721818
 20
121.294432381703
 30
0.0
 11
255.8228683721818
 21
114.976166381703
 31
0.0
  0
LINE
  5
A09
330
17
100
AcDbEntity
  8
JISSEN
100
AcDbLine
 10
253.8938423721818
 20
121.160826381703
 30
0.0
 11
254.2864853721818
 21
115.1611953817031
 31
0.0
  0
LINE
  5
A0A
330
17
100
AcDbEntity
  8
JISSEN
100
AcDbLine
 10
253.4982053721818
 20
115.3538633817031
 30
0.0
 11
253.0941713721819
 21
121.1058933817031
 31
0.0
  0
LINE
  5
A0B
330
17
100
AcDbEntity
  8
JISSEN
100
AcDbLine
 10
270.0000823721818
 20
110.1445360593638
 30
0.0
 11
255.4708793555801
 21
110.1445360593635
 31
0.0
1001
ACAD
1000
ASC_BOUNDS
1002
{
1070
    19
1002
}
  0
LINE
  5
A0C
330
17
100
AcDbEntity
  8
JISSEN
100
AcDbLine
 10
255.9905883721818
 20
114.677848381703
 30
0.0
 11
257.0091833721818
 21
113.9559193817031
 31
0.0
  0
LINE
  5
A0D
330
17
100
AcDbEntity
  8
JISSEN
100
AcDbLine
 10
255.0044293721819
 20
113.7479873817032
 30
0.0
 11
254.0013633721819
 21
114.458909381703
 31
0.0
  0
LINE
  5
A0E
330
17
100
AcDbEntity
  8
JISSEN
100
AcDbLine
 10
251.858807372182
 20
113.8720413817031
 30
0.0
 11
250.3594323721818
 21
114.660791381703
 31
0.0
  0
ARC
  5
A0F
330
17
100
AcDbEntity
  8
JISSEN
100
AcDbCircle
 10
251.8122503721818
 20
113.7835393817032
 30
0.0
 40
0.1
100
AcDbArc
 50
270.0
 51
62.25326200000028
  0
ARC
  5
A10
330
17
100
AcDbEntity
  8
JISSEN
100
AcDbCircle
 10
250.8159313721818
 20
114.0835393817031
 30
0.0
 40
0.4
100
AcDbArc
 50
242.2532620000001
 51
270.0
  0
LINE
  5
A11
330
17
100
AcDbEntity
  8
JISSEN
100
AcDbLine
 10
250.8159313721818
 20
113.683539381703
 30
0.0
 11
251.8122503721818
 21
113.683539381703
 31
0.0
  0
LINE
  5
A12
330
17
100
AcDbEntity
  8
JISSEN
100
AcDbLine
 10
256.9224473721818
 20
113.683539381703
 30
0.0
 11
255.2068143721819
 21
113.683539381703
 31
0.0
  0
ARC
  5
A13
330
17
100
AcDbEntity
  8
JISSEN
100
AcDbCircle
 10
255.2068143721819
 20
114.0335393817032
 30
0.0
 40
0.35
100
AcDbArc
 50
234.6729319999993
 51
270.0
  0
ARC
  5
A14
330
17
100
AcDbEntity
  8
JISSEN
100
AcDbCircle
 10
256.9224473721818
 20
113.833539381703
 30
0.0
 40
0.15
100
AcDbArc
 50
270.0
 51
54.67293199999931
  0
ARC
  5
A15
330
17
100
AcDbEntity
  8
JISSEN
100
AcDbCircle
 10
254.6856313721818
 20
115.1873173817032
 30
0.0
 40
0.4
100
AcDbArc
 50
183.7443620000004
 51
270.0
  0
ARC
  5
A16
330
17
100
AcDbEntity
  8
JISSEN
100
AcDbCircle
 10
250.1181633721818
 20
115.2873173817032
 30
0.0
 40
0.5
100
AcDbArc
 50
185.0389269999999
 51
279.3495549999998
  0
ARC
  5
A17
330
17
100
AcDbEntity
  8
JISSEN
100
AcDbCircle
 10
254.6952553721819
 20
115.437946381703
 30
0.0
 40
1.199999999999999
100
AcDbArc
 50
184.0179690000002
 51
234.6729319999993
  0
ARC
  5
A18
330
17
100
AcDbEntity
  8
JISSEN
100
AcDbCircle
 10
250.5922143721818
 20
115.103298381703
 30
0.0
 40
0.5
100
AcDbArc
 50
185.201559
 51
242.2532620000001
  0
LINE
  5
A19
330
17
100
AcDbEntity
  8
JISSEN
100
AcDbLine
 10
254.6856313721818
 20
114.7873173817032
 30
0.0
 11
255.885783372182
 21
114.7873173817032
 31
0.0
  0
ARC
  5
A1A
330
17
100
AcDbEntity
  8
JISSEN
100
AcDbCircle
 10
256.221885372182
 20
115.004194381703
 30
0.0
 40
0.4
100
AcDbArc
 50
184.0179690000002
 51
234.6729319999993
  0
ARC
  5
A1B
330
17
100
AcDbEntity
  8
JISSEN
100
AcDbCircle
 10
269.0000823721819
 20
114.183539381703
 30
0.0
 40
0.5
100
AcDbArc
 50
180.0
 51
270.0
  0
LINE
  5
A1C
330
17
100
AcDbEntity
  8
JISSEN
100
AcDbLine
 10
263.8500953721818
 20
114.0036163817032
 30
0.0
 11
263.3181053721818
 21
114.712232381703
 31
0.0
  0
LINE
  5
A1D
330
17
100
AcDbEntity
  8
JISSEN
100
AcDbLine
 10
260.630557372182
 20
114.5370333817032
 30
0.0
 11
261.1813083721818
 21
113.8034253817032
 31
0.0
  0
ARC
  5
A1E
330
17
100
AcDbEntity
  8
JISSEN
100
AcDbCircle
 10
263.6901523721819
 20
113.883539381703
 30
0.0
 40
0.2
100
AcDbArc
 50
270.0
 51
36.89716199999995
  0
ARC
  5
A1F
330
17
100
AcDbEntity
  8
JISSEN
100
AcDbCircle
 10
261.4212233721818
 20
113.9835393817032
 30
0.0
 40
0.3
100
AcDbArc
 50
216.8971619999999
 51
270.0
  0
LINE
  5
A20
330
17
100
AcDbEntity
  8
JISSEN
100
AcDbLine
 10
261.4212233721818
 20
113.683539381703
 30
0.0
 11
263.6901523721819
 21
113.683539381703
 31
0.0
  0
LINE
  5
A21
330
17
100
AcDbEntity
  8
JISSEN
100
AcDbLine
 10
270.0000823721818
 20
113.683539381703
 30
0.0
 11
269.0000823721819
 21
113.683539381703
 31
0.0
  0
LINE
  5
A22
330
17
100
AcDbEntity
  8
JISSEN
100
AcDbLine
 10
261.143673372182
 20
114.7873173817032
 30
0.0
 11
263.2770063721819
 21
114.7873173817032
 31
0.0
  0
ARC
  5
A23
330
17
100
AcDbEntity
  8
JISSEN
100
AcDbCircle
 10
263.5580203721819
 20
114.892346381703
 30
0.0
 40
0.3
100
AcDbArc
 50
182.1404319999997
 51
216.8971619999999
  0
ARC
  5
A24
330
17
100
AcDbEntity
  8
JISSEN
100
AcDbCircle
 10
261.143673372182
 20
115.087317381703
 30
0.0
 40
0.3
100
AcDbArc
 50
181.994368
 51
270.0
  0
ARC
  5
A25
330
17
100
AcDbEntity
  8
JISSEN
100
AcDbCircle
 10
261.430271372182
 20
115.1374143817031
 30
0.0
 40
1.0
100
AcDbArc
 50
182.1404319999997
 51
216.8971619999999
  0
LINE
  5
A26
330
17
100
AcDbEntity
  8
JISSEN
100
AcDbLine
 10
269.0000823721819
 20
114.7873173817032
 30
0.0
 11
270.0000823721818
 21
114.7873173817032
 31
0.0
  0
ARC
  5
A27
330
17
100
AcDbEntity
  8
JISSEN
100
AcDbCircle
 10
269.0000823721819
 20
115.2873173817032
 30
0.0
 40
0.5
100
AcDbArc
 50
180.0
 51
270.0
  0
LINE
  5
A28
330
17
100
AcDbEntity
  8
JISSEN
100
AcDbLine
 10
254.1932013721818
 20
121.480418381703
 30
0.0
 11
255.1795523721819
 21
121.480418381703
 31
0.0
  0
ARC
  5
A29
330
17
100
AcDbEntity
  8
JISSEN
100
AcDbCircle
 10
254.1932013721818
 20
121.1804183817031
 30
0.0
 40
0.3
100
AcDbArc
 50
90.0
 51
183.7443620000004
  0
ARC
  5
A2A
330
17
100
AcDbEntity
  8
JISSEN
100
AcDbCircle
 10
253.4433103721819
 20
121.130418381703
 30
0.0
 40
0.35
100
AcDbArc
 50
90.0
 51
184.0179690000002
  0
LINE
  5
A2B
330
17
100
AcDbEntity
  8
JISSEN
100
AcDbLine
 10
253.4433103721819
 20
121.480418381703
 30
0.0
 11
254.1932013721818
 21
121.480418381703
 31
0.0
  0
ARC
  5
A2C
330
17
100
AcDbEntity
  8
JISSEN
100
AcDbCircle
 10
249.3269883721819
 20
121.280418381703
 30
0.0
 40
0.2
100
AcDbArc
 50
5.201559000000073
 51
90.0
  0
ARC
  5
A2D
330
17
100
AcDbEntity
  8
JISSEN
100
AcDbCircle
 10
255.1795523721819
 20
121.280418381703
 30
0.0
 40
0.2
100
AcDbArc
 50
4.017969000000253
 51
90.0
  0
ARC
  5
A2E
330
17
100
AcDbEntity
  8
JISSEN
100
AcDbCircle
 10
262.8189163721819
 20
121.280418381703
 30
0.0
 40
0.2
100
AcDbArc
 50
2.140431999999753
 51
90.0
  0
ARC
  5
A2F
330
17
100
AcDbEntity
  8
JISSEN
100
AcDbCircle
 10
260.8797253721819
 20
121.230418381703
 30
0.0
 40
0.25
100
AcDbArc
 50
90.0
 51
181.994368
  0
ARC
  5
A30
330
17
100
AcDbEntity
  8
JISSEN
100
AcDbCircle
 10
260.5039253721818
 20
121.1804183817031
 30
0.0
 40
0.3
100
AcDbArc
 50
90.0
 51
182.1404319999997
  0
LINE
  5
A31
330
17
100
AcDbEntity
  8
JISSEN
100
AcDbLine
 10
262.8189163721819
 20
121.480418381703
 30
0.0
 11
260.5039253721818
 21
121.480418381703
 31
0.0
  0
ARC
  5
A32
330
17
100
AcDbEntity
  8
JISSEN
100
AcDbCircle
 10
270.0000823721818
 20
123.980418381703
 30
0.0
 40
1.0
100
AcDbArc
 50
180.0
 51
270.0
  0
LINE
  5
A33
330
17
100
AcDbEntity
  8
JISSEN
100
AcDbLine
 10
270.0000823721818
 20
121.480418381703
 30
0.0
 11
269.0000823721819
 21
121.480418381703
 31
0.0
  0
ARC
  5
A34
330
17
100
AcDbEntity
  8
JISSEN
100
AcDbCircle
 10
269.0000823721819
 20
120.980418381703
 30
0.0
 40
0.5
100
AcDbArc
 50
90.0
 51
180.0
  0
LINE
  5
A35
330
17
100
AcDbEntity
  8
JISSEN
100
AcDbLine
 10
269.0000823721819
 20
124.980418381703
 30
0.0
 11
269.0000823721819
 21
123.980418381703
 31
0.0
  0
LINE
  5
A36
102
{ACAD_REACTORS
330
9CA
102
}
330
17
100
AcDbEntity
  8
JISSEN
100
AcDbLine
 10
259.4025764552331
 20
131.4804183817031
 30
0.0
 11
204.7240929784702
 21
131.4804183817031
 31
0.0
  0
LINE
  5
A37
102
{ACAD_REACTORS
330
9CA
102
}
330
17
100
AcDbEntity
  8
JISSEN
100
AcDbLine
 10
201.2663299450404
 20
136.480418381703
 30
0.0
 11
259.4650796351696
 21
136.4804183817031
 31
0.0
  0
LWPOLYLINE
  5
A38
102
{ACAD_REACTORS
330
9CA
102
}
330
17
100
AcDbEntity
  8
HATCH
100
AcDbPolyline
 90
       13
 70
     0
 43
0.0
 10
201.2663299450404
 20
136.480418381703
 10
201.4309171232904
 20
135.660781303471
 10
201.5728224799707
 20
135.1441633267068
 10
201.8005311171186
 20
134.725737040019
 10
202.1084186037779
 20
134.387620016352
 10
202.4746418927573
 20
134.0973689437019
 10
202.8773579368661
 20
133.8225405100645
 10
203.294723688913
 20
133.5306914034354
 10
203.7048961017068
 20
133.1893783118107
 10
204.0860321280565
 20
132.7661579231864
 10
204.4162887207709
 20
132.2285869255581
 10
204.6908687839736
 20
131.5649681382705
 10
204.7240929784702
 20
131.4804183817031
  0
LINE
  5
A39
330
17
100
AcDbEntity
  8
JISSEN
100
AcDbLine
 10
243.650082372182
 20
131.4804183817031
 30
0.0
 11
270.0000823721818
 21
131.4804183817031
 31
0.0
  0
LINE
  5
A3A
330
17
100
AcDbEntity
  8
JISSEN
100
AcDbLine
 10
243.350082372182
 20
131.4804183817032
 30
0.0
 11
238.350082372182
 21
131.4804183817032
 31
0.0
  0
LINE
  5
A3B
330
17
100
AcDbEntity
  8
SAISEN
100
AcDbLine
 10
260.5408493721818
 20
133.7211853817031
 30
0.0
 11
261.0333492189151
 21
149.4804183817068
 31
0.0
  0
LINE
  5
A3C
330
17
100
AcDbEntity
  8
JISSEN
100
AcDbLine
 10
259.8349376508171
 20
148.3152727370336
 30
0.0
 11
259.3413633721818
 21
132.521699381703
 31
0.0
  0
LINE
  5
A3D
330
17
100
AcDbEntity
  8
SAISEN
100
AcDbLine
 10
259.3413633721818
 20
132.521699381703
 30
0.0
 11
260.5408493721818
 21
133.7211853817031
 31
0.0
  0
LINE
  5
A3E
330
17
100
AcDbEntity
  8
JISSEN
100
AcDbLine
 10
270.0000823721818
 20
133.7211853817031
 30
0.0
 11
259.378849372182
 21
133.7211853817031
 31
0.0
  0
LINE
  5
A3F
102
{ACAD_REACTORS
330
9CA
102
}
330
17
100
AcDbEntity
  8
JISSEN
100
AcDbLine
 10
252.5000823721818
 20
136.480418381703
 30
0.0
 11
252.5000823721818
 21
131.4804183817031
 31
0.0
  0
LINE
  5
A40
330
17
100
AcDbEntity
  8
JISSEN
100
AcDbLine
 10
258.3000823721819
 20
131.4804183817031
 30
0.0
 11
259.3413633721818
 21
132.521699381703
 31
0.0
  0
LINE
  5
A41
330
17
100
AcDbEntity
  8
JISSEN
100
AcDbLine
 10
259.7381583721818
 20
148.2184933817068
 30
0.0
 11
261.0000823721819
 21
149.4804183817068
 31
0.0
  0
LINE
  5
A42
330
17
100
AcDbEntity
  8
JISSEN
100
AcDbLine
 10
259.7381583721818
 20
148.2184933817068
 30
0.0
 11
270.0000823721818
 21
148.2184933817068
 31
0.0
  0
LINE
  5
A43
330
17
100
AcDbEntity
  8
JISSEN
100
AcDbLine
 10
261.0000823721819
 20
149.4804183817068
 30
0.0
 11
270.0000823721818
 21
149.4804183817068
 31
0.0
  0
LINE
  5
A44
330
17
100
AcDbEntity
  8
JISSEN
100
AcDbLine
 10
295.1500823721819
 20
111.8834667089087
 30
0.0
 11
295.1500823721819
 21
131.4804183817031
 31
0.0
  0
LINE
  5
A45
330
17
100
AcDbEntity
  8
JISSEN
100
AcDbLine
 10
298.650082372182
 20
131.4804183817032
 30
0.0
 11
298.650082372182
 21
112.2621463653493
 31
0.0
  0
TEXT
  5
A46
330
17
100
AcDbEntity
  8
SUNPOU
100
AcDbText
 10
320.921341194683
 20
6.665259886405806
 30
0.0
 40
3.0
  1
MFJ   ガード取付状態
  7
K
100
AcDbText
  0
LINE
  5
A47
330
17
100
AcDbEntity
  8
TEXT
100
AcDbLine
 10
331.983277919449
 20
9.658761007125916
 30
0.0
 11
331.983277919449
 21
6.658761007125917
 31
0.0
  0
LINE
  5
A48
330
17
100
AcDbEntity
  8
TEXT
100
AcDbLine
 10
331.0832779194488
 20
9.658761007125916
 30
0.0
 11
331.0832779194488
 21
6.658761007125917
 31
0.0
  0
TEXT
  5
A49
330
17
100
AcDbEntity
  8
SUNPOU
100
AcDbText
 10
320.921341194683
 20
1.665259886405805
 30
0.0
 40
3.0
  1
尺度　1/1
  7
K
100
AcDbText
  0
LINE
  5
A4A
330
17
100
AcDbEntity
  8
TEXT
100
AcDbLine
 10
330.633277919449
 20
6.658761007125917
 30
0.0
 11
332.4332779194488
 21
6.658761007125917
 31
0.0
  0
CIRCLE
  5
A4B
330
17
100
AcDbEntity
  8
SUNPOU
100
AcDbCircle
 10
308.0289514007562
 20
99.18754559797994
 30
0.0
 40
6.0
  0
LINE
  5
A4C
330
17
100
AcDbEntity
  8
SUNPOU
100
AcDbLine
 10
298.650082372182
 20
121.8712823735263
 30
0.0
 11
323.2798248222645
 21
102.8543966641487
 31
0.0
  0
LINE
  5
A4D
330
17
100
AcDbEntity
  8
JISSEN
100
AcDbLine
 10
282.7500823721777
 20
110.1445360593638
 30
0.0
 11
282.7500823721774
 21
108.5945360593604
 31
0.0
1001
ACAD
1000
ASC_BOUNDS
1002
{
1070
    19
1002
}
  0
LINE
  5
A4E
330
17
100
AcDbEntity
  8
SUNPOU
100
AcDbLine
 10
288.7919866934026
 20
112.1487840302189
 30
0.0
 11
303.0530168492727
 21
102.5401677567314
 31
0.0
  0
ARC
  5
A4F
330
17
100
AcDbEntity
  8
JISSEN
100
AcDbCircle
 10
289.1500823721819
 20
111.8834667089087
 30
0.0
 40
6.0
100
AcDbArc
 50
315.0000000000048
 51
0.0
  0
ARC
  5
A50
330
17
100
AcDbEntity
  8
JISSEN
100
AcDbCircle
 10
291.650082372182
 20
112.2621463653493
 30
0.0
 40
7.0
100
AcDbArc
 50
315.0000000000003
 51
0.0
  0
ARC
  5
A51
330
17
100
AcDbEntity
  8
JISSEN
100
AcDbCircle
 10
270.5949887365383
 20
112.1055473423597
 30
0.0
 40
10.0
100
AcDbArc
 50
338.9999999999994
 51
0.0
  0
ARC
  5
A52
330
17
100
AcDbEntity
  8
JISSEN
100
AcDbCircle
 10
265.0949887365383
 20
110.3344839798579
 30
0.0
 40
12.0
100
AcDbArc
 50
338.9999999999994
 51
0.0
  0
LINE
  5
A53
330
17
100
AcDbEntity
  8
JISSEN
100
AcDbLine
 10
296.959491195981
 20
107.7003289707394
 30
0.0
 11
287.6339658486653
 21
96.84653490522002
 31
0.0
  0
LINE
  5
A54
330
17
100
AcDbEntity
  8
JISSEN
100
AcDbLine
 10
293.7506348279325
 20
108.0318544358613
 30
0.0
 11
285.8661988956993
 21
98.61430185818576
 31
0.0
  0
ARC
  5
A55
330
17
100
AcDbEntity
  8
JISSEN
100
AcDbCircle
 10
286.750082372182
 20
97.73041838170321
 30
0.0
 40
1.25
100
AcDbArc
 50
135.0000000000048
 51
315.0000000000003
  0
LINE
  5
A56
330
17
100
AcDbEntity
  8
JISSEN
100
AcDbLine
 10
277.7268570428445
 20
102.7804183817008
 30
0.0
 11
281.7500823721768
 21
102.7804183817002
 31
0.0
  0
LINE
  5
A57
330
17
100
AcDbEntity
  8
JISSEN
100
AcDbLine
 10
279.8819149077552
 20
108.3945360593622
 30
0.0
 11
282.5500823721773
 21
108.3945360593618
 31
0.0
1001
ACAD
1000
ASC_BOUNDS
1002
{
1070
    19
1002
}
  0
LINE
  5
A58
330
17
100
AcDbEntity
  8
JISSEN
100
AcDbLine
 10
283.2500823721768
 20
105.7804183816999
 30
0.0
 11
278.8784491479507
 21
105.7804183817007
 31
0.0
  0
LINE
  5
A59
330
17
100
AcDbEntity
  8
JISSEN
100
AcDbLine
 10
283.2500823721766
 20
104.2804183816995
 30
0.0
 11
278.3026530953971
 21
104.2804183816994
 31
0.0
  0
LINE
  5
A5A
330
17
100
AcDbEntity
  8
JISSEN
100
AcDbLine
 10
279.9307930015103
 20
108.5218678469066
 30
0.0
 11
276.2681737097108
 21
98.98041838170314
 31
0.0
  0
LINE
  5
A5B
330
17
100
AcDbEntity
  8
JISSEN
100
AcDbLine
 10
273.5903112256181
 20
98.98041838170314
 30
0.0
 11
276.2979538545048
 21
106.0340685853142
 31
0.0
  0
LINE
  5
A5C
330
17
100
AcDbEntity
  8
JISSEN
100
AcDbLine
 10
276.2681737097108
 20
98.98041838170314
 30
0.0
 11
273.5903112256181
 21
98.98041838170314
 31
0.0
  0
LINE
  5
A5D
330
17
100
AcDbEntity
  8
JISSEN
100
AcDbLine
 10
273.0000823721763
 20
102.7804183817016
 30
0.0
 11
275.0489945587521
 21
102.7804183817012
 31
0.0
  0
LINE
  5
A5E
330
17
100
AcDbEntity
  8
JISSEN
100
AcDbLine
 10
276.250082372177
 20
106.9267580549633
 30
0.0
 11
272.5000823721799
 21
107.198954251007
 31
0.0
  0
LINE
  5
A5F
330
17
100
AcDbEntity
  8
JISSEN
100
AcDbLine
 10
272.5000823721799
 20
105.7804183817018
 30
0.0
 11
272.5000823721799
 21
108.3945360593632
 31
0.0
  0
LINE
  5
A60
330
17
100
AcDbEntity
  8
JISSEN
100
AcDbLine
 10
279.524176194146
 20
106.5630542154012
 30
0.0
 11
279.0805585866344
 21
106.3069314702873
 31
0.0
  0
LINE
  5
A61
330
17
100
AcDbEntity
  8
JISSEN
100
AcDbLine
 10
276.2500823721769
 20
105.9093591101912
 30
0.0
 11
276.2500823721774
 21
108.3945360593626
 31
0.0
  0
ARC
  5
A62
330
17
100
AcDbEntity
  8
JISSEN
100
AcDbCircle
 10
279.424176194146
 20
106.736259296158
 30
0.0
 40
0.2
100
AcDbArc
 50
299.9999999999887
 51
30.88658490357251
  0
LINE
  5
A63
330
17
100
AcDbEntity
  8
JISSEN
100
AcDbLine
 10
279.4063543226345
 20
107.1556583794647
 30
0.0
 11
279.59581321845
 21
106.8389273627029
 31
0.0
  0
LINE
  5
A64
330
17
100
AcDbEntity
  8
JISSEN
100
AcDbLine
 10
281.7500823721768
 20
102.7804183817002
 30
0.0
 11
283.2500823721766
 21
104.2804183816995
 31
0.0
  0
LINE
  5
A65
330
17
100
AcDbEntity
  8
JISSEN
100
AcDbLine
 10
283.2500823721768
 20
105.7804183816994
 30
0.0
 11
283.2500823721766
 21
104.2804183816995
 31
0.0
  0
ARC
  5
A66
330
17
100
AcDbEntity
  8
JISSEN
100
AcDbCircle
 10
282.5500823721773
 20
108.5945360593615
 30
0.0
 40
0.2
100
AcDbArc
 50
269.9999999999902
 51
359.9999999999884
1001
ACAD
1000
ASC_BOUNDS
1002
{
1070
    19
1002
}
  0
TEXT
  5
A67
330
17
100
AcDbEntity
  8
SUNPOU
100
AcDbText
 10
307.493237115042
 20
96.93754559797994
 30
0.0
 40
4.5
  1
1
  7
K
 72
     4
 11
308.0289514007562
 21
99.18754559797994
 31
0.0
100
AcDbText
  0
ARC
  5
A68
330
17
100
AcDbEntity
  8
JISSEN
100
AcDbCircle
 10
291.5750233721818
 20
121.0804183817032
 30
0.0
 40
0.4
100
AcDbArc
 50
354.5938149999996
 51
90.0
  0
LINE
  5
A69
330
17
100
AcDbEntity
  8
JISSEN
100
AcDbLine
 10
291.9732443721819
 20
121.042731381703
 30
0.0
 11
291.4475423721818
 21
115.4877853817031
 31
0.0
  0
LINE
  5
A6A
330
17
100
AcDbEntity
  8
JISSEN
100
AcDbLine
 10
295.1500823721819
 20
123.980418381703
 30
0.0
 11
280.5949887365383
 21
123.980418381703
 31
0.0
  0
LINE
  5
A6B
330
17
100
AcDbEntity
  8
JISSEN
100
AcDbLine
 10
295.1500823721819
 20
122.980418381703
 30
0.0
 11
280.5949887365383
 21
122.980418381703
 31
0.0
  0
LINE
  5
A6C
330
17
100
AcDbEntity
  8
JISSEN
100
AcDbLine
 10
292.8464093721818
 20
114.476776381703
 30
0.0
 11
291.3795113721818
 21
113.7981843817031
 31
0.0
  0
LINE
  5
A6D
330
17
100
AcDbEntity
  8
JISSEN
100
AcDbLine
 10
290.8649893721818
 20
113.8011553817031
 30
0.0
 11
292.3768483721818
 21
114.500546381703
 31
0.0
  0
LINE
  5
A6E
330
17
100
AcDbEntity
  8
JISSEN
100
AcDbLine
 10
284.5292853887837
 20
110.1445360593635
 30
0.0
 11
293.0546879980213
 21
114.153032001074
 31
0.0
1001
ACAD
1000
ASC_BOUNDS
1002
{
1070
    19
1002
}
  0
LINE
  5
A6F
330
17
100
AcDbEntity
  8
JISSEN
100
AcDbLine
 10
280.5949887365383
 20
124.980418381703
 30
0.0
 11
280.5949887365383
 21
112.1055473423597
 31
0.0
  0
LINE
  5
A70
330
17
100
AcDbEntity
  8
JISSEN
100
AcDbLine
 10
277.0949887365383
 20
110.3344839798579
 30
0.0
 11
277.0949887365383
 21
124.980418381703
 31
0.0
  0
LINE
  5
A71
330
17
100
AcDbEntity
  8
JISSEN
100
AcDbLine
 10
290.9108233721818
 20
121.2628513817032
 30
0.0
 11
290.3800693721819
 21
115.2434013817031
 31
0.0
  0
LINE
  5
A72
330
17
100
AcDbEntity
  8
JISSEN
100
AcDbLine
 10
289.9058913721818
 20
115.0579683817031
 30
0.0
 11
290.4739993721818
 21
121.298550381703
 31
0.0
  0
LINE
  5
A73
330
17
100
AcDbEntity
  8
JISSEN
100
AcDbLine
 10
276.7419353721819
 20
114.881142381703
 30
0.0
 11
276.9813873721818
 21
121.287888381703
 31
0.0
  0
LINE
  5
A74
330
17
100
AcDbEntity
  8
JISSEN
100
AcDbLine
 10
286.5019593721818
 20
115.3538633817031
 30
0.0
 11
286.9059933721819
 21
121.1058933817031
 31
0.0
  0
LINE
  5
A75
330
17
100
AcDbEntity
  8
JISSEN
100
AcDbLine
 10
286.1063223721818
 20
121.160826381703
 30
0.0
 11
285.7136793721819
 21
115.1611953817031
 31
0.0
  0
LINE
  5
A76
330
17
100
AcDbEntity
  8
JISSEN
100
AcDbLine
 10
284.6211033721818
 20
121.294432381703
 30
0.0
 11
284.1772963721819
 21
114.976166381703
 31
0.0
  0
LINE
  5
A77
330
17
100
AcDbEntity
  8
JISSEN
100
AcDbLine
 10
271.5000823721819
 20
120.980418381703
 30
0.0
 11
271.5000823721819
 21
114.183539381703
 31
0.0
  0
LINE
  5
A78
330
17
100
AcDbEntity
  8
JISSEN
100
AcDbLine
 10
280.4008255059304
 20
110.1445360593636
 30
0.0
 11
284.5292853887837
 21
110.1445360593635
 31
0.0
1001
ACAD
1000
ASC_BOUNDS
1002
{
1070
    19
1002
}
  0
LINE
  5
A79
330
17
100
AcDbEntity
  8
JISSEN
100
AcDbLine
 10
276.1500693721819
 20
114.0036163817032
 30
0.0
 11
276.6820593721818
 21
114.712232381703
 31
0.0
  0
ARC
  5
A7A
330
17
100
AcDbEntity
  8
JISSEN
100
AcDbCircle
 10
271.0000823721819
 20
114.183539381703
 30
0.0
 40
0.5
100
AcDbArc
 50
270.0
 51
0.000000000000007
  0
LINE
  5
A7B
330
17
100
AcDbEntity
  8
JISSEN
100
AcDbLine
 10
277.0949887365383
 20
113.683539381703
 30
0.0
 11
276.3100123721819
 21
113.683539381703
 31
0.0
  0
ARC
  5
A7C
330
17
100
AcDbEntity
  8
JISSEN
100
AcDbCircle
 10
276.3100123721819
 20
113.883539381703
 30
0.0
 40
0.2
100
AcDbArc
 50
143.1028379999999
 51
270.0
  0
ARC
  5
A7D
330
17
100
AcDbEntity
  8
JISSEN
100
AcDbCircle
 10
271.0000823721819
 20
115.2873173817032
 30
0.0
 40
0.5
100
AcDbArc
 50
270.0
 51
0.000000000000007
  0
LINE
  5
A7E
330
17
100
AcDbEntity
  8
JISSEN
100
AcDbLine
 10
277.0949887365383
 20
114.7873173817032
 30
0.0
 11
276.7231583721819
 21
114.7873173817032
 31
0.0
  0
ARC
  5
A7F
330
17
100
AcDbEntity
  8
JISSEN
100
AcDbCircle
 10
276.4421443721818
 20
114.892346381703
 30
0.0
 40
0.3
100
AcDbArc
 50
323.1028379999999
 51
357.8595680000001
  0
LINE
  5
A80
330
17
100
AcDbEntity
  8
JISSEN
100
AcDbLine
 10
290.7585583721818
 20
114.4597473817031
 30
0.0
 11
289.3704593721818
 21
113.7295343817031
 31
0.0
  0
LINE
  5
A81
330
17
100
AcDbEntity
  8
JISSEN
100
AcDbLine
 10
288.1413573721819
 20
113.8720413817031
 30
0.0
 11
289.6407323721819
 21
114.660791381703
 31
0.0
  0
LINE
  5
A82
330
17
100
AcDbEntity
  8
JISSEN
100
AcDbLine
 10
284.9957353721819
 20
113.7479873817032
 30
0.0
 11
285.9988013721819
 21
114.458909381703
 31
0.0
  0
LINE
  5
A83
330
17
100
AcDbEntity
  8
JISSEN
100
AcDbLine
 10
284.0095763721818
 20
114.677848381703
 30
0.0
 11
282.9909813721819
 21
113.9559193817031
 31
0.0
  0
LINE
  5
A84
330
17
100
AcDbEntity
  8
JISSEN
100
AcDbLine
 10
283.0777173721818
 20
113.683539381703
 30
0.0
 11
284.7933503721819
 21
113.683539381703
 31
0.0
  0
ARC
  5
A85
330
17
100
AcDbEntity
  8
JISSEN
100
AcDbCircle
 10
284.7933503721819
 20
114.0335393817032
 30
0.0
 40
0.35
100
AcDbArc
 50
270.0
 51
305.3270680000006
  0
ARC
  5
A86
330
17
100
AcDbEntity
  8
JISSEN
100
AcDbCircle
 10
283.0777173721818
 20
113.833539381703
 30
0.0
 40
0.15
100
AcDbArc
 50
125.3270680000005
 51
270.0
  0
INSERT
  5
A87
330
17
100
AcDbEntity
  8
SUNPOU
100
AcDbBlockReference
  2
ARROW
 10
288.7919866934026
 20
112.1487840302189
 30
0.0
 41
1.500000000000006
 42
1.5
 43
1.5
 50
146.0291974830136
  0
ARC
  5
A88
330
17
100
AcDbEntity
  8
JISSEN
100
AcDbCircle
 10
290.8859813721818
 20
113.755776381703
 30
0.0
 40
0.05
100
AcDbArc
 50
114.8254049999999
 51
270.0
  0
LINE
  5
A89
330
17
100
AcDbEntity
  8
JISSEN
100
AcDbLine
 10
290.9596563721819
 20
113.7057763817032
 30
0.0
 11
290.8859813721818
 21
113.7057763817032
 31
0.0
  0
ARC
  5
A8A
330
17
100
AcDbEntity
  8
JISSEN
100
AcDbCircle
 10
290.9596563721819
 20
114.7057763817032
 30
0.0
 40
1.0
100
AcDbArc
 50
270.0
 51
294.825405
  0
LINE
  5
A8B
330
17
100
AcDbEntity
  8
JISSEN
100
AcDbLine
 10
289.1842333721819
 20
113.683539381703
 30
0.0
 11
288.1879143721818
 21
113.683539381703
 31
0.0
  0
ARC
  5
A8C
330
17
100
AcDbEntity
  8
JISSEN
100
AcDbCircle
 10
289.1842333721819
 20
114.0835393817031
 30
0.0
 40
0.4
100
AcDbArc
 50
270.0
 51
297.7467379999997
  0
ARC
  5
A8D
330
17
100
AcDbEntity
  8
JISSEN
100
AcDbCircle
 10
288.1879143721818
 20
113.7835393817032
 30
0.0
 40
0.1
100
AcDbArc
 50
117.7467379999997
 51
270.0
  0
ARC
  5
A8E
330
17
100
AcDbEntity
  8
JISSEN
100
AcDbCircle
 10
285.3049093721819
 20
115.437946381703
 30
0.0
 40
1.199999999999999
100
AcDbArc
 50
305.3270680000006
 51
355.9820309999997
  0
LINE
  5
A8F
330
17
100
AcDbEntity
  8
JISSEN
100
AcDbLine
 10
285.3145333721818
 20
114.7873173817032
 30
0.0
 11
284.1143813721818
 21
114.7873173817032
 31
0.0
  0
ARC
  5
A90
330
17
100
AcDbEntity
  8
JISSEN
100
AcDbCircle
 10
283.7782793721818
 20
115.004194381703
 30
0.0
 40
0.4
100
AcDbArc
 50
305.3270680000006
 51
355.9820309999997
  0
ARC
  5
A91
330
17
100
AcDbEntity
  8
JISSEN
100
AcDbCircle
 10
285.3145333721818
 20
115.1873173817032
 30
0.0
 40
0.4
100
AcDbArc
 50
270.0
 51
356.2556379999994
  0
ARC
  5
A92
330
17
100
AcDbEntity
  8
JISSEN
100
AcDbCircle
 10
289.8820013721818
 20
115.2873173817032
 30
0.0
 40
0.5
100
AcDbArc
 50
260.650445
 51
354.9610729999999
  0
ARC
  5
A93
330
17
100
AcDbEntity
  8
JISSEN
100
AcDbCircle
 10
290.1533253721818
 20
115.6102663817031
 30
0.0
 40
1.3
100
AcDbArc
 50
297.7467379999997
 51
354.5938149999996
  0
ARC
  5
A94
330
17
100
AcDbEntity
  8
JISSEN
100
AcDbCircle
 10
289.4079503721819
 20
115.103298381703
 30
0.0
 40
0.5
100
AcDbArc
 50
297.7467379999997
 51
354.7984409999998
  0
LINE
  5
A95
330
17
100
AcDbEntity
  8
JISSEN
100
AcDbLine
 10
277.0949887365383
 20
123.980418381703
 30
0.0
 11
271.0000823721819
 21
123.980418381703
 31
0.0
  0
ARC
  5
A96
330
17
100
AcDbEntity
  8
JISSEN
100
AcDbCircle
 10
271.0000823721819
 20
120.980418381703
 30
0.0
 40
0.5
100
AcDbArc
 50
0.000000000000007
 51
90.0
  0
LINE
  5
A97
330
17
100
AcDbEntity
  8
JISSEN
100
AcDbLine
 10
271.0000823721819
 20
124.980418381703
 30
0.0
 11
271.0000823721819
 21
123.980418381703
 31
0.0
  0
ARC
  5
A98
330
17
100
AcDbEntity
  8
JISSEN
100
AcDbCircle
 10
277.1812483721818
 20
121.280418381703
 30
0.0
 40
0.2
100
AcDbArc
 50
115.5499740378479
 51
177.8595680000002
  0
LINE
  5
A99
330
17
100
AcDbEntity
  8
JISSEN
100
AcDbLine
 10
286.5568543721818
 20
121.480418381703
 30
0.0
 11
285.8069633721818
 21
121.480418381703
 31
0.0
  0
LINE
  5
A9A
330
17
100
AcDbEntity
  8
JISSEN
100
AcDbLine
 10
285.8069633721818
 20
121.480418381703
 30
0.0
 11
284.8206123721818
 21
121.480418381703
 31
0.0
  0
ARC
  5
A9B
330
17
100
AcDbEntity
  8
JISSEN
100
AcDbCircle
 10
284.8206123721818
 20
121.280418381703
 30
0.0
 40
0.2
100
AcDbArc
 50
90.0
 51
175.9820309999996
  0
ARC
  5
A9C
330
17
100
AcDbEntity
  8
JISSEN
100
AcDbCircle
 10
285.8069633721818
 20
121.1804183817031
 30
0.0
 40
0.3
100
AcDbArc
 50
356.2556379999994
 51
90.0
  0
ARC
  5
A9D
330
17
100
AcDbEntity
  8
JISSEN
100
AcDbCircle
 10
290.7115963721818
 20
121.280418381703
 30
0.0
 40
0.2
100
AcDbArc
 50
354.9610729999999
 51
90.0
  0
LINE
  5
A9E
330
17
100
AcDbEntity
  8
JISSEN
100
AcDbLine
 10
290.6731763721818
 20
121.480418381703
 30
0.0
 11
291.5750233721818
 21
121.480418381703
 31
0.0
  0
ARC
  5
A9F
330
17
100
AcDbEntity
  8
JISSEN
100
AcDbCircle
 10
290.6731763721818
 20
121.280418381703
 30
0.0
 40
0.2
100
AcDbArc
 50
90.0
 51
174.7984409999999
  0
ARC
  5
AA0
330
17
100
AcDbEntity
  8
JISSEN
100
AcDbCircle
 10
286.5568543721818
 20
121.130418381703
 30
0.0
 40
0.35
100
AcDbArc
 50
355.9820309999997
 51
90.0
  0
LINE
  5
AA1
330
17
100
AcDbEntity
  8
JISSEN
100
AcDbLine
 10
293.1235733721819
 20
115.5413163817031
 30
0.0
 11
293.7555043721819
 21
121.413354381703
 31
0.0
  0
LINE
  5
AA2
330
17
100
AcDbEntity
  8
JISSEN
100
AcDbLine
 10
294.2384063721819
 20
121.0598543817031
 30
0.0
 11
293.6505763721818
 21
115.597605381703
 31
0.0
  0
LINE
  5
AA3
330
17
100
AcDbEntity
  8
JISSEN
100
AcDbLine
 10
294.4688493721818
 20
121.480418381703
 30
0.0
 11
293.9484953721818
 21
115.532741381703
 31
0.0
  0
ARC
  5
AA4
330
17
100
AcDbEntity
  8
JISSEN
100
AcDbCircle
 10
292.4542030426446
 20
115.5275929558397
 30
0.0
 40
1.5
100
AcDbArc
 50
290.0
 51
355.0000000000001
  0
ARC
  5
AA5
330
17
100
AcDbEntity
  8
JISSEN
100
AcDbCircle
 10
291.8310373721818
 20
115.680415381703
 30
0.0
 40
1.3
100
AcDbArc
 50
294.825405
 51
353.8576429999998
  0
ARC
  5
AA6
330
17
100
AcDbEntity
  8
JISSEN
100
AcDbCircle
 10
292.2586133721819
 20
115.7474043817032
 30
0.0
 40
1.399999999999999
100
AcDbArc
 50
294.825405
 51
353.8576429999998
  0
LINE
  5
AA7
330
17
100
AcDbEntity
  8
JISSEN
100
AcDbLine
 10
295.1500823721819
 20
122.980418381703
 30
0.0
 11
294.6000823721819
 21
122.980418381703
 31
0.0
  0
ARC
  5
AA8
330
17
100
AcDbEntity
  8
JISSEN
100
AcDbCircle
 10
293.8407033721819
 20
121.102654381703
 30
0.0
 40
0.4
100
AcDbArc
 50
353.8576429999998
 51
88.64114500000095
  0
ARC
  5
AA9
330
17
100
AcDbEntity
  8
JISSEN
100
AcDbCircle
 10
293.8549303721819
 20
121.402654381703
 30
0.0
 40
0.1
100
AcDbArc
 50
92.7179019999998
 51
173.8576429999997
  0
LINE
  5
AAA
330
17
100
AcDbEntity
  8
JISSEN
100
AcDbLine
 10
294.6000823721819
 20
122.980418381703
 30
0.0
 11
294.4688493721818
 21
121.480418381703
 31
0.0
  0
INSERT
  5
AAB
330
17
100
AcDbEntity
  8
SUNPOU
100
AcDbBlockReference
  2
ARROW
 10
298.650082372182
 20
121.8712823735262
 30
0.0
 41
1.499999999999991
 42
1.5
 43
1.5
 50
142.3278883834792
  0
CIRCLE
  5
AAC
330
17
100
AcDbEntity
  8
SUNPOU
100
AcDbCircle
 10
328.0289514007562
 20
99.18754559797994
 30
0.0
 40
6.0
  0
TEXT
  5
AAD
330
17
100
AcDbEntity
  8
SUNPOU
100
AcDbText
 10
326.5289514007562
 20
96.93754559797994
 30
0.0
 40
4.5
  1
2
  7
K
 72
     4
 11
328.0289514007562
 21
99.18754559797994
 31
0.0
100
AcDbText
  0
LINE
  5
AAE
330
17
100
AcDbEntity
  8
TEXT
100
AcDbLine
 10
330.633277919449
 20
9.658761007125916
 30
0.0
 11
332.4332779194488
 21
9.658761007125916
 31
0.0
  0
LINE
  5
AAF
102
{ACAD_REACTORS
330
9CA
102
}
330
17
100
AcDbEntity
  8
JISSEN
100
AcDbLine
 10
280.5975882891308
 20
131.4804183817032
 30
0.0
 11
335.2759048898614
 21
131.4804183817031
 31
0.0
  0
LINE
  5
AB0
102
{ACAD_REACTORS
330
9CA
102
}
330
17
100
AcDbEntity
  8
JISSEN
100
AcDbLine
 10
338.7336679232912
 20
136.480418381703
 30
0.0
 11
280.5350851091942
 21
136.480418381703
 31
0.0
  0
LINE
  5
AB1
330
17
100
AcDbEntity
  8
JISSEN
100
AcDbLine
 10
280.1652270935468
 20
148.3152727370336
 30
0.0
 11
280.6588013721817
 21
132.521699381703
 31
0.0
  0
LINE
  5
AB2
330
17
100
AcDbEntity
  8
SAISEN
100
AcDbLine
 10
279.4593153721819
 20
133.7211853817031
 30
0.0
 11
278.9668155254486
 21
149.4804183817068
 31
0.0
  0
LINE
  5
AB3
330
17
100
AcDbEntity
  8
JISSEN
100
AcDbLine
 10
281.7000823721818
 20
131.4804183817031
 30
0.0
 11
280.6588013721817
 21
132.521699381703
 31
0.0
  0
LINE
  5
AB4
330
17
100
AcDbEntity
  8
SAISEN
100
AcDbLine
 10
280.6588013721817
 20
132.521699381703
 30
0.0
 11
279.4593153721819
 21
133.7211853817031
 31
0.0
  0
LINE
  5
AB5
102
{ACAD_REACTORS
330
9CA
102
}
330
17
100
AcDbEntity
  8
JISSEN
100
AcDbLine
 10
287.5000823721819
 20
136.480418381703
 30
0.0
 11
287.5000823721819
 21
131.4804183817032
 31
0.0
  0
LINE
  5
AB6
330
17
100
AcDbEntity
  8
JISSEN
100
AcDbLine
 10
280.2620063721818
 20
148.2184933817068
 30
0.0
 11
279.0000823721819
 21
149.4804183817068
 31
0.0
  0
LWPOLYLINE
  5
AB7
102
{ACAD_REACTORS
330
9CA
102
}
330
17
100
AcDbEntity
  8
HATCH
100
AcDbPolyline
 90
       13
 70
     0
 43
0.0
 10
338.7336679232912
 20
136.480418381703
 10
338.5690807450413
 20
135.660781303471
 10
338.4271753883611
 20
135.1441633267068
 10
338.1994667512131
 20
134.725737040019
 10
337.8915792645539
 20
134.387620016352
 10
337.5253559755743
 20
134.0973689437019
 10
337.1226399314656
 20
133.8225405100645
 10
336.7052741794188
 20
133.5306914034354
 10
336.295101766625
 20
133.1893783118107
 10
335.9139657402753
 20
132.7661579231864
 10
335.5837091475608
 20
132.2285869255581
 10
335.3091290843581
 20
131.5649681382705
 10
335.2759048898614
 20
131.4804183817032
  0
TEXT
  5
AB8
330
17
100
AcDbEntity
  8
TEXT
100
AcDbText
 10
345.6999982101657
 20
268.5000002903306
 30
0.0
 40
3.0
  1
備    考
  7
K
 72
     4
 11
352.4999982101657
 21
270.0000002903306
 31
0.0
100
AcDbText
  0
LINE
  5
AB9
330
17
100
AcDbEntity
  8
JISSEN
100
AcDbLine
 10
271.4999982101658
 20
267.0000002903305
 30
0.0
 11
360.9999982101658
 21
267.0000002903305
 31
0.0
  0
LINE
  5
ABA
330
17
100
AcDbEntity
  8
JISSEN
100
AcDbLine
 10
271.4999982101658
 20
261.0000002903305
 30
0.0
 11
360.9999982101658
 21
261.0000002903305
 31
0.0
  0
LINE
  5
ABB
330
17
100
AcDbEntity
  8
JISSEN
100
AcDbLine
 10
271.4999982101658
 20
255.0000002903305
 30
0.0
 11
360.9999982101658
 21
255.0000002903305
 31
0.0
  0
LINE
  5
ABC
330
17
100
AcDbEntity
  8
JISSEN
100
AcDbLine
 10
311.4999982101658
 20
273.0000002903306
 30
0.0
 11
311.4999982101658
 21
255.0000002903305
 31
0.0
  0
LINE
  5
ABD
330
17
100
AcDbEntity
  8
JISSEN
100
AcDbLine
 10
332.4999982101658
 20
255.0000002903305
 30
0.0
 11
332.4999982101658
 21
273.0000002903306
 31
0.0
  0
LINE
  5
ABE
330
17
100
AcDbEntity
  8
JISSEN
100
AcDbLine
 10
343.4999982101658
 20
273.0000002903306
 30
0.0
 11
343.4999982101658
 21
255.0000002903305
 31
0.0
  0
TEXT
  5
ABF
330
17
100
AcDbEntity
  8
TEXT
100
AcDbText
 10
337.536689553718
 20
262.5000002903306
 30
0.0
 40
3.0
  1
1
  7
K
 72
     4
 11
337.8938324108608
 21
264.0000002903306
 31
0.0
100
AcDbText
  0
LINE
  5
AC0
330
17
100
AcDbEntity
  8
JISSEN
100
AcDbLine
 10
271.4999982101658
 20
255.0000002903305
 30
0.0
 11
271.4999982101658
 21
273.0000002903306
 31
0.0
  0
LINE
  5
AC1
330
17
100
AcDbEntity
  8
JISSEN
100
AcDbLine
 10
281.4999982101658
 20
273.0000002903306
 30
0.0
 11
281.4999982101658
 21
255.0000002903305
 31
0.0
  0
TEXT
  5
AC2
330
17
100
AcDbEntity
  8
TEXT
100
AcDbText
 10
276.1428553530229
 20
262.5000002903306
 30
0.0
 40
3.0
  1
1
  7
K
 72
     4
 11
276.4999982101658
 21
264.0000002903306
 31
0.0
100
AcDbText
  0
LINE
  5
AC3
330
17
100
AcDbEntity
  8
TEXT
100
AcDbLine
 10
292.5097966514941
 20
265.500037214232
 30
0.0
 11
292.5097966514941
 21
262.500037214232
 31
0.0
  0
LINE
  5
AC4
330
17
100
AcDbEntity
  8
TEXT
100
AcDbLine
 10
293.4097966514941
 20
265.500037214232
 30
0.0
 11
293.4097966514941
 21
262.500037214232
 31
0.0
  0
TEXT
  5
AC5
330
17
100
AcDbEntity
  8
TEXT
100
AcDbText
 10
283.0571410673087
 20
262.5000002903306
 30
0.0
 40
3.0
  1
MFJ   型ヘッド
  7
K
 72
     4
 11
296.4999982101658
 21
264.0000002903306
 31
0.0
100
AcDbText
  0
TEXT
  5
AC6
330
17
100
AcDbEntity
  8
TEXT
100
AcDbText
 10
284.2571410673087
 20
256.5000002903305
 30
0.0
 40
3.0
  1
ガード MFJ  
  7
K
 72
     4
 11
296.4999982101658
 21
258.0000002903306
 31
0.0
100
AcDbText
  0
TEXT
  5
AC7
330
17
100
AcDbEntity
  8
TEXT
100
AcDbText
 10
275.8116420442715
 20
256.5000002903305
 30
0.0
 40
3.0
  1
2
  7
K
 72
     4
 11
276.8116420442715
 21
258.0000002903306
 31
0.0
100
AcDbText
  0
LINE
  5
AC8
330
17
100
AcDbEntity
  8
TEXT
100
AcDbLine
 10
292.0597966514942
 20
262.500037214232
 30
0.0
 11
293.8597966514941
 21
262.500037214232
 31
0.0
  0
LINE
  5
AC9
330
17
100
AcDbEntity
  8
TEXT
100
AcDbLine
 10
306.2404864971948
 20
259.500037214232
 30
0.0
 11
306.2404864971948
 21
256.500037214232
 31
0.0
  0
LINE
  5
ACA
330
17
100
AcDbEntity
  8
TEXT
100
AcDbLine
 10
307.1404864971948
 20
259.500037214232
 30
0.0
 11
307.1404864971948
 21
256.500037214232
 31
0.0
  0
LINE
  5
ACB
330
17
100
AcDbEntity
  8
TEXT
100
AcDbLine
 10
305.7904864971948
 20
256.500037214232
 30
0.0
 11
307.5904864971949
 21
256.500037214232
 31
0.0
  0
LINE
  5
ACC
330
17
100
AcDbEntity
  8
TEXT
100
AcDbLine
 10
305.7904864971948
 20
259.500037214232
 30
0.0
 11
307.5904864971949
 21
259.500037214232
 31
0.0
  0
TEXT
  5
ACD
330
17
100
AcDbEntity
  8
TEXT
100
AcDbText
 10
317.8571410673086
 20
256.5000002903305
 30
0.0
 40
3.0
  1
ADC
  7
K
 72
     4
 11
321.9999982101658
 21
258.0000002903306
 31
0.0
100
AcDbText
  0
TEXT
  5
ACE
330
17
100
AcDbEntity
  8
TEXT
100
AcDbText
 10
316.8249982101658
 20
264.3000002903306
 30
0.0
 40
3.0
  1
%%u      
  7
K
 72
     4
 11
321.9999982101658
 21
264.0000002903306
 31
0.0
100
AcDbText
  0
TEXT
  5
ACF
330
17
100
AcDbEntity
  8
TEXT
100
AcDbText
 10
337.536689553718
 20
256.5808354666716
 30
0.0
 40
3.0
  1
1
  7
K
 72
     4
 11
337.8938324108608
 21
258.0808354666716
 31
0.0
100
AcDbText
  0
TEXT
  5
AD0
330
17
100
AcDbEntity
  8
TEXT
100
AcDbText
 10
287.8999982101658
 20
268.5000002903306
 30
0.0
 40
3.0
  1
名      称
  7
K
 72
     4
 11
296.4999982101658
 21
270.0000002903306
 31
0.0
100
AcDbText
  0
TEXT
  5
AD1
330
17
100
AcDbEntity
  8
TEXT
100
AcDbText
 10
273.2999982101658
 20
268.5000002903306
 30
0.0
 40
3.0
  1
番号
  7
K
 72
     4
 11
276.4999982101658
 21
270.0000002903306
 31
0.0
100
AcDbText
  0
LINE
  5
AD2
330
17
100
AcDbEntity
  8
TEXT
100
AcDbLine
 10
292.0597966514942
 20
265.500037214232
 30
0.0
 11
293.8597966514941
 21
265.500037214232
 31
0.0
  0
TEXT
  5
AD3
330
17
100
AcDbEntity
  8
TEXT
100
AcDbText
 10
315.1999982101658
 20
268.5000002903306
 30
0.0
 40
3.0
  1
材    質
  7
K
 72
     4
 11
321.9999982101658
 21
270.0000002903306
 31
0.0
100
AcDbText
  0
TEXT
  5
AD4
330
17
100
AcDbEntity
  8
TEXT
100
AcDbText
 10
334.7999982101658
 20
268.5000002903306
 30
0.0
 40
3.0
  1
個数
  7
K
 72
     4
 11
337.9999982101658
 21
270.0000002903306
 31
0.0
100
AcDbText
  0
LWPOLYLINE
  5
AD5
330
17
100
AcDbEntity
  8
WAKU
100
AcDbPolyline
 90
        4
 70
     1
 43
0.0
 10
0.0
 20
0.0
 10
181.0
 20
0.0
 10
181.0
 20
273.0
 10
0.0
 20
273.0
  0
LWPOLYLINE
  5
AD6
330
17
100
AcDbEntity
  8
WAKU
100
AcDbPolyline
 90
        4
 70
     1
 43
0.0
 10
181.0
 20
0.0
 10
362.0
 20
0.0
 10
362.0
 20
273.0
 10
181.0
 20
273.0
  0
TEXT
  5
AD7
330
17
100
AcDbEntity
  8
TEXT
100
AcDbText
 10
155.3461754267297
 20
6.797928564069707
 30
0.0
 40
3.0
  1
ガード MFJ  
  7
K
 72
     4
 11
167.5890325695869
 21
8.297928564069707
 31
0.0
100
AcDbText
  0
LINE
  5
AD8
330
17
100
AcDbEntity
  8
TEXT
100
AcDbLine
 10
176.8795208566158
 20
6.797965487971111
 30
0.0
 11
178.6795208566159
 21
6.797965487971111
 31
0.0
  0
LINE
  5
AD9
330
17
100
AcDbEntity
  8
TEXT
100
AcDbLine
 10
176.8795208566158
 20
9.797965487971111
 30
0.0
 11
178.6795208566159
 21
9.797965487971111
 31
0.0
  0
LINE
  5
ADA
330
17
100
AcDbEntity
  8
TEXT
100
AcDbLine
 10
177.3295208566159
 20
9.797965487971111
 30
0.0
 11
177.3295208566159
 21
6.797965487971111
 31
0.0
  0
LINE
  5
ADB
330
17
100
AcDbEntity
  8
TEXT
100
AcDbLine
 10
178.2295208566158
 20
9.797965487971111
 30
0.0
 11
178.2295208566158
 21
6.797965487971111
 31
0.0
  0
TEXT
  5
ADF
330
17
100
AcDbEntity
  8
SUNPOU
100
AcDbText
 10
155.130644101533
 20
1.665259886405805
 30
0.0
 40
3.0
  1
尺度　1/1
  7
K
100
AcDbText
  0
LINE
  5
C0E
330
17
100
AcDbEntity
  8
JISSEN
100
AcDbLine
 10
456.9691142413731
 20
102.5723188157558
 30
0.0
 11
452.0000839938759
 21
102.5723188157558
 31
0.0
1001
ACAD
1000
ASC_BOUNDS
1002
{
1070
    19
1002
}
  0
LINE
  5
C0F
330
17
100
AcDbEntity
  8
JISSEN
100
AcDbLine
 10
457.7514682213576
 20
104.6104206137334
 30
0.0
 11
452.0000839938759
 21
104.6104206137334
 31
0.0
  0
LINE
  5
C10
330
17
100
AcDbEntity
  8
JISSEN
100
AcDbLine
 10
458.5846993352463
 20
106.8723188157558
 30
0.0
 11
452.0000839938759
 21
106.8723188157558
 31
0.0
1001
ACAD
1000
ASC_BOUNDS
1002
{
1070
    19
1002
}
  0
LINE
  5
C11
330
17
100
AcDbEntity
  8
JISSEN
100
AcDbLine
 10
459.0949903582323
 20
122.980418381703
 30
0.0
 11
452.0000839938759
 21
122.980418381703
 31
0.0
  0
LINE
  5
C12
330
17
100
AcDbEntity
  8
JISSEN
100
AcDbLine
 10
468.1727156389809
 20
98.98041838170321
 30
0.0
 11
438.764216982311
 21
98.98041838170387
 31
0.0
  0
LINE
  5
C13
330
17
100
AcDbEntity
  8
JISSEN
100
AcDbLine
 10
468.750083993876
 20
96.48041838170321
 30
0.0
 11
435.250083993876
 21
96.48041838170321
 31
0.0
  0
LINE
  5
C14
330
17
100
AcDbEntity
  8
JISSEN
100
AcDbLine
 10
480.650083993876
 20
131.4804183817032
 30
0.0
 11
420.350083993876
 21
131.4804183817032
 31
0.0
  0
LINE
  5
C15
330
17
100
AcDbEntity
  8
JISSEN
100
AcDbLine
 10
420.350083993876
 20
124.9804183817031
 30
0.0
 11
477.1500839938759
 21
124.9804183817031
 31
0.0
  0
LWPOLYLINE
  5
C16
330
17
100
AcDbEntity
  8
NITEN
100
AcDbPolyline
 90
        2
 70
     0
 43
0.0
 10
469.0000005558599
 20
200.4286849385763
 42
0.5882352941176295
 10
452.0000005558598
 20
200.4286849385767
 42
0.5882352941176295
  0
LINE
  5
C17
330
17
100
AcDbEntity
  8
JISSEN
100
AcDbLine
 10
461.0000839938757
 20
149.4804183817068
 30
0.0
 11
452.0000839938759
 21
149.4804183817068
 31
0.0
  0
LINE
  5
C18
330
17
100
AcDbEntity
  8
JISSEN
100
AcDbLine
 10
462.2620079938758
 20
148.2184933817068
 30
0.0
 11
452.0000839938759
 21
148.2184933817068
 31
0.0
  0
LWPOLYLINE
  5
C19
330
17
100
AcDbEntity
  8
NITEN
100
AcDbPolyline
 90
       15
 70
     1
 43
0.0
 10
438.0000005558597
 20
139.0909672874306
 42
0.4142135623730927
 10
439.5000005558596
 20
137.5909672874306
 10
462.5940517268563
 20
137.5909672874306
 10
464.5000005558598
 20
137.5909672874306
 42
0.4142135623730925
 10
466.0000005558599
 20
139.0909672874306
 10
466.0000005558599
 20
150.1369833136485
 42
-0.4142135623730943
 10
471.0000005558597
 20
155.1369833136485
 42
0.4142135623730951
 10
473.0000005558598
 20
157.1369833136484
 10
473.0000005558596
 20
177.5909672874306
 42
0.4142135623730949
 10
471.0000005558597
 20
179.5909672874306
 10
433.0000005558598
 20
179.5909672874306
 42
0.4142135623730951
 10
431.0000005558598
 20
177.5909672874306
 10
431.0000005558598
 20
157.1369833136484
 42
0.4142135623730951
 10
433.0000005558598
 20
155.1369833136485
 42
-0.4142135623730961
 10
438.0000005558597
 20
150.1369833136485
  0
LINE
  5
C1A
330
17
100
AcDbEntity
  8
JISSEN
100
AcDbLine
 10
452.0000839938759
 20
133.7211853817032
 30
0.0
 11
462.6213169938758
 21
133.7211853817032
 31
0.0
  0
ARC
  5
C1B
330
17
100
AcDbEntity
  8
JISSEN
100
AcDbCircle
 10
452.0000839938759
 20
123.980418381703
 30
0.0
 40
1.0
100
AcDbArc
 50
270.0
 51
0.000000000000007
  0
LINE
  5
C1C
330
17
100
AcDbEntity
  8
JISSEN
100
AcDbLine
 10
452.0000839938759
 20
121.480418381703
 30
0.0
 11
453.0000839938757
 21
121.480418381703
 31
0.0
  0
LINE
  5
C1D
330
17
100
AcDbEntity
  8
JISSEN
100
AcDbLine
 10
453.0000839938757
 20
114.7873173817032
 30
0.0
 11
452.0000839938759
 21
114.7873173817032
 31
0.0
  0
LINE
  5
C1E
102
{ACAD_REACTORS
330
C26
102
}
330
17
100
AcDbEntity
  8
JISSEN
100
AcDbLine
 10
478.3500839938756
 20
131.4804183817032
 30
0.0
 11
452.0000839938759
 21
131.4804183817032
 31
0.0
  0
LINE
  5
C1F
330
17
100
AcDbEntity
  8
JISSEN
100
AcDbLine
 10
452.0000839938759
 20
113.683539381703
 30
0.0
 11
453.0000839938757
 21
113.683539381703
 31
0.0
  0
LINE
  5
C20
330
17
100
AcDbEntity
  8
JISSEN
100
AcDbLine
 10
452.0000839938759
 20
108.3945360593635
 30
0.0
 11
458.9371439658228
 21
108.3945360593639
 31
0.0
1001
ACAD
1000
ASC_BOUNDS
1002
{
1070
    19
1002
}
  0
LINE
  5
C21
330
17
100
AcDbEntity
  8
JISSEN
100
AcDbLine
 10
452.0000839938759
 20
110.1445360593638
 30
0.0
 11
459.0934869218648
 21
110.1445360593638
 31
0.0
1001
ACAD
1000
ASC_BOUNDS
1002
{
1070
    19
1002
}
  0
LINE
  5
C22
330
17
100
AcDbEntity
  8
SAISEN
100
AcDbLine
 10
452.0000839938759
 20
100.6275608157558
 30
0.0
 11
456.2225915883256
 21
100.6275608157558
 31
0.0
  0
LINE
  5
C23
330
17
100
AcDbEntity
  8
SAISEN
100
AcDbLine
 10
452.0000839938759
 20
100.9087958157558
 30
0.0
 11
456.3305475902188
 21
100.9087958157558
 31
0.0
  0
LINE
  5
C24
330
17
100
AcDbEntity
  8
SAISEN
100
AcDbLine
 10
456.0951030488737
 20
100.2954418157558
 30
0.0
 11
452.0000839938759
 21
100.2954418157558
 31
0.0
  0
LWPOLYLINE
  5
C25
330
17
100
AcDbEntity
  8
NITEN
100
AcDbPolyline
 90
        5
 70
     0
 43
0.0
 10
469.0000005558598
 20
179.5909672874306
 10
469.0000005558598
 20
200.4286849385763
 42
-0.5882352941176476
 10
452.0000005558598
 20
200.4286849385763
 42
0.5882352941176477
 10
435.0000005558596
 20
200.428684938576
 10
435.0000005558596
 20
179.5909672874306
  0
HATCH
  5
C26
330
17
100
AcDbEntity
  8
HATCH
100
AcDbHatch
 10
0.0
 20
0.0
 30
0.0
210
0.0
220
0.0
230
1.0
  2
_U
 70
     0
 71
     1
 91
        2
 92
        7
 72
     0
 73
     1
 93
       15
 10
469.5000839938758
 20
136.480418381703
 10
469.5000839938757
 20
131.4804183817032
 10
478.3500839938756
 20
131.4804183817032
 10
517.2741472517754
 20
131.4804183817032
 10
517.583710769255
 20
132.2285869255588
 10
517.9139673619693
 20
132.7661579231862
 10
518.2951033883186
 20
133.1893783118104
 10
518.705275801112
 20
133.530691403435
 10
519.1226415531606
 20
133.8225405100659
 10
519.5253575972681
 20
134.0973689437018
 10
519.8915808862478
 20
134.387620016352
 10
520.199468372907
 20
134.7257370400191
 10
520.4271770100548
 20
135.1441633267069
 10
520.5690823667352
 20
135.6607813034719
 10
520.7336695449852
 20
136.480418381703
 97
        5
330
D17
330
D10
330
D15
330
C1E
330
D0F
 92
        7
 72
     0
 73
     1
 93
       14
 10
383.2663315667342
 20
136.480418381703
 10
383.4309187449844
 20
135.6607813034707
 10
383.5728241016646
 20
135.1441633267069
 10
383.8005327388122
 20
134.7257370400193
 10
384.1084202254716
 20
134.3876200163519
 10
384.474643514452
 20
134.097368943702
 10
384.8773595585592
 20
133.8225405100671
 10
385.2947253106074
 20
133.5306914034354
 10
385.7048977234007
 20
133.1893783118106
 10
386.0860337497502
 20
132.7661579231865
 10
386.4162903424648
 20
132.2285869255581
 10
386.7258538599439
 20
131.4804183817032
 10
434.5000839938758
 20
131.4804183817032
 10
434.5000839938759
 20
136.4804183817031
 97
        4
330
C97
330
C98
330
C96
330
C9F
 75
     0
 76
     0
 52
45.0
 41
2.0
 77
     0
 78
     1
 53
45.0
 43
362.0000005558598
 44
-48.84817577884935
 45
-1.414213562373094
 46
1.414213562373094
 79
     0
 47
0.2346837798524018
 98
        2
 10
479.2263880457041
 20
134.3360502173588
 10
428.2585827520483
 20
135.0401012711299
  0
LINE
  5
C28
330
17
100
AcDbEntity
  8
JISSEN
100
AcDbLine
 10
420.350083993876
 20
131.4804183817032
 30
0.0
 11
420.350083993876
 21
124.9804183817031
 31
0.0
  0
LINE
  5
C29
330
17
100
AcDbEntity
  8
JISSEN
100
AcDbLine
 10
423.6100839938758
 20
131.4804183817032
 30
0.0
 11
423.6100839938758
 21
124.9804183817031
 31
0.0
  0
ARC
  5
C2A
330
17
100
AcDbEntity
  8
JISSEN
100
AcDbCircle
 10
437.593818504694
 20
112.2396242734368
 30
0.0
 40
7.0
100
AcDbArc
 50
180.0
 51
224.6499999999989
  0
ARC
  5
C2B
330
17
100
AcDbEntity
  8
JISSEN
100
AcDbCircle
 10
435.0938185046938
 20
112.6359572615366
 30
0.0
 40
8.0
100
AcDbArc
 50
180.0
 51
224.6499999999989
  0
LINE
  5
C2C
330
17
100
AcDbEntity
  8
JISSEN
100
AcDbLine
 10
439.2500839938758
 20
110.1445360593636
 30
0.0
 11
439.2500839938758
 21
108.5945360593628
 31
0.0
1001
ACAD
1000
ASC_BOUNDS
1002
{
1070
    19
1002
}
  0
LINE
  5
C2D
330
17
100
AcDbEntity
  8
JISSEN
100
AcDbLine
 10
436.1292324624779
 20
97.77265106929769
 30
0.0
 11
429.4025142581501
 21
107.0137640975415
 31
0.0
  0
ARC
  5
C2E
330
17
100
AcDbEntity
  8
JISSEN
100
AcDbCircle
 10
437.4093787511811
 20
98.45801238681367
 30
0.0
 40
1.452065651418106
100
AcDbArc
 50
208.1635875388361
 51
21.08591664036377
  0
ARC
  5
C2F
330
17
100
AcDbEntity
  8
JISSEN
100
AcDbCircle
 10
435.250083993876
 20
97.73041838170321
 30
0.0
 40
1.25
100
AcDbArc
 50
90.0
 51
270.0
  0
LINE
  5
C30
330
17
100
AcDbEntity
  8
JISSEN
100
AcDbLine
 10
438.7500839938758
 20
104.6104206137334
 30
0.0
 11
452.0000839938759
 21
104.6104206137334
 31
0.0
  0
LINE
  5
C31
330
17
100
AcDbEntity
  8
JISSEN
100
AcDbLine
 10
438.7500839938758
 20
106.8723188157558
 30
0.0
 11
452.0000839938759
 21
106.8723188157558
 31
0.0
1001
ACAD
1000
ASC_BOUNDS
1002
{
1070
    19
1002
}
  0
LINE
  5
C32
330
17
100
AcDbEntity
  8
JISSEN
100
AcDbLine
 10
452.0000839938759
 20
108.3945360593635
 30
0.0
 11
439.4500839938758
 21
108.3945360593641
 31
0.0
1001
ACAD
1000
ASC_BOUNDS
1002
{
1070
    19
1002
}
  0
LINE
  5
C33
330
17
100
AcDbEntity
  8
JISSEN
100
AcDbLine
 10
442.7500839938757
 20
102.5723188157558
 30
0.0
 11
438.7500839938758
 21
104.6104206137334
 31
0.0
1001
ACAD
1000
ASC_BOUNDS
1002
{
1070
    19
1002
}
  0
LINE
  5
C34
330
17
100
AcDbEntity
  8
JISSEN
100
AcDbLine
 10
438.764216982311
 20
98.98041838170392
 30
0.0
 11
432.6139272889681
 21
107.3202052549412
 31
0.0
  0
LINE
  5
C35
330
17
100
AcDbEntity
  8
JISSEN
100
AcDbLine
 10
438.7500839938758
 20
106.8723188157558
 30
0.0
 11
438.7500839938758
 21
104.6104206137334
 31
0.0
1001
ACAD
1000
ASC_BOUNDS
1002
{
1070
    19
1002
}
  0
ARC
  5
C36
330
17
100
AcDbEntity
  8
JISSEN
100
AcDbCircle
 10
439.4500839938758
 20
108.5945360593639
 30
0.0
 40
0.2
100
AcDbArc
 50
180.0000000000006
 51
269.9999999999966
1001
ACAD
1000
ASC_BOUNDS
1002
{
1070
    19
1002
}
  0
LINE
  5
C37
330
17
100
AcDbEntity
  8
SAISEN
100
AcDbLine
 10
447.4720549938758
 20
100.2954418157558
 30
0.0
 11
442.7321579938759
 21
100.2954418157558
 31
0.0
  0
LINE
  5
C38
330
17
100
AcDbEntity
  8
SAISEN
100
AcDbLine
 10
452.0000839938759
 20
100.6275608157558
 30
0.0
 11
442.7321579938759
 21
100.6275608157558
 31
0.0
  0
LINE
  5
C39
330
17
100
AcDbEntity
  8
SAISEN
100
AcDbLine
 10
452.0000839938759
 20
100.9087958157558
 30
0.0
 11
446.9821579938758
 21
100.9087958157558
 31
0.0
  0
LINE
  5
C3A
330
17
100
AcDbEntity
  8
JISSEN
100
AcDbLine
 10
442.7500839938757
 20
102.5723188157558
 30
0.0
 11
452.0000839938759
 21
102.5723188157558
 31
0.0
1001
ACAD
1000
ASC_BOUNDS
1002
{
1070
    19
1002
}
  0
ARC
  5
C3B
330
17
100
AcDbEntity
  8
SAISEN
100
AcDbCircle
 10
446.9821579938758
 20
100.1587958157558
 30
0.0
 40
0.75
100
AcDbArc
 50
90.0
 51
141.3164109999989
  0
LINE
  5
C3C
330
17
100
AcDbEntity
  8
SAISEN
100
AcDbLine
 10
442.7321579938759
 20
100.2954418157558
 30
0.0
 11
442.7321579938759
 21
100.6275608157558
 31
0.0
  0
LINE
  5
C3D
330
17
100
AcDbEntity
  8
JISSEN
100
AcDbLine
 10
448.9821579938759
 20
102.5723188157558
 30
0.0
 11
448.9821579938759
 21
100.9087958157558
 31
0.0
  0
ARC
  5
C3E
330
17
100
AcDbEntity
  8
JISSEN
100
AcDbCircle
 10
448.9821579938759
 20
99.79544181575588
 30
0.0
 40
0.5
100
AcDbArc
 50
90.0
 51
180.0
  0
LINE
  5
C3F
330
17
100
AcDbEntity
  8
JISSEN
100
AcDbLine
 10
448.4821579938759
 20
99.79544181575588
 30
0.0
 11
448.4821579938759
 21
98.98041838170366
 31
0.0
  0
LINE
  5
C40
330
17
100
AcDbEntity
  8
SAISEN
100
AcDbLine
 10
447.4720549938758
 20
100.2954418157558
 30
0.0
 11
452.0000839938759
 21
100.2954418157558
 31
0.0
  0
LINE
  5
C41
330
17
100
AcDbEntity
  8
JISSEN
100
AcDbLine
 10
443.7375661780605
 20
108.394536059364
 30
0.0
 11
443.7375661780605
 21
106.8723188157558
 31
0.0
1001
ACAD
1000
ASC_BOUNDS
1002
{
1070
    19
1002
}
  0
LINE
  5
C42
330
17
100
AcDbEntity
  8
JISSEN
100
AcDbLine
 10
445.6100839938758
 20
106.8723188157558
 30
0.0
 11
445.6100839938758
 21
108.3945360593639
 31
0.0
1001
ACAD
1000
ASC_BOUNDS
1002
{
1070
    19
1002
}
  0
ARC
  5
C43
330
17
100
AcDbEntity
  8
JISSEN
100
AcDbCircle
 10
444.0578190207948
 20
107.5723188157558
 30
0.0
 40
0.8
100
AcDbArc
 50
113.597937988345
 51
149.9999999999995
1001
ACAD
1000
ASC_BOUNDS
1002
{
1070
    19
1002
}
  0
LINE
  5
C44
330
17
100
AcDbEntity
  8
JISSEN
100
AcDbLine
 10
442.7299134016587
 20
106.8723188157558
 30
0.0
 11
443.3649986977671
 21
107.9723188157558
 31
0.0
1001
ACAD
1000
ASC_BOUNDS
1002
{
1070
    19
1002
}
  0
ARC
  5
C45
330
17
100
AcDbEntity
  8
JISSEN
100
AcDbCircle
 10
444.1696275007096
 20
106.5804183817032
 30
0.0
 40
0.3
100
AcDbArc
 50
90.0
 51
103.3441175406789
1001
ACAD
1000
ASC_BOUNDS
1002
{
1070
    19
1002
}
  0
LINE
  5
C46
330
17
100
AcDbEntity
  8
JISSEN
100
AcDbLine
 10
444.165623048122
 20
106.8804183817032
 30
0.0
 11
444.2115579692261
 21
106.8723188157558
 31
0.0
1001
ACAD
1000
ASC_BOUNDS
1002
{
1070
    19
1002
}
  0
LINE
  5
C47
330
17
100
AcDbEntity
  8
JISSEN
100
AcDbLine
 10
430.5938185046938
 20
122.980418381703
 30
0.0
 11
452.0000839938759
 21
122.980418381703
 31
0.0
  0
LINE
  5
C48
330
17
100
AcDbEntity
  8
JISSEN
100
AcDbLine
 10
430.5938185046938
 20
123.980418381703
 30
0.0
 11
451.0000839938759
 21
123.980418381703
 31
0.0
  0
LINE
  5
C49
330
17
100
AcDbEntity
  8
JISSEN
100
AcDbLine
 10
431.3269899938759
 20
121.480418381703
 30
0.0
 11
430.5938185046938
 21
121.480418381703
 31
0.0
  0
ARC
  5
C4A
330
17
100
AcDbEntity
  8
JISSEN
100
AcDbCircle
 10
431.2885699938759
 20
121.2804183817032
 30
0.0
 40
0.2
100
AcDbArc
 50
90.0
 51
185.0389269999999
  0
LINE
  5
C4B
330
17
100
AcDbEntity
  8
JISSEN
100
AcDbLine
 10
431.0893429938759
 20
121.2628513817032
 30
0.0
 11
431.6200969938758
 21
115.2434013817032
 31
0.0
  0
LINE
  5
C4C
330
17
100
AcDbEntity
  8
JISSEN
100
AcDbLine
 10
431.2416079938759
 20
114.4597473817031
 30
0.0
 11
432.6297069938759
 21
113.7295343817032
 31
0.0
  0
LINE
  5
C4D
330
17
100
AcDbEntity
  8
JISSEN
100
AcDbLine
 10
437.470880977274
 20
110.1445360593635
 30
0.0
 11
430.5938185046938
 21
113.3780111544117
 31
0.0
1001
ACAD
1000
ASC_BOUNDS
1002
{
1070
    19
1002
}
  0
LINE
  5
C4E
330
17
100
AcDbEntity
  8
JISSEN
100
AcDbLine
 10
427.0938185046938
 20
124.9804183817031
 30
0.0
 11
427.0938185046938
 21
112.6359572615366
 31
0.0
  0
LINE
  5
C4F
330
17
100
AcDbEntity
  8
JISSEN
100
AcDbLine
 10
430.5938185046938
 20
124.9804183817031
 30
0.0
 11
430.5938185046938
 21
112.2396242734368
 31
0.0
  0
ARC
  5
C50
330
17
100
AcDbEntity
  8
JISSEN
100
AcDbCircle
 10
431.0405099938757
 20
114.7057763817032
 30
0.0
 40
1.0
100
AcDbArc
 50
245.1745949999999
 51
270.0
  0
LINE
  5
C51
330
17
100
AcDbEntity
  8
JISSEN
100
AcDbLine
 10
431.0405099938757
 20
113.7057763817032
 30
0.0
 11
431.1141849938758
 21
113.7057763817032
 31
0.0
  0
ARC
  5
C52
330
17
100
AcDbEntity
  8
JISSEN
100
AcDbCircle
 10
431.1141849938758
 20
113.755776381703
 30
0.0
 40
0.05
100
AcDbArc
 50
270.0
 51
65.17459500000001
  0
LINE
  5
C53
330
17
100
AcDbEntity
  8
JISSEN
100
AcDbLine
 10
431.135176993876
 20
113.8011553817031
 30
0.0
 11
430.5938185046938
 21
114.0515896186972
 31
0.0
  0
LINE
  5
C54
330
17
100
AcDbEntity
  8
JISSEN
100
AcDbLine
 10
430.5938185046938
 20
113.8105990328015
 30
0.0
 11
430.6206549938758
 21
113.7981843817031
 31
0.0
  0
ARC
  5
C55
330
17
100
AcDbEntity
  8
JISSEN
100
AcDbCircle
 10
431.8468409938757
 20
115.6102663817031
 30
0.0
 40
1.3
100
AcDbArc
 50
195.449966128954
 51
242.2532619999987
  0
LINE
  5
C56
330
17
100
AcDbEntity
  8
JISSEN
100
AcDbLine
 10
420.350083993876
 20
130.230418381703
 30
0.0
 11
418.1387591284686
 21
130.230418381703
 31
0.0
  0
LINE
  5
C57
330
17
100
AcDbEntity
  8
JISSEN
100
AcDbLine
 10
418.1387591284686
 20
126.2304183817032
 30
0.0
 11
420.350083993876
 21
126.2304183817032
 31
0.0
  0
LINE
  5
C58
330
17
100
AcDbEntity
  8
JISSEN
100
AcDbLine
 10
418.1387591284686
 20
130.230418381703
 30
0.0
 11
418.1387591284686
 21
126.2304183817032
 31
0.0
  0
LINE
  5
C59
330
17
100
AcDbEntity
  8
JISSEN
100
AcDbLine
 10
417.8500839938759
 20
129.7304183817032
 30
0.0
 11
417.8500839938759
 21
126.7304183817032
 31
0.0
  0
LINE
  5
C5A
330
17
100
AcDbEntity
  8
JISSEN
100
AcDbLine
 10
417.8500839938759
 20
129.7304183817032
 30
0.0
 11
418.1387591284686
 21
130.230418381703
 31
0.0
  0
LINE
  5
C5B
330
17
100
AcDbEntity
  8
JISSEN
100
AcDbLine
 10
417.8500839938759
 20
126.7304183816996
 30
0.0
 11
418.1387591284686
 21
126.2304183817032
 31
0.0
  0
LINE
  5
C5C
330
17
100
AcDbEntity
  8
SAISEN
100
AcDbLine
 10
420.350083993876
 20
129.8304183817031
 30
0.0
 11
417.9078190207945
 21
129.8304183817031
 31
0.0
  0
LINE
  5
C5D
330
17
100
AcDbEntity
  8
SAISEN
100
AcDbLine
 10
417.9078190207928
 20
126.6304183817032
 30
0.0
 11
420.350083993876
 21
126.6304183817031
 31
0.0
  0
LINE
  5
C5E
330
17
100
AcDbEntity
  8
JISSEN
100
AcDbLine
 10
425.5000839938758
 20
123.980418381703
 30
0.0
 11
426.5000839938759
 21
122.980418381703
 31
0.0
  0
LINE
  5
C5F
330
17
100
AcDbEntity
  8
JISSEN
100
AcDbLine
 10
425.5000839938758
 20
123.980418381703
 30
0.0
 11
427.0938185046938
 21
123.980418381703
 31
0.0
  0
LINE
  5
C60
330
17
100
AcDbEntity
  8
JISSEN
100
AcDbLine
 10
425.5000839938758
 20
124.980418381703
 30
0.0
 11
425.5000839938758
 21
123.980418381703
 31
0.0
  0
LINE
  5
C61
330
17
100
AcDbEntity
  8
JISSEN
100
AcDbLine
 10
426.5000839938759
 20
122.980418381703
 30
0.0
 11
427.0938185046938
 21
122.9804183817032
 31
0.0
  0
LINE
  5
C62
330
17
100
AcDbEntity
  8
JISSEN
100
AcDbLine
 10
426.5000839938759
 20
122.980418381703
 30
0.0
 11
427.0938185046938
 21
122.980418381703
 31
0.0
  0
LINE
  5
C63
330
17
100
AcDbEntity
  8
JISSEN
100
AcDbLine
 10
445.2582309938758
 20
114.8811423817031
 30
0.0
 11
445.0187789938758
 21
121.2878883817032
 31
0.0
  0
LINE
  5
C64
330
17
100
AcDbEntity
  8
JISSEN
100
AcDbLine
 10
442.6298789938758
 20
121.2217173817031
 30
0.0
 11
442.8438569938758
 21
115.076877381703
 31
0.0
  0
LINE
  5
C65
330
17
100
AcDbEntity
  8
JISSEN
100
AcDbLine
 10
442.2041369938758
 20
121.1692133817032
 30
0.0
 11
442.4309709938758
 21
115.1000653817032
 31
0.0
  0
LINE
  5
C66
330
17
100
AcDbEntity
  8
JISSEN
100
AcDbLine
 10
450.5000839938758
 20
120.980418381703
 30
0.0
 11
450.5000839938758
 21
114.1835393817032
 31
0.0
  0
LINE
  5
C67
330
17
100
AcDbEntity
  8
JISSEN
100
AcDbLine
 10
432.0942749938757
 20
115.0579683817031
 30
0.0
 11
431.5261669938758
 21
121.298550381703
 31
0.0
  0
LINE
  5
C68
330
17
100
AcDbEntity
  8
JISSEN
100
AcDbLine
 10
437.3790629938758
 20
121.294432381703
 30
0.0
 11
437.8228699938758
 21
114.976166381703
 31
0.0
  0
LINE
  5
C69
330
17
100
AcDbEntity
  8
JISSEN
100
AcDbLine
 10
435.8938439938758
 20
121.1608263817032
 30
0.0
 11
436.2864869938759
 21
115.1611953817031
 31
0.0
  0
LINE
  5
C6A
330
17
100
AcDbEntity
  8
JISSEN
100
AcDbLine
 10
435.4982069938759
 20
115.3538633817031
 30
0.0
 11
435.0941729938758
 21
121.1058933817031
 31
0.0
  0
LINE
  5
C6B
330
17
100
AcDbEntity
  8
JISSEN
100
AcDbLine
 10
452.0000839938759
 20
110.1445360593638
 30
0.0
 11
437.470880977274
 21
110.1445360593635
 31
0.0
1001
ACAD
1000
ASC_BOUNDS
1002
{
1070
    19
1002
}
  0
LINE
  5
C6C
330
17
100
AcDbEntity
  8
JISSEN
100
AcDbLine
 10
437.9905899938759
 20
114.677848381703
 30
0.0
 11
439.0091849938758
 21
113.9559193817031
 31
0.0
  0
LINE
  5
C6D
330
17
100
AcDbEntity
  8
JISSEN
100
AcDbLine
 10
437.0044309938758
 20
113.7479873817032
 30
0.0
 11
436.0013649938759
 21
114.458909381703
 31
0.0
  0
LINE
  5
C6E
330
17
100
AcDbEntity
  8
JISSEN
100
AcDbLine
 10
433.8588089938759
 20
113.8720413817031
 30
0.0
 11
432.3594339938757
 21
114.6607913817031
 31
0.0
  0
ARC
  5
C6F
330
17
100
AcDbEntity
  8
JISSEN
100
AcDbCircle
 10
433.8122519938758
 20
113.7835393817032
 30
0.0
 40
0.1
100
AcDbArc
 50
270.0
 51
62.25326199999885
  0
ARC
  5
C70
330
17
100
AcDbEntity
  8
JISSEN
100
AcDbCircle
 10
432.8159329938759
 20
114.0835393817031
 30
0.0
 40
0.4
100
AcDbArc
 50
242.2532619999987
 51
270.0
  0
LINE
  5
C71
330
17
100
AcDbEntity
  8
JISSEN
100
AcDbLine
 10
432.8159329938759
 20
113.683539381703
 30
0.0
 11
433.8122519938758
 21
113.683539381703
 31
0.0
  0
LINE
  5
C72
330
17
100
AcDbEntity
  8
JISSEN
100
AcDbLine
 10
438.9224489938759
 20
113.683539381703
 30
0.0
 11
437.2068159938757
 21
113.683539381703
 31
0.0
  0
ARC
  5
C73
330
17
100
AcDbEntity
  8
JISSEN
100
AcDbCircle
 10
437.2068159938757
 20
114.0335393817032
 30
0.0
 40
0.35
100
AcDbArc
 50
234.6729319999993
 51
270.0
  0
ARC
  5
C74
330
17
100
AcDbEntity
  8
JISSEN
100
AcDbCircle
 10
438.9224489938759
 20
113.833539381703
 30
0.0
 40
0.15
100
AcDbArc
 50
270.0
 51
54.67293199999931
  0
ARC
  5
C75
330
17
100
AcDbEntity
  8
JISSEN
100
AcDbCircle
 10
436.6856329938759
 20
115.1873173817032
 30
0.0
 40
0.4
100
AcDbArc
 50
183.7443620000001
 51
270.0
  0
ARC
  5
C76
330
17
100
AcDbEntity
  8
JISSEN
100
AcDbCircle
 10
432.1181649938758
 20
115.2873173817032
 30
0.0
 40
0.5
100
AcDbArc
 50
185.0389269999999
 51
279.3495549999982
  0
ARC
  5
C77
330
17
100
AcDbEntity
  8
JISSEN
100
AcDbCircle
 10
436.6952569938758
 20
115.4379463817031
 30
0.0
 40
1.199999999999999
100
AcDbArc
 50
184.0179690000003
 51
234.6729319999993
  0
ARC
  5
C78
330
17
100
AcDbEntity
  8
JISSEN
100
AcDbCircle
 10
432.5922159938758
 20
115.103298381703
 30
0.0
 40
0.5
100
AcDbArc
 50
185.2015590000002
 51
242.2532619999987
  0
LINE
  5
C79
330
17
100
AcDbEntity
  8
JISSEN
100
AcDbLine
 10
436.6856329938759
 20
114.7873173817032
 30
0.0
 11
437.8857849938758
 21
114.7873173817032
 31
0.0
  0
ARC
  5
C7A
330
17
100
AcDbEntity
  8
JISSEN
100
AcDbCircle
 10
438.2218869938759
 20
115.004194381703
 30
0.0
 40
0.4
100
AcDbArc
 50
184.0179690000003
 51
234.6729319999993
  0
ARC
  5
C7B
330
17
100
AcDbEntity
  8
JISSEN
100
AcDbCircle
 10
451.0000839938759
 20
114.1835393817032
 30
0.0
 40
0.5
100
AcDbArc
 50
180.0
 51
270.0
  0
LINE
  5
C7C
330
17
100
AcDbEntity
  8
JISSEN
100
AcDbLine
 10
445.8500969938758
 20
114.0036163817032
 30
0.0
 11
445.3181069938758
 21
114.712232381703
 31
0.0
  0
LINE
  5
C7D
330
17
100
AcDbEntity
  8
JISSEN
100
AcDbLine
 10
442.6305589938758
 20
114.5370333817032
 30
0.0
 11
443.1813099938758
 21
113.8034253817032
 31
0.0
  0
ARC
  5
C7E
330
17
100
AcDbEntity
  8
JISSEN
100
AcDbCircle
 10
445.6901539938757
 20
113.883539381703
 30
0.0
 40
0.2
100
AcDbArc
 50
270.0
 51
36.89716199999899
  0
ARC
  5
C7F
330
17
100
AcDbEntity
  8
JISSEN
100
AcDbCircle
 10
443.4212249938759
 20
113.9835393817032
 30
0.0
 40
0.3
100
AcDbArc
 50
216.8971619999989
 51
270.0
  0
LINE
  5
C80
330
17
100
AcDbEntity
  8
JISSEN
100
AcDbLine
 10
443.4212249938759
 20
113.683539381703
 30
0.0
 11
445.6901539938757
 21
113.683539381703
 31
0.0
  0
LINE
  5
C81
330
17
100
AcDbEntity
  8
JISSEN
100
AcDbLine
 10
452.0000839938759
 20
113.683539381703
 30
0.0
 11
451.0000839938759
 21
113.683539381703
 31
0.0
  0
LINE
  5
C82
330
17
100
AcDbEntity
  8
JISSEN
100
AcDbLine
 10
443.1436749938758
 20
114.7873173817032
 30
0.0
 11
445.2770079938757
 21
114.7873173817032
 31
0.0
  0
ARC
  5
C83
330
17
100
AcDbEntity
  8
JISSEN
100
AcDbCircle
 10
445.5580219938759
 20
114.892346381703
 30
0.0
 40
0.3
100
AcDbArc
 50
182.1404319999997
 51
216.8971619999989
  0
ARC
  5
C84
330
17
100
AcDbEntity
  8
JISSEN
100
AcDbCircle
 10
443.1436749938758
 20
115.087317381703
 30
0.0
 40
0.3
100
AcDbArc
 50
181.994368
 51
270.0
  0
ARC
  5
C85
330
17
100
AcDbEntity
  8
JISSEN
100
AcDbCircle
 10
443.4302729938758
 20
115.1374143817031
 30
0.0
 40
1.0
100
AcDbArc
 50
182.1404319999997
 51
216.8971619999989
  0
LINE
  5
C86
330
17
100
AcDbEntity
  8
JISSEN
100
AcDbLine
 10
451.0000839938759
 20
114.7873173817032
 30
0.0
 11
452.0000839938759
 21
114.7873173817032
 31
0.0
  0
ARC
  5
C87
330
17
100
AcDbEntity
  8
JISSEN
100
AcDbCircle
 10
451.0000839938759
 20
115.2873173817032
 30
0.0
 40
0.5
100
AcDbArc
 50
180.0
 51
270.0
  0
LINE
  5
C88
330
17
100
AcDbEntity
  8
JISSEN
100
AcDbLine
 10
436.1932029938759
 20
121.480418381703
 30
0.0
 11
437.1795539938759
 21
121.480418381703
 31
0.0
  0
ARC
  5
C89
330
17
100
AcDbEntity
  8
JISSEN
100
AcDbCircle
 10
436.1932029938759
 20
121.1804183817031
 30
0.0
 40
0.3
100
AcDbArc
 50
90.0
 51
183.7443620000001
  0
ARC
  5
C8A
330
17
100
AcDbEntity
  8
JISSEN
100
AcDbCircle
 10
435.4433119938759
 20
121.130418381703
 30
0.0
 40
0.35
100
AcDbArc
 50
90.0
 51
184.0179690000003
  0
LINE
  5
C8B
330
17
100
AcDbEntity
  8
JISSEN
100
AcDbLine
 10
435.4433119938759
 20
121.480418381703
 30
0.0
 11
436.1932029938759
 21
121.480418381703
 31
0.0
  0
ARC
  5
C8C
330
17
100
AcDbEntity
  8
JISSEN
100
AcDbCircle
 10
431.3269899938759
 20
121.2804183817032
 30
0.0
 40
0.2
100
AcDbArc
 50
5.201559000000219
 51
90.0
  0
ARC
  5
C8D
330
17
100
AcDbEntity
  8
JISSEN
100
AcDbCircle
 10
437.1795539938759
 20
121.2804183817032
 30
0.0
 40
0.2
100
AcDbArc
 50
4.017969000000365
 51
90.0
  0
ARC
  5
C8E
330
17
100
AcDbEntity
  8
JISSEN
100
AcDbCircle
 10
444.8189179938758
 20
121.2804183817032
 30
0.0
 40
0.2
100
AcDbArc
 50
2.140431999999691
 51
90.0
  0
ARC
  5
C8F
330
17
100
AcDbEntity
  8
JISSEN
100
AcDbCircle
 10
442.8797269938757
 20
121.230418381703
 30
0.0
 40
0.25
100
AcDbArc
 50
90.0
 51
181.994368
  0
ARC
  5
C90
330
17
100
AcDbEntity
  8
JISSEN
100
AcDbCircle
 10
442.5039269938758
 20
121.1804183817031
 30
0.0
 40
0.3
100
AcDbArc
 50
90.0
 51
182.1404319999997
  0
LINE
  5
C91
330
17
100
AcDbEntity
  8
JISSEN
100
AcDbLine
 10
444.8189179938758
 20
121.480418381703
 30
0.0
 11
442.5039269938758
 21
121.480418381703
 31
0.0
  0
ARC
  5
C92
330
17
100
AcDbEntity
  8
JISSEN
100
AcDbCircle
 10
452.0000839938759
 20
123.980418381703
 30
0.0
 40
1.0
100
AcDbArc
 50
180.0
 51
270.0
  0
LINE
  5
C93
330
17
100
AcDbEntity
  8
JISSEN
100
AcDbLine
 10
452.0000839938759
 20
121.480418381703
 30
0.0
 11
451.0000839938759
 21
121.480418381703
 31
0.0
  0
ARC
  5
C94
330
17
100
AcDbEntity
  8
JISSEN
100
AcDbCircle
 10
451.0000839938759
 20
120.980418381703
 30
0.0
 40
0.5
100
AcDbArc
 50
90.0
 51
180.0
  0
LINE
  5
C95
330
17
100
AcDbEntity
  8
JISSEN
100
AcDbLine
 10
451.0000839938759
 20
124.9804183817031
 30
0.0
 11
451.0000839938759
 21
123.980418381703
 31
0.0
  0
LINE
  5
C96
102
{ACAD_REACTORS
330
C26
102
}
330
17
100
AcDbEntity
  8
JISSEN
100
AcDbLine
 10
441.4025780769271
 20
131.4804183817032
 30
0.0
 11
386.7240946001643
 21
131.4804183817032
 31
0.0
  0
LINE
  5
C97
102
{ACAD_REACTORS
330
C26
102
}
330
17
100
AcDbEntity
  8
JISSEN
100
AcDbLine
 10
383.2663315667343
 20
136.480418381703
 30
0.0
 11
441.4650812568636
 21
136.4804183817031
 31
0.0
  0
LWPOLYLINE
  5
C98
102
{ACAD_REACTORS
330
C26
102
}
330
17
100
AcDbEntity
  8
HATCH
100
AcDbPolyline
 90
       13
 70
     0
 43
0.0
 10
383.2663315667343
 20
136.480418381703
 10
383.4309187449843
 20
135.660781303471
 10
383.5728241016646
 20
135.1441633267068
 10
383.8005327388124
 20
134.725737040019
 10
384.1084202254717
 20
134.387620016352
 10
384.4746435144513
 20
134.0973689437019
 10
384.87735955856
 20
133.8225405100645
 10
385.2947253106068
 20
133.5306914034354
 10
385.7048977234006
 20
133.1893783118107
 10
386.0860337497503
 20
132.7661579231864
 10
386.4162903424649
 20
132.2285869255581
 10
386.6908704056676
 20
131.5649681382705
 10
386.7240946001643
 20
131.4804183817032
  0
LINE
  5
C99
330
17
100
AcDbEntity
  8
JISSEN
100
AcDbLine
 10
425.6500839938759
 20
131.4804183817032
 30
0.0
 11
452.0000839938759
 21
131.4804183817032
 31
0.0
  0
LINE
  5
C9A
330
17
100
AcDbEntity
  8
JISSEN
100
AcDbLine
 10
425.350083993876
 20
131.4804183817032
 30
0.0
 11
420.350083993876
 21
131.4804183817032
 31
0.0
  0
LINE
  5
C9B
330
17
100
AcDbEntity
  8
SAISEN
100
AcDbLine
 10
442.5408509938758
 20
133.7211853817032
 30
0.0
 11
443.0333508406091
 21
149.4804183817068
 31
0.0
  0
LINE
  5
C9C
330
17
100
AcDbEntity
  8
JISSEN
100
AcDbLine
 10
441.834939272511
 20
148.3152727370336
 30
0.0
 11
441.3413649938759
 21
132.5216993817031
 31
0.0
  0
LINE
  5
C9D
330
17
100
AcDbEntity
  8
SAISEN
100
AcDbLine
 10
441.3413649938759
 20
132.5216993817031
 30
0.0
 11
442.5408509938758
 21
133.7211853817032
 31
0.0
  0
LINE
  5
C9E
330
17
100
AcDbEntity
  8
JISSEN
100
AcDbLine
 10
452.0000839938759
 20
133.7211853817032
 30
0.0
 11
441.3788509938759
 21
133.7211853817032
 31
0.0
  0
LINE
  5
C9F
102
{ACAD_REACTORS
330
C26
102
}
330
17
100
AcDbEntity
  8
JISSEN
100
AcDbLine
 10
434.5000839938759
 20
136.480418381703
 30
0.0
 11
434.5000839938759
 21
131.4804183817032
 31
0.0
  0
LINE
  5
CA0
330
17
100
AcDbEntity
  8
JISSEN
100
AcDbLine
 10
440.3000839938758
 20
131.4804183817032
 30
0.0
 11
441.3413649938759
 21
132.5216993817031
 31
0.0
  0
LINE
  5
CA1
330
17
100
AcDbEntity
  8
JISSEN
100
AcDbLine
 10
441.7381599938758
 20
148.2184933817068
 30
0.0
 11
443.0000839938759
 21
149.4804183817068
 31
0.0
  0
LINE
  5
CA2
330
17
100
AcDbEntity
  8
JISSEN
100
AcDbLine
 10
441.7381599938758
 20
148.2184933817068
 30
0.0
 11
452.0000839938759
 21
148.2184933817068
 31
0.0
  0
LINE
  5
CA3
330
17
100
AcDbEntity
  8
JISSEN
100
AcDbLine
 10
443.0000839938759
 20
149.4804183817068
 30
0.0
 11
452.0000839938759
 21
149.4804183817068
 31
0.0
  0
LINE
  5
CA4
330
17
100
AcDbEntity
  8
JISSEN
100
AcDbLine
 10
477.1500839938759
 20
111.8834667089087
 30
0.0
 11
477.1500839938759
 21
131.4804183817032
 31
0.0
  0
LINE
  5
CA5
330
17
100
AcDbEntity
  8
JISSEN
100
AcDbLine
 10
480.650083993876
 20
131.4804183817032
 30
0.0
 11
480.650083993876
 21
112.2621463653494
 31
0.0
  0
TEXT
  5
CA6
330
17
100
AcDbEntity
  8
SUNPOU
100
AcDbText
 10
498.7214366317189
 20
6.665259803763092
 30
0.0
 40
3.0
  1
MFQR   ガード取付状態
  7
K
100
AcDbText
  0
LINE
  5
CA7
330
17
100
AcDbEntity
  8
TEXT
100
AcDbLine
 10
512.8445299049061
 20
9.658760924483202
 30
0.0
 11
512.8445299049061
 21
6.658760924483202
 31
0.0
  0
LINE
  5
CA8
330
17
100
AcDbEntity
  8
TEXT
100
AcDbLine
 10
511.9445299049061
 20
9.658760924483202
 30
0.0
 11
511.9445299049061
 21
6.658760924483202
 31
0.0
  0
TEXT
  5
CA9
330
17
100
AcDbEntity
  8
SUNPOU
100
AcDbText
 10
498.7214366317189
 20
1.665259803763091
 30
0.0
 40
3.0
  1
尺度　1/1
  7
K
100
AcDbText
  0
LINE
  5
CAA
330
17
100
AcDbEntity
  8
TEXT
100
AcDbLine
 10
511.4945299049061
 20
6.658760924483202
 30
0.0
 11
513.2945299049062
 21
6.658760924483202
 31
0.0
  0
CIRCLE
  5
CAB
330
17
100
AcDbEntity
  8
SUNPOU
100
AcDbCircle
 10
490.0289530224502
 20
99.18754559797996
 30
0.0
 40
6.0
  0
LINE
  5
CAC
330
17
100
AcDbEntity
  8
SUNPOU
100
AcDbLine
 10
480.650083993876
 20
121.8712823735263
 30
0.0
 11
505.2798264439585
 21
102.8543966641487
 31
0.0
  0
LINE
  5
CAD
330
17
100
AcDbEntity
  8
SUNPOU
100
AcDbLine
 10
470.7919883150965
 20
112.1487840302189
 30
0.0
 11
485.0530184709667
 21
102.5401677567314
 31
0.0
  0
ARC
  5
CAE
330
17
100
AcDbEntity
  8
JISSEN
100
AcDbCircle
 10
471.1500839938759
 20
111.8834667089087
 30
0.0
 40
6.0
100
AcDbArc
 50
315.0000000000048
 51
0.0
  0
ARC
  5
CAF
330
17
100
AcDbEntity
  8
JISSEN
100
AcDbCircle
 10
473.6500839938758
 20
112.2621463653494
 30
0.0
 40
7.0
100
AcDbArc
 50
315.0000000000003
 51
0.0
  0
ARC
  5
CB0
330
17
100
AcDbEntity
  8
JISSEN
100
AcDbCircle
 10
452.5949903582323
 20
112.1055473423597
 30
0.0
 40
10.0
100
AcDbArc
 50
338.9999999999994
 51
0.0
  0
ARC
  5
CB1
330
17
100
AcDbEntity
  8
JISSEN
100
AcDbCircle
 10
447.0949903582323
 20
110.3344839798579
 30
0.0
 40
12.0
100
AcDbArc
 50
338.9999999999994
 51
0.0
  0
LINE
  5
CB2
330
17
100
AcDbEntity
  8
JISSEN
100
AcDbLine
 10
464.7500839938758
 20
110.1445360593636
 30
0.0
 11
464.7500839938758
 21
108.5945360593628
 31
0.0
1001
ACAD
1000
ASC_BOUNDS
1002
{
1070
    19
1002
}
  0
LINE
  5
CB3
330
17
100
AcDbEntity
  8
JISSEN
100
AcDbLine
 10
478.9594928176748
 20
107.7003289707394
 30
0.0
 11
469.6339674703592
 21
96.84653490522002
 31
0.0
  0
LINE
  5
CB4
330
17
100
AcDbEntity
  8
JISSEN
100
AcDbLine
 10
475.7506364496263
 20
108.0318544358613
 30
0.0
 11
467.8662005173931
 21
98.61430185818576
 31
0.0
  0
ARC
  5
CB5
330
17
100
AcDbEntity
  8
JISSEN
100
AcDbCircle
 10
468.750083993876
 20
97.73041838170321
 30
0.0
 40
1.25
100
AcDbArc
 50
135.0000000000048
 51
315.0000000000003
  0
LINE
  5
CB6
330
17
100
AcDbEntity
  8
JISSEN
100
AcDbLine
 10
461.8819165294498
 20
108.394536059364
 30
0.0
 11
464.5500839938758
 21
108.3945360593641
 31
0.0
1001
ACAD
1000
ASC_BOUNDS
1002
{
1070
    19
1002
}
  0
LINE
  5
CB7
330
17
100
AcDbEntity
  8
JISSEN
100
AcDbLine
 10
465.2500839938759
 20
104.6104206137334
 30
0.0
 11
460.4293307054502
 21
104.6104206137334
 31
0.0
  0
LINE
  5
CB8
330
17
100
AcDbEntity
  8
JISSEN
100
AcDbLine
 10
465.2500839938759
 20
106.8723188157558
 30
0.0
 11
461.2702545860929
 21
106.8723188157558
 31
0.0
1001
ACAD
1000
ASC_BOUNDS
1002
{
1070
    19
1002
}
  0
LINE
  5
CB9
330
17
100
AcDbEntity
  8
JISSEN
100
AcDbLine
 10
461.2500839938759
 20
102.5723188157558
 30
0.0
 11
465.2500839938759
 21
104.6104206137334
 31
0.0
1001
ACAD
1000
ASC_BOUNDS
1002
{
1070
    19
1002
}
  0
LINE
  5
CBA
330
17
100
AcDbEntity
  8
JISSEN
100
AcDbLine
 10
461.9307946232043
 20
108.5218678469068
 30
0.0
 11
458.2681753314047
 21
98.98041838170314
 31
0.0
  0
LINE
  5
CBB
330
17
100
AcDbEntity
  8
JISSEN
100
AcDbLine
 10
455.590312847312
 20
98.98041838170314
 30
0.0
 11
458.2979554761986
 21
106.0340685853142
 31
0.0
  0
LINE
  5
CBC
330
17
100
AcDbEntity
  8
JISSEN
100
AcDbLine
 10
458.2681753314047
 20
98.98041838170314
 30
0.0
 11
455.590312847312
 21
98.98041838170314
 31
0.0
  0
LINE
  5
CBD
330
17
100
AcDbEntity
  8
JISSEN
100
AcDbLine
 10
455.5180099938758
 20
99.79544181575588
 30
0.0
 11
455.5180099938758
 21
98.9804183817035
 31
0.0
  0
LINE
  5
CBE
330
17
100
AcDbEntity
  8
JISSEN
100
AcDbLine
 10
455.0180099938757
 20
102.5723188157558
 30
0.0
 11
455.0180099938757
 21
100.9087958157558
 31
0.0
  0
ARC
  5
CBF
330
17
100
AcDbEntity
  8
JISSEN
100
AcDbCircle
 10
455.0180099938757
 20
99.79544181575588
 30
0.0
 40
0.5
100
AcDbArc
 50
0.000000000000007
 51
90.0
  0
LINE
  5
CC0
330
17
100
AcDbEntity
  8
SAISEN
100
AcDbLine
 10
458.9004540724181
 20
100.6275608157558
 30
0.0
 11
461.2680099938757
 21
100.6275608157558
 31
0.0
  0
LINE
  5
CC1
330
17
100
AcDbEntity
  8
SAISEN
100
AcDbLine
 10
458.7729655329662
 20
100.2954418157558
 30
0.0
 11
461.2680099938757
 21
100.2954418157558
 31
0.0
  0
LINE
  5
CC2
330
17
100
AcDbEntity
  8
SAISEN
100
AcDbLine
 10
461.2680099938757
 20
100.2954418157558
 30
0.0
 11
461.2680099938757
 21
100.6275608157558
 31
0.0
  0
LINE
  5
CC3
330
17
100
AcDbEntity
  8
JISSEN
100
AcDbLine
 10
461.2500839938759
 20
102.5723188157558
 30
0.0
 11
459.6469767254657
 21
102.5723188157558
 31
0.0
1001
ACAD
1000
ASC_BOUNDS
1002
{
1070
    19
1002
}
  0
LINE
  5
CC4
330
17
100
AcDbEntity
  8
JISSEN
100
AcDbLine
 10
458.3900839938758
 20
106.8723188157558
 30
0.0
 11
458.3900839938758
 21
108.3945360593639
 31
0.0
1001
ACAD
1000
ASC_BOUNDS
1002
{
1070
    19
1002
}
  0
LINE
  5
CC5
330
17
100
AcDbEntity
  8
JISSEN
100
AcDbLine
 10
465.2500839938759
 20
106.8723188157558
 30
0.0
 11
465.2500839938759
 21
104.6104206137334
 31
0.0
1001
ACAD
1000
ASC_BOUNDS
1002
{
1070
    19
1002
}
  0
ARC
  5
CC6
330
17
100
AcDbEntity
  8
JISSEN
100
AcDbCircle
 10
464.5500839938758
 20
108.5945360593639
 30
0.0
 40
0.2
100
AcDbArc
 50
270.0
 51
359.9999999999991
1001
ACAD
1000
ASC_BOUNDS
1002
{
1070
    19
1002
}
  0
TEXT
  5
CC7
330
17
100
AcDbEntity
  8
SUNPOU
100
AcDbText
 10
489.4932387367359
 20
96.93754559797994
 30
0.0
 40
4.5
  1
1
  7
K
 72
     4
 11
490.0289530224502
 21
99.18754559797996
 31
0.0
100
AcDbText
  0
ARC
  5
CC8
330
17
100
AcDbEntity
  8
JISSEN
100
AcDbCircle
 10
473.5750249938758
 20
121.0804183817032
 30
0.0
 40
0.4
100
AcDbArc
 50
354.5938149999994
 51
90.0
  0
LINE
  5
CC9
330
17
100
AcDbEntity
  8
JISSEN
100
AcDbLine
 10
473.9732459938759
 20
121.0427313817032
 30
0.0
 11
473.4475439938758
 21
115.4877853817031
 31
0.0
  0
LINE
  5
CCA
330
17
100
AcDbEntity
  8
JISSEN
100
AcDbLine
 10
477.1500839938759
 20
123.980418381703
 30
0.0
 11
462.5949903582323
 21
123.980418381703
 31
0.0
  0
LINE
  5
CCB
330
17
100
AcDbEntity
  8
JISSEN
100
AcDbLine
 10
477.1500839938759
 20
122.980418381703
 30
0.0
 11
462.5949903582323
 21
122.980418381703
 31
0.0
  0
LINE
  5
CCC
330
17
100
AcDbEntity
  8
JISSEN
100
AcDbLine
 10
474.8464109938757
 20
114.476776381703
 30
0.0
 11
473.3795129938758
 21
113.7981843817031
 31
0.0
  0
LINE
  5
CCD
330
17
100
AcDbEntity
  8
JISSEN
100
AcDbLine
 10
472.8649909938758
 20
113.8011553817031
 30
0.0
 11
474.3768499938759
 21
114.500546381703
 31
0.0
  0
LINE
  5
CCE
330
17
100
AcDbEntity
  8
JISSEN
100
AcDbLine
 10
466.5292870104776
 20
110.1445360593635
 30
0.0
 11
475.0546896197151
 21
114.153032001074
 31
0.0
1001
ACAD
1000
ASC_BOUNDS
1002
{
1070
    19
1002
}
  0
LINE
  5
CCF
330
17
100
AcDbEntity
  8
JISSEN
100
AcDbLine
 10
462.5949903582323
 20
124.9804183817031
 30
0.0
 11
462.5949903582323
 21
112.1055473423597
 31
0.0
  0
LINE
  5
CD0
330
17
100
AcDbEntity
  8
JISSEN
100
AcDbLine
 10
459.0949903582323
 20
110.3344839798579
 30
0.0
 11
459.0949903582323
 21
124.9804183817031
 31
0.0
  0
LINE
  5
CD1
330
17
100
AcDbEntity
  8
JISSEN
100
AcDbLine
 10
472.9108249938756
 20
121.2628513817032
 30
0.0
 11
472.3800709938758
 21
115.2434013817032
 31
0.0
  0
LINE
  5
CD2
330
17
100
AcDbEntity
  8
JISSEN
100
AcDbLine
 10
471.9058929938758
 20
115.0579683817031
 30
0.0
 11
472.4740009938757
 21
121.298550381703
 31
0.0
  0
LINE
  5
CD3
330
17
100
AcDbEntity
  8
JISSEN
100
AcDbLine
 10
458.7419369938758
 20
114.8811423817031
 30
0.0
 11
458.9813889938759
 21
121.2878883817032
 31
0.0
  0
LINE
  5
CD4
330
17
100
AcDbEntity
  8
JISSEN
100
AcDbLine
 10
468.5019609938756
 20
115.3538633817031
 30
0.0
 11
468.9059949938758
 21
121.1058933817031
 31
0.0
  0
LINE
  5
CD5
330
17
100
AcDbEntity
  8
JISSEN
100
AcDbLine
 10
468.1063239938758
 20
121.1608263817032
 30
0.0
 11
467.7136809938756
 21
115.1611953817031
 31
0.0
  0
LINE
  5
CD6
330
17
100
AcDbEntity
  8
JISSEN
100
AcDbLine
 10
466.6211049938758
 20
121.294432381703
 30
0.0
 11
466.1772979938758
 21
114.976166381703
 31
0.0
  0
LINE
  5
CD7
330
17
100
AcDbEntity
  8
JISSEN
100
AcDbLine
 10
453.5000839938758
 20
120.980418381703
 30
0.0
 11
453.5000839938758
 21
114.1835393817032
 31
0.0
  0
LINE
  5
CD8
330
17
100
AcDbEntity
  8
JISSEN
100
AcDbLine
 10
462.4008271276244
 20
110.1445360593636
 30
0.0
 11
466.5292870104776
 21
110.1445360593635
 31
0.0
1001
ACAD
1000
ASC_BOUNDS
1002
{
1070
    19
1002
}
  0
LINE
  5
CD9
330
17
100
AcDbEntity
  8
JISSEN
100
AcDbLine
 10
458.1500709938758
 20
114.0036163817032
 30
0.0
 11
458.6820609938758
 21
114.712232381703
 31
0.0
  0
ARC
  5
CDA
330
17
100
AcDbEntity
  8
JISSEN
100
AcDbCircle
 10
453.0000839938757
 20
114.1835393817032
 30
0.0
 40
0.5
100
AcDbArc
 50
270.0
 51
0.000000000000007
  0
LINE
  5
CDB
330
17
100
AcDbEntity
  8
JISSEN
100
AcDbLine
 10
459.0949903582323
 20
113.683539381703
 30
0.0
 11
458.3100139938759
 21
113.683539381703
 31
0.0
  0
ARC
  5
CDC
330
17
100
AcDbEntity
  8
JISSEN
100
AcDbCircle
 10
458.3100139938759
 20
113.883539381703
 30
0.0
 40
0.2
100
AcDbArc
 50
143.1028380000009
 51
270.0
  0
ARC
  5
CDD
330
17
100
AcDbEntity
  8
JISSEN
100
AcDbCircle
 10
453.0000839938757
 20
115.2873173817032
 30
0.0
 40
0.5
100
AcDbArc
 50
270.0
 51
0.000000000000007
  0
LINE
  5
CDE
330
17
100
AcDbEntity
  8
JISSEN
100
AcDbLine
 10
459.0949903582323
 20
114.7873173817032
 30
0.0
 11
458.7231599938759
 21
114.7873173817032
 31
0.0
  0
ARC
  5
CDF
330
17
100
AcDbEntity
  8
JISSEN
100
AcDbCircle
 10
458.4421459938758
 20
114.892346381703
 30
0.0
 40
0.3
100
AcDbArc
 50
323.1028380000008
 51
357.8595680000001
  0
LINE
  5
CE0
330
17
100
AcDbEntity
  8
JISSEN
100
AcDbLine
 10
472.7585599938757
 20
114.4597473817031
 30
0.0
 11
471.3704609938758
 21
113.7295343817032
 31
0.0
  0
LINE
  5
CE1
330
17
100
AcDbEntity
  8
JISSEN
100
AcDbLine
 10
470.1413589938758
 20
113.8720413817031
 30
0.0
 11
471.6407339938758
 21
114.6607913817031
 31
0.0
  0
LINE
  5
CE2
330
17
100
AcDbEntity
  8
JISSEN
100
AcDbLine
 10
466.9957369938756
 20
113.7479873817032
 30
0.0
 11
467.9988029938756
 21
114.458909381703
 31
0.0
  0
LINE
  5
CE3
330
17
100
AcDbEntity
  8
JISSEN
100
AcDbLine
 10
466.0095779938758
 20
114.677848381703
 30
0.0
 11
464.9909829938758
 21
113.9559193817031
 31
0.0
  0
LINE
  5
CE4
330
17
100
AcDbEntity
  8
JISSEN
100
AcDbLine
 10
465.0777189938757
 20
113.683539381703
 30
0.0
 11
466.7933519938759
 21
113.683539381703
 31
0.0
  0
ARC
  5
CE5
330
17
100
AcDbEntity
  8
JISSEN
100
AcDbCircle
 10
466.7933519938759
 20
114.0335393817032
 30
0.0
 40
0.35
100
AcDbArc
 50
270.0
 51
305.3270680000006
  0
ARC
  5
CE6
330
17
100
AcDbEntity
  8
JISSEN
100
AcDbCircle
 10
465.0777189938757
 20
113.833539381703
 30
0.0
 40
0.15
100
AcDbArc
 50
125.3270680000005
 51
270.0
  0
INSERT
  5
CE7
330
17
100
AcDbEntity
  8
SUNPOU
100
AcDbBlockReference
  2
ARROW
 10
470.7919883150965
 20
112.1487840302189
 30
0.0
 41
1.499999999999981
 42
1.5
 43
1.5
 50
146.029197483013
  0
ARC
  5
CE8
330
17
100
AcDbEntity
  8
JISSEN
100
AcDbCircle
 10
472.8859829938758
 20
113.755776381703
 30
0.0
 40
0.05
100
AcDbArc
 50
114.8254049999999
 51
270.0
  0
LINE
  5
CE9
330
17
100
AcDbEntity
  8
JISSEN
100
AcDbLine
 10
472.9596579938758
 20
113.7057763817032
 30
0.0
 11
472.8859829938758
 21
113.7057763817032
 31
0.0
  0
ARC
  5
CEA
330
17
100
AcDbEntity
  8
JISSEN
100
AcDbCircle
 10
472.9596579938758
 20
114.7057763817032
 30
0.0
 40
1.0
100
AcDbArc
 50
270.0
 51
294.825405
  0
LINE
  5
CEB
330
17
100
AcDbEntity
  8
JISSEN
100
AcDbLine
 10
471.1842349938756
 20
113.683539381703
 30
0.0
 11
470.1879159938758
 21
113.683539381703
 31
0.0
  0
ARC
  5
CEC
330
17
100
AcDbEntity
  8
JISSEN
100
AcDbCircle
 10
471.1842349938756
 20
114.0835393817031
 30
0.0
 40
0.4
100
AcDbArc
 50
270.0
 51
297.7467379999982
  0
ARC
  5
CED
330
17
100
AcDbEntity
  8
JISSEN
100
AcDbCircle
 10
470.1879159938758
 20
113.7835393817032
 30
0.0
 40
0.1
100
AcDbArc
 50
117.7467380000011
 51
270.0
  0
ARC
  5
CEE
330
17
100
AcDbEntity
  8
JISSEN
100
AcDbCircle
 10
467.3049109938758
 20
115.4379463817031
 30
0.0
 40
1.199999999999999
100
AcDbArc
 50
305.3270680000006
 51
355.9820309999996
  0
LINE
  5
CEF
330
17
100
AcDbEntity
  8
JISSEN
100
AcDbLine
 10
467.3145349938757
 20
114.7873173817032
 30
0.0
 11
466.1143829938758
 21
114.7873173817032
 31
0.0
  0
ARC
  5
CF0
330
17
100
AcDbEntity
  8
JISSEN
100
AcDbCircle
 10
465.7782809938757
 20
115.004194381703
 30
0.0
 40
0.4
100
AcDbArc
 50
305.3270680000006
 51
355.9820309999996
  0
ARC
  5
CF1
330
17
100
AcDbEntity
  8
JISSEN
100
AcDbCircle
 10
467.3145349938757
 20
115.1873173817032
 30
0.0
 40
0.4
100
AcDbArc
 50
270.0
 51
356.2556379999997
  0
ARC
  5
CF2
330
17
100
AcDbEntity
  8
JISSEN
100
AcDbCircle
 10
471.8820029938758
 20
115.2873173817032
 30
0.0
 40
0.5
100
AcDbArc
 50
260.6504449999984
 51
354.9610729999998
  0
ARC
  5
CF3
330
17
100
AcDbEntity
  8
JISSEN
100
AcDbCircle
 10
472.1533269938758
 20
115.6102663817031
 30
0.0
 40
1.3
100
AcDbArc
 50
297.7467379999982
 51
354.5938149999994
  0
ARC
  5
CF4
330
17
100
AcDbEntity
  8
JISSEN
100
AcDbCircle
 10
471.4079519938758
 20
115.103298381703
 30
0.0
 40
0.5
100
AcDbArc
 50
297.7467379999982
 51
354.7984409999997
  0
LINE
  5
CF5
330
17
100
AcDbEntity
  8
JISSEN
100
AcDbLine
 10
459.0949903582323
 20
123.980418381703
 30
0.0
 11
453.0000839938757
 21
123.980418381703
 31
0.0
  0
ARC
  5
CF6
330
17
100
AcDbEntity
  8
JISSEN
100
AcDbCircle
 10
453.0000839938757
 20
120.980418381703
 30
0.0
 40
0.5
100
AcDbArc
 50
0.000000000000007
 51
90.0
  0
LINE
  5
CF7
330
17
100
AcDbEntity
  8
JISSEN
100
AcDbLine
 10
453.0000839938757
 20
124.9804183817031
 30
0.0
 11
453.0000839938757
 21
123.980418381703
 31
0.0
  0
ARC
  5
CF8
330
17
100
AcDbEntity
  8
JISSEN
100
AcDbCircle
 10
459.1812499938757
 20
121.2804183817032
 30
0.0
 40
0.2
100
AcDbArc
 50
115.5499740378464
 51
177.8595680000002
  0
LINE
  5
CF9
330
17
100
AcDbEntity
  8
JISSEN
100
AcDbLine
 10
468.5568559938756
 20
121.480418381703
 30
0.0
 11
467.8069649938757
 21
121.480418381703
 31
0.0
  0
LINE
  5
CFA
330
17
100
AcDbEntity
  8
JISSEN
100
AcDbLine
 10
467.8069649938757
 20
121.480418381703
 30
0.0
 11
466.8206139938757
 21
121.480418381703
 31
0.0
  0
ARC
  5
CFB
330
17
100
AcDbEntity
  8
JISSEN
100
AcDbCircle
 10
466.8206139938757
 20
121.2804183817032
 30
0.0
 40
0.2
100
AcDbArc
 50
90.0
 51
175.9820309999995
  0
ARC
  5
CFC
330
17
100
AcDbEntity
  8
JISSEN
100
AcDbCircle
 10
467.8069649938757
 20
121.1804183817031
 30
0.0
 40
0.3
100
AcDbArc
 50
356.2556379999997
 51
90.0
  0
ARC
  5
CFD
330
17
100
AcDbEntity
  8
JISSEN
100
AcDbCircle
 10
472.7115979938758
 20
121.2804183817032
 30
0.0
 40
0.2
100
AcDbArc
 50
354.9610729999998
 51
90.0
  0
LINE
  5
CFE
330
17
100
AcDbEntity
  8
JISSEN
100
AcDbLine
 10
472.6731779938758
 20
121.480418381703
 30
0.0
 11
473.5750249938758
 21
121.480418381703
 31
0.0
  0
ARC
  5
CFF
330
17
100
AcDbEntity
  8
JISSEN
100
AcDbCircle
 10
472.6731779938758
 20
121.2804183817032
 30
0.0
 40
0.2
100
AcDbArc
 50
90.0
 51
174.7984409999996
  0
ARC
  5
D00
330
17
100
AcDbEntity
  8
JISSEN
100
AcDbCircle
 10
468.5568559938756
 20
121.130418381703
 30
0.0
 40
0.35
100
AcDbArc
 50
355.9820309999996
 51
90.0
  0
LINE
  5
D01
330
17
100
AcDbEntity
  8
JISSEN
100
AcDbLine
 10
475.1235749938758
 20
115.5413163817031
 30
0.0
 11
475.7555059938758
 21
121.413354381703
 31
0.0
  0
LINE
  5
D02
330
17
100
AcDbEntity
  8
JISSEN
100
AcDbLine
 10
476.2384079938756
 20
121.0598543817031
 30
0.0
 11
475.6505779938757
 21
115.597605381703
 31
0.0
  0
LINE
  5
D03
330
17
100
AcDbEntity
  8
JISSEN
100
AcDbLine
 10
476.4688509938758
 20
121.480418381703
 30
0.0
 11
475.9484969938758
 21
115.532741381703
 31
0.0
  0
ARC
  5
D04
330
17
100
AcDbEntity
  8
JISSEN
100
AcDbCircle
 10
474.4542046643386
 20
115.5275929558397
 30
0.0
 40
1.5
100
AcDbArc
 50
290.0
 51
355.0000000000001
  0
ARC
  5
D05
330
17
100
AcDbEntity
  8
JISSEN
100
AcDbCircle
 10
473.8310389938758
 20
115.680415381703
 30
0.0
 40
1.3
100
AcDbArc
 50
294.825405
 51
353.8576429999999
  0
ARC
  5
D06
330
17
100
AcDbEntity
  8
JISSEN
100
AcDbCircle
 10
474.2586149938758
 20
115.7474043817032
 30
0.0
 40
1.399999999999999
100
AcDbArc
 50
294.825405
 51
353.8576429999999
  0
LINE
  5
D07
330
17
100
AcDbEntity
  8
JISSEN
100
AcDbLine
 10
477.1500839938759
 20
122.980418381703
 30
0.0
 11
476.6000839938756
 21
122.980418381703
 31
0.0
  0
ARC
  5
D08
330
17
100
AcDbEntity
  8
JISSEN
100
AcDbCircle
 10
475.8407049938758
 20
121.102654381703
 30
0.0
 40
0.4
100
AcDbArc
 50
353.8576429999999
 51
88.6411450000026
  0
ARC
  5
D09
330
17
100
AcDbEntity
  8
JISSEN
100
AcDbCircle
 10
475.8549319938758
 20
121.402654381703
 30
0.0
 40
0.1
100
AcDbArc
 50
92.7179019999998
 51
173.8576429999999
  0
LINE
  5
D0A
330
17
100
AcDbEntity
  8
JISSEN
100
AcDbLine
 10
476.6000839938756
 20
122.980418381703
 30
0.0
 11
476.4688509938758
 21
121.480418381703
 31
0.0
  0
INSERT
  5
D0B
330
17
100
AcDbEntity
  8
SUNPOU
100
AcDbBlockReference
  2
ARROW
 10
480.650083993876
 20
121.8712823735263
 30
0.0
 41
1.499999999999991
 42
1.5
 43
1.5
 50
142.3278883834792
  0
CIRCLE
  5
D0C
330
17
100
AcDbEntity
  8
SUNPOU
100
AcDbCircle
 10
510.0289530224501
 20
99.18754559797996
 30
0.0
 40
6.0
  0
TEXT
  5
D0D
330
17
100
AcDbEntity
  8
SUNPOU
100
AcDbText
 10
508.5289530224502
 20
96.93754559797994
 30
0.0
 40
4.5
  1
2
  7
K
 72
     4
 11
510.0289530224501
 21
99.18754559797996
 31
0.0
100
AcDbText
  0
LINE
  5
D0E
330
17
100
AcDbEntity
  8
TEXT
100
AcDbLine
 10
511.4945299049061
 20
9.658760924483202
 30
0.0
 11
513.2945299049062
 21
9.658760924483202
 31
0.0
  0
LINE
  5
D0F
102
{ACAD_REACTORS
330
C26
102
}
330
17
100
AcDbEntity
  8
JISSEN
100
AcDbLine
 10
462.5975899108246
 20
131.4804183817032
 30
0.0
 11
517.2759065115553
 21
131.4804183817032
 31
0.0
  0
LINE
  5
D10
102
{ACAD_REACTORS
330
C26
102
}
330
17
100
AcDbEntity
  8
JISSEN
100
AcDbLine
 10
520.7336695449852
 20
136.480418381703
 30
0.0
 11
462.535086730888
 21
136.480418381703
 31
0.0
  0
LINE
  5
D11
330
17
100
AcDbEntity
  8
JISSEN
100
AcDbLine
 10
462.1652287152406
 20
148.3152727370336
 30
0.0
 11
462.6588029938758
 21
132.5216993817031
 31
0.0
  0
LINE
  5
D12
330
17
100
AcDbEntity
  8
SAISEN
100
AcDbLine
 10
461.4593169938758
 20
133.7211853817032
 30
0.0
 11
460.9668171471424
 21
149.4804183817068
 31
0.0
  0
LINE
  5
D13
330
17
100
AcDbEntity
  8
JISSEN
100
AcDbLine
 10
463.7000839938758
 20
131.4804183817032
 30
0.0
 11
462.6588029938758
 21
132.5216993817031
 31
0.0
  0
LINE
  5
D14
330
17
100
AcDbEntity
  8
SAISEN
100
AcDbLine
 10
462.6588029938758
 20
132.5216993817031
 30
0.0
 11
461.4593169938758
 21
133.7211853817032
 31
0.0
  0
LINE
  5
D15
102
{ACAD_REACTORS
330
C26
102
}
330
17
100
AcDbEntity
  8
JISSEN
100
AcDbLine
 10
469.5000839938757
 20
136.480418381703
 30
0.0
 11
469.5000839938757
 21
131.4804183817032
 31
0.0
  0
LINE
  5
D16
330
17
100
AcDbEntity
  8
JISSEN
100
AcDbLine
 10
462.2620079938758
 20
148.2184933817068
 30
0.0
 11
461.0000839938757
 21
149.4804183817068
 31
0.0
  0
LWPOLYLINE
  5
D17
102
{ACAD_REACTORS
330
C26
102
}
330
17
100
AcDbEntity
  8
HATCH
100
AcDbPolyline
 90
       13
 70
     0
 43
0.0
 10
520.7336695449852
 20
136.480418381703
 10
520.5690823667351
 20
135.660781303471
 10
520.4271770100548
 20
135.1441633267068
 10
520.199468372907
 20
134.725737040019
 10
519.8915808862478
 20
134.387620016352
 10
519.5253575972683
 20
134.0973689437019
 10
519.1226415531596
 20
133.8225405100645
 10
518.7052758011126
 20
133.5306914034354
 10
518.2951033883187
 20
133.1893783118107
 10
517.9139673619693
 20
132.7661579231864
 10
517.5837107692548
 20
132.2285869255581
 10
517.3091307060518
 20
131.5649681382705
 10
517.2759065115553
 20
131.4804183817032
  0
TEXT
  5
D18
330
17
100
AcDbEntity
  8
TEXT
100
AcDbText
 10
526.8499998318597
 20
256.5000004073453
 30
0.0
 40
3.0
  1
梨地Crメッキ
 41
0.7
  7
K
 72
     4
 11
534.4999998318598
 21
258.0000004073453
 31
0.0
100
AcDbText
  0
TEXT
  5
D19
330
17
100
AcDbEntity
  8
TEXT
100
AcDbText
 10
527.6999998318598
 20
268.5000002076879
 30
0.0
 40
3.0
  1
備    考
  7
K
 72
     4
 11
534.4999998318598
 21
270.0000002076878
 31
0.0
100
AcDbText
  0
LINE
  5
D1A
330
17
100
AcDbEntity
  8
JISSEN
100
AcDbLine
 10
453.4999998318596
 20
267.0000002076879
 30
0.0
 11
542.9999998318598
 21
267.0000002076879
 31
0.0
  0
LINE
  5
D1B
330
17
100
AcDbEntity
  8
JISSEN
100
AcDbLine
 10
453.4999998318596
 20
261.0000002076878
 30
0.0
 11
542.9999998318598
 21
261.0000002076878
 31
0.0
  0
LINE
  5
D1C
330
17
100
AcDbEntity
  8
JISSEN
100
AcDbLine
 10
453.4999998318596
 20
255.0000002076879
 30
0.0
 11
542.9999998318598
 21
255.0000002076879
 31
0.0
  0
LINE
  5
D1D
330
17
100
AcDbEntity
  8
JISSEN
100
AcDbLine
 10
514.4999998318597
 20
255.0000002076879
 30
0.0
 11
514.4999998318597
 21
273.0000002076879
 31
0.0
  0
LINE
  5
D1E
330
17
100
AcDbEntity
  8
JISSEN
100
AcDbLine
 10
525.4999998318598
 20
273.0000002076879
 30
0.0
 11
525.4999998318598
 21
255.0000002076879
 31
0.0
  0
TEXT
  5
D1F
330
17
100
AcDbEntity
  8
TEXT
100
AcDbText
 10
519.5366911754117
 20
262.5000002076879
 30
0.0
 40
3.0
  1
1
  7
K
 72
     4
 11
519.8938340325546
 21
264.0000002076878
 31
0.0
100
AcDbText
  0
LINE
  5
D20
330
17
100
AcDbEntity
  8
JISSEN
100
AcDbLine
 10
453.4999998318596
 20
255.0000002076879
 30
0.0
 11
453.4999998318596
 21
273.0000002076879
 31
0.0
  0
LINE
  5
D21
330
17
100
AcDbEntity
  8
JISSEN
100
AcDbLine
 10
463.4999998318598
 20
273.0000002076879
 30
0.0
 11
463.4999998318598
 21
255.0000002076879
 31
0.0
  0
LINE
  5
D22
330
17
100
AcDbEntity
  8
JISSEN
100
AcDbLine
 10
493.4999998318597
 20
273.0000002076879
 30
0.0
 11
493.4999998318597
 21
255.0000002076879
 31
0.0
  0
TEXT
  5
D23
330
17
100
AcDbEntity
  8
TEXT
100
AcDbText
 10
458.142856974717
 20
262.5000002076879
 30
0.0
 40
3.0
  1
1
  7
K
 72
     4
 11
458.4999998318598
 21
264.0000002076878
 31
0.0
100
AcDbText
  0
TEXT
  5
D24
330
17
100
AcDbEntity
  8
TEXT
100
AcDbText
 10
464.6657141175739
 20
262.642857350545
 30
0.0
 40
3.0
  1
MFQR   型ヘッド
 41
0.9
  7
K
 72
     4
 11
478.4999998318596
 21
264.0000002076878
 31
0.0
100
AcDbText
  0
LINE
  5
D25
330
17
100
AcDbEntity
  8
TEXT
100
AcDbLine
 10
476.4688305669809
 20
265.6422247179493
 30
0.0
 11
476.4688305669809
 21
262.6422247179494
 31
0.0
  0
LINE
  5
D26
330
17
100
AcDbEntity
  8
TEXT
100
AcDbLine
 10
477.3688305669808
 20
265.6422247179493
 30
0.0
 11
477.3688305669808
 21
262.6422247179494
 31
0.0
  0
TEXT
  5
D27
330
17
100
AcDbEntity
  8
TEXT
100
AcDbText
 10
466.6714284032882
 20
256.5000002076879
 30
0.0
 40
3.0
  1
ガード MFJ   
 41
0.9
  7
K
 72
     4
 11
478.4999998318596
 21
258.0000002076878
 31
0.0
100
AcDbText
  0
TEXT
  5
D28
330
17
100
AcDbEntity
  8
TEXT
100
AcDbText
 10
457.8116436659654
 20
256.5000002076879
 30
0.0
 40
3.0
  1
2
  7
K
 72
     4
 11
458.8116436659655
 21
258.0000002076878
 31
0.0
100
AcDbText
  0
LINE
  5
D29
330
17
100
AcDbEntity
  8
TEXT
100
AcDbLine
 10
476.0188305669807
 20
262.6422247179494
 30
0.0
 11
477.8188305669807
 21
262.6422247179494
 31
0.0
  0
LINE
  5
D2A
330
17
100
AcDbEntity
  8
TEXT
100
AcDbLine
 10
486.6973252831384
 20
259.4893306408565
 30
0.0
 11
486.6973252831384
 21
256.4893306408567
 31
0.0
  0
LINE
  5
D2B
330
17
100
AcDbEntity
  8
TEXT
100
AcDbLine
 10
487.5973252831383
 20
259.4893306408565
 30
0.0
 11
487.5973252831383
 21
256.4893306408567
 31
0.0
  0
LINE
  5
D2C
330
17
100
AcDbEntity
  8
TEXT
100
AcDbLine
 10
486.2473252831382
 20
256.4893306408567
 30
0.0
 11
488.0473252831382
 21
256.4893306408567
 31
0.0
  0
LINE
  5
D2D
330
17
100
AcDbEntity
  8
TEXT
100
AcDbLine
 10
486.2473252831382
 20
259.4893306408565
 30
0.0
 11
488.0473252831382
 21
259.4893306408565
 31
0.0
  0
TEXT
  5
D2E
330
17
100
AcDbEntity
  8
TEXT
100
AcDbText
 10
498.8249998318598
 20
264.3000002076878
 30
0.0
 40
3.0
  1
%%u      
  7
K
 72
     4
 11
503.9999998318598
 21
264.0000002076878
 31
0.0
100
AcDbText
  0
TEXT
  5
D2F
330
17
100
AcDbEntity
  8
TEXT
100
AcDbText
 10
499.8571426890026
 20
256.5000002076879
 30
0.0
 40
3.0
  1
ADC
  7
K
 72
     4
 11
503.9999998318598
 21
258.0000002076878
 31
0.0
100
AcDbText
  0
TEXT
  5
D30
330
17
100
AcDbEntity
  8
TEXT
100
AcDbText
 10
519.5366911754117
 20
256.580835384029
 30
0.0
 40
3.0
  1
1
  7
K
 72
     4
 11
519.8938340325546
 21
258.080835384029
 31
0.0
100
AcDbText
  0
TEXT
  5
D31
330
17
100
AcDbEntity
  8
TEXT
100
AcDbText
 10
469.8999998318596
 20
268.5000002076879
 30
0.0
 40
3.0
  1
名      称
  7
K
 72
     4
 11
478.4999998318596
 21
270.0000002076878
 31
0.0
100
AcDbText
  0
TEXT
  5
D32
330
17
100
AcDbEntity
  8
TEXT
100
AcDbText
 10
455.2999998318598
 20
268.5000002076879
 30
0.0
 40
3.0
  1
番号
  7
K
 72
     4
 11
458.4999998318598
 21
270.0000002076878
 31
0.0
100
AcDbText
  0
LINE
  5
D33
330
17
100
AcDbEntity
  8
TEXT
100
AcDbLine
 10
476.0188305669807
 20
265.6422247179493
 30
0.0
 11
477.8188305669807
 21
265.6422247179493
 31
0.0
  0
TEXT
  5
D34
330
17
100
AcDbEntity
  8
TEXT
100
AcDbText
 10
497.1999998318598
 20
268.5000002076879
 30
0.0
 40
3.0
  1
材    質
  7
K
 72
     4
 11
503.9999998318598
 21
270.0000002076878
 31
0.0
100
AcDbText
  0
TEXT
  5
D35
330
17
100
AcDbEntity
  8
TEXT
100
AcDbText
 10
516.7999998318596
 20
268.5000002076879
 30
0.0
 40
3.0
  1
個数
  7
K
 72
     4
 11
519.9999998318596
 21
270.0000002076878
 31
0.0
100
AcDbText
  0
LWPOLYLINE
  5
D36
330
17
100
AcDbEntity
  8
WAKU
100
AcDbPolyline
 90
        4
 70
     1
 43
0.0
 10
362.0
 20
0.0
 10
543.0
 20
0.0
 10
543.0
 20
273.0
 10
362.0
 20
273.0
  0
LINE
  5
D90
330
17
100
AcDbEntity
  8
SUNPOU
100
AcDbLine
 10
55.75069792957704
 20
223.9392091784857
 30
0.0
 11
98.28042491373807
 21
223.9392091784857
 31
0.0
  0
TEXT
  5
D91
330
17
100
AcDbEntity
  8
SUNPOU
100
AcDbText
 10
61.27110754996383
 20
224.6637211784859
 30
0.0
 40
3.0
  1
M4×0.7
  7
K
 72
     1
 11
69.35682183567812
 21
224.6637211784859
 31
0.0
100
AcDbText
  0
TEXT
  5
D92
330
17
100
AcDbEntity
  8
SUNPOU
100
AcDbText
 10
61.73771843523548
 20
219.6591151784857
 30
0.0
 40
3.0
  1
(六角穴付き止めネジ)
  7
K
 72
     1
 11
79.43771843523548
 21
219.6591151784857
 31
0.0
100
AcDbText
  0
LINE
  5
D93
330
17
100
AcDbEntity
  8
SUNPOU
100
AcDbLine
 10
60.07483149999998
 20
209.321084
 30
0.0
 11
55.75069792957704
 21
223.9392091784857
 31
0.0
  0
INSERT
  5
D94
330
17
100
AcDbEntity
  8
SUNPOU
100
AcDbBlockReference
  2
ARROWANG
 10
60.07483149999998
 20
209.321084
 30
0.0
 41
-1.499999999999995
 42
1.5
 43
1.5
 50
106.4785499999999
  0
LINE
  5
E34
330
17
100
AcDbEntity
  8
TEXT
100
AcDbLine
 10
331.5332779194489
 20
9.658761007125916
 30
0.0
 11
331.5332779194489
 21
6.658761007125917
 31
0.0
  0
LINE
  5
E35
330
17
100
AcDbEntity
  8
SUNPOU
100
AcDbLine
 10
292.9597966514941
 20
265.500037214232
 30
0.0
 11
292.9597966514941
 21
262.500037214232
 31
0.0
  0
LINE
  5
E36
330
17
100
AcDbEntity
  8
SUNPOU
100
AcDbLine
 10
476.9188305669807
 20
265.6422247179493
 30
0.0
 11
476.9188305669807
 21
262.6422247179494
 31
0.0
  0
LINE
  5
E37
330
17
100
AcDbEntity
  8
SUNPOU
100
AcDbLine
 10
512.3945299049061
 20
9.658760924483202
 30
0.0
 11
512.3945299049061
 21
6.658760924483202
 31
0.0
  0
ENDSEC
  0
SECTION
  2
OBJECTS
  0
DICTIONARY
  5
C
330
0
100
AcDbDictionary
  3
ACAD_GROUP
350
D
  3
ACAD_LAYOUT
350
7FE
  3
ACAD_MLINESTYLE
350
1A
  3
ACAD_PLOTSETTINGS
350
7FF
  3
ACAD_PLOTSTYLENAME
350
7FC
  3
ACDBHEADERROUNDTRIPXREC
350
E3A
  3
ACDBVARIABLEDICTIONARY
350
32F
  0
DICTIONARY
  5
867
330
17
100
AcDbDictionary
280
     1
  3
ACAD_LAYOUTSELFREF
360
E5C
  0
DICTIONARY
  5
865
330
14
100
AcDbDictionary
280
     1
  3
ACAD_LAYOUTSELFREF
360
E5B
  0
DICTIONARY
  5
D
102
{ACAD_REACTORS
330
C
102
}
330
C
100
AcDbDictionary
  0
DICTIONARY
  5
7FE
102
{ACAD_REACTORS
330
C
102
}
330
C
100
AcDbDictionary
  0
DICTIONARY
  5
1A
102
{ACAD_REACTORS
330
C
102
}
330
C
100
AcDbDictionary
  3
STANDARD
350
1B
  0
DICTIONARY
  5
7FF
102
{ACAD_REACTORS
330
C
102
}
330
C
100
AcDbDictionary
  0
ACDBDICTIONARYWDFLT
  5
7FC
102
{ACAD_REACTORS
330
C
102
}
330
C
100
AcDbDictionary
281
     1
  3
Normal
350
7FD
100
AcDbDictionaryWithDefault
340
7FD
  0
DICTIONARY
  5
E3A
102
{ACAD_REACTORS
330
C
102
}
330
C
100
AcDbDictionary
  3
CEPSNTYPE
350
E44
  3
DIMSTYLEDATA
350
E48
  3
FINGERPRINTGUID
350
E45
  3
HYPERLINKBASE
350
E3D
  3
INSUNITS
350
E43
  3
LAYOUTDICT
350
E3F
  3
LWETCUNION
350
E42
  3
PLOTSETDICT
350
E40
  3
PLOTSTYLNAMDICT
350
E41
  3
PSVPSCALE
350
E47
  3
PUCSBASE
350
E4B
  3
PUCSORGBACK
350
E51
  3
PUCSORGBOTTOM
350
E4D
  3
PUCSORGFRONT
350
E50
  3
PUCSORGLEFT
350
E4E
  3
PUCSORGRIGHT
350
E4F
  3
PUCSORGTOP
350
E4C
  3
PUCSORTHOREF
350
E49
  3
PUCSORTHOVIEW
350
E4A
  3
STYLESHEET
350
E3E
  3
TSTACKALIGN
350
E3B
  3
TSTACKSIZE
350
E3C
  3
UCSBASE
350
E54
  3
UCSORGBACK
350
E5A
  3
UCSORGBOTTOM
350
E56
  3
UCSORGFRONT
350
E59
  3
UCSORGLEFT
350
E57
  3
UCSORGRIGHT
350
E58
  3
UCSORGTOP
350
E55
  3
UCSORTHOREF
350
E52
  3
UCSORTHOVIEW
350
E53
  3
VERSIONGUID
350
E46
  0
DICTIONARY
  5
32F
102
{ACAD_REACTORS
330
C
102
}
330
C
100
AcDbDictionary
  3
DIMASSOC
350
E09
  3
SORTENTS
350
330
  0
XRECORD
  5
E5C
102
{ACAD_REACTORS
330
867
102
}
330
867
100
AcDbXrecord
340
17
  0
XRECORD
  5
E5B
102
{ACAD_REACTORS
330
865
102
}
330
865
100
AcDbXrecord
340
14
  0
MLINESTYLE
  5
1B
102
{ACAD_REACTORS
330
1A
102
}
330
1A
100
AcDbMlineStyle
  2
STANDARD
 70
     0
  3

 62
   256
 51
90.0
 52
90.0
 71
     2
 49
0.5
 62
   256
  6
BYLAYER
 49
-0.5
 62
   256
  6
BYLAYER
  0
ACDBPLACEHOLDER
  5
7FD
102
{ACAD_REACTORS
330
7FC
102
}
330
7FC
100
AcDbPlaceHolder
280
     0
  0
XRECORD
  5
E44
102
{ACAD_REACTORS
330
E3A
102
}
330
E3A
100
AcDbXrecord
 90
        0
  0
XRECORD
  5
E48
102
{ACAD_REACTORS
330
E3A
102
}
330
E3A
100
AcDbXrecord
1000
DSTYLE
1002
{
1070
   341
340
1C
1070
   342
340
1C
1002
}
  0
XRECORD
  5
E45
102
{ACAD_REACTORS
330
E3A
102
}
330
E3A
100
AcDbXrecord
  1
{FD36F25F-CA8F-4FF8-AD6D-30D96A84396C}
  0
XRECORD
  5
E3D
102
{ACAD_REACTORS
330
E3A
102
}
330
E3A
100
AcDbXrecord
  1

  0
XRECORD
  5
E43
102
{ACAD_REACTORS
330
E3A
102
}
330
E3A
100
AcDbXrecord
 90
        0
  0
XRECORD
  5
E3F
102
{ACAD_REACTORS
330
E3A
102
}
330
E3A
100
AcDbXrecord
340
7FE
  0
XRECORD
  5
E42
102
{ACAD_REACTORS
330
E3A
102
}
330
E3A
100
AcDbXrecord
 90
    14877
  0
XRECORD
  5
E40
102
{ACAD_REACTORS
330
E3A
102
}
330
E3A
100
AcDbXrecord
340
7FF
  0
XRECORD
  5
E41
102
{ACAD_REACTORS
330
E3A
102
}
330
E3A
100
AcDbXrecord
340
7FC
  0
XRECORD
  5
E47
102
{ACAD_REACTORS
330
E3A
102
}
330
E3A
100
AcDbXrecord
 40
0.0
  0
XRECORD
  5
E4B
102
{ACAD_REACTORS
330
E3A
102
}
330
E3A
100
AcDbXrecord
340
0
  0
XRECORD
  5
E51
102
{ACAD_REACTORS
330
E3A
102
}
330
E3A
100
AcDbXrecord
 10
0.0
 20
0.0
 30
0.0
  0
XRECORD
  5
E4D
102
{ACAD_REACTORS
330
E3A
102
}
330
E3A
100
AcDbXrecord
 10
0.0
 20
0.0
 30
0.0
  0
XRECORD
  5
E50
102
{ACAD_REACTORS
330
E3A
102
}
330
E3A
100
AcDbXrecord
 10
0.0
 20
0.0
 30
0.0
  0
XRECORD
  5
E4E
102
{ACAD_REACTORS
330
E3A
102
}
330
E3A
100
AcDbXrecord
 10
0.0
 20
0.0
 30
0.0
  0
XRECORD
  5
E4F
102
{ACAD_REACTORS
330
E3A
102
}
330
E3A
100
AcDbXrecord
 10
0.0
 20
0.0
 30
0.0
  0
XRECORD
  5
E4C
102
{ACAD_REACTORS
330
E3A
102
}
330
E3A
100
AcDbXrecord
 10
0.0
 20
0.0
 30
0.0
  0
XRECORD
  5
E49
102
{ACAD_REACTORS
330
E3A
102
}
330
E3A
100
AcDbXrecord
340
0
  0
XRECORD
  5
E4A
102
{ACAD_REACTORS
330
E3A
102
}
330
E3A
100
AcDbXrecord
 70
     0
  0
XRECORD
  5
E3E
102
{ACAD_REACTORS
330
E3A
102
}
330
E3A
100
AcDbXrecord
  1

  0
XRECORD
  5
E3B
102
{ACAD_REACTORS
330
E3A
102
}
330
E3A
100
AcDbXrecord
 90
        1
  0
XRECORD
  5
E3C
102
{ACAD_REACTORS
330
E3A
102
}
330
E3A
100
AcDbXrecord
 90
       70
  0
XRECORD
  5
E54
102
{ACAD_REACTORS
330
E3A
102
}
330
E3A
100
AcDbXrecord
340
0
  0
XRECORD
  5
E5A
102
{ACAD_REACTORS
330
E3A
102
}
330
E3A
100
AcDbXrecord
 10
0.0
 20
0.0
 30
0.0
  0
XRECORD
  5
E56
102
{ACAD_REACTORS
330
E3A
102
}
330
E3A
100
AcDbXrecord
 10
0.0
 20
0.0
 30
0.0
  0
XRECORD
  5
E59
102
{ACAD_REACTORS
330
E3A
102
}
330
E3A
100
AcDbXrecord
 10
0.0
 20
0.0
 30
0.0
  0
XRECORD
  5
E57
102
{ACAD_REACTORS
330
E3A
102
}
330
E3A
100
AcDbXrecord
 10
0.0
 20
0.0
 30
0.0
  0
XRECORD
  5
E58
102
{ACAD_REACTORS
330
E3A
102
}
330
E3A
100
AcDbXrecord
 10
0.0
 20
0.0
 30
0.0
  0
XRECORD
  5
E55
102
{ACAD_REACTORS
330
E3A
102
}
330
E3A
100
AcDbXrecord
 10
0.0
 20
0.0
 30
0.0
  0
XRECORD
  5
E52
102
{ACAD_REACTORS
330
E3A
102
}
330
E3A
100
AcDbXrecord
340
0
  0
XRECORD
  5
E53
102
{ACAD_REACTORS
330
E3A
102
}
330
E3A
100
AcDbXrecord
 70
     0
  0
XRECORD
  5
E46
102
{ACAD_REACTORS
330
E3A
102
}
330
E3A
100
AcDbXrecord
  1
{F4EE5EF7-3C49-4AE9-BC56-4D4CFE1A285C}
  0
DICTIONARYVAR
  5
E09
102
{ACAD_REACTORS
330
32F
102
}
330
32F
100
DictionaryVariables
280
     0
  1
0
  0
DICTIONARYVAR
  5
330
102
{ACAD_REACTORS
330
32F
102
}
330
32F
100
DictionaryVariables
280
     0
  1
96
  0
ENDSEC
  0
EOF
