  0
SECTION
  2
HEADER
  9
$ACADVER
  1
AC1014
  9
$ACADMAINTVER
 70
     9
  9
$DWGCODEPAGE
  3
ANSI_932
  9
$INSBASE
 10
0.0
 20
0.0
 30
0.0
  9
$EXTMIN
 10
-0.0220937149985048
 20
-0.0166618349027203
 30
-0.0000000349181948
  9
$EXTMAX
 10
362.0220950864886
 20
273.0166646907759
 30
0.0000000814935747
  9
$LIMMIN
 10
0.0
 20
0.0
  9
$LIMMAX
 10
180.999999
 20
273.0
  9
$ORTHOMODE
 70
     1
  9
$REGENMODE
 70
     1
  9
$FILLMODE
 70
     1
  9
$QTEXTMODE
 70
     0
  9
$MIRRTEXT
 70
     0
  9
$DRAGMODE
 70
     2
  9
$LTSCALE
 40
5.0
  9
$OSMODE
 70
   167
  9
$ATTMODE
 70
     1
  9
$TEXTSIZE
 40
5.0
  9
$TRACEWID
 40
0.05
  9
$TEXTSTYLE
  7
ROMANS
  9
$CLAYER
  8
JISSEN
  9
$CELTYPE
  6
BYLAYER
  9
$CECOLOR
 62
   256
  9
$CELTSCALE
 40
1.0
  9
$DELOBJ
 70
     1
  9
$DISPSILH
 70
     0
  9
$DIMSCALE
 40
1.0
  9
$DIMASZ
 40
1.5
  9
$DIMEXO
 40
1.0
  9
$DIMDLI
 40
6.0
  9
$DIMRND
 40
0.0
  9
$DIMDLE
 40
0.0
  9
$DIMEXE
 40
1.0
  9
$DIMTP
 40
0.0
  9
$DIMTM
 40
0.0
  9
$DIMTXT
 40
3.0
  9
$DIMCEN
 40
1.0
  9
$DIMTSZ
 40
0.0
  9
$DIMTOL
 70
     0
  9
$DIMLIM
 70
     0
  9
$DIMTIH
 70
     0
  9
$DIMTOH
 70
     0
  9
$DIMSE1
 70
     0
  9
$DIMSE2
 70
     0
  9
$DIMTAD
 70
     0
  9
$DIMZIN
 70
     8
  9
$DIMBLK
  1
ARROW
  9
$DIMASO
 70
     0
  9
$DIMSHO
 70
     0
  9
$DIMPOST
  1

  9
$DIMAPOST
  1

  9
$DIMALT
 70
     0
  9
$DIMALTD
 70
     2
  9
$DIMALTF
 40
25.4
  9
$DIMLFAC
 40
1.0
  9
$DIMTOFL
 70
     1
  9
$DIMTVP
 40
1.0
  9
$DIMTIX
 70
     0
  9
$DIMSOXD
 70
     0
  9
$DIMSAH
 70
     0
  9
$DIMBLK1
  1

  9
$DIMBLK2
  1

  9
$DIMSTYLE
  2
IMAO
  9
$DIMCLRD
 70
     0
  9
$DIMCLRE
 70
     0
  9
$DIMCLRT
 70
     0
  9
$DIMTFAC
 40
1.0
  9
$DIMGAP
 40
0.09
  9
$DIMJUST
 70
     0
  9
$DIMSD1
 70
     0
  9
$DIMSD2
 70
     0
  9
$DIMTOLJ
 70
     1
  9
$DIMTZIN
 70
     0
  9
$DIMALTZ
 70
     0
  9
$DIMALTTZ
 70
     0
  9
$DIMFIT
 70
     3
  9
$DIMUPT
 70
     0
  9
$DIMUNIT
 70
     2
  9
$DIMDEC
 70
     4
  9
$DIMTDEC
 70
     4
  9
$DIMALTU
 70
     2
  9
$DIMALTTD
 70
     2
  9
$DIMTXSTY
  7
STANDARD
  9
$DIMAUNIT
 70
     0
  9
$LUNITS
 70
     2
  9
$LUPREC
 70
     2
  9
$SKETCHINC
 40
0.1
  9
$FILLETRAD
 40
1.5
  9
$AUNITS
 70
     0
  9
$AUPREC
 70
     2
  9
$MENU
  1
stdr12j
  9
$ELEVATION
 40
0.0
  9
$PELEVATION
 40
0.0
  9
$THICKNESS
 40
0.0
  9
$LIMCHECK
 70
     0
  9
$BLIPMODE
 70
     0
  9
$CHAMFERA
 40
0.0
  9
$CHAMFERB
 40
0.0
  9
$CHAMFERC
 40
0.0
  9
$CHAMFERD
 40
0.0
  9
$SKPOLY
 70
     0
  9
$TDCREATE
 40
2449955.466837384
  9
$TDUPDATE
 40
2453620.732044571
  9
$TDINDWG
 40
0.0734576620
  9
$TDUSRTIMER
 40
0.0734576620
  9
$USRTIMER
 70
     1
  9
$ANGBASE
 50
0.0
  9
$ANGDIR
 70
     0
  9
$PDMODE
 70
     0
  9
$PDSIZE
 40
0.0
  9
$PLINEWID
 40
0.0
  9
$COORDS
 70
     2
  9
$SPLFRAME
 70
     0
  9
$SPLINETYPE
 70
     6
  9
$SPLINESEGS
 70
     8
  9
$ATTDIA
 70
     0
  9
$ATTREQ
 70
     1
  9
$HANDLING
 70
 22529
  9
$HANDSEED
  5
1BC42D08742FB
  9
$SURFTAB1
 70
     6
  9
$SURFTAB2
 70
     6
  9
$SURFTYPE
 70
     6
  9
$SURFU
 70
     6
  9
$SURFV
 70
     6
  9
$UCSNAME
  2

  9
$UCSORG
 10
0.0
 20
0.0
 30
0.0
  9
$UCSXDIR
 10
1.0
 20
0.0
 30
0.0
  9
$UCSYDIR
 10
0.0
 20
1.0
 30
0.0
  9
$PUCSNAME
  2

  9
$PUCSORG
 10
0.0
 20
0.0
 30
0.0
  9
$PUCSXDIR
 10
1.0
 20
0.0
 30
0.0
  9
$PUCSYDIR
 10
0.0
 20
1.0
 30
0.0
  9
$USERI1
 70
     4
  9
$USERI2
 70
     1
  9
$USERI3
 70
     1
  9
$USERI4
 70
     0
  9
$USERI5
 70
     0
  9
$USERR1
 40
1.0
  9
$USERR2
 40
3.0
  9
$USERR3
 40
3.0
  9
$USERR4
 40
1.5
  9
$USERR5
 40
10.0
  9
$WORLDVIEW
 70
     1
  9
$SHADEDGE
 70
     3
  9
$SHADEDIF
 70
    70
  9
$TILEMODE
 70
     1
  9
$MAXACTVP
 70
    16
  9
$PINSBASE
 10
0.0
 20
0.0
 30
0.0
  9
$PLIMCHECK
 70
     0
  9
$PEXTMIN
 10
1.000000000000000E+20
 20
1.000000000000000E+20
 30
1.000000000000000E+20
  9
$PEXTMAX
 10
-1.000000000000000E+20
 20
-1.000000000000000E+20
 30
-1.000000000000000E+20
  9
$PLIMMIN
 10
0.0
 20
0.0
  9
$PLIMMAX
 10
12.0
 20
9.0
  9
$UNITMODE
 70
     0
  9
$VISRETAIN
 70
     0
  9
$PLINEGEN
 70
     0
  9
$PSLTSCALE
 70
     0
  9
$TREEDEPTH
 70
  3020
  9
$PICKSTYLE
 70
     1
  9
$CMLSTYLE
  2
STANDARD
  9
$CMLJUST
 70
     0
  9
$CMLSCALE
 40
1.0
  9
$PROXYGRAPHICS
 70
     1
  9
$MEASUREMENT
 70
     0
  0
ENDSEC
  0
SECTION
  2
CLASSES
  0
CLASS
  1
LWPOLYLINE
  2
AcDbPolyline
  3
AutoCAD 2000
 90
        0
280
     0
281
     1
  0
CLASS
  1
ACDBDICTIONARYWDFLT
  2
AcDbDictionaryWithDefault
  3
AutoCAD 2000
 90
        0
280
     0
281
     0
  0
CLASS
  1
ACDBPLACEHOLDER
  2
AcDbPlaceHolder
  3
AutoCAD 2000
 90
        0
280
     0
281
     0
  0
CLASS
  1
LAYOUT
  2
AcDbLayout
  3
AutoCAD 2000
 90
        0
280
     0
281
     0
  0
CLASS
  1
LONG_TRANSACTION
  2
AcDbLongTransaction
  3
AutoCAD 2000
 90
        0
280
     0
281
     0
  0
CLASS
  1
LWPOLYLINE
  2
AcDbPolyline
  3
AutoCAD 2000
 90
        0
280
     0
281
     1
  0
CLASS
  1
HATCH
  2
AcDbHatch
  3
AutoCAD 2000
 90
        0
280
     0
281
     1
  0
CLASS
  1
XRECORD
  2
AcDbXrecord
  3
AutoCAD 2000
 90
        0
280
     0
281
     0
  0
CLASS
  1
LONG_TRANSACTION
  2
AcDbLongTransaction
  3
AutoCAD 2000
 90
        0
280
     0
281
     0
  0
CLASS
  1
LWPOLYLINE
  2
AcDbPolyline
  3
AutoCAD 2000
 90
        0
280
     0
281
     1
  0
CLASS
  1
HATCH
  2
AcDbHatch
  3
AutoCAD 2000
 90
        0
280
     0
281
     1
  0
CLASS
  1
XRECORD
  2
AcDbXrecord
  3
AutoCAD 2000
 90
        0
280
     0
281
     0
  0
CLASS
  1
LONG_TRANSACTION
  2
AcDbLongTransaction
  3
AutoCAD 2000
 90
        0
280
     0
281
     0
  0
CLASS
  1
LWPOLYLINE
  2
AcDbPolyline
  3
AutoCAD 2000
 90
        0
280
     0
281
     1
  0
CLASS
  1
HATCH
  2
AcDbHatch
  3
AutoCAD 2000
 90
        0
280
     0
281
     1
  0
CLASS
  1
XRECORD
  2
AcDbXrecord
  3
AutoCAD 2000
 90
        0
280
     0
281
     0
  0
CLASS
  1
DICTIONARYVAR
  2
AcDbDictionaryVar
  3
AutoCAD 2000
 90
        0
280
     0
281
     0
  0
CLASS
  1
LONG_TRANSACTION
  2
AcDbLongTransaction
  3
AutoCAD 2000
 90
        0
280
     0
281
     0
  0
CLASS
  1
LWPOLYLINE
  2
AcDbPolyline
  3
AutoCAD 2000
 90
        0
280
     0
281
     1
  0
CLASS
  1
HATCH
  2
AcDbHatch
  3
AutoCAD 2000
 90
        0
280
     0
281
     1
  0
CLASS
  1
XRECORD
  2
AcDbXrecord
  3
AutoCAD 2000
 90
        0
280
     0
281
     0
  0
CLASS
  1
LONG_TRANSACTION
  2
AcDbLongTransaction
  3
AutoCAD 2000
 90
        0
280
     0
281
     0
  0
CLASS
  1
LWPOLYLINE
  2
AcDbPolyline
  3
AutoCAD 2000
 90
        0
280
     0
281
     1
  0
CLASS
  1
HATCH
  2
AcDbHatch
  3
AutoCAD 2000
 90
        0
280
     0
281
     1
  0
CLASS
  1
XRECORD
  2
AcDbXrecord
  3
AutoCAD 2000
 90
        0
280
     0
281
     0
  0
CLASS
  1
LONG_TRANSACTION
  2
AcDbLongTransaction
  3
AutoCAD 2000
 90
        0
280
     0
281
     0
  0
CLASS
  1
LWPOLYLINE
  2
AcDbPolyline
  3
AutoCAD 2000
 90
        0
280
     0
281
     1
  0
CLASS
  1
HATCH
  2
AcDbHatch
  3
AutoCAD 2000
 90
        0
280
     0
281
     1
  0
CLASS
  1
XRECORD
  2
AcDbXrecord
  3
AutoCAD 2000
 90
        0
280
     0
281
     0
  0
ENDSEC
  0
SECTION
  2
TABLES
  0
TABLE
  2
VPORT
  5
1BC42D08739A1
330
0
100
AcDbSymbolTable
 70
    11
  0
VPORT
  5
1BC42D08739D4
330
1BC42D08739A1
100
AcDbSymbolTableRecord
100
AcDbViewportTableRecord
  2
2
 70
     0
 10
0.5
 20
0.0
 11
1.0
 21
1.0
 12
0.9240309999999999
 22
1.052651
 13
0.0
 23
0.0
 14
1.0
 24
1.0
 15
10.0
 25
10.0
 16
0.0
 26
0.0
 36
1.0
 17
0.0
 27
0.0
 37
0.0
 40
2.105302
 41
0.877814
 42
50.0
 43
0.0
 44
0.0
 50
0.0
 51
0.0
 71
     0
 72
   500
 73
     1
 74
     1
 75
     0
 76
     0
 77
     0
 78
     0
  0
VPORT
  5
1BC42D08739D5
330
1BC42D08739A1
100
AcDbSymbolTableRecord
100
AcDbViewportTableRecord
  2
2
 70
     0
 10
0.0
 20
0.0
 11
0.5
 21
1.0
 12
0.9240309999999999
 22
1.052651
 13
0.0
 23
0.0
 14
1.0
 24
1.0
 15
10.0
 25
10.0
 16
0.0
 26
0.0
 36
1.0
 17
0.0
 27
0.0
 37
0.0
 40
2.105302
 41
0.877814
 42
50.0
 43
0.0
 44
0.0
 50
0.0
 51
0.0
 71
     0
 72
   500
 73
     1
 74
     1
 75
     0
 76
     0
 77
     0
 78
     0
  0
VPORT
  5
1BC42D08739D6
330
1BC42D08739A1
100
AcDbSymbolTableRecord
100
AcDbViewportTableRecord
  2
3
 70
     0
 10
0.0
 20
0.5
 11
1.0
 21
1.0
 12
2.832169999999998
 22
1.052651
 13
0.0
 23
0.0
 14
1.0
 24
1.0
 15
10.0
 25
10.0
 16
0.0
 26
0.0
 36
1.0
 17
0.0
 27
0.0
 37
0.0
 40
2.105302
 41
3.571429
 42
50.0
 43
0.0
 44
0.0
 50
0.0
 51
0.0
 71
     0
 72
   500
 73
     1
 74
     1
 75
     0
 76
     0
 77
     0
 78
     0
  0
VPORT
  5
1BC42D08739D7
330
1BC42D08739A1
100
AcDbSymbolTableRecord
100
AcDbViewportTableRecord
  2
3
 70
     0
 10
0.0
 20
0.0
 11
1.0
 21
0.5
 12
2.856741999999998
 22
1.052651
 13
0.0
 23
0.0
 14
1.0
 24
1.0
 15
10.0
 25
10.0
 16
0.0
 26
0.0
 36
1.0
 17
0.0
 27
0.0
 37
0.0
 40
2.105302
 41
3.594770999999998
 42
50.0
 43
0.0
 44
0.0
 50
0.0
 51
0.0
 71
     0
 72
   500
 73
     1
 74
     1
 75
     0
 76
     0
 77
     0
 78
     0
  0
VPORT
  5
1BC42D08739D8
330
1BC42D08739A1
100
AcDbSymbolTableRecord
100
AcDbViewportTableRecord
  2
4
 70
     0
 10
0.5
 20
0.0
 11
1.0
 21
0.5
 12
2.886858
 22
1.052651
 13
0.0
 23
0.0
 14
1.0
 24
1.0
 15
10.0
 25
10.0
 16
0.0
 26
0.0
 36
1.0
 17
0.0
 27
0.0
 37
0.0
 40
4.275206999999999
 41
1.784314
 42
50.0
 43
0.0
 44
0.0
 50
0.0
 51
0.0
 71
     0
 72
   500
 73
     1
 74
     1
 75
     0
 76
     0
 77
     0
 78
     0
  0
VPORT
  5
1BC42D08739D9
330
1BC42D08739A1
100
AcDbSymbolTableRecord
100
AcDbViewportTableRecord
  2
4
 70
     0
 10
0.5
 20
0.5
 11
1.0
 21
1.0
 12
2.86209
 22
1.052651
 13
0.0
 23
0.0
 14
1.0
 24
1.0
 15
10.0
 25
10.0
 16
0.0
 26
0.0
 36
1.0
 17
0.0
 27
0.0
 37
0.0
 40
4.275206999999999
 41
1.772726999999999
 42
50.0
 43
0.0
 44
0.0
 50
0.0
 51
0.0
 71
     0
 72
   500
 73
     1
 74
     1
 75
     0
 76
     0
 77
     0
 78
     0
  0
VPORT
  5
1BC42D08739DA
330
1BC42D08739A1
100
AcDbSymbolTableRecord
100
AcDbViewportTableRecord
  2
4
 70
     0
 10
0.0
 20
0.5
 11
0.5
 21
1.0
 12
2.86209
 22
1.052651
 13
0.0
 23
0.0
 14
1.0
 24
1.0
 15
10.0
 25
10.0
 16
0.0
 26
0.0
 36
1.0
 17
0.0
 27
0.0
 37
0.0
 40
4.275206999999999
 41
1.772726999999999
 42
50.0
 43
0.0
 44
0.0
 50
0.0
 51
0.0
 71
     0
 72
   500
 73
     1
 74
     1
 75
     0
 76
     0
 77
     0
 78
     0
  0
VPORT
  5
1BC42D08739DB
330
1BC42D08739A1
100
AcDbSymbolTableRecord
100
AcDbViewportTableRecord
  2
4
 70
     0
 10
0.0
 20
0.0
 11
0.5
 21
0.5
 12
2.886858
 22
1.052651
 13
0.0
 23
0.0
 14
1.0
 24
1.0
 15
10.0
 25
10.0
 16
0.0
 26
0.0
 36
1.0
 17
0.0
 27
0.0
 37
0.0
 40
4.275206999999999
 41
1.784314
 42
50.0
 43
0.0
 44
0.0
 50
0.0
 51
0.0
 71
     0
 72
   500
 73
     1
 74
     1
 75
     0
 76
     0
 77
     0
 78
     0
  0
VPORT
  5
1BC42D08742D7
330
1BC42D08739A1
100
AcDbSymbolTableRecord
100
AcDbViewportTableRecord
  2
*ACTIVE
 70
     0
 10
0.0
 20
0.0
 11
1.0
 21
1.0
 12
181.000000685745
 22
136.5000014279366
 13
0.0
 23
0.0
 14
1.0
 24
1.0
 15
10.0
 25
10.0
 16
0.0
 26
0.0
 36
1.0
 17
0.0
 27
0.0
 37
0.0
 40
274.8178580715981
 41
1.731733914940021
 42
50.0
 43
0.0
 44
0.0
 50
0.0
 51
0.0
 71
     0
 72
   500
 73
     1
 74
     0
 75
     0
 76
     0
 77
     0
 78
     0
  0
ENDTAB
  0
TABLE
  2
LTYPE
  5
1BC42D087399E
330
0
100
AcDbSymbolTable
 70
     2
  0
LTYPE
  5
1BC42D08739AB
330
1BC42D087399E
100
AcDbSymbolTableRecord
100
AcDbLinetypeTableRecord
  2
BYBLOCK
 70
     0
  3

 72
    65
 73
     0
 40
0.0
  0
LTYPE
  5
1BC42D08739AC
330
1BC42D087399E
100
AcDbSymbolTableRecord
100
AcDbLinetypeTableRecord
  2
BYLAYER
 70
     0
  3

 72
    65
 73
     0
 40
0.0
  0
LTYPE
  5
1BC42D08739AD
330
1BC42D087399E
100
AcDbSymbolTableRecord
100
AcDbLinetypeTableRecord
  2
CONTINUOUS
 70
     0
  3
実線
 72
    65
 73
     0
 40
0.0
  0
LTYPE
  5
1BC42D0873D5F
330
1BC42D087399E
100
AcDbSymbolTableRecord
100
AcDbLinetypeTableRecord
  2
HIDDEN
 70
     0
  3
_ _ _ _ _ _ _ _ _ _ _ _ _ _ _ _ _ _ _ _ _ _ _
 72
    65
 73
     2
 40
0.375
 49
0.25
 74
     0
 49
-0.125
 74
     0
  0
ENDTAB
  0
TABLE
  2
LAYER
  5
1BC42D087399B
330
0
100
AcDbSymbolTable
 70
     8
  0
LAYER
  5
1BC42D08739A8
330
1BC42D087399B
100
AcDbSymbolTableRecord
100
AcDbLayerTableRecord
  2
0
 70
     0
 62
     6
  6
CONTINUOUS
  0
LAYER
  5
1BC42D08739E1
330
1BC42D087399B
100
AcDbSymbolTableRecord
100
AcDbLayerTableRecord
  2
SUNPOU
 70
     0
 62
     3
  6
CONTINUOUS
  0
LAYER
  5
1BC42D08739E2
330
1BC42D087399B
100
AcDbSymbolTableRecord
100
AcDbLayerTableRecord
  2
TEXT
 70
     0
 62
     3
  6
CONTINUOUS
  0
LAYER
  5
1BC42D08739E3
330
1BC42D087399B
100
AcDbSymbolTableRecord
100
AcDbLayerTableRecord
  2
SAISEN
 70
     0
 62
     4
  6
CONTINUOUS
  0
LAYER
  5
1BC42D08739E4
330
1BC42D087399B
100
AcDbSymbolTableRecord
100
AcDbLayerTableRecord
  2
JISSEN
 70
     0
 62
     7
  6
CONTINUOUS
  0
LAYER
  5
1BC42D08739E7
330
1BC42D087399B
100
AcDbSymbolTableRecord
100
AcDbLayerTableRecord
  2
WAKU
 70
     0
 62
     5
  6
CONTINUOUS
  0
LAYER
  5
1BC42D0873D60
330
1BC42D087399B
100
AcDbSymbolTableRecord
100
AcDbLayerTableRecord
  2
HATCH
 70
     0
 62
     4
  6
CONTINUOUS
  0
LAYER
  5
1BC42D0873D61
330
1BC42D087399B
100
AcDbSymbolTableRecord
100
AcDbLayerTableRecord
  2
TENSEN
 70
     0
 62
     2
  6
HIDDEN
  0
ENDTAB
  0
TABLE
  2
STYLE
  5
1BC42D087399C
330
0
100
AcDbSymbolTable
 70
     3
  0
STYLE
  5
1BC42D08739A9
330
1BC42D087399C
100
AcDbSymbolTableRecord
100
AcDbTextStyleTableRecord
  2
STANDARD
 70
     0
 40
0.0
 41
1.0
 50
0.0
 71
     0
 42
0.2
  3
SIMPLEX
  4

  0
STYLE
  5
1BC42D08739CD
330
1BC42D087399C
100
AcDbSymbolTableRecord
100
AcDbTextStyleTableRecord
  2
K
 70
     0
 40
0.0
 41
1.0
 50
0.0
 71
     0
 42
3.0
  3
ROMANS
  4
BIGFONT
  0
STYLE
  5
1BC42D08739CE
330
1BC42D087399C
100
AcDbSymbolTableRecord
100
AcDbTextStyleTableRecord
  2
ROMANS
 70
     0
 40
0.0
 41
0.8
 50
0.0
 71
     0
 42
5.0
  3
romans
  4

  0
ENDTAB
  0
TABLE
  2
VIEW
  5
1BC42D087399F
330
0
100
AcDbSymbolTable
 70
     0
  0
ENDTAB
  0
TABLE
  2
UCS
  5
1BC42D08739A0
330
0
100
AcDbSymbolTable
 70
     0
  0
ENDTAB
  0
TABLE
  2
APPID
  5
1BC42D08739A2
330
0
100
AcDbSymbolTable
 70
     1
  0
APPID
  5
1BC42D08739AA
330
1BC42D08739A2
100
AcDbSymbolTableRecord
100
AcDbRegAppTableRecord
  2
ACAD
 70
     0
  0
ENDTAB
  0
TABLE
  2
DIMSTYLE
  5
1BC42D08739A3
330
0
100
AcDbSymbolTable
 70
     1
  0
DIMSTYLE
105
1BC42D08739DE
330
1BC42D08739A3
100
AcDbSymbolTableRecord
100
AcDbDimStyleTableRecord
  2
IMAO
 70
     0
  3

  4

  5
ARROWANG
  6
ARROWANG
  7
ARROWANG
 40
1.0
 41
1.5
 42
1.0
 43
6.0
 44
1.0
 45
0.0
 46
0.0
 47
495.0
 48
0.0
140
3.0
141
0.0
142
0.0
143
25.4
144
1.0
145
0.0
146
1.0
147
0.09
 71
     0
 72
     0
 73
     0
 74
     0
 75
     0
 76
     0
 77
     1
 78
     8
170
     0
171
     2
172
     1
173
     0
174
     1
175
     0
176
     0
177
     0
178
     0
270
     2
271
     2
272
     2
273
     2
274
     2
340
1BC42D08739CE
275
     0
280
     0
281
     0
282
     0
283
     1
284
     8
285
     8
286
     8
287
     3
288
     0
  0
ENDTAB
  0
TABLE
  2
BLOCK_RECORD
  5
1BC42D087399A
330
0
100
AcDbSymbolTable
 70
     5
  0
BLOCK_RECORD
  5
1BC42D08739B1
102
{ACAD_XDICTIONARY
360
1BC42D0873D3E
102
}
330
1BC42D087399A
100
AcDbSymbolTableRecord
100
AcDbBlockTableRecord
  2
*MODEL_SPACE
  0
BLOCK_RECORD
  5
1BC42D08739AE
102
{ACAD_XDICTIONARY
360
1BC42D0873D3C
102
}
330
1BC42D087399A
100
AcDbSymbolTableRecord
100
AcDbBlockTableRecord
  2
*PAPER_SPACE
  0
BLOCK_RECORD
  5
1BC42D08739B5
330
1BC42D087399A
100
AcDbSymbolTableRecord
100
AcDbBlockTableRecord
  2
ARROW
  0
BLOCK_RECORD
  5
1BC42D08739BB
330
1BC42D087399A
100
AcDbSymbolTableRecord
100
AcDbBlockTableRecord
  2
STDGX5
  0
BLOCK_RECORD
  5
1BC42D08739BC
330
1BC42D087399A
100
AcDbSymbolTableRecord
100
AcDbBlockTableRecord
  2
STDR12J
  0
BLOCK_RECORD
  5
1BC42D08739BD
330
1BC42D087399A
100
AcDbSymbolTableRecord
100
AcDbBlockTableRecord
  2
ARROWANG
  0
ENDTAB
  0
ENDSEC
  0
SECTION
  2
BLOCKS
  0
BLOCK
  5
1BC42D08739EA
330
1BC42D08739B1
100
AcDbEntity
  8
0
100
AcDbBlockBegin
  2
*MODEL_SPACE
 70
     0
 10
0.0
 20
0.0
 30
0.0
  3
*MODEL_SPACE
  1

  0
ENDBLK
  5
1BC42D08739EB
330
1BC42D08739B1
100
AcDbEntity
  8
0
100
AcDbBlockEnd
  0
BLOCK
  5
1BC42D08739E8
330
1BC42D08739AE
100
AcDbEntity
 67
     1
  8
0
100
AcDbBlockBegin
  2
*PAPER_SPACE
 70
     0
 10
0.0
 20
0.0
 30
0.0
  3
*PAPER_SPACE
  1

  0
ENDBLK
  5
1BC42D08739E9
330
1BC42D08739AE
100
AcDbEntity
 67
     1
  8
0
100
AcDbBlockEnd
  0
BLOCK
  5
1C1
330
1BC42D08739B5
100
AcDbEntity
  8
0
100
AcDbBlockBegin
  2
ARROW
 70
     0
 10
1.0
 20
0.5
 30
0.0
  3
ARROW
  1

  0
LINE
  5
1C2
330
1BC42D08739B5
100
AcDbEntity
  8
0
100
AcDbLine
 10
1.0
 20
0.5
 30
0.0
 11
-0.5
 21
0.098076
 31
0.0
  0
LINE
  5
1C3
330
1BC42D08739B5
100
AcDbEntity
  8
0
100
AcDbLine
 10
0.0
 20
0.5
 30
0.0
 11
1.0
 21
0.5
 31
0.0
  0
LINE
  5
1C4
330
1BC42D08739B5
100
AcDbEntity
  8
0
100
AcDbLine
 10
1.0
 20
0.5
 30
0.0
 11
-0.5
 21
0.9019239999999999
 31
0.0
  0
ENDBLK
  5
1C5
330
1BC42D08739B5
100
AcDbEntity
  8
0
100
AcDbBlockEnd
  0
BLOCK
  5
1EA
330
1BC42D08739BB
100
AcDbEntity
  8
0
100
AcDbBlockBegin
  2
STDGX5
 70
     0
 10
0.0
 20
0.0
 30
0.0
  3
STDGX5
  1

  0
ENDBLK
  5
1EB
330
1BC42D08739BB
100
AcDbEntity
  8
0
100
AcDbBlockEnd
  0
BLOCK
  5
2D2
330
1BC42D08739BC
100
AcDbEntity
  8
0
100
AcDbBlockBegin
  2
STDR12J
 70
     0
 10
0.0
 20
0.0
 30
0.0
  3
STDR12J
  1

  0
ENDBLK
  5
2F7
330
1BC42D08739BC
100
AcDbEntity
  8
0
100
AcDbBlockEnd
  0
BLOCK
  5
2F0
330
1BC42D08739BD
100
AcDbEntity
  8
0
100
AcDbBlockBegin
  2
ARROWANG
 70
     0
 10
0.0
 20
0.0
 30
0.0
  3
ARROWANG
  1

  0
LINE
  5
2F1
330
1BC42D08739BD
100
AcDbEntity
  8
SUNPOU
100
AcDbLine
 10
0.0
 20
0.0
 30
0.0
 11
-1.5
 21
0.401924
 31
0.0
  0
LINE
  5
2F2
330
1BC42D08739BD
100
AcDbEntity
  8
SUNPOU
100
AcDbLine
 10
0.0
 20
0.0
 30
0.0
 11
-1.5
 21
-0.401924
 31
0.0
  0
ENDBLK
  5
2F3
330
1BC42D08739BD
100
AcDbEntity
  8
0
100
AcDbBlockEnd
  0
ENDSEC
  0
SECTION
  2
ENTITIES
  0
INSERT
  5
6D
330
1BC42D08739B1
100
AcDbEntity
  8
SUNPOU
100
AcDbBlockReference
  2
STDGX5
 10
0.0
 20
0.0
 30
0.0
  0
INSERT
  5
2F8
330
1BC42D08739B1
100
AcDbEntity
  8
JISSEN
100
AcDbBlockReference
  2
STDR12J
 10
0.0
 20
0.0
 30
0.0
  0
TEXT
  5
F31C76D0E
330
1BC42D08739B1
100
AcDbEntity
  8
TEXT
100
AcDbText
 10
84.299999
 20
268.5
 30
0.0
 40
3.0
  1
番号
  7
K
 72
     4
 11
87.499999
 21
270.0
 31
0.0
100
AcDbText
  0
LINE
  5
F31C76D0F
330
1BC42D08739B1
100
AcDbEntity
  8
JISSEN
100
AcDbLine
 10
82.499999
 20
261.0
 30
0.0
 11
180.999999
 21
261.0
 31
0.0
  0
LINE
  5
F31C76D10
330
1BC42D08739B1
100
AcDbEntity
  8
JISSEN
100
AcDbLine
 10
82.499999
 20
267.0
 30
0.0
 11
180.999999
 21
267.0
 31
0.0
  0
LINE
  5
F31C76D11
330
1BC42D08739B1
100
AcDbEntity
  8
JISSEN
100
AcDbLine
 10
82.499999
 20
261.0
 30
0.0
 11
82.499999
 21
273.0
 31
0.0
  0
TEXT
  5
F31C76D12
330
1BC42D08739B1
100
AcDbEntity
  8
TEXT
100
AcDbText
 10
123.499999
 20
262.5
 30
0.0
 40
3.0
  1
     PBT     
 41
1.065217391304344
  7
K
 72
     5
 11
151.4999989999999
 21
262.5
 31
0.0
100
AcDbText
  0
LINE
  5
F31C76D14
330
1BC42D08739B1
100
AcDbEntity
  8
JISSEN
100
AcDbLine
 10
92.499999
 20
273.0
 30
0.0
 11
92.499999
 21
261.0
 31
0.0
  0
TEXT
  5
F31C76D15
330
1BC42D08739B1
100
AcDbEntity
  8
TEXT
100
AcDbText
 10
98.89999900000001
 20
268.5
 30
0.0
 40
3.0
  1
名      称
  7
K
 72
     4
 11
107.499999
 21
270.0
 31
0.0
100
AcDbText
  0
LINE
  5
F31C76D16
330
1BC42D08739B1
100
AcDbEntity
  8
JISSEN
100
AcDbLine
 10
122.499999
 20
273.0
 30
0.0
 11
122.499999
 21
261.0
 31
0.0
  0
TEXT
  5
F31C76D17
330
1BC42D08739B1
100
AcDbEntity
  8
TEXT
100
AcDbText
 10
128.899999
 20
268.5
 30
0.0
 40
3.0
  1
材      質
  7
K
 72
     4
 11
137.499999
 21
270.0
 31
0.0
100
AcDbText
  0
TEXT
  5
F31C76D18
330
1BC42D08739B1
100
AcDbEntity
  8
TEXT
100
AcDbText
 10
165.6999989999999
 20
268.5
 30
0.0
 40
3.0
  1
備    考
  7
K
 72
     4
 11
172.499999
 21
270.0
 31
0.0
100
AcDbText
  0
TEXT
  5
F31C76D19
330
1BC42D08739B1
100
AcDbEntity
  8
TEXT
100
AcDbText
 10
165.3906688564593
 20
262.5
 30
0.0
 40
3.0
  1
標準色:白
 41
0.9377990430622007
  7
K
 72
     4
 11
172.249999
 21
264.0
 31
0.0
100
AcDbText
  0
LINE
  5
F31C76D1A
330
1BC42D08739B1
100
AcDbEntity
  8
JISSEN
100
AcDbLine
 10
163.499999
 20
273.0
 30
0.0
 11
163.499999
 21
261.0
 31
0.0
  0
LINE
  5
F31C76D1B
330
1BC42D08739B1
100
AcDbEntity
  8
JISSEN
100
AcDbLine
 10
152.4999989999999
 20
261.0
 30
0.0
 11
152.4999989999999
 21
273.0
 31
0.0
  0
TEXT
  5
F31C76D1C
330
1BC42D08739B1
100
AcDbEntity
  8
TEXT
100
AcDbText
 10
156.8612430191387
 20
262.5
 30
0.0
 40
3.0
  1
1
 41
0.9377990430622007
  7
K
 72
     4
 11
157.999999
 21
264.0
 31
0.0
100
AcDbText
  0
TEXT
  5
F31C76D1D
330
1BC42D08739B1
100
AcDbEntity
  8
TEXT
100
AcDbText
 10
154.799999
 20
268.5
 30
0.0
 40
3.0
  1
個数
  7
K
 72
     4
 11
157.999999
 21
270.0
 31
0.0
100
AcDbText
  0
TEXT
  5
F31C76D1E
330
1BC42D08739B1
100
AcDbEntity
  8
TEXT
100
AcDbText
 10
93.499999
 20
262.5
 30
0.0
 40
3.0
  1
 ガード　HFQR 
 41
0.9377990430622006
  7
K
 72
     5
 11
121.499999
 21
262.5
 31
0.0
100
AcDbText
  0
LINE
  5
1BC42D0873B5C
330
1BC42D08739B1
100
AcDbEntity
  8
JISSEN
100
AcDbLine
 10
34.359621
 20
98.87996700000002
 30
0.0
 11
19.359621
 21
98.62996700000001
 31
0.0
  0
LINE
  5
1BC42D0873B5D
330
1BC42D08739B1
100
AcDbEntity
  8
JISSEN
100
AcDbLine
 10
39.359621
 20
76.87996700000002
 30
0.0
 11
36.164999
 21
63.04254
 31
0.0
  0
LINE
  5
1BC42D0873B5E
330
1BC42D08739B1
100
AcDbEntity
  8
JISSEN
100
AcDbLine
 10
34.703444
 20
61.87996700000001
 30
0.0
 11
34.359621
 21
61.87996700000001
 31
0.0
  0
LINE
  5
1BC42D0873B5F
330
1BC42D08739B1
100
AcDbEntity
  8
JISSEN
100
AcDbLine
 10
34.359621
 20
61.87996700000001
 30
0.0
 11
34.359621
 21
99.37996699999999
 31
0.0
  0
LINE
  5
1BC42D0873B60
330
1BC42D08739B1
100
AcDbEntity
  8
JISSEN
100
AcDbLine
 10
34.359621
 20
78.629967
 30
0.0
 11
19.359621
 21
78.629967
 31
0.0
  0
ARC
  5
1BC42D0873B62
330
1BC42D08739B1
100
AcDbEntity
  8
JISSEN
100
AcDbCircle
 10
34.703444
 20
63.37996700000001
 30
0.0
 40
1.5
100
AcDbArc
 50
270.0
 51
347.0
  0
LINE
  5
1BC42D0873BA6
330
1BC42D08739B1
100
AcDbEntity
  8
JISSEN
100
AcDbLine
 10
39.359621
 20
116.3799669999999
 30
0.0
 11
69.35962099999999
 21
116.3799669999999
 31
0.0
  0
LINE
  5
1BC42D0873BA8
330
1BC42D08739B1
100
AcDbEntity
  8
JISSEN
100
AcDbLine
 10
34.359621
 20
82.748024
 30
0.0
 11
34.359621
 21
82.229985
 31
0.0
  0
LINE
  5
1BC42D0873BAA
330
1BC42D08739B1
100
AcDbEntity
  8
JISSEN
100
AcDbLine
 10
19.359621
 20
200.547173
 30
0.0
 11
19.359621
 21
216.7149089999999
 31
0.0
  0
LINE
  5
1BC42D0873BAB
330
1BC42D08739B1
100
AcDbEntity
  8
JISSEN
100
AcDbLine
 10
39.359621
 20
231.131041
 30
0.0
 11
36.164999
 21
244.9684669999999
 31
0.0
  0
LINE
  5
1BC42D0873BAC
330
1BC42D08739B1
100
AcDbEntity
  8
JISSEN
100
AcDbLine
 10
34.703444
 20
246.131041
 30
0.0
 11
34.359621
 21
246.131041
 31
0.0
  0
LINE
  5
1BC42D0873BAD
330
1BC42D08739B1
100
AcDbEntity
  8
JISSEN
100
AcDbLine
 10
34.359621
 20
246.131041
 30
0.0
 11
34.359621
 21
208.6310409999999
 31
0.0
  0
LINE
  5
1BC42D0873BAE
330
1BC42D08739B1
100
AcDbEntity
  8
JISSEN
100
AcDbLine
 10
34.359621
 20
229.381041
 30
0.0
 11
19.359621
 21
229.381041
 31
0.0
  0
ARC
  5
1BC42D0873BAF
330
1BC42D08739B1
100
AcDbEntity
  8
JISSEN
100
AcDbCircle
 10
34.703444
 20
244.631041
 30
0.0
 40
1.5
100
AcDbArc
 50
13.0
 51
90.0
  0
ARC
  5
1BC42D0873BB0
330
1BC42D08739B1
100
AcDbEntity
  8
JISSEN
100
AcDbCircle
 10
34.703444
 20
172.6310409999999
 30
0.0
 40
1.5
100
AcDbArc
 50
270.0
 51
347.0
  0
LINE
  5
1BC42D0873BB2
330
1BC42D08739B1
100
AcDbEntity
  8
JISSEN
100
AcDbLine
 10
19.359621
 20
187.8810409999999
 30
0.0
 11
19.359621
 21
199.399162
 31
0.0
  0
LINE
  5
1BC42D0873BB3
330
1BC42D08739B1
100
AcDbEntity
  8
JISSEN
100
AcDbLine
 10
34.359621
 20
187.8810409999999
 30
0.0
 11
19.359621
 21
187.8810409999999
 31
0.0
  0
LINE
  5
1BC42D0873BB4
330
1BC42D08739B1
100
AcDbEntity
  8
JISSEN
100
AcDbLine
 10
34.359621
 20
171.1310409999998
 30
0.0
 11
34.359621
 21
208.6310409999999
 31
0.0
  0
LINE
  5
1BC42D0873BB5
330
1BC42D08739B1
100
AcDbEntity
  8
JISSEN
100
AcDbLine
 10
34.703444
 20
171.1310409999998
 30
0.0
 11
34.359621
 21
171.1310409999998
 31
0.0
  0
LINE
  5
1BC42D0873BB6
330
1BC42D08739B1
100
AcDbEntity
  8
JISSEN
100
AcDbLine
 10
39.359621
 20
186.1310409999999
 30
0.0
 11
36.164999
 21
172.2936139999999
 31
0.0
  0
LINE
  5
1BC42D0873BB7
330
1BC42D08739B1
100
AcDbEntity
  8
JISSEN
100
AcDbLine
 10
39.359621
 20
231.131041
 30
0.0
 11
39.359621
 21
208.6310409999999
 31
0.0
  0
LINE
  5
1BC42D0873BB8
330
1BC42D08739B1
100
AcDbEntity
  8
JISSEN
100
AcDbLine
 10
34.359621
 20
199.4111039999999
 30
0.0
 11
19.359621
 21
199.187711
 31
0.0
  0
LINE
  5
1BC42D0873BB9
330
1BC42D08739B1
100
AcDbEntity
  8
JISSEN
100
AcDbLine
 10
34.359621
 20
200.317412
 30
0.0
 11
34.359621
 21
199.4111039999999
 31
0.0
  0
LINE
  5
1BC42D0873BBA
330
1BC42D08739B1
100
AcDbEntity
  8
JISSEN
100
AcDbLine
 10
19.359621
 20
200.547173
 30
0.0
 11
34.359621
 21
200.317412
 31
0.0
  0
LINE
  5
1BC42D0873BBB
330
1BC42D08739B1
100
AcDbEntity
  8
JISSEN
100
AcDbLine
 10
19.359621
 20
192.6310409999999
 30
0.0
 11
34.359621
 21
192.6310409999999
 31
0.0
  0
LINE
  5
1BC42D0873BBC
330
1BC42D08739B1
100
AcDbEntity
  8
JISSEN
100
AcDbLine
 10
19.359621
 20
224.6310409999999
 30
0.0
 11
34.359621
 21
224.6310409999999
 31
0.0
  0
LINE
  5
1BC42D0873BBD
330
1BC42D08739B1
100
AcDbEntity
  8
JISSEN
100
AcDbLine
 10
19.359621
 20
217.86292
 30
0.0
 11
19.359621
 21
229.381041
 31
0.0
  0
LINE
  5
1BC42D0873BBE
330
1BC42D08739B1
100
AcDbEntity
  8
JISSEN
100
AcDbLine
 10
39.359621
 20
208.6310409999999
 30
0.0
 11
39.359621
 21
186.1310409999999
 31
0.0
  0
LINE
  5
1BC42D0873BBF
330
1BC42D08739B1
100
AcDbEntity
  8
JISSEN
100
AcDbLine
 10
19.359621
 20
199.399162
 30
0.0
 11
20.65865899999999
 21
199.7163519999999
 31
0.0
  0
LINE
  5
1BC42D0873BDA
330
1BC42D08739B1
100
AcDbEntity
  8
JISSEN
100
AcDbLine
 10
39.359621
 20
121.8799669999999
 30
0.0
 11
39.359621
 21
76.87996700000002
 31
0.0
  0
LINE
  5
1BC42D0873BDD
330
1BC42D08739B1
100
AcDbEntity
  8
JISSEN
100
AcDbLine
 10
19.359621
 20
198.308129
 30
0.0
 11
34.359621
 21
198.308129
 31
0.0
  0
ARC
  5
1BC42D0873BE7
330
1BC42D08739B1
100
AcDbEntity
  8
JISSEN
100
AcDbCircle
 10
28.359621
 20
199.585527
 30
0.0
 40
0.3
100
AcDbArc
 50
104.2645569999999
 51
112.9512779999999
  0
ARC
  5
1BC42D0873BE8
330
1BC42D08739B1
100
AcDbEntity
  8
JISSEN
100
AcDbCircle
 10
23.85962099999999
 20
199.6278209999999
 30
0.0
 40
0.3
100
AcDbArc
 50
124.087127
 51
133.6745709999999
  0
LINE
  5
1BC42D0873BE9
330
1BC42D08739B1
100
AcDbEntity
  8
JISSEN
100
AcDbLine
 10
23.691485
 20
199.876277
 30
0.0
 11
24.162832
 21
199.876277
 31
0.0
  0
LINE
  5
1BC42D0873BEA
330
1BC42D08739B1
100
AcDbEntity
  8
JISSEN
100
AcDbLine
 10
28.285701
 20
199.876277
 30
0.0
 11
28.552313
 21
199.876277
 31
0.0
  0
ARC
  5
1BC42D0873BEB
330
1BC42D08739B1
100
AcDbEntity
  8
JISSEN
100
AcDbCircle
 10
28.359621
 20
199.585527
 30
0.0
 40
0.3
100
AcDbArc
 50
74.87783199999999
 51
75.735443
  0
LINE
  5
1BC42D0873BF3
330
1BC42D08739B1
100
AcDbEntity
  8
JISSEN
100
AcDbLine
 10
19.359621
 20
81.47998499999998
 30
0.0
 11
20.017898
 21
81.79330999999997
 31
0.0
  0
LINE
  5
1BC42D0873C0E
330
1BC42D08739B1
100
AcDbEntity
  8
JISSEN
100
AcDbLine
 10
20.65865899999999
 20
199.7163519999999
 30
0.0
 11
23.45016999999999
 21
199.761825
 31
0.0
  0
LINE
  5
1BC42D0873C0F
330
1BC42D08739B1
100
AcDbEntity
  8
JISSEN
100
AcDbLine
 10
24.668284
 20
199.7816679999999
 30
0.0
 11
24.162832
 21
199.876277
 31
0.0
  0
LINE
  5
1BC42D0873C10
330
1BC42D08739B1
100
AcDbEntity
  8
JISSEN
100
AcDbLine
 10
24.668284
 20
199.7816679999999
 30
0.0
 11
28.130538
 21
199.8380689999999
 31
0.0
  0
ARC
  5
1BC42D0873C11
330
1BC42D08739B1
100
AcDbEntity
  8
JISSEN
100
AcDbCircle
 10
23.445284
 20
200.061786
 30
0.0
 40
0.3
100
AcDbArc
 50
270.933266
 51
313.674571
  0
LINE
  5
1BC42D0873C12
330
1BC42D08739B1
100
AcDbEntity
  8
JISSEN
100
AcDbLine
 10
29.02547
 20
199.852647
 30
0.0
 11
28.552313
 21
199.876277
 31
0.0
  0
LINE
  5
1BC42D0873C13
330
1BC42D08739B1
100
AcDbEntity
  8
JISSEN
100
AcDbLine
 10
29.02547
 20
199.852647
 30
0.0
 11
34.359621
 21
199.93954
 31
0.0
  0
ARC
  5
1BC42D0873C14
330
1BC42D08739B1
100
AcDbEntity
  8
JISSEN
100
AcDbCircle
 10
28.125652
 20
200.138029
 30
0.0
 40
0.3
100
AcDbArc
 50
270.933266
 51
292.9512779999999
  0
ARC
  5
1BC42D0873C15
330
1BC42D08739B1
100
AcDbEntity
  8
JISSEN
100
AcDbCircle
 10
28.125652
 20
217.1240529999999
 30
0.0
 40
0.3
100
AcDbArc
 50
67.048722
 51
89.066734
  0
LINE
  5
1BC42D0873C16
330
1BC42D08739B1
100
AcDbEntity
  8
JISSEN
100
AcDbLine
 10
29.02547
 20
217.409435
 30
0.0
 11
34.359621
 21
217.322541
 31
0.0
  0
LINE
  5
1BC42D0873C17
330
1BC42D08739B1
100
AcDbEntity
  8
JISSEN
100
AcDbLine
 10
29.02547
 20
217.409435
 30
0.0
 11
28.552313
 21
217.385804
 31
0.0
  0
ARC
  5
1BC42D0873C18
330
1BC42D08739B1
100
AcDbEntity
  8
JISSEN
100
AcDbCircle
 10
23.445284
 20
217.2002959999999
 30
0.0
 40
0.3
100
AcDbArc
 50
46.32542899999999
 51
89.066734
  0
LINE
  5
1BC42D0873C19
330
1BC42D08739B1
100
AcDbEntity
  8
JISSEN
100
AcDbLine
 10
24.668284
 20
217.480413
 30
0.0
 11
28.130538
 21
217.424013
 31
0.0
  0
LINE
  5
1BC42D0873C1A
330
1BC42D08739B1
100
AcDbEntity
  8
JISSEN
100
AcDbLine
 10
24.668284
 20
217.480413
 30
0.0
 11
24.162832
 21
217.385804
 31
0.0
  0
LINE
  5
1BC42D0873C1B
330
1BC42D08739B1
100
AcDbEntity
  8
JISSEN
100
AcDbLine
 10
20.65865899999999
 20
217.54573
 30
0.0
 11
23.45016999999999
 21
217.500256
 31
0.0
  0
ARC
  5
1BC42D0873C1C
330
1BC42D08739B1
100
AcDbEntity
  8
JISSEN
100
AcDbCircle
 10
28.359621
 20
217.6765549999999
 30
0.0
 40
0.3
100
AcDbArc
 50
284.2645569999999
 51
285.122168
  0
LINE
  5
1BC42D0873C1D
330
1BC42D08739B1
100
AcDbEntity
  8
JISSEN
100
AcDbLine
 10
28.285701
 20
217.385804
 30
0.0
 11
28.552313
 21
217.385804
 31
0.0
  0
LINE
  5
1BC42D0873C1E
330
1BC42D08739B1
100
AcDbEntity
  8
JISSEN
100
AcDbLine
 10
23.691485
 20
217.385804
 30
0.0
 11
24.162832
 21
217.385804
 31
0.0
  0
ARC
  5
1BC42D0873C1F
330
1BC42D08739B1
100
AcDbEntity
  8
JISSEN
100
AcDbCircle
 10
23.85962099999999
 20
217.63426
 30
0.0
 40
0.3
100
AcDbArc
 50
226.325429
 51
235.912873
  0
ARC
  5
1BC42D0873C20
330
1BC42D08739B1
100
AcDbEntity
  8
JISSEN
100
AcDbCircle
 10
28.359621
 20
217.6765549999999
 30
0.0
 40
0.3
100
AcDbArc
 50
247.048722
 51
255.735443
  0
LINE
  5
1BC42D0873C21
330
1BC42D08739B1
100
AcDbEntity
  8
JISSEN
100
AcDbLine
 10
19.359621
 20
218.953952
 30
0.0
 11
34.359621
 21
218.953952
 31
0.0
  0
LINE
  5
1BC42D0873C22
330
1BC42D08739B1
100
AcDbEntity
  8
JISSEN
100
AcDbLine
 10
19.359621
 20
217.86292
 30
0.0
 11
20.65865899999999
 21
217.54573
 31
0.0
  0
LINE
  5
1BC42D0873C23
330
1BC42D08739B1
100
AcDbEntity
  8
JISSEN
100
AcDbLine
 10
19.359621
 20
216.7149089999999
 30
0.0
 11
34.359621
 21
216.94467
 31
0.0
  0
LINE
  5
1BC42D0873C24
330
1BC42D08739B1
100
AcDbEntity
  8
JISSEN
100
AcDbLine
 10
34.359621
 20
216.94467
 30
0.0
 11
34.359621
 21
217.850977
 31
0.0
  0
LINE
  5
1BC42D0873C25
330
1BC42D08739B1
100
AcDbEntity
  8
JISSEN
100
AcDbLine
 10
34.359621
 20
217.850977
 30
0.0
 11
19.359621
 21
218.07437
 31
0.0
  0
LINE
  5
1BC42D0873C28
330
1BC42D08739B1
100
AcDbEntity
  8
JISSEN
100
AcDbLine
 10
71.35962099999997
 20
118.3799669999999
 30
0.0
 11
71.35962099999997
 21
83.400437
 31
0.0
  0
ARC
  5
1BC42D0873C29
330
1BC42D08739B1
100
AcDbEntity
  8
JISSEN
100
AcDbCircle
 10
69.35962099999999
 20
118.3799669999999
 30
0.0
 40
2.0
100
AcDbArc
 50
270.0
 51
86.23966173614881
  0
LINE
  5
1BC42D0873C2A
330
1BC42D08739B1
100
AcDbEntity
  8
JISSEN
100
AcDbLine
 10
39.244187
 20
122.379967
 30
0.0
 11
69.49186199999998
 21
120.3755899999999
 31
0.0
  0
LINE
  5
1BC42D0873C2E
330
1BC42D08739B1
100
AcDbEntity
  8
JISSEN
100
AcDbLine
 10
67.85962099999998
 20
86.919967
 30
0.0
 11
39.359621
 21
86.919967
 31
0.0
  0
LINE
  5
1BC42D0873C30
330
1BC42D08739B1
100
AcDbEntity
  8
JISSEN
100
AcDbLine
 10
69.35962099999999
 20
81.629967
 30
0.0
 11
39.359621
 21
81.629967
 31
0.0
  0
LINE
  5
1BC42D0873C31
330
1BC42D08739B1
100
AcDbEntity
  8
JISSEN
100
AcDbLine
 10
67.85962099999998
 20
97.404703
 30
0.0
 11
39.359621
 21
97.404703
 31
0.0
  0
LINE
  5
1BC42D0873C33
330
1BC42D08739B1
100
AcDbEntity
  8
JISSEN
100
AcDbLine
 10
67.85962099999998
 20
101.4047029999999
 30
0.0
 11
39.359621
 21
101.4047029999999
 31
0.0
  0
LINE
  5
1BC42D0873C34
330
1BC42D08739B1
100
AcDbEntity
  8
JISSEN
100
AcDbLine
 10
67.85962099999998
 20
116.3799669999999
 30
0.0
 11
67.85962099999998
 21
83.22168881637017
 31
0.0
  0
LINE
  5
1BC42D0873C3B
330
1BC42D08739B1
100
AcDbEntity
  8
JISSEN
100
AcDbLine
 10
67.35962099999999
 20
197.6310409999999
 30
0.0
 11
39.359621
 21
197.6310409999999
 31
0.0
  0
ARC
  5
1BC42D0873C3C
330
1BC42D08739B1
100
AcDbEntity
  8
JISSEN
100
AcDbCircle
 10
69.35962099999999
 20
195.631041
 30
0.0
 40
2.0
100
AcDbArc
 50
270.0
 51
0.0
  0
LINE
  5
1BC42D0873C3D
330
1BC42D08739B1
100
AcDbEntity
  8
JISSEN
100
AcDbLine
 10
69.35962099999999
 20
193.6310409999999
 30
0.0
 11
39.359621
 21
193.6310409999999
 31
0.0
  0
LINE
  5
1BC42D0873C3E
330
1BC42D08739B1
100
AcDbEntity
  8
JISSEN
100
AcDbLine
 10
69.35962099999999
 20
223.631041
 30
0.0
 11
39.359621
 21
223.631041
 31
0.0
  0
ARC
  5
1BC42D0873C3F
330
1BC42D08739B1
100
AcDbEntity
  8
JISSEN
100
AcDbCircle
 10
69.35962099999999
 20
221.631041
 30
0.0
 40
2.0
100
AcDbArc
 50
0.0
 51
90.0
  0
LINE
  5
1BC42D0873C40
330
1BC42D08739B1
100
AcDbEntity
  8
JISSEN
100
AcDbLine
 10
67.35962099999999
 20
219.631041
 30
0.0
 11
39.359621
 21
219.631041
 31
0.0
  0
LINE
  5
1BC42D0873C41
330
1BC42D08739B1
100
AcDbEntity
  8
JISSEN
100
AcDbLine
 10
71.35962099999997
 20
221.631041
 30
0.0
 11
71.35962099999997
 21
195.631041
 31
0.0
  0
LINE
  5
1BC42D0873C42
330
1BC42D08739B1
100
AcDbEntity
  8
JISSEN
100
AcDbLine
 10
67.35962099999999
 20
219.631041
 30
0.0
 11
67.35962099999999
 21
197.6310409999999
 31
0.0
  0
LINE
  5
1BC42D0873C43
330
1BC42D08739B1
100
AcDbEntity
  8
JISSEN
100
AcDbLine
 10
67.35962099999999
 20
197.6310409999999
 30
0.0
 11
68.97591300000001
 21
196.014748
 31
0.0
  0
LINE
  5
1BC42D0873C44
330
1BC42D08739B1
100
AcDbEntity
  8
JISSEN
100
AcDbLine
 10
67.35962099999999
 20
219.631041
 30
0.0
 11
68.97591300000001
 21
221.2473339999998
 31
0.0
  0
LINE
  5
1BC42D0873C45
330
1BC42D08739B1
100
AcDbEntity
  8
JISSEN
100
AcDbLine
 10
69.35962099999999
 20
235.1310409999999
 30
0.0
 11
38.43614799999999
 21
235.1310409999999
 31
0.0
  0
ARC
  5
1BC42D0873C46
330
1BC42D08739B1
100
AcDbEntity
  8
JISSEN
100
AcDbCircle
 10
69.35962099999999
 20
233.1310409999999
 30
0.0
 40
2.0
100
AcDbArc
 50
0.0
 51
90.0
  0
LINE
  5
1BC42D0873C47
330
1BC42D08739B1
100
AcDbEntity
  8
JISSEN
100
AcDbLine
 10
67.85962099999998
 20
229.131041
 30
0.0
 11
39.359621
 21
229.131041
 31
0.0
  0
LINE
  5
1BC42D0873C48
330
1BC42D08739B1
100
AcDbEntity
  8
JISSEN
100
AcDbLine
 10
71.35962099999997
 20
233.1310409999999
 30
0.0
 11
71.35962099999997
 21
221.631041
 31
0.0
  0
LINE
  5
1BC42D0873C49
330
1BC42D08739B1
100
AcDbEntity
  8
JISSEN
100
AcDbLine
 10
67.85962099999998
 20
227.081041
 30
0.0
 11
39.359621
 21
227.081041
 31
0.0
  0
LINE
  5
1BC42D0873C4A
330
1BC42D08739B1
100
AcDbEntity
  8
JISSEN
100
AcDbLine
 10
67.85962099999998
 20
223.871041
 30
0.0
 11
39.359621
 21
223.871041
 31
0.0
  0
LINE
  5
1BC42D0873C4B
330
1BC42D08739B1
100
AcDbEntity
  8
JISSEN
100
AcDbLine
 10
67.85962099999998
 20
230.131041
 30
0.0
 11
67.85962099999998
 21
223.631041
 31
0.0
  0
LINE
  5
1BC42D0873C4C
330
1BC42D08739B1
100
AcDbEntity
  8
JISSEN
100
AcDbLine
 10
19.359621
 20
78.629967
 30
0.0
 11
19.359621
 21
81.47998499999998
 31
0.0
  0
LINE
  5
1BC42D0873C4D
330
1BC42D08739B1
100
AcDbEntity
  8
JISSEN
100
AcDbLine
 10
19.359621
 20
81.796682
 30
0.0
 11
19.359621
 21
98.62996700000001
 31
0.0
  0
LINE
  5
1BC42D0873C50
330
1BC42D08739B1
100
AcDbEntity
  8
JISSEN
100
AcDbLine
 10
67.85962099999998
 20
193.391041
 30
0.0
 11
39.359621
 21
193.391041
 31
0.0
  0
LINE
  5
1BC42D0873C51
330
1BC42D08739B1
100
AcDbEntity
  8
JISSEN
100
AcDbLine
 10
67.85962099999998
 20
187.1310409999999
 30
0.0
 11
67.85962099999998
 21
193.6310409999999
 31
0.0
  0
LINE
  5
1BC42D0873C52
330
1BC42D08739B1
100
AcDbEntity
  8
JISSEN
100
AcDbLine
 10
67.85962099999998
 20
190.1810409999999
 30
0.0
 11
39.359621
 21
190.1810409999999
 31
0.0
  0
LINE
  5
1BC42D0873C53
330
1BC42D08739B1
100
AcDbEntity
  8
JISSEN
100
AcDbLine
 10
71.35962099999997
 20
184.1310409999999
 30
0.0
 11
71.35962099999997
 21
195.631041
 31
0.0
  0
LINE
  5
1BC42D0873C54
330
1BC42D08739B1
100
AcDbEntity
  8
JISSEN
100
AcDbLine
 10
67.85962099999998
 20
188.1310409999999
 30
0.0
 11
39.359621
 21
188.1310409999999
 31
0.0
  0
ARC
  5
1BC42D0873C55
330
1BC42D08739B1
100
AcDbEntity
  8
JISSEN
100
AcDbCircle
 10
69.35962099999999
 20
184.1310409999999
 30
0.0
 40
2.0
100
AcDbArc
 50
270.0
 51
0.0
  0
LINE
  5
1BC42D0873C56
330
1BC42D08739B1
100
AcDbEntity
  8
JISSEN
100
AcDbLine
 10
69.35962099999999
 20
182.1310409999999
 30
0.0
 11
38.43614799999999
 21
182.1310409999999
 31
0.0
  0
ARC
  5
1BC42D0873C58
330
1BC42D08739B1
100
AcDbEntity
  8
JISSEN
100
AcDbCircle
 10
112.525111
 20
84.27584300000003
 30
0.0
 40
2.0
100
AcDbArc
 50
219.995591
 51
310.0088379999998
  0
LINE
  5
1BC42D0873C59
330
1BC42D08739B1
100
AcDbEntity
  8
JISSEN
100
AcDbLine
 10
152.9394289999999
 20
101.37799
 30
0.0
 11
153.8932899999998
 21
100.827279
 31
0.0
  0
LINE
  5
1BC42D0873C5C
330
1BC42D08739B1
100
AcDbEntity
  8
JISSEN
100
AcDbLine
 10
145.5283179999999
 20
120.001557
 30
0.0
 11
145.5283179999999
 21
120.3799669999999
 31
0.0
  0
LINE
  5
1BC42D0873C5D
330
1BC42D08739B1
100
AcDbEntity
  8
JISSEN
100
AcDbLine
 10
108.117207
 20
101.37799
 30
0.0
 11
107.1633459999999
 21
100.827279
 31
0.0
  0
LINE
  5
1BC42D0873C5E
330
1BC42D08739B1
100
AcDbEntity
  8
JISSEN
100
AcDbLine
 10
146.41192
 20
83.443807
 30
0.0
 11
147.245713
 21
82.743953
 31
0.0
  0
ARC
  5
1BC42D0873C5F
330
1BC42D08739B1
100
AcDbEntity
  8
JISSEN
100
AcDbCircle
 10
148.531525
 20
84.27584300000003
 30
0.0
 40
2.0
100
AcDbArc
 50
229.991162
 51
320.004409
  0
ARC
  5
1BC42D0873C60
330
1BC42D08739B1
100
AcDbEntity
  8
JISSEN
100
AcDbCircle
 10
130.5283179999999
 20
99.37996699999999
 30
0.0
 40
25.5
100
AcDbArc
 50
320.004409
 51
55.439678
  0
ARC
  5
1BC42D0873C61
330
1BC42D08739B1
100
AcDbEntity
  8
JISSEN
100
AcDbCircle
 10
130.5283179999999
 20
99.37996699999999
 30
0.0
 40
25.5
100
AcDbArc
 50
124.560322
 51
219.995591
  0
ARC
  5
1BC42D0873C68
330
1BC42D08739B1
100
AcDbEntity
  8
SAISEN
100
AcDbCircle
 10
130.5283179999999
 20
99.37996699999999
 30
0.0
 40
22.5
100
AcDbArc
 50
68.96053000000001
 51
111.03947
  0
ARC
  5
1BC42D0873C69
330
1BC42D08739B1
100
AcDbEntity
  8
JISSEN
100
AcDbCircle
 10
130.5283179999999
 20
99.37996699999999
 30
0.0
 40
22.5
100
AcDbArc
 50
130.926063
 51
174.9053639999999
  0
LINE
  5
1BC42D0873C6E
330
1BC42D08739B1
100
AcDbEntity
  8
JISSEN
100
AcDbLine
 10
144.993794
 20
120.3799669999999
 30
0.0
 11
116.0628419999997
 21
120.3799669999999
 31
0.0
  0
ARC
  5
1BC42D0873C6F
330
1BC42D08739B1
100
AcDbEntity
  8
JISSEN
100
AcDbCircle
 10
143.5283179999998
 20
120.3799669999999
 30
0.0
 40
2.0
100
AcDbArc
 50
0.0
 51
180.0
  0
LINE
  5
1BC42D0873C70
330
1BC42D08739B1
100
AcDbEntity
  8
JISSEN
100
AcDbLine
 10
115.528318
 20
120.001557
 30
0.0
 11
115.528318
 21
120.3799669999999
 31
0.0
  0
ARC
  5
1BC42D0873C71
330
1BC42D08739B1
100
AcDbEntity
  8
JISSEN
100
AcDbCircle
 10
117.528318
 20
120.3799669999999
 30
0.0
 40
2.0
100
AcDbArc
 50
0.0
 51
180.0
  0
ARC
  5
1BC42D0873C72
330
1BC42D08739B1
100
AcDbEntity
  8
JISSEN
100
AcDbCircle
 10
130.5283179999999
 20
99.37996699999999
 30
0.0
 40
22.5
100
AcDbArc
 50
185.094636
 51
214.905364
  0
ARC
  5
1BC42D0873C73
330
1BC42D08739B1
100
AcDbEntity
  8
SAISEN
100
AcDbCircle
 10
130.5283179999999
 20
99.37996699999999
 30
0.0
 40
22.5
100
AcDbArc
 50
225.0946359999999
 51
314.905364
  0
ARC
  5
1BC42D0873C74
330
1BC42D08739B1
100
AcDbEntity
  8
JISSEN
100
AcDbCircle
 10
130.5283179999999
 20
99.37996699999999
 30
0.0
 40
22.5
100
AcDbArc
 50
185.094636
 51
214.905364
  0
ARC
  5
1BC42D0873C75
330
1BC42D08739B1
100
AcDbEntity
  8
JISSEN
100
AcDbCircle
 10
108.028318
 20
99.37996699999999
 30
0.0
 40
2.0
100
AcDbArc
 50
272.547318
 51
87.45268199999998
  0
ARC
  5
1BC42D0873C76
330
1BC42D08739B1
100
AcDbEntity
  8
JISSEN
100
AcDbCircle
 10
113.2923179999999
 20
84.91724599999997
 30
0.0
 40
2.0
100
AcDbArc
 50
312.547318
 51
127.452682
  0
LINE
  5
1BC42D0873C77
330
1BC42D08739B1
100
AcDbEntity
  8
JISSEN
100
AcDbLine
 10
114.6447159999999
 20
83.443807
 30
0.0
 11
113.8109229999999
 21
82.743953
 31
0.0
  0
LINE
  5
1BC42D0873C78
330
1BC42D08739B1
100
AcDbEntity
  8
JISSEN
100
AcDbLine
 10
108.117207
 20
97.38194300000001
 30
0.0
 11
107.1633459999999
 21
97.93265500000003
 31
0.0
  0
LINE
  5
1BC42D0873C79
330
1BC42D08739B1
100
AcDbEntity
  8
JISSEN
100
AcDbLine
 10
112.076106
 20
86.50495699999998
 30
0.0
 11
112.076106
 21
85.40353399999998
 31
0.0
  0
LINE
  5
1BC42D0873C7A
330
1BC42D08739B1
100
AcDbEntity
  8
JISSEN
100
AcDbLine
 10
148.98053
 20
86.50495699999998
 30
0.0
 11
148.98053
 21
85.40353399999998
 31
0.0
  0
ARC
  5
1BC42D0873C7B
330
1BC42D08739B1
100
AcDbEntity
  8
JISSEN
100
AcDbCircle
 10
130.5283179999999
 20
99.37996699999999
 30
0.0
 40
22.5
100
AcDbArc
 50
5.094636
 51
49.073937
  0
LINE
  5
1BC42D0873C7C
330
1BC42D08739B1
100
AcDbEntity
  8
JISSEN
100
AcDbLine
 10
152.9394289999999
 20
97.38194300000001
 30
0.0
 11
153.8932899999998
 21
97.93265500000003
 31
0.0
  0
ARC
  5
1BC42D0873C7D
330
1BC42D08739B1
100
AcDbEntity
  8
JISSEN
100
AcDbCircle
 10
147.764318
 20
84.91724599999997
 30
0.0
 40
2.0
100
AcDbArc
 50
52.547318
 51
227.4526819999999
  0
ARC
  5
1BC42D0873C7E
330
1BC42D08739B1
100
AcDbEntity
  8
JISSEN
100
AcDbCircle
 10
153.0283179999998
 20
99.37996699999999
 30
0.0
 40
2.0
100
AcDbArc
 50
92.54731800000001
 51
267.452682
  0
ARC
  5
1BC42D0873C7F
330
1BC42D08739B1
100
AcDbEntity
  8
JISSEN
100
AcDbCircle
 10
130.5283179999999
 20
99.37996699999999
 30
0.0
 40
22.5
100
AcDbArc
 50
325.0946359999998
 51
354.905364
  0
ARC
  5
1BC42D0873C80
330
1BC42D08739B1
100
AcDbEntity
  8
JISSEN
100
AcDbCircle
 10
130.5283179999999
 20
99.37996699999999
 30
0.0
 40
17.0
100
AcDbArc
 50
151.9275129999997
 51
28.072487
  0
LINE
  5
1BC42D0873C81
330
1BC42D08739B1
100
AcDbEntity
  8
JISSEN
100
AcDbLine
 10
145.5283179999999
 20
107.3799669999999
 30
0.0
 11
145.5283179999999
 21
116.150477
 31
0.0
  0
LINE
  5
1BC42D0873C82
330
1BC42D08739B1
100
AcDbEntity
  8
JISSEN
100
AcDbLine
 10
145.267721
 20
116.3799669999999
 30
0.0
 11
115.7889149999999
 21
116.3799669999999
 31
0.0
  0
LINE
  5
1BC42D0873C83
330
1BC42D08739B1
100
AcDbEntity
  8
JISSEN
100
AcDbLine
 10
115.528318
 20
116.150477
 30
0.0
 11
115.528318
 21
107.3799669999999
 31
0.0
  0
CIRCLE
  5
1BC42D0873C86
330
1BC42D08739B1
100
AcDbEntity
  8
JISSEN
100
AcDbCircle
 10
130.5283179999999
 20
99.37996699999999
 30
0.0
 40
37.5
  0
LINE
  5
1BC42D0873C95
330
1BC42D08739B1
100
AcDbEntity
  8
JISSEN
100
AcDbLine
 10
34.359621
 20
81.64913400000001
 30
0.0
 11
19.359621
 21
81.39913400000002
 31
0.0
  0
LINE
  5
1BC42D0873C99
330
1BC42D08739B1
100
AcDbEntity
  8
JISSEN
100
AcDbLine
 10
19.359621
 20
81.796682
 30
0.0
 11
34.359621
 21
81.71985699999998
 31
0.0
  0
ARC
  5
1BC42D0873C9B
330
1BC42D08739B1
100
AcDbEntity
  8
JISSEN
100
AcDbCircle
 10
69.60081600000001
 20
83.397017
 30
0.0
 40
1.75
100
AcDbArc
 50
179.888024
 51
0.111976
  0
LWPOLYLINE
  5
1BC42D0873CA7
330
1BC42D08739B1
100
AcDbEntity
  8
WAKU
100
AcDbPolyline
 90
        4
 70
     1
 43
0.0
 10
0.0
 20
0.0
 10
180.999999
 20
0.0
 10
180.999999
 20
273.0
 10
0.0
 20
273.0
  0
LINE
  5
1BC42D0873D0C
330
1BC42D08739B1
100
AcDbEntity
  8
JISSEN
100
AcDbLine
 10
19.359621
 20
116.9632519999999
 30
0.0
 11
34.359621
 21
117.040077
 31
0.0
  0
LINE
  5
1BC42D0873D0D
330
1BC42D08739B1
100
AcDbEntity
  8
JISSEN
100
AcDbLine
 10
34.359621
 20
117.1107999999997
 30
0.0
 11
19.359621
 21
117.3607999999999
 31
0.0
  0
LINE
  5
1BC42D0873D0E
330
1BC42D08739B1
100
AcDbEntity
  8
JISSEN
100
AcDbLine
 10
34.359621
 20
120.1299669999999
 30
0.0
 11
19.359621
 21
120.1299669999999
 31
0.0
  0
LINE
  5
1BC42D0873D0F
330
1BC42D08739B1
100
AcDbEntity
  8
JISSEN
100
AcDbLine
 10
34.359621
 20
99.87996699999998
 30
0.0
 11
19.359621
 21
100.1299669999999
 31
0.0
  0
LINE
  5
1BC42D0873D10
330
1BC42D08739B1
100
AcDbEntity
  8
JISSEN
100
AcDbLine
 10
19.359621
 20
116.9632519999999
 30
0.0
 11
19.359621
 21
100.1299669999999
 31
0.0
  0
LINE
  5
1BC42D0873D11
330
1BC42D08739B1
100
AcDbEntity
  8
JISSEN
100
AcDbLine
 10
19.359621
 20
117.2799489999997
 30
0.0
 11
20.017898
 21
116.9666239999999
 31
0.0
  0
LINE
  5
1BC42D0873D12
330
1BC42D08739B1
100
AcDbEntity
  8
JISSEN
100
AcDbLine
 10
19.359621
 20
120.1299669999999
 30
0.0
 11
19.359621
 21
117.2799489999997
 31
0.0
  0
LINE
  5
1BC42D0873D13
330
1BC42D08739B1
100
AcDbEntity
  8
JISSEN
100
AcDbLine
 10
34.359621
 20
136.8799669999999
 30
0.0
 11
34.359621
 21
99.37996699999999
 31
0.0
  0
LINE
  5
1BC42D0873D14
330
1BC42D08739B1
100
AcDbEntity
  8
JISSEN
100
AcDbLine
 10
39.359621
 20
121.8799669999999
 30
0.0
 11
36.164999
 21
135.7173939999997
 31
0.0
  0
ARC
  5
1BC42D0873D15
330
1BC42D08739B1
100
AcDbEntity
  8
JISSEN
100
AcDbCircle
 10
34.703444
 20
135.3799669999999
 30
0.0
 40
1.5
100
AcDbArc
 50
13.0
 51
90.00000000000005
  0
LINE
  5
1BC42D0873D16
330
1BC42D08739B1
100
AcDbEntity
  8
JISSEN
100
AcDbLine
 10
34.703444
 20
136.8799669999999
 30
0.0
 11
34.359621
 21
136.8799669999999
 31
0.0
  0
LINE
  5
1BC42D0873D17
330
1BC42D08739B1
100
AcDbEntity
  8
JISSEN
100
AcDbLine
 10
34.359621
 20
116.0119099999999
 30
0.0
 11
34.359621
 21
116.5299489999999
 31
0.0
  0
LINE
  5
1BC42D0873F70
330
1BC42D08739B1
100
AcDbEntity
  8
JISSEN
100
AcDbLine
 10
272.4999977415776
 20
255.0000003132849
 30
0.0
 11
361.9999977415776
 21
255.0000003132849
 31
0.0
  0
LINE
  5
1BC42D0873F71
330
1BC42D08739B1
100
AcDbEntity
  8
JISSEN
100
AcDbLine
 10
272.4999977415776
 20
261.0000003132847
 30
0.0
 11
361.9999977415776
 21
261.0000003132847
 31
0.0
  0
LINE
  5
1BC42D0873F72
330
1BC42D08739B1
100
AcDbEntity
  8
JISSEN
100
AcDbLine
 10
272.4999977415776
 20
267.0000003132849
 30
0.0
 11
361.9999977415776
 21
267.0000003132849
 31
0.0
  0
CIRCLE
  5
1BC42D0873F74
330
1BC42D08739B1
100
AcDbEntity
  8
SUNPOU
100
AcDbCircle
 10
327.5194969312266
 20
137.3731030160286
 30
0.0
 40
6.0
  0
CIRCLE
  5
1BC42D0873F75
330
1BC42D08739B1
100
AcDbEntity
  8
SUNPOU
100
AcDbCircle
 10
297.5194969312266
 20
137.3731030160286
 30
0.0
 40
6.0
  0
LINE
  5
1BC42D0873F76
330
1BC42D08739B1
100
AcDbEntity
  8
JISSEN
100
AcDbLine
 10
239.0240736140828
 20
65.85458664204691
 30
0.0
 11
239.0240736140828
 21
50.80644761542896
 31
0.0
  0
LINE
  5
1BC42D0873F77
330
1BC42D08739B1
100
AcDbEntity
  8
JISSEN
100
AcDbLine
 10
242.5240736140827
 20
86.88285340835216
 30
0.0
 11
242.5240736140827
 21
52.13285340835215
 31
0.0
  0
LINE
  5
1BC42D0873F78
330
1BC42D08739B1
100
AcDbEntity
  8
SUNPOU
 62
     0
100
AcDbLine
 10
205.5238382826668
 20
105.3828534083522
 30
0.0
 11
205.5238382826669
 21
30.38285340835221
 31
0.0
  0
LINE
  5
1BC42D0873F79
330
1BC42D08739B1
100
AcDbEntity
  8
SUNPOU
 62
     0
100
AcDbLine
 10
210.5238382826668
 20
90.38285340835216
 30
0.0
 11
210.5238382826668
 21
45.38285340835215
 31
0.0
  0
LINE
  5
1BC42D0873F7A
330
1BC42D08739B1
100
AcDbEntity
  8
SUNPOU
 62
     0
100
AcDbLine
 10
212.0227248677903
 20
65.64078456875879
 30
0.0
 11
212.0227248677903
 21
51.06666135736779
 31
0.0
  0
LINE
  5
1BC42D0873F7B
330
1BC42D08739B1
100
AcDbEntity
  8
SUNPOU
 62
     0
100
AcDbLine
 10
212.2869070156514
 20
65.64078456875879
 30
0.0
 11
212.2869070156514
 21
51.34078456875876
 31
0.0
  0
LINE
  5
1BC42D0873F7C
330
1BC42D08739B1
100
AcDbEntity
  8
JISSEN
100
AcDbLine
 10
240.5240736140827
 20
50.12932327096121
 30
0.0
 11
210.5240736140828
 21
50.12932327096121
 31
0.0
  0
LINE
  5
1BC42D0873F7D
330
1BC42D08739B1
100
AcDbEntity
  8
SUNPOU
 62
     0
100
AcDbLine
 10
205.5238382826668
 20
37.81356856470699
 30
0.0
 11
205.5238382826668
 21
17.26574109903774
 31
0.0
  0
ARC
  5
1BC42D0873F7E
330
1BC42D08739B1
100
AcDbEntity
  8
SUNPOU
 62
     0
100
AcDbCircle
 10
205.8676615407815
 20
31.87932327096126
 30
0.0
 40
1.5
100
AcDbArc
 50
270.0
 51
346.9999999999997
  0
ARC
  5
1BC42D0873F7F
330
1BC42D08739B1
100
AcDbEntity
  8
SUNPOU
 62
     0
100
AcDbCircle
 10
205.8676615407815
 20
31.88285340835214
 30
0.0
 40
1.5
100
AcDbArc
 50
270.0
 51
346.9999999999997
  0
LINE
  5
1BC42D0873F80
330
1BC42D08739B1
100
AcDbEntity
  8
SUNPOU
 62
     0
100
AcDbLine
 10
205.8676615407815
 20
30.37932327096126
 30
0.0
 11
205.5238382826668
 21
30.37932327096126
 31
0.0
  0
LINE
  5
1BC42D0873F81
330
1BC42D08739B1
100
AcDbEntity
  8
SUNPOU
 62
     0
100
AcDbLine
 10
205.8676615407815
 20
30.38285340835221
 30
0.0
 11
205.5238382826668
 21
30.38285340835221
 31
0.0
  0
LINE
  5
1BC42D0873F82
330
1BC42D08739B1
100
AcDbEntity
  8
SUNPOU
 62
     0
100
AcDbLine
 10
210.5238382826668
 20
45.37932327096124
 30
0.0
 11
207.3292166379596
 21
31.54189668944546
 31
0.0
  0
LINE
  5
1BC42D0873F83
330
1BC42D08739B1
100
AcDbEntity
  8
SUNPOU
 62
     0
100
AcDbLine
 10
210.5238382826668
 20
45.37932327096121
 30
0.0
 11
210.5238382826668
 21
49.3793232709612
 31
0.0
  0
LINE
  5
1BC42D0873F84
330
1BC42D08739B1
100
AcDbEntity
  8
SUNPOU
 62
     0
100
AcDbLine
 10
210.5238382826668
 20
51.04213454451779
 30
0.0
 11
211.9869070156515
 21
51.04213454451779
 31
0.0
  0
LINE
  5
1BC42D0873F85
330
1BC42D08739B1
100
AcDbEntity
  8
SUNPOU
 62
     0
100
AcDbLine
 10
211.9869070156515
 20
51.04213454451779
 30
0.0
 11
212.2869070156514
 21
51.34213454451785
 31
0.0
  0
ARC
  5
1BC42D0873F86
330
1BC42D08739B1
100
AcDbEntity
  8
JISSEN
100
AcDbCircle
 10
240.5240736140827
 20
52.12932327096121
 30
0.0
 40
2.0
100
AcDbArc
 50
221.4096221092685
 51
0.0
  0
LINE
  5
1BC42D0873F87
330
1BC42D08739B1
100
AcDbEntity
  8
SUNPOU
 62
     0
100
AcDbLine
 10
205.5238382826668
 20
96.88922078779647
 30
0.0
 11
205.5238382826668
 21
113.5558874544638
 31
0.0
  0
LINE
  5
1BC42D0873F88
330
1BC42D08739B1
100
AcDbEntity
  8
SUNPOU
 62
     0
100
AcDbLine
 10
210.5238382826668
 20
90.38285340835221
 30
0.0
 11
207.3292166379596
 21
104.2202799898678
 31
0.0
  0
LINE
  5
1BC42D0873F89
330
1BC42D08739B1
100
AcDbEntity
  8
SUNPOU
 62
     0
100
AcDbLine
 10
222.1462292008359
 20
81.85291889334795
 30
0.0
 11
217.2869070156575
 21
81.85291889334795
 31
0.0
  0
LINE
  5
1BC42D0873F8A
330
1BC42D08739B1
100
AcDbEntity
  8
SUNPOU
 62
     0
100
AcDbLine
 10
213.3325987599335
 20
83.72019368266206
 30
0.0
 11
224.7280702966659
 21
82.52248136130196
 31
0.0
  0
LINE
  5
1BC42D0873F8B
330
1BC42D08739B1
100
AcDbEntity
  8
SUNPOU
 62
     0
100
AcDbLine
 10
213.4371272232011
 20
84.71471557803033
 30
0.0
 11
224.8325987599334
 21
83.51700325667025
 31
0.0
  0
LINE
  5
1BC42D0873F8C
330
1BC42D08739B1
100
AcDbEntity
  8
SUNPOU
 62
     0
100
AcDbLine
 10
210.5238382826668
 20
84.88028812976702
 30
0.0
 11
239.0240736140828
 21
84.88028812976699
 31
0.0
  0
LINE
  5
1BC42D0873F8D
330
1BC42D08739B1
100
AcDbEntity
  8
JISSEN
100
AcDbLine
 10
210.4077383963856
 20
90.88291312164296
 30
0.0
 11
240.6563145496368
 21
88.87847670320612
 31
0.0
  0
LINE
  5
1BC42D0873F8E
330
1BC42D08739B1
100
AcDbEntity
  8
JISSEN
100
AcDbLine
 10
239.0240736140828
 20
69.90405989987554
 30
0.0
 11
210.5238382826668
 21
69.90405989987554
 31
0.0
  0
LINE
  5
1BC42D0873F8F
330
1BC42D08739B1
100
AcDbEntity
  8
JISSEN
100
AcDbLine
 10
239.0240736140828
 20
65.85458664204688
 30
0.0
 11
210.5238382826668
 21
65.85458664204688
 31
0.0
  0
LINE
  5
1BC42D0873F90
330
1BC42D08739B1
100
AcDbEntity
  8
JISSEN
100
AcDbLine
 10
239.0240736140828
 20
55.4193232709612
 30
0.0
 11
212.2869070156514
 21
55.41932327096126
 31
0.0
  0
LINE
  5
1BC42D0873F91
330
1BC42D08739B1
100
AcDbEntity
  8
SUNPOU
 62
     0
100
AcDbLine
 10
217.2869070156556
 20
75.99173605297551
 30
0.0
 11
217.286907015654
 21
69.90405989987554
 31
0.0
  0
LINE
  5
1BC42D0873F92
330
1BC42D08739B1
100
AcDbEntity
  8
SUNPOU
 62
     0
100
AcDbLine
 10
212.2869070156514
 20
70.10426886910703
 30
0.0
 11
212.2869070156514
 21
84.40426886910698
 31
0.0
  0
LINE
  5
1BC42D0873F93
330
1BC42D08739B1
100
AcDbEntity
  8
SUNPOU
 62
     0
100
AcDbLine
 10
212.0227248677903
 20
70.10426886910703
 30
0.0
 11
212.0227248677903
 21
84.67839208049804
 31
0.0
  0
LINE
  5
1BC42D0873F94
330
1BC42D08739B1
100
AcDbEntity
  8
SUNPOU
 62
     0
100
AcDbLine
 10
216.286907015651
 20
75.97678668492235
 30
0.0
 11
216.286907015651
 21
74.10426886910705
 31
0.0
  0
LINE
  5
1BC42D0873F95
330
1BC42D08739B1
100
AcDbEntity
  8
SUNPOU
 62
     0
100
AcDbLine
 10
217.2869070156556
 20
59.75331738489025
 30
0.0
 11
217.286907015654
 21
65.85458664204691
 31
0.0
  0
LINE
  5
1BC42D0873F96
330
1BC42D08739B1
100
AcDbEntity
  8
SUNPOU
 62
     0
100
AcDbLine
 10
212.2869070156514
 20
65.64078456875879
 30
0.0
 11
212.2869070156514
 21
61.64078456875865
 31
0.0
  0
LINE
  5
1BC42D0873F97
330
1BC42D08739B1
100
AcDbEntity
  8
SUNPOU
 62
     0
100
AcDbLine
 10
212.2869070156514
 20
61.62583520070556
 30
0.0
 11
217.2869070156554
 21
61.62583520070556
 31
0.0
  0
LINE
  5
1BC42D0873F98
330
1BC42D08739B1
100
AcDbEntity
  8
SUNPOU
 62
     0
100
AcDbLine
 10
217.286907015656
 20
59.75331738489025
 30
0.0
 11
212.2869070156514
 21
59.75331738489025
 31
0.0
  0
LINE
  5
1BC42D0873F99
330
1BC42D08739B1
100
AcDbEntity
  8
SUNPOU
 62
     0
100
AcDbLine
 10
212.286907015651
 20
59.76826675294347
 30
0.0
 11
212.286907015651
 21
58.41338442770814
 31
0.0
  0
LINE
  5
1BC42D0873F9A
330
1BC42D08739B1
100
AcDbEntity
  8
SUNPOU
 62
     0
100
AcDbLine
 10
217.2869070156568
 20
55.41932327096126
 30
0.0
 11
217.2869070156556
 21
59.76826675294347
 31
0.0
  0
LINE
  5
1BC42D0873F9B
330
1BC42D08739B1
100
AcDbEntity
  8
SUNPOU
 62
     0
100
AcDbLine
 10
216.286907015651
 20
59.76826675294339
 30
0.0
 11
216.286907015651
 21
61.64078456875879
 31
0.0
  0
LINE
  5
1BC42D0873F9C
330
1BC42D08739B1
100
AcDbEntity
  8
SUNPOU
 62
     0
100
AcDbLine
 10
212.2869070156514
 20
74.11921823716034
 30
0.0
 11
217.2869070156554
 21
74.11921823716034
 31
0.0
  0
LINE
  5
1BC42D0873F9D
330
1BC42D08739B1
100
AcDbEntity
  8
SUNPOU
 62
     0
100
AcDbLine
 10
210.5238382826668
 20
65.64078456875879
 30
0.0
 11
212.2869070156514
 21
65.64078456875879
 31
0.0
  0
LINE
  5
1BC42D0873F9E
330
1BC42D08739B1
100
AcDbEntity
  8
SUNPOU
 62
     0
100
AcDbLine
 10
211.606973905283
 20
65.85458664204688
 30
0.0
 11
211.606973905283
 21
65.64078456875879
 31
0.0
  0
LINE
  5
1BC42D0873F9F
330
1BC42D08739B1
100
AcDbEntity
  8
SUNPOU
 62
     0
100
AcDbLine
 10
212.2869070156514
 20
70.10426886910703
 30
0.0
 11
212.2869070156514
 21
74.10426886910709
 31
0.0
  0
LINE
  5
1BC42D0873FA0
330
1BC42D08739B1
100
AcDbEntity
  8
SUNPOU
 62
     0
100
AcDbLine
 10
210.5238382826668
 20
70.10426886910703
 30
0.0
 11
212.2869070156514
 21
70.10426886910703
 31
0.0
  0
LINE
  5
1BC42D0873FA1
330
1BC42D08739B1
100
AcDbEntity
  8
SUNPOU
 62
     0
100
AcDbLine
 10
211.606973905283
 20
69.90405989987554
 30
0.0
 11
211.606973905283
 21
70.10426886910703
 31
0.0
  0
LINE
  5
1BC42D0873FA2
330
1BC42D08739B1
100
AcDbEntity
  8
SUNPOU
 62
     0
100
AcDbLine
 10
213.9893197847713
 20
76.10466841871908
 30
0.0
 11
213.3394525427814
 21
76.10466841871894
 31
0.0
  0
LINE
  5
1BC42D0873FA3
330
1BC42D08739B1
100
AcDbEntity
  8
SUNPOU
 62
     0
100
AcDbLine
 10
213.9893197847713
 20
80.10466841871894
 30
0.0
 11
213.3394525427814
 21
80.10466841871886
 31
0.0
  0
LINE
  5
1BC42D0873FA4
330
1BC42D08739B1
100
AcDbEntity
  8
SUNPOU
 62
     0
100
AcDbLine
 10
217.286907015656
 20
75.99173605297555
 30
0.0
 11
213.3325987599333
 21
75.99173605297551
 31
0.0
  0
LINE
  5
1BC42D0873FA5
330
1BC42D08739B1
100
AcDbEntity
  8
SUNPOU
 62
     0
100
AcDbLine
 10
213.3325987599333
 20
75.25763953128427
 30
0.0
 11
213.3325987599335
 21
83.72019368266206
 31
0.0
  0
LINE
  5
1BC42D0873FA6
330
1BC42D08739B1
100
AcDbEntity
  8
SUNPOU
 62
     0
100
AcDbLine
 10
212.2834448728098
 20
75.25763953128427
 30
0.0
 11
213.3325987599333
 21
75.25763953128427
 31
0.0
  0
LINE
  5
1BC42D0873FA7
330
1BC42D08739B1
100
AcDbEntity
  8
SUNPOU
 62
     0
100
AcDbLine
 10
210.5238382826668
 20
84.70291889334786
 30
0.0
 11
211.9869070156515
 21
84.70291889334793
 31
0.0
  0
ARC
  5
1BC42D0873FA8
330
1BC42D08739B1
100
AcDbEntity
  8
SUNPOU
 62
     0
100
AcDbCircle
 10
213.3325987599335
 20
83.72019368266206
 30
0.0
 40
1.0
100
AcDbArc
 50
83.99999999999828
 51
180.0
  0
LINE
  5
1BC42D0873FA9
330
1BC42D08739B1
100
AcDbEntity
  8
SUNPOU
 62
     0
100
AcDbLine
 10
211.9869070156515
 20
84.70291889334793
 30
0.0
 11
212.2869070156514
 21
84.40291889334782
 31
0.0
  0
LINE
  5
1BC42D0873FAA
330
1BC42D08739B1
100
AcDbEntity
  8
SUNPOU
 62
     0
100
AcDbLine
 10
217.2869070156575
 20
81.85291889334795
 30
0.0
 11
217.2869070156556
 21
75.97678668492235
 31
0.0
  0
ARC
  5
1BC42D0873FAB
330
1BC42D08739B1
100
AcDbEntity
  8
SUNPOU
 62
     0
100
AcDbCircle
 10
213.9893197847713
 20
77.10466841871909
 30
0.0
 40
1.0
100
AcDbArc
 50
270.0
 51
328.2261118107317
  0
LINE
  5
1BC42D0873FAC
330
1BC42D08739B1
100
AcDbEntity
  8
SUNPOU
 62
     0
100
AcDbLine
 10
214.8394525427811
 20
76.57810000553936
 30
0.0
 11
214.83945254278
 21
79.63123683190018
 31
0.0
  0
ARC
  5
1BC42D0873FAD
330
1BC42D08739B1
100
AcDbEntity
  8
SUNPOU
 62
     0
100
AcDbCircle
 10
213.9893197847713
 20
79.10466841871894
 30
0.0
 40
1.0
100
AcDbArc
 50
31.77388818931894
 51
90.0
  0
LINE
  5
1BC42D0873FAE
330
1BC42D08739B1
100
AcDbEntity
  8
SUNPOU
 62
     0
100
AcDbLine
 10
224.6869070156511
 20
72.65291889334782
 30
0.0
 11
224.6869070156511
 21
78.92093377621485
 31
0.0
  0
LINE
  5
1BC42D0873FAF
330
1BC42D08739B1
100
AcDbEntity
  8
JISSEN
100
AcDbLine
 10
239.0240736140828
 20
87.82444977969715
 30
0.0
 11
239.0240736140828
 21
69.90405989987554
 31
0.0
  0
LINE
  5
1BC42D0873FB0
330
1BC42D08739B1
100
AcDbEntity
  8
SUNPOU
 62
     0
100
AcDbLine
 10
233.4869070156508
 20
75.35291889334795
 30
0.0
 11
233.4869070156511
 21
69.90405989987554
 31
0.0
  0
LINE
  5
1BC42D0873FB1
330
1BC42D08739B1
100
AcDbEntity
  8
SUNPOU
 62
     0
100
AcDbLine
 10
233.036907015651
 20
69.90405989987556
 30
0.0
 11
233.0369070156514
 21
77.10291889334794
 31
0.0
  0
LINE
  5
1BC42D0873FB2
330
1BC42D08739B1
100
AcDbEntity
  8
SUNPOU
 62
     0
100
AcDbLine
 10
231.3369070156511
 20
69.90405989987556
 30
0.0
 11
231.336907015651
 21
77.10291889334794
 31
0.0
  0
LINE
  5
1BC42D0873FB3
330
1BC42D08739B1
100
AcDbEntity
  8
SUNPOU
 62
     0
100
AcDbLine
 10
231.1869070156514
 20
69.90405989987554
 30
0.0
 11
231.1869070156514
 21
75.65291889334827
 31
0.0
  0
LINE
  5
1BC42D0873FB4
330
1BC42D08739B1
100
AcDbEntity
  8
SUNPOU
 62
     0
100
AcDbLine
 10
230.886907015651
 20
69.90405989987554
 30
0.0
 11
230.886907015651
 21
75.35291889334803
 31
0.0
  0
LINE
  5
1BC42D0873FB5
330
1BC42D08739B1
100
AcDbEntity
  8
SUNPOU
 62
     0
100
AcDbLine
 10
228.9369070156511
 20
69.90405989987554
 30
0.0
 11
228.9369070156511
 21
75.5978678676259
 31
0.0
  0
LINE
  5
1BC42D0873FB6
330
1BC42D08739B1
100
AcDbEntity
  8
SUNPOU
 62
     0
100
AcDbLine
 10
228.5869070156513
 20
75.35291889334795
 30
0.0
 11
228.5869070156513
 21
69.90405989987556
 31
0.0
  0
LINE
  5
1BC42D0873FB7
330
1BC42D08739B1
100
AcDbEntity
  8
SUNPOU
 62
     0
100
AcDbLine
 10
228.786907015651
 20
69.90405989987556
 30
0.0
 11
228.786907015651
 21
77.10291889334794
 31
0.0
  0
LINE
  5
1BC42D0873FB8
330
1BC42D08739B1
100
AcDbEntity
  8
SUNPOU
 62
     0
100
AcDbLine
 10
224.6869070156511
 20
69.90405989987556
 30
0.0
 11
224.6869070156511
 21
78.92093377621485
 31
0.0
  0
LINE
  5
1BC42D0873FB9
330
1BC42D08739B1
100
AcDbEntity
  8
SUNPOU
 62
     0
100
AcDbLine
 10
224.6869070156511
 20
69.90405989987554
 30
0.0
 11
224.6869070156511
 21
78.92093377621485
 31
0.0
  0
LINE
  5
1BC42D0873FBA
330
1BC42D08739B1
100
AcDbEntity
  8
SUNPOU
 62
     0
100
AcDbLine
 10
222.1462292008359
 20
81.85291889334795
 30
0.0
 11
222.1462292008359
 21
69.90405989987556
 31
0.0
  0
LINE
  5
1BC42D0873FBB
330
1BC42D08739B1
100
AcDbEntity
  8
SUNPOU
 62
     0
100
AcDbLine
 10
227.286907015651
 20
64.14213454451779
 30
0.0
 11
227.186907015651
 21
64.04213454451781
 31
0.0
  0
LINE
  5
1BC42D0873FBC
330
1BC42D08739B1
100
AcDbEntity
  8
SUNPOU
 62
     0
100
AcDbLine
 10
227.186907015651
 20
64.14213454451789
 30
0.0
 11
227.186907015651
 21
63.59213454451785
 31
0.0
  0
LINE
  5
1BC42D0873FBD
330
1BC42D08739B1
100
AcDbEntity
  8
SUNPOU
 62
     0
100
AcDbLine
 10
233.4869070156508
 20
60.39213454451779
 30
0.0
 11
233.4869070156511
 21
65.85458664204688
 31
0.0
  0
LINE
  5
1BC42D0873FBE
330
1BC42D08739B1
100
AcDbEntity
  8
SUNPOU
 62
     0
100
AcDbLine
 10
233.036907015651
 20
65.85458664204691
 30
0.0
 11
233.0369070156514
 21
58.64213454451779
 31
0.0
  0
LINE
  5
1BC42D0873FBF
330
1BC42D08739B1
100
AcDbEntity
  8
SUNPOU
 62
     0
100
AcDbLine
 10
231.1869070156514
 20
65.85458664204691
 30
0.0
 11
231.1869070156514
 21
60.09213454451739
 31
0.0
  0
LINE
  5
1BC42D0873FC0
330
1BC42D08739B1
100
AcDbEntity
  8
SUNPOU
 62
     0
100
AcDbLine
 10
231.3369070156511
 20
65.85458664204691
 30
0.0
 11
231.336907015651
 21
58.64213454451779
 31
0.0
  0
LINE
  5
1BC42D0873FC1
330
1BC42D08739B1
100
AcDbEntity
  8
SUNPOU
 62
     0
100
AcDbLine
 10
230.886907015651
 20
65.85458664204691
 30
0.0
 11
230.886907015651
 21
60.39213454451772
 31
0.0
  0
LINE
  5
1BC42D0873FC2
330
1BC42D08739B1
100
AcDbEntity
  8
SUNPOU
 62
     0
100
AcDbLine
 10
228.9369070156511
 20
65.85458664204688
 30
0.0
 11
228.9369070156511
 21
60.14718557023986
 31
0.0
  0
LINE
  5
1BC42D0873FC3
330
1BC42D08739B1
100
AcDbEntity
  8
SUNPOU
 62
     0
100
AcDbLine
 10
228.786907015651
 20
60.67497725699229
 30
0.0
 11
228.786907015651
 21
65.85458664204691
 31
0.0
  0
LINE
  5
1BC42D0873FC4
330
1BC42D08739B1
100
AcDbEntity
  8
SUNPOU
 62
     0
100
AcDbLine
 10
228.5869070156513
 20
60.39213454451779
 30
0.0
 11
228.5869070156513
 21
65.85458664204688
 31
0.0
  0
LINE
  5
1BC42D0873FC5
330
1BC42D08739B1
100
AcDbEntity
  8
SUNPOU
 62
     0
100
AcDbLine
 10
228.786907015651
 20
65.85458664204691
 30
0.0
 11
228.786907015651
 21
58.64213454451779
 31
0.0
  0
LINE
  5
1BC42D0873FC6
330
1BC42D08739B1
100
AcDbEntity
  8
SUNPOU
 62
     0
100
AcDbLine
 10
227.186907015651
 20
65.85458664204688
 30
0.0
 11
227.186907015651
 21
63.59213454451785
 31
0.0
  0
LINE
  5
1BC42D0873FC7
330
1BC42D08739B1
100
AcDbEntity
  8
SUNPOU
 62
     0
100
AcDbLine
 10
224.6869070156511
 20
65.85458664204688
 30
0.0
 11
224.6869070156511
 21
56.82411966165098
 31
0.0
  0
LINE
  5
1BC42D0873FC8
330
1BC42D08739B1
100
AcDbEntity
  8
SUNPOU
 62
     0
100
AcDbLine
 10
224.6869070156511
 20
65.85458664204688
 30
0.0
 11
224.6869070156511
 21
56.82411966165088
 31
0.0
  0
LINE
  5
1BC42D0873FC9
330
1BC42D08739B1
100
AcDbEntity
  8
SUNPOU
 62
     0
100
AcDbLine
 10
222.1462292008359
 20
55.41932327096123
 30
0.0
 11
222.1462292008359
 21
65.85458664204691
 31
0.0
  0
LINE
  5
1BC42D0873FCA
330
1BC42D08739B1
100
AcDbEntity
  8
SUNPOU
 62
     0
100
AcDbLine
 10
224.6869070156511
 20
63.09213454451793
 30
0.0
 11
224.6869070156511
 21
56.82411966165098
 31
0.0
  0
LINE
  5
1BC42D0873FCB
330
1BC42D08739B1
100
AcDbEntity
  8
SUNPOU
 62
     0
100
AcDbLine
 10
224.5699292372107
 20
56.50272585680761
 30
0.0
 11
223.6608465270104
 21
55.41932327096126
 31
0.0
  0
ARC
  5
1BC42D0873FCC
330
1BC42D08739B1
100
AcDbEntity
  8
SUNPOU
 62
     0
100
AcDbCircle
 10
224.186907015651
 20
56.82411966165088
 30
0.0
 40
0.5000000000000006
100
AcDbArc
 50
319.9999999999997
 51
0.0
  0
ARC
  5
1BC42D0873FCD
330
1BC42D08739B1
100
AcDbEntity
  8
SUNPOU
 62
     0
100
AcDbCircle
 10
224.186907015651
 20
56.82411966165098
 30
0.0
 40
0.5000000000000006
100
AcDbArc
 50
319.9999999999997
 51
0.0
  0
LINE
  5
1BC42D0873FCE
330
1BC42D08739B1
100
AcDbEntity
  8
SUNPOU
 62
     0
100
AcDbLine
 10
227.186907015651
 20
63.59213454451785
 30
0.0
 11
225.186907015651
 21
63.59213454451785
 31
0.0
  0
LINE
  5
1BC42D0873FCF
330
1BC42D08739B1
100
AcDbEntity
  8
SUNPOU
 62
     0
100
AcDbLine
 10
227.186907015651
 20
63.59213454451785
 30
0.0
 11
225.186907015651
 21
63.59213454451785
 31
0.0
  0
ARC
  5
1BC42D0873FD0
330
1BC42D08739B1
100
AcDbEntity
  8
SUNPOU
 62
     0
100
AcDbCircle
 10
225.186907015651
 20
63.09213454451785
 30
0.0
 40
0.5000000000000006
100
AcDbArc
 50
90.0
 51
180.0
  0
ARC
  5
1BC42D0873FD1
330
1BC42D08739B1
100
AcDbEntity
  8
SUNPOU
 62
     0
100
AcDbCircle
 10
225.186907015651
 20
63.09213454451785
 30
0.0
 40
0.5000000000000006
100
AcDbArc
 50
90.0
 51
180.0
  0
ARC
  5
1BC42D0873FD2
330
1BC42D08739B1
100
AcDbEntity
  8
SUNPOU
 62
     0
100
AcDbCircle
 10
231.186907015651
 20
60.39213454451772
 30
0.0
 40
0.2999999999998695
100
AcDbArc
 50
180.0
 51
270.0
  0
LINE
  5
1BC42D0873FD3
330
1BC42D08739B1
100
AcDbEntity
  8
SUNPOU
 62
     0
100
AcDbLine
 10
228.9369070156511
 20
60.14718557023986
 30
0.0
 11
228.9369070156511
 21
58.64213454451779
 31
0.0
  0
LINE
  5
1BC42D0873FD4
330
1BC42D08739B1
100
AcDbEntity
  8
SUNPOU
 62
     0
100
AcDbLine
 10
228.786907015651
 20
58.64213454451779
 30
0.0
 11
228.9369070156511
 21
58.64213454451779
 31
0.0
  0
ARC
  5
1BC42D0873FD5
330
1BC42D08739B1
100
AcDbEntity
  8
SUNPOU
 62
     0
100
AcDbCircle
 10
228.8869070156511
 20
60.39213454451779
 30
0.0
 40
0.2999999999998695
100
AcDbArc
 50
180.0
 51
250.5287793655174
  0
LINE
  5
1BC42D0873FD6
330
1BC42D08739B1
100
AcDbEntity
  8
SUNPOU
 62
     0
100
AcDbLine
 10
233.1869070156514
 20
60.09213454451761
 30
0.0
 11
233.1869070156514
 21
58.64213454451771
 31
0.0
  0
LINE
  5
1BC42D0873FD7
330
1BC42D08739B1
100
AcDbEntity
  8
SUNPOU
 62
     0
100
AcDbLine
 10
231.186907015651
 20
60.09213454451799
 30
0.0
 11
231.186907015651
 21
58.64213454451771
 31
0.0
  0
LINE
  5
1BC42D0873FD8
330
1BC42D08739B1
100
AcDbEntity
  8
SUNPOU
 62
     0
100
AcDbLine
 10
231.186907015651
 20
58.64213454451779
 30
0.0
 11
231.336907015651
 21
58.64213454451779
 31
0.0
  0
LINE
  5
1BC42D0873FD9
330
1BC42D08739B1
100
AcDbEntity
  8
SUNPOU
 62
     0
100
AcDbLine
 10
233.1869070156514
 20
58.64213454451779
 30
0.0
 11
233.0369070156514
 21
58.64213454451779
 31
0.0
  0
ARC
  5
1BC42D0873FDA
330
1BC42D08739B1
100
AcDbEntity
  8
SUNPOU
 62
     0
100
AcDbCircle
 10
233.1869070156514
 20
60.39213454451779
 30
0.0
 40
0.2999999999998695
100
AcDbArc
 50
270.0
 51
0.0
  0
LINE
  5
1BC42D0873FDB
330
1BC42D08739B1
100
AcDbEntity
  8
SUNPOU
 62
     0
100
AcDbLine
 10
227.286907015651
 20
64.9921345445178
 30
0.0
 11
228.5869070156513
 21
64.9921345445178
 31
0.0
  0
LINE
  5
1BC42D0873FDC
330
1BC42D08739B1
100
AcDbEntity
  8
SUNPOU
 62
     0
100
AcDbLine
 10
227.286907015651
 20
70.75291889334804
 30
0.0
 11
228.5869070156513
 21
70.75291889334804
 31
0.0
  0
LINE
  5
1BC42D0873FDD
330
1BC42D08739B1
100
AcDbEntity
  8
SUNPOU
 62
     0
100
AcDbLine
 10
227.186907015651
 20
64.14213454451789
 30
0.0
 11
227.286907015651
 21
64.14213454451789
 31
0.0
  0
LINE
  5
1BC42D0873FDE
330
1BC42D08739B1
100
AcDbEntity
  8
SUNPOU
 62
     0
100
AcDbLine
 10
227.286907015651
 20
65.85458664204691
 30
0.0
 11
227.286907015651
 21
64.14213454451789
 31
0.0
  0
LINE
  5
1BC42D0873FDF
330
1BC42D08739B1
100
AcDbEntity
  8
SUNPOU
 62
     0
100
AcDbLine
 10
227.286907015651
 20
64.14213454451779
 30
0.0
 11
227.286907015651
 21
65.85458664204688
 31
0.0
  0
LINE
  5
1BC42D0873FE0
330
1BC42D08739B1
100
AcDbEntity
  8
SUNPOU
 62
     0
100
AcDbLine
 10
227.186907015651
 20
72.15291889334799
 30
0.0
 11
225.186907015651
 21
72.15291889334799
 31
0.0
  0
LINE
  5
1BC42D0873FE1
330
1BC42D08739B1
100
AcDbEntity
  8
SUNPOU
 62
     0
100
AcDbLine
 10
227.186907015651
 20
72.15291889334799
 30
0.0
 11
225.186907015651
 21
72.15291889334799
 31
0.0
  0
ARC
  5
1BC42D0873FE2
330
1BC42D08739B1
100
AcDbEntity
  8
SUNPOU
 62
     0
100
AcDbCircle
 10
225.186907015651
 20
72.65291889334799
 30
0.0
 40
0.5000000000000006
100
AcDbArc
 50
180.0
 51
270.0
  0
ARC
  5
1BC42D0873FE3
330
1BC42D08739B1
100
AcDbEntity
  8
SUNPOU
 62
     0
100
AcDbCircle
 10
225.186907015651
 20
72.65291889334799
 30
0.0
 40
0.5000000000000006
100
AcDbArc
 50
180.0
 51
270.0
  0
LINE
  5
1BC42D0873FE4
330
1BC42D08739B1
100
AcDbEntity
  8
SUNPOU
 62
     0
100
AcDbLine
 10
227.186907015651
 20
71.60291889334795
 30
0.0
 11
227.286907015651
 21
71.60291889334795
 31
0.0
  0
LINE
  5
1BC42D0873FE5
330
1BC42D08739B1
100
AcDbEntity
  8
SUNPOU
 62
     0
100
AcDbLine
 10
227.286907015651
 20
71.60291889334795
 30
0.0
 11
227.186907015651
 21
71.702918893348
 31
0.0
  0
LINE
  5
1BC42D0873FE6
330
1BC42D08739B1
100
AcDbEntity
  8
SUNPOU
 62
     0
100
AcDbLine
 10
227.186907015651
 20
71.60291889334795
 30
0.0
 11
227.186907015651
 21
72.15291889334799
 31
0.0
  0
LINE
  5
1BC42D0873FE7
330
1BC42D08739B1
100
AcDbEntity
  8
SUNPOU
 62
     0
100
AcDbLine
 10
227.286907015651
 20
71.60291889334795
 30
0.0
 11
227.286907015651
 21
69.90405989987556
 31
0.0
  0
LINE
  5
1BC42D0873FE8
330
1BC42D08739B1
100
AcDbEntity
  8
SUNPOU
 62
     0
100
AcDbLine
 10
227.286907015651
 20
69.90405989987554
 30
0.0
 11
227.286907015651
 21
71.60291889334795
 31
0.0
  0
LINE
  5
1BC42D0873FE9
330
1BC42D08739B1
100
AcDbEntity
  8
SUNPOU
 62
     0
100
AcDbLine
 10
227.186907015651
 20
69.90405989987554
 30
0.0
 11
227.186907015651
 21
72.15291889334799
 31
0.0
  0
LINE
  5
1BC42D0873FEA
330
1BC42D08739B1
100
AcDbEntity
  8
SUNPOU
 62
     0
100
AcDbLine
 10
228.9369070156511
 20
65.74213454451779
 30
0.0
 11
230.886907015651
 21
65.74213454451779
 31
0.0
  0
LINE
  5
1BC42D0873FEB
330
1BC42D08739B1
100
AcDbEntity
  8
SUNPOU
 62
     0
100
AcDbLine
 10
228.786907015651
 20
64.9921345445178
 30
0.0
 11
228.786907015651
 21
65.85458664204691
 31
0.0
  0
ARC
  5
1BC42D0873FEC
330
1BC42D08739B1
100
AcDbEntity
  8
SUNPOU
 62
     0
100
AcDbCircle
 10
231.8369070156513
 20
65.24213454451779
 30
0.0
 40
0.3500000000000003
100
AcDbArc
 50
270.0
 51
0.0
  0
ARC
  5
1BC42D0873FED
330
1BC42D08739B1
100
AcDbEntity
  8
SUNPOU
 62
     0
100
AcDbCircle
 10
232.5369070156511
 20
65.24213454451779
 30
0.0
 40
0.3500000000000003
100
AcDbArc
 50
180.0
 51
270.0
  0
LINE
  5
1BC42D0873FEE
330
1BC42D08739B1
100
AcDbEntity
  8
SUNPOU
 62
     0
100
AcDbLine
 10
232.8369070156513
 20
64.8921345445177
 30
0.0
 11
232.5369070156511
 21
64.8921345445177
 31
0.0
  0
LINE
  5
1BC42D0873FEF
330
1BC42D08739B1
100
AcDbEntity
  8
SUNPOU
 62
     0
100
AcDbLine
 10
231.536907015651
 20
64.8921345445177
 30
0.0
 11
231.8369070156513
 21
64.8921345445177
 31
0.0
  0
ARC
  5
1BC42D0873FF0
330
1BC42D08739B1
100
AcDbEntity
  8
SUNPOU
 62
     0
100
AcDbCircle
 10
231.536907015651
 20
64.69213454451774
 30
0.0
 40
0.2000000000000002
100
AcDbArc
 50
90.0
 51
180.0
  0
ARC
  5
1BC42D0873FF1
330
1BC42D08739B1
100
AcDbEntity
  8
SUNPOU
 62
     0
100
AcDbCircle
 10
232.8369070156513
 20
64.69213454451774
 30
0.0
 40
0.2000000000000002
100
AcDbArc
 50
0.0
 51
90.0
  0
LINE
  5
1BC42D0873FF2
330
1BC42D08739B1
100
AcDbEntity
  8
SUNPOU
 62
     0
100
AcDbLine
 10
232.186907015651
 20
65.24213454451779
 30
0.0
 11
232.186907015651
 21
65.85458664204691
 31
0.0
  0
LINE
  5
1BC42D0873FF3
330
1BC42D08739B1
100
AcDbEntity
  8
SUNPOU
 62
     0
100
AcDbLine
 10
232.186907015651
 20
65.85458664204691
 30
0.0
 11
232.186907015651
 21
65.24213454451779
 31
0.0
  0
LINE
  5
1BC42D0873FF4
330
1BC42D08739B1
100
AcDbEntity
  8
SUNPOU
 62
     0
100
AcDbLine
 10
228.9369070156511
 20
70.00291889334803
 30
0.0
 11
230.886907015651
 21
70.00291889334803
 31
0.0
  0
LINE
  5
1BC42D0873FF5
330
1BC42D08739B1
100
AcDbEntity
  8
SUNPOU
 62
     0
100
AcDbLine
 10
228.786907015651
 20
75.07007618087351
 30
0.0
 11
228.786907015651
 21
69.90405989987554
 31
0.0
  0
LINE
  5
1BC42D0873FF6
330
1BC42D08739B1
100
AcDbEntity
  8
SUNPOU
 62
     0
100
AcDbLine
 10
228.786907015651
 20
70.75291889334804
 30
0.0
 11
228.786907015651
 21
69.90405989987556
 31
0.0
  0
ARC
  5
1BC42D0873FF7
330
1BC42D08739B1
100
AcDbEntity
  8
SUNPOU
 62
     0
100
AcDbCircle
 10
231.8369070156513
 20
70.50291889334804
 30
0.0
 40
0.3500000000000003
100
AcDbArc
 50
0.0
 51
90.0
  0
ARC
  5
1BC42D0873FF8
330
1BC42D08739B1
100
AcDbEntity
  8
SUNPOU
 62
     0
100
AcDbCircle
 10
232.5369070156511
 20
70.50291889334804
 30
0.0
 40
0.3500000000000003
100
AcDbArc
 50
90.0
 51
180.0
  0
LINE
  5
1BC42D0873FF9
330
1BC42D08739B1
100
AcDbEntity
  8
SUNPOU
 62
     0
100
AcDbLine
 10
232.8369070156513
 20
70.85291889334802
 30
0.0
 11
232.5369070156511
 21
70.85291889334802
 31
0.0
  0
ARC
  5
1BC42D0873FFA
330
1BC42D08739B1
100
AcDbEntity
  8
SUNPOU
 62
     0
100
AcDbCircle
 10
231.536907015651
 20
71.05291889334805
 30
0.0
 40
0.2000000000000002
100
AcDbArc
 50
180.0
 51
270.0
  0
LINE
  5
1BC42D0873FFB
330
1BC42D08739B1
100
AcDbEntity
  8
SUNPOU
 62
     0
100
AcDbLine
 10
231.536907015651
 20
70.85291889334802
 30
0.0
 11
231.8369070156513
 21
70.85291889334802
 31
0.0
  0
ARC
  5
1BC42D0873FFC
330
1BC42D08739B1
100
AcDbEntity
  8
SUNPOU
 62
     0
100
AcDbCircle
 10
232.8369070156513
 20
71.05291889334805
 30
0.0
 40
0.2000000000000002
100
AcDbArc
 50
270.0
 51
0.0
  0
LINE
  5
1BC42D0873FFD
330
1BC42D08739B1
100
AcDbEntity
  8
SUNPOU
 62
     0
100
AcDbLine
 10
232.186907015651
 20
70.50291889334804
 30
0.0
 11
232.186907015651
 21
69.90405989987554
 31
0.0
  0
LINE
  5
1BC42D0873FFE
330
1BC42D08739B1
100
AcDbEntity
  8
SUNPOU
 62
     0
100
AcDbLine
 10
232.186907015651
 20
69.90405989987556
 30
0.0
 11
232.186907015651
 21
70.50291889334804
 31
0.0
  0
LINE
  5
1BC42D0873FFF
330
1BC42D08739B1
100
AcDbEntity
  8
JISSEN
100
AcDbLine
 10
239.0240736140828
 20
69.90405989987549
 30
0.0
 11
240.6563145496368
 21
67.87932327096121
 31
0.0
  0
LINE
  5
1BC42D0874000
330
1BC42D08739B1
100
AcDbEntity
  8
JISSEN
100
AcDbLine
 10
239.0240736140828
 20
65.85458664204691
 30
0.0
 11
240.6563145496368
 21
67.87932327096121
 31
0.0
  0
LINE
  5
1BC42D0874001
330
1BC42D08739B1
100
AcDbEntity
  8
SUNPOU
 62
     0
100
AcDbLine
 10
224.5699292372107
 20
79.24232758105812
 30
0.0
 11
222.5292514223955
 21
81.67431269819124
 31
0.0
  0
ARC
  5
1BC42D0874002
330
1BC42D08739B1
100
AcDbEntity
  8
SUNPOU
 62
     0
100
AcDbCircle
 10
224.186907015651
 20
78.92093377621485
 30
0.0
 40
0.5000000000000006
100
AcDbArc
 50
0.0
 51
40.00000000000029
  0
ARC
  5
1BC42D0874003
330
1BC42D08739B1
100
AcDbEntity
  8
SUNPOU
 62
     0
100
AcDbCircle
 10
224.186907015651
 20
78.92093377621485
 30
0.0
 40
0.5000000000000006
100
AcDbArc
 50
0.0
 51
40.00000000000029
  0
ARC
  5
1BC42D0874004
330
1BC42D08739B1
100
AcDbEntity
  8
SUNPOU
 62
     0
100
AcDbCircle
 10
222.1462292008359
 20
81.35291889334794
 30
0.0
 40
0.5000000000000006
100
AcDbArc
 50
40.00000000000029
 51
90.0
  0
LINE
  5
1BC42D0874005
330
1BC42D08739B1
100
AcDbEntity
  8
SUNPOU
 62
     0
100
AcDbLine
 10
224.7280702966659
 20
82.52248136130196
 30
0.0
 11
224.8325987599334
 21
83.51700325667025
 31
0.0
  0
ARC
  5
1BC42D0874006
330
1BC42D08739B1
100
AcDbEntity
  8
SUNPOU
 62
     0
100
AcDbCircle
 10
231.186907015651
 20
75.35291889334803
 30
0.0
 40
0.2999999999998695
100
AcDbArc
 50
90.0
 51
180.0
  0
LINE
  5
1BC42D0874007
330
1BC42D08739B1
100
AcDbEntity
  8
SUNPOU
 62
     0
100
AcDbLine
 10
228.9369070156511
 20
75.5978678676259
 30
0.0
 11
228.9369070156511
 21
77.10291889334794
 31
0.0
  0
ARC
  5
1BC42D0874008
330
1BC42D08739B1
100
AcDbEntity
  8
SUNPOU
 62
     0
100
AcDbCircle
 10
228.8869070156511
 20
75.35291889334795
 30
0.0
 40
0.2999999999998695
100
AcDbArc
 50
109.4712206344826
 51
180.0
  0
LINE
  5
1BC42D0874009
330
1BC42D08739B1
100
AcDbEntity
  8
SUNPOU
 62
     0
100
AcDbLine
 10
228.786907015651
 20
77.10291889334794
 30
0.0
 11
228.9369070156511
 21
77.10291889334794
 31
0.0
  0
LINE
  5
1BC42D087400A
330
1BC42D08739B1
100
AcDbEntity
  8
SUNPOU
 62
     0
100
AcDbLine
 10
231.186907015651
 20
75.65291889334777
 30
0.0
 11
231.186907015651
 21
77.10291889334803
 31
0.0
  0
LINE
  5
1BC42D087400B
330
1BC42D08739B1
100
AcDbEntity
  8
SUNPOU
 62
     0
100
AcDbLine
 10
233.1869070156514
 20
75.65291889334812
 30
0.0
 11
233.1869070156514
 21
77.10291889334803
 31
0.0
  0
ARC
  5
1BC42D087400C
330
1BC42D08739B1
100
AcDbEntity
  8
SUNPOU
 62
     0
100
AcDbCircle
 10
233.1869070156514
 20
75.35291889334795
 30
0.0
 40
0.2999999999998695
100
AcDbArc
 50
0.0
 51
90.0
  0
LINE
  5
1BC42D087400D
330
1BC42D08739B1
100
AcDbEntity
  8
SUNPOU
 62
     0
100
AcDbLine
 10
231.186907015651
 20
77.10291889334794
 30
0.0
 11
231.336907015651
 21
77.10291889334794
 31
0.0
  0
LINE
  5
1BC42D087400E
330
1BC42D08739B1
100
AcDbEntity
  8
SUNPOU
 62
     0
100
AcDbLine
 10
233.1869070156514
 20
77.10291889334794
 30
0.0
 11
233.0369070156514
 21
77.10291889334794
 31
0.0
  0
ARC
  5
1BC42D087400F
330
1BC42D08739B1
100
AcDbEntity
  8
JISSEN
100
AcDbCircle
 10
240.5240736140827
 20
86.88285340835216
 30
0.0
 40
2.0
100
AcDbArc
 50
0.0
 51
86.20881036674601
  0
ARC
  5
1BC42D0874010
330
1BC42D08739B1
100
AcDbEntity
  8
JISSEN
100
AcDbCircle
 10
240.788555485191
 20
86.88285340835216
 30
0.0
 40
2.0
100
AcDbArc
 50
93.79118963325565
 51
151.9138790255285
  0
ARC
  5
1BC42D0874011
330
1BC42D08739B1
100
AcDbEntity
  8
SUNPOU
 62
     0
100
AcDbCircle
 10
205.8676615407815
 20
103.8828534083522
 30
0.0
 40
1.5
100
AcDbArc
 50
13.00000000000027
 51
90.0
  0
LINE
  5
1BC42D0874012
330
1BC42D08739B1
100
AcDbEntity
  8
SUNPOU
 62
     0
100
AcDbLine
 10
205.8676615407815
 20
105.3828534083522
 30
0.0
 11
205.5238382826668
 21
105.3828534083522
 31
0.0
  0
ARC
  5
1BC42D0874013
330
1BC42D08739B1
100
AcDbEntity
  8
JISSEN
100
AcDbCircle
 10
293.6869127038011
 20
53.4201321904049
 30
0.0
 40
2.0
100
AcDbArc
 50
312.5473181825656
 51
127.4526818174329
  0
ARC
  5
1BC42D0874014
330
1BC42D08739B1
100
AcDbEntity
  8
JISSEN
100
AcDbCircle
 10
310.922912673978
 20
67.88285340835192
 30
0.0
 40
25.5
100
AcDbArc
 50
124.5603217799959
 51
219.9955910327318
  0
ARC
  5
1BC42D0874015
330
1BC42D08739B1
100
AcDbEntity
  8
JISSEN
100
AcDbCircle
 10
310.9229126739784
 20
67.88285340835192
 30
0.0
 40
25.5
100
AcDbArc
 50
320.004408967268
 51
55.43967822000384
  0
ARC
  5
1BC42D0874016
330
1BC42D08739B1
100
AcDbEntity
  8
JISSEN
100
AcDbCircle
 10
328.1589126441553
 20
53.42013219040495
 30
0.0
 40
2.0
100
AcDbArc
 50
52.54731818256693
 51
227.4526818174347
  0
ARC
  5
1BC42D0874017
330
1BC42D08739B1
100
AcDbEntity
  8
JISSEN
100
AcDbCircle
 10
310.9229126739782
 20
67.88285340835222
 30
0.0
 40
17.0
100
AcDbArc
 50
151.927513064147
 51
28.07248693585348
  0
CIRCLE
  5
1BC42D0874018
330
1BC42D08739B1
100
AcDbEntity
  8
JISSEN
100
AcDbCircle
 10
310.9229126739782
 20
67.88285340835222
 30
0.0
 40
37.5
  0
ARC
  5
1BC42D0874019
330
1BC42D08739B1
100
AcDbEntity
  8
JISSEN
100
AcDbCircle
 10
310.9513781375558
 20
67.88285340835222
 30
0.0
 40
16.85000000000002
100
AcDbArc
 50
149.3788771777246
 51
30.6256622902322
  0
ARC
  5
1BC42D087401A
330
1BC42D08739B1
100
AcDbEntity
  8
SAISEN
100
AcDbCircle
 10
310.9229126739783
 20
67.88285340835192
 30
0.0
 40
22.5
100
AcDbArc
 50
225.0946363651406
 51
314.9053636348592
  0
LINE
  5
1BC42D087401B
330
1BC42D08739B1
100
AcDbEntity
  8
JISSEN
100
AcDbLine
 10
295.0393104310076
 20
51.94669390277748
 30
0.0
 11
294.2055174579408
 21
51.24683933189652
 31
0.0
  0
ARC
  5
1BC42D087401C
330
1BC42D08739B1
100
AcDbEntity
  8
JISSEN
100
AcDbCircle
 10
292.9197059300414
 20
52.77872990067777
 30
0.0
 40
2.0
100
AcDbArc
 50
219.9955910327318
 51
310.0088378407206
  0
TEXT
  5
1BC42D087401D
330
1BC42D08739B1
100
AcDbEntity
  8
SUNPOU
100
AcDbText
 10
321.5705855351338
 20
7.849424012312852
 30
0.0
 40
3.0
  1
HFQR  ガード取付状態
  7
K
100
AcDbText
  0
TEXT
  5
1BC42D087401E
330
1BC42D08739B1
100
AcDbEntity
  8
SUNPOU
100
AcDbText
 10
321.5705855351338
 20
2.849424012312852
 30
0.0
 40
3.0
  1
尺度　1/1
  7
K
100
AcDbText
  0
ARC
  5
1BC42D087401F
330
1BC42D08739B1
100
AcDbEntity
  8
JISSEN
100
AcDbCircle
 10
328.926119417915
 20
52.77872990067765
 30
0.0
 40
2.0
100
AcDbArc
 50
229.9911621592731
 51
320.004408967268
  0
LINE
  5
1BC42D0874020
330
1BC42D08739B1
100
AcDbEntity
  8
JISSEN
100
AcDbLine
 10
326.8065149169486
 20
51.94669390277743
 30
0.0
 11
327.6403078900155
 21
51.24683933189658
 31
0.0
  0
ARC
  5
1BC42D0874021
330
1BC42D08739B1
100
AcDbEntity
  8
SAISEN
100
AcDbCircle
 10
310.9229126739783
 20
67.88285340835192
 30
0.0
 40
22.5
100
AcDbArc
 50
68.96053021868389
 51
111.039469781316
  0
LINE
  5
1BC42D0874022
330
1BC42D08739B1
100
AcDbEntity
  8
JISSEN
100
AcDbLine
 10
325.3883888154673
 20
88.88285340835222
 30
0.0
 11
296.457436532489
 21
88.88285340835222
 31
0.0
  0
LINE
  5
1BC42D0874023
330
1BC42D08739B1
100
AcDbEntity
  8
JISSEN
100
AcDbLine
 10
325.6623156469616
 20
84.88285340835222
 30
0.0
 11
296.1835097009948
 21
84.88285340835217
 31
0.0
  0
CIRCLE
  5
1BC42D0874024
330
1BC42D08739B1
100
AcDbEntity
  8
JISSEN
100
AcDbCircle
 10
310.9513781375558
 20
67.88285340835222
 30
0.0
 40
7.200000000000128
  0
CIRCLE
  5
1BC42D0874025
330
1BC42D08739B1
100
AcDbEntity
  8
JISSEN
100
AcDbCircle
 10
310.9513781375558
 20
67.88285340835222
 30
0.0
 40
7.79999999999987
  0
CIRCLE
  5
1BC42D0874026
330
1BC42D08739B1
100
AcDbEntity
  8
JISSEN
100
AcDbCircle
 10
310.9513781375558
 20
67.88285340835222
 30
0.0
 40
9.25
  0
CIRCLE
  5
1BC42D0874027
330
1BC42D08739B1
100
AcDbEntity
  8
JISSEN
100
AcDbCircle
 10
310.9513781375558
 20
67.88285340835222
 30
0.0
 40
14.0
  0
CIRCLE
  5
1BC42D0874028
330
1BC42D08739B1
100
AcDbEntity
  8
JISSEN
100
AcDbCircle
 10
310.9513781375558
 20
67.88285340835222
 30
0.0
 40
11.06801488286691
  0
LINE
  5
1BC42D0874029
330
1BC42D08739B1
100
AcDbEntity
  8
JISSEN
100
AcDbLine
 10
325.4510381171125
 20
84.70548578368866
 30
0.0
 11
296.4510381171125
 21
84.70548578368861
 31
0.0
  0
LINE
  5
1BC42D087402A
330
1BC42D08739B1
100
AcDbEntity
  8
JISSEN
100
AcDbLine
 10
325.4510381171125
 20
83.53024377635637
 30
0.0
 11
296.4510381171125
 21
83.53024377635637
 31
0.0
  0
LINE
  5
1BC42D087402B
330
1BC42D08739B1
100
AcDbEntity
  8
JISSEN
100
AcDbLine
 10
325.4510381171125
 20
82.68809469232932
 30
0.0
 11
296.4510381171125
 21
82.68809469232932
 31
0.0
  0
ARC
  5
1BC42D087402C
330
1BC42D08739B1
100
AcDbEntity
  8
JISSEN
100
AcDbCircle
 10
310.9229126739783
 20
67.88285340835192
 30
0.0
 40
22.5
100
AcDbArc
 50
130.9260633096029
 51
174.9053636348587
  0
LINE
  5
1BC42D087402D
330
1BC42D08739B1
100
AcDbEntity
  8
JISSEN
100
AcDbLine
 10
296.4510381171125
 20
75.15551257332461
 30
0.0
 11
296.4510381171125
 21
84.70548578368861
 31
0.0
  0
ARC
  5
1BC42D087402E
330
1BC42D08739B1
100
AcDbEntity
  8
JISSEN
100
AcDbCircle
 10
310.9229126739783
 20
67.88285340835192
 30
0.0
 40
22.5
100
AcDbArc
 50
185.0946363651399
 51
214.9053636348586
  0
ARC
  5
1BC42D087402F
330
1BC42D08739B1
100
AcDbEntity
  8
JISSEN
100
AcDbCircle
 10
310.922912673978
 20
67.88285340835192
 30
0.0
 40
22.5
100
AcDbArc
 50
185.0946363651399
 51
214.9053636348588
  0
LINE
  5
1BC42D0874030
330
1BC42D08739B1
100
AcDbEntity
  8
JISSEN
100
AcDbLine
 10
288.5118015628668
 20
69.88087712328462
 30
0.0
 11
287.5579408719928
 21
69.33016539663913
 31
0.0
  0
ARC
  5
1BC42D0874031
330
1BC42D08739B1
100
AcDbEntity
  8
JISSEN
100
AcDbCircle
 10
288.4229126739778
 20
67.88285340835216
 30
0.0
 40
2.0
100
AcDbArc
 50
272.547318182569
 51
87.4526818174292
  0
LINE
  5
1BC42D0874032
330
1BC42D08739B1
100
AcDbEntity
  8
JISSEN
100
AcDbLine
 10
288.5118015628668
 20
65.8848296934198
 30
0.0
 11
287.5579408719928
 21
66.43554142006529
 31
0.0
  0
LINE
  5
1BC42D0874033
330
1BC42D08739B1
100
AcDbEntity
  8
JISSEN
100
AcDbLine
 10
292.4707006553708
 20
55.00784383086517
 30
0.0
 11
292.4707006553708
 21
53.90642037757412
 31
0.0
  0
LINE
  5
1BC42D0874034
330
1BC42D08739B1
100
AcDbEntity
  8
JISSEN
100
AcDbLine
 10
299.0992523125216
 20
75.15551257332461
 30
0.0
 11
296.4510381171125
 21
75.15551257332461
 31
0.0
  0
ARC
  5
1BC42D0874035
330
1BC42D08739B1
100
AcDbEntity
  8
JISSEN
100
AcDbCircle
 10
310.9513781375558
 20
67.88285340835227
 30
0.0
 40
15.14999999999998
100
AcDbArc
 50
171.45913016713
 51
188.5408698328696
  0
LINE
  5
1BC42D0874036
330
1BC42D08739B1
100
AcDbEntity
  8
JISSEN
100
AcDbLine
 10
294.1652541585773
 20
66.4170629177421
 30
0.0
 11
295.8724538311726
 21
66.4170629177421
 31
0.0
  0
LINE
  5
1BC42D0874037
330
1BC42D08739B1
100
AcDbEntity
  8
JISSEN
100
AcDbLine
 10
294.1713691631452
 20
69.4170629177421
 30
0.0
 11
295.8005384826913
 21
69.4170629177421
 31
0.0
  0
LINE
  5
1BC42D0874038
330
1BC42D08739B1
100
AcDbEntity
  8
JISSEN
100
AcDbLine
 10
294.2522763653048
 20
65.63285340835221
 30
0.0
 11
297.1333645321203
 21
65.63285340835221
 31
0.0
  0
ARC
  5
1BC42D0874039
330
1BC42D08739B1
100
AcDbEntity
  8
JISSEN
100
AcDbCircle
 10
310.9229126739782
 20
67.88285340835222
 30
0.0
 40
15.2
100
AcDbArc
 50
174.206994971063
 51
185.5338370535995
  0
LINE
  5
1BC42D087403A
330
1BC42D08739B1
100
AcDbEntity
  8
JISSEN
100
AcDbLine
 10
294.2522763653048
 20
70.13285340835222
 30
0.0
 11
297.1333645321203
 21
70.13285340835222
 31
0.0
  0
LINE
  5
1BC42D087403B
330
1BC42D08739B1
100
AcDbEntity
  8
JISSEN
100
AcDbLine
 10
295.9229126739781
 20
84.65336323960025
 30
0.0
 11
295.9229126739781
 21
75.88285340835216
 31
0.0
  0
ARC
  5
1BC42D087403C
330
1BC42D08739B1
100
AcDbEntity
  8
JISSEN
100
AcDbCircle
 10
300.8015040730928
 20
78.03111835878024
 30
0.0
 40
1.3
100
AcDbArc
 50
25.73629933861201
 51
244.2637006613761
  0
ARC
  5
1BC42D087403D
330
1BC42D08739B1
100
AcDbEntity
  8
JISSEN
100
AcDbCircle
 10
300.8015040730928
 20
78.03111835878024
 30
0.0
 40
2.000340020443331
100
AcDbArc
 50
30.25011920584529
 51
239.7498807941539
  0
ARC
  5
1BC42D087403E
330
1BC42D08739B1
100
AcDbEntity
  8
JISSEN
100
AcDbCircle
 10
300.8015040730928
 20
78.03111835878024
 30
0.0
 40
1.0
100
AcDbArc
 50
21.11568410771182
 51
248.8843158922871
  0
ARC
  5
1BC42D087403F
330
1BC42D08739B1
100
AcDbEntity
  8
JISSEN
100
AcDbCircle
 10
310.9513781375558
 20
67.88285340835222
 30
0.0
 40
19.5
100
AcDbArc
 50
119.3321101677039
 51
120.378998431993
  0
ARC
  5
1BC42D0874040
330
1BC42D08739B1
100
AcDbEntity
  8
JISSEN
100
AcDbCircle
 10
297.9229126739781
 20
88.88285340835222
 30
0.0
 40
2.0
100
AcDbArc
 50
0.0
 51
180.0
  0
LINE
  5
1BC42D0874041
330
1BC42D08739B1
100
AcDbEntity
  8
JISSEN
100
AcDbLine
 10
295.9229126739781
 20
88.50444403565331
 30
0.0
 11
295.9229126739781
 21
88.88285340835222
 31
0.0
  0
LINE
  5
1BC42D0874042
330
1BC42D08739B1
100
AcDbEntity
  8
JISSEN
100
AcDbLine
 10
333.3340237850892
 20
69.88087712328456
 30
0.0
 11
334.2878844759634
 21
69.33016539663907
 31
0.0
  0
LINE
  5
1BC42D0874043
330
1BC42D08739B1
100
AcDbEntity
  8
JISSEN
100
AcDbLine
 10
333.3340237850892
 20
65.88482969341986
 30
0.0
 11
334.2878844759634
 21
66.43554142006535
 31
0.0
  0
ARC
  5
1BC42D0874044
330
1BC42D08739B1
100
AcDbEntity
  8
JISSEN
100
AcDbCircle
 10
310.9229126739783
 20
67.88285340835192
 30
0.0
 40
22.5
100
AcDbArc
 50
325.0946363651411
 51
354.9053636348598
  0
ARC
  5
1BC42D0874045
330
1BC42D08739B1
100
AcDbEntity
  8
JISSEN
100
AcDbCircle
 10
310.9229126739783
 20
67.88285340835192
 30
0.0
 40
22.5
100
AcDbArc
 50
5.094636365141254
 51
49.07393669039583
  0
LINE
  5
1BC42D0874046
330
1BC42D08739B1
100
AcDbEntity
  8
JISSEN
100
AcDbLine
 10
325.4510381171125
 20
75.15551257332461
 30
0.0
 11
325.4510381171125
 21
84.70548578368868
 31
0.0
  0
TEXT
  5
1BC42D0874047
330
1BC42D08739B1
100
AcDbEntity
  8
SUNPOU
100
AcDbText
 10
313.7642160871042
 20
62.26228072026714
 30
0.0
 40
1.49810485709211
  1
U
 50
34.06333076616034
  7
K
 72
     4
 11
313.9947433941884
 21
63.32233952903781
 31
0.0
100
AcDbText
  0
CIRCLE
  5
1BC42D0874048
330
1BC42D08739B1
100
AcDbEntity
  8
TENSEN
100
AcDbCircle
 10
310.9229126739782
 20
67.88285340835222
 30
0.0
 40
3.940825366356023
  0
TEXT
  5
1BC42D0874049
330
1BC42D08739B1
100
AcDbEntity
  8
SUNPOU
100
AcDbText
 10
312.2080873404435
 20
61.74768771651347
 30
0.0
 40
1.49810485709211
  1
J
 50
16.48862427305016
  7
K
 72
     4
 11
312.4743198733941
 21
62.60766938135861
 31
0.0
100
AcDbText
  0
TEXT
  5
1BC42D087404A
330
1BC42D08739B1
100
AcDbEntity
  8
SUNPOU
100
AcDbText
 10
308.4994939529882
 20
62.07462740542676
 30
0.0
 40
1.49810485709211
  1
E
 50
344.2759483656816
  7
K
 72
     4
 11
309.4235120027926
 21
62.59265223596788
 31
0.0
100
AcDbText
  0
TEXT
  5
1BC42D087404B
330
1BC42D08739B1
100
AcDbEntity
  8
SUNPOU
100
AcDbText
 10
306.9808728833205
 20
62.98224940104819
 30
0.0
 40
1.49810485709211
  1
S
 50
327.7880173682737
  7
K
 72
     4
 11
307.9837382314928
 21
63.23573769926034
 31
0.0
100
AcDbText
  0
TEXT
  5
1BC42D087404C
330
1BC42D08739B1
100
AcDbEntity
  8
SUNPOU
100
AcDbText
 10
310.1285694204575
 20
61.63522496044675
 30
0.0
 40
1.49810485709211
  1
N
  7
K
 72
     4
 11
310.9132910122677
 21
62.38427738899281
 31
0.0
100
AcDbText
  0
CIRCLE
  5
1BC42D087404E
330
1BC42D08739B1
100
AcDbEntity
  8
JISSEN
100
AcDbCircle
 10
310.9513781375558
 20
67.88285340835222
 30
0.0
 40
1.950000000000003
  0
CIRCLE
  5
1BC42D087404F
330
1BC42D08739B1
100
AcDbEntity
  8
JISSEN
100
AcDbCircle
 10
310.9513781375558
 20
67.88285340835222
 30
0.0
 40
2.849999999999993
  0
POINT
  5
1BC42D0874050
330
1BC42D08739B1
100
AcDbEntity
  8
JISSEN
100
AcDbPoint
 10
311.9513781375558
 20
67.88285340835222
 30
0.0
  0
CIRCLE
  5
1BC42D0874051
330
1BC42D08739B1
100
AcDbEntity
  8
SAISEN
100
AcDbCircle
 10
310.9513781375558
 20
67.88285340835222
 30
0.0
 40
1.034999999999982
  0
CIRCLE
  5
1BC42D0874052
330
1BC42D08739B1
100
AcDbEntity
  8
JISSEN
100
AcDbCircle
 10
310.9513781375558
 20
67.88285340835222
 30
0.0
 40
1.25
  0
CIRCLE
  5
1BC42D0874053
330
1BC42D08739B1
100
AcDbEntity
  8
JISSEN
100
AcDbCircle
 10
310.9513781375558
 20
67.88285340835222
 30
0.0
 40
1.449999999999989
  0
LINE
  5
1BC42D0874057
330
1BC42D08739B1
100
AcDbEntity
  8
JISSEN
100
AcDbLine
 10
329.3751246925852
 20
55.00784383086521
 30
0.0
 11
329.3751246925852
 21
53.9064203775742
 31
0.0
  0
LINE
  5
1BC42D0874058
330
1BC42D08739B1
100
AcDbEntity
  8
JISSEN
100
AcDbLine
 10
327.650479909807
 20
70.13285340835222
 30
0.0
 11
324.7693917429911
 21
70.13285340835222
 31
0.0
  0
LINE
  5
1BC42D0874059
330
1BC42D08739B1
100
AcDbEntity
  8
JISSEN
100
AcDbLine
 10
327.650479909807
 20
65.63285340835221
 30
0.0
 11
324.7693917429911
 21
65.63285340835221
 31
0.0
  0
LINE
  5
1BC42D087405A
330
1BC42D08739B1
100
AcDbEntity
  8
JISSEN
100
AcDbLine
 10
326.0520718785618
 20
66.4170629177421
 30
0.0
 11
327.7375021165342
 21
66.4170629177421
 31
0.0
  0
LINE
  5
1BC42D087405B
330
1BC42D08739B1
100
AcDbEntity
  8
JISSEN
100
AcDbLine
 10
327.7313871119663
 20
69.4170629177421
 30
0.0
 11
326.0452868652648
 21
69.4170629177421
 31
0.0
  0
ARC
  5
1BC42D087405C
330
1BC42D08739B1
100
AcDbEntity
  8
JISSEN
100
AcDbCircle
 10
310.9513781375558
 20
67.88285340835227
 30
0.0
 40
15.14999999999998
100
AcDbArc
 50
351.4591301671298
 51
8.540869832869901
  0
ARC
  5
1BC42D087405D
330
1BC42D08739B1
100
AcDbEntity
  8
JISSEN
100
AcDbCircle
 10
310.9229126739782
 20
67.88285340835222
 30
0.0
 40
15.2
100
AcDbArc
 50
354.4661629464004
 51
5.793005028936861
  0
LINE
  5
1BC42D087405E
330
1BC42D08739B1
100
AcDbEntity
  8
JISSEN
100
AcDbLine
 10
322.8035039625901
 20
75.15551257332461
 30
0.0
 11
325.4510381171125
 21
75.15551257332461
 31
0.0
  0
ARC
  5
1BC42D087405F
330
1BC42D08739B1
100
AcDbEntity
  8
JISSEN
100
AcDbCircle
 10
333.4229126739783
 20
67.88285340835222
 30
0.0
 40
2.0
100
AcDbArc
 50
92.54731818257081
 51
267.4526818174292
  0
ARC
  5
1BC42D0874060
330
1BC42D08739B1
100
AcDbEntity
  8
JISSEN
100
AcDbCircle
 10
321.130824032206
 20
78.03111835878024
 30
0.0
 40
2.000340020443331
100
AcDbArc
 50
300.2501192058459
 51
149.7498807941544
  0
LINE
  5
1BC42D0874061
330
1BC42D08739B1
100
AcDbEntity
  8
JISSEN
100
AcDbLine
 10
325.9229126739782
 20
75.88285340835227
 30
0.0
 11
325.9229126739782
 21
84.65336323960048
 31
0.0
  0
ARC
  5
1BC42D0874062
330
1BC42D08739B1
100
AcDbEntity
  8
JISSEN
100
AcDbCircle
 10
321.130824032206
 20
78.03111835878024
 30
0.0
 40
1.3
100
AcDbArc
 50
295.7362993386237
 51
154.2637006613821
  0
ARC
  5
1BC42D0874063
330
1BC42D08739B1
100
AcDbEntity
  8
JISSEN
100
AcDbCircle
 10
321.130824032206
 20
78.03111835878024
 30
0.0
 40
1.0
100
AcDbArc
 50
291.1156841077127
 51
158.8843158922881
  0
ARC
  5
1BC42D0874064
330
1BC42D08739B1
100
AcDbEntity
  8
JISSEN
100
AcDbCircle
 10
310.9513781375558
 20
67.88285340835222
 30
0.0
 40
19.5
100
AcDbArc
 50
59.6210015680069
 51
60.66788983229614
  0
ARC
  5
1BC42D0874065
330
1BC42D08739B1
100
AcDbEntity
  8
JISSEN
100
AcDbCircle
 10
323.9229126739782
 20
88.88285340835228
 30
0.0
 40
2.0
100
AcDbArc
 50
0.0
 51
180.0000000000014
  0
LINE
  5
1BC42D0874066
330
1BC42D08739B1
100
AcDbEntity
  8
JISSEN
100
AcDbLine
 10
325.9229126739782
 20
88.50444403565342
 30
0.0
 11
325.9229126739782
 21
88.88285340835228
 31
0.0
  0
LINE
  5
1BC42D0874067
330
1BC42D08739B1
100
AcDbEntity
  8
TENSEN
100
AcDbLine
 10
252.6281877536181
 20
196.9553296952308
 30
0.0
 11
243.7990481922005
 21
196.9553296952308
 31
0.0
  0
LINE
  5
1BC42D0874068
330
1BC42D08739B1
100
AcDbEntity
  8
TENSEN
100
AcDbLine
 10
243.7990481922005
 20
173.955329695253
 30
0.0
 11
252.6281877536073
 21
173.9553296952417
 31
0.0
  0
ARC
  5
1BC42D0874069
330
1BC42D08739B1
100
AcDbEntity
  8
TENSEN
100
AcDbCircle
 10
234.6747905773455
 20
176.7053296952505
 30
0.0
 40
15.68880208330581
100
AcDbArc
 50
146.1015515323269
 51
213.8984484676739
  0
ARC
  5
1BC42D087406A
330
1BC42D08739B1
100
AcDbEntity
  8
TENSEN
100
AcDbCircle
 10
233.1760469976483
 20
172.9553296952589
 30
0.0
 40
5.000000000000004
100
AcDbArc
 50
270.0
 51
311.1261073924086
  0
LINE
  5
1BC42D087406B
330
1BC42D08739B1
100
AcDbEntity
  8
TENSEN
100
AcDbLine
 10
221.6526551607064
 20
167.9553296952589
 30
0.0
 11
229.988658853045
 21
167.9553296952589
 31
0.0
  0
LINE
  5
1BC42D087406C
330
1BC42D08739B1
100
AcDbEntity
  8
TENSEN
100
AcDbLine
 10
229.988658853045
 20
167.9553296952589
 30
0.0
 11
233.176046997648
 21
167.9553296952589
 31
0.0
  0
ARC
  5
1BC42D087406D
330
1BC42D08739B1
100
AcDbEntity
  8
TENSEN
100
AcDbCircle
 10
243.7990481922005
 20
168.955329695253
 30
0.0
 40
4.999999999999952
100
AcDbArc
 50
90.0
 51
131.1261073924086
  0
LINE
  5
1BC42D087406E
330
1BC42D08739B1
100
AcDbEntity
  8
TENSEN
100
AcDbLine
 10
236.4646397286521
 20
169.1890108227269
 30
0.0
 11
240.5104554611965
 21
172.7216485677845
 31
0.0
  0
ARC
  5
1BC42D087406F
330
1BC42D08739B1
100
AcDbEntity
  8
TENSEN
100
AcDbCircle
 10
234.6747905773455
 20
194.2053296952338
 30
0.0
 40
15.68880208330581
100
AcDbArc
 50
146.1015515323269
 51
213.8984484676739
  0
ARC
  5
1BC42D0874070
330
1BC42D08739B1
100
AcDbEntity
  8
TENSEN
100
AcDbCircle
 10
243.7990481922005
 20
201.9553296952308
 30
0.0
 40
5.000000000000004
100
AcDbArc
 50
228.8738926075871
 51
270.0
  0
ARC
  5
1BC42D0874071
330
1BC42D08739B1
100
AcDbEntity
  8
TENSEN
100
AcDbCircle
 10
208.6305197440669
 20
194.2053296952338
 30
0.0
 40
15.68880208330581
100
AcDbArc
 50
326.101551532326
 51
33.89844846767304
  0
ARC
  5
1BC42D0874072
330
1BC42D08739B1
100
AcDbEntity
  8
TENSEN
100
AcDbCircle
 10
233.176046997648
 20
197.9553296952251
 30
0.0
 40
4.99999999999996
100
AcDbArc
 50
48.87389260758713
 51
90.0
  0
LINE
  5
1BC42D0874073
330
1BC42D08739B1
100
AcDbEntity
  8
TENSEN
100
AcDbLine
 10
229.988658853045
 20
202.9553296952251
 30
0.0
 11
221.6526551607064
 21
202.9553296952251
 31
0.0
  0
LINE
  5
1BC42D0874074
330
1BC42D08739B1
100
AcDbEntity
  8
TENSEN
100
AcDbLine
 10
233.176046997648
 20
202.9553296952251
 30
0.0
 11
229.988658853045
 21
202.9553296952251
 31
0.0
  0
LINE
  5
1BC42D0874075
330
1BC42D08739B1
100
AcDbEntity
  8
TENSEN
100
AcDbLine
 10
240.5104554611964
 20
198.1890108226993
 30
0.0
 11
236.4646397286521
 21
201.7216485677565
 31
0.0
  0
HATCH
  5
1BC42D0874076
330
1BC42D08739B1
100
AcDbEntity
  8
HATCH
100
AcDbHatch
 10
0.0
 20
0.0
 30
0.0
210
0.0
220
0.0
230
1.0
  2
ANSI31
 70
     0
 71
     0
 91
        2
 92
        7
 72
     0
 73
     1
 93
       34
 10
273.4474976474024
 20
222.92477695375
 10
273.4474976474024
 20
231.0978109998614
 10
272.9439216500159
 20
233.2131206498448
 10
272.5484900339137
 20
234.2108546135512
 10
272.240703523756
 20
234.3180031299358
 10
272.0000628442026
 20
233.761556437955
 10
271.8060687199139
 20
232.7685047765644
 10
271.6382218755494
 20
231.5658383847182
 10
271.4760230357699
 20
230.3805475013779
 10
271.2989729252344
 20
229.4396223654937
 10
271.0912740263413
 20
228.9176649275971
 10
270.8559358524373
 20
228.779723984514
 10
270.6006696746066
 20
228.9384600446448
 10
270.3331867639344
 20
229.3065336163885
 10
270.0611983915046
 20
229.7966052081455
 10
269.7924158284024
 20
230.321335328314
 10
269.5345503457122
 20
230.7933844852968
 10
269.2953132145178
 20
231.1254131874913
 10
269.0794265053157
 20
231.2577004581269
 10
268.8796554862455
 20
231.240999379748
 10
268.5077342168245
 20
231.0734963783871
 10
268.1472947240968
 20
231.0846152254137
 10
267.7646981071487
 20
231.6656746607058
 10
267.4469186474361
 20
232.4008470330817
 10
267.0754410443358
 20
233.480644560009
 10
266.6488098335224
 20
234.7085004485494
 10
266.167323244294
 20
235.832860227761
 10
265.6312795059506
 20
236.6021694266668
 10
265.0409768477905
 20
236.7648735742981
 10
264.3967134991133
 20
236.0694181996866
 10
263.6987876892177
 20
234.2642488318635
 10
262.9474976474026
 20
231.0978109998609
 10
262.9474976474026
 20
214.4311443331941
 10
273.4474976474024
 20
214.4311443331941
 97
        0
 92
        7
 72
     0
 73
     1
 93
       31
 10
273.4474976474024
 20
155.3554921101048
 10
262.9474976474026
 20
155.3554921101048
 10
262.9474976474026
 20
135.3554921101047
 10
263.6828791084592
 20
134.4756216004354
 10
264.3096407485653
 20
134.129356563303
 10
264.8399332581864
 20
134.2060065164689
 10
265.285907327789
 20
134.5948809776944
 10
265.6597136478386
 20
135.185289464741
 10
265.9735029088007
 20
135.8665414953701
 10
266.2394258011417
 20
136.5279465873424
 10
266.4696330153272
 20
137.0588142584199
 10
266.7639721432649
 20
137.5115817470485
 10
267.0915835662913
 20
137.4539534571294
 10
267.3339937213563
 20
137.1383456381072
 10
267.4767873131344
 20
136.9328913021074
 10
267.6181703246633
 20
136.7602034797732
 10
267.7618351571835
 20
136.6659479072368
 10
267.9119305761328
 20
136.6791582042018
 10
268.074430803743
 20
136.762339524651
 10
268.3856640420263
 20
136.9323005598507
 10
268.8420296455931
 20
136.8716542503177
 10
269.298074596731
 20
136.333367793537
 10
269.6700459913218
 20
135.6997090435148
 10
270.0959097963511
 20
134.7958922051208
 10
270.5644640821089
 20
133.7615884422517
 10
271.0609804156563
 20
132.775228544076
 10
271.5707303640551
 20
132.0152432997595
 10
272.0789854943678
 20
131.6600634984701
 10
272.5710173736552
 20
131.8881199293749
 10
273.0320975689795
 20
132.877843381641
 10
273.4474976474024
 20
134.8076646444354
 97
        0
 75
     0
 76
     1
 52
90.0
 41
20.0
 77
     0
 78
     1
 53
135.0
 43
207.947497773953
 44
0.0000001136276069
 45
-1.767766952966368
 46
-1.767766952966368
 79
     0
 47
0.4241607345094815
 98
        2
 10
266.7573229276578
 20
222.0260540310905
 10
271.8513930199605
 20
146.5254431516518
  0
LINE
  5
1BC42D0874077
330
1BC42D08739B1
100
AcDbEntity
  8
JISSEN
100
AcDbLine
 10
262.9474976474026
 20
231.0978109998609
 30
0.0
 11
262.9474976474026
 21
206.1747769537499
 31
0.0
  0
LINE
  5
1BC42D0874078
330
1BC42D08739B1
100
AcDbEntity
  8
SUNPOU
 62
     0
100
AcDbLine
 10
273.4474976474024
 20
222.92477695375
 30
0.0
 11
273.4474976474024
 21
147.92477695375
 31
0.0
  0
LINE
  5
1BC42D0874079
330
1BC42D08739B1
100
AcDbEntity
  8
SUNPOU
 62
     0
100
AcDbLine
 10
278.4474976474024
 20
207.92477695375
 30
0.0
 11
275.2528760026951
 21
221.7622035352658
 31
0.0
  0
LINE
  5
1BC42D087407A
330
1BC42D08739B1
100
AcDbEntity
  8
SUNPOU
 62
     0
100
AcDbLine
 10
273.4474976474024
 20
214.4311443331941
 30
0.0
 11
273.4474976474024
 21
231.0978109998614
 31
0.0
  0
LINE
  5
1BC42D087407B
330
1BC42D08739B1
100
AcDbEntity
  8
SUNPOU
100
AcDbLine
 10
301.4105663803866
 20
179.9213590885974
 30
0.0
 11
324.3814193960896
 21
142.4870515280366
 31
0.0
  0
LINE
  5
1BC42D087407C
330
1BC42D08739B1
100
AcDbEntity
  8
JISSEN
100
AcDbLine
 10
306.9477329788182
 20
183.3965101874446
 30
0.0
 11
278.4474976474024
 21
183.3965101874446
 31
0.0
  0
LINE
  5
1BC42D087407D
330
1BC42D08739B1
100
AcDbEntity
  8
JISSEN
100
AcDbLine
 10
306.9477329788182
 20
187.4459834452733
 30
0.0
 11
278.4474976474024
 21
187.4459834452733
 31
0.0
  0
LINE
  5
1BC42D087407E
330
1BC42D08739B1
100
AcDbEntity
  8
JISSEN
100
AcDbLine
 10
306.9477329788182
 20
172.961246816359
 30
0.0
 11
280.2105663803871
 21
172.961246816359
 31
0.0
  0
LINE
  5
1BC42D087407F
330
1BC42D08739B1
100
AcDbEntity
  8
JISSEN
100
AcDbLine
 10
278.3313977611213
 20
208.4248366670406
 30
0.0
 11
308.5799739143725
 21
206.4204002486039
 31
0.0
  0
LINE
  5
1BC42D0874080
330
1BC42D08739B1
100
AcDbEntity
  8
JISSEN
100
AcDbLine
 10
308.4477329788183
 20
167.671246816359
 30
0.0
 11
278.4477329788184
 21
167.671246816359
 31
0.0
  0
LINE
  5
1BC42D0874081
330
1BC42D08739B1
100
AcDbEntity
  8
SUNPOU
 62
     0
100
AcDbLine
 10
278.4474976474024
 20
202.4222116751646
 30
0.0
 11
306.9477329788182
 21
202.4222116751646
 31
0.0
  0
LINE
  5
1BC42D0874082
330
1BC42D08739B1
100
AcDbEntity
  8
SUNPOU
 62
     0
100
AcDbLine
 10
258.4474976474024
 20
164.671246816359
 30
0.0
 11
258.4474976474024
 21
206.1747769537499
 31
0.0
  0
LINE
  5
1BC42D0874083
330
1BC42D08739B1
100
AcDbEntity
  8
SUNPOU
 62
     0
100
AcDbLine
 10
285.2105663803925
 20
172.961246816359
 30
0.0
 11
285.2105663803913
 21
177.3101902983411
 31
0.0
  0
LINE
  5
1BC42D0874084
330
1BC42D08739B1
100
AcDbEntity
  8
SUNPOU
 62
     0
100
AcDbLine
 10
278.4474976474024
 20
207.92477695375
 30
0.0
 11
278.4474976474024
 21
162.9247769537498
 31
0.0
  0
LINE
  5
1BC42D0874085
330
1BC42D08739B1
100
AcDbEntity
  8
SUNPOU
 62
     0
100
AcDbLine
 10
292.6105663803866
 20
183.3965101874446
 30
0.0
 11
292.6105663803866
 21
174.3660432070486
 31
0.0
  0
LINE
  5
1BC42D0874086
330
1BC42D08739B1
100
AcDbEntity
  8
SUNPOU
 62
     0
100
AcDbLine
 10
290.0698885655716
 20
172.961246816359
 30
0.0
 11
290.0698885655716
 21
183.3965101874446
 31
0.0
  0
LINE
  5
1BC42D0874087
330
1BC42D08739B1
100
AcDbEntity
  8
SUNPOU
 62
     0
100
AcDbLine
 10
292.6105663803866
 20
183.3965101874446
 30
0.0
 11
292.6105663803866
 21
174.3660432070488
 31
0.0
  0
LINE
  5
1BC42D0874088
330
1BC42D08739B1
100
AcDbEntity
  8
SUNPOU
 62
     0
100
AcDbLine
 10
292.6105663803866
 20
180.6340580899157
 30
0.0
 11
292.6105663803866
 21
174.3660432070488
 31
0.0
  0
LINE
  5
1BC42D0874089
330
1BC42D08739B1
100
AcDbEntity
  8
SUNPOU
 62
     0
100
AcDbLine
 10
279.946384232526
 20
183.1827081141566
 30
0.0
 11
279.946384232526
 21
168.6085849027655
 31
0.0
  0
LINE
  5
1BC42D087408A
330
1BC42D08739B1
100
AcDbEntity
  8
SUNPOU
 62
     0
100
AcDbLine
 10
280.2105663803871
 20
183.1827081141566
 30
0.0
 11
280.2105663803871
 21
168.8827081141563
 31
0.0
  0
LINE
  5
1BC42D087408B
330
1BC42D08739B1
100
AcDbEntity
  8
TENSEN
100
AcDbLine
 10
253.5505663803895
 20
174.8777083220238
 30
0.0
 11
253.5505663803895
 21
196.0329510684595
 31
0.0
  0
LINE
  5
1BC42D087408C
330
1BC42D08739B1
100
AcDbEntity
  8
SUNPOU
 62
     0
100
AcDbLine
 10
278.4474976474024
 20
162.9212468163589
 30
0.0
 11
275.2528760026951
 21
149.0838202348433
 31
0.0
  0
LINE
  5
1BC42D087408D
330
1BC42D08739B1
100
AcDbEntity
  8
JISSEN
100
AcDbLine
 10
262.9474976474026
 20
164.6712468163589
 30
0.0
 11
262.9474976474026
 21
135.3554921101047
 31
0.0
  0
LINE
  5
1BC42D087408E
330
1BC42D08739B1
100
AcDbEntity
  8
SUNPOU
 62
     0
100
AcDbLine
 10
273.4474976474024
 20
155.3554921101048
 30
0.0
 11
273.4474976474024
 21
134.8076646444354
 31
0.0
  0
LINE
  5
1BC42D087408F
330
1BC42D08739B1
100
AcDbEntity
  8
SUNPOU
 62
     0
100
AcDbLine
 10
262.9474976474026
 20
135.3554921101047
 30
0.0
 11
263.6828791084592
 21
134.4756216004354
 31
0.0
  0
LINE
  5
1BC42D0874090
330
1BC42D08739B1
100
AcDbEntity
  8
SUNPOU
 62
     0
100
AcDbLine
 10
269.6700459913218
 20
135.6997090435152
 30
0.0
 11
270.0959097963514
 21
134.795892205121
 31
0.0
  0
LINE
  5
1BC42D0874091
330
1BC42D08739B1
100
AcDbEntity
  8
SUNPOU
 62
     0
100
AcDbLine
 10
266.2394258011417
 20
136.5279465873427
 30
0.0
 11
266.4696330153272
 21
137.0588142584199
 31
0.0
  0
LINE
  5
1BC42D0874092
330
1BC42D08739B1
100
AcDbEntity
  8
SUNPOU
 62
     0
100
AcDbLine
 10
267.3339937213563
 20
137.1383456381069
 30
0.0
 11
267.4767873131346
 21
136.9328913021076
 31
0.0
  0
LINE
  5
1BC42D0874093
330
1BC42D08739B1
100
AcDbEntity
  8
SUNPOU
 62
     0
100
AcDbLine
 10
265.9735029088007
 20
135.8665414953701
 30
0.0
 11
266.2394258011417
 21
136.5279465873427
 31
0.0
  0
LINE
  5
1BC42D0874094
330
1BC42D08739B1
100
AcDbEntity
  8
SUNPOU
 62
     0
100
AcDbLine
 10
264.3096407485653
 20
134.129356563303
 30
0.0
 11
264.8399332581864
 21
134.2060065164689
 31
0.0
  0
LINE
  5
1BC42D0874095
330
1BC42D08739B1
100
AcDbEntity
  8
SUNPOU
 62
     0
100
AcDbLine
 10
263.6828791084592
 20
134.4756216004354
 30
0.0
 11
264.3096407485653
 21
134.129356563303
 31
0.0
  0
LINE
  5
1BC42D0874096
330
1BC42D08739B1
100
AcDbEntity
  8
SUNPOU
 62
     0
100
AcDbLine
 10
264.8399332581864
 20
134.2060065164689
 30
0.0
 11
265.285907327789
 21
134.5948809776946
 31
0.0
  0
LINE
  5
1BC42D0874097
330
1BC42D08739B1
100
AcDbEntity
  8
SUNPOU
 62
     0
100
AcDbLine
 10
265.285907327789
 20
134.5948809776946
 30
0.0
 11
265.6597136478386
 21
135.185289464741
 31
0.0
  0
LINE
  5
1BC42D0874098
330
1BC42D08739B1
100
AcDbEntity
  8
SUNPOU
 62
     0
100
AcDbLine
 10
265.6597136478386
 20
135.185289464741
 30
0.0
 11
265.9735029088007
 21
135.8665414953701
 31
0.0
  0
LINE
  5
1BC42D0874099
330
1BC42D08739B1
100
AcDbEntity
  8
SUNPOU
 62
     0
100
AcDbLine
 10
267.4767873131346
 20
136.9328913021076
 30
0.0
 11
267.6181703246633
 21
136.7602034797732
 31
0.0
  0
LINE
  5
1BC42D087409A
330
1BC42D08739B1
100
AcDbEntity
  8
SUNPOU
 62
     0
100
AcDbLine
 10
267.6181703246633
 20
136.7602034797732
 30
0.0
 11
267.7618351571835
 21
136.6659479072368
 31
0.0
  0
LINE
  5
1BC42D087409B
330
1BC42D08739B1
100
AcDbEntity
  8
SUNPOU
 62
     0
100
AcDbLine
 10
267.7618351571835
 20
136.6659479072368
 30
0.0
 11
267.9119305761328
 21
136.6791582042016
 31
0.0
  0
LINE
  5
1BC42D087409C
330
1BC42D08739B1
100
AcDbEntity
  8
SUNPOU
 62
     0
100
AcDbLine
 10
267.9119305761328
 20
136.6791582042016
 30
0.0
 11
268.074430803743
 21
136.7623395246513
 31
0.0
  0
LINE
  5
1BC42D087409D
330
1BC42D08739B1
100
AcDbEntity
  8
SUNPOU
 62
     0
100
AcDbLine
 10
268.074430803743
 20
136.7623395246513
 30
0.0
 11
268.2557664264428
 21
136.8613649061389
 31
0.0
  0
LINE
  5
1BC42D087409E
330
1BC42D08739B1
100
AcDbEntity
  8
SUNPOU
 62
     0
100
AcDbLine
 10
268.2557664264428
 20
136.8613649061389
 30
0.0
 11
268.4623680306624
 21
136.9221073862179
 31
0.0
  0
LINE
  5
1BC42D087409F
330
1BC42D08739B1
100
AcDbEntity
  8
SUNPOU
 62
     0
100
AcDbLine
 10
268.4623680306624
 20
136.9221073862179
 30
0.0
 11
268.7006662028305
 21
136.8904400024416
 31
0.0
  0
LINE
  5
1BC42D08740A0
330
1BC42D08739B1
100
AcDbEntity
  8
SUNPOU
 62
     0
100
AcDbLine
 10
268.7006662028305
 20
136.8904400024416
 30
0.0
 11
268.9770915293771
 21
136.7122357923634
 31
0.0
  0
LINE
  5
1BC42D08740A1
330
1BC42D08739B1
100
AcDbEntity
  8
SUNPOU
 62
     0
100
AcDbLine
 10
268.9770915293771
 20
136.7122357923634
 30
0.0
 11
269.298074596731
 21
136.333367793537
 31
0.0
  0
LINE
  5
1BC42D08740A2
330
1BC42D08739B1
100
AcDbEntity
  8
SUNPOU
 62
     0
100
AcDbLine
 10
269.298074596731
 20
136.333367793537
 30
0.0
 11
269.6700459913218
 21
135.6997090435152
 31
0.0
  0
LINE
  5
1BC42D08740A3
330
1BC42D08739B1
100
AcDbEntity
  8
SUNPOU
 62
     0
100
AcDbLine
 10
266.4696330153272
 20
137.0588142584199
 30
0.0
 11
266.6748655269519
 21
137.3745133960924
 31
0.0
  0
LINE
  5
1BC42D08740A4
330
1BC42D08739B1
100
AcDbEntity
  8
SUNPOU
 62
     0
100
AcDbLine
 10
266.860225452127
 20
137.4946503667642
 30
0.0
 11
267.0294051920929
 21
137.4648909065685
 31
0.0
  0
LINE
  5
1BC42D08740A5
330
1BC42D08739B1
100
AcDbEntity
  8
SUNPOU
 62
     0
100
AcDbLine
 10
266.6748655269519
 20
137.3745133960924
 30
0.0
 11
266.860225452127
 21
137.4946503667642
 31
0.0
  0
LINE
  5
1BC42D08740A6
330
1BC42D08739B1
100
AcDbEntity
  8
SUNPOU
 62
     0
100
AcDbLine
 10
267.0294051920929
 20
137.4648909065685
 30
0.0
 11
267.1860971480894
 21
137.3309007516384
 31
0.0
  0
LINE
  5
1BC42D08740A7
330
1BC42D08739B1
100
AcDbEntity
  8
SUNPOU
 62
     0
100
AcDbLine
 10
267.1860971480894
 20
137.3309007516384
 30
0.0
 11
267.3339937213563
 21
137.1383456381069
 31
0.0
  0
LINE
  5
1BC42D08740A8
330
1BC42D08739B1
100
AcDbEntity
  8
SUNPOU
 62
     0
100
AcDbLine
 10
270.0959097963514
 20
134.795892205121
 30
0.0
 11
270.5644640821088
 21
133.761588442252
 31
0.0
  0
LINE
  5
1BC42D08740A9
330
1BC42D08739B1
100
AcDbEntity
  8
SUNPOU
 62
     0
100
AcDbLine
 10
271.0609804156563
 20
132.7752285440759
 30
0.0
 11
271.5707303640551
 21
132.0152432997595
 31
0.0
  0
LINE
  5
1BC42D08740AA
330
1BC42D08739B1
100
AcDbEntity
  8
SUNPOU
 62
     0
100
AcDbLine
 10
272.5710173736552
 20
131.8881199293749
 30
0.0
 11
273.0320975689795
 21
132.877843381641
 31
0.0
  0
LINE
  5
1BC42D08740AB
330
1BC42D08739B1
100
AcDbEntity
  8
SUNPOU
 62
     0
100
AcDbLine
 10
271.5707303640551
 20
132.0152432997595
 30
0.0
 11
272.0789854943678
 21
131.6600634984701
 31
0.0
  0
LINE
  5
1BC42D08740AC
330
1BC42D08739B1
100
AcDbEntity
  8
SUNPOU
 62
     0
100
AcDbLine
 10
272.0789854943678
 20
131.6600634984701
 30
0.0
 11
272.5710173736552
 21
131.8881199293749
 31
0.0
  0
LINE
  5
1BC42D08740AD
330
1BC42D08739B1
100
AcDbEntity
  8
SUNPOU
 62
     0
100
AcDbLine
 10
270.5644640821088
 20
133.761588442252
 30
0.0
 11
271.0609804156563
 21
132.7752285440759
 31
0.0
  0
LINE
  5
1BC42D08740AE
330
1BC42D08739B1
100
AcDbEntity
  8
SUNPOU
 62
     0
100
AcDbLine
 10
273.0320975689795
 20
132.877843381641
 30
0.0
 11
273.4474976474024
 21
134.8076646444354
 31
0.0
  0
ARC
  5
1BC42D08740AF
330
1BC42D08739B1
100
AcDbEntity
  8
SUNPOU
 62
     0
100
AcDbCircle
 10
273.7913209055171
 20
149.4212468163589
 30
0.0
 40
1.5
100
AcDbArc
 50
270.0
 51
346.9999999999997
  0
ARC
  5
1BC42D08740B0
330
1BC42D08739B1
100
AcDbEntity
  8
SUNPOU
 62
     0
100
AcDbCircle
 10
273.7913209055171
 20
149.4247769537498
 30
0.0
 40
1.5
100
AcDbArc
 50
270.0
 51
346.9999999999997
  0
LINE
  5
1BC42D08740B1
330
1BC42D08739B1
100
AcDbEntity
  8
SUNPOU
 62
     0
100
AcDbLine
 10
273.7913209055171
 20
147.921246816359
 30
0.0
 11
273.4474976474024
 21
147.921246816359
 31
0.0
  0
LINE
  5
1BC42D08740B2
330
1BC42D08739B1
100
AcDbEntity
  8
SUNPOU
 62
     0
100
AcDbLine
 10
273.7913209055171
 20
147.92477695375
 30
0.0
 11
273.4474976474024
 21
147.92477695375
 31
0.0
  0
LINE
  5
1BC42D08740B3
330
1BC42D08739B1
100
AcDbEntity
  8
SUNPOU
 62
     0
100
AcDbLine
 10
273.4474976474024
 20
164.6712468163589
 30
0.0
 11
258.4474976474024
 21
164.671246816359
 31
0.0
  0
LINE
  5
1BC42D08740B4
330
1BC42D08739B1
100
AcDbEntity
  8
SUNPOU
 62
     0
100
AcDbLine
 10
273.4474976474024
 20
155.3554921101048
 30
0.0
 11
262.9474976474026
 21
155.3554921101048
 31
0.0
  0
LINE
  5
1BC42D08740B5
330
1BC42D08739B1
100
AcDbEntity
  8
SUNPOU
 62
     0
100
AcDbLine
 10
258.4474976474024
 20
174.7222878231995
 30
0.0
 11
253.5505663803894
 21
174.8753245728516
 31
0.0
  0
LINE
  5
1BC42D08740B6
330
1BC42D08739B1
100
AcDbEntity
  8
TENSEN
100
AcDbLine
 10
252.6281877536073
 20
173.9553296952417
 30
0.0
 11
253.5505663803895
 21
174.8777083220238
 31
0.0
  0
LINE
  5
1BC42D08740B7
330
1BC42D08739B1
100
AcDbEntity
  8
SUNPOU
100
AcDbLine
 10
293.4474976474023
 20
167.6712466167016
 30
0.0
 11
296.7202966009376
 21
143.319638043426
 31
0.0
  0
TEXT
  5
1BC42D08740B8
330
1BC42D08739B1
100
AcDbEntity
  8
SUNPOU
100
AcDbText
 10
295.3766397883694
 20
135.1231030160286
 30
0.0
 40
4.5
  1
2
  7
K
 72
     4
 11
297.5194969312266
 21
137.3731030160286
 31
0.0
100
AcDbText
  0
LINE
  5
1BC42D08740B9
330
1BC42D08739B1
100
AcDbEntity
  8
SUNPOU
 62
     0
100
AcDbLine
 10
278.4474976474024
 20
162.9212468163589
 30
0.0
 11
278.4474976474024
 21
166.921246816359
 31
0.0
  0
LINE
  5
1BC42D08740BA
330
1BC42D08739B1
100
AcDbEntity
  8
SUNPOU
 62
     0
100
AcDbLine
 10
279.910566380387
 20
168.5840580899156
 30
0.0
 11
280.2105663803869
 21
168.8840580899156
 31
0.0
  0
LINE
  5
1BC42D08740BB
330
1BC42D08739B1
100
AcDbEntity
  8
SUNPOU
 62
     0
100
AcDbLine
 10
278.4474976474024
 20
168.5840580899156
 30
0.0
 11
279.910566380387
 21
168.5840580899156
 31
0.0
  0
INSERT
  5
1BC42D08740BC
330
1BC42D08739B1
100
AcDbEntity
  8
SUNPOU
100
AcDbBlockReference
  2
ARROW
 10
293.4474976474023
 20
167.671246616702
 30
0.0
 41
1.499999999999998
 42
1.5
 43
1.5
 50
97.65455065046552
  0
ARC
  5
1BC42D08740BD
330
1BC42D08739B1
100
AcDbEntity
  8
SUNPOU
 62
     0
100
AcDbCircle
 10
292.1105663803866
 20
174.3660432070486
 30
0.0
 40
0.5000000000000006
100
AcDbArc
 50
319.9999999999997
 51
0.0
  0
ARC
  5
1BC42D08740BE
330
1BC42D08739B1
100
AcDbEntity
  8
SUNPOU
 62
     0
100
AcDbCircle
 10
292.1105663803866
 20
174.3660432070488
 30
0.0
 40
0.5000000000000006
100
AcDbArc
 50
319.9999999999997
 51
0.0
  0
LINE
  5
1BC42D08740BF
330
1BC42D08739B1
100
AcDbEntity
  8
SUNPOU
 62
     0
100
AcDbLine
 10
292.493588601946
 20
174.0446494022053
 30
0.0
 11
291.584505891746
 21
172.961246816359
 31
0.0
  0
LINE
  5
1BC42D08740C0
330
1BC42D08739B1
100
AcDbEntity
  8
SUNPOU
 62
     0
100
AcDbLine
 10
253.5505663803894
 20
196.0353348176314
 30
0.0
 11
258.4474976474024
 21
196.1883715672834
 31
0.0
  0
LINE
  5
1BC42D08740C1
330
1BC42D08739B1
100
AcDbEntity
  8
TENSEN
100
AcDbLine
 10
253.5505663803895
 20
196.0329510684595
 30
0.0
 11
252.6281877536181
 21
196.9553296952308
 31
0.0
  0
LINE
  5
1BC42D08740C2
330
1BC42D08739B1
100
AcDbEntity
  8
SUNPOU
 62
     0
100
AcDbLine
 10
273.4474976474024
 20
206.1747769537499
 30
0.0
 11
258.4474976474024
 21
206.1747769537499
 31
0.0
  0
LINE
  5
1BC42D08740C3
330
1BC42D08739B1
100
AcDbEntity
  8
SUNPOU
 62
     0
100
AcDbLine
 10
273.4474976474024
 20
214.4311443331941
 30
0.0
 11
262.9474976474026
 21
214.4311443331941
 31
0.0
  0
LINE
  5
1BC42D08740C4
330
1BC42D08739B1
100
AcDbEntity
  8
SUNPOU
 62
     0
100
AcDbLine
 10
292.493588601946
 20
196.7842511264559
 30
0.0
 11
290.4529107871312
 21
199.2162362435889
 31
0.0
  0
LINE
  5
1BC42D08740C5
330
1BC42D08739B1
100
AcDbEntity
  8
SUNPOU
 62
     0
100
AcDbLine
 10
290.0698885655716
 20
199.3948424387455
 30
0.0
 11
290.0698885655716
 21
187.4459834452733
 31
0.0
  0
LINE
  5
1BC42D08740C6
330
1BC42D08739B1
100
AcDbEntity
  8
SUNPOU
 62
     0
100
AcDbLine
 10
285.2105663803931
 20
199.3948424387455
 30
0.0
 11
285.2105663803913
 21
193.5187102303201
 31
0.0
  0
LINE
  5
1BC42D08740C7
330
1BC42D08739B1
100
AcDbEntity
  8
SUNPOU
 62
     0
100
AcDbLine
 10
280.2105663803871
 20
187.6461924145048
 30
0.0
 11
280.2105663803871
 21
201.9461924145048
 31
0.0
  0
LINE
  5
1BC42D08740C8
330
1BC42D08739B1
100
AcDbEntity
  8
SUNPOU
 62
     0
100
AcDbLine
 10
279.946384232526
 20
187.6461924145048
 30
0.0
 11
279.946384232526
 21
202.2203156258957
 31
0.0
  0
LINE
  5
1BC42D08740C9
330
1BC42D08739B1
100
AcDbEntity
  8
SUNPOU
 62
     0
100
AcDbLine
 10
281.2562581246689
 20
192.799563076682
 30
0.0
 11
281.2562581246691
 21
201.2621172280598
 31
0.0
  0
LINE
  5
1BC42D08740CA
330
1BC42D08739B1
100
AcDbEntity
  8
SUNPOU
 62
     0
100
AcDbLine
 10
280.2105663803871
 20
179.1677587461034
 30
0.0
 11
285.210566380391
 21
179.1677587461034
 31
0.0
  0
LINE
  5
1BC42D08740CB
330
1BC42D08739B1
100
AcDbEntity
  8
SUNPOU
 62
     0
100
AcDbLine
 10
285.2105663803915
 20
177.295240930288
 30
0.0
 11
280.2105663803871
 21
177.295240930288
 31
0.0
  0
LINE
  5
1BC42D08740CC
330
1BC42D08739B1
100
AcDbEntity
  8
SUNPOU
 62
     0
100
AcDbLine
 10
280.2105663803869
 20
183.1827081141566
 30
0.0
 11
280.2105663803871
 21
179.1827081141564
 31
0.0
  0
LINE
  5
1BC42D08740CD
330
1BC42D08739B1
100
AcDbEntity
  8
SUNPOU
 62
     0
100
AcDbLine
 10
280.2105663803867
 20
177.3101902983411
 30
0.0
 11
280.2105663803867
 21
175.9553079731058
 31
0.0
  0
LINE
  5
1BC42D08740CE
330
1BC42D08739B1
100
AcDbEntity
  8
SUNPOU
 62
     0
100
AcDbLine
 10
284.2105663803867
 20
177.3101902983411
 30
0.0
 11
284.2105663803867
 21
179.1827081141566
 31
0.0
  0
LINE
  5
1BC42D08740CF
330
1BC42D08739B1
100
AcDbEntity
  8
SUNPOU
 62
     0
100
AcDbLine
 10
279.5306332700187
 20
183.3965101874446
 30
0.0
 11
279.5306332700187
 21
183.1827081141566
 31
0.0
  0
LINE
  5
1BC42D08740D0
330
1BC42D08739B1
100
AcDbEntity
  8
SUNPOU
 62
     0
100
AcDbLine
 10
278.4474976474024
 20
183.1827081141566
 30
0.0
 11
280.2105663803871
 21
183.1827081141566
 31
0.0
  0
LINE
  5
1BC42D08740D1
330
1BC42D08739B1
100
AcDbEntity
  8
SUNPOU
 62
     0
100
AcDbLine
 10
285.2105663803913
 20
177.295240930288
 30
0.0
 11
285.2105663803896
 21
183.3965101874446
 31
0.0
  0
LINE
  5
1BC42D08740D2
330
1BC42D08739B1
100
AcDbEntity
  8
SUNPOU
 62
     0
100
AcDbLine
 10
280.2105663803871
 20
191.6611417825581
 30
0.0
 11
285.210566380391
 21
191.6611417825581
 31
0.0
  0
LINE
  5
1BC42D08740D3
330
1BC42D08739B1
100
AcDbEntity
  8
SUNPOU
 62
     0
100
AcDbLine
 10
285.2105663803915
 20
193.5336595983733
 30
0.0
 11
281.2562581246689
 21
193.5336595983733
 31
0.0
  0
LINE
  5
1BC42D08740D4
330
1BC42D08739B1
100
AcDbEntity
  8
SUNPOU
 62
     0
100
AcDbLine
 10
284.2105663803867
 20
193.5187102303201
 30
0.0
 11
284.2105663803867
 21
191.6461924145048
 31
0.0
  0
LINE
  5
1BC42D08740D5
330
1BC42D08739B1
100
AcDbEntity
  8
SUNPOU
 62
     0
100
AcDbLine
 10
280.2105663803869
 20
187.6461924145048
 30
0.0
 11
280.2105663803871
 21
191.6461924145048
 31
0.0
  0
LINE
  5
1BC42D08740D6
330
1BC42D08739B1
100
AcDbEntity
  8
SUNPOU
 62
     0
100
AcDbLine
 10
279.5306332700187
 20
187.4459834452733
 30
0.0
 11
279.5306332700187
 21
187.6461924145048
 31
0.0
  0
LINE
  5
1BC42D08740D7
330
1BC42D08739B1
100
AcDbEntity
  8
SUNPOU
 62
     0
100
AcDbLine
 10
278.4474976474024
 20
187.6461924145048
 30
0.0
 11
280.2105663803871
 21
187.6461924145048
 31
0.0
  0
LINE
  5
1BC42D08740D8
330
1BC42D08739B1
100
AcDbEntity
  8
SUNPOU
 62
     0
100
AcDbLine
 10
280.2071042375454
 20
192.799563076682
 30
0.0
 11
281.2562581246689
 21
192.799563076682
 31
0.0
  0
LINE
  5
1BC42D08740D9
330
1BC42D08739B1
100
AcDbEntity
  8
SUNPOU
 62
     0
100
AcDbLine
 10
282.7631119075166
 20
194.1200235509372
 30
0.0
 11
282.7631119075156
 21
197.173160377298
 31
0.0
  0
LINE
  5
1BC42D08740DA
330
1BC42D08739B1
100
AcDbEntity
  8
SUNPOU
 62
     0
100
AcDbLine
 10
281.9129791495066
 20
197.6465919641166
 30
0.0
 11
281.2631119075168
 21
197.6465919641166
 31
0.0
  0
ARC
  5
1BC42D08740DB
330
1BC42D08739B1
100
AcDbEntity
  8
SUNPOU
 62
     0
100
AcDbCircle
 10
281.9129791495066
 20
196.6465919641166
 30
0.0
 40
1.0
100
AcDbArc
 50
31.77388818931894
 51
90.0
  0
LINE
  5
1BC42D08740DC
330
1BC42D08739B1
100
AcDbEntity
  8
SUNPOU
 62
     0
100
AcDbLine
 10
281.9129791495066
 20
193.6465919641169
 30
0.0
 11
281.2631119075168
 21
193.6465919641165
 31
0.0
  0
ARC
  5
1BC42D08740DD
330
1BC42D08739B1
100
AcDbEntity
  8
SUNPOU
 62
     0
100
AcDbCircle
 10
281.9129791495066
 20
194.6465919641169
 30
0.0
 40
1.0
100
AcDbArc
 50
270.0
 51
328.2261118107317
  0
LINE
  5
1BC42D08740DE
330
1BC42D08739B1
100
AcDbEntity
  8
SUNPOU
 62
     0
100
AcDbLine
 10
285.2105663803913
 20
193.5336595983733
 30
0.0
 11
285.2105663803896
 21
187.4459834452733
 31
0.0
  0
LINE
  5
1BC42D08740DF
330
1BC42D08739B1
100
AcDbEntity
  8
SUNPOU
 62
     0
100
AcDbLine
 10
296.8605663803866
 20
183.2840580899155
 30
0.0
 11
298.8105663803868
 21
183.2840580899155
 31
0.0
  0
LINE
  5
1BC42D08740E0
330
1BC42D08739B1
100
AcDbEntity
  8
SUNPOU
 62
     0
100
AcDbLine
 10
295.1105663803866
 20
183.3965101874446
 30
0.0
 11
295.1105663803866
 21
181.1340580899154
 31
0.0
  0
LINE
  5
1BC42D08740E1
330
1BC42D08739B1
100
AcDbEntity
  8
SUNPOU
 62
     0
100
AcDbLine
 10
295.1105663803866
 20
181.6840580899157
 30
0.0
 11
295.1105663803866
 21
181.1340580899154
 31
0.0
  0
LINE
  5
1BC42D08740E2
330
1BC42D08739B1
100
AcDbEntity
  8
SUNPOU
 62
     0
100
AcDbLine
 10
296.7105663803867
 20
183.3965101874446
 30
0.0
 11
296.7105663803867
 21
176.1840580899155
 31
0.0
  0
LINE
  5
1BC42D08740E3
330
1BC42D08739B1
100
AcDbEntity
  8
SUNPOU
 62
     0
100
AcDbLine
 10
296.5105663803868
 20
177.9340580899155
 30
0.0
 11
296.5105663803868
 21
183.3965101874446
 31
0.0
  0
LINE
  5
1BC42D08740E4
330
1BC42D08739B1
100
AcDbEntity
  8
SUNPOU
 62
     0
100
AcDbLine
 10
296.7105663803867
 20
178.2169008023901
 30
0.0
 11
296.7105663803867
 21
183.3965101874446
 31
0.0
  0
LINE
  5
1BC42D08740E5
330
1BC42D08739B1
100
AcDbEntity
  8
SUNPOU
 62
     0
100
AcDbLine
 10
296.8605663803866
 20
183.3965101874446
 30
0.0
 11
296.8605663803866
 21
177.6891091156375
 31
0.0
  0
LINE
  5
1BC42D08740E6
330
1BC42D08739B1
100
AcDbEntity
  8
SUNPOU
 62
     0
100
AcDbLine
 10
295.1105663803866
 20
181.1340580899154
 30
0.0
 11
293.1105663803866
 21
181.1340580899154
 31
0.0
  0
LINE
  5
1BC42D08740E7
330
1BC42D08739B1
100
AcDbEntity
  8
SUNPOU
 62
     0
100
AcDbLine
 10
295.1105663803866
 20
181.1340580899154
 30
0.0
 11
293.1105663803866
 21
181.1340580899154
 31
0.0
  0
ARC
  5
1BC42D08740E8
330
1BC42D08739B1
100
AcDbEntity
  8
SUNPOU
 62
     0
100
AcDbCircle
 10
293.1105663803866
 20
180.6340580899155
 30
0.0
 40
0.5000000000000006
100
AcDbArc
 50
90.0
 51
180.0
  0
ARC
  5
1BC42D08740E9
330
1BC42D08739B1
100
AcDbEntity
  8
SUNPOU
 62
     0
100
AcDbCircle
 10
293.1105663803866
 20
180.6340580899155
 30
0.0
 40
0.5000000000000006
100
AcDbArc
 50
90.0
 51
180.0
  0
LINE
  5
1BC42D08740EA
330
1BC42D08739B1
100
AcDbEntity
  8
SUNPOU
 62
     0
100
AcDbLine
 10
296.8605663803866
 20
177.6891091156375
 30
0.0
 11
296.8605663803866
 21
176.1840580899155
 31
0.0
  0
LINE
  5
1BC42D08740EB
330
1BC42D08739B1
100
AcDbEntity
  8
SUNPOU
 62
     0
100
AcDbLine
 10
296.7105663803867
 20
176.1840580899155
 30
0.0
 11
296.8605663803866
 21
176.1840580899155
 31
0.0
  0
ARC
  5
1BC42D08740EC
330
1BC42D08739B1
100
AcDbEntity
  8
SUNPOU
 62
     0
100
AcDbCircle
 10
296.8105663803868
 20
177.9340580899155
 30
0.0
 40
0.2999999999998695
100
AcDbArc
 50
180.0
 51
250.5287793655174
  0
LINE
  5
1BC42D08740ED
330
1BC42D08739B1
100
AcDbEntity
  8
SUNPOU
 62
     0
100
AcDbLine
 10
295.2105663803866
 20
181.6840580899155
 30
0.0
 11
295.2105663803866
 21
183.3965101874446
 31
0.0
  0
LINE
  5
1BC42D08740EE
330
1BC42D08739B1
100
AcDbEntity
  8
SUNPOU
 62
     0
100
AcDbLine
 10
295.2105663803866
 20
183.3965101874446
 30
0.0
 11
295.2105663803866
 21
181.6840580899157
 31
0.0
  0
LINE
  5
1BC42D08740EF
330
1BC42D08739B1
100
AcDbEntity
  8
SUNPOU
 62
     0
100
AcDbLine
 10
296.7105663803867
 20
182.5340580899155
 30
0.0
 11
296.7105663803867
 21
183.3965101874446
 31
0.0
  0
LINE
  5
1BC42D08740F0
330
1BC42D08739B1
100
AcDbEntity
  8
SUNPOU
 62
     0
100
AcDbLine
 10
295.2105663803866
 20
181.6840580899155
 30
0.0
 11
295.1105663803866
 21
181.5840580899155
 31
0.0
  0
LINE
  5
1BC42D08740F1
330
1BC42D08739B1
100
AcDbEntity
  8
SUNPOU
 62
     0
100
AcDbLine
 10
295.1105663803866
 20
181.6840580899157
 30
0.0
 11
295.2105663803866
 21
181.6840580899157
 31
0.0
  0
LINE
  5
1BC42D08740F2
330
1BC42D08739B1
100
AcDbEntity
  8
SUNPOU
 62
     0
100
AcDbLine
 10
295.2105663803866
 20
182.5340580899155
 30
0.0
 11
296.5105663803868
 21
182.5340580899155
 31
0.0
  0
LINE
  5
1BC42D08740F3
330
1BC42D08739B1
100
AcDbEntity
  8
SUNPOU
 62
     0
100
AcDbLine
 10
300.9605663803867
 20
183.3965101874446
 30
0.0
 11
300.9605663803868
 21
176.1840580899155
 31
0.0
  0
LINE
  5
1BC42D08740F4
330
1BC42D08739B1
100
AcDbEntity
  8
SUNPOU
 62
     0
100
AcDbLine
 10
299.2605663803868
 20
183.3965101874446
 30
0.0
 11
299.2605663803864
 21
176.1840580899155
 31
0.0
  0
LINE
  5
1BC42D08740F5
330
1BC42D08739B1
100
AcDbEntity
  8
SUNPOU
 62
     0
100
AcDbLine
 10
301.4105663803865
 20
177.9340580899155
 30
0.0
 11
301.4105663803868
 21
183.3965101874446
 31
0.0
  0
LINE
  5
1BC42D08740F6
330
1BC42D08739B1
100
AcDbEntity
  8
SUNPOU
 62
     0
100
AcDbLine
 10
299.110566380387
 20
183.3965101874446
 30
0.0
 11
299.110566380387
 21
177.634058089915
 31
0.0
  0
LINE
  5
1BC42D08740F7
330
1BC42D08739B1
100
AcDbEntity
  8
SUNPOU
 62
     0
100
AcDbLine
 10
298.8105663803868
 20
183.3965101874446
 30
0.0
 11
298.8105663803868
 21
177.9340580899155
 31
0.0
  0
INSERT
  5
1BC42D08740F8
330
1BC42D08739B1
100
AcDbEntity
  8
SUNPOU
100
AcDbBlockReference
  2
ARROW
 10
301.4105663803873
 20
179.9213590885968
 30
0.0
 41
1.499999999999992
 42
1.5
 43
1.5
 50
121.5345702487097
  0
ARC
  5
1BC42D08740F9
330
1BC42D08739B1
100
AcDbEntity
  8
SUNPOU
 62
     0
100
AcDbCircle
 10
299.1105663803866
 20
177.9340580899155
 30
0.0
 40
0.2999999999998695
100
AcDbArc
 50
180.0
 51
270.0
  0
LINE
  5
1BC42D08740FA
330
1BC42D08739B1
100
AcDbEntity
  8
SUNPOU
 62
     0
100
AcDbLine
 10
301.110566380387
 20
177.6340580899153
 30
0.0
 11
301.110566380387
 21
176.1840580899155
 31
0.0
  0
LINE
  5
1BC42D08740FB
330
1BC42D08739B1
100
AcDbEntity
  8
SUNPOU
 62
     0
100
AcDbLine
 10
301.110566380387
 20
176.1840580899155
 30
0.0
 11
300.9605663803868
 21
176.1840580899155
 31
0.0
  0
ARC
  5
1BC42D08740FC
330
1BC42D08739B1
100
AcDbEntity
  8
SUNPOU
 62
     0
100
AcDbCircle
 10
301.110566380387
 20
177.9340580899155
 30
0.0
 40
0.2999999999998695
100
AcDbArc
 50
270.0
 51
0.0
  0
LINE
  5
1BC42D08740FD
330
1BC42D08739B1
100
AcDbEntity
  8
SUNPOU
 62
     0
100
AcDbLine
 10
299.1105663803866
 20
177.6340580899158
 30
0.0
 11
299.1105663803866
 21
176.1840580899155
 31
0.0
  0
LINE
  5
1BC42D08740FE
330
1BC42D08739B1
100
AcDbEntity
  8
SUNPOU
 62
     0
100
AcDbLine
 10
299.1105663803866
 20
176.1840580899155
 30
0.0
 11
299.2605663803864
 21
176.1840580899155
 31
0.0
  0
LINE
  5
1BC42D08740FF
330
1BC42D08739B1
100
AcDbEntity
  8
SUNPOU
 62
     0
100
AcDbLine
 10
300.1105663803866
 20
182.7840580899156
 30
0.0
 11
300.1105663803866
 21
183.3965101874446
 31
0.0
  0
ARC
  5
1BC42D0874100
330
1BC42D08739B1
100
AcDbEntity
  8
SUNPOU
 62
     0
100
AcDbCircle
 10
300.7605663803868
 20
182.2340580899155
 30
0.0
 40
0.2000000000000002
100
AcDbArc
 50
0.0
 51
90.0
  0
LINE
  5
1BC42D0874101
330
1BC42D08739B1
100
AcDbEntity
  8
SUNPOU
 62
     0
100
AcDbLine
 10
300.7605663803868
 20
182.4340580899155
 30
0.0
 11
300.4605663803867
 21
182.4340580899155
 31
0.0
  0
ARC
  5
1BC42D0874102
330
1BC42D08739B1
100
AcDbEntity
  8
SUNPOU
 62
     0
100
AcDbCircle
 10
299.7605663803868
 20
182.7840580899156
 30
0.0
 40
0.3500000000000003
100
AcDbArc
 50
270.0
 51
0.0
  0
LINE
  5
1BC42D0874103
330
1BC42D08739B1
100
AcDbEntity
  8
SUNPOU
 62
     0
100
AcDbLine
 10
299.4605663803866
 20
182.4340580899155
 30
0.0
 11
299.7605663803868
 21
182.4340580899155
 31
0.0
  0
ARC
  5
1BC42D0874104
330
1BC42D08739B1
100
AcDbEntity
  8
SUNPOU
 62
     0
100
AcDbCircle
 10
299.4605663803866
 20
182.2340580899155
 30
0.0
 40
0.2000000000000002
100
AcDbArc
 50
90.0
 51
180.0
  0
LINE
  5
1BC42D0874105
330
1BC42D08739B1
100
AcDbEntity
  8
SUNPOU
 62
     0
100
AcDbLine
 10
300.1105663803866
 20
183.3965101874446
 30
0.0
 11
300.1105663803866
 21
182.7840580899156
 31
0.0
  0
ARC
  5
1BC42D0874106
330
1BC42D08739B1
100
AcDbEntity
  8
SUNPOU
 62
     0
100
AcDbCircle
 10
300.4605663803867
 20
182.7840580899156
 30
0.0
 40
0.3500000000000003
100
AcDbArc
 50
180.0
 51
270.0
  0
LINE
  5
1BC42D0874107
330
1BC42D08739B1
100
AcDbEntity
  8
SUNPOU
 62
     0
100
AcDbLine
 10
296.8605663803866
 20
187.5448424387458
 30
0.0
 11
298.8105663803868
 21
187.5448424387458
 31
0.0
  0
LINE
  5
1BC42D0874108
330
1BC42D08739B1
100
AcDbEntity
  8
SUNPOU
 62
     0
100
AcDbLine
 10
296.8605663803866
 20
187.4459834452733
 30
0.0
 11
296.8605663803866
 21
193.1397914130235
 31
0.0
  0
LINE
  5
1BC42D0874109
330
1BC42D08739B1
100
AcDbEntity
  8
SUNPOU
 62
     0
100
AcDbLine
 10
296.7105663803867
 20
192.6119997262713
 30
0.0
 11
296.7105663803867
 21
187.4459834452733
 31
0.0
  0
LINE
  5
1BC42D087410A
330
1BC42D08739B1
100
AcDbEntity
  8
SUNPOU
 62
     0
100
AcDbLine
 10
296.5105663803868
 20
192.8948424387455
 30
0.0
 11
296.5105663803868
 21
187.4459834452733
 31
0.0
  0
LINE
  5
1BC42D087410B
330
1BC42D08739B1
100
AcDbEntity
  8
SUNPOU
 62
     0
100
AcDbLine
 10
292.6105663803866
 20
187.4459834452733
 30
0.0
 11
292.6105663803866
 21
196.4628573216125
 31
0.0
  0
LINE
  5
1BC42D087410C
330
1BC42D08739B1
100
AcDbEntity
  8
SUNPOU
 62
     0
100
AcDbLine
 10
292.6105663803866
 20
187.4459834452733
 30
0.0
 11
292.6105663803866
 21
196.4628573216125
 31
0.0
  0
LINE
  5
1BC42D087410D
330
1BC42D08739B1
100
AcDbEntity
  8
SUNPOU
 62
     0
100
AcDbLine
 10
292.6105663803866
 20
190.1948424387454
 30
0.0
 11
292.6105663803866
 21
196.4628573216125
 31
0.0
  0
LINE
  5
1BC42D087410E
330
1BC42D08739B1
100
AcDbEntity
  8
SUNPOU
 62
     0
100
AcDbLine
 10
296.7105663803867
 20
187.4459834452733
 30
0.0
 11
296.7105663803867
 21
194.6448424387455
 31
0.0
  0
LINE
  5
1BC42D087410F
330
1BC42D08739B1
100
AcDbEntity
  8
SUNPOU
 62
     0
100
AcDbLine
 10
295.1105663803866
 20
189.6948424387458
 30
0.0
 11
293.1105663803866
 21
189.6948424387458
 31
0.0
  0
LINE
  5
1BC42D0874110
330
1BC42D08739B1
100
AcDbEntity
  8
SUNPOU
 62
     0
100
AcDbLine
 10
295.1105663803866
 20
189.6948424387458
 30
0.0
 11
293.1105663803866
 21
189.6948424387458
 31
0.0
  0
ARC
  5
1BC42D0874111
330
1BC42D08739B1
100
AcDbEntity
  8
SUNPOU
 62
     0
100
AcDbCircle
 10
293.1105663803866
 20
190.1948424387455
 30
0.0
 40
0.5000000000000006
100
AcDbArc
 50
180.0
 51
270.0
  0
ARC
  5
1BC42D0874112
330
1BC42D08739B1
100
AcDbEntity
  8
SUNPOU
 62
     0
100
AcDbCircle
 10
293.1105663803866
 20
190.1948424387455
 30
0.0
 40
0.5000000000000006
100
AcDbArc
 50
180.0
 51
270.0
  0
LINE
  5
1BC42D0874113
330
1BC42D08739B1
100
AcDbEntity
  8
SUNPOU
 62
     0
100
AcDbLine
 10
295.1105663803866
 20
189.1448424387457
 30
0.0
 11
295.1105663803866
 21
189.6948424387458
 31
0.0
  0
LINE
  5
1BC42D0874114
330
1BC42D08739B1
100
AcDbEntity
  8
SUNPOU
 62
     0
100
AcDbLine
 10
295.1105663803866
 20
189.1448424387457
 30
0.0
 11
295.2105663803866
 21
189.1448424387457
 31
0.0
  0
LINE
  5
1BC42D0874115
330
1BC42D08739B1
100
AcDbEntity
  8
SUNPOU
 62
     0
100
AcDbLine
 10
295.2105663803866
 20
189.1448424387457
 30
0.0
 11
295.1105663803866
 21
189.2448424387458
 31
0.0
  0
LINE
  5
1BC42D0874116
330
1BC42D08739B1
100
AcDbEntity
  8
SUNPOU
 62
     0
100
AcDbLine
 10
295.2105663803866
 20
188.2948424387458
 30
0.0
 11
296.5105663803868
 21
188.2948424387458
 31
0.0
  0
LINE
  5
1BC42D0874117
330
1BC42D08739B1
100
AcDbEntity
  8
SUNPOU
 62
     0
100
AcDbLine
 10
295.1105663803866
 20
187.4459834452733
 30
0.0
 11
295.1105663803866
 21
189.6948424387458
 31
0.0
  0
LINE
  5
1BC42D0874118
330
1BC42D08739B1
100
AcDbEntity
  8
SUNPOU
 62
     0
100
AcDbLine
 10
296.7105663803867
 20
188.2948424387458
 30
0.0
 11
296.7105663803867
 21
187.4459834452733
 31
0.0
  0
LINE
  5
1BC42D0874119
330
1BC42D08739B1
100
AcDbEntity
  8
SUNPOU
 62
     0
100
AcDbLine
 10
295.2105663803866
 20
187.4459834452733
 30
0.0
 11
295.2105663803866
 21
189.1448424387457
 31
0.0
  0
LINE
  5
1BC42D087411A
330
1BC42D08739B1
100
AcDbEntity
  8
SUNPOU
 62
     0
100
AcDbLine
 10
295.2105663803866
 20
189.1448424387457
 30
0.0
 11
295.2105663803866
 21
187.4459834452733
 31
0.0
  0
ARC
  5
1BC42D087411B
330
1BC42D08739B1
100
AcDbEntity
  8
SUNPOU
 62
     0
100
AcDbCircle
 10
292.1105663803866
 20
196.4628573216125
 30
0.0
 40
0.5000000000000006
100
AcDbArc
 50
0.0
 51
40.00000000000029
  0
ARC
  5
1BC42D087411C
330
1BC42D08739B1
100
AcDbEntity
  8
SUNPOU
 62
     0
100
AcDbCircle
 10
292.1105663803866
 20
196.4628573216125
 30
0.0
 40
0.5000000000000006
100
AcDbArc
 50
0.0
 51
40.00000000000029
  0
LINE
  5
1BC42D087411D
330
1BC42D08739B1
100
AcDbEntity
  8
SUNPOU
 62
     0
100
AcDbLine
 10
296.7105663803867
 20
194.6448424387455
 30
0.0
 11
296.8605663803866
 21
194.6448424387455
 31
0.0
  0
ARC
  5
1BC42D087411E
330
1BC42D08739B1
100
AcDbEntity
  8
SUNPOU
 62
     0
100
AcDbCircle
 10
296.8105663803868
 20
192.8948424387455
 30
0.0
 40
0.2999999999998695
100
AcDbArc
 50
109.4712206344826
 51
180.0
  0
LINE
  5
1BC42D087411F
330
1BC42D08739B1
100
AcDbEntity
  8
SUNPOU
 62
     0
100
AcDbLine
 10
296.8605663803866
 20
193.1397914130235
 30
0.0
 11
296.8605663803866
 21
194.6448424387455
 31
0.0
  0
LINE
  5
1BC42D0874120
330
1BC42D08739B1
100
AcDbEntity
  8
SUNPOU
 62
     0
100
AcDbLine
 10
298.8105663803868
 20
187.4459834452733
 30
0.0
 11
298.8105663803868
 21
192.8948424387456
 31
0.0
  0
LINE
  5
1BC42D0874121
330
1BC42D08739B1
100
AcDbEntity
  8
SUNPOU
 62
     0
100
AcDbLine
 10
301.4105663803865
 20
192.8948424387455
 30
0.0
 11
301.4105663803866
 21
187.4459834452733
 31
0.0
  0
LINE
  5
1BC42D0874122
330
1BC42D08739B1
100
AcDbEntity
  8
SUNPOU
 62
     0
100
AcDbLine
 10
299.110566380387
 20
187.4459834452733
 30
0.0
 11
299.110566380387
 21
193.194842438746
 31
0.0
  0
LINE
  5
1BC42D0874123
330
1BC42D08739B1
100
AcDbEntity
  8
SUNPOU
 62
     0
100
AcDbLine
 10
300.9605663803867
 20
187.4459834452733
 30
0.0
 11
300.9605663803868
 21
194.6448424387455
 31
0.0
  0
LINE
  5
1BC42D0874124
330
1BC42D08739B1
100
AcDbEntity
  8
SUNPOU
 62
     0
100
AcDbLine
 10
299.2605663803868
 20
187.4459834452733
 30
0.0
 11
299.2605663803864
 21
194.6448424387455
 31
0.0
  0
LINE
  5
1BC42D0874125
330
1BC42D08739B1
100
AcDbEntity
  8
SUNPOU
 62
     0
100
AcDbLine
 10
300.7605663803868
 20
188.3948424387456
 30
0.0
 11
300.4605663803867
 21
188.3948424387456
 31
0.0
  0
ARC
  5
1BC42D0874126
330
1BC42D08739B1
100
AcDbEntity
  8
SUNPOU
 62
     0
100
AcDbCircle
 10
300.7605663803868
 20
188.5948424387458
 30
0.0
 40
0.2000000000000002
100
AcDbArc
 50
270.0
 51
0.0
  0
LINE
  5
1BC42D0874127
330
1BC42D08739B1
100
AcDbEntity
  8
SUNPOU
 62
     0
100
AcDbLine
 10
300.1105663803866
 20
187.4459834452733
 30
0.0
 11
300.1105663803866
 21
188.0448424387456
 31
0.0
  0
ARC
  5
1BC42D0874128
330
1BC42D08739B1
100
AcDbEntity
  8
SUNPOU
 62
     0
100
AcDbCircle
 10
299.4605663803866
 20
188.5948424387458
 30
0.0
 40
0.2000000000000002
100
AcDbArc
 50
180.0
 51
270.0
  0
LINE
  5
1BC42D0874129
330
1BC42D08739B1
100
AcDbEntity
  8
SUNPOU
 62
     0
100
AcDbLine
 10
299.4605663803866
 20
188.3948424387456
 30
0.0
 11
299.7605663803868
 21
188.3948424387456
 31
0.0
  0
ARC
  5
1BC42D087412A
330
1BC42D08739B1
100
AcDbEntity
  8
SUNPOU
 62
     0
100
AcDbCircle
 10
299.7605663803868
 20
188.0448424387456
 30
0.0
 40
0.3500000000000003
100
AcDbArc
 50
0.0
 51
90.0
  0
ARC
  5
1BC42D087412B
330
1BC42D08739B1
100
AcDbEntity
  8
SUNPOU
 62
     0
100
AcDbCircle
 10
300.4605663803867
 20
188.0448424387456
 30
0.0
 40
0.3500000000000003
100
AcDbArc
 50
90.0
 51
180.0
  0
LINE
  5
1BC42D087412C
330
1BC42D08739B1
100
AcDbEntity
  8
SUNPOU
 62
     0
100
AcDbLine
 10
300.1105663803866
 20
188.0448424387456
 30
0.0
 11
300.1105663803866
 21
187.4459834452733
 31
0.0
  0
LINE
  5
1BC42D087412D
330
1BC42D08739B1
100
AcDbEntity
  8
SUNPOU
 62
     0
100
AcDbLine
 10
301.110566380387
 20
194.6448424387455
 30
0.0
 11
300.9605663803868
 21
194.6448424387455
 31
0.0
  0
LINE
  5
1BC42D087412E
330
1BC42D08739B1
100
AcDbEntity
  8
SUNPOU
 62
     0
100
AcDbLine
 10
299.1105663803866
 20
194.6448424387455
 30
0.0
 11
299.2605663803864
 21
194.6448424387455
 31
0.0
  0
ARC
  5
1BC42D087412F
330
1BC42D08739B1
100
AcDbEntity
  8
SUNPOU
 62
     0
100
AcDbCircle
 10
299.1105663803866
 20
192.8948424387456
 30
0.0
 40
0.2999999999998695
100
AcDbArc
 50
90.0
 51
180.0
  0
ARC
  5
1BC42D0874130
330
1BC42D08739B1
100
AcDbEntity
  8
SUNPOU
 62
     0
100
AcDbCircle
 10
301.110566380387
 20
192.8948424387455
 30
0.0
 40
0.2999999999998695
100
AcDbArc
 50
0.0
 51
90.0
  0
LINE
  5
1BC42D0874131
330
1BC42D08739B1
100
AcDbEntity
  8
SUNPOU
 62
     0
100
AcDbLine
 10
301.110566380387
 20
193.1948424387459
 30
0.0
 11
301.110566380387
 21
194.6448424387456
 31
0.0
  0
LINE
  5
1BC42D0874132
330
1BC42D08739B1
100
AcDbEntity
  8
SUNPOU
 62
     0
100
AcDbLine
 10
299.1105663803866
 20
193.1948424387454
 30
0.0
 11
299.1105663803866
 21
194.6448424387456
 31
0.0
  0
LINE
  5
1BC42D0874133
330
1BC42D08739B1
100
AcDbEntity
  8
SUNPOU
 62
     0
100
AcDbLine
 10
281.2562581246691
 20
201.2621172280598
 30
0.0
 11
292.6517296614016
 21
200.0644049066996
 31
0.0
  0
LINE
  5
1BC42D0874134
330
1BC42D08739B1
100
AcDbEntity
  8
SUNPOU
 62
     0
100
AcDbLine
 10
281.3607865879367
 20
202.2566391234279
 30
0.0
 11
292.7562581246688
 21
201.0589268020678
 31
0.0
  0
ARC
  5
1BC42D0874135
330
1BC42D08739B1
100
AcDbEntity
  8
SUNPOU
 62
     0
100
AcDbCircle
 10
281.2562581246691
 20
201.2621172280598
 30
0.0
 40
1.0
100
AcDbArc
 50
83.99999999999828
 51
180.0
  0
LINE
  5
1BC42D0874136
330
1BC42D08739B1
100
AcDbEntity
  8
SUNPOU
 62
     0
100
AcDbLine
 10
279.910566380387
 20
202.2448424387455
 30
0.0
 11
280.2105663803869
 21
201.9448424387455
 31
0.0
  0
LINE
  5
1BC42D0874137
330
1BC42D08739B1
100
AcDbEntity
  8
SUNPOU
 62
     0
100
AcDbLine
 10
278.4474976474024
 20
202.2448424387455
 30
0.0
 11
279.910566380387
 21
202.2448424387455
 31
0.0
  0
LINE
  5
1BC42D0874138
330
1BC42D08739B1
100
AcDbEntity
  8
SUNPOU
 62
     0
100
AcDbLine
 10
290.0698885655716
 20
199.3948424387455
 30
0.0
 11
285.2105663803931
 21
199.3948424387455
 31
0.0
  0
ARC
  5
1BC42D0874139
330
1BC42D08739B1
100
AcDbEntity
  8
SUNPOU
 62
     0
100
AcDbCircle
 10
290.0698885655716
 20
198.8948424387455
 30
0.0
 40
0.5000000000000006
100
AcDbArc
 50
40.00000000000029
 51
90.0
  0
LINE
  5
1BC42D087413A
330
1BC42D08739B1
100
AcDbEntity
  8
SUNPOU
 62
     0
100
AcDbLine
 10
292.6517296614016
 20
200.0644049066996
 30
0.0
 11
292.7562581246688
 21
201.0589268020678
 31
0.0
  0
LINE
  5
1BC42D087413B
330
1BC42D08739B1
100
AcDbEntity
  8
JISSEN
100
AcDbLine
 10
310.4477329788183
 20
204.4247769537499
 30
0.0
 11
310.4477329788183
 21
169.6747769537499
 31
0.0
  0
LINE
  5
1BC42D087413C
330
1BC42D08739B1
100
AcDbEntity
  8
JISSEN
100
AcDbLine
 10
306.9477329788182
 20
183.3965101874446
 30
0.0
 11
306.9477329788182
 21
168.3483711608265
 31
0.0
  0
TEXT
  5
1BC42D087413D
330
1BC42D08739B1
100
AcDbEntity
  8
SUNPOU
100
AcDbText
 10
325.698068359798
 20
135.1231030160286
 30
0.0
 40
4.5
  1
1
  7
K
 72
     4
 11
327.5194969312266
 21
137.3731030160286
 31
0.0
100
AcDbText
  0
ARC
  5
1BC42D087413E
330
1BC42D08739B1
100
AcDbEntity
  8
JISSEN
100
AcDbCircle
 10
308.4477329788183
 20
169.671246816359
 30
0.0
 40
2.0
100
AcDbArc
 50
221.4096221092685
 51
0.0
  0
LINE
  5
1BC42D087413F
330
1BC42D08739B1
100
AcDbEntity
  8
JISSEN
100
AcDbLine
 10
306.9477329788182
 20
205.3663733250949
 30
0.0
 11
306.9477329788182
 21
187.4459834452733
 31
0.0
  0
LINE
  5
1BC42D0874140
330
1BC42D08739B1
100
AcDbEntity
  8
JISSEN
100
AcDbLine
 10
306.9477329788182
 20
187.4459834452733
 30
0.0
 11
308.5799739143726
 21
185.4212468163589
 31
0.0
  0
LINE
  5
1BC42D0874141
330
1BC42D08739B1
100
AcDbEntity
  8
JISSEN
100
AcDbLine
 10
306.9477329788182
 20
183.3965101874446
 30
0.0
 11
308.5799739143726
 21
185.4212468163589
 31
0.0
  0
ARC
  5
1BC42D0874142
330
1BC42D08739B1
100
AcDbEntity
  8
JISSEN
100
AcDbCircle
 10
308.4477329788183
 20
204.4247769537499
 30
0.0
 40
2.0
100
AcDbArc
 50
0.0
 51
86.20881036674601
  0
ARC
  5
1BC42D0874143
330
1BC42D08739B1
100
AcDbEntity
  8
JISSEN
100
AcDbCircle
 10
308.7122148499267
 20
204.4247769537499
 30
0.0
 40
2.0
100
AcDbArc
 50
93.79118963325565
 51
151.9138790255285
  0
TEXT
  5
1BC42D0874144
330
1BC42D08739B1
100
AcDbEntity
  8
TEXT
100
AcDbText
 10
288.8999977415775
 20
268.5000003132847
 30
0.0
 40
3.0
  1
名      称
  7
K
 72
     4
 11
297.4999977415776
 21
270.0000003132847
 31
0.0
100
AcDbText
  0
TEXT
  5
1BC42D0874145
330
1BC42D08739B1
100
AcDbEntity
  8
TEXT
100
AcDbText
 10
284.3471405987204
 20
262.6428574561419
 30
0.0
 40
3.0
  1
HFQR  型ヘッド
 41
0.9
  7
K
 72
     4
 11
297.4999977415776
 21
264.0000003132847
 31
0.0
100
AcDbText
  0
TEXT
  5
1BC42D0874146
330
1BC42D08739B1
100
AcDbEntity
  8
TEXT
100
AcDbText
 10
286.5971405987204
 20
256.6428574561419
 30
0.0
 40
3.0
  1
ガード HFQR
 41
0.9
  7
K
 72
     4
 11
297.4999977415776
 21
258.0000003132847
 31
0.0
100
AcDbText
  0
TEXT
  5
1BC42D0874147
330
1BC42D08739B1
100
AcDbEntity
  8
TEXT
100
AcDbText
 10
276.2857120272918
 20
262.5000003132847
 30
0.0
 40
3.0
  1
1
  7
K
 72
     4
 11
277.4999977415776
 21
264.0000003132847
 31
0.0
100
AcDbText
  0
LINE
  5
1BC42D0874148
330
1BC42D08739B1
100
AcDbEntity
  8
JISSEN
100
AcDbLine
 10
282.4999977415775
 20
273.0000003132849
 30
0.0
 11
282.4999977415775
 21
255.0000003132849
 31
0.0
  0
LINE
  5
1BC42D0874149
330
1BC42D08739B1
100
AcDbEntity
  8
JISSEN
100
AcDbLine
 10
272.4999977415776
 20
255.0000003132849
 30
0.0
 11
272.4999977415776
 21
273.0000003132849
 31
0.0
  0
TEXT
  5
1BC42D087414A
330
1BC42D08739B1
100
AcDbEntity
  8
TEXT
100
AcDbText
 10
276.3830701471118
 20
256.5000003132847
 30
0.0
 40
3.0
  1
2
  7
K
 72
     4
 11
277.8116415756833
 21
258.0000003132847
 31
0.0
100
AcDbText
  0
LINE
  5
1BC42D087414B
330
1BC42D08739B1
100
AcDbEntity
  8
SUNPOU
 62
     0
100
AcDbLine
 10
262.9474976474026
 20
231.0978109998609
 30
0.0
 11
263.6987876892177
 21
234.2642488318634
 31
0.0
  0
LINE
  5
1BC42D087414C
330
1BC42D08739B1
100
AcDbEntity
  8
SUNPOU
 62
     0
100
AcDbLine
 10
271.4760230357699
 20
230.3805475013779
 30
0.0
 11
271.6382218755494
 21
231.5658383847202
 31
0.0
  0
LINE
  5
1BC42D087414D
330
1BC42D08739B1
100
AcDbEntity
  8
SUNPOU
 62
     0
100
AcDbLine
 10
269.2953132145181
 20
231.1254131874914
 30
0.0
 11
269.5345503457122
 21
230.7933844852968
 31
0.0
  0
LINE
  5
1BC42D087414E
330
1BC42D08739B1
100
AcDbEntity
  8
SUNPOU
 62
     0
100
AcDbLine
 10
270.0611983915048
 20
229.7966052081451
 30
0.0
 11
270.3331867639345
 21
229.3065336163885
 31
0.0
  0
LINE
  5
1BC42D087414F
330
1BC42D08739B1
100
AcDbEntity
  8
SUNPOU
 62
     0
100
AcDbLine
 10
269.5345503457122
 20
230.7933844852968
 30
0.0
 11
269.7924158284024
 21
230.3213353283148
 31
0.0
  0
LINE
  5
1BC42D0874150
330
1BC42D08739B1
100
AcDbEntity
  8
SUNPOU
 62
     0
100
AcDbLine
 10
269.7924158284024
 20
230.3213353283148
 30
0.0
 11
270.0611983915048
 21
229.7966052081451
 31
0.0
  0
LINE
  5
1BC42D0874151
330
1BC42D08739B1
100
AcDbEntity
  8
SUNPOU
 62
     0
100
AcDbLine
 10
273.7913209055171
 20
222.92477695375
 30
0.0
 11
273.4474976474024
 21
222.92477695375
 31
0.0
  0
ARC
  5
1BC42D0874152
330
1BC42D08739B1
100
AcDbEntity
  8
SUNPOU
 62
     0
100
AcDbCircle
 10
273.7913209055171
 20
221.42477695375
 30
0.0
 40
1.5
100
AcDbArc
 50
13.00000000000027
 51
90.0
  0
LINE
  5
1BC42D0874153
330
1BC42D08739B1
100
AcDbEntity
  8
SUNPOU
 62
     0
100
AcDbLine
 10
270.8559358524373
 20
228.779723984514
 30
0.0
 11
271.0912740263413
 21
228.9176649275971
 31
0.0
  0
LINE
  5
1BC42D0874154
330
1BC42D08739B1
100
AcDbEntity
  8
SUNPOU
 62
     0
100
AcDbLine
 10
271.2989729252344
 20
229.4396223654934
 30
0.0
 11
271.4760230357699
 21
230.3805475013779
 31
0.0
  0
LINE
  5
1BC42D0874155
330
1BC42D08739B1
100
AcDbEntity
  8
SUNPOU
 62
     0
100
AcDbLine
 10
271.0912740263413
 20
228.9176649275971
 30
0.0
 11
271.2989729252344
 21
229.4396223654934
 31
0.0
  0
LINE
  5
1BC42D0874156
330
1BC42D08739B1
100
AcDbEntity
  8
SUNPOU
 62
     0
100
AcDbLine
 10
270.3331867639345
 20
229.3065336163885
 30
0.0
 11
270.6006696746066
 21
228.9384600446448
 31
0.0
  0
LINE
  5
1BC42D0874157
330
1BC42D08739B1
100
AcDbEntity
  8
SUNPOU
 62
     0
100
AcDbLine
 10
270.6006696746066
 20
228.9384600446448
 30
0.0
 11
270.8559358524373
 21
228.779723984514
 31
0.0
  0
LINE
  5
1BC42D0874158
330
1BC42D08739B1
100
AcDbEntity
  8
SUNPOU
 62
     0
100
AcDbLine
 10
264.3967134991133
 20
236.0694181996866
 30
0.0
 11
265.0409768477905
 21
236.7648735742981
 31
0.0
  0
LINE
  5
1BC42D0874159
330
1BC42D08739B1
100
AcDbEntity
  8
SUNPOU
 62
     0
100
AcDbLine
 10
265.6312795059506
 20
236.6021694266668
 30
0.0
 11
266.167323244294
 21
235.8328602277609
 31
0.0
  0
LINE
  5
1BC42D087415A
330
1BC42D08739B1
100
AcDbEntity
  8
SUNPOU
 62
     0
100
AcDbLine
 10
266.167323244294
 20
235.8328602277609
 30
0.0
 11
266.6488098335223
 21
234.7085004485493
 31
0.0
  0
LINE
  5
1BC42D087415B
330
1BC42D08739B1
100
AcDbEntity
  8
SUNPOU
 62
     0
100
AcDbLine
 10
263.6987876892177
 20
234.2642488318634
 30
0.0
 11
264.3967134991133
 21
236.0694181996866
 31
0.0
  0
LINE
  5
1BC42D087415C
330
1BC42D08739B1
100
AcDbEntity
  8
SUNPOU
 62
     0
100
AcDbLine
 10
267.7646981071487
 20
231.6656746607059
 30
0.0
 11
268.0372496622978
 21
231.2517435235559
 31
0.0
  0
LINE
  5
1BC42D087415D
330
1BC42D08739B1
100
AcDbEntity
  8
SUNPOU
 62
     0
100
AcDbLine
 10
268.0372496622978
 20
231.2517435235559
 30
0.0
 11
268.2747972453331
 21
231.0806820242587
 31
0.0
  0
LINE
  5
1BC42D087415E
330
1BC42D08739B1
100
AcDbEntity
  8
SUNPOU
 62
     0
100
AcDbLine
 10
268.2747972453331
 20
231.0806820242587
 30
0.0
 11
268.4875647887031
 21
231.0741185654404
 31
0.0
  0
LINE
  5
1BC42D087415F
330
1BC42D08739B1
100
AcDbEntity
  8
SUNPOU
 62
     0
100
AcDbLine
 10
268.4875647887031
 20
231.0741185654404
 30
0.0
 11
268.6857762248576
 21
231.153681549728
 31
0.0
  0
LINE
  5
1BC42D0874160
330
1BC42D08739B1
100
AcDbEntity
  8
SUNPOU
 62
     0
100
AcDbLine
 10
268.6857762248576
 20
231.153681549728
 30
0.0
 11
268.8796554862455
 21
231.240999379748
 31
0.0
  0
LINE
  5
1BC42D0874161
330
1BC42D08739B1
100
AcDbEntity
  8
SUNPOU
 62
     0
100
AcDbLine
 10
268.8796554862455
 20
231.240999379748
 30
0.0
 11
269.0794265053158
 21
231.2577004581269
 31
0.0
  0
LINE
  5
1BC42D0874162
330
1BC42D08739B1
100
AcDbEntity
  8
SUNPOU
 62
     0
100
AcDbLine
 10
269.0794265053158
 20
231.2577004581269
 30
0.0
 11
269.2953132145181
 21
231.1254131874914
 31
0.0
  0
LINE
  5
1BC42D0874163
330
1BC42D08739B1
100
AcDbEntity
  8
SUNPOU
 62
     0
100
AcDbLine
 10
267.075441044336
 20
233.4806445599999
 30
0.0
 11
267.4469186474361
 21
232.4008470330817
 31
0.0
  0
LINE
  5
1BC42D0874164
330
1BC42D08739B1
100
AcDbEntity
  8
SUNPOU
 62
     0
100
AcDbLine
 10
267.4469186474361
 20
232.4008470330817
 30
0.0
 11
267.7646981071487
 21
231.6656746607059
 31
0.0
  0
LINE
  5
1BC42D0874165
330
1BC42D08739B1
100
AcDbEntity
  8
SUNPOU
 62
     0
100
AcDbLine
 10
266.6488098335223
 20
234.7085004485493
 30
0.0
 11
267.075441044336
 21
233.4806445599999
 31
0.0
  0
LINE
  5
1BC42D0874166
330
1BC42D08739B1
100
AcDbEntity
  8
SUNPOU
 62
     0
100
AcDbLine
 10
265.0409768477905
 20
236.7648735742981
 30
0.0
 11
265.6312795059506
 21
236.6021694266668
 31
0.0
  0
LINE
  5
1BC42D0874167
330
1BC42D08739B1
100
AcDbEntity
  8
SUNPOU
 62
     0
100
AcDbLine
 10
272.9439216500159
 20
233.2131206498447
 30
0.0
 11
273.4474976474026
 21
231.0978109998609
 31
0.0
  0
LINE
  5
1BC42D0874168
330
1BC42D08739B1
100
AcDbEntity
  8
SUNPOU
 62
     0
100
AcDbLine
 10
272.5484900339137
 20
234.2108546135511
 30
0.0
 11
272.9439216500159
 21
233.2131206498447
 31
0.0
  0
LINE
  5
1BC42D0874169
330
1BC42D08739B1
100
AcDbEntity
  8
SUNPOU
 62
     0
100
AcDbLine
 10
271.6382218755494
 20
231.5658383847202
 30
0.0
 11
271.8060687199139
 21
232.7685047765646
 31
0.0
  0
LINE
  5
1BC42D087416A
330
1BC42D08739B1
100
AcDbEntity
  8
SUNPOU
 62
     0
100
AcDbLine
 10
271.8060687199139
 20
232.7685047765646
 30
0.0
 11
272.0000628442026
 21
233.761556437955
 31
0.0
  0
LINE
  5
1BC42D087416B
330
1BC42D08739B1
100
AcDbEntity
  8
SUNPOU
 62
     0
100
AcDbLine
 10
272.0000628442026
 20
233.761556437955
 30
0.0
 11
272.240703523756
 21
234.3180031299358
 31
0.0
  0
LINE
  5
1BC42D087416C
330
1BC42D08739B1
100
AcDbEntity
  8
SUNPOU
 62
     0
100
AcDbLine
 10
272.240703523756
 20
234.3180031299358
 30
0.0
 11
272.5484900339137
 21
234.2108546135511
 31
0.0
  0
TEXT
  5
1BC42D087416D
330
1BC42D08739B1
100
AcDbEntity
  8
TEXT
100
AcDbText
 10
274.2999977415776
 20
268.5000003132847
 30
0.0
 40
3.0
  1
番号
  7
K
 72
     4
 11
277.4999977415776
 21
270.0000003132847
 31
0.0
100
AcDbText
  0
LINE
  5
1BC42D087416E
330
1BC42D08739B1
100
AcDbEntity
  8
JISSEN
100
AcDbLine
 10
312.4999977415776
 20
273.0000003132849
 30
0.0
 11
312.4999977415776
 21
255.0000003132849
 31
0.0
  0
TEXT
  5
1BC42D087416F
330
1BC42D08739B1
100
AcDbEntity
  8
TEXT
100
AcDbText
 10
337.6795462279869
 20
262.5000003132847
 30
0.0
 40
3.0
  1
1
  7
K
 72
     4
 11
338.8938319422726
 21
264.0000003132847
 31
0.0
100
AcDbText
  0
LINE
  5
1BC42D0874170
330
1BC42D08739B1
100
AcDbEntity
  8
JISSEN
100
AcDbLine
 10
344.4999977415776
 20
273.0000003132849
 30
0.0
 11
344.4999977415776
 21
255.0000003132849
 31
0.0
  0
LINE
  5
1BC42D0874171
330
1BC42D08739B1
100
AcDbEntity
  8
JISSEN
100
AcDbLine
 10
333.4999977415776
 20
255.0000003132849
 30
0.0
 11
333.4999977415776
 21
273.0000003132849
 31
0.0
  0
TEXT
  5
1BC42D0874172
330
1BC42D08739B1
100
AcDbEntity
  8
TEXT
100
AcDbText
 10
317.8249977415775
 20
264.3000003132847
 30
0.0
 40
3.0
  1
%%u      
  7
K
 72
     4
 11
322.9999977415776
 21
264.0000003132847
 31
0.0
100
AcDbText
  0
TEXT
  5
1BC42D0874173
330
1BC42D08739B1
100
AcDbEntity
  8
TEXT
100
AcDbText
 10
318.6428548844347
 20
256.5000003132847
 30
0.0
 40
3.0
  1
PBT
  7
K
 72
     4
 11
322.9999977415776
 21
258.0000003132847
 31
0.0
100
AcDbText
  0
TEXT
  5
1BC42D0874174
330
1BC42D08739B1
100
AcDbEntity
  8
TEXT
100
AcDbText
 10
337.6795462279869
 20
256.580835489626
 30
0.0
 40
3.0
  1
1
  7
K
 72
     4
 11
338.8938319422726
 21
258.080835489626
 31
0.0
100
AcDbText
  0
TEXT
  5
1BC42D0874175
330
1BC42D08739B1
100
AcDbEntity
  8
TEXT
100
AcDbText
 10
316.1999977415776
 20
268.5000003132847
 30
0.0
 40
3.0
  1
材    質
  7
K
 72
     4
 11
322.9999977415776
 21
270.0000003132847
 31
0.0
100
AcDbText
  0
TEXT
  5
1BC42D0874176
330
1BC42D08739B1
100
AcDbEntity
  8
TEXT
100
AcDbText
 10
346.6999977415775
 20
268.5000003132847
 30
0.0
 40
3.0
  1
備    考
  7
K
 72
     4
 11
353.4999977415775
 21
270.0000003132847
 31
0.0
100
AcDbText
  0
TEXT
  5
1BC42D0874177
330
1BC42D08739B1
100
AcDbEntity
  8
TEXT
100
AcDbText
 10
335.7999977415776
 20
268.5000003132847
 30
0.0
 40
3.0
  1
個数
  7
K
 72
     4
 11
338.9999977415776
 21
270.0000003132847
 31
0.0
100
AcDbText
  0
LWPOLYLINE
  5
1BC42D0874178
330
1BC42D08739B1
100
AcDbEntity
  8
WAKU
100
AcDbPolyline
 90
        4
 70
     1
 43
0.0
 10
180.999999
 20
0.0
 10
361.999998
 20
0.0
 10
361.999998
 20
273.0
 10
180.999999
 20
273.0
  0
TEXT
  5
1BC42D08741B7
330
1BC42D08739B1
100
AcDbEntity
  8
SUNPOU
100
AcDbText
 10
152.920346045968
 20
7.849424012312852
 30
0.0
 40
3.0
  1
ガード HFQR
  7
K
100
AcDbText
  0
TEXT
  5
1BC42D08741B8
330
1BC42D08739B1
100
AcDbEntity
  8
SUNPOU
100
AcDbText
 10
152.920346045968
 20
2.849424012312852
 30
0.0
 40
3.0
  1
尺度　1/1
  7
K
100
AcDbText
  0
LINE
  5
1BC42D0874224
330
1BC42D08739B1
100
AcDbEntity
  8
TEXT
100
AcDbLine
 10
295.3302670442448
 20
265.6422741901204
 30
0.0
 11
297.3302670442448
 21
265.6422741901204
 31
0.0
  0
LINE
  5
1BC42D0874225
330
1BC42D08739B1
100
AcDbEntity
  8
TEXT
100
AcDbLine
 10
295.3302670442448
 20
262.6422741901204
 30
0.0
 11
297.3302670442448
 21
262.6422741901204
 31
0.0
  0
LINE
  5
1BC42D0874226
330
1BC42D08739B1
100
AcDbEntity
  8
TEXT
100
AcDbLine
 10
295.8802670442448
 20
265.6422741901204
 30
0.0
 11
295.8802670442448
 21
262.6422741901204
 31
0.0
  0
LINE
  5
1BC42D0874227
330
1BC42D08739B1
100
AcDbEntity
  8
TEXT
100
AcDbLine
 10
296.7802670442448
 20
265.6422741901204
 30
0.0
 11
296.7802670442448
 21
262.6422741901204
 31
0.0
  0
LINE
  5
1BC42D0874228
330
1BC42D08739B1
100
AcDbEntity
  8
TEXT
100
AcDbLine
 10
335.2926793512608
 20
10.84903566609067
 30
0.0
 11
335.2926793512608
 21
7.849035666090685
 31
0.0
  0
LINE
  5
1BC42D0874229
330
1BC42D08739B1
100
AcDbEntity
  8
TEXT
100
AcDbLine
 10
334.3926793512607
 20
10.84903566609067
 30
0.0
 11
334.3926793512607
 21
7.849035666090685
 31
0.0
  0
LINE
  5
1BC42D087422A
330
1BC42D08739B1
100
AcDbEntity
  8
TEXT
100
AcDbLine
 10
333.8426793512608
 20
7.849035666090685
 30
0.0
 11
335.8426793512608
 21
7.849035666090685
 31
0.0
  0
LINE
  5
1BC42D087422B
330
1BC42D08739B1
100
AcDbEntity
  8
TEXT
100
AcDbLine
 10
333.8426793512608
 20
10.84903566609067
 30
0.0
 11
335.8426793512608
 21
10.84903566609067
 31
0.0
  0
LINE
  5
1BC42D08742AF
330
1BC42D08739B1
100
AcDbEntity
  8
SUNPOU
100
AcDbLine
 10
307.9856946308682
 20
73.30398062628015
 30
0.0
 11
308.7582517432333
 21
72.01822967522699
 31
0.0
  0
LINE
  5
1BC42D08742B0
330
1BC42D08739B1
100
AcDbEntity
  8
SUNPOU
100
AcDbLine
 10
307.5571109805171
 20
73.04646158882511
 30
0.0
 11
308.3296680928823
 21
71.76071063777195
 31
0.0
  0
TEXT
  5
1BC42D08742B1
330
1BC42D08739B1
100
AcDbEntity
  8
SUNPOU
100
AcDbText
 10
313.3156803583241
 20
73.70784896724472
 30
0.0
 40
1.49810485709211
  1
F
 50
164.5807043298169
  7
K
 72
     4
 11
312.3944307379987
 21
73.18491664038784
 31
0.0
100
AcDbText
  0
TEXT
  5
1BC42D08742B2
330
1BC42D08739B1
100
AcDbEntity
  8
SUNPOU
100
AcDbText
 10
309.9536026721489
 20
74.10965549810909
 30
0.0
 40
1.49810485709211
  1
R
 50
196.1019938246618
  7
K
 72
     4
 11
309.4074143563072
 21
73.17234773595095
 31
0.0
100
AcDbText
  0
TEXT
  5
1BC42D08742B3
330
1BC42D08739B1
100
AcDbEntity
  8
SUNPOU
100
AcDbText
 10
314.8756363785518
 20
72.79008003559353
 30
0.0
 40
1.49810485709211
  1
H
 50
148.3741349587304
  7
K
 72
     4
 11
313.8146726690678
 21
72.56375388924354
 31
0.0
100
AcDbText
  0
LINE
  5
1BC42D08742B9
330
1BC42D08739B1
100
AcDbEntity
  8
SUNPOU
100
AcDbLine
 10
308.1228475287411
 20
71.63644030557448
 30
0.0
 11
308.9650723073744
 21
72.14250000742445
 31
0.0
  0
LINE
  5
1BC42D08742CA
330
1BC42D08739B1
100
AcDbEntity
  8
SUNPOU
100
AcDbLine
 10
307.350290416376
 20
72.92219125662765
 30
0.0
 11
308.1925151950093
 21
73.42825095847762
 31
0.0
  0
TEXT
  5
1BC42D08742CB
330
1BC42D08739B1
100
AcDbEntity
  8
SUNPOU
100
AcDbText
 10
311.6460051011493
 20
74.09373435907797
 30
0.0
 40
1.49810485709211
  1
Q
 50
180.5223479554867
  7
K
 72
     4
 11
310.8674945447329
 21
73.40889445495796
 31
0.0
100
AcDbText
  0
ENDSEC
  0
SECTION
  2
OBJECTS
  0
DICTIONARY
  5
1BC42D08739A5
330
0
100
AcDbDictionary
  3
ACAD_GROUP
350
1BC42D08739A6
  3
ACAD_LAYOUT
350
1BC42D0873CB5
  3
ACAD_MLINESTYLE
350
1BC42D08739A7
  3
ACAD_PLOTSETTINGS
350
1BC42D0873CB6
  3
ACAD_PLOTSTYLENAME
350
1BC42D0873CB3
  3
ACDBHEADERROUNDTRIPXREC
350
1BC42D08742D8
  3
ACDBVARIABLEDICTIONARY
350
1BC42D08741F7
  0
DICTIONARY
  5
1BC42D0873D3E
330
1BC42D08739B1
100
AcDbDictionary
280
     1
  3
ACAD_LAYOUTSELFREF
360
1BC42D08742FA
  0
DICTIONARY
  5
1BC42D0873D3C
330
1BC42D08739AE
100
AcDbDictionary
280
     1
  3
ACAD_LAYOUTSELFREF
360
1BC42D08742F9
  0
DICTIONARY
  5
1BC42D08739A6
102
{ACAD_REACTORS
330
1BC42D08739A5
102
}
330
1BC42D08739A5
100
AcDbDictionary
  0
DICTIONARY
  5
1BC42D0873CB5
102
{ACAD_REACTORS
330
1BC42D08739A5
102
}
330
1BC42D08739A5
100
AcDbDictionary
  0
DICTIONARY
  5
1BC42D08739A7
102
{ACAD_REACTORS
330
1BC42D08739A5
102
}
330
1BC42D08739A5
100
AcDbDictionary
  3
STANDARD
350
1BC42D08739B4
  0
DICTIONARY
  5
1BC42D0873CB6
102
{ACAD_REACTORS
330
1BC42D08739A5
102
}
330
1BC42D08739A5
100
AcDbDictionary
  0
ACDBDICTIONARYWDFLT
  5
1BC42D0873CB3
102
{ACAD_REACTORS
330
1BC42D08739A5
102
}
330
1BC42D08739A5
100
AcDbDictionary
281
     1
  3
Normal
350
1BC42D0873CB4
100
AcDbDictionaryWithDefault
340
1BC42D0873CB4
  0
DICTIONARY
  5
1BC42D08742D8
102
{ACAD_REACTORS
330
1BC42D08739A5
102
}
330
1BC42D08739A5
100
AcDbDictionary
  3
CEPSNTYPE
350
1BC42D08742E2
  3
DIMSTYLEDATA
350
1BC42D08742E6
  3
FINGERPRINTGUID
350
1BC42D08742E3
  3
HYPERLINKBASE
350
1BC42D08742DB
  3
INSUNITS
350
1BC42D08742E1
  3
LAYOUTDICT
350
1BC42D08742DD
  3
LWETCUNION
350
1BC42D08742E0
  3
PLOTSETDICT
350
1BC42D08742DE
  3
PLOTSTYLNAMDICT
350
1BC42D08742DF
  3
PSVPSCALE
350
1BC42D08742E5
  3
PUCSBASE
350
1BC42D08742E9
  3
PUCSORGBACK
350
1BC42D08742EF
  3
PUCSORGBOTTOM
350
1BC42D08742EB
  3
PUCSORGFRONT
350
1BC42D08742EE
  3
PUCSORGLEFT
350
1BC42D08742EC
  3
PUCSORGRIGHT
350
1BC42D08742ED
  3
PUCSORGTOP
350
1BC42D08742EA
  3
PUCSORTHOREF
350
1BC42D08742E7
  3
PUCSORTHOVIEW
350
1BC42D08742E8
  3
STYLESHEET
350
1BC42D08742DC
  3
TSTACKALIGN
350
1BC42D08742D9
  3
TSTACKSIZE
350
1BC42D08742DA
  3
UCSBASE
350
1BC42D08742F2
  3
UCSORGBACK
350
1BC42D08742F8
  3
UCSORGBOTTOM
350
1BC42D08742F4
  3
UCSORGFRONT
350
1BC42D08742F7
  3
UCSORGLEFT
350
1BC42D08742F5
  3
UCSORGRIGHT
350
1BC42D08742F6
  3
UCSORGTOP
350
1BC42D08742F3
  3
UCSORTHOREF
350
1BC42D08742F0
  3
UCSORTHOVIEW
350
1BC42D08742F1
  3
VERSIONGUID
350
1BC42D08742E4
  0
DICTIONARY
  5
1BC42D08741F7
102
{ACAD_REACTORS
330
1BC42D08739A5
102
}
330
1BC42D08739A5
100
AcDbDictionary
  3
DIMASSOC
350
1BC42D08741F8
  0
XRECORD
  5
1BC42D08742FA
102
{ACAD_REACTORS
330
1BC42D0873D3E
102
}
330
1BC42D0873D3E
100
AcDbXrecord
340
1BC42D08739B1
  0
XRECORD
  5
1BC42D08742F9
102
{ACAD_REACTORS
330
1BC42D0873D3C
102
}
330
1BC42D0873D3C
100
AcDbXrecord
340
1BC42D08739AE
  0
MLINESTYLE
  5
1BC42D08739B4
102
{ACAD_REACTORS
330
1BC42D08739A7
102
}
330
1BC42D08739A7
100
AcDbMlineStyle
  2
STANDARD
 70
     0
  3

 62
     0
 51
90.0
 52
90.0
 71
     2
 49
0.5
 62
   256
  6
BYLAYER
 49
-0.5
 62
   256
  6
BYLAYER
  0
ACDBPLACEHOLDER
  5
1BC42D0873CB4
102
{ACAD_REACTORS
330
1BC42D0873CB3
102
}
330
1BC42D0873CB3
100
AcDbPlaceHolder
280
     0
  0
XRECORD
  5
1BC42D08742E2
102
{ACAD_REACTORS
330
1BC42D08742D8
102
}
330
1BC42D08742D8
100
AcDbXrecord
 90
        0
  0
XRECORD
  5
1BC42D08742E6
102
{ACAD_REACTORS
330
1BC42D08742D8
102
}
330
1BC42D08742D8
100
AcDbXrecord
1000
DSTYLE
1002
{
1070
   341
340
1BC42D08739B5
1070
   342
340
1BC42D08739B5
1002
}
  0
XRECORD
  5
1BC42D08742E3
102
{ACAD_REACTORS
330
1BC42D08742D8
102
}
330
1BC42D08742D8
100
AcDbXrecord
  1
{96587908-1B88-4DA2-BEE1-0339C124502C}
  0
XRECORD
  5
1BC42D08742DB
102
{ACAD_REACTORS
330
1BC42D08742D8
102
}
330
1BC42D08742D8
100
AcDbXrecord
  1

  0
XRECORD
  5
1BC42D08742E1
102
{ACAD_REACTORS
330
1BC42D08742D8
102
}
330
1BC42D08742D8
100
AcDbXrecord
 90
        0
  0
XRECORD
  5
1BC42D08742DD
102
{ACAD_REACTORS
330
1BC42D08742D8
102
}
330
1BC42D08742D8
100
AcDbXrecord
340
1BC42D0873CB5
  0
XRECORD
  5
1BC42D08742E0
102
{ACAD_REACTORS
330
1BC42D08742D8
102
}
330
1BC42D08742D8
100
AcDbXrecord
 90
    14877
  0
XRECORD
  5
1BC42D08742DE
102
{ACAD_REACTORS
330
1BC42D08742D8
102
}
330
1BC42D08742D8
100
AcDbXrecord
340
1BC42D0873CB6
  0
XRECORD
  5
1BC42D08742DF
102
{ACAD_REACTORS
330
1BC42D08742D8
102
}
330
1BC42D08742D8
100
AcDbXrecord
340
1BC42D0873CB3
  0
XRECORD
  5
1BC42D08742E5
102
{ACAD_REACTORS
330
1BC42D08742D8
102
}
330
1BC42D08742D8
100
AcDbXrecord
 40
0.0
  0
XRECORD
  5
1BC42D08742E9
102
{ACAD_REACTORS
330
1BC42D08742D8
102
}
330
1BC42D08742D8
100
AcDbXrecord
340
0
  0
XRECORD
  5
1BC42D08742EF
102
{ACAD_REACTORS
330
1BC42D08742D8
102
}
330
1BC42D08742D8
100
AcDbXrecord
 10
0.0
 20
0.0
 30
0.0
  0
XRECORD
  5
1BC42D08742EB
102
{ACAD_REACTORS
330
1BC42D08742D8
102
}
330
1BC42D08742D8
100
AcDbXrecord
 10
0.0
 20
0.0
 30
0.0
  0
XRECORD
  5
1BC42D08742EE
102
{ACAD_REACTORS
330
1BC42D08742D8
102
}
330
1BC42D08742D8
100
AcDbXrecord
 10
0.0
 20
0.0
 30
0.0
  0
XRECORD
  5
1BC42D08742EC
102
{ACAD_REACTORS
330
1BC42D08742D8
102
}
330
1BC42D08742D8
100
AcDbXrecord
 10
0.0
 20
0.0
 30
0.0
  0
XRECORD
  5
1BC42D08742ED
102
{ACAD_REACTORS
330
1BC42D08742D8
102
}
330
1BC42D08742D8
100
AcDbXrecord
 10
0.0
 20
0.0
 30
0.0
  0
XRECORD
  5
1BC42D08742EA
102
{ACAD_REACTORS
330
1BC42D08742D8
102
}
330
1BC42D08742D8
100
AcDbXrecord
 10
0.0
 20
0.0
 30
0.0
  0
XRECORD
  5
1BC42D08742E7
102
{ACAD_REACTORS
330
1BC42D08742D8
102
}
330
1BC42D08742D8
100
AcDbXrecord
340
0
  0
XRECORD
  5
1BC42D08742E8
102
{ACAD_REACTORS
330
1BC42D08742D8
102
}
330
1BC42D08742D8
100
AcDbXrecord
 70
     0
  0
XRECORD
  5
1BC42D08742DC
102
{ACAD_REACTORS
330
1BC42D08742D8
102
}
330
1BC42D08742D8
100
AcDbXrecord
  1

  0
XRECORD
  5
1BC42D08742D9
102
{ACAD_REACTORS
330
1BC42D08742D8
102
}
330
1BC42D08742D8
100
AcDbXrecord
 90
        1
  0
XRECORD
  5
1BC42D08742DA
102
{ACAD_REACTORS
330
1BC42D08742D8
102
}
330
1BC42D08742D8
100
AcDbXrecord
 90
       70
  0
XRECORD
  5
1BC42D08742F2
102
{ACAD_REACTORS
330
1BC42D08742D8
102
}
330
1BC42D08742D8
100
AcDbXrecord
340
0
  0
XRECORD
  5
1BC42D08742F8
102
{ACAD_REACTORS
330
1BC42D08742D8
102
}
330
1BC42D08742D8
100
AcDbXrecord
 10
0.0
 20
0.0
 30
0.0
  0
XRECORD
  5
1BC42D08742F4
102
{ACAD_REACTORS
330
1BC42D08742D8
102
}
330
1BC42D08742D8
100
AcDbXrecord
 10
0.0
 20
0.0
 30
0.0
  0
XRECORD
  5
1BC42D08742F7
102
{ACAD_REACTORS
330
1BC42D08742D8
102
}
330
1BC42D08742D8
100
AcDbXrecord
 10
0.0
 20
0.0
 30
0.0
  0
XRECORD
  5
1BC42D08742F5
102
{ACAD_REACTORS
330
1BC42D08742D8
102
}
330
1BC42D08742D8
100
AcDbXrecord
 10
0.0
 20
0.0
 30
0.0
  0
XRECORD
  5
1BC42D08742F6
102
{ACAD_REACTORS
330
1BC42D08742D8
102
}
330
1BC42D08742D8
100
AcDbXrecord
 10
0.0
 20
0.0
 30
0.0
  0
XRECORD
  5
1BC42D08742F3
102
{ACAD_REACTORS
330
1BC42D08742D8
102
}
330
1BC42D08742D8
100
AcDbXrecord
 10
0.0
 20
0.0
 30
0.0
  0
XRECORD
  5
1BC42D08742F0
102
{ACAD_REACTORS
330
1BC42D08742D8
102
}
330
1BC42D08742D8
100
AcDbXrecord
340
0
  0
XRECORD
  5
1BC42D08742F1
102
{ACAD_REACTORS
330
1BC42D08742D8
102
}
330
1BC42D08742D8
100
AcDbXrecord
 70
     0
  0
XRECORD
  5
1BC42D08742E4
102
{ACAD_REACTORS
330
1BC42D08742D8
102
}
330
1BC42D08742D8
100
AcDbXrecord
  1
{317FEBA6-04EC-45CA-98F0-D76B5C35F09E}
  0
DICTIONARYVAR
  5
1BC42D08741F8
102
{ACAD_REACTORS
330
1BC42D08741F7
102
}
330
1BC42D08741F7
100
DictionaryVariables
280
     0
  1
0
  0
ENDSEC
  0
EOF
