  0
SECTION
  2
HEADER
  9
$ACADVER
  1
AC1014
  9
$ACADMAINTVER
 70
     9
  9
$DWGCODEPAGE
  3
ANSI_932
  9
$INSBASE
 10
0.0
 20
0.0
 30
0.0
  9
$EXTMIN
 10
-0.0193269431626959
 20
-0.0208250686071097
 30
-0.000000000000013
  9
$EXTMAX
 10
543.0220942972262
 20
273.0000012714104
 30
0.0000000000000023
  9
$LIMMIN
 10
0.0
 20
0.0
  9
$LIMMAX
 10
180.999999
 20
273.0
  9
$ORTHOMODE
 70
     1
  9
$REGENMODE
 70
     1
  9
$FILLMODE
 70
     1
  9
$QTEXTMODE
 70
     0
  9
$MIRRTEXT
 70
     0
  9
$DRAGMODE
 70
     2
  9
$LTSCALE
 40
5.0
  9
$OSMODE
 70
   167
  9
$ATTMODE
 70
     1
  9
$TEXTSIZE
 40
3.0
  9
$TRACEWID
 40
0.05
  9
$TEXTSTYLE
  7
K
  9
$CLAYER
  8
JISSEN
  9
$CELTYPE
  6
BYLAYER
  9
$CECOLOR
 62
   256
  9
$CELTSCALE
 40
1.0
  9
$DELOBJ
 70
     1
  9
$DISPSILH
 70
     0
  9
$DIMSCALE
 40
1.0
  9
$DIMASZ
 40
1.5
  9
$DIMEXO
 40
1.0
  9
$DIMDLI
 40
6.0
  9
$DIMRND
 40
0.0
  9
$DIMDLE
 40
0.0
  9
$DIMEXE
 40
1.0
  9
$DIMTP
 40
0.0
  9
$DIMTM
 40
0.0
  9
$DIMTXT
 40
3.0
  9
$DIMCEN
 40
1.0
  9
$DIMTSZ
 40
0.0
  9
$DIMTOL
 70
     0
  9
$DIMLIM
 70
     0
  9
$DIMTIH
 70
     0
  9
$DIMTOH
 70
     0
  9
$DIMSE1
 70
     0
  9
$DIMSE2
 70
     0
  9
$DIMTAD
 70
     0
  9
$DIMZIN
 70
     8
  9
$DIMBLK
  1
ARROW
  9
$DIMASO
 70
     0
  9
$DIMSHO
 70
     0
  9
$DIMPOST
  1

  9
$DIMAPOST
  1

  9
$DIMALT
 70
     0
  9
$DIMALTD
 70
     2
  9
$DIMALTF
 40
25.4
  9
$DIMLFAC
 40
1.0
  9
$DIMTOFL
 70
     1
  9
$DIMTVP
 40
1.0
  9
$DIMTIX
 70
     0
  9
$DIMSOXD
 70
     0
  9
$DIMSAH
 70
     0
  9
$DIMBLK1
  1
ARROW
  9
$DIMBLK2
  1
ARROW
  9
$DIMSTYLE
  2
IMAO
  9
$DIMCLRD
 70
     0
  9
$DIMCLRE
 70
     0
  9
$DIMCLRT
 70
     0
  9
$DIMTFAC
 40
1.0
  9
$DIMGAP
 40
0.09
  9
$DIMJUST
 70
     0
  9
$DIMSD1
 70
     0
  9
$DIMSD2
 70
     0
  9
$DIMTOLJ
 70
     1
  9
$DIMTZIN
 70
     8
  9
$DIMALTZ
 70
     8
  9
$DIMALTTZ
 70
     8
  9
$DIMFIT
 70
     3
  9
$DIMUPT
 70
     0
  9
$DIMUNIT
 70
     2
  9
$DIMDEC
 70
     2
  9
$DIMTDEC
 70
     2
  9
$DIMALTU
 70
     2
  9
$DIMALTTD
 70
     2
  9
$DIMTXSTY
  7
BIGFONT
  9
$DIMAUNIT
 70
     0
  9
$LUNITS
 70
     2
  9
$LUPREC
 70
     2
  9
$SKETCHINC
 40
0.1
  9
$FILLETRAD
 40
7.0
  9
$AUNITS
 70
     0
  9
$AUPREC
 70
     2
  9
$MENU
  1
stdr12j
  9
$ELEVATION
 40
0.0
  9
$PELEVATION
 40
0.0
  9
$THICKNESS
 40
0.0
  9
$LIMCHECK
 70
     0
  9
$BLIPMODE
 70
     0
  9
$CHAMFERA
 40
0.0
  9
$CHAMFERB
 40
0.0
  9
$CHAMFERC
 40
0.0
  9
$CHAMFERD
 40
0.0
  9
$SKPOLY
 70
     0
  9
$TDCREATE
 40
2450354.453330440
  9
$TDUPDATE
 40
2453620.705286516
  9
$TDINDWG
 40
0.0187246181
  9
$TDUSRTIMER
 40
0.0187246181
  9
$USRTIMER
 70
     1
  9
$ANGBASE
 50
0.0
  9
$ANGDIR
 70
     0
  9
$PDMODE
 70
     0
  9
$PDSIZE
 40
0.0
  9
$PLINEWID
 40
0.0
  9
$COORDS
 70
     2
  9
$SPLFRAME
 70
     0
  9
$SPLINETYPE
 70
     6
  9
$SPLINESEGS
 70
     8
  9
$ATTDIA
 70
     0
  9
$ATTREQ
 70
     1
  9
$HANDLING
 70
 22529
  9
$HANDSEED
  5
1D76AF0517
  9
$SURFTAB1
 70
     6
  9
$SURFTAB2
 70
     6
  9
$SURFTYPE
 70
     6
  9
$SURFU
 70
     6
  9
$SURFV
 70
     6
  9
$UCSNAME
  2

  9
$UCSORG
 10
0.0
 20
0.0
 30
0.0
  9
$UCSXDIR
 10
1.0
 20
0.0
 30
0.0
  9
$UCSYDIR
 10
0.0
 20
1.0
 30
0.0
  9
$PUCSNAME
  2

  9
$PUCSORG
 10
0.0
 20
0.0
 30
0.0
  9
$PUCSXDIR
 10
1.0
 20
0.0
 30
0.0
  9
$PUCSYDIR
 10
0.0
 20
1.0
 30
0.0
  9
$USERI1
 70
     4
  9
$USERI2
 70
     1
  9
$USERI3
 70
     1
  9
$USERI4
 70
     0
  9
$USERI5
 70
     0
  9
$USERR1
 40
1.0
  9
$USERR2
 40
3.0
  9
$USERR3
 40
3.0
  9
$USERR4
 40
1.5
  9
$USERR5
 40
10.0
  9
$WORLDVIEW
 70
     1
  9
$SHADEDGE
 70
     3
  9
$SHADEDIF
 70
    70
  9
$TILEMODE
 70
     1
  9
$MAXACTVP
 70
    16
  9
$PINSBASE
 10
0.0
 20
0.0
 30
0.0
  9
$PLIMCHECK
 70
     0
  9
$PEXTMIN
 10
1.000000000000000E+20
 20
1.000000000000000E+20
 30
1.000000000000000E+20
  9
$PEXTMAX
 10
-1.000000000000000E+20
 20
-1.000000000000000E+20
 30
-1.000000000000000E+20
  9
$PLIMMIN
 10
0.0
 20
0.0
  9
$PLIMMAX
 10
12.0
 20
9.0
  9
$UNITMODE
 70
     0
  9
$VISRETAIN
 70
     0
  9
$PLINEGEN
 70
     0
  9
$PSLTSCALE
 70
     0
  9
$TREEDEPTH
 70
  3020
  9
$PICKSTYLE
 70
     1
  9
$CMLSTYLE
  2
STANDARD
  9
$CMLJUST
 70
     0
  9
$CMLSCALE
 40
1.0
  9
$PROXYGRAPHICS
 70
     1
  9
$MEASUREMENT
 70
     0
  0
ENDSEC
  0
SECTION
  2
CLASSES
  0
CLASS
  1
LWPOLYLINE
  2
AcDbPolyline
  3
AutoCAD 2000
 90
        0
280
     0
281
     1
  0
CLASS
  1
ACDBDICTIONARYWDFLT
  2
AcDbDictionaryWithDefault
  3
AutoCAD 2000
 90
        0
280
     0
281
     0
  0
CLASS
  1
ACDBPLACEHOLDER
  2
AcDbPlaceHolder
  3
AutoCAD 2000
 90
        0
280
     0
281
     0
  0
CLASS
  1
LAYOUT
  2
AcDbLayout
  3
AutoCAD 2000
 90
        0
280
     0
281
     0
  0
CLASS
  1
LONG_TRANSACTION
  2
AcDbLongTransaction
  3
AutoCAD 2000
 90
        0
280
     0
281
     0
  0
CLASS
  1
LWPOLYLINE
  2
AcDbPolyline
  3
AutoCAD 2000
 90
        0
280
     0
281
     1
  0
CLASS
  1
HATCH
  2
AcDbHatch
  3
AutoCAD 2000
 90
        0
280
     0
281
     1
  0
CLASS
  1
XRECORD
  2
AcDbXrecord
  3
AutoCAD 2000
 90
        0
280
     0
281
     0
  0
CLASS
  1
LONG_TRANSACTION
  2
AcDbLongTransaction
  3
AutoCAD 2000
 90
        0
280
     0
281
     0
  0
CLASS
  1
LWPOLYLINE
  2
AcDbPolyline
  3
AutoCAD 2000
 90
        0
280
     0
281
     1
  0
CLASS
  1
HATCH
  2
AcDbHatch
  3
AutoCAD 2000
 90
        0
280
     0
281
     1
  0
CLASS
  1
XRECORD
  2
AcDbXrecord
  3
AutoCAD 2000
 90
        0
280
     0
281
     0
  0
CLASS
  1
DICTIONARYVAR
  2
AcDbDictionaryVar
  3
AutoCAD 2000
 90
        0
280
     0
281
     0
  0
CLASS
  1
LONG_TRANSACTION
  2
AcDbLongTransaction
  3
AutoCAD 2000
 90
        0
280
     0
281
     0
  0
CLASS
  1
LWPOLYLINE
  2
AcDbPolyline
  3
AutoCAD 2000
 90
        0
280
     0
281
     1
  0
CLASS
  1
HATCH
  2
AcDbHatch
  3
AutoCAD 2000
 90
        0
280
     0
281
     1
  0
CLASS
  1
XRECORD
  2
AcDbXrecord
  3
AutoCAD 2000
 90
        0
280
     0
281
     0
  0
CLASS
  1
LONG_TRANSACTION
  2
AcDbLongTransaction
  3
AutoCAD 2000
 90
        0
280
     0
281
     0
  0
CLASS
  1
LWPOLYLINE
  2
AcDbPolyline
  3
AutoCAD 2000
 90
        0
280
     0
281
     1
  0
CLASS
  1
HATCH
  2
AcDbHatch
  3
AutoCAD 2000
 90
        0
280
     0
281
     1
  0
CLASS
  1
XRECORD
  2
AcDbXrecord
  3
AutoCAD 2000
 90
        0
280
     0
281
     0
  0
ENDSEC
  0
SECTION
  2
TABLES
  0
TABLE
  2
VPORT
  5
1D76AEFFA4
330
0
100
AcDbSymbolTable
 70
    11
  0
VPORT
  5
1D76AEFFDA
330
1D76AEFFA4
100
AcDbSymbolTableRecord
100
AcDbViewportTableRecord
  2
2
 70
     0
 10
0.5
 20
0.0
 11
1.0
 21
1.0
 12
0.924031
 22
1.052651
 13
0.0
 23
0.0
 14
1.0
 24
1.0
 15
10.0
 25
10.0
 16
0.0
 26
0.0
 36
1.0
 17
0.0
 27
0.0
 37
0.0
 40
2.105302
 41
0.877814
 42
50.0
 43
0.0
 44
0.0
 50
0.0
 51
0.0
 71
     0
 72
   500
 73
     1
 74
     1
 75
     0
 76
     0
 77
     0
 78
     0
  0
VPORT
  5
1D76AEFFDB
330
1D76AEFFA4
100
AcDbSymbolTableRecord
100
AcDbViewportTableRecord
  2
2
 70
     0
 10
0.0
 20
0.0
 11
0.5
 21
1.0
 12
0.924031
 22
1.052651
 13
0.0
 23
0.0
 14
1.0
 24
1.0
 15
10.0
 25
10.0
 16
0.0
 26
0.0
 36
1.0
 17
0.0
 27
0.0
 37
0.0
 40
2.105302
 41
0.877814
 42
50.0
 43
0.0
 44
0.0
 50
0.0
 51
0.0
 71
     0
 72
   500
 73
     1
 74
     1
 75
     0
 76
     0
 77
     0
 78
     0
  0
VPORT
  5
1D76AEFFDC
330
1D76AEFFA4
100
AcDbSymbolTableRecord
100
AcDbViewportTableRecord
  2
3
 70
     0
 10
0.0
 20
0.5
 11
1.0
 21
1.0
 12
2.832169999999998
 22
1.052651
 13
0.0
 23
0.0
 14
1.0
 24
1.0
 15
10.0
 25
10.0
 16
0.0
 26
0.0
 36
1.0
 17
0.0
 27
0.0
 37
0.0
 40
2.105302
 41
3.571429
 42
50.0
 43
0.0
 44
0.0
 50
0.0
 51
0.0
 71
     0
 72
   500
 73
     1
 74
     1
 75
     0
 76
     0
 77
     0
 78
     0
  0
VPORT
  5
1D76AEFFDD
330
1D76AEFFA4
100
AcDbSymbolTableRecord
100
AcDbViewportTableRecord
  2
3
 70
     0
 10
0.0
 20
0.0
 11
1.0
 21
0.5
 12
2.856741999999998
 22
1.052651
 13
0.0
 23
0.0
 14
1.0
 24
1.0
 15
10.0
 25
10.0
 16
0.0
 26
0.0
 36
1.0
 17
0.0
 27
0.0
 37
0.0
 40
2.105302
 41
3.594770999999998
 42
50.0
 43
0.0
 44
0.0
 50
0.0
 51
0.0
 71
     0
 72
   500
 73
     1
 74
     1
 75
     0
 76
     0
 77
     0
 78
     0
  0
VPORT
  5
1D76AEFFDE
330
1D76AEFFA4
100
AcDbSymbolTableRecord
100
AcDbViewportTableRecord
  2
4
 70
     0
 10
0.5
 20
0.0
 11
1.0
 21
0.5
 12
2.886858
 22
1.052651
 13
0.0
 23
0.0
 14
1.0
 24
1.0
 15
10.0
 25
10.0
 16
0.0
 26
0.0
 36
1.0
 17
0.0
 27
0.0
 37
0.0
 40
4.275206999999999
 41
1.784314
 42
50.0
 43
0.0
 44
0.0
 50
0.0
 51
0.0
 71
     0
 72
   500
 73
     1
 74
     1
 75
     0
 76
     0
 77
     0
 78
     0
  0
VPORT
  5
1D76AEFFDF
330
1D76AEFFA4
100
AcDbSymbolTableRecord
100
AcDbViewportTableRecord
  2
4
 70
     0
 10
0.5
 20
0.5
 11
1.0
 21
1.0
 12
2.86209
 22
1.052651
 13
0.0
 23
0.0
 14
1.0
 24
1.0
 15
10.0
 25
10.0
 16
0.0
 26
0.0
 36
1.0
 17
0.0
 27
0.0
 37
0.0
 40
4.275206999999999
 41
1.772726999999999
 42
50.0
 43
0.0
 44
0.0
 50
0.0
 51
0.0
 71
     0
 72
   500
 73
     1
 74
     1
 75
     0
 76
     0
 77
     0
 78
     0
  0
VPORT
  5
1D76AEFFE0
330
1D76AEFFA4
100
AcDbSymbolTableRecord
100
AcDbViewportTableRecord
  2
4
 70
     0
 10
0.0
 20
0.5
 11
0.5
 21
1.0
 12
2.86209
 22
1.052651
 13
0.0
 23
0.0
 14
1.0
 24
1.0
 15
10.0
 25
10.0
 16
0.0
 26
0.0
 36
1.0
 17
0.0
 27
0.0
 37
0.0
 40
4.275206999999999
 41
1.772726999999999
 42
50.0
 43
0.0
 44
0.0
 50
0.0
 51
0.0
 71
     0
 72
   500
 73
     1
 74
     1
 75
     0
 76
     0
 77
     0
 78
     0
  0
VPORT
  5
1D76AEFFE1
330
1D76AEFFA4
100
AcDbSymbolTableRecord
100
AcDbViewportTableRecord
  2
4
 70
     0
 10
0.0
 20
0.0
 11
0.5
 21
0.5
 12
2.886858
 22
1.052651
 13
0.0
 23
0.0
 14
1.0
 24
1.0
 15
10.0
 25
10.0
 16
0.0
 26
0.0
 36
1.0
 17
0.0
 27
0.0
 37
0.0
 40
4.275206999999999
 41
1.784314
 42
50.0
 43
0.0
 44
0.0
 50
0.0
 51
0.0
 71
     0
 72
   500
 73
     1
 74
     1
 75
     0
 76
     0
 77
     0
 78
     0
  0
VPORT
  5
1D76AF04F3
330
1D76AEFFA4
100
AcDbSymbolTableRecord
100
AcDbViewportTableRecord
  2
*ACTIVE
 70
     0
 10
0.0
 20
0.0
 11
1.0
 21
1.0
 12
271.5013836770317
 22
136.4895881014017
 13
0.0
 23
0.0
 14
1.0
 24
1.0
 15
10.0
 25
10.0
 16
0.0
 26
0.0
 36
1.0
 17
0.0
 27
0.0
 37
0.0
 40
314.7660129834737
 41
1.731733914940021
 42
50.0
 43
0.0
 44
0.0
 50
0.0
 51
0.0
 71
     0
 72
   500
 73
     1
 74
     0
 75
     0
 76
     0
 77
     0
 78
     0
  0
ENDTAB
  0
TABLE
  2
LTYPE
  5
1D76AEFFA1
330
0
100
AcDbSymbolTable
 70
     2
  0
LTYPE
  5
1D76AEFFAD
330
1D76AEFFA1
100
AcDbSymbolTableRecord
100
AcDbLinetypeTableRecord
  2
BYBLOCK
 70
     0
  3

 72
    65
 73
     0
 40
0.0
  0
LTYPE
  5
1D76AEFFAE
330
1D76AEFFA1
100
AcDbSymbolTableRecord
100
AcDbLinetypeTableRecord
  2
BYLAYER
 70
     0
  3

 72
    65
 73
     0
 40
0.0
  0
LTYPE
  5
1D76AEFFAF
330
1D76AEFFA1
100
AcDbSymbolTableRecord
100
AcDbLinetypeTableRecord
  2
CONTINUOUS
 70
     0
  3
実線
 72
    65
 73
     0
 40
0.0
  0
LTYPE
  5
1D76AEFFD8
330
1D76AEFFA1
100
AcDbSymbolTableRecord
100
AcDbLinetypeTableRecord
  2
PHANTOM
 70
     0
  3
_____ _ _ _____ _ _ _____ _ _ _____ _ _ ____
 72
    65
 73
     6
 40
2.5
 49
1.25
 74
     0
 49
-0.25
 74
     0
 49
0.25
 74
     0
 49
-0.25
 74
     0
 49
0.25
 74
     0
 49
-0.25
 74
     0
  0
ENDTAB
  0
TABLE
  2
LAYER
  5
1D76AEFF9E
330
0
100
AcDbSymbolTable
 70
     8
  0
LAYER
  5
1D76AEFFAA
330
1D76AEFF9E
100
AcDbSymbolTableRecord
100
AcDbLayerTableRecord
  2
0
 70
     0
 62
     6
  6
CONTINUOUS
  0
LAYER
  5
1D76AEFFE6
330
1D76AEFF9E
100
AcDbSymbolTableRecord
100
AcDbLayerTableRecord
  2
NITEN
 70
     0
 62
     2
  6
PHANTOM
  0
LAYER
  5
1D76AEFFE7
330
1D76AEFF9E
100
AcDbSymbolTableRecord
100
AcDbLayerTableRecord
  2
HATCH
 70
     0
 62
     4
  6
CONTINUOUS
  0
LAYER
  5
1D76AEFFE8
330
1D76AEFF9E
100
AcDbSymbolTableRecord
100
AcDbLayerTableRecord
  2
SUNPOU
 70
     0
 62
     3
  6
CONTINUOUS
  0
LAYER
  5
1D76AEFFE9
330
1D76AEFF9E
100
AcDbSymbolTableRecord
100
AcDbLayerTableRecord
  2
TEXT
 70
     0
 62
     3
  6
CONTINUOUS
  0
LAYER
  5
1D76AEFFEA
330
1D76AEFF9E
100
AcDbSymbolTableRecord
100
AcDbLayerTableRecord
  2
SAISEN
 70
     0
 62
     4
  6
CONTINUOUS
  0
LAYER
  5
1D76AEFFEB
330
1D76AEFF9E
100
AcDbSymbolTableRecord
100
AcDbLayerTableRecord
  2
JISSEN
 70
     0
 62
     7
  6
CONTINUOUS
  0
LAYER
  5
1D76AEFFEF
330
1D76AEFF9E
100
AcDbSymbolTableRecord
100
AcDbLayerTableRecord
  2
WAKU
 70
     0
 62
     5
  6
CONTINUOUS
  0
ENDTAB
  0
TABLE
  2
STYLE
  5
1D76AEFF9F
330
0
100
AcDbSymbolTable
 70
     3
  0
STYLE
  5
1D76AEFFAB
330
1D76AEFF9F
100
AcDbSymbolTableRecord
100
AcDbTextStyleTableRecord
  2
STANDARD
 70
     0
 40
0.0
 41
1.0
 50
0.0
 71
     0
 42
3.0
  3
SIMPLEX
  4

  0
STYLE
  5
1D76AEFFD2
330
1D76AEFF9F
100
AcDbSymbolTableRecord
100
AcDbTextStyleTableRecord
  2
K
 70
     0
 40
0.0
 41
1.0
 50
0.0
 71
     0
 42
3.0
  3
ROMANS.shx
  4
bigfont.shx
  0
STYLE
  5
1D76AEFFD4
330
1D76AEFF9F
100
AcDbSymbolTableRecord
100
AcDbTextStyleTableRecord
  2
BIGFONT
 70
     0
 40
0.0
 41
1.0
 50
0.0
 71
     0
 42
3.0
  3
txt.shx
  4
bigfont
  0
ENDTAB
  0
TABLE
  2
VIEW
  5
1D76AEFFA2
330
0
100
AcDbSymbolTable
 70
     0
  0
ENDTAB
  0
TABLE
  2
UCS
  5
1D76AEFFA3
330
0
100
AcDbSymbolTable
 70
     0
  0
ENDTAB
  0
TABLE
  2
APPID
  5
1D76AEFFA5
330
0
100
AcDbSymbolTable
 70
     1
  0
APPID
  5
1D76AEFFAC
330
1D76AEFFA5
100
AcDbSymbolTableRecord
100
AcDbRegAppTableRecord
  2
ACAD
 70
     0
  0
ENDTAB
  0
TABLE
  2
DIMSTYLE
  5
1D76AEFFA6
330
0
100
AcDbSymbolTable
 70
     1
  0
DIMSTYLE
105
1D76AEFFE4
330
1D76AEFFA6
100
AcDbSymbolTableRecord
100
AcDbDimStyleTableRecord
  2
IMAO
 70
     0
  3

  4

  5

  6

  7

 40
1.0
 41
1.5
 42
1.0
 43
6.0
 44
1.0
 45
0.0
 46
0.0
 47
495.0
 48
0.0
140
3.0
141
0.0
142
0.0
143
25.4
144
1.0
145
0.0
146
1.0
147
0.09
 71
     0
 72
     0
 73
     0
 74
     0
 75
     0
 76
     0
 77
     1
 78
     8
170
     0
171
     2
172
     1
173
     0
174
     1
175
     0
176
     0
177
     0
178
     0
270
     2
271
     2
272
     2
273
     2
274
     2
340
1D76AEFFD4
275
     0
280
     0
281
     0
282
     0
283
     1
284
     8
285
     8
286
     8
287
     3
288
     0
  0
ENDTAB
  0
TABLE
  2
BLOCK_RECORD
  5
1D76AEFF9D
330
0
100
AcDbSymbolTable
 70
     3
  0
BLOCK_RECORD
  5
1D76AEFFB3
102
{ACAD_XDICTIONARY
360
1D76AF0458
102
}
330
1D76AEFF9D
100
AcDbSymbolTableRecord
100
AcDbBlockTableRecord
  2
*MODEL_SPACE
  0
BLOCK_RECORD
  5
1D76AEFFB0
102
{ACAD_XDICTIONARY
360
1D76AF0456
102
}
330
1D76AEFF9D
100
AcDbSymbolTableRecord
100
AcDbBlockTableRecord
  2
*PAPER_SPACE
  0
BLOCK_RECORD
  5
1D76AEFFBD
330
1D76AEFF9D
100
AcDbSymbolTableRecord
100
AcDbBlockTableRecord
  2
STDGX5
  0
BLOCK_RECORD
  5
1D76AEFFBF
330
1D76AEFF9D
100
AcDbSymbolTableRecord
100
AcDbBlockTableRecord
  2
STDR12J
  0
BLOCK_RECORD
  5
1D76AEFFC0
330
1D76AEFF9D
100
AcDbSymbolTableRecord
100
AcDbBlockTableRecord
  2
ARROW
  0
ENDTAB
  0
ENDSEC
  0
SECTION
  2
BLOCKS
  0
BLOCK
  5
1D76AEFFF4
330
1D76AEFFB3
100
AcDbEntity
  8
0
100
AcDbBlockBegin
  2
*MODEL_SPACE
 70
     0
 10
0.0
 20
0.0
 30
0.0
  3
*MODEL_SPACE
  1

  0
ENDBLK
  5
1D76AEFFF5
330
1D76AEFFB3
100
AcDbEntity
  8
0
100
AcDbBlockEnd
  0
BLOCK
  5
1D76AEFFF2
330
1D76AEFFB0
100
AcDbEntity
 67
     1
  8
0
100
AcDbBlockBegin
  2
*PAPER_SPACE
 70
     0
 10
0.0
 20
0.0
 30
0.0
  3
*PAPER_SPACE
  1

  0
ENDBLK
  5
1D76AEFFF3
330
1D76AEFFB0
100
AcDbEntity
 67
     1
  8
0
100
AcDbBlockEnd
  0
BLOCK
  5
234
330
1D76AEFFBD
100
AcDbEntity
  8
0
100
AcDbBlockBegin
  2
STDGX5
 70
     0
 10
0.0
 20
0.0
 30
0.0
  3
STDGX5
  1

  0
ENDBLK
  5
235
330
1D76AEFFBD
100
AcDbEntity
  8
0
100
AcDbBlockEnd
  0
BLOCK
  5
355
330
1D76AEFFBF
100
AcDbEntity
  8
0
100
AcDbBlockBegin
  2
STDR12J
 70
     0
 10
0.0
 20
0.0
 30
0.0
  3
STDR12J
  1

  0
ENDBLK
  5
37A
330
1D76AEFFBF
100
AcDbEntity
  8
0
100
AcDbBlockEnd
  0
BLOCK
  5
357
330
1D76AEFFC0
100
AcDbEntity
  8
0
100
AcDbBlockBegin
  2
ARROW
 70
     0
 10
1.0
 20
0.5
 30
0.0
  3
ARROW
  1

  0
LINE
  5
358
330
1D76AEFFC0
100
AcDbEntity
  8
0
100
AcDbLine
 10
1.0
 20
0.5
 30
0.0
 11
-0.5
 21
0.098076
 31
0.0
  0
LINE
  5
359
330
1D76AEFFC0
100
AcDbEntity
  8
0
100
AcDbLine
 10
0.0
 20
0.5
 30
0.0
 11
1.0
 21
0.5
 31
0.0
  0
LINE
  5
35A
330
1D76AEFFC0
100
AcDbEntity
  8
0
100
AcDbLine
 10
1.0
 20
0.5
 30
0.0
 11
-0.5
 21
0.9019239999999999
 31
0.0
  0
ENDBLK
  5
35B
330
1D76AEFFC0
100
AcDbEntity
  8
0
100
AcDbBlockEnd
  0
ENDSEC
  0
SECTION
  2
ENTITIES
  0
INSERT
  5
55
330
1D76AEFFB3
100
AcDbEntity
  8
JISSEN
100
AcDbBlockReference
  2
STDGX5
 10
0.0
 20
0.0
 30
0.0
  0
TEXT
  5
9F
330
1D76AEFFB3
100
AcDbEntity
  8
TEXT
100
AcDbText
 10
121.4620719999998
 20
54.429308
 30
0.0
 40
4.0
  1
　　　　
  7
K
100
AcDbText
  0
INSERT
  5
37B
330
1D76AEFFB3
100
AcDbEntity
  8
JISSEN
100
AcDbBlockReference
  2
STDR12J
 10
0.0
 20
0.0
 30
0.0
  0
TEXT
  5
914BC56
330
1D76AEFFB3
100
AcDbEntity
  8
TEXT
100
AcDbText
 10
109.7999989999999
 20
262.3999999999999
 30
0.0
 40
3.0
  1
ガ ー ド
  7
K
 72
     4
 11
116.499999
 21
264.0
 31
0.0
100
AcDbText
  0
TEXT
  5
914BC57
330
1D76AEFFB3
100
AcDbEntity
  8
TEXT
100
AcDbText
 10
132.1571418571427
 20
262.5
 30
0.0
 40
3.0
  1
66ナイロン
  7
K
 72
     4
 11
141.9999989999999
 21
264.0
 31
0.0
100
AcDbText
  0
TEXT
  5
914BC58
330
1D76AEFFB3
100
AcDbEntity
  8
TEXT
100
AcDbText
 10
156.7857132857142
 20
262.5
 30
0.0
 40
3.0
  1
1
  7
K
 72
     4
 11
157.999999
 21
264.0
 31
0.0
100
AcDbText
  0
LINE
  5
D96C777
330
1D76AEFFB3
100
AcDbEntity
  8
JISSEN
100
AcDbLine
 10
91.499999
 20
267.0
 30
0.0
 11
180.999999
 21
267.0
 31
0.0
  0
LINE
  5
D96C778
330
1D76AEFFB3
100
AcDbEntity
  8
JISSEN
100
AcDbLine
 10
91.499999
 20
261.0
 30
0.0
 11
180.999999
 21
261.0
 31
0.0
  0
TEXT
  5
D96C779
330
1D76AEFFB3
100
AcDbEntity
  8
TEXT
100
AcDbText
 10
107.899999
 20
268.5
 30
0.0
 40
3.0
  1
名      称
  7
K
 72
     4
 11
116.499999
 21
270.0
 31
0.0
100
AcDbText
  0
TEXT
  5
D96C77A
330
1D76AEFFB3
100
AcDbEntity
  8
TEXT
100
AcDbText
 10
93.299999
 20
268.5
 30
0.0
 40
3.0
  1
番号
  7
K
 72
     4
 11
96.499999
 21
270.0
 31
0.0
100
AcDbText
  0
LINE
  5
D96C77B
330
1D76AEFFB3
100
AcDbEntity
  8
JISSEN
100
AcDbLine
 10
91.499999
 20
261.0
 30
0.0
 11
91.499999
 21
273.0
 31
0.0
  0
LINE
  5
D96C77C
330
1D76AEFFB3
100
AcDbEntity
  8
JISSEN
100
AcDbLine
 10
101.4999989999999
 20
273.0
 30
0.0
 11
101.4999989999999
 21
261.0
 31
0.0
  0
TEXT
  5
D96C77D
330
1D76AEFFB3
100
AcDbEntity
  8
TEXT
100
AcDbText
 10
135.1999989999999
 20
268.5
 30
0.0
 40
3.0
  1
材    質
  7
K
 72
     4
 11
141.9999989999999
 21
270.0
 31
0.0
100
AcDbText
  0
LINE
  5
D96C77E
330
1D76AEFFB3
100
AcDbEntity
  8
JISSEN
100
AcDbLine
 10
131.499999
 20
273.0
 30
0.0
 11
131.499999
 21
261.0
 31
0.0
  0
LINE
  5
D96C77F
330
1D76AEFFB3
100
AcDbEntity
  8
JISSEN
100
AcDbLine
 10
152.4999989999999
 20
261.0
 30
0.0
 11
152.4999989999999
 21
273.0
 31
0.0
  0
TEXT
  5
D96C780
330
1D76AEFFB3
100
AcDbEntity
  8
TEXT
100
AcDbText
 10
165.6999989999999
 20
268.5
 30
0.0
 40
3.0
  1
備    考
  7
K
 72
     4
 11
172.499999
 21
270.0
 31
0.0
100
AcDbText
  0
TEXT
  5
D96C781
330
1D76AEFFB3
100
AcDbEntity
  8
TEXT
100
AcDbText
 10
154.799999
 20
268.5
 30
0.0
 40
3.0
  1
個数
  7
K
 72
     4
 11
157.999999
 21
270.0
 31
0.0
100
AcDbText
  0
LINE
  5
D96C782
330
1D76AEFFB3
100
AcDbEntity
  8
JISSEN
100
AcDbLine
 10
163.499999
 20
273.0
 30
0.0
 11
163.499999
 21
261.0
 31
0.0
  0
LINE
  5
1D76AEFE46
330
1D76AEFFB3
100
AcDbEntity
  8
JISSEN
100
AcDbLine
 10
76.0
 20
189.3434489999999
 30
0.0
 11
76.0
 21
207.3434489999999
 31
0.0
  0
CIRCLE
  5
1D76AEFE48
330
1D76AEFFB3
100
AcDbEntity
  8
JISSEN
100
AcDbCircle
 10
90.5
 20
104.8652139999999
 30
0.0
 40
18.0
  0
CIRCLE
  5
1D76AEFE49
330
1D76AEFFB3
100
AcDbEntity
  8
JISSEN
100
AcDbCircle
 10
90.5
 20
104.8652139999999
 30
0.0
 40
25.0
  0
LINE
  5
1D76AEFE4E
330
1D76AEFFB3
100
AcDbEntity
  8
JISSEN
100
AcDbLine
 10
107.25
 20
168.055667
 30
0.0
 11
73.75
 21
168.055667
 31
0.0
  0
LINE
  5
1D76AEFE4F
330
1D76AEFFB3
100
AcDbEntity
  8
JISSEN
100
AcDbLine
 10
73.75
 20
170.5556669999999
 30
0.0
 11
107.25
 21
170.5556669999999
 31
0.0
  0
CIRCLE
  5
1D76AEFE50
330
1D76AEFFB3
100
AcDbEntity
  8
JISSEN
100
AcDbCircle
 10
90.5
 20
104.8652139999999
 30
0.0
 40
14.0
  0
CIRCLE
  5
1D76AEFE51
330
1D76AEFFB3
100
AcDbEntity
  8
JISSEN
100
AcDbCircle
 10
90.5
 20
104.8652139999999
 30
0.0
 40
13.0
  0
CIRCLE
  5
1D76AEFE52
330
1D76AEFFB3
100
AcDbEntity
  8
JISSEN
100
AcDbCircle
 10
90.5
 20
104.8652139999999
 30
0.0
 40
15.5
  0
LINE
  5
1D76AEFE53
330
1D76AEFFB3
100
AcDbEntity
  8
JISSEN
100
AcDbLine
 10
78.20180999999998
 20
109.078826
 30
0.0
 11
79.52888900000002
 21
108.312637
 31
0.0
  0
LINE
  5
1D76AEFE54
330
1D76AEFFB3
100
AcDbEntity
  8
JISSEN
100
AcDbLine
 10
78.20180999999998
 20
100.651603
 30
0.0
 11
79.52888900000002
 21
101.417792
 31
0.0
  0
ARC
  5
1D76AEFE55
330
1D76AEFFB3
100
AcDbEntity
  8
JISSEN
100
AcDbCircle
 10
75.0
 20
104.8652139999999
 30
0.0
 40
1.25
100
AcDbArc
 50
272.31094
 51
87.68905999999999
  0
ARC
  5
1D76AEFE56
330
1D76AEFFB3
100
AcDbEntity
  8
JISSEN
100
AcDbCircle
 10
90.5
 20
104.8652139999999
 30
0.0
 40
11.75
100
AcDbArc
 50
172.665631
 51
187.3343689999999
  0
LINE
  5
1D76AEFE57
330
1D76AEFFB3
100
AcDbEntity
  8
JISSEN
100
AcDbLine
 10
77.58682799999998
 20
103.365214
 30
0.0
 11
78.846138
 21
103.365214
 31
0.0
  0
LINE
  5
1D76AEFE58
330
1D76AEFFB3
100
AcDbEntity
  8
JISSEN
100
AcDbLine
 10
77.58682799999998
 20
106.3652139999999
 30
0.0
 11
78.846138
 21
106.3652139999999
 31
0.0
  0
ARC
  5
1D76AEFE59
330
1D76AEFFB3
100
AcDbEntity
  8
JISSEN
100
AcDbCircle
 10
90.5
 20
104.8652139999999
 30
0.0
 40
11.5
100
AcDbArc
 50
137.4441419999999
 51
162.555858
  0
ARC
  5
1D76AEFE5A
330
1D76AEFFB3
100
AcDbEntity
  8
JISSEN
100
AcDbCircle
 10
90.5
 20
104.8652139999999
 30
0.0
 40
11.5
100
AcDbArc
 50
227.444142
 51
252.555858
  0
ARC
  5
1D76AEFE5B
330
1D76AEFFB3
100
AcDbEntity
  8
JISSEN
100
AcDbCircle
 10
90.5
 20
104.8652139999999
 30
0.0
 40
11.5
100
AcDbArc
 50
197.4441419999999
 51
222.5558579999999
  0
ARC
  5
1D76AEFE5C
330
1D76AEFFB3
100
AcDbEntity
  8
JISSEN
100
AcDbCircle
 10
83.375
 20
91.274352
 30
0.0
 40
1.25
100
AcDbArc
 50
0.0
 51
157.134553
  0
LINE
  5
1D76AEFE5D
330
1D76AEFFB3
100
AcDbEntity
  8
JISSEN
100
AcDbLine
 10
81.956261
 20
95.06702500000001
 30
0.0
 11
82.72244999999998
 21
96.39410300000001
 31
0.0
  0
LINE
  5
1D76AEFE5E
330
1D76AEFFB3
100
AcDbEntity
  8
JISSEN
100
AcDbLine
 10
80.70180999999998
 20
96.32147600000001
 30
0.0
 11
82.02888900000003
 21
97.08766500000001
 31
0.0
  0
LINE
  5
1D76AEFE5F
330
1D76AEFFB3
100
AcDbEntity
  8
JISSEN
100
AcDbLine
 10
84.625
 20
90.52177099999999
 30
0.0
 11
84.625
 21
91.274352
 31
0.0
  0
ARC
  5
1D76AEFE60
330
1D76AEFFB3
100
AcDbEntity
  8
JISSEN
100
AcDbCircle
 10
90.5
 20
104.8652139999999
 30
0.0
 40
11.75
100
AcDbArc
 50
262.665631
 51
277.3343689999999
  0
LINE
  5
1D76AEFE61
330
1D76AEFFB3
100
AcDbEntity
  8
JISSEN
100
AcDbLine
 10
89.0
 20
91.952043
 30
0.0
 11
89.0
 21
93.211352
 31
0.0
  0
LINE
  5
1D76AEFE62
330
1D76AEFFB3
100
AcDbEntity
  8
JISSEN
100
AcDbLine
 10
86.286388
 20
92.56702500000001
 30
0.0
 11
87.052577
 21
93.89410299999999
 31
0.0
  0
LINE
  5
1D76AEFE63
330
1D76AEFFB3
100
AcDbEntity
  8
JISSEN
100
AcDbLine
 10
92.0
 20
91.952043
 30
0.0
 11
92.0
 21
93.211352
 31
0.0
  0
ARC
  5
1D76AEFE64
330
1D76AEFFB3
100
AcDbEntity
  8
JISSEN
100
AcDbCircle
 10
90.5
 20
104.8652139999999
 30
0.0
 40
11.5
100
AcDbArc
 50
107.444142
 51
132.555858
  0
ARC
  5
1D76AEFE65
330
1D76AEFFB3
100
AcDbEntity
  8
JISSEN
100
AcDbCircle
 10
83.375
 20
118.4560759999999
 30
0.0
 40
1.25
100
AcDbArc
 50
202.8654469999999
 51
0.0
  0
LINE
  5
1D76AEFE66
330
1D76AEFFB3
100
AcDbEntity
  8
JISSEN
100
AcDbLine
 10
81.956261
 20
114.663404
 30
0.0
 11
82.72244999999998
 21
113.336325
 31
0.0
  0
LINE
  5
1D76AEFE67
330
1D76AEFFB3
100
AcDbEntity
  8
JISSEN
100
AcDbLine
 10
80.70180999999998
 20
113.408953
 30
0.0
 11
82.02888900000003
 21
112.6427639999999
 31
0.0
  0
LINE
  5
1D76AEFE68
330
1D76AEFFB3
100
AcDbEntity
  8
JISSEN
100
AcDbLine
 10
84.625
 20
118.4560759999999
 30
0.0
 11
84.625
 21
119.208658
 31
0.0
  0
ARC
  5
1D76AEFE69
330
1D76AEFFB3
100
AcDbEntity
  8
JISSEN
100
AcDbCircle
 10
90.5
 20
104.8652139999999
 30
0.0
 40
11.75
100
AcDbArc
 50
82.66563100000002
 51
97.334369
  0
LINE
  5
1D76AEFE6A
330
1D76AEFFB3
100
AcDbEntity
  8
JISSEN
100
AcDbLine
 10
86.286388
 20
117.163404
 30
0.0
 11
87.052577
 21
115.836325
 31
0.0
  0
LINE
  5
1D76AEFE6B
330
1D76AEFFB3
100
AcDbEntity
  8
JISSEN
100
AcDbLine
 10
89.0
 20
117.778386
 30
0.0
 11
89.0
 21
116.5190759999999
 31
0.0
  0
LINE
  5
1D76AEFE6C
330
1D76AEFFB3
100
AcDbEntity
  8
JISSEN
100
AcDbLine
 10
92.0
 20
117.778386
 30
0.0
 11
92.0
 21
116.5190759999999
 31
0.0
  0
LINE
  5
1D76AEFE6D
330
1D76AEFFB3
100
AcDbEntity
  8
JISSEN
100
AcDbLine
 10
75.648842
 20
186.055667
 30
0.0
 11
82.125
 21
186.055667
 31
0.0
  0
LINE
  5
1D76AEFE6E
330
1D76AEFFB3
100
AcDbEntity
  8
JISSEN
100
AcDbLine
 10
65.5
 20
189.3434489999999
 30
0.0
 11
90.5
 21
189.3434489999999
 31
0.0
  0
LINE
  5
1D76AEFE6F
330
1D76AEFFB3
100
AcDbEntity
  8
JISSEN
100
AcDbLine
 10
72.5
 20
169.3056669999999
 30
0.0
 11
72.5
 21
186.840761
 31
0.0
  0
ARC
  5
1D76AEFE70
330
1D76AEFFB3
100
AcDbEntity
  8
JISSEN
100
AcDbCircle
 10
73.75
 20
169.3056669999999
 30
0.0
 40
1.25
100
AcDbArc
 50
90.0
 51
270.0
  0
LINE
  5
1D76AEFE73
330
1D76AEFFB3
100
AcDbEntity
  8
JISSEN
100
AcDbLine
 10
65.879039
 20
188.491552
 30
0.0
 11
75.648842
 21
186.055667
 31
0.0
  0
LINE
  5
1D76AEFE74
330
1D76AEFFB3
100
AcDbEntity
  8
JISSEN
100
AcDbLine
 10
65.5
 20
189.3434489999999
 30
0.0
 11
65.5
 21
188.9766999999999
 31
0.0
  0
ARC
  5
1D76AEFE75
330
1D76AEFFB3
100
AcDbEntity
  8
JISSEN
100
AcDbCircle
 10
66.0
 20
188.9766999999999
 30
0.0
 40
0.5
100
AcDbArc
 50
180.0
 51
256.0
  0
LINE
  5
1D76AEFE76
330
1D76AEFFB3
100
AcDbEntity
  8
JISSEN
100
AcDbLine
 10
76.25
 20
186.055667
 30
0.0
 11
76.25
 21
170.5556669999999
 31
0.0
  0
LINE
  5
1D76AEFE77
330
1D76AEFFB3
100
AcDbEntity
  8
JISSEN
100
AcDbLine
 10
74.14
 20
170.5556669999999
 30
0.0
 11
73.75
 21
170.5556669999999
 31
0.0
  0
LINE
  5
1D76AEFE78
330
1D76AEFFB3
100
AcDbEntity
  8
JISSEN
100
AcDbLine
 10
84.625
 20
186.040761
 30
0.0
 11
84.625
 21
170.5556669999999
 31
0.0
  0
LINE
  5
1D76AEFE79
330
1D76AEFFB3
100
AcDbEntity
  8
JISSEN
100
AcDbLine
 10
82.125
 20
186.340761
 30
0.0
 11
82.125
 21
170.5556669999999
 31
0.0
  0
LINE
  5
1D76AEFE7A
330
1D76AEFFB3
100
AcDbEntity
  8
JISSEN
100
AcDbLine
 10
82.125
 20
186.340761
 30
0.0
 11
82.62500000000001
 21
186.840761
 31
0.0
  0
ARC
  5
1D76AEFE7B
330
1D76AEFFB3
100
AcDbEntity
  8
JISSEN
100
AcDbCircle
 10
83.825
 20
186.040761
 30
0.0
 40
0.8
100
AcDbArc
 50
0.0
 51
90.0
  0
LINE
  5
1D76AEFE7C
330
1D76AEFFB3
100
AcDbEntity
  8
JISSEN
100
AcDbLine
 10
82.62500000000001
 20
186.840761
 30
0.0
 11
83.825
 21
186.840761
 31
0.0
  0
ARC
  5
1D76AEFE7D
330
1D76AEFFB3
100
AcDbEntity
  8
JISSEN
100
AcDbCircle
 10
90.5
 20
104.8652139999999
 30
0.0
 40
11.5
100
AcDbArc
 50
17.444142
 51
42.555858
  0
ARC
  5
1D76AEFE7E
330
1D76AEFFB3
100
AcDbEntity
  8
JISSEN
100
AcDbCircle
 10
90.5
 20
104.8652139999999
 30
0.0
 40
11.5
100
AcDbArc
 50
317.4441419999999
 51
342.555858
  0
LINE
  5
1D76AEFE7F
330
1D76AEFFB3
100
AcDbEntity
  8
JISSEN
100
AcDbLine
 10
100.2981899999999
 20
96.32147600000001
 30
0.0
 11
98.971111
 21
97.08766500000001
 31
0.0
  0
ARC
  5
1D76AEFE80
330
1D76AEFFB3
100
AcDbEntity
  8
JISSEN
100
AcDbCircle
 10
97.62500000000001
 20
91.274352
 30
0.0
 40
1.25
100
AcDbArc
 50
22.86544699999998
 51
180.0
  0
ARC
  5
1D76AEFE81
330
1D76AEFFB3
100
AcDbEntity
  8
JISSEN
100
AcDbCircle
 10
90.5
 20
104.8652139999999
 30
0.0
 40
11.5
100
AcDbArc
 50
287.444142
 51
312.5558579999998
  0
LINE
  5
1D76AEFE82
330
1D76AEFFB3
100
AcDbEntity
  8
JISSEN
100
AcDbLine
 10
94.713612
 20
92.56702500000001
 30
0.0
 11
93.947423
 21
93.89410299999999
 31
0.0
  0
LINE
  5
1D76AEFE83
330
1D76AEFFB3
100
AcDbEntity
  8
JISSEN
100
AcDbLine
 10
96.37500000000001
 20
90.52177099999999
 30
0.0
 11
96.37500000000001
 21
91.274352
 31
0.0
  0
LINE
  5
1D76AEFE84
330
1D76AEFFB3
100
AcDbEntity
  8
JISSEN
100
AcDbLine
 10
99.04373900000001
 20
95.06702500000001
 30
0.0
 11
98.27755000000001
 21
96.39410300000001
 31
0.0
  0
ARC
  5
1D76AEFE85
330
1D76AEFFB3
100
AcDbEntity
  8
JISSEN
100
AcDbCircle
 10
90.5
 20
104.8652139999999
 30
0.0
 40
11.75
100
AcDbArc
 50
352.665631
 51
7.334369
  0
LINE
  5
1D76AEFE86
330
1D76AEFFB3
100
AcDbEntity
  8
JISSEN
100
AcDbLine
 10
102.79819
 20
100.651603
 30
0.0
 11
101.4711109999999
 21
101.417792
 31
0.0
  0
LINE
  5
1D76AEFE87
330
1D76AEFFB3
100
AcDbEntity
  8
JISSEN
100
AcDbLine
 10
102.153862
 20
103.365214
 30
0.0
 11
103.4131719999999
 21
103.365214
 31
0.0
  0
LINE
  5
1D76AEFE88
330
1D76AEFFB3
100
AcDbEntity
  8
JISSEN
100
AcDbLine
 10
102.79819
 20
109.078826
 30
0.0
 11
101.4711109999999
 21
108.312637
 31
0.0
  0
LINE
  5
1D76AEFE89
330
1D76AEFFB3
100
AcDbEntity
  8
JISSEN
100
AcDbLine
 10
103.4131719999999
 20
106.3652139999999
 30
0.0
 11
102.153862
 21
106.3652139999999
 31
0.0
  0
ARC
  5
1D76AEFE8A
330
1D76AEFFB3
100
AcDbEntity
  8
JISSEN
100
AcDbCircle
 10
106.0
 20
104.8652139999999
 30
0.0
 40
1.25
100
AcDbArc
 50
92.31094
 51
267.6890599999999
  0
LINE
  5
1D76AEFE8B
330
1D76AEFFB3
100
AcDbEntity
  8
JISSEN
100
AcDbLine
 10
100.2981899999999
 20
113.408953
 30
0.0
 11
98.971111
 21
112.6427639999999
 31
0.0
  0
ARC
  5
1D76AEFE8C
330
1D76AEFFB3
100
AcDbEntity
  8
JISSEN
100
AcDbCircle
 10
97.62500000000001
 20
118.4560759999999
 30
0.0
 40
1.25
100
AcDbArc
 50
180.0
 51
337.1345529999998
  0
ARC
  5
1D76AEFE8D
330
1D76AEFFB3
100
AcDbEntity
  8
JISSEN
100
AcDbCircle
 10
90.5
 20
104.8652139999999
 30
0.0
 40
11.5
100
AcDbArc
 50
47.444142
 51
72.555858
  0
LINE
  5
1D76AEFE8E
330
1D76AEFFB3
100
AcDbEntity
  8
JISSEN
100
AcDbLine
 10
94.713612
 20
117.163404
 30
0.0
 11
93.947423
 21
115.836325
 31
0.0
  0
LINE
  5
1D76AEFE8F
330
1D76AEFFB3
100
AcDbEntity
  8
JISSEN
100
AcDbLine
 10
96.37500000000001
 20
118.4560759999999
 30
0.0
 11
96.37500000000001
 21
119.208658
 31
0.0
  0
LINE
  5
1D76AEFE90
330
1D76AEFFB3
100
AcDbEntity
  8
JISSEN
100
AcDbLine
 10
99.04373900000001
 20
114.663404
 30
0.0
 11
98.27755000000001
 21
113.336325
 31
0.0
  0
LINE
  5
1D76AEFEAC
330
1D76AEFFB3
100
AcDbEntity
  8
JISSEN
100
AcDbLine
 10
76.5
 20
207.8434489999999
 30
0.0
 11
104.4999999999999
 21
207.8434489999999
 31
0.0
  0
LINE
  5
1D76AEFEAD
330
1D76AEFFB3
100
AcDbEntity
  8
JISSEN
100
AcDbLine
 10
76.0
 20
207.3434489999999
 30
0.0
 11
90.5
 21
207.3434489999999
 31
0.0
  0
LINE
  5
1D76AEFEAF
330
1D76AEFFB3
100
AcDbEntity
  8
JISSEN
100
AcDbLine
 10
76.5
 20
207.8434489999999
 30
0.0
 11
76.0
 21
207.3434489999999
 31
0.0
  0
LWPOLYLINE
  5
1D76AEFFFC
330
1D76AEFFB3
100
AcDbEntity
  8
WAKU
100
AcDbPolyline
 90
        4
 70
     1
 43
0.0
 10
180.999999
 20
0.0
 10
0.0
 20
0.0
 10
0.0
 20
273.0
 10
180.999999
 20
273.0
  0
LINE
  5
1D76AF0050
330
1D76AEFFB3
100
AcDbEntity
  8
JISSEN
100
AcDbLine
 10
98.87500000000001
 20
186.340761
 30
0.0
 11
98.87500000000001
 21
170.5556669999999
 31
0.0
  0
LINE
  5
1D76AF0051
330
1D76AEFFB3
100
AcDbEntity
  8
JISSEN
100
AcDbLine
 10
96.37500000000001
 20
186.040761
 30
0.0
 11
96.37500000000001
 21
170.5556669999999
 31
0.0
  0
LINE
  5
1D76AF0052
330
1D76AEFFB3
100
AcDbEntity
  8
JISSEN
100
AcDbLine
 10
104.75
 20
186.055667
 30
0.0
 11
104.75
 21
170.5556669999999
 31
0.0
  0
LINE
  5
1D76AF0053
330
1D76AEFFB3
100
AcDbEntity
  8
JISSEN
100
AcDbLine
 10
108.4999999999999
 20
169.3056669999999
 30
0.0
 11
108.4999999999999
 21
186.840761
 31
0.0
  0
ARC
  5
1D76AF0054
330
1D76AEFFB3
100
AcDbEntity
  8
JISSEN
100
AcDbCircle
 10
107.25
 20
169.3056669999999
 30
0.0
 40
1.25
100
AcDbArc
 50
270.0
 51
90.0
  0
LINE
  5
1D76AF0055
330
1D76AEFFB3
100
AcDbEntity
  8
JISSEN
100
AcDbLine
 10
106.8599999999999
 20
170.5556669999999
 30
0.0
 11
107.25
 21
170.5556669999999
 31
0.0
  0
LINE
  5
1D76AF0056
330
1D76AEFFB3
100
AcDbEntity
  8
JISSEN
100
AcDbLine
 10
104.4999999999999
 20
207.8434489999999
 30
0.0
 11
105.0
 21
207.3434489999999
 31
0.0
  0
LINE
  5
1D76AF0057
330
1D76AEFFB3
100
AcDbEntity
  8
JISSEN
100
AcDbLine
 10
105.3511579999999
 20
186.055667
 30
0.0
 11
98.87500000000001
 21
186.055667
 31
0.0
  0
LINE
  5
1D76AF0058
330
1D76AEFFB3
100
AcDbEntity
  8
JISSEN
100
AcDbLine
 10
105.0
 20
207.3434489999999
 30
0.0
 11
90.5
 21
207.3434489999999
 31
0.0
  0
LINE
  5
1D76AF0059
330
1D76AEFFB3
100
AcDbEntity
  8
JISSEN
100
AcDbLine
 10
115.5
 20
189.3434489999999
 30
0.0
 11
90.5
 21
189.3434489999999
 31
0.0
  0
LINE
  5
1D76AF005A
330
1D76AEFFB3
100
AcDbEntity
  8
JISSEN
100
AcDbLine
 10
105.0
 20
189.3434489999999
 30
0.0
 11
105.0
 21
207.3434489999999
 31
0.0
  0
LINE
  5
1D76AF005B
330
1D76AEFFB3
100
AcDbEntity
  8
JISSEN
100
AcDbLine
 10
115.1209609999999
 20
188.491552
 30
0.0
 11
105.3511579999999
 21
186.055667
 31
0.0
  0
ARC
  5
1D76AF005C
330
1D76AEFFB3
100
AcDbEntity
  8
JISSEN
100
AcDbCircle
 10
115.0
 20
188.9766999999999
 30
0.0
 40
0.5
100
AcDbArc
 50
284.0
 51
0.000000000000007
  0
LINE
  5
1D76AF005D
330
1D76AEFFB3
100
AcDbEntity
  8
JISSEN
100
AcDbLine
 10
115.5
 20
189.3434489999999
 30
0.0
 11
115.5
 21
188.9766999999999
 31
0.0
  0
LINE
  5
1D76AF005E
330
1D76AEFFB3
100
AcDbEntity
  8
JISSEN
100
AcDbLine
 10
98.375
 20
186.840761
 30
0.0
 11
97.17500000000001
 21
186.840761
 31
0.0
  0
LINE
  5
1D76AF005F
330
1D76AEFFB3
100
AcDbEntity
  8
JISSEN
100
AcDbLine
 10
98.87500000000001
 20
186.340761
 30
0.0
 11
98.375
 21
186.840761
 31
0.0
  0
ARC
  5
1D76AF0060
330
1D76AEFFB3
100
AcDbEntity
  8
JISSEN
100
AcDbCircle
 10
97.17500000000001
 20
186.040761
 30
0.0
 40
0.8
100
AcDbArc
 50
90.0
 51
180.0
  0
LINE
  5
1D76AF0061
330
1D76AEFFB3
100
AcDbEntity
  8
JISSEN
100
AcDbLine
 10
96.37513888007729
 20
186.055667
 30
0.0
 11
84.62486111992268
 21
186.055667
 31
0.0
  0
HATCH
  5
1D76AF013D
330
1D76AEFFB3
100
AcDbEntity
  8
HATCH
100
AcDbHatch
 10
0.0
 20
0.0
 30
0.0
210
0.0
220
0.0
230
1.0
  2
ANSI31
 70
     0
 71
     1
 91
        2
 92
        7
 72
     0
 73
     1
 93
       14
 10
288.5000820436804
 20
134.078594204876
 10
288.5000820436804
 20
129.0785942048759
 10
296.0000824056803
 20
129.0785942048759
 10
345.0635085272791
 20
129.078594204876
 10
345.1804410999123
 20
129.901751303428
 10
345.3463984104399
 20
130.7043957981969
 10
345.6692809742796
 20
131.344102471506
 10
346.1359701504457
 20
131.8449897593585
 10
346.6999149539746
 20
132.2504433349842
 10
347.3145643999039
 20
132.6038488716125
 10
347.9333675032658
 20
132.9485920424705
 10
348.509773279101
 20
133.3280585207898
 10
348.9972307424438
 20
133.7856339797983
 10
349.1752916390337
 20
134.078594204876
 97
        5
330
1D76AF0141
330
1D76AF01C3
330
1D76AF013E
330
1D76AF01B3
330
1D76AF016C
 92
        7
 72
     0
 73
     1
 93
       13
 10
192.8248731723267
 20
134.078594204876
 10
193.0029340689168
 20
133.7856339797985
 10
193.4903915322598
 20
133.3280585207898
 10
194.0667973080951
 20
132.9485920424705
 10
194.6856004114578
 20
132.6038488716116
 10
195.300249857386
 20
132.2504433349843
 10
195.8641946609151
 20
131.8449897593586
 10
196.3308838370809
 20
131.3441024715058
 10
196.6537664009206
 20
130.7043957981969
 10
196.8197237114486
 20
129.9017513034274
 10
196.9366562840815
 20
129.0785942048759
 10
253.5000827676802
 20
129.0785942048759
 10
253.5000827676801
 20
134.078594204876
 97
        4
330
1D76AF01C1
330
1D76AF0143
330
1D76AF014E
330
1D76AF0142
 75
     0
 76
     1
 52
90.0
 41
15.0
 77
     0
 78
     1
 53
135.0
 43
180.9999989676642
 44
10.00000004432012
 45
-1.325825214724775
 46
-1.325825214724775
 79
     0
 47
0.1827436095906343
 98
        2
 10
297.4023325995343
 20
132.9505696614217
 10
245.0951453540453
 20
132.4023387742182
  0
LINE
  5
1D76AF013E
102
{ACAD_REACTORS
330
1D76AF013D
102
}
330
1D76AEFFB3
100
AcDbEntity
  8
JISSEN
100
AcDbLine
 10
288.5000820436804
 20
134.078594204876
 30
0.0
 11
288.5000820436804
 21
129.0785942048759
 31
0.0
  0
LINE
  5
1D76AF013F
330
1D76AEFFB3
100
AcDbEntity
  8
JISSEN
100
AcDbLine
 10
256.5000824056803
 20
129.0785942048759
 30
0.0
 11
256.5000824056803
 21
147.0785942048759
 31
0.0
  0
LINE
  5
1D76AF0140
330
1D76AEFFB3
100
AcDbEntity
  8
JISSEN
100
AcDbLine
 10
285.5000824056803
 20
129.0785942048759
 30
0.0
 11
285.5000824056803
 21
147.0785942048759
 31
0.0
  0
LWPOLYLINE
  5
1D76AF0141
102
{ACAD_REACTORS
330
1D76AF013D
102
}
330
1D76AEFFB3
100
AcDbEntity
  8
SAISEN
100
AcDbPolyline
 90
       11
 70
     0
 43
0.0
 10
349.1752916390337
 20
134.0785942048759
 10
348.9972307424438
 20
133.7856339797984
 10
348.5097732791008
 20
133.3280585207897
 10
347.9333675032658
 20
132.9485920424706
 10
347.3145643999025
 20
132.6038488716118
 10
346.6999149539745
 20
132.2504433349841
 10
346.1359701504457
 20
131.8449897593585
 10
345.6692809742796
 20
131.3441024715059
 10
345.3463984104399
 20
130.7043957981969
 10
345.180441099912
 20
129.9017513034276
 10
345.0635085272791
 20
129.0785942048759
  0
LINE
  5
1D76AF0142
102
{ACAD_REACTORS
330
1D76AF013D
102
}
330
1D76AEFFB3
100
AcDbEntity
  8
JISSEN
100
AcDbLine
 10
253.5000827676801
 20
134.078594204876
 30
0.0
 11
253.5000827676801
 21
129.0785942048759
 31
0.0
  0
LWPOLYLINE
  5
1D76AF0143
102
{ACAD_REACTORS
330
1D76AF013D
102
}
330
1D76AEFFB3
100
AcDbEntity
  8
SAISEN
100
AcDbPolyline
 90
       11
 70
     0
 43
0.0
 10
192.8248731723268
 20
134.0785942048759
 10
193.0029340689168
 20
133.7856339797984
 10
193.4903915322598
 20
133.3280585207897
 10
194.0667973080948
 20
132.9485920424706
 10
194.6856004114582
 20
132.6038488716118
 10
195.300249857386
 20
132.2504433349841
 10
195.864194660915
 20
131.8449897593585
 10
196.3308838370809
 20
131.3441024715059
 10
196.6537664009207
 20
130.7043957981969
 10
196.8197237114486
 20
129.9017513034276
 10
196.9366562840816
 20
129.0785942048759
  0
LINE
  5
1D76AF014A
330
1D76AEFFB3
100
AcDbEntity
  8
JISSEN
100
AcDbLine
 10
256.0000824056803
 20
129.0785942048759
 30
0.0
 11
246.0000824056803
 21
129.0785942048759
 31
0.0
  0
LINE
  5
1D76AF014B
330
1D76AEFFB3
100
AcDbEntity
  8
JISSEN
100
AcDbLine
 10
246.5560480984759
 20
128.1825844203169
 30
0.0
 11
256.148924014101
 21
125.7908118267516
 31
0.0
  0
LINE
  5
1D76AF014C
330
1D76AEFFB3
100
AcDbEntity
  8
JISSEN
100
AcDbLine
 10
246.0000824056803
 20
129.0785942048759
 30
0.0
 11
271.0000824056803
 21
129.0785942048759
 31
0.0
  0
LINE
  5
1D76AF014D
330
1D76AEFFB3
100
AcDbEntity
  8
JISSEN
100
AcDbLine
 10
256.0000824056803
 20
129.0785942048759
 30
0.0
 11
246.0000824056803
 21
129.0785942048759
 31
0.0
  0
LINE
  5
1D76AF014E
102
{ACAD_REACTORS
330
1D76AF013D
102
}
330
1D76AEFFB3
100
AcDbEntity
  8
JISSEN
100
AcDbLine
 10
256.0000824056803
 20
129.0785942048759
 30
0.0
 11
196.9366562840816
 21
129.0785942048759
 31
0.0
  0
ARC
  5
1D76AF0150
330
1D76AEFFB3
100
AcDbEntity
  8
JISSEN
100
AcDbCircle
 10
247.0000824056802
 20
129.0785942048759
 30
0.0
 40
1.0
100
AcDbArc
 50
180.0
 51
243.6384294393531
  0
TEXT
  5
1D76AF0169
330
1D76AEFFB3
100
AcDbEntity
  8
SUNPOU
100
AcDbText
 10
329.8805991775876
 20
7.849423943005375
 30
0.0
 40
3.0
  1
X  ガード取付状態
  7
K
100
AcDbText
  0
TEXT
  5
1D76AF016A
330
1D76AEFFB3
100
AcDbEntity
  8
SUNPOU
100
AcDbText
 10
329.8805991775876
 20
2.849423943005376
 30
0.0
 40
3.0
  1
尺度　1/1
  7
K
100
AcDbText
  0
LINE
  5
1D76AF016C
102
{ACAD_REACTORS
330
1D76AF013D
102
}
330
1D76AEFFB3
100
AcDbEntity
  8
JISSEN
100
AcDbLine
 10
286.0000824056804
 20
129.0785942048759
 30
0.0
 11
345.0635085272791
 21
129.0785942048759
 31
0.0
  0
CIRCLE
  5
1D76AF016D
330
1D76AEFFB3
100
AcDbEntity
  8
SUNPOU
100
AcDbCircle
 10
308.7167606230381
 20
86.177692877633
 30
0.0
 40
6.0
  0
LINE
  5
1D76AF016E
330
1D76AEFFB3
100
AcDbEntity
  8
SUNPOU
100
AcDbLine
 10
290.2220995592823
 20
126.8805893125964
 30
0.0
 11
306.234683236117
 21
91.64022817228646
 31
0.0
  0
TEXT
  5
1D76AF016F
330
1D76AEFFB3
100
AcDbEntity
  8
SUNPOU
100
AcDbText
 10
256.895332051611
 20
83.92769287763304
 30
0.0
 40
4.5
  1
1
  7
K
 72
     4
 11
258.7167606230396
 21
86.17769287763303
 31
0.0
100
AcDbText
  0
CIRCLE
  5
1D76AF0170
330
1D76AEFFB3
100
AcDbEntity
  8
SUNPOU
100
AcDbCircle
 10
258.7167606230396
 20
86.17769287763303
 30
0.0
 40
6.0
  0
ARC
  5
1D76AF0197
330
1D76AEFFB3
100
AcDbEntity
  8
JISSEN
100
AcDbCircle
 10
277.6750824056803
 20
125.7759062162487
 30
0.0
 40
0.8
100
AcDbArc
 50
90.0
 51
179.999999999999
  0
LINE
  5
1D76AF0198
330
1D76AEFFB3
100
AcDbEntity
  8
JISSEN
100
AcDbLine
 10
271.0000824056803
 20
107.7908118267515
 30
0.0
 11
287.7500824056803
 21
107.7908118267515
 31
0.0
  0
LINE
  5
1D76AF0199
330
1D76AEFFB3
100
AcDbEntity
  8
JISSEN
100
AcDbLine
 10
287.7500824056803
 20
110.2908118267516
 30
0.0
 11
271.0000824056803
 21
110.2908118267516
 31
0.0
  0
LINE
  5
1D76AF019A
330
1D76AEFFB3
100
AcDbEntity
  8
JISSEN
100
AcDbLine
 10
296.0000824056803
 20
129.0785942048759
 30
0.0
 11
271.0000824056803
 21
129.0785942048759
 31
0.0
  0
LINE
  5
1D76AF019B
330
1D76AEFFB3
100
AcDbEntity
  8
SUNPOU
100
AcDbLine
 10
271.0000824039505
 20
117.4000917966339
 30
0.0
 11
260.9133669889725
 21
91.76114346603648
 31
0.0
  0
ARC
  5
1D76AF019C
330
1D76AEFFB3
100
AcDbEntity
  8
JISSEN
100
AcDbCircle
 10
254.2500824056803
 20
109.0408118267516
 30
0.0
 40
1.25
100
AcDbArc
 50
90.0
 51
270.0
  0
LINE
  5
1D76AF019D
330
1D76AEFFB3
100
AcDbEntity
  8
JISSEN
100
AcDbLine
 10
253.0000824056803
 20
109.0408118267516
 30
0.0
 11
253.0000824056803
 21
126.5759062162487
 31
0.0
  0
LINE
  5
1D76AF019E
330
1D76AEFFB3
100
AcDbEntity
  8
JISSEN
100
AcDbLine
 10
271.0000824056803
 20
107.7908118267515
 30
0.0
 11
254.2500824056803
 21
107.7908118267515
 31
0.0
  0
LINE
  5
1D76AF019F
330
1D76AEFFB3
100
AcDbEntity
  8
JISSEN
100
AcDbLine
 10
262.6250824056802
 20
126.0759062162486
 30
0.0
 11
263.1250824056802
 21
126.5759062162487
 31
0.0
  0
LINE
  5
1D76AF01A0
330
1D76AEFFB3
100
AcDbEntity
  8
JISSEN
100
AcDbLine
 10
254.2500824056803
 20
110.2908118267516
 30
0.0
 11
271.0000824056803
 21
110.2908118267516
 31
0.0
  0
LINE
  5
1D76AF01A1
330
1D76AEFFB3
100
AcDbEntity
  8
JISSEN
100
AcDbLine
 10
260.0000824039505
 20
125.578594204876
 30
0.0
 11
260.0000824039505
 21
118.900091796634
 31
0.0
  0
LINE
  5
1D76AF01A2
330
1D76AEFFB3
100
AcDbEntity
  8
JISSEN
100
AcDbLine
 10
256.7500824056803
 20
125.7908118267516
 30
0.0
 11
256.7500824056803
 21
110.2908118267516
 31
0.0
  0
LINE
  5
1D76AF01A3
330
1D76AEFFB3
100
AcDbEntity
  8
JISSEN
100
AcDbLine
 10
262.6250824056802
 20
126.0759062162486
 30
0.0
 11
262.6250824056802
 21
110.2908118267516
 31
0.0
  0
LINE
  5
1D76AF01A4
330
1D76AEFFB3
100
AcDbEntity
  8
JISSEN
100
AcDbLine
 10
254.6400824056803
 20
110.2908118267516
 30
0.0
 11
254.2500824056803
 21
110.2908118267516
 31
0.0
  0
ARC
  5
1D76AF01A5
330
1D76AEFFB3
100
AcDbEntity
  8
JISSEN
100
AcDbCircle
 10
261.5000824039505
 20
118.900091796634
 30
0.0
 40
1.5
100
AcDbArc
 50
180.0
 51
270.0
  0
LINE
  5
1D76AF01A6
330
1D76AEFFB3
100
AcDbEntity
  8
JISSEN
100
AcDbLine
 10
261.5000824039505
 20
117.4000917966339
 30
0.0
 11
262.6250824056802
 21
117.4000917966339
 31
0.0
  0
LINE
  5
1D76AF01A7
330
1D76AEFFB3
100
AcDbEntity
  8
JISSEN
100
AcDbLine
 10
256.148924014101
 20
125.7908118267516
 30
0.0
 11
262.6250824056802
 21
125.7908118267516
 31
0.0
  0
LINE
  5
1D76AF01A8
330
1D76AEFFB3
100
AcDbEntity
  8
JISSEN
100
AcDbLine
 10
265.1250824056802
 20
125.7759062162487
 30
0.0
 11
265.1250824056802
 21
110.2908118267516
 31
0.0
  0
LINE
  5
1D76AF01A9
330
1D76AEFFB3
100
AcDbEntity
  8
JISSEN
100
AcDbLine
 10
276.8750824056803
 20
125.7759062162487
 30
0.0
 11
276.8750824056803
 21
110.2908118267516
 31
0.0
  0
LINE
  5
1D76AF01AA
330
1D76AEFFB3
100
AcDbEntity
  8
JISSEN
100
AcDbLine
 10
265.1250824056802
 20
117.4000917966339
 30
0.0
 11
271.0000824039505
 21
117.4000917966339
 31
0.0
  0
INSERT
  5
1D76AF01AB
330
1D76AEFFB3
100
AcDbEntity
  8
SUNPOU
100
AcDbBlockReference
  2
ARROW
 10
271.0000824039506
 20
117.4000917966341
 30
0.0
 41
1.499999999999991
 42
1.5
 43
1.5
 50
68.52464040596571
  0
LINE
  5
1D76AF01AC
330
1D76AEFFB3
100
AcDbEntity
  8
JISSEN
100
AcDbLine
 10
276.8750824056803
 20
117.4000917966339
 30
0.0
 11
271.0000824039505
 21
117.4000917966339
 31
0.0
  0
LINE
  5
1D76AF01AD
330
1D76AEFFB3
100
AcDbEntity
  8
JISSEN
100
AcDbLine
 10
265.1249435328614
 20
125.7908118267516
 30
0.0
 11
271.0000824056803
 21
125.7908118267516
 31
0.0
  0
ARC
  5
1D76AF01AE
330
1D76AEFFB3
100
AcDbEntity
  8
JISSEN
100
AcDbCircle
 10
264.3250824056802
 20
125.7759062162487
 30
0.0
 40
0.8
100
AcDbArc
 50
0.0000000000008212
 51
90.0
  0
LINE
  5
1D76AF01AF
330
1D76AEFFB3
100
AcDbEntity
  8
JISSEN
100
AcDbLine
 10
263.1250824056802
 20
126.5759062162487
 30
0.0
 11
264.3250824056802
 21
126.5759062162487
 31
0.0
  0
LINE
  5
1D76AF01B0
330
1D76AEFFB3
100
AcDbEntity
  8
JISSEN
100
AcDbLine
 10
276.8752212784991
 20
125.7908118267516
 30
0.0
 11
271.0000824056803
 21
125.7908118267516
 31
0.0
  0
ARC
  5
1D76AF01B1
330
1D76AEFFB3
100
AcDbEntity
  8
JISSEN
100
AcDbCircle
 10
287.7500824056803
 20
109.0408118267516
 30
0.0
 40
1.25
100
AcDbArc
 50
270.0
 51
90.0
  0
LINE
  5
1D76AF01B2
330
1D76AEFFB3
100
AcDbEntity
  8
JISSEN
100
AcDbLine
 10
289.0000824056802
 20
109.0408118267516
 30
0.0
 11
289.0000824056802
 21
126.5759062162487
 31
0.0
  0
LINE
  5
1D76AF01B3
102
{ACAD_REACTORS
330
1D76AF013D
102
}
330
1D76AEFFB3
100
AcDbEntity
  8
JISSEN
100
AcDbLine
 10
286.0000824056803
 20
129.0785942048759
 30
0.0
 11
296.0000824056803
 21
129.0785942048759
 31
0.0
  0
LINE
  5
1D76AF01B4
330
1D76AEFFB3
100
AcDbEntity
  8
JISSEN
100
AcDbLine
 10
295.4441167128846
 20
128.1825844203169
 30
0.0
 11
285.8512407972595
 21
125.7908118267516
 31
0.0
  0
INSERT
  5
1D76AF01B5
330
1D76AEFFB3
100
AcDbEntity
  8
SUNPOU
100
AcDbBlockReference
  2
ARROW
 10
290.2220995592827
 20
126.8805893125962
 30
0.0
 41
1.500000000000001
 42
1.5
 43
1.5
 50
114.436189858151
  0
LINE
  5
1D76AF01B6
330
1D76AEFFB3
100
AcDbEntity
  8
JISSEN
100
AcDbLine
 10
282.0000824039505
 20
125.578594204876
 30
0.0
 11
282.0000824039505
 21
118.900091796634
 31
0.0
  0
LINE
  5
1D76AF01B7
330
1D76AEFFB3
100
AcDbEntity
  8
JISSEN
100
AcDbLine
 10
285.2500824056803
 20
125.7908118267516
 30
0.0
 11
285.2500824056803
 21
110.2908118267516
 31
0.0
  0
LINE
  5
1D76AF01B8
330
1D76AEFFB3
100
AcDbEntity
  8
JISSEN
100
AcDbLine
 10
279.3750824056802
 20
126.0759062162486
 30
0.0
 11
279.3750824056802
 21
110.2908118267516
 31
0.0
  0
ARC
  5
1D76AF01B9
330
1D76AEFFB3
100
AcDbEntity
  8
JISSEN
100
AcDbCircle
 10
280.5000824039505
 20
118.900091796634
 30
0.0
 40
1.5
100
AcDbArc
 50
270.0
 51
0.0
  0
LINE
  5
1D76AF01BA
330
1D76AEFFB3
100
AcDbEntity
  8
JISSEN
100
AcDbLine
 10
280.5000824039505
 20
117.4000917966339
 30
0.0
 11
279.3750824056802
 21
117.4000917966339
 31
0.0
  0
LINE
  5
1D76AF01BB
330
1D76AEFFB3
100
AcDbEntity
  8
JISSEN
100
AcDbLine
 10
287.3600824056803
 20
110.2908118267516
 30
0.0
 11
287.7500824056803
 21
110.2908118267516
 31
0.0
  0
LINE
  5
1D76AF01BC
330
1D76AEFFB3
100
AcDbEntity
  8
JISSEN
100
AcDbLine
 10
285.8512407972595
 20
125.7908118267516
 30
0.0
 11
279.3750824056802
 21
125.7908118267516
 31
0.0
  0
LINE
  5
1D76AF01BD
330
1D76AEFFB3
100
AcDbEntity
  8
JISSEN
100
AcDbLine
 10
278.8750824056803
 20
126.5759062162487
 30
0.0
 11
277.6750824056803
 21
126.5759062162487
 31
0.0
  0
LINE
  5
1D76AF01BE
330
1D76AEFFB3
100
AcDbEntity
  8
JISSEN
100
AcDbLine
 10
279.3750824056802
 20
126.0759062162486
 30
0.0
 11
278.8750824056803
 21
126.5759062162487
 31
0.0
  0
ARC
  5
1D76AF01BF
330
1D76AEFFB3
100
AcDbEntity
  8
JISSEN
100
AcDbCircle
 10
295.0000824056802
 20
129.0785942048759
 30
0.0
 40
1.0
100
AcDbArc
 50
296.3615705606468
 51
0.0
  0
TEXT
  5
1D76AF01C0
330
1D76AEFFB3
100
AcDbEntity
  8
SUNPOU
100
AcDbText
 10
306.573903480181
 20
83.92769287763298
 30
0.0
 40
4.5
  1
2
  7
K
 72
     4
 11
308.7167606230381
 21
86.177692877633
 31
0.0
100
AcDbText
  0
LINE
  5
1D76AF01C1
102
{ACAD_REACTORS
330
1D76AF013D
102
}
330
1D76AEFFB3
100
AcDbEntity
  8
JISSEN
100
AcDbLine
 10
256.5000824056803
 20
134.078594204876
 30
0.0
 11
192.8248731723268
 21
134.078594204876
 31
0.0
  0
LWPOLYLINE
  5
1D76AF01C2
330
1D76AEFFB3
100
AcDbEntity
  8
NITEN
100
AcDbPolyline
 90
        5
 70
     0
 43
0.0
 10
287.9999989676641
 20
218.0891431105989
 10
287.9999989676641
 20
238.9268607617446
 42
-0.5882352941176476
 10
270.9999989676641
 20
238.9268607617446
 42
0.5882352941176477
 10
253.9999989676641
 20
238.9268607617445
 10
253.9999989676641
 20
218.0891431105989
  0
LINE
  5
1D76AF01C3
102
{ACAD_REACTORS
330
1D76AF013D
102
}
330
1D76AEFFB3
100
AcDbEntity
  8
JISSEN
100
AcDbLine
 10
285.5000824056803
 20
134.078594204876
 30
0.0
 11
349.1752916390337
 21
134.078594204876
 31
0.0
  0
LINE
  5
1D76AF01C4
330
1D76AEFFB3
100
AcDbEntity
  8
JISSEN
100
AcDbLine
 10
281.2620067692904
 20
186.716669841264
 30
0.0
 11
281.7071910240133
 21
172.4714855865418
 31
0.0
  0
LINE
  5
1D76AF01C5
330
1D76AEFFB3
100
AcDbEntity
  8
SAISEN
100
AcDbLine
 10
280.5077052193766
 20
173.6709713911787
 30
0.0
 11
280.0625209646535
 21
187.9161556459009
 31
0.0
  0
LINE
  5
1D76AF01C6
330
1D76AEFFB3
100
AcDbEntity
  8
JISSEN
100
AcDbLine
 10
260.7381580420701
 20
186.716669841264
 30
0.0
 11
260.292973787347
 21
172.4714855865418
 31
0.0
  0
LINE
  5
1D76AF01C7
330
1D76AEFFB3
100
AcDbEntity
  8
SAISEN
100
AcDbLine
 10
261.4924595919839
 20
173.6709713911787
 30
0.0
 11
261.9376438467069
 21
187.9161556459009
 31
0.0
  0
LINE
  5
1D76AF01C8
330
1D76AEFFB3
100
AcDbEntity
  8
JISSEN
100
AcDbLine
 10
285.0000824056802
 20
147.578594204876
 30
0.0
 11
271.0000824056803
 21
147.578594204876
 31
0.0
  0
LINE
  5
1D76AF01C9
330
1D76AEFFB3
100
AcDbEntity
  8
JISSEN
100
AcDbLine
 10
285.5000824056803
 20
147.0785942048759
 30
0.0
 11
271.0000824056803
 21
147.0785942048759
 31
0.0
  0
LINE
  5
1D76AF01CA
330
1D76AEFFB3
100
AcDbEntity
  8
JISSEN
100
AcDbLine
 10
284.8564888662313
 20
168.4785942048758
 30
0.0
 11
271.0000824056801
 21
168.4785942048759
 31
0.0
  0
LINE
  5
1D76AF01CB
330
1D76AEFFB3
100
AcDbEntity
  8
JISSEN
100
AcDbLine
 10
271.0000824056801
 20
171.4785942048709
 30
0.0
 11
284.8564888662313
 21
171.4785942048758
 31
0.0
  0
LINE
  5
1D76AF01CC
330
1D76AEFFB3
100
AcDbEntity
  8
JISSEN
100
AcDbLine
 10
271.0000824056801
 20
173.6709713911787
 30
0.0
 11
281.6697052193766
 21
173.6709713911787
 31
0.0
  0
LINE
  5
1D76AF01CD
330
1D76AEFFB3
100
AcDbEntity
  8
JISSEN
100
AcDbLine
 10
271.0000824056801
 20
166.3785942048759
 30
0.0
 11
282.7000824056801
 21
166.3785942048759
 31
0.0
  0
LINE
  5
1D76AF01CE
330
1D76AEFFB3
100
AcDbEntity
  8
JISSEN
100
AcDbLine
 10
271.0000824056801
 20
166.9785942048759
 30
0.0
 11
281.2500824056807
 21
166.9785942048759
 31
0.0
  0
LINE
  5
1D76AF01CF
330
1D76AEFFB3
100
AcDbEntity
  8
JISSEN
100
AcDbLine
 10
259.3000824056803
 20
166.3785942048759
 30
0.0
 11
259.3000824056803
 21
147.578594204876
 31
0.0
  0
LINE
  5
1D76AF01D0
330
1D76AEFFB3
100
AcDbEntity
  8
JISSEN
100
AcDbLine
 10
256.5000824056803
 20
147.0785942048759
 30
0.0
 11
271.0000824056803
 21
147.0785942048759
 31
0.0
  0
LINE
  5
1D76AF01D1
330
1D76AEFFB3
100
AcDbEntity
  8
JISSEN
100
AcDbLine
 10
257.0000824056803
 20
147.578594204876
 30
0.0
 11
271.0000824056803
 21
147.578594204876
 31
0.0
  0
LINE
  5
1D76AF01D2
330
1D76AEFFB3
100
AcDbEntity
  8
JISSEN
100
AcDbLine
 10
257.0000824056803
 20
147.578594204876
 30
0.0
 11
256.5000824056803
 21
147.0785942048759
 31
0.0
  0
LINE
  5
1D76AF01D3
330
1D76AEFFB3
100
AcDbEntity
  8
JISSEN
100
AcDbLine
 10
271.0000824056803
 20
166.9785942048759
 30
0.0
 11
260.7500824056799
 21
166.9785942048759
 31
0.0
  0
LINE
  5
1D76AF01D4
330
1D76AEFFB3
100
AcDbEntity
  8
JISSEN
100
AcDbLine
 10
271.0000824056803
 20
166.3785942048759
 30
0.0
 11
259.3000824056803
 21
166.3785942048759
 31
0.0
  0
LINE
  5
1D76AF01D5
330
1D76AEFFB3
100
AcDbEntity
  8
JISSEN
100
AcDbLine
 10
257.1436759451293
 20
171.4785942048659
 30
0.0
 11
271.0000824056801
 21
171.4785942048709
 31
0.0
  0
LINE
  5
1D76AF01D6
330
1D76AEFFB3
100
AcDbEntity
  8
JISSEN
100
AcDbLine
 10
257.1436759451293
 20
168.4785942048758
 30
0.0
 11
271.0000824056801
 21
168.4785942048759
 31
0.0
  0
LINE
  5
1D76AF01D7
330
1D76AEFFB3
100
AcDbEntity
  8
JISSEN
100
AcDbLine
 10
258.6500824056803
 20
168.4785942048759
 30
0.0
 11
271.0000824056801
 21
168.4785942048759
 31
0.0
  0
LINE
  5
1D76AF01D8
330
1D76AEFFB3
100
AcDbEntity
  8
JISSEN
100
AcDbLine
 10
271.0000824056803
 20
173.6709713911787
 30
0.0
 11
260.3304595919839
 21
173.6709713911787
 31
0.0
  0
LINE
  5
1D76AF01D9
330
1D76AEFFB3
100
AcDbEntity
  8
JISSEN
100
AcDbLine
 10
257.1436759451293
 20
171.4785942048758
 30
0.0
 11
257.1436759451293
 21
168.4785942048758
 31
0.0
  0
ARC
  5
1D76AF01DA
330
1D76AEFFB3
100
AcDbEntity
  8
JISSEN
100
AcDbCircle
 10
259.9000824056803
 20
167.4785942048759
 30
0.0
 40
1.0
100
AcDbArc
 50
0.000000000000007
 51
90.0
  0
LINE
  5
1D76AF01DB
330
1D76AEFFB3
100
AcDbEntity
  8
JISSEN
100
AcDbLine
 10
260.2500824056799
 20
166.4785942048759
 30
0.0
 11
260.2500824056799
 21
166.3785942048759
 31
0.0
  0
LINE
  5
1D76AF01DC
330
1D76AEFFB3
100
AcDbEntity
  8
JISSEN
100
AcDbLine
 10
260.90008240568
 20
166.9785942048759
 30
0.0
 11
260.9000824056803
 21
167.4785942048759
 31
0.0
  0
LINE
  5
1D76AF01DD
330
1D76AEFFB3
100
AcDbEntity
  8
SAISEN
100
AcDbLine
 10
260.7500824056799
 20
166.9785942048759
 30
0.0
 11
260.7500824056799
 21
166.3785942048759
 31
0.0
  0
LINE
  5
1D76AF01DE
330
1D76AEFFB3
100
AcDbEntity
  8
JISSEN
100
AcDbLine
 10
260.7500824056799
 20
166.9785942048759
 30
0.0
 11
260.2500824056799
 21
166.4785942048759
 31
0.0
  0
LINE
  5
1D76AF01DF
330
1D76AEFFB3
100
AcDbEntity
  8
JISSEN
100
AcDbLine
 10
261.4924595919839
 20
173.6709713911787
 30
0.0
 11
259.3000824056803
 21
171.4785942048751
 31
0.0
  0
LINE
  5
1D76AF01E0
330
1D76AEFFB3
100
AcDbEntity
  8
JISSEN
100
AcDbLine
 10
264.0718791754047
 20
168.4785942048759
 30
0.0
 11
264.0718791754047
 21
171.4785942048734
 31
0.0
  0
LINE
  5
1D76AF01E1
330
1D76AEFFB3
100
AcDbEntity
  8
JISSEN
100
AcDbLine
 10
282.7000824056802
 20
166.3785942048759
 30
0.0
 11
282.7000824056802
 21
147.578594204876
 31
0.0
  0
LINE
  5
1D76AF01E2
330
1D76AEFFB3
100
AcDbEntity
  8
JISSEN
100
AcDbLine
 10
285.0000824056802
 20
147.578594204876
 30
0.0
 11
285.5000824056803
 21
147.0785942048759
 31
0.0
  0
LINE
  5
1D76AF01E3
330
1D76AEFFB3
100
AcDbEntity
  8
JISSEN
100
AcDbLine
 10
277.9282856359558
 20
168.4785942048759
 30
0.0
 11
277.9282856359558
 21
171.4785942048734
 31
0.0
  0
LINE
  5
1D76AF01E4
330
1D76AEFFB3
100
AcDbEntity
  8
JISSEN
100
AcDbLine
 10
281.2500824056807
 20
166.9785942048759
 30
0.0
 11
281.7500824056807
 21
166.4785942048759
 31
0.0
  0
LINE
  5
1D76AF01E5
330
1D76AEFFB3
100
AcDbEntity
  8
SAISEN
100
AcDbLine
 10
281.2500824056807
 20
166.9785942048759
 30
0.0
 11
281.2500824056807
 21
166.3785942048759
 31
0.0
  0
LINE
  5
1D76AF01E6
330
1D76AEFFB3
100
AcDbEntity
  8
JISSEN
100
AcDbLine
 10
281.7500824056807
 20
166.4785942048759
 30
0.0
 11
281.7500824056807
 21
166.3785942048759
 31
0.0
  0
LINE
  5
1D76AF01E7
330
1D76AEFFB3
100
AcDbEntity
  8
JISSEN
100
AcDbLine
 10
281.1000824056806
 20
166.9785942048759
 30
0.0
 11
281.1000824056802
 21
167.4785942048759
 31
0.0
  0
ARC
  5
1D76AF01E8
330
1D76AEFFB3
100
AcDbEntity
  8
JISSEN
100
AcDbCircle
 10
282.1000824056802
 20
167.4785942048759
 30
0.0
 40
1.0
100
AcDbArc
 50
90.0
 51
180.0
  0
LINE
  5
1D76AF01E9
330
1D76AEFFB3
100
AcDbEntity
  8
JISSEN
100
AcDbLine
 10
280.5077052193766
 20
173.6709713911787
 30
0.0
 11
282.7000824056801
 21
171.4785942048751
 31
0.0
  0
LINE
  5
1D76AF01EA
330
1D76AEFFB3
100
AcDbEntity
  8
JISSEN
100
AcDbLine
 10
284.8564888662313
 20
171.4785942048758
 30
0.0
 11
284.8564888662313
 21
168.4785942048758
 31
0.0
  0
LINE
  5
1D76AF01EB
330
1D76AEFFB3
100
AcDbEntity
  8
JISSEN
100
AcDbLine
 10
280.0000824056794
 20
187.9785942048751
 30
0.0
 11
271.0000824056801
 21
187.9785942048751
 31
0.0
  0
LINE
  5
1D76AF01EC
330
1D76AEFFB3
100
AcDbEntity
  8
JISSEN
100
AcDbLine
 10
281.2620067692904
 20
186.716669841264
 30
0.0
 11
271.0000824056801
 21
186.716669841264
 31
0.0
  0
LWPOLYLINE
  5
1D76AF01ED
330
1D76AEFFB3
100
AcDbEntity
  8
NITEN
100
AcDbPolyline
 90
       15
 70
     1
 43
0.0
 10
256.9999989676643
 20
177.5891431105989
 42
0.4142135623730927
 10
258.4999989676641
 20
176.0891431105989
 10
281.5940501386606
 20
176.0891431105989
 10
283.4999989676641
 20
176.0891431105989
 42
0.4142135623730925
 10
284.9999989676641
 20
177.5891431105989
 10
284.9999989676641
 20
188.6351591368168
 42
-0.4142135623730943
 10
289.9999989676641
 20
193.6351591368168
 42
0.4142135623730951
 10
291.9999989676643
 20
195.6351591368169
 10
291.9999989676641
 20
216.0891431105989
 42
0.4142135623730949
 10
289.9999989676643
 20
218.0891431105989
 10
251.9999989676641
 20
218.0891431105989
 42
0.4142135623730951
 10
249.9999989676641
 20
216.0891431105989
 10
249.9999989676641
 20
195.6351591368169
 42
0.4142135623730951
 10
251.9999989676641
 20
193.6351591368168
 42
-0.4142135623730961
 10
256.9999989676643
 20
188.6351591368168
  0
LINE
  5
1D76AF01EE
330
1D76AEFFB3
100
AcDbEntity
  8
JISSEN
100
AcDbLine
 10
260.7381580420701
 20
186.716669841264
 30
0.0
 11
271.0000824056803
 21
186.716669841264
 31
0.0
  0
LINE
  5
1D76AF01EF
330
1D76AEFFB3
100
AcDbEntity
  8
JISSEN
100
AcDbLine
 10
262.000082405681
 20
187.9785942048751
 30
0.0
 11
271.0000824056803
 21
187.9785942048751
 31
0.0
  0
LINE
  5
1D76AF01F0
330
1D76AEFFB3
100
AcDbEntity
  8
JISSEN
100
AcDbLine
 10
260.7381580420701
 20
186.716669841264
 30
0.0
 11
262.000082405681
 21
187.9785942048751
 31
0.0
  0
LINE
  5
1D76AF01F1
330
1D76AEFFB3
100
AcDbEntity
  8
JISSEN
100
AcDbLine
 10
281.2620067692904
 20
186.716669841264
 30
0.0
 11
280.0000824056794
 21
187.9785942048751
 31
0.0
  0
TEXT
  5
1D76AF01F2
330
1D76AEFFB3
100
AcDbEntity
  8
TEXT
100
AcDbText
 10
287.457141100807
 20
262.50000004432
 30
0.0
 40
3.0
  1
X  型ヘッド
  7
K
 72
     4
 11
297.4999982436641
 21
264.00000004432
 31
0.0
100
AcDbText
  0
LINE
  5
1D76AF01F3
330
1D76AEFFB3
100
AcDbEntity
  8
JISSEN
100
AcDbLine
 10
272.4999982436641
 20
255.00000004432
 30
0.0
 11
361.9999982436643
 21
255.00000004432
 31
0.0
  0
TEXT
  5
1D76AF01F4
330
1D76AEFFB3
100
AcDbEntity
  8
TEXT
100
AcDbText
 10
288.8999982436641
 20
268.50000004432
 30
0.0
 40
3.0
  1
名      称
  7
K
 72
     4
 11
297.4999982436641
 21
270.00000004432
 31
0.0
100
AcDbText
  0
LINE
  5
1D76AF01F5
330
1D76AEFFB3
100
AcDbEntity
  8
JISSEN
100
AcDbLine
 10
272.4999982436641
 20
261.00000004432
 30
0.0
 11
361.9999982436643
 21
261.00000004432
 31
0.0
  0
LINE
  5
1D76AF01F6
330
1D76AEFFB3
100
AcDbEntity
  8
JISSEN
100
AcDbLine
 10
272.4999982436641
 20
267.00000004432
 30
0.0
 11
361.9999982436643
 21
267.00000004432
 31
0.0
  0
TEXT
  5
1D76AF01F7
330
1D76AEFFB3
100
AcDbEntity
  8
TEXT
100
AcDbText
 10
276.2857125293784
 20
262.50000004432
 30
0.0
 40
3.0
  1
1
  7
K
 72
     4
 11
277.4999982436641
 21
264.00000004432
 31
0.0
100
AcDbText
  0
LINE
  5
1D76AF01F8
330
1D76AEFFB3
100
AcDbEntity
  8
JISSEN
100
AcDbLine
 10
282.4999982436641
 20
273.0000000443201
 30
0.0
 11
282.4999982436641
 21
255.00000004432
 31
0.0
  0
LINE
  5
1D76AF01F9
330
1D76AEFFB3
100
AcDbEntity
  8
JISSEN
100
AcDbLine
 10
272.4999982436641
 20
255.00000004432
 30
0.0
 11
272.4999982436641
 21
273.0000000443201
 31
0.0
  0
LWPOLYLINE
  5
1D76AF01FA
330
1D76AEFFB3
100
AcDbEntity
  8
NITEN
100
AcDbPolyline
 90
        2
 70
     0
 43
0.0
 10
287.9999989676641
 20
238.9268607617446
 42
0.5882352941176295
 10
270.9999989676641
 20
238.926860761745
 42
0.5882352941176295
  0
TEXT
  5
1D76AF01FB
330
1D76AEFFB3
100
AcDbEntity
  8
TEXT
100
AcDbText
 10
276.3830706491985
 20
256.50000004432
 30
0.0
 40
3.0
  1
2
  7
K
 72
     4
 11
277.81164207777
 21
258.00000004432
 31
0.0
100
AcDbText
  0
TEXT
  5
1D76AF01FC
330
1D76AEFFB3
100
AcDbEntity
  8
TEXT
100
AcDbText
 10
289.8857125293784
 20
256.50000004432
 30
0.0
 40
3.0
  1
ガード X
  7
K
 72
     4
 11
297.4999982436641
 21
258.00000004432
 31
0.0
100
AcDbText
  0
TEXT
  5
1D76AF01FD
330
1D76AEFFB3
100
AcDbEntity
  8
TEXT
100
AcDbText
 10
274.2999982436641
 20
268.50000004432
 30
0.0
 40
3.0
  1
番号
  7
K
 72
     4
 11
277.4999982436641
 21
270.00000004432
 31
0.0
100
AcDbText
  0
TEXT
  5
1D76AF01FE
330
1D76AEFFB3
100
AcDbEntity
  8
TEXT
100
AcDbText
 10
337.6795467300734
 20
262.50000004432
 30
0.0
 40
3.0
  1
1
  7
K
 72
     4
 11
338.8938324443591
 21
264.00000004432
 31
0.0
100
AcDbText
  0
LINE
  5
1D76AF01FF
330
1D76AEFFB3
100
AcDbEntity
  8
JISSEN
100
AcDbLine
 10
344.4999982436641
 20
273.0000000443201
 30
0.0
 11
344.4999982436641
 21
255.00000004432
 31
0.0
  0
LINE
  5
1D76AF0200
330
1D76AEFFB3
100
AcDbEntity
  8
JISSEN
100
AcDbLine
 10
333.4999982436641
 20
255.00000004432
 30
0.0
 11
333.4999982436641
 21
273.0000000443201
 31
0.0
  0
LINE
  5
1D76AF0201
330
1D76AEFFB3
100
AcDbEntity
  8
JISSEN
100
AcDbLine
 10
312.4999982436641
 20
273.0000000443201
 30
0.0
 11
312.4999982436641
 21
255.00000004432
 31
0.0
  0
TEXT
  5
1D76AF0203
330
1D76AEFFB3
100
AcDbEntity
  8
TEXT
100
AcDbText
 10
317.8249982436641
 20
264.30000004432
 30
0.0
 40
3.0
  1
%%u      
  7
K
 72
     4
 11
322.9999982436641
 21
264.00000004432
 31
0.0
100
AcDbText
  0
TEXT
  5
1D76AF0204
330
1D76AEFFB3
100
AcDbEntity
  8
TEXT
100
AcDbText
 10
337.6795467300734
 20
256.5808352206611
 30
0.0
 40
3.0
  1
1
  7
K
 72
     4
 11
338.8938324443591
 21
258.0808352206612
 31
0.0
100
AcDbText
  0
TEXT
  5
1D76AF0205
330
1D76AEFFB3
100
AcDbEntity
  8
TEXT
100
AcDbText
 10
316.1999982436641
 20
268.50000004432
 30
0.0
 40
3.0
  1
材    質
  7
K
 72
     4
 11
322.9999982436641
 21
270.00000004432
 31
0.0
100
AcDbText
  0
TEXT
  5
1D76AF0206
330
1D76AEFFB3
100
AcDbEntity
  8
TEXT
100
AcDbText
 10
346.6999982436641
 20
268.50000004432
 30
0.0
 40
3.0
  1
備    考
  7
K
 72
     4
 11
353.4999982436641
 21
270.00000004432
 31
0.0
100
AcDbText
  0
TEXT
  5
1D76AF0207
330
1D76AEFFB3
100
AcDbEntity
  8
TEXT
100
AcDbText
 10
335.7999982436641
 20
268.50000004432
 30
0.0
 40
3.0
  1
個数
  7
K
 72
     4
 11
338.9999982436641
 21
270.00000004432
 31
0.0
100
AcDbText
  0
LWPOLYLINE
  5
1D76AF0208
330
1D76AEFFB3
100
AcDbEntity
  8
WAKU
100
AcDbPolyline
 90
        4
 70
     1
 43
0.0
 10
361.999998
 20
0.0
 10
180.999999
 20
0.0
 10
180.999999
 20
273.0
 10
361.999998
 20
273.0
  0
TEXT
  5
1D76AF0209
330
1D76AEFFB3
100
AcDbEntity
  8
SUNPOU
100
AcDbText
 10
158.6040856539415
 20
2.849423943005376
 30
0.0
 40
3.0
  1
尺度　1/1
  7
K
100
AcDbText
  0
TEXT
  5
1D76AF020A
330
1D76AEFFB3
100
AcDbEntity
  8
SUNPOU
100
AcDbText
 10
158.6040856539415
 20
7.849423943005375
 30
0.0
 40
3.0
  1
ガードX
  7
K
100
AcDbText
  0
HATCH
  5
1D76AF0320
330
1D76AEFFB3
100
AcDbEntity
  8
HATCH
100
AcDbHatch
 10
0.0
 20
0.0
 30
0.0
210
0.0
220
0.0
230
1.0
  2
ANSI31
 70
     0
 71
     1
 91
        2
 92
        7
 72
     0
 73
     1
 93
       14
 10
469.5000812544496
 20
134.0785944797105
 10
469.5000812544496
 20
129.0785944797105
 10
477.0000816164496
 20
129.0785944797105
 10
526.0635077380483
 20
129.0785944797105
 10
526.1804403106813
 20
129.9017515782627
 10
526.3463976212092
 20
130.7043960730312
 10
526.6692801850489
 20
131.3441027463404
 10
527.1359693612152
 20
131.8449900341934
 10
527.6999141647434
 20
132.2504436098187
 10
528.3145636106724
 20
132.6038491464462
 10
528.9333667140344
 20
132.948592317305
 10
529.5097724898702
 20
133.3280587956244
 10
529.9972299532132
 20
133.7856342546333
 10
530.1752908498031
 20
134.0785944797105
 97
        5
330
1D76AF0324
330
1D76AF03EC
330
1D76AF0321
330
1D76AF03DC
330
1D76AF035D
 92
        7
 72
     0
 73
     1
 93
       13
 10
373.8248723830961
 20
134.0785944797105
 10
374.0029332796859
 20
133.7856342546331
 10
374.4903907430289
 20
133.3280587956245
 10
375.0667965188645
 20
132.9485923173051
 10
375.6855996222268
 20
132.6038491464446
 10
376.3002490681557
 20
132.2504436098183
 10
376.8641938716843
 20
131.8449900341932
 10
377.3308830478504
 20
131.3441027463405
 10
377.6537656116899
 20
130.7043960730317
 10
377.8197229222177
 20
129.9017515782634
 10
377.9366554948508
 20
129.0785944797105
 10
434.5000819784494
 20
129.0785944797104
 10
434.5000819784495
 20
134.0785944797105
 97
        4
330
1D76AF03EA
330
1D76AF0326
330
1D76AF0331
330
1D76AF0325
 75
     0
 76
     1
 52
90.0
 41
15.0
 77
     0
 78
     1
 53
135.0
 43
361.9999981784335
 44
10.00000031915476
 45
-1.325825214724775
 46
-1.325825214724775
 79
     0
 47
0.1827436095906343
 98
        2
 10
478.4023318103036
 20
132.9505699362564
 10
426.0951445648147
 20
132.402339049053
  0
LINE
  5
1D76AF0321
102
{ACAD_REACTORS
330
1D76AF0320
102
}
330
1D76AEFFB3
100
AcDbEntity
  8
JISSEN
100
AcDbLine
 10
469.5000812544496
 20
134.0785944797105
 30
0.0
 11
469.5000812544496
 21
129.0785944797105
 31
0.0
  0
LINE
  5
1D76AF0322
330
1D76AEFFB3
100
AcDbEntity
  8
JISSEN
100
AcDbLine
 10
437.5000816164495
 20
129.0785944797105
 30
0.0
 11
437.5000816164495
 21
147.0785944797106
 31
0.0
  0
LINE
  5
1D76AF0323
330
1D76AEFFB3
100
AcDbEntity
  8
JISSEN
100
AcDbLine
 10
466.5000816164496
 20
129.0785944797105
 30
0.0
 11
466.5000816164496
 21
147.0785944797106
 31
0.0
  0
LWPOLYLINE
  5
1D76AF0324
102
{ACAD_REACTORS
330
1D76AF0320
102
}
330
1D76AEFFB3
100
AcDbEntity
  8
SAISEN
100
AcDbPolyline
 90
       11
 70
     0
 43
0.0
 10
530.1752908498031
 20
134.0785944797104
 10
529.9972299532131
 20
133.7856342546331
 10
529.5097724898702
 20
133.3280587956245
 10
528.9333667140351
 20
132.9485923173052
 10
528.3145636106718
 20
132.6038491464464
 10
527.6999141647438
 20
132.2504436098188
 10
527.1359693612149
 20
131.8449900341932
 10
526.6692801850489
 20
131.3441027463406
 10
526.3463976212093
 20
130.7043960730316
 10
526.1804403106813
 20
129.9017515782622
 10
526.0635077380483
 20
129.0785944797105
  0
LINE
  5
1D76AF0325
102
{ACAD_REACTORS
330
1D76AF0320
102
}
330
1D76AEFFB3
100
AcDbEntity
  8
JISSEN
100
AcDbLine
 10
434.5000819784495
 20
134.0785944797105
 30
0.0
 11
434.5000819784495
 21
129.0785944797105
 31
0.0
  0
LWPOLYLINE
  5
1D76AF0326
102
{ACAD_REACTORS
330
1D76AF0320
102
}
330
1D76AEFFB3
100
AcDbEntity
  8
SAISEN
100
AcDbPolyline
 90
       11
 70
     0
 43
0.0
 10
373.8248723830961
 20
134.0785944797104
 10
374.0029332796861
 20
133.7856342546331
 10
374.490390743029
 20
133.3280587956245
 10
375.0667965188641
 20
132.9485923173052
 10
375.6855996222274
 20
132.6038491464464
 10
376.3002490681553
 20
132.2504436098188
 10
376.8641938716843
 20
131.8449900341932
 10
377.3308830478503
 20
131.3441027463406
 10
377.6537656116898
 20
130.7043960730316
 10
377.8197229222178
 20
129.9017515782622
 10
377.9366554948508
 20
129.0785944797105
  0
LINE
  5
1D76AF032D
330
1D76AEFFB3
100
AcDbEntity
  8
JISSEN
100
AcDbLine
 10
437.0000816164496
 20
129.0785944797105
 30
0.0
 11
427.0000816164496
 21
129.0785944797105
 31
0.0
  0
LINE
  5
1D76AF032E
330
1D76AEFFB3
100
AcDbEntity
  8
JISSEN
100
AcDbLine
 10
427.5560473092452
 20
128.1825846951514
 30
0.0
 11
437.1489232248704
 21
125.7908121015862
 31
0.0
  0
LINE
  5
1D76AF032F
330
1D76AEFFB3
100
AcDbEntity
  8
JISSEN
100
AcDbLine
 10
427.0000816164496
 20
129.0785944797105
 30
0.0
 11
452.0000816164496
 21
129.0785944797105
 31
0.0
  0
LINE
  5
1D76AF0330
330
1D76AEFFB3
100
AcDbEntity
  8
JISSEN
100
AcDbLine
 10
437.0000816164496
 20
129.0785944797105
 30
0.0
 11
427.0000816164496
 21
129.0785944797105
 31
0.0
  0
LINE
  5
1D76AF0331
102
{ACAD_REACTORS
330
1D76AF0320
102
}
330
1D76AEFFB3
100
AcDbEntity
  8
JISSEN
100
AcDbLine
 10
437.0000816164496
 20
129.0785944797104
 30
0.0
 11
377.9366554948508
 21
129.0785944797105
 31
0.0
  0
ARC
  5
1D76AF0333
330
1D76AEFFB3
100
AcDbEntity
  8
JISSEN
100
AcDbCircle
 10
428.0000816164497
 20
129.0785944797105
 30
0.0
 40
1.0
100
AcDbArc
 50
180.0
 51
243.6384294393531
  0
TEXT
  5
1D76AF035A
330
1D76AEFFB3
100
AcDbEntity
  8
SUNPOU
100
AcDbText
 10
505.536895081965
 20
7.849424217840009
 30
0.0
 40
3.0
  1
XQR  ガード取付状態
  7
K
100
AcDbText
  0
TEXT
  5
1D76AF035B
330
1D76AEFFB3
100
AcDbEntity
  8
SUNPOU
100
AcDbText
 10
505.536895081965
 20
2.849424217840008
 30
0.0
 40
3.0
  1
尺度　1/1
  7
K
100
AcDbText
  0
LINE
  5
1D76AF035D
102
{ACAD_REACTORS
330
1D76AF0320
102
}
330
1D76AEFFB3
100
AcDbEntity
  8
JISSEN
100
AcDbLine
 10
467.0000816164496
 20
129.0785944797104
 30
0.0
 11
526.0635077380483
 21
129.0785944797105
 31
0.0
  0
CIRCLE
  5
1D76AF035E
330
1D76AEFFB3
100
AcDbEntity
  8
SUNPOU
100
AcDbCircle
 10
489.7167598338073
 20
86.17769315246762
 30
0.0
 40
6.0
  0
LINE
  5
1D76AF035F
330
1D76AEFFB3
100
AcDbEntity
  8
SUNPOU
100
AcDbLine
 10
471.2220987700517
 20
126.880589587431
 30
0.0
 11
487.2346824468862
 21
91.64022844712109
 31
0.0
  0
TEXT
  5
1D76AF0360
330
1D76AEFFB3
100
AcDbEntity
  8
SUNPOU
100
AcDbText
 10
437.8953312623803
 20
83.92769315246763
 30
0.0
 40
4.5
  1
1
  7
K
 72
     4
 11
439.7167598338088
 21
86.17769315246762
 31
0.0
100
AcDbText
  0
CIRCLE
  5
1D76AF0361
330
1D76AEFFB3
100
AcDbEntity
  8
SUNPOU
100
AcDbCircle
 10
439.7167598338088
 20
86.17769315246762
 30
0.0
 40
6.0
  0
ARC
  5
1D76AF03A2
330
1D76AEFFB3
100
AcDbEntity
  8
JISSEN
100
AcDbCircle
 10
458.6750816164497
 20
125.7759064910833
 30
0.0
 40
0.8
100
AcDbArc
 50
90.0
 51
179.999999999999
  0
LINE
  5
1D76AF03A3
330
1D76AEFFB3
100
AcDbEntity
  8
JISSEN
100
AcDbLine
 10
452.0000816164496
 20
107.7908121015862
 30
0.0
 11
468.7500816164495
 21
107.7908121015862
 31
0.0
  0
LINE
  5
1D76AF03A4
330
1D76AEFFB3
100
AcDbEntity
  8
JISSEN
100
AcDbLine
 10
468.7500816164495
 20
110.2908121015863
 30
0.0
 11
452.0000816164496
 21
110.2908121015863
 31
0.0
  0
LINE
  5
1D76AF03A5
330
1D76AEFFB3
100
AcDbEntity
  8
JISSEN
100
AcDbLine
 10
477.0000816164496
 20
129.0785944797105
 30
0.0
 11
452.0000816164496
 21
129.0785944797105
 31
0.0
  0
ARC
  5
1D76AF03A6
330
1D76AEFFB3
100
AcDbEntity
  8
JISSEN
100
AcDbCircle
 10
435.2500816164496
 20
109.0408121015862
 30
0.0
 40
1.25
100
AcDbArc
 50
90.0
 51
270.0
  0
LINE
  5
1D76AF03A7
330
1D76AEFFB3
100
AcDbEntity
  8
JISSEN
100
AcDbLine
 10
434.0000816164496
 20
109.0408121015862
 30
0.0
 11
434.0000816164496
 21
126.5759064910834
 31
0.0
  0
LINE
  5
1D76AF03A8
330
1D76AEFFB3
100
AcDbEntity
  8
SUNPOU
100
AcDbLine
 10
452.0000816164495
 20
113.5823976225672
 30
0.0
 11
442.1708381076241
 21
91.65286436677574
 31
0.0
  0
LINE
  5
1D76AF03A9
330
1D76AEFFB3
100
AcDbEntity
  8
JISSEN
100
AcDbLine
 10
452.0000816164496
 20
107.7908121015862
 30
0.0
 11
435.2500816164496
 21
107.7908121015862
 31
0.0
  0
LINE
  5
1D76AF03AA
330
1D76AEFFB3
100
AcDbEntity
  8
JISSEN
100
AcDbLine
 10
443.6250816164497
 20
126.0759064910834
 30
0.0
 11
444.1250816164497
 21
126.5759064910834
 31
0.0
  0
LINE
  5
1D76AF03AB
330
1D76AEFFB3
100
AcDbEntity
  8
JISSEN
100
AcDbLine
 10
435.2500816164496
 20
110.2908121015863
 30
0.0
 11
452.0000816164496
 21
110.2908121015863
 31
0.0
  0
LINE
  5
1D76AF03AC
330
1D76AEFFB3
100
AcDbEntity
  8
JISSEN
100
AcDbLine
 10
437.7500816164497
 20
125.7908121015862
 30
0.0
 11
437.7500816164497
 21
110.2908121015863
 31
0.0
  0
LINE
  5
1D76AF03AD
330
1D76AEFFB3
100
AcDbEntity
  8
JISSEN
100
AcDbLine
 10
443.6250816164497
 20
126.0759064910834
 30
0.0
 11
443.6250816164497
 21
110.2908121015863
 31
0.0
  0
LINE
  5
1D76AF03AE
330
1D76AEFFB3
100
AcDbEntity
  8
JISSEN
100
AcDbLine
 10
441.0000816164497
 20
125.7908121015862
 30
0.0
 11
441.0000816164497
 21
118.8793363968172
 31
0.0
  0
LINE
  5
1D76AF03AF
330
1D76AEFFB3
100
AcDbEntity
  8
JISSEN
100
AcDbLine
 10
435.6400816164496
 20
110.2908121015863
 30
0.0
 11
435.2500816164496
 21
110.2908121015863
 31
0.0
  0
ARC
  5
1D76AF03B0
330
1D76AEFFB3
100
AcDbEntity
  8
JISSEN
100
AcDbCircle
 10
441.7500816164497
 20
118.8793363968172
 30
0.0
 40
0.75
100
AcDbArc
 50
180.0
 51
270.0
  0
LINE
  5
1D76AF03B1
330
1D76AEFFB3
100
AcDbEntity
  8
JISSEN
100
AcDbLine
 10
441.7500816164497
 20
118.1293363968172
 30
0.0
 11
443.6250816164497
 21
118.1293363968172
 31
0.0
  0
LINE
  5
1D76AF03B2
330
1D76AEFFB3
100
AcDbEntity
  8
JISSEN
100
AcDbLine
 10
437.1489232248704
 20
125.7908121015862
 30
0.0
 11
443.6250816164497
 21
125.7908121015862
 31
0.0
  0
LINE
  5
1D76AF03B3
330
1D76AEFFB3
100
AcDbEntity
  8
JISSEN
100
AcDbLine
 10
446.1250816164496
 20
125.7759064910833
 30
0.0
 11
446.1250816164496
 21
110.2908121015863
 31
0.0
  0
LINE
  5
1D76AF03B4
330
1D76AEFFB3
100
AcDbEntity
  8
JISSEN
100
AcDbLine
 10
457.8750816164497
 20
125.7759064910833
 30
0.0
 11
457.8750816164497
 21
110.2908121015863
 31
0.0
  0
LINE
  5
1D76AF03B5
330
1D76AEFFB3
100
AcDbEntity
  8
JISSEN
100
AcDbLine
 10
452.0000816164496
 20
114.8068874181672
 30
0.0
 11
449.2449795763497
 21
114.8068874181672
 31
0.0
  0
LINE
  5
1D76AF03B6
330
1D76AEFFB3
100
AcDbEntity
  8
JISSEN
100
AcDbLine
 10
446.1250816164496
 20
118.1293363968172
 30
0.0
 11
452.0000816164496
 21
118.1293363968172
 31
0.0
  0
LINE
  5
1D76AF03B7
330
1D76AEFFB3
100
AcDbEntity
  8
SAISEN
100
AcDbLine
 10
452.0000816164496
 20
115.6742343567172
 30
0.0
 11
446.1250816164496
 21
115.6742343567172
 31
0.0
  0
LINE
  5
1D76AF03B8
330
1D76AEFFB3
100
AcDbEntity
  8
SAISEN
100
AcDbLine
 10
452.0000816164496
 20
115.8272955811672
 30
0.0
 11
446.1250816164496
 21
115.8272955811672
 31
0.0
  0
LINE
  5
1D76AF03B9
330
1D76AEFFB3
100
AcDbEntity
  8
SAISEN
100
AcDbLine
 10
452.0000816164496
 20
116.031377213767
 30
0.0
 11
446.1250816164496
 21
116.031377213767
 31
0.0
  0
LINE
  5
1D76AF03BA
330
1D76AEFFB3
100
AcDbEntity
  8
SAISEN
100
AcDbLine
 10
452.0000816164496
 20
113.5823976225672
 30
0.0
 11
446.1250816164496
 21
113.5823976225672
 31
0.0
  0
LINE
  5
1D76AF03BB
330
1D76AEFFB3
100
AcDbEntity
  8
SAISEN
100
AcDbLine
 10
452.0000816164496
 20
113.9395404796171
 30
0.0
 11
446.1250816164496
 21
113.9395404796171
 31
0.0
  0
LINE
  5
1D76AF03BC
330
1D76AEFFB3
100
AcDbEntity
  8
SAISEN
100
AcDbLine
 10
452.0000816164496
 20
113.7864792551672
 30
0.0
 11
446.1250816164496
 21
113.7864792551672
 31
0.0
  0
INSERT
  5
1D76AF03BD
330
1D76AEFFB3
100
AcDbEntity
  8
SUNPOU
100
AcDbBlockReference
  2
ARROW
 10
452.0000816164496
 20
113.5823976225672
 30
0.0
 41
1.499999999999995
 42
1.5
 43
1.5
 50
65.85714906178463
  0
ARC
  5
1D76AF03BE
330
1D76AEFFB3
100
AcDbEntity
  8
JISSEN
100
AcDbCircle
 10
449.2449795763497
 20
115.1130098670672
 30
0.0
 40
0.3061224489
100
AcDbArc
 50
180.0
 51
270.0
  0
ARC
  5
1D76AF03BF
330
1D76AEFFB3
100
AcDbEntity
  8
JISSEN
100
AcDbCircle
 10
449.2449795763497
 20
114.5007649692671
 30
0.0
 40
0.3061224489
100
AcDbArc
 50
90.0
 51
180.0
  0
LINE
  5
1D76AF03C0
330
1D76AEFFB3
100
AcDbEntity
  8
JISSEN
100
AcDbLine
 10
448.9388571274496
 20
114.5007649692671
 30
0.0
 11
448.9388571274496
 21
114.0926017040672
 31
0.0
  0
ARC
  5
1D76AF03C1
330
1D76AEFFB3
100
AcDbEntity
  8
SAISEN
100
AcDbCircle
 10
448.7857959029996
 20
114.0926017040672
 30
0.0
 40
0.15306122445
100
AcDbArc
 50
270.0
 51
0.000000000000007
  0
LINE
  5
1D76AF03C2
330
1D76AEFFB3
100
AcDbEntity
  8
JISSEN
100
AcDbLine
 10
450.2653877393496
 20
114.8068874181672
 30
0.0
 11
449.2449795763497
 21
114.8068874181672
 31
0.0
  0
LINE
  5
1D76AF03C3
330
1D76AEFFB3
100
AcDbEntity
  8
JISSEN
100
AcDbLine
 10
448.9388571274496
 20
115.1130098670672
 30
0.0
 11
448.9388571274496
 21
115.5211731322672
 31
0.0
  0
ARC
  5
1D76AF03C4
330
1D76AEFFB3
100
AcDbEntity
  8
SAISEN
100
AcDbCircle
 10
448.7857959029996
 20
115.5211731322672
 30
0.0
 40
0.15306122445
100
AcDbArc
 50
0.000000000000007
 51
90.0
  0
LINE
  5
1D76AF03C5
330
1D76AEFFB3
100
AcDbEntity
  8
JISSEN
100
AcDbLine
 10
449.8062040659996
 20
116.031377213767
 30
0.0
 11
449.8062040659996
 21
118.1293363968172
 31
0.0
  0
ARC
  5
1D76AF03C6
330
1D76AEFFB3
100
AcDbEntity
  8
JISSEN
100
AcDbCircle
 10
454.7551836565495
 20
115.1130098670672
 30
0.0
 40
0.3061224489
100
AcDbArc
 50
270.0
 51
0.0
  0
LINE
  5
1D76AF03C7
330
1D76AEFFB3
100
AcDbEntity
  8
JISSEN
100
AcDbLine
 10
453.7347754935495
 20
114.8068874181672
 30
0.0
 11
454.7551836565495
 21
114.8068874181672
 31
0.0
  0
LINE
  5
1D76AF03C8
330
1D76AEFFB3
100
AcDbEntity
  8
SAISEN
100
AcDbLine
 10
452.0000816164496
 20
113.7864792551672
 30
0.0
 11
457.8750816164497
 21
113.7864792551672
 31
0.0
  0
LINE
  5
1D76AF03C9
330
1D76AEFFB3
100
AcDbEntity
  8
SAISEN
100
AcDbLine
 10
452.0000816164496
 20
113.9395404796171
 30
0.0
 11
457.8750816164497
 21
113.9395404796171
 31
0.0
  0
LINE
  5
1D76AF03CA
330
1D76AEFFB3
100
AcDbEntity
  8
SAISEN
100
AcDbLine
 10
452.0000816164496
 20
113.5823976225672
 30
0.0
 11
457.8750816164497
 21
113.5823976225672
 31
0.0
  0
LINE
  5
1D76AF03CB
330
1D76AEFFB3
100
AcDbEntity
  8
JISSEN
100
AcDbLine
 10
452.0000816164496
 20
114.8068874181672
 30
0.0
 11
454.7551836565495
 21
114.8068874181672
 31
0.0
  0
ARC
  5
1D76AF03CC
330
1D76AEFFB3
100
AcDbEntity
  8
SAISEN
100
AcDbCircle
 10
455.2143673298996
 20
114.0926017040672
 30
0.0
 40
0.15306122445
100
AcDbArc
 50
180.0
 51
270.0
  0
LINE
  5
1D76AF03CD
330
1D76AEFFB3
100
AcDbEntity
  8
JISSEN
100
AcDbLine
 10
455.0613061054495
 20
114.5007649692671
 30
0.0
 11
455.0613061054495
 21
114.0926017040672
 31
0.0
  0
ARC
  5
1D76AF03CE
330
1D76AEFFB3
100
AcDbEntity
  8
JISSEN
100
AcDbCircle
 10
454.7551836565495
 20
114.5007649692671
 30
0.0
 40
0.3061224489
100
AcDbArc
 50
0.0
 51
90.0
  0
LINE
  5
1D76AF03CF
330
1D76AEFFB3
100
AcDbEntity
  8
SAISEN
100
AcDbLine
 10
452.0000816164496
 20
116.031377213767
 30
0.0
 11
457.8750816164497
 21
116.031377213767
 31
0.0
  0
LINE
  5
1D76AF03D0
330
1D76AEFFB3
100
AcDbEntity
  8
SAISEN
100
AcDbLine
 10
452.0000816164496
 20
115.8272955811672
 30
0.0
 11
457.8750816164497
 21
115.8272955811672
 31
0.0
  0
LINE
  5
1D76AF03D1
330
1D76AEFFB3
100
AcDbEntity
  8
SAISEN
100
AcDbLine
 10
452.0000816164496
 20
115.6742343567172
 30
0.0
 11
457.8750816164497
 21
115.6742343567172
 31
0.0
  0
LINE
  5
1D76AF03D2
330
1D76AEFFB3
100
AcDbEntity
  8
JISSEN
100
AcDbLine
 10
457.8750816164497
 20
118.1293363968172
 30
0.0
 11
452.0000816164496
 21
118.1293363968172
 31
0.0
  0
LINE
  5
1D76AF03D3
330
1D76AEFFB3
100
AcDbEntity
  8
JISSEN
100
AcDbLine
 10
454.1939591668996
 20
116.031377213767
 30
0.0
 11
454.1939591668996
 21
118.1293363968172
 31
0.0
  0
ARC
  5
1D76AF03D4
330
1D76AEFFB3
100
AcDbEntity
  8
SAISEN
100
AcDbCircle
 10
455.2143673298996
 20
115.5211731322672
 30
0.0
 40
0.15306122445
100
AcDbArc
 50
90.0
 51
180.0
  0
LINE
  5
1D76AF03D5
330
1D76AEFFB3
100
AcDbEntity
  8
JISSEN
100
AcDbLine
 10
455.0613061054495
 20
115.1130098670672
 30
0.0
 11
455.0613061054495
 21
115.5211731322672
 31
0.0
  0
LINE
  5
1D76AF03D6
330
1D76AEFFB3
100
AcDbEntity
  8
JISSEN
100
AcDbLine
 10
446.1249427436308
 20
125.7908121015862
 30
0.0
 11
452.0000816164496
 21
125.7908121015862
 31
0.0
  0
ARC
  5
1D76AF03D7
330
1D76AEFFB3
100
AcDbEntity
  8
JISSEN
100
AcDbCircle
 10
445.3250816164496
 20
125.7759064910833
 30
0.0
 40
0.8
100
AcDbArc
 50
0.0000000000008212
 51
90.0
  0
LINE
  5
1D76AF03D8
330
1D76AEFFB3
100
AcDbEntity
  8
JISSEN
100
AcDbLine
 10
444.1250816164497
 20
126.5759064910834
 30
0.0
 11
445.3250816164496
 21
126.5759064910833
 31
0.0
  0
LINE
  5
1D76AF03D9
330
1D76AEFFB3
100
AcDbEntity
  8
JISSEN
100
AcDbLine
 10
457.8752204892682
 20
125.7908121015862
 30
0.0
 11
452.0000816164496
 21
125.7908121015862
 31
0.0
  0
ARC
  5
1D76AF03DA
330
1D76AEFFB3
100
AcDbEntity
  8
JISSEN
100
AcDbCircle
 10
468.7500816164495
 20
109.0408121015862
 30
0.0
 40
1.25
100
AcDbArc
 50
270.0
 51
90.0
  0
LINE
  5
1D76AF03DB
330
1D76AEFFB3
100
AcDbEntity
  8
JISSEN
100
AcDbLine
 10
470.0000816164497
 20
109.0408121015862
 30
0.0
 11
470.0000816164497
 21
126.5759064910834
 31
0.0
  0
LINE
  5
1D76AF03DC
102
{ACAD_REACTORS
330
1D76AF0320
102
}
330
1D76AEFFB3
100
AcDbEntity
  8
JISSEN
100
AcDbLine
 10
467.0000816164495
 20
129.0785944797105
 30
0.0
 11
477.0000816164496
 21
129.0785944797105
 31
0.0
  0
LINE
  5
1D76AF03DD
330
1D76AEFFB3
100
AcDbEntity
  8
JISSEN
100
AcDbLine
 10
476.4441159236539
 20
128.1825846951514
 30
0.0
 11
466.8512400080286
 21
125.7908121015862
 31
0.0
  0
INSERT
  5
1D76AF03DE
330
1D76AEFFB3
100
AcDbEntity
  8
SUNPOU
100
AcDbBlockReference
  2
ARROW
 10
471.2220987700519
 20
126.8805895874308
 30
0.0
 41
1.500000000000001
 42
1.5
 43
1.5
 50
114.436189858151
  0
LINE
  5
1D76AF03DF
330
1D76AEFFB3
100
AcDbEntity
  8
JISSEN
100
AcDbLine
 10
463.0000816164494
 20
125.7908121015862
 30
0.0
 11
463.0000816164494
 21
118.8793363968172
 31
0.0
  0
LINE
  5
1D76AF03E0
330
1D76AEFFB3
100
AcDbEntity
  8
JISSEN
100
AcDbLine
 10
466.2500816164496
 20
125.7908121015862
 30
0.0
 11
466.2500816164496
 21
110.2908121015863
 31
0.0
  0
LINE
  5
1D76AF03E1
330
1D76AEFFB3
100
AcDbEntity
  8
JISSEN
100
AcDbLine
 10
460.3750816164496
 20
126.0759064910834
 30
0.0
 11
460.3750816164496
 21
110.2908121015863
 31
0.0
  0
LINE
  5
1D76AF03E2
330
1D76AEFFB3
100
AcDbEntity
  8
JISSEN
100
AcDbLine
 10
462.2500816164495
 20
118.1293363968172
 30
0.0
 11
460.3750816164496
 21
118.1293363968172
 31
0.0
  0
ARC
  5
1D76AF03E3
330
1D76AEFFB3
100
AcDbEntity
  8
JISSEN
100
AcDbCircle
 10
462.2500816164495
 20
118.8793363968172
 30
0.0
 40
0.75
100
AcDbArc
 50
270.0
 51
0.0
  0
LINE
  5
1D76AF03E4
330
1D76AEFFB3
100
AcDbEntity
  8
JISSEN
100
AcDbLine
 10
468.3600816164496
 20
110.2908121015863
 30
0.0
 11
468.7500816164495
 21
110.2908121015863
 31
0.0
  0
LINE
  5
1D76AF03E5
330
1D76AEFFB3
100
AcDbEntity
  8
JISSEN
100
AcDbLine
 10
466.8512400080286
 20
125.7908121015862
 30
0.0
 11
460.3750816164496
 21
125.7908121015862
 31
0.0
  0
LINE
  5
1D76AF03E6
330
1D76AEFFB3
100
AcDbEntity
  8
JISSEN
100
AcDbLine
 10
459.8750816164494
 20
126.5759064910834
 30
0.0
 11
458.6750816164497
 21
126.5759064910833
 31
0.0
  0
LINE
  5
1D76AF03E7
330
1D76AEFFB3
100
AcDbEntity
  8
JISSEN
100
AcDbLine
 10
460.3750816164496
 20
126.0759064910834
 30
0.0
 11
459.8750816164494
 21
126.5759064910834
 31
0.0
  0
ARC
  5
1D76AF03E8
330
1D76AEFFB3
100
AcDbEntity
  8
JISSEN
100
AcDbCircle
 10
476.0000816164496
 20
129.0785944797105
 30
0.0
 40
1.0
100
AcDbArc
 50
296.3615705606468
 51
0.0
  0
TEXT
  5
1D76AF03E9
330
1D76AEFFB3
100
AcDbEntity
  8
SUNPOU
100
AcDbText
 10
487.5739026909502
 20
83.92769315246763
 30
0.0
 40
4.5
  1
2
  7
K
 72
     4
 11
489.7167598338073
 21
86.17769315246762
 31
0.0
100
AcDbText
  0
LINE
  5
1D76AF03EA
102
{ACAD_REACTORS
330
1D76AF0320
102
}
330
1D76AEFFB3
100
AcDbEntity
  8
JISSEN
100
AcDbLine
 10
437.5000816164495
 20
134.0785944797105
 30
0.0
 11
373.8248723830961
 21
134.0785944797105
 31
0.0
  0
LWPOLYLINE
  5
1D76AF03EB
330
1D76AEFFB3
100
AcDbEntity
  8
NITEN
100
AcDbPolyline
 90
        5
 70
     0
 43
0.0
 10
468.9999981784335
 20
218.0891433854335
 10
468.9999981784335
 20
238.9268610365793
 42
-0.5882352941176476
 10
451.9999981784335
 20
238.9268610365793
 42
0.5882352941176477
 10
434.9999981784335
 20
238.926861036579
 10
434.9999981784335
 20
218.0891433854335
  0
LINE
  5
1D76AF03EC
102
{ACAD_REACTORS
330
1D76AF0320
102
}
330
1D76AEFFB3
100
AcDbEntity
  8
JISSEN
100
AcDbLine
 10
466.5000816164496
 20
134.0785944797105
 30
0.0
 11
530.1752908498031
 21
134.0785944797105
 31
0.0
  0
LINE
  5
1D76AF03ED
330
1D76AEFFB3
100
AcDbEntity
  8
JISSEN
100
AcDbLine
 10
462.2620059800596
 20
186.7166701160986
 30
0.0
 11
462.7071902347827
 21
172.4714858613765
 31
0.0
  0
LINE
  5
1D76AF03EE
330
1D76AEFFB3
100
AcDbEntity
  8
SAISEN
100
AcDbLine
 10
461.5077044301457
 20
173.6709716660134
 30
0.0
 11
461.0625201754228
 21
187.9161559207355
 31
0.0
  0
LINE
  5
1D76AF03EF
330
1D76AEFFB3
100
AcDbEntity
  8
JISSEN
100
AcDbLine
 10
441.7381572528393
 20
186.7166701160986
 30
0.0
 11
441.2929729981164
 21
172.4714858613765
 31
0.0
  0
LINE
  5
1D76AF03F0
330
1D76AEFFB3
100
AcDbEntity
  8
SAISEN
100
AcDbLine
 10
442.4924588027533
 20
173.6709716660134
 30
0.0
 11
442.9376430574762
 21
187.9161559207355
 31
0.0
  0
LINE
  5
1D76AF03F1
330
1D76AEFFB3
100
AcDbEntity
  8
JISSEN
100
AcDbLine
 10
466.0000816164497
 20
147.5785944797106
 30
0.0
 11
452.0000816164496
 21
147.5785944797106
 31
0.0
  0
LINE
  5
1D76AF03F2
330
1D76AEFFB3
100
AcDbEntity
  8
JISSEN
100
AcDbLine
 10
466.5000816164496
 20
147.0785944797106
 30
0.0
 11
452.0000816164496
 21
147.0785944797106
 31
0.0
  0
LINE
  5
1D76AF03F3
330
1D76AEFFB3
100
AcDbEntity
  8
JISSEN
100
AcDbLine
 10
465.8564880770005
 20
168.4785944797105
 30
0.0
 11
452.0000816164495
 21
168.4785944797106
 31
0.0
  0
LINE
  5
1D76AF03F4
330
1D76AEFFB3
100
AcDbEntity
  8
JISSEN
100
AcDbLine
 10
452.0000816164495
 20
171.4785944797054
 30
0.0
 11
465.8564880770005
 21
171.4785944797104
 31
0.0
  0
LINE
  5
1D76AF03F5
330
1D76AEFFB3
100
AcDbEntity
  8
JISSEN
100
AcDbLine
 10
452.0000816164495
 20
173.6709716660134
 30
0.0
 11
462.6697044301457
 21
173.6709716660134
 31
0.0
  0
LINE
  5
1D76AF03F6
330
1D76AEFFB3
100
AcDbEntity
  8
JISSEN
100
AcDbLine
 10
452.0000816164495
 20
166.3785944797105
 30
0.0
 11
463.7000816164494
 21
166.3785944797105
 31
0.0
  0
LINE
  5
1D76AF03F7
330
1D76AEFFB3
100
AcDbEntity
  8
JISSEN
100
AcDbLine
 10
452.0000816164495
 20
166.9785944797106
 30
0.0
 11
462.25008161645
 21
166.9785944797106
 31
0.0
  0
LINE
  5
1D76AF03F8
330
1D76AEFFB3
100
AcDbEntity
  8
JISSEN
100
AcDbLine
 10
440.3000816164497
 20
166.3785944797105
 30
0.0
 11
440.3000816164497
 21
147.5785944797106
 31
0.0
  0
LINE
  5
1D76AF03F9
330
1D76AEFFB3
100
AcDbEntity
  8
JISSEN
100
AcDbLine
 10
437.5000816164495
 20
147.0785944797106
 30
0.0
 11
452.0000816164496
 21
147.0785944797106
 31
0.0
  0
LINE
  5
1D76AF03FA
330
1D76AEFFB3
100
AcDbEntity
  8
JISSEN
100
AcDbLine
 10
438.0000816164494
 20
147.5785944797106
 30
0.0
 11
452.0000816164496
 21
147.5785944797106
 31
0.0
  0
LINE
  5
1D76AF03FB
330
1D76AEFFB3
100
AcDbEntity
  8
JISSEN
100
AcDbLine
 10
438.0000816164494
 20
147.5785944797106
 30
0.0
 11
437.5000816164495
 21
147.0785944797106
 31
0.0
  0
LINE
  5
1D76AF03FC
330
1D76AEFFB3
100
AcDbEntity
  8
JISSEN
100
AcDbLine
 10
452.0000816164496
 20
166.9785944797106
 30
0.0
 11
441.7500816164491
 21
166.9785944797106
 31
0.0
  0
LINE
  5
1D76AF03FD
330
1D76AEFFB3
100
AcDbEntity
  8
JISSEN
100
AcDbLine
 10
452.0000816164496
 20
166.3785944797105
 30
0.0
 11
440.3000816164497
 21
166.3785944797105
 31
0.0
  0
LINE
  5
1D76AF03FE
330
1D76AEFFB3
100
AcDbEntity
  8
JISSEN
100
AcDbLine
 10
438.1436751558985
 20
171.4785944797005
 30
0.0
 11
452.0000816164495
 21
171.4785944797054
 31
0.0
  0
LINE
  5
1D76AF03FF
330
1D76AEFFB3
100
AcDbEntity
  8
JISSEN
100
AcDbLine
 10
438.1436751558985
 20
168.4785944797105
 30
0.0
 11
452.0000816164495
 21
168.4785944797106
 31
0.0
  0
LINE
  5
1D76AF0400
330
1D76AEFFB3
100
AcDbEntity
  8
JISSEN
100
AcDbLine
 10
439.6500816164496
 20
168.4785944797106
 30
0.0
 11
452.0000816164495
 21
168.4785944797106
 31
0.0
  0
LINE
  5
1D76AF0401
330
1D76AEFFB3
100
AcDbEntity
  8
JISSEN
100
AcDbLine
 10
452.0000816164496
 20
173.6709716660134
 30
0.0
 11
441.3304588027532
 21
173.6709716660134
 31
0.0
  0
LINE
  5
1D76AF0402
330
1D76AEFFB3
100
AcDbEntity
  8
JISSEN
100
AcDbLine
 10
438.1436751558985
 20
171.4785944797104
 30
0.0
 11
438.1436751558985
 21
168.4785944797105
 31
0.0
  0
ARC
  5
1D76AF0403
330
1D76AEFFB3
100
AcDbEntity
  8
JISSEN
100
AcDbCircle
 10
440.9000816164494
 20
167.4785944797106
 30
0.0
 40
1.0
100
AcDbArc
 50
0.000000000000007
 51
90.0
  0
LINE
  5
1D76AF0404
330
1D76AEFFB3
100
AcDbEntity
  8
JISSEN
100
AcDbLine
 10
441.2500816164492
 20
166.4785944797106
 30
0.0
 11
441.2500816164492
 21
166.3785944797105
 31
0.0
  0
LINE
  5
1D76AF0405
330
1D76AEFFB3
100
AcDbEntity
  8
JISSEN
100
AcDbLine
 10
441.9000816164492
 20
166.9785944797106
 30
0.0
 11
441.9000816164496
 21
167.4785944797106
 31
0.0
  0
LINE
  5
1D76AF0406
330
1D76AEFFB3
100
AcDbEntity
  8
SAISEN
100
AcDbLine
 10
441.7500816164491
 20
166.9785944797106
 30
0.0
 11
441.7500816164491
 21
166.3785944797105
 31
0.0
  0
LINE
  5
1D76AF0407
330
1D76AEFFB3
100
AcDbEntity
  8
JISSEN
100
AcDbLine
 10
441.7500816164491
 20
166.9785944797106
 30
0.0
 11
441.2500816164492
 21
166.4785944797106
 31
0.0
  0
LINE
  5
1D76AF0408
330
1D76AEFFB3
100
AcDbEntity
  8
JISSEN
100
AcDbLine
 10
442.4924588027531
 20
173.6709716660134
 30
0.0
 11
440.3000816164495
 21
171.4785944797096
 31
0.0
  0
LINE
  5
1D76AF0409
330
1D76AEFFB3
100
AcDbEntity
  8
JISSEN
100
AcDbLine
 10
445.071878386174
 20
168.4785944797105
 30
0.0
 11
445.071878386174
 21
171.4785944797079
 31
0.0
  0
LINE
  5
1D76AF040A
330
1D76AEFFB3
100
AcDbEntity
  8
JISSEN
100
AcDbLine
 10
463.7000816164496
 20
166.3785944797105
 30
0.0
 11
463.7000816164496
 21
147.5785944797106
 31
0.0
  0
LINE
  5
1D76AF040B
330
1D76AEFFB3
100
AcDbEntity
  8
JISSEN
100
AcDbLine
 10
466.0000816164497
 20
147.5785944797106
 30
0.0
 11
466.5000816164496
 21
147.0785944797106
 31
0.0
  0
LINE
  5
1D76AF040C
330
1D76AEFFB3
100
AcDbEntity
  8
JISSEN
100
AcDbLine
 10
458.928284846725
 20
168.4785944797105
 30
0.0
 11
458.928284846725
 21
171.4785944797079
 31
0.0
  0
LINE
  5
1D76AF040D
330
1D76AEFFB3
100
AcDbEntity
  8
JISSEN
100
AcDbLine
 10
462.25008161645
 20
166.9785944797106
 30
0.0
 11
462.7500816164499
 21
166.4785944797106
 31
0.0
  0
LINE
  5
1D76AF040E
330
1D76AEFFB3
100
AcDbEntity
  8
SAISEN
100
AcDbLine
 10
462.25008161645
 20
166.9785944797106
 30
0.0
 11
462.25008161645
 21
166.3785944797105
 31
0.0
  0
LINE
  5
1D76AF040F
330
1D76AEFFB3
100
AcDbEntity
  8
JISSEN
100
AcDbLine
 10
462.7500816164499
 20
166.4785944797106
 30
0.0
 11
462.7500816164499
 21
166.3785944797105
 31
0.0
  0
LINE
  5
1D76AF0410
330
1D76AEFFB3
100
AcDbEntity
  8
JISSEN
100
AcDbLine
 10
462.1000816164499
 20
166.9785944797106
 30
0.0
 11
462.1000816164495
 21
167.4785944797106
 31
0.0
  0
ARC
  5
1D76AF0411
330
1D76AEFFB3
100
AcDbEntity
  8
JISSEN
100
AcDbCircle
 10
463.1000816164495
 20
167.4785944797106
 30
0.0
 40
1.0
100
AcDbArc
 50
90.0
 51
180.0
  0
LINE
  5
1D76AF0412
330
1D76AEFFB3
100
AcDbEntity
  8
JISSEN
100
AcDbLine
 10
461.5077044301457
 20
173.6709716660134
 30
0.0
 11
463.7000816164494
 21
171.4785944797096
 31
0.0
  0
LINE
  5
1D76AF0413
330
1D76AEFFB3
100
AcDbEntity
  8
JISSEN
100
AcDbLine
 10
465.8564880770005
 20
171.4785944797104
 30
0.0
 11
465.8564880770005
 21
168.4785944797105
 31
0.0
  0
LINE
  5
1D76AF0414
330
1D76AEFFB3
100
AcDbEntity
  8
JISSEN
100
AcDbLine
 10
461.0000816164486
 20
187.9785944797098
 30
0.0
 11
452.0000816164495
 21
187.9785944797098
 31
0.0
  0
LINE
  5
1D76AF0415
330
1D76AEFFB3
100
AcDbEntity
  8
JISSEN
100
AcDbLine
 10
462.2620059800596
 20
186.7166701160986
 30
0.0
 11
452.0000816164495
 21
186.7166701160986
 31
0.0
  0
LWPOLYLINE
  5
1D76AF0416
330
1D76AEFFB3
100
AcDbEntity
  8
NITEN
100
AcDbPolyline
 90
       15
 70
     1
 43
0.0
 10
437.9999981784335
 20
177.5891433854335
 42
0.4142135623730927
 10
439.4999981784334
 20
176.0891433854335
 10
462.5940493494298
 20
176.0891433854335
 10
464.4999981784335
 20
176.0891433854335
 42
0.4142135623730925
 10
465.9999981784335
 20
177.5891433854335
 10
465.9999981784335
 20
188.6351594116515
 42
-0.4142135623730943
 10
470.9999981784333
 20
193.6351594116515
 42
0.4142135623730951
 10
472.9999981784335
 20
195.6351594116515
 10
472.9999981784334
 20
216.0891433854335
 42
0.4142135623730949
 10
470.9999981784335
 20
218.0891433854335
 10
432.9999981784335
 20
218.0891433854335
 42
0.4142135623730951
 10
430.9999981784335
 20
216.0891433854335
 10
430.9999981784335
 20
195.6351594116515
 42
0.4142135623730951
 10
432.9999981784335
 20
193.6351594116515
 42
-0.4142135623730961
 10
437.9999981784335
 20
188.6351594116515
  0
LINE
  5
1D76AF0417
330
1D76AEFFB3
100
AcDbEntity
  8
JISSEN
100
AcDbLine
 10
441.7381572528393
 20
186.7166701160986
 30
0.0
 11
452.0000816164496
 21
186.7166701160986
 31
0.0
  0
LINE
  5
1D76AF0418
330
1D76AEFFB3
100
AcDbEntity
  8
JISSEN
100
AcDbLine
 10
443.0000816164503
 20
187.9785944797098
 30
0.0
 11
452.0000816164496
 21
187.9785944797098
 31
0.0
  0
LINE
  5
1D76AF0419
330
1D76AEFFB3
100
AcDbEntity
  8
JISSEN
100
AcDbLine
 10
441.7381572528393
 20
186.7166701160986
 30
0.0
 11
443.0000816164503
 21
187.9785944797098
 31
0.0
  0
LINE
  5
1D76AF041A
330
1D76AEFFB3
100
AcDbEntity
  8
JISSEN
100
AcDbLine
 10
462.2620059800596
 20
186.7166701160986
 30
0.0
 11
461.0000816164486
 21
187.9785944797098
 31
0.0
  0
TEXT
  5
1D76AF041B
330
1D76AEFFB3
100
AcDbEntity
  8
TEXT
100
AcDbText
 10
465.3857117401478
 20
262.6428574620118
 30
0.0
 40
3.0
  1
XQR  型ヘッド
  7
K
 72
     4
 11
478.4999974544335
 21
264.0000003191547
 31
0.0
100
AcDbText
  0
LINE
  5
1D76AF041C
330
1D76AEFFB3
100
AcDbEntity
  8
JISSEN
100
AcDbLine
 10
453.4999974544335
 20
255.0000003191547
 30
0.0
 11
542.9999974544336
 21
255.0000003191547
 31
0.0
  0
TEXT
  5
1D76AF041D
330
1D76AEFFB3
100
AcDbEntity
  8
TEXT
100
AcDbText
 10
469.8999974544334
 20
268.5000003191547
 30
0.0
 40
3.0
  1
名      称
  7
K
 72
     4
 11
478.4999974544335
 21
270.0000003191547
 31
0.0
100
AcDbText
  0
LINE
  5
1D76AF041E
330
1D76AEFFB3
100
AcDbEntity
  8
JISSEN
100
AcDbLine
 10
453.4999974544335
 20
261.0000003191547
 30
0.0
 11
542.9999974544336
 21
261.0000003191547
 31
0.0
  0
LINE
  5
1D76AF041F
330
1D76AEFFB3
100
AcDbEntity
  8
JISSEN
100
AcDbLine
 10
453.4999974544335
 20
267.0000003191546
 30
0.0
 11
542.9999974544336
 21
267.0000003191546
 31
0.0
  0
TEXT
  5
1D76AF0420
330
1D76AEFFB3
100
AcDbEntity
  8
TEXT
100
AcDbText
 10
457.2857117401477
 20
262.5000003191547
 30
0.0
 40
3.0
  1
1
  7
K
 72
     4
 11
458.4999974544335
 21
264.0000003191547
 31
0.0
100
AcDbText
  0
LINE
  5
1D76AF0421
330
1D76AEFFB3
100
AcDbEntity
  8
JISSEN
100
AcDbLine
 10
463.4999974544335
 20
273.0000003191547
 30
0.0
 11
463.4999974544335
 21
255.0000003191547
 31
0.0
  0
LINE
  5
1D76AF0422
330
1D76AEFFB3
100
AcDbEntity
  8
JISSEN
100
AcDbLine
 10
453.4999974544335
 20
255.0000003191547
 30
0.0
 11
453.4999974544335
 21
273.0000003191547
 31
0.0
  0
LWPOLYLINE
  5
1D76AF0423
330
1D76AEFFB3
100
AcDbEntity
  8
NITEN
100
AcDbPolyline
 90
        2
 70
     0
 43
0.0
 10
468.9999981784335
 20
238.9268610365793
 42
0.5882352941176295
 10
451.9999981784334
 20
238.9268610365796
 42
0.5882352941176295
  0
TEXT
  5
1D76AF0424
330
1D76AEFFB3
100
AcDbEntity
  8
TEXT
100
AcDbText
 10
457.3830698599677
 20
256.5000003191546
 30
0.0
 40
3.0
  1
2
  7
K
 72
     4
 11
458.8116412885391
 21
258.0000003191547
 31
0.0
100
AcDbText
  0
TEXT
  5
1D76AF0425
330
1D76AEFFB3
100
AcDbEntity
  8
TEXT
100
AcDbText
 10
470.8857117401477
 20
256.5000003191546
 30
0.0
 40
3.0
  1
ガード X
  7
K
 72
     4
 11
478.4999974544335
 21
258.0000003191547
 31
0.0
100
AcDbText
  0
TEXT
  5
1D76AF0426
330
1D76AEFFB3
100
AcDbEntity
  8
TEXT
100
AcDbText
 10
455.2999974544335
 20
268.5000003191547
 30
0.0
 40
3.0
  1
番号
  7
K
 72
     4
 11
458.4999974544335
 21
270.0000003191547
 31
0.0
100
AcDbText
  0
TEXT
  5
1D76AF0427
330
1D76AEFFB3
100
AcDbEntity
  8
TEXT
100
AcDbText
 10
518.6795459408427
 20
262.5000003191547
 30
0.0
 40
3.0
  1
1
  7
K
 72
     4
 11
519.8938316551284
 21
264.0000003191547
 31
0.0
100
AcDbText
  0
LINE
  5
1D76AF0428
330
1D76AEFFB3
100
AcDbEntity
  8
JISSEN
100
AcDbLine
 10
525.4999974544333
 20
273.0000003191547
 30
0.0
 11
525.4999974544333
 21
255.0000003191547
 31
0.0
  0
LINE
  5
1D76AF0429
330
1D76AEFFB3
100
AcDbEntity
  8
JISSEN
100
AcDbLine
 10
514.4999974544333
 20
255.0000003191547
 30
0.0
 11
514.4999974544333
 21
273.0000003191547
 31
0.0
  0
LINE
  5
1D76AF042A
330
1D76AEFFB3
100
AcDbEntity
  8
JISSEN
100
AcDbLine
 10
493.4999974544335
 20
273.0000003191547
 30
0.0
 11
493.4999974544333
 21
255.0000003191547
 31
0.0
  0
TEXT
  5
1D76AF042C
330
1D76AEFFB3
100
AcDbEntity
  8
TEXT
100
AcDbText
 10
498.8249974544333
 20
264.3000003191547
 30
0.0
 40
3.0
  1
%%u      
  7
K
 72
     4
 11
503.9999974544334
 21
264.0000003191547
 31
0.0
100
AcDbText
  0
TEXT
  5
1D76AF042D
330
1D76AEFFB3
100
AcDbEntity
  8
TEXT
100
AcDbText
 10
518.6795459408427
 20
256.5808354954958
 30
0.0
 40
3.0
  1
1
  7
K
 72
     4
 11
519.8938316551284
 21
258.0808354954958
 31
0.0
100
AcDbText
  0
TEXT
  5
1D76AF042E
330
1D76AEFFB3
100
AcDbEntity
  8
TEXT
100
AcDbText
 10
497.1999974544335
 20
268.5000003191547
 30
0.0
 40
3.0
  1
材    質
  7
K
 72
     4
 11
503.9999974544335
 21
270.0000003191547
 31
0.0
100
AcDbText
  0
TEXT
  5
1D76AF042F
330
1D76AEFFB3
100
AcDbEntity
  8
TEXT
100
AcDbText
 10
527.6999974544334
 20
268.5000003191547
 30
0.0
 40
3.0
  1
備    考
  7
K
 72
     4
 11
534.4999974544333
 21
270.0000003191547
 31
0.0
100
AcDbText
  0
TEXT
  5
1D76AF0430
330
1D76AEFFB3
100
AcDbEntity
  8
TEXT
100
AcDbText
 10
516.7999974544334
 20
268.5000003191547
 30
0.0
 40
3.0
  1
個数
  7
K
 72
     4
 11
519.9999974544335
 21
270.0000003191547
 31
0.0
100
AcDbText
  0
LWPOLYLINE
  5
1D76AF0431
330
1D76AEFFB3
100
AcDbEntity
  8
WAKU
100
AcDbPolyline
 90
        4
 70
     1
 43
0.0
 10
542.9999969999999
 20
0.0
 10
361.999998
 20
0.0
 10
361.999998
 20
273.0
 10
542.9999969999999
 20
273.0
  0
TEXT
  5
1D76AF0473
330
1D76AEFFB3
100
AcDbEntity
  8
TEXT
100
AcDbText
 10
313.1571411008069
 20
256.50000004432
 30
0.0
 40
3.0
  1
66ナイロン
  7
K
 72
     4
 11
322.9999982436641
 21
258.00000004432
 31
0.0
100
AcDbText
  0
TEXT
  5
1D76AF0474
330
1D76AEFFB3
100
AcDbEntity
  8
TEXT
100
AcDbText
 10
494.1571403115761
 20
256.50000004432
 30
0.0
 40
3.0
  1
66ナイロン
  7
K
 72
     4
 11
503.9999974544334
 21
258.00000004432
 31
0.0
100
AcDbText
  0
LINE
  5
1D76AF04E2
330
1D76AEFFB3
100
AcDbEntity
  8
TEXT
100
AcDbLine
 10
290.6614398819929
 20
265.4988858707962
 30
0.0
 11
292.6614398819929
 21
265.4988858707962
 31
0.0
  0
LINE
  5
1D76AF04E3
330
1D76AEFFB3
100
AcDbEntity
  8
TEXT
100
AcDbLine
 10
290.6614398819929
 20
262.4988858707962
 30
0.0
 11
292.6614398819929
 21
262.4988858707962
 31
0.0
  0
LINE
  5
1D76AF04E4
330
1D76AEFFB3
100
AcDbEntity
  8
TEXT
100
AcDbLine
 10
291.2114398819929
 20
265.4988858707962
 30
0.0
 11
291.2114398819929
 21
262.4988858707962
 31
0.0
  0
LINE
  5
1D76AF04E5
330
1D76AEFFB3
100
AcDbEntity
  8
TEXT
100
AcDbLine
 10
292.1114398819929
 20
265.4988858707962
 30
0.0
 11
292.1114398819929
 21
262.4988858707962
 31
0.0
  0
LINE
  5
1D76AF04E6
330
1D76AEFFB3
100
AcDbEntity
  8
TEXT
100
AcDbLine
 10
476.2756948375442
 20
265.6386058953376
 30
0.0
 11
476.2756948375442
 21
262.6386058953376
 31
0.0
  0
LINE
  5
1D76AF04E7
330
1D76AEFFB3
100
AcDbEntity
  8
TEXT
100
AcDbLine
 10
475.3756948375442
 20
265.6386058953376
 30
0.0
 11
475.3756948375442
 21
262.6386058953376
 31
0.0
  0
LINE
  5
1D76AF04E8
330
1D76AEFFB3
100
AcDbEntity
  8
TEXT
100
AcDbLine
 10
474.8256948375442
 20
262.6386058953376
 30
0.0
 11
476.8256948375442
 21
262.6386058953376
 31
0.0
  0
LINE
  5
1D76AF04E9
330
1D76AEFFB3
100
AcDbEntity
  8
TEXT
100
AcDbLine
 10
474.8256948375442
 20
265.6386058953376
 30
0.0
 11
476.8256948375442
 21
265.6386058953376
 31
0.0
  0
LINE
  5
1D76AF04EA
330
1D76AEFFB3
100
AcDbEntity
  8
TEXT
100
AcDbLine
 10
334.4837549918667
 20
10.85319858248635
 30
0.0
 11
334.4837549918667
 21
7.853198582486356
 31
0.0
  0
LINE
  5
1D76AF04EB
330
1D76AEFFB3
100
AcDbEntity
  8
TEXT
100
AcDbLine
 10
333.5837549918668
 20
10.85319858248635
 30
0.0
 11
333.5837549918668
 21
7.853198582486356
 31
0.0
  0
LINE
  5
1D76AF04EC
330
1D76AEFFB3
100
AcDbEntity
  8
TEXT
100
AcDbLine
 10
333.0337549918667
 20
7.853198582486356
 30
0.0
 11
335.0337549918667
 21
7.853198582486356
 31
0.0
  0
LINE
  5
1D76AF04ED
330
1D76AEFFB3
100
AcDbEntity
  8
TEXT
100
AcDbLine
 10
333.0337549918667
 20
10.85319858248635
 30
0.0
 11
335.0337549918667
 21
10.85319858248635
 31
0.0
  0
LINE
  5
1D76AF04EE
330
1D76AEFFB3
100
AcDbEntity
  8
TEXT
100
AcDbLine
 10
516.5093648828492
 20
10.85319858248635
 30
0.0
 11
516.5093648828492
 21
7.853198582486356
 31
0.0
  0
LINE
  5
1D76AF04EF
330
1D76AEFFB3
100
AcDbEntity
  8
TEXT
100
AcDbLine
 10
515.6093648828491
 20
10.85319858248635
 30
0.0
 11
515.6093648828491
 21
7.853198582486356
 31
0.0
  0
LINE
  5
1D76AF04F0
330
1D76AEFFB3
100
AcDbEntity
  8
TEXT
100
AcDbLine
 10
515.0593648828492
 20
7.853198582486356
 30
0.0
 11
517.0593648828492
 21
7.853198582486356
 31
0.0
  0
LINE
  5
1D76AF04F1
330
1D76AEFFB3
100
AcDbEntity
  8
TEXT
100
AcDbLine
 10
515.0593648828492
 20
10.85319858248635
 30
0.0
 11
517.0593648828492
 21
10.85319858248635
 31
0.0
  0
ENDSEC
  0
SECTION
  2
OBJECTS
  0
DICTIONARY
  5
1D76AEFFA8
330
0
100
AcDbDictionary
  3
ACAD_GROUP
350
1D76AEFFA9
  3
ACAD_LAYOUT
350
1D76AF000A
  3
ACAD_MLINESTYLE
350
1D76AEFFB6
  3
ACAD_PLOTSETTINGS
350
1D76AF000B
  3
ACAD_PLOTSTYLENAME
350
1D76AF0008
  3
ACDBHEADERROUNDTRIPXREC
350
1D76AF04F4
  3
ACDBVARIABLEDICTIONARY
350
1D76AF04B4
  0
DICTIONARY
  5
1D76AF0458
330
1D76AEFFB3
100
AcDbDictionary
280
     1
  3
ACAD_LAYOUTSELFREF
360
1D76AF0516
  0
DICTIONARY
  5
1D76AF0456
330
1D76AEFFB0
100
AcDbDictionary
280
     1
  3
ACAD_LAYOUTSELFREF
360
1D76AF0515
  0
DICTIONARY
  5
1D76AEFFA9
102
{ACAD_REACTORS
330
1D76AEFFA8
102
}
330
1D76AEFFA8
100
AcDbDictionary
  0
DICTIONARY
  5
1D76AF000A
102
{ACAD_REACTORS
330
1D76AEFFA8
102
}
330
1D76AEFFA8
100
AcDbDictionary
  0
DICTIONARY
  5
1D76AEFFB6
102
{ACAD_REACTORS
330
1D76AEFFA8
102
}
330
1D76AEFFA8
100
AcDbDictionary
  3
STANDARD
350
1D76AEFFB7
  0
DICTIONARY
  5
1D76AF000B
102
{ACAD_REACTORS
330
1D76AEFFA8
102
}
330
1D76AEFFA8
100
AcDbDictionary
  0
ACDBDICTIONARYWDFLT
  5
1D76AF0008
102
{ACAD_REACTORS
330
1D76AEFFA8
102
}
330
1D76AEFFA8
100
AcDbDictionary
281
     1
  3
Normal
350
1D76AF0009
100
AcDbDictionaryWithDefault
340
1D76AF0009
  0
DICTIONARY
  5
1D76AF04F4
102
{ACAD_REACTORS
330
1D76AEFFA8
102
}
330
1D76AEFFA8
100
AcDbDictionary
  3
CEPSNTYPE
350
1D76AF04FE
  3
DIMSTYLEDATA
350
1D76AF0502
  3
FINGERPRINTGUID
350
1D76AF04FF
  3
HYPERLINKBASE
350
1D76AF04F7
  3
INSUNITS
350
1D76AF04FD
  3
LAYOUTDICT
350
1D76AF04F9
  3
LWETCUNION
350
1D76AF04FC
  3
PLOTSETDICT
350
1D76AF04FA
  3
PLOTSTYLNAMDICT
350
1D76AF04FB
  3
PSVPSCALE
350
1D76AF0501
  3
PUCSBASE
350
1D76AF0505
  3
PUCSORGBACK
350
1D76AF050B
  3
PUCSORGBOTTOM
350
1D76AF0507
  3
PUCSORGFRONT
350
1D76AF050A
  3
PUCSORGLEFT
350
1D76AF0508
  3
PUCSORGRIGHT
350
1D76AF0509
  3
PUCSORGTOP
350
1D76AF0506
  3
PUCSORTHOREF
350
1D76AF0503
  3
PUCSORTHOVIEW
350
1D76AF0504
  3
STYLESHEET
350
1D76AF04F8
  3
TSTACKALIGN
350
1D76AF04F5
  3
TSTACKSIZE
350
1D76AF04F6
  3
UCSBASE
350
1D76AF050E
  3
UCSORGBACK
350
1D76AF0514
  3
UCSORGBOTTOM
350
1D76AF0510
  3
UCSORGFRONT
350
1D76AF0513
  3
UCSORGLEFT
350
1D76AF0511
  3
UCSORGRIGHT
350
1D76AF0512
  3
UCSORGTOP
350
1D76AF050F
  3
UCSORTHOREF
350
1D76AF050C
  3
UCSORTHOVIEW
350
1D76AF050D
  3
VERSIONGUID
350
1D76AF0500
  0
DICTIONARY
  5
1D76AF04B4
102
{ACAD_REACTORS
330
1D76AEFFA8
102
}
330
1D76AEFFA8
100
AcDbDictionary
  3
DIMASSOC
350
1D76AF04B5
  0
XRECORD
  5
1D76AF0516
102
{ACAD_REACTORS
330
1D76AF0458
102
}
330
1D76AF0458
100
AcDbXrecord
340
1D76AEFFB3
  0
XRECORD
  5
1D76AF0515
102
{ACAD_REACTORS
330
1D76AF0456
102
}
330
1D76AF0456
100
AcDbXrecord
340
1D76AEFFB0
  0
MLINESTYLE
  5
1D76AEFFB7
102
{ACAD_REACTORS
330
1D76AEFFB6
102
}
330
1D76AEFFB6
100
AcDbMlineStyle
  2
STANDARD
 70
     0
  3

 62
   256
 51
90.0
 52
90.0
 71
     2
 49
0.5
 62
   256
  6
BYLAYER
 49
-0.5
 62
   256
  6
BYLAYER
  0
ACDBPLACEHOLDER
  5
1D76AF0009
102
{ACAD_REACTORS
330
1D76AF0008
102
}
330
1D76AF0008
100
AcDbPlaceHolder
280
     0
  0
XRECORD
  5
1D76AF04FE
102
{ACAD_REACTORS
330
1D76AF04F4
102
}
330
1D76AF04F4
100
AcDbXrecord
 90
        0
  0
XRECORD
  5
1D76AF0502
102
{ACAD_REACTORS
330
1D76AF04F4
102
}
330
1D76AF04F4
100
AcDbXrecord
1000
DSTYLE
1002
{
1070
   341
340
1D76AEFFC0
1070
   342
340
1D76AEFFC0
1070
   343
340
1D76AEFFC0
1070
   344
340
1D76AEFFC0
1002
}
  0
XRECORD
  5
1D76AF04FF
102
{ACAD_REACTORS
330
1D76AF04F4
102
}
330
1D76AF04F4
100
AcDbXrecord
  1
{7D18E0BE-DFD4-4006-86C8-DDAD32E04088}
  0
XRECORD
  5
1D76AF04F7
102
{ACAD_REACTORS
330
1D76AF04F4
102
}
330
1D76AF04F4
100
AcDbXrecord
  1

  0
XRECORD
  5
1D76AF04FD
102
{ACAD_REACTORS
330
1D76AF04F4
102
}
330
1D76AF04F4
100
AcDbXrecord
 90
        0
  0
XRECORD
  5
1D76AF04F9
102
{ACAD_REACTORS
330
1D76AF04F4
102
}
330
1D76AF04F4
100
AcDbXrecord
340
1D76AF000A
  0
XRECORD
  5
1D76AF04FC
102
{ACAD_REACTORS
330
1D76AF04F4
102
}
330
1D76AF04F4
100
AcDbXrecord
 90
    14877
  0
XRECORD
  5
1D76AF04FA
102
{ACAD_REACTORS
330
1D76AF04F4
102
}
330
1D76AF04F4
100
AcDbXrecord
340
1D76AF000B
  0
XRECORD
  5
1D76AF04FB
102
{ACAD_REACTORS
330
1D76AF04F4
102
}
330
1D76AF04F4
100
AcDbXrecord
340
1D76AF0008
  0
XRECORD
  5
1D76AF0501
102
{ACAD_REACTORS
330
1D76AF04F4
102
}
330
1D76AF04F4
100
AcDbXrecord
 40
0.0
  0
XRECORD
  5
1D76AF0505
102
{ACAD_REACTORS
330
1D76AF04F4
102
}
330
1D76AF04F4
100
AcDbXrecord
340
0
  0
XRECORD
  5
1D76AF050B
102
{ACAD_REACTORS
330
1D76AF04F4
102
}
330
1D76AF04F4
100
AcDbXrecord
 10
0.0
 20
0.0
 30
0.0
  0
XRECORD
  5
1D76AF0507
102
{ACAD_REACTORS
330
1D76AF04F4
102
}
330
1D76AF04F4
100
AcDbXrecord
 10
0.0
 20
0.0
 30
0.0
  0
XRECORD
  5
1D76AF050A
102
{ACAD_REACTORS
330
1D76AF04F4
102
}
330
1D76AF04F4
100
AcDbXrecord
 10
0.0
 20
0.0
 30
0.0
  0
XRECORD
  5
1D76AF0508
102
{ACAD_REACTORS
330
1D76AF04F4
102
}
330
1D76AF04F4
100
AcDbXrecord
 10
0.0
 20
0.0
 30
0.0
  0
XRECORD
  5
1D76AF0509
102
{ACAD_REACTORS
330
1D76AF04F4
102
}
330
1D76AF04F4
100
AcDbXrecord
 10
0.0
 20
0.0
 30
0.0
  0
XRECORD
  5
1D76AF0506
102
{ACAD_REACTORS
330
1D76AF04F4
102
}
330
1D76AF04F4
100
AcDbXrecord
 10
0.0
 20
0.0
 30
0.0
  0
XRECORD
  5
1D76AF0503
102
{ACAD_REACTORS
330
1D76AF04F4
102
}
330
1D76AF04F4
100
AcDbXrecord
340
0
  0
XRECORD
  5
1D76AF0504
102
{ACAD_REACTORS
330
1D76AF04F4
102
}
330
1D76AF04F4
100
AcDbXrecord
 70
     0
  0
XRECORD
  5
1D76AF04F8
102
{ACAD_REACTORS
330
1D76AF04F4
102
}
330
1D76AF04F4
100
AcDbXrecord
  1

  0
XRECORD
  5
1D76AF04F5
102
{ACAD_REACTORS
330
1D76AF04F4
102
}
330
1D76AF04F4
100
AcDbXrecord
 90
        1
  0
XRECORD
  5
1D76AF04F6
102
{ACAD_REACTORS
330
1D76AF04F4
102
}
330
1D76AF04F4
100
AcDbXrecord
 90
       70
  0
XRECORD
  5
1D76AF050E
102
{ACAD_REACTORS
330
1D76AF04F4
102
}
330
1D76AF04F4
100
AcDbXrecord
340
0
  0
XRECORD
  5
1D76AF0514
102
{ACAD_REACTORS
330
1D76AF04F4
102
}
330
1D76AF04F4
100
AcDbXrecord
 10
0.0
 20
0.0
 30
0.0
  0
XRECORD
  5
1D76AF0510
102
{ACAD_REACTORS
330
1D76AF04F4
102
}
330
1D76AF04F4
100
AcDbXrecord
 10
0.0
 20
0.0
 30
0.0
  0
XRECORD
  5
1D76AF0513
102
{ACAD_REACTORS
330
1D76AF04F4
102
}
330
1D76AF04F4
100
AcDbXrecord
 10
0.0
 20
0.0
 30
0.0
  0
XRECORD
  5
1D76AF0511
102
{ACAD_REACTORS
330
1D76AF04F4
102
}
330
1D76AF04F4
100
AcDbXrecord
 10
0.0
 20
0.0
 30
0.0
  0
XRECORD
  5
1D76AF0512
102
{ACAD_REACTORS
330
1D76AF04F4
102
}
330
1D76AF04F4
100
AcDbXrecord
 10
0.0
 20
0.0
 30
0.0
  0
XRECORD
  5
1D76AF050F
102
{ACAD_REACTORS
330
1D76AF04F4
102
}
330
1D76AF04F4
100
AcDbXrecord
 10
0.0
 20
0.0
 30
0.0
  0
XRECORD
  5
1D76AF050C
102
{ACAD_REACTORS
330
1D76AF04F4
102
}
330
1D76AF04F4
100
AcDbXrecord
340
0
  0
XRECORD
  5
1D76AF050D
102
{ACAD_REACTORS
330
1D76AF04F4
102
}
330
1D76AF04F4
100
AcDbXrecord
 70
     0
  0
XRECORD
  5
1D76AF0500
102
{ACAD_REACTORS
330
1D76AF04F4
102
}
330
1D76AF04F4
100
AcDbXrecord
  1
{5F4DA518-76C7-46F8-9CBA-C97EC821980E}
  0
DICTIONARYVAR
  5
1D76AF04B5
102
{ACAD_REACTORS
330
1D76AF04B4
102
}
330
1D76AF04B4
100
DictionaryVariables
280
     0
  1
0
  0
ENDSEC
  0
EOF
