  0
SECTION
  2
HEADER
  9
$ACADVER
  1
AC1015
  9
$ACADMAINTVER
 70
    10
  9
$DWGCODEPAGE
  3
ANSI_932
  9
$INSBASE
 10
0.0
 20
0.0
 30
0.0
  9
$EXTMIN
 10
-0.0000003083977163
 20
0.0000002582271463
 30
0.0
  9
$EXTMAX
 10
361.9999976916023
 20
273.0000002582271
 30
0.0
  9
$LIMMIN
 10
0.0
 20
0.0
  9
$LIMMAX
 10
180.999999
 20
273.0
  9
$ORTHOMODE
 70
     1
  9
$REGENMODE
 70
     1
  9
$FILLMODE
 70
     1
  9
$QTEXTMODE
 70
     0
  9
$MIRRTEXT
 70
     0
  9
$LTSCALE
 40
5.0
  9
$ATTMODE
 70
     1
  9
$TEXTSIZE
 40
1.5
  9
$TRACEWID
 40
0.05
  9
$TEXTSTYLE
  7
K
  9
$CLAYER
  8
JISSEN
  9
$CELTYPE
  6
BYLAYER
  9
$CECOLOR
 62
   256
  9
$CELTSCALE
 40
1.0
  9
$DISPSILH
 70
     0
  9
$DIMSCALE
 40
1.0
  9
$DIMASZ
 40
1.5
  9
$DIMEXO
 40
1.0
  9
$DIMDLI
 40
6.0
  9
$DIMRND
 40
0.0
  9
$DIMDLE
 40
0.0
  9
$DIMEXE
 40
1.0
  9
$DIMTP
 40
495.0
  9
$DIMTM
 40
0.0
  9
$DIMTXT
 40
3.0
  9
$DIMCEN
 40
0.0
  9
$DIMTSZ
 40
0.0
  9
$DIMTOL
 70
     0
  9
$DIMLIM
 70
     0
  9
$DIMTIH
 70
     0
  9
$DIMTOH
 70
     0
  9
$DIMSE1
 70
     0
  9
$DIMSE2
 70
     0
  9
$DIMTAD
 70
     1
  9
$DIMZIN
 70
     8
  9
$DIMBLK
  1
ARROWANG
  9
$DIMASO
 70
     0
  9
$DIMSHO
 70
     0
  9
$DIMPOST
  1

  9
$DIMAPOST
  1

  9
$DIMALT
 70
     0
  9
$DIMALTD
 70
     2
  9
$DIMALTF
 40
25.4
  9
$DIMLFAC
 40
1.0
  9
$DIMTOFL
 70
     1
  9
$DIMTVP
 40
0.0
  9
$DIMTIX
 70
     1
  9
$DIMSOXD
 70
     0
  9
$DIMSAH
 70
     0
  9
$DIMBLK1
  1
ARROWANG
  9
$DIMBLK2
  1
ARROWANG
  9
$DIMSTYLE
  2
IMAO
  9
$DIMCLRD
 70
     0
  9
$DIMCLRE
 70
     0
  9
$DIMCLRT
 70
     0
  9
$DIMTFAC
 40
1.0
  9
$DIMGAP
 40
0.09
  9
$DIMJUST
 70
     0
  9
$DIMSD1
 70
     0
  9
$DIMSD2
 70
     0
  9
$DIMTOLJ
 70
     1
  9
$DIMTZIN
 70
     0
  9
$DIMALTZ
 70
     0
  9
$DIMALTTZ
 70
     0
  9
$DIMUPT
 70
     0
  9
$DIMDEC
 70
     4
  9
$DIMTDEC
 70
     4
  9
$DIMALTU
 70
     2
  9
$DIMALTTD
 70
     2
  9
$DIMTXSTY
  7
STANDARD
  9
$DIMAUNIT
 70
     0
  9
$DIMADEC
 70
     0
  9
$DIMALTRND
 40
0.0
  9
$DIMAZIN
 70
     0
  9
$DIMDSEP
 70
    46
  9
$DIMATFIT
 70
     3
  9
$DIMFRAC
 70
     0
  9
$DIMLDRBLK
  1
ARROWANG
  9
$DIMLUNIT
 70
     2
  9
$DIMLWD
 70
    -2
  9
$DIMLWE
 70
    -2
  9
$DIMTMOVE
 70
     0
  9
$LUNITS
 70
     2
  9
$LUPREC
 70
     2
  9
$SKETCHINC
 40
0.1
  9
$FILLETRAD
 40
0.3
  9
$AUNITS
 70
     0
  9
$AUPREC
 70
     2
  9
$MENU
  1
STDR12J
  9
$ELEVATION
 40
0.0
  9
$PELEVATION
 40
0.0
  9
$THICKNESS
 40
0.0
  9
$LIMCHECK
 70
     0
  9
$CHAMFERA
 40
0.3
  9
$CHAMFERB
 40
0.3
  9
$CHAMFERC
 40
0.0
  9
$CHAMFERD
 40
0.0
  9
$SKPOLY
 70
     0
  9
$TDCREATE
 40
2450354.415456018
  9
$TDUCREATE
 40
2450354.040456018
  9
$TDUPDATE
 40
2455615.698967106
  9
$TDUUPDATE
 40
2455615.323967106
  9
$TDINDWG
 40
0.2412253935
  9
$TDUSRTIMER
 40
0.2412253935
  9
$USRTIMER
 70
     1
  9
$ANGBASE
 50
0.0
  9
$ANGDIR
 70
     0
  9
$PDMODE
 70
     0
  9
$PDSIZE
 40
0.0
  9
$PLINEWID
 40
0.0
  9
$SPLFRAME
 70
     0
  9
$SPLINETYPE
 70
     6
  9
$SPLINESEGS
 70
     8
  9
$HANDSEED
  5
1D6918583D
  9
$SURFTAB1
 70
     6
  9
$SURFTAB2
 70
     6
  9
$SURFTYPE
 70
     6
  9
$SURFU
 70
     6
  9
$SURFV
 70
     6
  9
$UCSBASE
  2

  9
$UCSNAME
  2

  9
$UCSORG
 10
0.0
 20
0.0
 30
0.0
  9
$UCSXDIR
 10
1.0
 20
0.0
 30
0.0
  9
$UCSYDIR
 10
0.0
 20
1.0
 30
0.0
  9
$UCSORTHOREF
  2

  9
$UCSORTHOVIEW
 70
     0
  9
$UCSORGTOP
 10
0.0
 20
0.0
 30
0.0
  9
$UCSORGBOTTOM
 10
0.0
 20
0.0
 30
0.0
  9
$UCSORGLEFT
 10
0.0
 20
0.0
 30
0.0
  9
$UCSORGRIGHT
 10
0.0
 20
0.0
 30
0.0
  9
$UCSORGFRONT
 10
0.0
 20
0.0
 30
0.0
  9
$UCSORGBACK
 10
0.0
 20
0.0
 30
0.0
  9
$PUCSBASE
  2

  9
$PUCSNAME
  2

  9
$PUCSORG
 10
0.0
 20
0.0
 30
0.0
  9
$PUCSXDIR
 10
1.0
 20
0.0
 30
0.0
  9
$PUCSYDIR
 10
0.0
 20
1.0
 30
0.0
  9
$PUCSORTHOREF
  2

  9
$PUCSORTHOVIEW
 70
     0
  9
$PUCSORGTOP
 10
0.0
 20
0.0
 30
0.0
  9
$PUCSORGBOTTOM
 10
0.0
 20
0.0
 30
0.0
  9
$PUCSORGLEFT
 10
0.0
 20
0.0
 30
0.0
  9
$PUCSORGRIGHT
 10
0.0
 20
0.0
 30
0.0
  9
$PUCSORGFRONT
 10
0.0
 20
0.0
 30
0.0
  9
$PUCSORGBACK
 10
0.0
 20
0.0
 30
0.0
  9
$USERI1
 70
     4
  9
$USERI2
 70
     1
  9
$USERI3
 70
     1
  9
$USERI4
 70
     2
  9
$USERI5
 70
     1
  9
$USERR1
 40
1.0
  9
$USERR2
 40
3.0
  9
$USERR3
 40
3.0
  9
$USERR4
 40
1.5
  9
$USERR5
 40
8.0
  9
$WORLDVIEW
 70
     1
  9
$SHADEDGE
 70
     3
  9
$SHADEDIF
 70
    70
  9
$TILEMODE
 70
     1
  9
$MAXACTVP
 70
    16
  9
$PINSBASE
 10
0.0
 20
0.0
 30
0.0
  9
$PLIMCHECK
 70
     0
  9
$PEXTMIN
 10
1.000000000000000E+20
 20
1.000000000000000E+20
 30
1.000000000000000E+20
  9
$PEXTMAX
 10
-1.000000000000000E+20
 20
-1.000000000000000E+20
 30
-1.000000000000000E+20
  9
$PLIMMIN
 10
0.0
 20
0.0
  9
$PLIMMAX
 10
12.0
 20
9.0
  9
$UNITMODE
 70
     0
  9
$VISRETAIN
 70
     0
  9
$PLINEGEN
 70
     0
  9
$PSLTSCALE
 70
     0
  9
$TREEDEPTH
 70
     0
  9
$CMLSTYLE
  2
STANDARD
  9
$CMLJUST
 70
     0
  9
$CMLSCALE
 40
1.0
  9
$PROXYGRAPHICS
 70
     1
  9
$MEASUREMENT
 70
     0
  9
$CELWEIGHT
370
    -1
  9
$ENDCAPS
280
     0
  9
$JOINSTYLE
280
     0
  9
$LWDISPLAY
290
     0
  9
$INSUNITS
 70
     0
  9
$HYPERLINKBASE
  1

  9
$STYLESHEET
  1

  9
$XEDIT
290
     1
  9
$CEPSNTYPE
380
     0
  9
$PSTYLEMODE
290
     1
  9
$FINGERPRINTGUID
  2
{505022D2-60A7-4B41-BCD0-88E652839BB9}
  9
$VERSIONGUID
  2
{79FF636B-9278-4FAE-92BB-7852045F05C8}
  9
$EXTNAMES
290
     1
  9
$PSVPSCALE
 40
0.0
  9
$OLESTARTUP
290
     0
  0
ENDSEC
  0
SECTION
  2
CLASSES
  0
CLASS
  1
LWPOLYLINE
  2
AcDbPolyline
  3
AutoCAD 2000
 90
    32768
280
     0
281
     1
  0
CLASS
  1
DICTIONARYVAR
  2
AcDbDictionaryVar
  3
AutoCAD 2000
 90
        0
280
     0
281
     0
  0
CLASS
  1
HATCH
  2
AcDbHatch
  3
AutoCAD 2000
 90
    32768
280
     0
281
     1
  0
CLASS
  1
ACDBDICTIONARYWDFLT
  2
AcDbDictionaryWithDefault
  3
AutoCAD 2000
 90
        0
280
     0
281
     0
  0
CLASS
  1
ACDBPLACEHOLDER
  2
AcDbPlaceHolder
  3
AutoCAD 2000
 90
        0
280
     0
281
     0
  0
CLASS
  1
LAYOUT
  2
AcDbLayout
  3
AutoCAD 2000
 90
        0
280
     0
281
     0
  0
CLASS
  1
LONG_TRANSACTION
  2
AcDbLongTransaction
  3
AutoCAD 2000
 90
    32768
280
     0
281
     0
  0
CLASS
  1
LWPOLYLINE
  2
AcDbPolyline
  3
AutoCAD 2000
 90
    32768
280
     0
281
     1
  0
CLASS
  1
HATCH
  2
AcDbHatch
  3
AutoCAD 2000
 90
    32768
280
     0
281
     1
  0
CLASS
  1
XRECORD
  2
AcDbXrecord
  3
AutoCAD 2000
 90
    32768
280
     0
281
     0
  0
CLASS
  1
LONG_TRANSACTION
  2
AcDbLongTransaction
  3
AutoCAD 2000
 90
    32768
280
     0
281
     0
  0
CLASS
  1
LWPOLYLINE
  2
AcDbPolyline
  3
AutoCAD 2000
 90
    32768
280
     0
281
     1
  0
CLASS
  1
HATCH
  2
AcDbHatch
  3
AutoCAD 2000
 90
    32768
280
     0
281
     1
  0
CLASS
  1
XRECORD
  2
AcDbXrecord
  3
AutoCAD 2000
 90
    32768
280
     0
281
     0
  0
CLASS
  1
LONG_TRANSACTION
  2
AcDbLongTransaction
  3
AutoCAD 2000
 90
    32768
280
     0
281
     0
  0
CLASS
  1
LWPOLYLINE
  2
AcDbPolyline
  3
AutoCAD 2000
 90
    32768
280
     0
281
     1
  0
CLASS
  1
HATCH
  2
AcDbHatch
  3
AutoCAD 2000
 90
    32768
280
     0
281
     1
  0
CLASS
  1
XRECORD
  2
AcDbXrecord
  3
AutoCAD 2000
 90
    32768
280
     0
281
     0
  0
CLASS
  1
LONG_TRANSACTION
  2
AcDbLongTransaction
  3
AutoCAD 2000
 90
    32768
280
     0
281
     0
  0
CLASS
  1
LWPOLYLINE
  2
AcDbPolyline
  3
AutoCAD 2000
 90
    32768
280
     0
281
     1
  0
CLASS
  1
HATCH
  2
AcDbHatch
  3
AutoCAD 2000
 90
    32768
280
     0
281
     1
  0
CLASS
  1
XRECORD
  2
AcDbXrecord
  3
AutoCAD 2000
 90
    32768
280
     0
281
     0
  0
ENDSEC
  0
SECTION
  2
TABLES
  0
TABLE
  2
VPORT
  5
1D69183389
330
0
100
AcDbSymbolTable
 70
    10
  0
VPORT
  5
1D691833BC
330
1D69183389
100
AcDbSymbolTableRecord
100
AcDbViewportTableRecord
  2
2
 70
     0
 10
0.5
 20
0.0
 11
1.0
 21
1.0
 12
0.924031
 22
1.052651
 13
0.0
 23
0.0
 14
1.0
 24
1.0
 15
10.0
 25
10.0
 16
0.0
 26
0.0
 36
1.0
 17
0.0
 27
0.0
 37
0.0
 40
2.105302
 41
0.877814
 42
50.0
 43
0.0
 44
0.0
 50
0.0
 51
0.0
 71
     0
 72
   500
 73
     1
 74
     1
 75
     0
 76
     0
 77
     0
 78
     0
281
     0
 65
     1
110
0.0
120
0.0
130
0.0
111
1.0
121
0.0
131
0.0
112
0.0
122
1.0
132
0.0
 79
     0
146
0.0
  0
VPORT
  5
1D691833BD
330
1D69183389
100
AcDbSymbolTableRecord
100
AcDbViewportTableRecord
  2
2
 70
     0
 10
0.0
 20
0.0
 11
0.5
 21
1.0
 12
0.924031
 22
1.052651
 13
0.0
 23
0.0
 14
1.0
 24
1.0
 15
10.0
 25
10.0
 16
0.0
 26
0.0
 36
1.0
 17
0.0
 27
0.0
 37
0.0
 40
2.105302
 41
0.877814
 42
50.0
 43
0.0
 44
0.0
 50
0.0
 51
0.0
 71
     0
 72
   500
 73
     1
 74
     1
 75
     0
 76
     0
 77
     0
 78
     0
281
     0
 65
     1
110
0.0
120
0.0
130
0.0
111
1.0
121
0.0
131
0.0
112
0.0
122
1.0
132
0.0
 79
     0
146
0.0
  0
VPORT
  5
1D691833BE
330
1D69183389
100
AcDbSymbolTableRecord
100
AcDbViewportTableRecord
  2
3
 70
     0
 10
0.0
 20
0.5
 11
1.0
 21
1.0
 12
2.832169999999998
 22
1.052651
 13
0.0
 23
0.0
 14
1.0
 24
1.0
 15
10.0
 25
10.0
 16
0.0
 26
0.0
 36
1.0
 17
0.0
 27
0.0
 37
0.0
 40
2.105302
 41
3.571429
 42
50.0
 43
0.0
 44
0.0
 50
0.0
 51
0.0
 71
     0
 72
   500
 73
     1
 74
     1
 75
     0
 76
     0
 77
     0
 78
     0
281
     0
 65
     1
110
0.0
120
0.0
130
0.0
111
1.0
121
0.0
131
0.0
112
0.0
122
1.0
132
0.0
 79
     0
146
0.0
  0
VPORT
  5
1D691833BF
330
1D69183389
100
AcDbSymbolTableRecord
100
AcDbViewportTableRecord
  2
3
 70
     0
 10
0.0
 20
0.0
 11
1.0
 21
0.5
 12
2.856741999999998
 22
1.052651
 13
0.0
 23
0.0
 14
1.0
 24
1.0
 15
10.0
 25
10.0
 16
0.0
 26
0.0
 36
1.0
 17
0.0
 27
0.0
 37
0.0
 40
2.105302
 41
3.594770999999998
 42
50.0
 43
0.0
 44
0.0
 50
0.0
 51
0.0
 71
     0
 72
   500
 73
     1
 74
     1
 75
     0
 76
     0
 77
     0
 78
     0
281
     0
 65
     1
110
0.0
120
0.0
130
0.0
111
1.0
121
0.0
131
0.0
112
0.0
122
1.0
132
0.0
 79
     0
146
0.0
  0
VPORT
  5
1D691833C0
330
1D69183389
100
AcDbSymbolTableRecord
100
AcDbViewportTableRecord
  2
4
 70
     0
 10
0.5
 20
0.0
 11
1.0
 21
0.5
 12
2.886858
 22
1.052651
 13
0.0
 23
0.0
 14
1.0
 24
1.0
 15
10.0
 25
10.0
 16
0.0
 26
0.0
 36
1.0
 17
0.0
 27
0.0
 37
0.0
 40
4.275206999999999
 41
1.784314
 42
50.0
 43
0.0
 44
0.0
 50
0.0
 51
0.0
 71
     0
 72
   500
 73
     1
 74
     1
 75
     0
 76
     0
 77
     0
 78
     0
281
     0
 65
     1
110
0.0
120
0.0
130
0.0
111
1.0
121
0.0
131
0.0
112
0.0
122
1.0
132
0.0
 79
     0
146
0.0
  0
VPORT
  5
1D691833C1
330
1D69183389
100
AcDbSymbolTableRecord
100
AcDbViewportTableRecord
  2
4
 70
     0
 10
0.5
 20
0.5
 11
1.0
 21
1.0
 12
2.86209
 22
1.052651
 13
0.0
 23
0.0
 14
1.0
 24
1.0
 15
10.0
 25
10.0
 16
0.0
 26
0.0
 36
1.0
 17
0.0
 27
0.0
 37
0.0
 40
4.275206999999999
 41
1.772726999999999
 42
50.0
 43
0.0
 44
0.0
 50
0.0
 51
0.0
 71
     0
 72
   500
 73
     1
 74
     1
 75
     0
 76
     0
 77
     0
 78
     0
281
     0
 65
     1
110
0.0
120
0.0
130
0.0
111
1.0
121
0.0
131
0.0
112
0.0
122
1.0
132
0.0
 79
     0
146
0.0
  0
VPORT
  5
1D691833C2
330
1D69183389
100
AcDbSymbolTableRecord
100
AcDbViewportTableRecord
  2
4
 70
     0
 10
0.0
 20
0.5
 11
0.5
 21
1.0
 12
2.86209
 22
1.052651
 13
0.0
 23
0.0
 14
1.0
 24
1.0
 15
10.0
 25
10.0
 16
0.0
 26
0.0
 36
1.0
 17
0.0
 27
0.0
 37
0.0
 40
4.275206999999999
 41
1.772726999999999
 42
50.0
 43
0.0
 44
0.0
 50
0.0
 51
0.0
 71
     0
 72
   500
 73
     1
 74
     1
 75
     0
 76
     0
 77
     0
 78
     0
281
     0
 65
     1
110
0.0
120
0.0
130
0.0
111
1.0
121
0.0
131
0.0
112
0.0
122
1.0
132
0.0
 79
     0
146
0.0
  0
VPORT
  5
1D691833C3
330
1D69183389
100
AcDbSymbolTableRecord
100
AcDbViewportTableRecord
  2
4
 70
     0
 10
0.0
 20
0.0
 11
0.5
 21
0.5
 12
2.886858
 22
1.052651
 13
0.0
 23
0.0
 14
1.0
 24
1.0
 15
10.0
 25
10.0
 16
0.0
 26
0.0
 36
1.0
 17
0.0
 27
0.0
 37
0.0
 40
4.275206999999999
 41
1.784314
 42
50.0
 43
0.0
 44
0.0
 50
0.0
 51
0.0
 71
     0
 72
   500
 73
     1
 74
     1
 75
     0
 76
     0
 77
     0
 78
     0
281
     0
 65
     1
110
0.0
120
0.0
130
0.0
111
1.0
121
0.0
131
0.0
112
0.0
122
1.0
132
0.0
 79
     0
146
0.0
  0
VPORT
  5
1D6918583C
330
1D69183389
100
AcDbSymbolTableRecord
100
AcDbViewportTableRecord
  2
*Active
 70
     0
 10
0.0
 20
0.0
 11
1.0
 21
1.0
 12
237.2908527235148
 22
136.5000006356275
 13
0.0
 23
0.0
 14
1.0
 24
1.0
 15
10.0
 25
10.0
 16
0.0
 26
0.0
 36
1.0
 17
0.0
 27
0.0
 37
0.0
 40
300.2178820302288
 41
1.588383838383838
 42
50.0
 43
0.0
 44
0.0
 50
0.0
 51
0.0
 71
     0
 72
   500
 73
     1
 74
     0
 75
     0
 76
     0
 77
     0
 78
     0
281
     0
 65
     1
110
0.0
120
0.0
130
0.0
111
1.0
121
0.0
131
0.0
112
0.0
122
1.0
132
0.0
 79
     0
146
0.0
  0
ENDTAB
  0
TABLE
  2
LTYPE
  5
1D69183386
330
0
100
AcDbSymbolTable
 70
     4
  0
LTYPE
  5
1D69183393
330
1D69183386
100
AcDbSymbolTableRecord
100
AcDbLinetypeTableRecord
  2
BYBLOCK
 70
     0
  3

 72
    65
 73
     0
 40
0.0
  0
LTYPE
  5
1D69183394
330
1D69183386
100
AcDbSymbolTableRecord
100
AcDbLinetypeTableRecord
  2
BYLAYER
 70
     0
  3

 72
    65
 73
     0
 40
0.0
  0
LTYPE
  5
1D69183395
330
1D69183386
100
AcDbSymbolTableRecord
100
AcDbLinetypeTableRecord
  2
CONTINUOUS
 70
     0
  3
実線
 72
    65
 73
     0
 40
0.0
  0
LTYPE
  5
1D691833BA
330
1D69183386
100
AcDbSymbolTableRecord
100
AcDbLinetypeTableRecord
  2
PHANTOM
 70
     0
  3
_____ _ _ _____ _ _ _____ _ _ _____ _ _ ____
 72
    65
 73
     6
 40
2.5
 49
1.25
 74
     0
 49
-0.25
 74
     0
 49
0.25
 74
     0
 49
-0.25
 74
     0
 49
0.25
 74
     0
 49
-0.25
 74
     0
  0
LTYPE
  5
1D69184A95
330
1D69183386
100
AcDbSymbolTableRecord
100
AcDbLinetypeTableRecord
  2
CENTER
 70
     0
  3
____ _ ____ _ ____ _ ____ _ ____ _ ____ _ ____
 72
    65
 73
     4
 40
2.0
 49
1.25
 74
     0
 49
-0.25
 74
     0
 49
0.25
 74
     0
 49
-0.25
 74
     0
  0
LTYPE
  5
1D69184FBC
330
1D69183386
100
AcDbSymbolTableRecord
100
AcDbLinetypeTableRecord
  2
DASHED
 70
     0
  3
__ __ __ __ __ __ __ __ __ __ __ __ __ __ __
 72
    65
 73
     2
 40
0.75
 49
0.5
 74
     0
 49
-0.25
 74
     0
  0
ENDTAB
  0
TABLE
  2
LAYER
  5
1D69183383
102
{ACAD_XDICTIONARY
360
1D69184A9E
102
}
330
0
100
AcDbSymbolTable
 70
    12
  0
LAYER
  5
1D69183390
330
1D69183383
100
AcDbSymbolTableRecord
100
AcDbLayerTableRecord
  2
0
 70
     0
 62
     7
  6
CONTINUOUS
370
    -3
390
1D69183F2E
  0
LAYER
  5
1D691833C9
330
1D69183383
100
AcDbSymbolTableRecord
100
AcDbLayerTableRecord
  2
NITEN
 70
     0
 62
     2
  6
PHANTOM
370
    -3
390
1D69183F2E
  0
LAYER
  5
1D691833CB
330
1D69183383
100
AcDbSymbolTableRecord
100
AcDbLayerTableRecord
  2
SUNPOU
 70
     0
 62
     3
  6
CONTINUOUS
370
    -3
390
1D69183F2E
  0
LAYER
  5
1D691833CC
330
1D69183383
100
AcDbSymbolTableRecord
100
AcDbLayerTableRecord
  2
TEXT
 70
     0
 62
     3
  6
CONTINUOUS
370
    -3
390
1D69183F2E
  0
LAYER
  5
1D691833CD
330
1D69183383
100
AcDbSymbolTableRecord
100
AcDbLayerTableRecord
  2
SAISEN
 70
     0
 62
     4
  6
CONTINUOUS
370
    -3
390
1D69183F2E
  0
LAYER
  5
1D691833CE
330
1D69183383
100
AcDbSymbolTableRecord
100
AcDbLayerTableRecord
  2
JISSEN
 70
     0
 62
     7
  6
CONTINUOUS
370
    -3
390
1D69183F2E
  0
LAYER
  5
1D691833D2
330
1D69183383
100
AcDbSymbolTableRecord
100
AcDbLayerTableRecord
  2
WAKU
 70
     0
 62
     5
  6
CONTINUOUS
370
    -3
390
1D69183F2E
  0
LAYER
  5
1D69184A96
330
1D69183383
100
AcDbSymbolTableRecord
100
AcDbLayerTableRecord
  2
ITTEN
 70
     0
 62
     1
  6
CENTER
370
    -3
390
1D69183F2E
  0
LAYER
  5
1D69184A97
330
1D69183383
100
AcDbSymbolTableRecord
100
AcDbLayerTableRecord
  2
HATCH
 70
     0
 62
     4
  6
CONTINUOUS
370
    -3
390
1D69183F2E
  0
LAYER
  5
1D69184A98
330
1D69183383
100
AcDbSymbolTableRecord
100
AcDbLayerTableRecord
  2
HOJO
 70
     0
 62
     6
  6
CONTINUOUS
370
    -3
390
1D69183F2E
  0
LAYER
  5
1D69184A99
102
{ACAD_XDICTIONARY
360
1D69184A9A
102
}
330
1D69183383
100
AcDbSymbolTableRecord
100
AcDbLayerTableRecord
  2
HOJYO
 70
     0
 62
     7
  6
CONTINUOUS
370
    -3
390
1D69183F2E
  0
LAYER
  5
1D69184FBD
330
1D69183383
100
AcDbSymbolTableRecord
100
AcDbLayerTableRecord
  2
HASEN
 70
     0
 62
     2
  6
DASHED
370
    -3
390
1D69183F2E
  0
ENDTAB
  0
TABLE
  2
STYLE
  5
1D69183384
330
0
100
AcDbSymbolTable
 70
     4
  0
STYLE
  5
1D69183391
330
1D69183384
100
AcDbSymbolTableRecord
100
AcDbTextStyleTableRecord
  2
STANDARD
 70
     0
 40
0.0
 41
1.0
 50
0.0
 71
     0
 42
0.2
  3
ROMANS
  4
EXTFONT
  0
STYLE
  5
1D691833B3
330
1D69183384
100
AcDbSymbolTableRecord
100
AcDbTextStyleTableRecord
  2
K
 70
     0
 40
0.0
 41
1.0
 50
0.0
 71
     0
 42
1.5
  3
ROMANS.shx
  4
bigfont.shx
  0
STYLE
  5
1D691833B5
330
1D69183384
100
AcDbSymbolTableRecord
100
AcDbTextStyleTableRecord
  2
BIGFONT
 70
     0
 40
0.0
 41
1.0
 50
0.0
 71
     0
 42
3.0
  3
txt.shx
  4
bigfont
  0
STYLE
  5
1D69184A9D
330
1D69183384
100
AcDbSymbolTableRecord
100
AcDbTextStyleTableRecord
  2
ROMANS
 70
     0
 40
0.0
 41
0.8
 50
0.0
 71
     0
 42
2.5
  3
romans
  4

  0
ENDTAB
  0
TABLE
  2
VIEW
  5
1D69183387
330
0
100
AcDbSymbolTable
 70
     0
  0
ENDTAB
  0
TABLE
  2
UCS
  5
1D69183388
330
0
100
AcDbSymbolTable
 70
     0
  0
ENDTAB
  0
TABLE
  2
APPID
  5
1D6918338A
330
0
100
AcDbSymbolTable
 70
     1
  0
APPID
  5
1D69183392
330
1D6918338A
100
AcDbSymbolTableRecord
100
AcDbRegAppTableRecord
  2
ACAD
 70
     0
  0
ENDTAB
  0
TABLE
  2
DIMSTYLE
  5
1D6918338B
330
0
100
AcDbSymbolTable
 70
     1
100
AcDbDimStyleTable
 71
     0
  0
DIMSTYLE
105
1D691833C6
330
1D6918338B
100
AcDbSymbolTableRecord
100
AcDbDimStyleTableRecord
  2
IMAO
 70
     0
 41
1.5
 42
1.0
 43
6.0
 44
1.0
 47
495.0
 73
     0
 74
     0
 77
     1
 78
     8
140
3.0
141
0.0
172
     1
174
     1
271
     2
272
     2
284
     8
285
     8
286
     8
340
1D691833B5
341
1D691833A3
342
1D691833A3
343
1D691833A3
344
1D691833A3
  0
ENDTAB
  0
TABLE
  2
BLOCK_RECORD
  5
1D69183382
330
0
100
AcDbSymbolTable
 70
     2
  0
BLOCK_RECORD
  5
1D69183399
102
{ACAD_XDICTIONARY
360
1D691843B3
102
}
330
1D69183382
100
AcDbSymbolTableRecord
100
AcDbBlockTableRecord
  2
*MODEL_SPACE
340
1D691848FE
  0
BLOCK_RECORD
  5
1D69183396
102
{ACAD_XDICTIONARY
360
1D691843B1
102
}
330
1D69183382
100
AcDbSymbolTableRecord
100
AcDbBlockTableRecord
  2
*PAPER_SPACE
340
1D691848FF
  0
BLOCK_RECORD
  5
1D691833A3
330
1D69183382
100
AcDbSymbolTableRecord
100
AcDbBlockTableRecord
  2
ARROWANG
340
0
102
{BLKREFS
331
1D69185791
102
}
  0
BLOCK_RECORD
  5
1D69184FB6
330
1D69183382
100
AcDbSymbolTableRecord
100
AcDbBlockTableRecord
  2
ARROW
340
0
  0
ENDTAB
  0
ENDSEC
  0
SECTION
  2
BLOCKS
  0
BLOCK
  5
1D691833D6
330
1D69183399
100
AcDbEntity
  8
0
100
AcDbBlockBegin
  2
*MODEL_SPACE
 70
     0
 10
0.0
 20
0.0
 30
0.0
  3
*MODEL_SPACE
  1

  0
ENDBLK
  5
1D691833D7
330
1D69183399
100
AcDbEntity
  8
0
100
AcDbBlockEnd
  0
BLOCK
  5
1D691833D4
330
1D69183396
100
AcDbEntity
 67
     1
  8
0
100
AcDbBlockBegin
  2
*PAPER_SPACE
 70
     0
 10
0.0
 20
0.0
 30
0.0
  3
*PAPER_SPACE
  1

  0
ENDBLK
  5
1D691833D5
330
1D69183396
100
AcDbEntity
 67
     1
  8
0
100
AcDbBlockEnd
  0
BLOCK
  5
1D
330
1D691833A3
100
AcDbEntity
  8
0
100
AcDbBlockBegin
  2
ARROWANG
 70
     0
 10
0.0
 20
0.0
 30
0.0
  3
ARROWANG
  1

  0
LINE
  5
1E
330
1D691833A3
100
AcDbEntity
  8
SUNPOU
100
AcDbLine
 10
0.0
 20
0.0
 30
0.0
 11
-1.5
 21
0.401924
 31
0.0
  0
LINE
  5
1F
330
1D691833A3
100
AcDbEntity
  8
SUNPOU
100
AcDbLine
 10
0.0
 20
0.0
 30
0.0
 11
-1.5
 21
-0.401924
 31
0.0
  0
ENDBLK
  5
20
330
1D691833A3
100
AcDbEntity
  8
0
100
AcDbBlockEnd
  0
BLOCK
  5
1D69184FBA
330
1D69184FB6
100
AcDbEntity
  8
0
100
AcDbBlockBegin
  2
ARROW
 70
     0
 10
1.0
 20
0.5
 30
0.0
  3
ARROW
  1

  0
LINE
  5
1D69184FB7
330
1D69184FB6
100
AcDbEntity
  8
0
100
AcDbLine
 10
1.0
 20
0.5
 30
0.0
 11
-0.5000000000000214
 21
0.0980762113533018
 31
0.0
  0
LINE
  5
1D69184FB8
330
1D69184FB6
100
AcDbEntity
  8
0
100
AcDbLine
 10
0.0
 20
0.5
 30
0.0
 11
1.0
 21
0.5
 31
0.0
  0
LINE
  5
1D69184FB9
330
1D69184FB6
100
AcDbEntity
  8
0
100
AcDbLine
 10
1.0
 20
0.5
 30
0.0
 11
-0.4999999999999574
 21
0.9019237886467408
 31
0.0
  0
ENDBLK
  5
1D69184FBB
330
1D69184FB6
100
AcDbEntity
  8
0
100
AcDbBlockEnd
  0
ENDSEC
  0
SECTION
  2
ENTITIES
  0
LINE
  5
1D691856D5
330
1D69183399
100
AcDbEntity
  8
JISSEN
 62
     7
100
AcDbLine
 10
266.9499986916024
 20
106.2692899525791
 30
0.0
 11
269.0999986916021
 21
106.2692899525791
 31
0.0
  0
LINE
  5
1D691856D6
330
1D69183399
100
AcDbEntity
  8
SUNPOU
 62
     7
100
AcDbLine
 10
256.3499986916022
 20
115.7692899525791
 30
0.0
 11
268.0962603738437
 21
115.7692899525791
 31
0.0
  0
ARC
  5
1D691856D7
330
1D69183399
100
AcDbEntity
  8
JISSEN
 62
     7
100
AcDbCircle
 10
259.4999986916023
 20
109.8315425417878
 30
0.0
 40
3.0
100
AcDbArc
 50
180.0
 51
263.4885330023169
  0
LINE
  5
1D691856D8
330
1D69183399
100
AcDbEntity
  8
JISSEN
 62
     7
100
AcDbLine
 10
268.0401856074885
 20
116.2692899525791
 30
0.0
 11
256.3499986916022
 21
116.2692899525791
 31
0.0
  0
LINE
  5
1D691856D9
330
1D69183399
100
AcDbEntity
  8
HOJYO
 62
     7
100
AcDbLine
 10
256.3499986916022
 20
115.7692899525791
 30
0.0
 11
256.3499986916022
 21
116.2692899525791
 31
0.0
  0
LINE
  5
1D691856DA
330
1D69183399
100
AcDbEntity
  8
JISSEN
 62
     7
100
AcDbLine
 10
256.4999986916022
 20
115.6192899525791
 30
0.0
 11
256.4999986916022
 21
109.8315425417878
 31
0.0
  0
ARC
  5
1D691856DB
330
1D69183399
100
AcDbEntity
  8
JISSEN
 62
     7
100
AcDbCircle
 10
256.3499986916022
 20
115.6192899525791
 30
0.0
 40
0.15
100
AcDbArc
 50
0.0
 51
90.0
  0
ARC
  5
1D691856DC
330
1D69183399
100
AcDbEntity
  8
JISSEN
 62
     7
100
AcDbCircle
 10
270.4999986916022
 20
206.2058129670419
 30
0.0
 40
100.0
100
AcDbArc
 50
263.4885330023169
 51
267.9512248827587
  0
LINE
  5
1D691856DD
330
1D69183399
100
AcDbEntity
  8
JISSEN
 62
     7
100
AcDbLine
 10
262.3774808757862
 20
117.519289952591
 30
0.0
 11
262.3774808757862
 21
116.2692899525791
 31
0.0
  0
LINE
  5
1D691856DE
330
1D69183399
100
AcDbEntity
  8
JISSEN
 62
     7
100
AcDbLine
 10
264.2499986916013
 20
116.2692899525791
 30
0.0
 11
264.2499986916013
 21
117.519289952591
 31
0.0
  0
LINE
  5
1D691856DF
330
1D69183399
100
AcDbEntity
  8
JISSEN
 62
     7
100
AcDbLine
 10
265.4249986915993
 20
116.2692899525791
 30
0.0
 11
265.4249986915993
 21
117.519289952591
 31
0.0
  0
LINE
  5
1D691856E0
330
1D69183399
100
AcDbEntity
  8
JISSEN
 62
     7
100
AcDbLine
 10
266.8249986915994
 20
117.519289952591
 30
0.0
 11
266.8249986915994
 21
116.2692899525791
 31
0.0
  0
LINE
  5
1D691856E1
330
1D69183399
100
AcDbEntity
  8
0
 62
     7
100
AcDbLine
 10
258.7499986916022
 20
138.5192899525907
 30
0.0
 11
259.744518270611
 21
139.5138095315995
 31
0.0
  0
LINE
  5
1D691856E2
330
1D69183399
100
AcDbEntity
  8
SUNPOU
 62
     7
100
AcDbLine
 10
259.744518270611
 20
139.5138095315995
 30
0.0
 11
270.4999986916023
 21
139.5138095315995
 31
0.0
  0
LINE
  5
1D691856E3
330
1D69183399
100
AcDbEntity
  8
SUNPOU
 62
     7
100
AcDbLine
 10
260.2393185530875
 20
155.258609814076
 30
0.0
 11
270.4999986916023
 21
155.258609814076
 31
0.0
  0
LINE
  5
1D691856E4
330
1D69183399
100
AcDbEntity
  8
HOJYO
 62
     7
100
AcDbLine
 10
270.4999986916023
 20
141.4912052966848
 30
0.0
 11
259.8066604359974
 21
141.4912052966848
 31
0.0
  0
LINE
  5
1D691856E5
330
1D69183399
100
AcDbEntity
  8
HOJYO
 62
     7
100
AcDbLine
 10
270.4999986916023
 20
156.5192899525907
 30
0.0
 11
261.4999986916022
 21
156.5192899525907
 31
0.0
  0
LINE
  5
1D691856E6
330
1D69183399
100
AcDbEntity
  8
SAISEN
 62
     7
100
AcDbLine
 10
261.2438420996104
 20
156.2631333605988
 30
0.0
 11
260.7796155583005
 21
141.4912052966848
 31
0.0
  0
LINE
  5
1D691856E7
330
1D69183399
100
AcDbEntity
  8
0
 62
     7
100
AcDbLine
 10
260.2393185530875
 20
155.258609814076
 30
0.0
 11
259.744518270611
 21
139.5138095315995
 31
0.0
  0
LINE
  5
1D691856E8
330
1D69183399
100
AcDbEntity
  8
SAISEN
 62
     7
100
AcDbLine
 10
259.7506520056199
 20
139.7089881443053
 30
0.0
 11
260.7796155583005
 21
141.4912052966848
 31
0.0
  0
LINE
  5
1D691856E9
330
1D69183399
100
AcDbEntity
  8
HOJYO
 62
     7
100
AcDbLine
 10
262.420590059349
 20
156.5192899525907
 30
0.0
 11
261.4999986916022
 21
156.5192899525907
 31
0.0
  0
LINE
  5
1D691856EA
330
1D69183399
100
AcDbEntity
  8
0
 62
     7
100
AcDbLine
 10
260.2393185530875
 20
155.258609814076
 30
0.0
 11
261.4999986916022
 21
156.5192899525907
 31
0.0
  0
LINE
  5
1D691856EB
330
1D69183399
100
AcDbEntity
  8
0
 62
     7
100
AcDbLine
 10
280.760678830117
 20
155.2586098140761
 30
0.0
 11
279.4999986916022
 21
156.5192899525908
 31
0.0
  0
LINE
  5
1D691856EC
330
1D69183399
100
AcDbEntity
  8
HOJYO
 62
     7
100
AcDbLine
 10
278.5794073238555
 20
156.5192899525908
 30
0.0
 11
279.4999986916022
 21
156.5192899525908
 31
0.0
  0
LINE
  5
1D691856ED
330
1D69183399
100
AcDbEntity
  8
SAISEN
 62
     7
100
AcDbLine
 10
281.2493453775847
 20
139.7089881443054
 30
0.0
 11
280.2203818249041
 21
141.4912052966849
 31
0.0
  0
LINE
  5
1D691856EE
330
1D69183399
100
AcDbEntity
  8
0
 62
     7
100
AcDbLine
 10
280.760678830117
 20
155.2586098140761
 30
0.0
 11
281.2554791125936
 21
139.5138095315995
 31
0.0
  0
LINE
  5
1D691856EF
330
1D69183399
100
AcDbEntity
  8
SAISEN
 62
     7
100
AcDbLine
 10
279.7561552835941
 20
156.2631333605989
 30
0.0
 11
280.2203818249041
 21
141.4912052966849
 31
0.0
  0
LINE
  5
1D691856F0
330
1D69183399
100
AcDbEntity
  8
HOJYO
 62
     7
100
AcDbLine
 10
270.4999986916023
 20
156.5192899525907
 30
0.0
 11
279.4999986916022
 21
156.5192899525908
 31
0.0
  0
LINE
  5
1D691856F1
330
1D69183399
100
AcDbEntity
  8
HOJYO
 62
     7
100
AcDbLine
 10
270.4999986916023
 20
141.4912052966848
 30
0.0
 11
281.1933369472072
 21
141.4912052966849
 31
0.0
  0
LINE
  5
1D691856F2
330
1D69183399
100
AcDbEntity
  8
SUNPOU
 62
     7
100
AcDbLine
 10
280.760678830117
 20
155.2586098140761
 30
0.0
 11
270.4999986916023
 21
155.258609814076
 31
0.0
  0
LINE
  5
1D691856F3
330
1D69183399
100
AcDbEntity
  8
SUNPOU
 62
     7
100
AcDbLine
 10
281.2554791125936
 20
139.5138095315995
 30
0.0
 11
270.4999986916023
 21
139.5138095315995
 31
0.0
  0
LINE
  5
1D691856F4
330
1D69183399
100
AcDbEntity
  8
0
 62
     7
100
AcDbLine
 10
282.2499986916024
 20
138.5192899525909
 30
0.0
 11
281.2554791125936
 21
139.5138095315995
 31
0.0
  0
LINE
  5
1D691856F5
330
1D69183399
100
AcDbEntity
  8
JISSEN
 62
     7
100
AcDbLine
 10
274.1749986916055
 20
117.519289952591
 30
0.0
 11
274.1749986916054
 21
116.2692899525791
 31
0.0
  0
LINE
  5
1D691856F6
330
1D69183399
100
AcDbEntity
  8
JISSEN
 62
     7
100
AcDbLine
 10
275.5749986916056
 20
116.2692899525791
 30
0.0
 11
275.5749986916056
 21
117.519289952591
 31
0.0
  0
LINE
  5
1D691856F7
330
1D69183399
100
AcDbEntity
  8
JISSEN
 62
     7
100
AcDbLine
 10
276.7499986916035
 20
116.2692899525791
 30
0.0
 11
276.7499986916035
 21
117.519289952591
 31
0.0
  0
LINE
  5
1D691856F8
330
1D69183399
100
AcDbEntity
  8
JISSEN
 62
     7
100
AcDbLine
 10
278.6225165074187
 20
117.519289952591
 30
0.0
 11
278.6225165074187
 21
116.2692899525791
 31
0.0
  0
ARC
  5
1D691856F9
330
1D69183399
100
AcDbEntity
  8
JISSEN
 62
     7
100
AcDbCircle
 10
270.4999986916019
 20
206.2058129670419
 30
0.0
 40
100.0
100
AcDbArc
 50
272.0487751172417
 51
276.5114669976835
  0
ARC
  5
1D691856FA
330
1D69183399
100
AcDbEntity
  8
JISSEN
 62
     7
100
AcDbCircle
 10
284.6499986916026
 20
115.6192899525792
 30
0.0
 40
0.15
100
AcDbArc
 50
90.00000000000047
 51
180.0000000000004
  0
LINE
  5
1D691856FB
330
1D69183399
100
AcDbEntity
  8
JISSEN
 62
     7
100
AcDbLine
 10
284.4999986916026
 20
115.6192899525792
 30
0.0
 11
284.4999986916026
 21
109.8315425417879
 31
0.0
  0
LINE
  5
1D691856FC
330
1D69183399
100
AcDbEntity
  8
HOJYO
 62
     7
100
AcDbLine
 10
284.6499986916026
 20
115.7692899525792
 30
0.0
 11
284.6499986916026
 21
116.2692899525792
 31
0.0
  0
LINE
  5
1D691856FD
330
1D69183399
100
AcDbEntity
  8
JISSEN
 62
     7
100
AcDbLine
 10
272.959811775716
 20
116.2692899525791
 30
0.0
 11
284.6499986916026
 21
116.2692899525792
 31
0.0
  0
ARC
  5
1D691856FE
330
1D69183399
100
AcDbEntity
  8
JISSEN
 62
     7
100
AcDbCircle
 10
281.4999986916026
 20
109.8315425417879
 30
0.0
 40
3.0
100
AcDbArc
 50
276.5114669976835
 51
0.0000000000004931
  0
LINE
  5
1D691856FF
330
1D69183399
100
AcDbEntity
  8
SUNPOU
 62
     7
100
AcDbLine
 10
284.6499986916026
 20
115.7692899525792
 30
0.0
 11
272.9037370093609
 21
115.7692899525791
 31
0.0
  0
LINE
  5
1D69185700
330
1D69183399
100
AcDbEntity
  8
JISSEN
 62
     7
100
AcDbLine
 10
274.0499986916024
 20
106.2692899525791
 30
0.0
 11
271.8999986916024
 21
106.2692899525791
 31
0.0
  0
LINE
  5
1D69185701
330
1D69183399
100
AcDbEntity
  8
JISSEN
100
AcDbLine
 10
287.549998691603
 20
106.8192899525911
 30
0.0
 11
285.7999986916184
 21
117.519289952591
 31
0.0
  0
LINE
  5
1D69185702
330
1D69183399
100
AcDbEntity
  8
JISSEN
100
AcDbLine
 10
291.7499986916027
 20
138.0192899525907
 30
0.0
 11
291.2499986916028
 21
138.5192899525907
 31
0.0
  0
LINE
  5
1D69185703
330
1D69183399
100
AcDbEntity
  8
JISSEN
100
AcDbLine
 10
291.7499986916027
 20
90.41928995259107
 30
0.0
 11
291.7499986916027
 21
138.0192899525907
 31
0.0
  0
LINE
  5
1D69185704
330
1D69183399
100
AcDbEntity
  8
JISSEN
100
AcDbLine
 10
287.549998691603
 20
106.8192899525911
 30
0.0
 11
285.7999986916184
 21
117.519289952591
 31
0.0
  0
LINE
  5
1D69185705
330
1D69183399
100
AcDbEntity
  8
JISSEN
100
AcDbLine
 10
287.5499986916029
 20
91.81928995252752
 30
0.0
 11
287.549998691603
 21
106.8192899525911
 31
0.0
  0
LINE
  5
1D69185706
330
1D69183399
100
AcDbEntity
  8
JISSEN
100
AcDbLine
 10
289.2499986915991
 20
89.01928995252744
 30
0.0
 11
290.2499986916046
 21
89.01928995253015
 31
0.0
  0
ARC
  5
1D69185707
330
1D69183399
100
AcDbEntity
  8
JISSEN
100
AcDbCircle
 10
290.3499986916027
 20
90.41928995259107
 30
0.0
 40
1.399999999999999
100
AcDbArc
 50
270.0
 51
90.0
  0
LINE
  5
1D69185708
330
1D69183399
100
AcDbEntity
  8
JISSEN
100
AcDbLine
 10
290.2003159479373
 20
117.519289952591
 30
0.0
 11
271.8999986916019
 21
117.519289952591
 31
0.0
  0
LINE
  5
1D69185709
330
1D69183399
100
AcDbEntity
  8
JISSEN
100
AcDbLine
 10
290.2003159479373
 20
131.1192899525905
 30
0.0
 11
271.8999986916013
 21
131.1192899525905
 31
0.0
  0
LINE
  5
1D6918570A
330
1D69183399
100
AcDbEntity
  8
JISSEN
100
AcDbLine
 10
290.2003159479373
 20
131.1192899525905
 30
0.0
 11
290.2003159479373
 21
117.5192899525909
 31
0.0
  0
LINE
  5
1D6918570B
330
1D69183399
100
AcDbEntity
  8
JISSEN
100
AcDbLine
 10
291.7499986916027
 20
132.5192899525911
 30
0.0
 11
290.2003159479373
 21
131.1192899525905
 31
0.0
  0
LINE
  5
1D6918570C
330
1D69183399
100
AcDbEntity
  8
JISSEN
100
AcDbLine
 10
273.0999986916052
 20
117.5192899525911
 30
0.0
 11
271.8999986916052
 21
106.8192899525911
 31
0.0
  0
LINE
  5
1D6918570D
330
1D69183399
100
AcDbEntity
  8
JISSEN
100
AcDbLine
 10
249.2499986916017
 20
132.5192899525911
 30
0.0
 11
250.7996814352672
 21
131.1192899525905
 31
0.0
  0
LINE
  5
1D6918570E
330
1D69183399
100
AcDbEntity
  8
JISSEN
100
AcDbLine
 10
250.7996814352672
 20
131.1192899525905
 30
0.0
 11
250.7996814352672
 21
117.5192899525909
 31
0.0
  0
LINE
  5
1D6918570F
330
1D69183399
100
AcDbEntity
  8
JISSEN
100
AcDbLine
 10
250.7996814352672
 20
117.519289952591
 30
0.0
 11
269.0999986916026
 21
117.519289952591
 31
0.0
  0
LINE
  5
1D69185710
330
1D69183399
100
AcDbEntity
  8
JISSEN
100
AcDbLine
 10
267.8999986915993
 20
117.5192899525911
 30
0.0
 11
269.0999986915993
 21
106.8192899525911
 31
0.0
  0
LINE
  5
1D69185711
330
1D69183399
100
AcDbEntity
  8
JISSEN
 48
3.0
100
AcDbLine
 10
269.0999986916032
 20
131.1192899525907
 30
0.0
 11
269.0999986916015
 21
92.81928995252746
 31
0.0
  0
LINE
  5
1D69185712
330
1D69183399
100
AcDbEntity
  8
JISSEN
100
AcDbLine
 10
253.4499986916015
 20
91.8192899525275
 30
0.0
 11
253.4499986916015
 21
106.8192899525911
 31
0.0
  0
LINE
  5
1D69185713
330
1D69183399
100
AcDbEntity
  8
JISSEN
100
AcDbLine
 10
253.4499986916015
 20
106.8192899525911
 30
0.0
 11
255.1999986915861
 21
117.519289952591
 31
0.0
  0
LINE
  5
1D69185714
330
1D69183399
100
AcDbEntity
  8
JISSEN
100
AcDbLine
 10
253.4499986916015
 20
106.8192899525911
 30
0.0
 11
255.1999986915861
 21
117.519289952591
 31
0.0
  0
ARC
  5
1D69185715
330
1D69183399
100
AcDbEntity
  8
JISSEN
100
AcDbCircle
 10
250.6499986916018
 20
90.41928995259107
 30
0.0
 40
1.399999999999999
100
AcDbArc
 50
90.0
 51
270.0
  0
LINE
  5
1D69185716
330
1D69183399
100
AcDbEntity
  8
JISSEN
100
AcDbLine
 10
251.7499986916054
 20
89.01928995252744
 30
0.0
 11
250.649998691598
 21
89.01928995253047
 31
0.0
  0
LINE
  5
1D69185717
330
1D69183399
100
AcDbEntity
  8
JISSEN
100
AcDbLine
 10
249.2499986916017
 20
90.41928995259107
 30
0.0
 11
249.2499986916017
 21
138.0192899525907
 31
0.0
  0
LINE
  5
1D69185718
330
1D69183399
100
AcDbEntity
  8
JISSEN
100
AcDbLine
 10
249.2499986916017
 20
138.0192899525907
 30
0.0
 11
249.7499986916017
 21
138.5192899525907
 31
0.0
  0
ARC
  5
1D69185719
330
1D69183399
100
AcDbEntity
  8
JISSEN
100
AcDbCircle
 10
270.4999986916023
 20
131.119289952592
 30
0.0
 40
1.399999999998996
100
AcDbArc
 50
0.0000000000023154
 51
180.0000000000569
  0
ARC
  5
1D6918571A
330
1D69183399
100
AcDbEntity
  8
JISSEN
 48
3.0
100
AcDbCircle
 10
272.899998691603
 20
92.81928995252753
 30
0.0
 40
1.0
100
AcDbArc
 50
180.0000000000026
 51
270.0
  0
ARC
  5
1D6918571B
330
1D69183399
100
AcDbEntity
  8
JISSEN
 48
3.0
100
AcDbCircle
 10
268.0999986916015
 20
92.8192899525275
 30
0.0
 40
1.0
100
AcDbArc
 50
270.0
 51
359.9999999999973
  0
LINE
  5
1D6918571C
330
1D69183399
100
AcDbEntity
  8
JISSEN
100
AcDbLine
 10
252.0499986916019
 20
106.8192899525911
 30
0.0
 11
252.0499986916019
 21
117.519289952591
 31
0.0
  0
LINE
  5
1D6918571D
330
1D69183399
100
AcDbEntity
  8
JISSEN
100
AcDbLine
 10
288.9499986916028
 20
106.8192899525912
 30
0.0
 11
288.9499986916027
 21
117.5192899525911
 31
0.0
  0
LINE
  5
1D6918571E
330
1D69183399
100
AcDbEntity
  8
JISSEN
100
AcDbLine
 10
249.2499986916017
 20
138.0192899525907
 30
0.0
 11
291.7499986916027
 21
138.0192899525907
 31
0.0
  0
LINE
  5
1D6918571F
330
1D69183399
100
AcDbEntity
  8
JISSEN
100
AcDbLine
 10
288.8721841903393
 20
137.0196900029145
 30
0.0
 11
289.5675994662921
 21
137.0196900029145
 31
0.0
  0
ELLIPSE
  5
1D69185720
330
1D69183399
100
AcDbEntity
  8
HATCH
100
AcDbEllipse
 10
289.567599466292
 20
135.5192899525907
 30
0.0
 11
0.0
 21
-1.230386926858187
 31
0.0
210
0.0
220
0.0
230
-1.0
 40
0.4998427621223132
 41
0.0
 42
6.283185307179586
  0
ELLIPSE
  5
1D69185721
330
1D69183399
100
AcDbEntity
  8
JISSEN
100
AcDbEllipse
 10
289.5525481393151
 20
135.5192899525907
 30
0.0
 11
0.0
 21
-1.500702278767182
 31
0.0
210
0.0
220
0.0
230
-1.0
 40
0.4997660166252908
 41
0.0
 42
6.283185307179586
  0
LINE
  5
1D69185722
330
1D69183399
100
AcDbEntity
  8
JISSEN
100
AcDbLine
 10
288.8571328633624
 20
134.0185876738235
 30
0.0
 11
289.5525481393151
 21
134.0185876738235
 31
0.0
  0
ELLIPSE
  5
1D69185723
330
1D69183399
100
AcDbEntity
  8
JISSEN
100
AcDbEllipse
 10
288.8571328633624
 20
135.5192899525907
 30
0.0
 11
0.0
 21
-1.500702278767182
 31
0.0
210
0.0
220
0.0
230
-1.0
 40
0.4997660166252908
 41
6.283185307179586
 42
9.444847744050267
  0
LINE
  5
1D69185724
330
1D69183399
100
AcDbEntity
  8
JISSEN
100
AcDbLine
 10
289.1707410074337
 20
135.9523026544829
 30
0.0
 11
289.1707410074337
 21
135.0862772506985
 31
0.0
  0
LINE
  5
1D69185725
330
1D69183399
100
AcDbEntity
  8
JISSEN
100
AcDbLine
 10
289.567599466292
 20
136.3853153563752
 30
0.0
 11
289.1707410074337
 21
135.9523026544829
 31
0.0
  0
LINE
  5
1D69185726
330
1D69183399
100
AcDbEntity
  8
JISSEN
100
AcDbLine
 10
289.1707410074337
 20
135.0862772506985
 30
0.0
 11
289.567599466292
 21
134.6532645488063
 31
0.0
  0
LINE
  5
1D69185727
330
1D69183399
100
AcDbEntity
  8
JISSEN
100
AcDbLine
 10
289.9547343381644
 20
135.952302654483
 30
0.0
 11
289.9547343381644
 21
135.0862772506985
 31
0.0
  0
LINE
  5
1D69185728
330
1D69183399
100
AcDbEntity
  8
JISSEN
100
AcDbLine
 10
289.9547343381644
 20
135.9523026544829
 30
0.0
 11
289.567599466292
 21
136.3853153563752
 31
0.0
  0
LINE
  5
1D69185729
330
1D69183399
100
AcDbEntity
  8
JISSEN
100
AcDbLine
 10
289.9547343381644
 20
135.0862772506985
 30
0.0
 11
289.567599466292
 21
134.6532645488063
 31
0.0
  0
LINE
  5
1D6918572A
330
1D69183399
100
AcDbEntity
  8
JISSEN
100
AcDbLine
 10
251.0452630450401
 20
135.0862772506985
 30
0.0
 11
251.4323979169125
 21
134.6532645488063
 31
0.0
  0
LINE
  5
1D6918572B
330
1D69183399
100
AcDbEntity
  8
JISSEN
100
AcDbLine
 10
251.0452630450401
 20
135.9523026544829
 30
0.0
 11
251.4323979169125
 21
136.3853153563752
 31
0.0
  0
LINE
  5
1D6918572C
330
1D69183399
100
AcDbEntity
  8
JISSEN
100
AcDbLine
 10
251.0452630450401
 20
135.952302654483
 30
0.0
 11
251.0452630450401
 21
135.0862772506985
 31
0.0
  0
LINE
  5
1D6918572D
330
1D69183399
100
AcDbEntity
  8
JISSEN
100
AcDbLine
 10
251.8292563757707
 20
135.0862772506985
 30
0.0
 11
251.4323979169125
 21
134.6532645488063
 31
0.0
  0
LINE
  5
1D6918572E
330
1D69183399
100
AcDbEntity
  8
JISSEN
100
AcDbLine
 10
251.4323979169125
 20
136.3853153563752
 30
0.0
 11
251.8292563757707
 21
135.9523026544829
 31
0.0
  0
LINE
  5
1D6918572F
330
1D69183399
100
AcDbEntity
  8
JISSEN
100
AcDbLine
 10
251.8292563757707
 20
135.9523026544829
 30
0.0
 11
251.8292563757707
 21
135.0862772506985
 31
0.0
  0
ELLIPSE
  5
1D69185730
330
1D69183399
100
AcDbEntity
  8
JISSEN
100
AcDbEllipse
 10
252.1428645198422
 20
135.5192899525907
 30
0.0
 11
0.0
 21
-1.500702278767182
 31
0.0
210
0.0
220
0.0
230
1.0
 40
0.4997660166252908
 41
6.283185307179586
 42
9.444847744050267
  0
LINE
  5
1D69185731
330
1D69183399
100
AcDbEntity
  8
JISSEN
100
AcDbLine
 10
252.1428645198422
 20
134.0185876738235
 30
0.0
 11
251.4474492438894
 21
134.0185876738235
 31
0.0
  0
ELLIPSE
  5
1D69185732
330
1D69183399
100
AcDbEntity
  8
JISSEN
100
AcDbEllipse
 10
251.4474492438894
 20
135.5192899525907
 30
0.0
 11
0.0
 21
-1.500702278767182
 31
0.0
210
0.0
220
0.0
230
1.0
 40
0.4997660166252908
 41
0.0
 42
6.283185307179586
  0
ELLIPSE
  5
1D69185733
330
1D69183399
100
AcDbEntity
  8
HATCH
100
AcDbEllipse
 10
251.4323979169125
 20
135.5192899525907
 30
0.0
 11
0.0
 21
-1.230386926858187
 31
0.0
210
0.0
220
0.0
230
1.0
 40
0.4998427621223132
 41
0.0
 42
6.283185307179586
  0
LINE
  5
1D69185734
330
1D69183399
100
AcDbEntity
  8
JISSEN
100
AcDbLine
 10
252.1278131928652
 20
137.0196900029145
 30
0.0
 11
251.4323979169124
 21
137.0196900029145
 31
0.0
  0
LINE
  5
1D69185735
330
1D69183399
100
AcDbEntity
  8
JISSEN
100
AcDbLine
 10
270.4999986916023
 20
89.01928995259115
 30
0.0
 11
290.2499986916027
 21
89.01928995259115
 31
0.0
  0
LINE
  5
1D69185736
330
1D69183399
100
AcDbEntity
  8
HOJYO
100
AcDbLine
 10
291.2499986916027
 20
138.5192899525907
 30
0.0
 11
270.4999986916023
 21
138.5192899525907
 31
0.0
  0
LINE
  5
1D69185737
330
1D69183399
100
AcDbEntity
  8
JISSEN
100
AcDbLine
 10
291.7499986916027
 20
132.5192899525911
 30
0.0
 11
270.4999986916023
 21
132.5192899525911
 31
0.0
  0
LINE
  5
1D69185738
330
1D69183399
100
AcDbEntity
  8
JISSEN
100
AcDbLine
 10
272.899998691603
 20
91.81928995252752
 30
0.0
 11
290.3499986916027
 21
91.81928995252752
 31
0.0
  0
LINE
  5
1D69185739
330
1D69183399
100
AcDbEntity
  8
JISSEN
 48
3.0
100
AcDbLine
 10
271.8999986916013
 20
131.1192899525905
 30
0.0
 11
271.899998691603
 21
92.81928995252746
 31
0.0
  0
LINE
  5
1D6918573A
330
1D69183399
100
AcDbEntity
  8
JISSEN
100
AcDbLine
 10
268.0999986916015
 20
91.8192899525275
 30
0.0
 11
250.6499986916018
 21
91.8192899525275
 31
0.0
  0
LINE
  5
1D6918573B
330
1D69183399
100
AcDbEntity
  8
JISSEN
100
AcDbLine
 10
250.7996814352669
 20
131.1192899525907
 30
0.0
 11
269.0999986916032
 21
131.1192899525907
 31
0.0
  0
LINE
  5
1D6918573C
330
1D69183399
100
AcDbEntity
  8
JISSEN
100
AcDbLine
 10
249.2499986916017
 20
132.5192899525911
 30
0.0
 11
270.4999986916022
 21
132.5192899525911
 31
0.0
  0
LINE
  5
1D6918573D
330
1D69183399
100
AcDbEntity
  8
HOJYO
100
AcDbLine
 10
249.7499986916018
 20
138.5192899525908
 30
0.0
 11
270.4999986916023
 21
138.5192899525907
 31
0.0
  0
LINE
  5
1D6918573E
330
1D69183399
100
AcDbEntity
  8
JISSEN
100
AcDbLine
 10
270.4999986916022
 20
89.01928995259115
 30
0.0
 11
250.7499986916018
 21
89.01928995259115
 31
0.0
  0
ARC
  5
1D69185783
330
1D69183399
100
AcDbEntity
  8
JISSEN
100
AcDbCircle
 10
88.09999969158809
 20
70.98281260128629
 30
0.0
 40
1.399999999999999
100
AcDbArc
 50
0.0
 51
85.95563009646141
  0
ARC
  5
1D69185784
330
1D69183399
100
AcDbEntity
  8
JISSEN
100
AcDbCircle
 10
90.89999969160942
 20
70.98281260128629
 30
0.0
 40
1.399999999999999
100
AcDbArc
 50
94.04436990353858
 51
180.0
  0
ARC
  5
1D69185785
330
1D69183399
100
AcDbEntity
  8
JISSEN
100
AcDbCircle
 10
89.49999969160836
 20
72.33338077494233
 30
0.0
 40
1.399999999999999
100
AcDbArc
 50
2.174345477746801
 51
90.00000000043643
  0
ARC
  5
1D69185786
330
1D69183399
100
AcDbEntity
  8
JISSEN
100
AcDbCircle
 10
89.49999969159875
 20
72.8833807749383
 30
0.0
 40
2.6
100
AcDbArc
 50
351.82699079943
 51
90.0
  0
ARC
  5
1D69185787
330
1D69183399
100
AcDbEntity
  8
JISSEN
100
AcDbCircle
 10
107.3999996916119
 20
90.78338077493631
 30
0.0
 40
2.6
100
AcDbArc
 50
179.9999999999889
 51
278.1730092005599
  0
ARC
  5
1D69185788
330
1D69183399
100
AcDbEntity
  8
JISSEN
100
AcDbCircle
 10
107.9499996916079
 20
90.78338077492661
 30
0.0
 40
1.399999999999999
100
AcDbArc
 50
179.9999999995515
 51
267.8256545218575
  0
ARC
  5
1D69185789
330
1D69183399
100
AcDbEntity
  8
JISSEN
100
AcDbCircle
 10
109.3005678652636
 20
89.38338077492529
 30
0.0
 40
1.399999999999999
100
AcDbArc
 50
89.99999999999023
 51
175.9556300964502
  0
ARC
  5
1D6918578A
330
1D69183399
100
AcDbEntity
  8
JISSEN
100
AcDbCircle
 10
109.3005678652642
 20
92.18338077494662
 30
0.0
 40
1.399999999999999
100
AcDbArc
 50
184.0443699035276
 51
269.9999999999902
  0
ARC
  5
1D6918578B
330
1D69183399
100
AcDbEntity
  8
JISSEN
100
AcDbCircle
 10
107.9499996916079
 20
90.78338077494798
 30
0.0
 40
1.399999999999999
100
AcDbArc
 50
92.1743454781261
 51
180.0000000004263
  0
ARC
  5
1D6918578C
330
1D69183399
100
AcDbEntity
  8
JISSEN
100
AcDbCircle
 10
107.3999996916119
 20
90.78338077494334
 30
0.0
 40
2.6
100
AcDbArc
 50
81.82699079944329
 51
179.9999999999889
  0
LINE
  5
1D6918578D
330
1D69183399
100
AcDbEntity
  8
SUNPOU
100
AcDbLine
 10
114.8603991157933
 20
111.7674855434964
 30
0.0
 11
152.6272158370022
 21
111.7674855434964
 31
0.0
  0
TEXT
  5
1D6918578E
330
1D69183399
100
AcDbEntity
  8
SUNPOU
100
AcDbText
 10
116.9536310124497
 20
112.4024062658761
 30
0.0
 40
3.0
  1
M3×0.5
  7
K
 72
     1
 11
125.5393452981639
 21
112.4024062658761
 31
0.0
100
AcDbText
  0
TEXT
  5
1D6918578F
330
1D69183399
100
AcDbEntity
  8
SUNPOU
100
AcDbText
 10
115.2843637456556
 20
107.3518909458414
 30
0.0
 40
3.0
  1
(六角穴付き止めねじ)
  7
K
 72
     1
 11
133.4843637456556
 21
107.3518909458414
 31
0.0
100
AcDbText
  0
LINE
  5
1D69185790
330
1D69183399
100
AcDbEntity
  8
SUNPOU
100
AcDbLine
 10
108.5525585748531
 20
101.7833807749393
 30
0.0
 11
114.8603991157933
 21
111.7674855434964
 31
0.0
  0
INSERT
  5
1D69185791
330
1D69183399
100
AcDbEntity
  8
SUNPOU
100
AcDbBlockReference
  2
ARROWANG
 10
108.5525585748532
 20
101.7833807749393
 30
0.0
 41
-1.500000000000007
 42
1.5
 43
1.5
 50
57.71578199150764
  0
LINE
  5
1D69185792
330
1D69183399
100
AcDbEntity
  8
SAISEN
100
AcDbLine
 10
107.2571851903324
 20
102.4557782648918
 30
0.0
 11
107.738372731983
 21
102.7335920215945
 31
0.0
  0
LINE
  5
1D69185793
330
1D69183399
100
AcDbEntity
  8
SAISEN
100
AcDbLine
 10
108.4871851903324
 20
100.3253557715821
 30
0.0
 11
108.9683727319829
 21
100.6031695282847
 31
0.0
  0
LINE
  5
1D69185794
330
1D69183399
100
AcDbEntity
  8
JISSEN
100
AcDbLine
 10
107.1071338633554
 20
102.6809152362319
 30
0.0
 11
107.3695458729611
 21
102.8324188806164
 31
0.0
  0
LINE
  5
1D69185795
330
1D69183399
100
AcDbEntity
  8
JISSEN
100
AcDbLine
 10
108.6071338633554
 20
100.0828390248788
 30
0.0
 11
108.8695458729612
 21
100.2343426692634
 31
0.0
  0
LINE
  5
1D69185796
330
1D69183399
100
AcDbEntity
  8
JISSEN
100
AcDbLine
 10
108.8695458729611
 20
100.234342669263
 30
0.0
 11
108.119545872961
 21
101.5333807749396
 31
0.0
  0
LINE
  5
1D69185797
330
1D69183399
100
AcDbEntity
  8
JISSEN
100
AcDbLine
 10
108.1195458729612
 20
101.5333807749397
 30
0.0
 11
107.3695458729611
 21
102.8324188806164
 31
0.0
  0
LINE
  5
1D69185798
330
1D69183399
100
AcDbEntity
  8
JISSEN
100
AcDbLine
 10
108.8695458729611
 20
100.234342669263
 30
0.0
 11
109.0525585748533
 21
100.9173553711552
 31
0.0
  0
LINE
  5
1D69185799
330
1D69183399
100
AcDbEntity
  8
JISSEN
100
AcDbLine
 10
107.3695458729611
 20
102.8324188806163
 30
0.0
 11
108.0525585748533
 21
102.6494061787241
 31
0.0
  0
LINE
  5
1D6918579A
330
1D69183399
100
AcDbEntity
  8
JISSEN
100
AcDbLine
 10
109.0525585748533
 20
100.9173553711552
 30
0.0
 11
108.0525585748533
 21
102.6494061787241
 31
0.0
  0
LINE
  5
1D6918579B
330
1D69183399
100
AcDbEntity
  8
SAISEN
100
AcDbLine
 10
71.74281419285813
 20
102.4557782648915
 30
0.0
 11
71.26162665120745
 21
102.7335920215942
 31
0.0
  0
LINE
  5
1D6918579C
330
1D69183399
100
AcDbEntity
  8
SAISEN
100
AcDbLine
 10
70.51281419285823
 20
100.3253557715818
 30
0.0
 11
70.03162665120783
 21
100.6031695282843
 31
0.0
  0
LINE
  5
1D6918579D
330
1D69183399
100
AcDbEntity
  8
JISSEN
100
AcDbLine
 10
69.94744080833737
 20
100.9173553711549
 30
0.0
 11
70.94744080833732
 21
102.6494061787238
 31
0.0
  0
LINE
  5
1D6918579E
330
1D69183399
100
AcDbEntity
  8
JISSEN
100
AcDbLine
 10
71.63045351022958
 20
102.832418880616
 30
0.0
 11
70.94744080833732
 21
102.6494061787238
 31
0.0
  0
LINE
  5
1D6918579F
330
1D69183399
100
AcDbEntity
  8
JISSEN
100
AcDbLine
 10
70.13045351022959
 20
100.2343426692627
 30
0.0
 11
69.94744080833737
 21
100.9173553711549
 31
0.0
  0
LINE
  5
1D691857A0
330
1D69183399
100
AcDbEntity
  8
JISSEN
100
AcDbLine
 10
70.88045351022947
 20
101.5333807749394
 30
0.0
 11
71.63045351022958
 21
102.8324188806161
 31
0.0
  0
LINE
  5
1D691857A1
330
1D69183399
100
AcDbEntity
  8
JISSEN
100
AcDbLine
 10
70.13045351022964
 20
100.2343426692627
 30
0.0
 11
70.88045351022969
 21
101.5333807749393
 31
0.0
  0
LINE
  5
1D691857A2
330
1D69183399
100
AcDbEntity
  8
JISSEN
100
AcDbLine
 10
70.39286551983536
 20
100.0828390248784
 30
0.0
 11
70.13045351022952
 21
100.234342669263
 31
0.0
  0
LINE
  5
1D691857A3
330
1D69183399
100
AcDbEntity
  8
JISSEN
100
AcDbLine
 10
71.89286551983525
 20
102.6809152362317
 30
0.0
 11
71.63045351022964
 21
102.8324188806161
 31
0.0
  0
LINE
  5
1D691857A4
330
1D69183399
100
AcDbEntity
  8
JISSEN
100
AcDbLine
 10
104.5394188540456
 20
97.73434266925953
 30
0.0
 11
105.4800481156879
 21
98.27741522667636
 31
0.0
  0
LINE
  5
1D691857A5
330
1D69183399
100
AcDbEntity
  8
SAISEN
100
AcDbLine
 10
102.9405919950237
 20
99.963592021591
 30
0.0
 11
104.133186469052
 21
100.6521367622052
 31
0.0
  0
LINE
  5
1D691857A6
330
1D69183399
100
AcDbEntity
  8
JISSEN
100
AcDbLine
 10
103.8564061521533
 20
97.91735537115172
 30
0.0
 11
102.8564061521533
 21
99.64940617872064
 31
0.0
  0
LINE
  5
1D691857A7
330
1D69183399
100
AcDbEntity
  8
SAISEN
100
AcDbLine
 10
104.1705919950238
 20
97.83316952828126
 30
0.0
 11
105.363186469052
 21
98.52171426889555
 31
0.0
  0
LINE
  5
1D691857A8
330
1D69183399
100
AcDbEntity
  8
JISSEN
100
AcDbLine
 10
103.0394188540456
 20
100.3324188806128
 30
0.0
 11
103.9800481156879
 21
100.8754914380296
 31
0.0
  0
LINE
  5
1D691857A9
330
1D69183399
100
AcDbEntity
  8
JISSEN
100
AcDbLine
 10
103.8564061521533
 20
97.91735537115172
 30
0.0
 11
104.5394188540456
 21
97.73434266925951
 31
0.0
  0
LINE
  5
1D691857AA
330
1D69183399
100
AcDbEntity
  8
JISSEN
100
AcDbLine
 10
102.8564061521533
 20
99.64940617872061
 30
0.0
 11
103.0394188540456
 21
100.3324188806128
 31
0.0
  0
LINE
  5
1D691857AB
330
1D69183399
100
AcDbEntity
  8
JISSEN
100
AcDbLine
 10
104.5394188540457
 20
97.73434266925946
 30
0.0
 11
103.0342484959861
 21
100.3413742034651
 31
0.0
  0
LINE
  5
1D691857AC
330
1D69183399
100
AcDbEntity
  8
JISSEN
100
AcDbLine
 10
74.46058052915862
 20
97.73434266925896
 30
0.0
 11
75.96575088721812
 21
100.3413742034646
 31
0.0
  0
LINE
  5
1D691857AD
330
1D69183399
100
AcDbEntity
  8
JISSEN
100
AcDbLine
 10
76.14359323105095
 20
99.64940617872018
 30
0.0
 11
75.96058052915868
 21
100.3324188806123
 31
0.0
  0
LINE
  5
1D691857AE
330
1D69183399
100
AcDbEntity
  8
JISSEN
100
AcDbLine
 10
75.143593231051
 20
97.91735537115126
 30
0.0
 11
74.46058052915879
 21
97.73434266925903
 31
0.0
  0
LINE
  5
1D691857AF
330
1D69183399
100
AcDbEntity
  8
JISSEN
100
AcDbLine
 10
75.96058052915868
 20
100.3324188806123
 30
0.0
 11
75.01995126751637
 21
100.8754914380292
 31
0.0
  0
LINE
  5
1D691857B0
330
1D69183399
100
AcDbEntity
  8
SAISEN
100
AcDbLine
 10
74.82940738818058
 20
97.83316952828078
 30
0.0
 11
73.63681291415185
 21
98.52171426889528
 31
0.0
  0
LINE
  5
1D691857B1
330
1D69183399
100
AcDbEntity
  8
JISSEN
100
AcDbLine
 10
75.143593231051
 20
97.91735537115126
 30
0.0
 11
76.14359323105095
 21
99.64940617872022
 31
0.0
  0
LINE
  5
1D691857B2
330
1D69183399
100
AcDbEntity
  8
SAISEN
100
AcDbLine
 10
76.05940738818055
 20
99.96359202159057
 30
0.0
 11
74.8668129141518
 21
100.652136762205
 31
0.0
  0
LINE
  5
1D691857B3
330
1D69183399
100
AcDbEntity
  8
JISSEN
100
AcDbLine
 10
74.46058052915879
 20
97.73434266925905
 30
0.0
 11
73.51995126751649
 21
98.2774152266759
 31
0.0
  0
ARC
  5
1D691857B4
330
1D69183399
100
AcDbEntity
  8
JISSEN
100
AcDbCircle
 10
89.49999969159581
 20
90.78338077494523
 30
0.0
 40
21.25
100
AcDbArc
 50
180.0000000000146
 51
359.9999999999739
  0
ARC
  5
1D691857B5
330
1D69183399
100
AcDbEntity
  8
JISSEN
100
AcDbCircle
 10
89.49999969159875
 20
108.6833807749412
 30
0.0
 40
2.6
100
AcDbArc
 50
270.0
 51
8.173009200569978
  0
ARC
  5
1D691857B6
330
1D69183399
100
AcDbEntity
  8
JISSEN
100
AcDbCircle
 10
89.49999969160229
 20
90.78338077493624
 30
0.0
 40
17.65
100
AcDbArc
 50
188.3495770967949
 51
261.6504229031959
  0
ARC
  5
1D691857B7
330
1D69183399
100
AcDbEntity
  8
JISSEN
100
AcDbCircle
 10
89.49999969160229
 20
90.78338077493624
 30
0.0
 40
17.65
100
AcDbArc
 50
278.349577096804
 51
351.6504229032102
  0
ARC
  5
1D691857B8
330
1D69183399
100
AcDbEntity
  8
JISSEN
100
AcDbCircle
 10
89.49999969159581
 20
90.78338077494523
 30
0.0
 40
18.44999999999999
100
AcDbArc
 50
184.044369903734
 51
265.9556300964581
  0
ARC
  5
1D691857B9
330
1D69183399
100
AcDbEntity
  8
JISSEN
100
AcDbCircle
 10
89.49999969159581
 20
90.78338077494523
 30
0.0
 40
18.44999999999999
100
AcDbArc
 50
274.0443699035385
 51
355.9556300964142
  0
ARC
  5
1D691857BA
330
1D69183399
100
AcDbEntity
  8
JISSEN
100
AcDbCircle
 10
89.49999969160836
 20
109.2333807749372
 30
0.0
 40
1.399999999999999
100
AcDbArc
 50
269.9999999995635
 51
357.8256545222534
  0
ARC
  5
1D691857BB
330
1D69183399
100
AcDbEntity
  8
JISSEN
100
AcDbCircle
 10
90.89999969160942
 20
110.5839489485932
 30
0.0
 40
1.399999999999999
100
AcDbArc
 50
180.0
 51
265.9556300964613
  0
ARC
  5
1D691857BC
330
1D69183399
100
AcDbEntity
  8
JISSEN
100
AcDbCircle
 10
88.09999969158809
 20
110.5839489485932
 30
0.0
 40
1.399999999999999
100
AcDbArc
 50
274.0443699035385
 51
0.0
  0
ARC
  5
1D691857BD
330
1D69183399
100
AcDbEntity
  8
JISSEN
100
AcDbCircle
 10
89.49999969158699
 20
109.2333807749372
 30
0.0
 40
1.399999999999999
100
AcDbArc
 50
182.1743454777348
 51
270.0000000004364
  0
ARC
  5
1D691857BE
330
1D69183399
100
AcDbEntity
  8
JISSEN
100
AcDbCircle
 10
89.49999969159581
 20
90.78338077493432
 30
0.0
 40
18.44999999999999
100
AcDbArc
 50
4.044369903585733
 51
85.95563009646143
  0
ARC
  5
1D691857BF
330
1D69183399
100
AcDbEntity
  8
JISSEN
100
AcDbCircle
 10
89.49999969159581
 20
90.78338077493432
 30
0.0
 40
18.44999999999999
100
AcDbArc
 50
94.04436990353858
 51
175.9556300962659
  0
ARC
  5
1D691857C0
330
1D69183399
100
AcDbEntity
  8
JISSEN
100
AcDbCircle
 10
89.49999969160229
 20
90.78338077494329
 30
0.0
 40
17.65
100
AcDbArc
 50
8.349577096812302
 51
81.65042290321244
  0
ARC
  5
1D691857C1
330
1D69183399
100
AcDbEntity
  8
JISSEN
100
AcDbCircle
 10
89.49999969160229
 20
90.78338077494329
 30
0.0
 40
17.65
100
AcDbArc
 50
98.34957709682376
 51
171.6504229031824
  0
ARC
  5
1D691857C2
330
1D69183399
100
AcDbEntity
  8
JISSEN
100
AcDbCircle
 10
89.4999996915917
 20
108.6833807749412
 30
0.0
 40
2.6
100
AcDbArc
 50
171.8269907994528
 51
270.0
  0
ARC
  5
1D691857C3
330
1D69183399
100
AcDbEntity
  8
JISSEN
100
AcDbCircle
 10
89.49999969159581
 20
90.78338077493432
 30
0.0
 40
21.25
100
AcDbArc
 50
0.0000000000260805
 51
179.9999999999853
  0
ARC
  5
1D691857C4
330
1D69183399
100
AcDbEntity
  8
JISSEN
100
AcDbCircle
 10
71.59999969158014
 20
90.78338077494683
 30
0.0
 40
2.6
100
AcDbArc
 50
0.0
 51
98.17300920054682
  0
ARC
  5
1D691857C5
330
1D69183399
100
AcDbEntity
  8
JISSEN
100
AcDbCircle
 10
71.04999969158416
 20
90.78338077495155
 30
0.0
 40
1.399999999999999
100
AcDbArc
 50
359.9999999995626
 51
87.82565452188039
  0
ARC
  5
1D691857C6
330
1D69183399
100
AcDbEntity
  8
JISSEN
100
AcDbCircle
 10
69.69943151792813
 20
92.18338077495044
 30
0.0
 40
1.399999999999999
100
AcDbArc
 50
270.0
 51
355.9556300964612
  0
ARC
  5
1D691857C7
330
1D69183399
100
AcDbEntity
  8
JISSEN
100
AcDbCircle
 10
69.69943151792813
 20
89.38338077492911
 30
0.0
 40
1.399999999999999
100
AcDbArc
 50
4.044369903538726
 51
90.0
  0
ARC
  5
1D691857C8
330
1D69183399
100
AcDbEntity
  8
JISSEN
100
AcDbCircle
 10
71.04999969158416
 20
90.78338077493018
 30
0.0
 40
1.399999999999999
100
AcDbArc
 50
272.1743454781097
 51
0.000000000437339
  0
ARC
  5
1D691857C9
330
1D69183399
100
AcDbEntity
  8
JISSEN
100
AcDbCircle
 10
71.59999969158014
 20
90.78338077493977
 30
0.0
 40
2.6
100
AcDbArc
 50
261.8269907994301
 51
0.0
  0
ARC
  5
1D691857CA
330
1D69183399
100
AcDbEntity
  8
JISSEN
100
AcDbCircle
 10
89.4999996915917
 20
72.8833807749383
 30
0.0
 40
2.6
100
AcDbArc
 50
90.0
 51
188.1730092005471
  0
ARC
  5
1D691857CB
330
1D69183399
100
AcDbEntity
  8
JISSEN
100
AcDbCircle
 10
89.49999969158699
 20
72.33338077494233
 30
0.0
 40
1.399999999999999
100
AcDbArc
 50
89.99999999956356
 51
177.8256545222648
  0
ELLIPSE
  5
1D691857CC
330
1D69183399
100
AcDbEntity
  8
JISSEN
100
AcDbEllipse
 10
70.44745024388936
 20
200.8722847749362
 30
0.0
 11
0.0
 21
-1.500702278767182
 31
0.0
210
0.0
220
0.0
230
1.0
 40
0.4997660166252908
 41
0.0
 42
6.283185307179586
  0
ELLIPSE
  5
1D691857CD
330
1D69183399
100
AcDbEntity
  8
HATCH
100
AcDbEllipse
 10
70.43239891691252
 20
200.8722847749362
 30
0.0
 11
0.0
 21
-1.230386926858187
 31
0.0
210
0.0
220
0.0
230
1.0
 40
0.4998427621223132
 41
0.0
 42
6.283185307179586
  0
LINE
  5
1D691857CE
330
1D69183399
100
AcDbEntity
  8
JISSEN
100
AcDbLine
 10
71.12781419286517
 20
202.37268482526
 30
0.0
 11
70.4323989169124
 21
202.37268482526
 31
0.0
  0
LINE
  5
1D691857CF
330
1D69183399
100
AcDbEntity
  8
JISSEN
100
AcDbLine
 10
89.49999969160229
 20
154.3722847749366
 30
0.0
 11
109.2499996916026
 21
154.3722847749366
 31
0.0
  0
LINE
  5
1D691857D0
330
1D69183399
100
AcDbEntity
  8
HOJYO
100
AcDbLine
 10
110.2499996916026
 20
203.8722847749362
 30
0.0
 11
89.49999969160222
 21
203.8722847749362
 31
0.0
  0
LINE
  5
1D691857D1
330
1D69183399
100
AcDbEntity
  8
JISSEN
100
AcDbLine
 10
110.7499996916027
 20
197.8722847749365
 30
0.0
 11
89.49999969160229
 21
197.8722847749365
 31
0.0
  0
LINE
  5
1D691857D2
330
1D69183399
100
AcDbEntity
  8
JISSEN
100
AcDbLine
 10
91.899999691603
 20
157.1722847748729
 30
0.0
 11
109.3499996916026
 21
157.1722847748729
 31
0.0
  0
LINE
  5
1D691857D3
330
1D69183399
100
AcDbEntity
  8
JISSEN
 48
3.0
100
AcDbLine
 10
90.89999969160123
 20
196.4722847749359
 30
0.0
 11
90.89999969160301
 21
158.1722847748729
 31
0.0
  0
LINE
  5
1D691857D4
330
1D69183399
100
AcDbEntity
  8
JISSEN
100
AcDbLine
 10
87.09999969160145
 20
157.1722847748729
 30
0.0
 11
69.64999969160181
 21
157.1722847748729
 31
0.0
  0
LINE
  5
1D691857D5
330
1D69183399
100
AcDbEntity
  8
JISSEN
100
AcDbLine
 10
69.7996824352669
 20
196.4722847749361
 30
0.0
 11
88.09999969160321
 21
196.4722847749361
 31
0.0
  0
LINE
  5
1D691857D6
330
1D69183399
100
AcDbEntity
  8
JISSEN
100
AcDbLine
 10
68.24999969160166
 20
197.8722847749365
 30
0.0
 11
89.49999969160217
 21
197.8722847749365
 31
0.0
  0
LINE
  5
1D691857D7
330
1D69183399
100
AcDbEntity
  8
HOJYO
100
AcDbLine
 10
68.74999969160177
 20
203.8722847749362
 30
0.0
 11
89.49999969160222
 21
203.8722847749362
 31
0.0
  0
LINE
  5
1D691857D8
330
1D69183399
100
AcDbEntity
  8
JISSEN
100
AcDbLine
 10
89.49999969160217
 20
154.3722847749366
 30
0.0
 11
69.74999969160177
 21
154.3722847749366
 31
0.0
  0
LINE
  5
1D691857D9
330
1D69183399
100
AcDbEntity
  8
JISSEN
100
AcDbLine
 10
106.5499996916029
 20
172.1722847749365
 30
0.0
 11
104.7999996916183
 21
182.8722847749365
 31
0.0
  0
LINE
  5
1D691857DA
330
1D69183399
100
AcDbEntity
  8
JISSEN
100
AcDbLine
 10
110.7499996916027
 20
203.3722847749362
 30
0.0
 11
110.2499996916027
 21
203.8722847749362
 31
0.0
  0
LINE
  5
1D691857DB
330
1D69183399
100
AcDbEntity
  8
JISSEN
100
AcDbLine
 10
110.7499996916027
 20
155.7722847749365
 30
0.0
 11
110.7499996916027
 21
203.3722847749362
 31
0.0
  0
LINE
  5
1D691857DC
330
1D69183399
100
AcDbEntity
  8
JISSEN
100
AcDbLine
 10
106.5499996916029
 20
172.1722847749365
 30
0.0
 11
104.7999996916183
 21
182.8722847749365
 31
0.0
  0
LINE
  5
1D691857DD
330
1D69183399
100
AcDbEntity
  8
JISSEN
100
AcDbLine
 10
106.5499996916029
 20
157.1722847748729
 30
0.0
 11
106.5499996916029
 21
172.1722847749365
 31
0.0
  0
LINE
  5
1D691857DE
330
1D69183399
100
AcDbEntity
  8
JISSEN
100
AcDbLine
 10
108.249999691599
 20
154.3722847748728
 30
0.0
 11
109.2499996916045
 21
154.3722847748756
 31
0.0
  0
ARC
  5
1D691857DF
330
1D69183399
100
AcDbEntity
  8
JISSEN
100
AcDbCircle
 10
109.3499996916026
 20
155.7722847749365
 30
0.0
 40
1.399999999999999
100
AcDbArc
 50
270.0
 51
90.0
  0
LINE
  5
1D691857E0
330
1D69183399
100
AcDbEntity
  8
JISSEN
100
AcDbLine
 10
109.2003169479372
 20
182.8722847749365
 30
0.0
 11
90.89999969160187
 21
182.8722847749365
 31
0.0
  0
LINE
  5
1D691857E1
330
1D69183399
100
AcDbEntity
  8
JISSEN
100
AcDbLine
 10
109.2003169479372
 20
196.4722847749359
 30
0.0
 11
90.89999969160123
 21
196.4722847749359
 31
0.0
  0
LINE
  5
1D691857E2
330
1D69183399
100
AcDbEntity
  8
JISSEN
100
AcDbLine
 10
109.2003169479372
 20
196.4722847749359
 30
0.0
 11
109.2003169479372
 21
182.8722847749363
 31
0.0
  0
LINE
  5
1D691857E3
330
1D69183399
100
AcDbEntity
  8
JISSEN
100
AcDbLine
 10
110.7499996916027
 20
197.8722847749365
 30
0.0
 11
109.2003169479372
 21
196.4722847749359
 31
0.0
  0
LINE
  5
1D691857E4
330
1D69183399
100
AcDbEntity
  8
JISSEN
100
AcDbLine
 10
92.09999969160515
 20
182.8722847749366
 30
0.0
 11
90.89999969160516
 21
172.1722847749366
 31
0.0
  0
LINE
  5
1D691857E5
330
1D69183399
100
AcDbEntity
  8
JISSEN
100
AcDbLine
 10
68.24999969160171
 20
197.8722847749365
 30
0.0
 11
69.79968243526719
 21
196.4722847749359
 31
0.0
  0
LINE
  5
1D691857E6
330
1D69183399
100
AcDbEntity
  8
JISSEN
100
AcDbLine
 10
69.79968243526719
 20
196.4722847749359
 30
0.0
 11
69.79968243526719
 21
182.8722847749363
 31
0.0
  0
LINE
  5
1D691857E7
330
1D69183399
100
AcDbEntity
  8
JISSEN
100
AcDbLine
 10
69.79968243526719
 20
182.8722847749365
 30
0.0
 11
88.09999969160259
 21
182.8722847749365
 31
0.0
  0
LINE
  5
1D691857E8
330
1D69183399
100
AcDbEntity
  8
JISSEN
100
AcDbLine
 10
86.89999969159931
 20
182.8722847749366
 30
0.0
 11
88.0999996915993
 21
172.1722847749366
 31
0.0
  0
LINE
  5
1D691857E9
330
1D69183399
100
AcDbEntity
  8
JISSEN
 48
3.0
100
AcDbLine
 10
88.09999969160321
 20
196.4722847749361
 30
0.0
 11
88.09999969160145
 21
158.1722847748729
 31
0.0
  0
LINE
  5
1D691857EA
330
1D69183399
100
AcDbEntity
  8
JISSEN
100
AcDbLine
 10
72.44999969160153
 20
157.1722847748729
 30
0.0
 11
72.44999969160147
 21
172.1722847749365
 31
0.0
  0
LINE
  5
1D691857EB
330
1D69183399
100
AcDbEntity
  8
JISSEN
100
AcDbLine
 10
72.44999969160147
 20
172.1722847749365
 30
0.0
 11
74.19999969158607
 21
182.8722847749365
 31
0.0
  0
LINE
  5
1D691857EC
330
1D69183399
100
AcDbEntity
  8
JISSEN
100
AcDbLine
 10
72.44999969160147
 20
172.1722847749365
 30
0.0
 11
74.19999969158607
 21
182.8722847749365
 31
0.0
  0
ARC
  5
1D691857ED
330
1D69183399
100
AcDbEntity
  8
JISSEN
100
AcDbCircle
 10
69.64999969160181
 20
155.7722847749365
 30
0.0
 40
1.399999999999999
100
AcDbArc
 50
90.0
 51
270.0
  0
LINE
  5
1D691857EE
330
1D69183399
100
AcDbEntity
  8
JISSEN
100
AcDbLine
 10
70.74999969160535
 20
154.3722847748728
 30
0.0
 11
69.649999691598
 21
154.3722847748759
 31
0.0
  0
LINE
  5
1D691857EF
330
1D69183399
100
AcDbEntity
  8
JISSEN
100
AcDbLine
 10
68.24999969160171
 20
155.7722847749365
 30
0.0
 11
68.24999969160171
 21
203.3722847749362
 31
0.0
  0
LINE
  5
1D691857F0
330
1D69183399
100
AcDbEntity
  8
JISSEN
100
AcDbLine
 10
68.24999969160171
 20
203.3722847749362
 30
0.0
 11
68.74999969160171
 21
203.8722847749362
 31
0.0
  0
ARC
  5
1D691857F1
330
1D69183399
100
AcDbEntity
  8
JISSEN
100
AcDbCircle
 10
89.49999969160222
 20
196.4722847749375
 30
0.0
 40
1.399999999998996
100
AcDbArc
 50
0.0000000000023154
 51
180.0000000000569
  0
ARC
  5
1D691857F2
330
1D69183399
100
AcDbEntity
  8
JISSEN
 48
3.0
100
AcDbCircle
 10
91.899999691603
 20
158.1722847748729
 30
0.0
 40
1.0
100
AcDbArc
 50
180.0000000000026
 51
270.0
  0
ARC
  5
1D691857F3
330
1D69183399
100
AcDbEntity
  8
JISSEN
 48
3.0
100
AcDbCircle
 10
87.09999969160145
 20
158.1722847748729
 30
0.0
 40
1.0
100
AcDbArc
 50
270.0
 51
359.9999999999973
  0
LINE
  5
1D691857F4
330
1D69183399
100
AcDbEntity
  8
JISSEN
100
AcDbLine
 10
71.04999969160184
 20
172.1722847749366
 30
0.0
 11
71.04999969160184
 21
182.8722847749365
 31
0.0
  0
LINE
  5
1D691857F5
330
1D69183399
100
AcDbEntity
  8
JISSEN
100
AcDbLine
 10
107.9499996916027
 20
172.1722847749366
 30
0.0
 11
107.9499996916027
 21
182.8722847749366
 31
0.0
  0
LINE
  5
1D691857F6
330
1D69183399
100
AcDbEntity
  8
JISSEN
100
AcDbLine
 10
68.24999969160171
 20
203.3722847749362
 30
0.0
 11
110.7499996916027
 21
203.3722847749362
 31
0.0
  0
LINE
  5
1D691857F7
330
1D69183399
100
AcDbEntity
  8
JISSEN
100
AcDbLine
 10
107.8721851903393
 20
202.37268482526
 30
0.0
 11
108.567600466292
 21
202.37268482526
 31
0.0
  0
ELLIPSE
  5
1D691857F8
330
1D69183399
100
AcDbEntity
  8
HATCH
100
AcDbEllipse
 10
108.5676004662919
 20
200.8722847749362
 30
0.0
 11
0.0
 21
-1.230386926858187
 31
0.0
210
0.0
220
0.0
230
-1.0
 40
0.4998427621223132
 41
0.0
 42
6.283185307179586
  0
ELLIPSE
  5
1D691857F9
330
1D69183399
100
AcDbEntity
  8
JISSEN
100
AcDbEllipse
 10
108.552549139315
 20
200.8722847749362
 30
0.0
 11
0.0
 21
-1.500702278767182
 31
0.0
210
0.0
220
0.0
230
-1.0
 40
0.4997660166252908
 41
0.0
 42
6.283185307179586
  0
LINE
  5
1D691857FA
330
1D69183399
100
AcDbEntity
  8
JISSEN
100
AcDbLine
 10
107.8571338633623
 20
199.371582496169
 30
0.0
 11
108.552549139315
 21
199.371582496169
 31
0.0
  0
ELLIPSE
  5
1D691857FB
330
1D69183399
100
AcDbEntity
  8
JISSEN
100
AcDbEllipse
 10
107.8571338633623
 20
200.8722847749362
 30
0.0
 11
0.0
 21
-1.500702278767182
 31
0.0
210
0.0
220
0.0
230
-1.0
 40
0.4997660166252908
 41
6.283185307179586
 42
9.444847744050267
  0
LINE
  5
1D691857FC
330
1D69183399
100
AcDbEntity
  8
JISSEN
100
AcDbLine
 10
108.1707420074337
 20
201.3052974768284
 30
0.0
 11
108.1707420074337
 21
200.439272073044
 31
0.0
  0
LINE
  5
1D691857FD
330
1D69183399
100
AcDbEntity
  8
JISSEN
100
AcDbLine
 10
108.5676004662919
 20
201.7383101787206
 30
0.0
 11
108.1707420074337
 21
201.3052974768284
 31
0.0
  0
LINE
  5
1D691857FE
330
1D69183399
100
AcDbEntity
  8
JISSEN
100
AcDbLine
 10
108.1707420074337
 20
200.439272073044
 30
0.0
 11
108.5676004662919
 21
200.0062593711517
 31
0.0
  0
LINE
  5
1D691857FF
330
1D69183399
100
AcDbEntity
  8
JISSEN
100
AcDbLine
 10
108.9547353381644
 20
201.3052974768285
 30
0.0
 11
108.9547353381644
 21
200.439272073044
 31
0.0
  0
LINE
  5
1D69185800
330
1D69183399
100
AcDbEntity
  8
JISSEN
100
AcDbLine
 10
108.9547353381644
 20
201.3052974768284
 30
0.0
 11
108.5676004662919
 21
201.7383101787206
 31
0.0
  0
LINE
  5
1D69185801
330
1D69183399
100
AcDbEntity
  8
JISSEN
100
AcDbLine
 10
108.9547353381644
 20
200.439272073044
 30
0.0
 11
108.5676004662919
 21
200.0062593711517
 31
0.0
  0
LINE
  5
1D69185802
330
1D69183399
100
AcDbEntity
  8
JISSEN
100
AcDbLine
 10
70.04526404504002
 20
200.439272073044
 30
0.0
 11
70.43239891691252
 21
200.0062593711517
 31
0.0
  0
LINE
  5
1D69185803
330
1D69183399
100
AcDbEntity
  8
JISSEN
100
AcDbLine
 10
70.04526404504002
 20
201.3052974768284
 30
0.0
 11
70.43239891691252
 21
201.7383101787206
 31
0.0
  0
LINE
  5
1D69185804
330
1D69183399
100
AcDbEntity
  8
JISSEN
100
AcDbLine
 10
70.04526404504002
 20
201.3052974768285
 30
0.0
 11
70.04526404504009
 21
200.439272073044
 31
0.0
  0
LINE
  5
1D69185805
330
1D69183399
100
AcDbEntity
  8
JISSEN
100
AcDbLine
 10
70.82925737577074
 20
200.439272073044
 30
0.0
 11
70.43239891691252
 21
200.0062593711517
 31
0.0
  0
LINE
  5
1D69185806
330
1D69183399
100
AcDbEntity
  8
JISSEN
100
AcDbLine
 10
70.43239891691252
 20
201.7383101787206
 30
0.0
 11
70.82925737577074
 21
201.3052974768284
 31
0.0
  0
LINE
  5
1D69185807
330
1D69183399
100
AcDbEntity
  8
JISSEN
100
AcDbLine
 10
70.82925737577074
 20
201.3052974768284
 30
0.0
 11
70.82925737577074
 21
200.439272073044
 31
0.0
  0
ELLIPSE
  5
1D69185808
330
1D69183399
100
AcDbEntity
  8
JISSEN
100
AcDbEllipse
 10
71.14286551984213
 20
200.8722847749362
 30
0.0
 11
0.0
 21
-1.500702278767182
 31
0.0
210
0.0
220
0.0
230
1.0
 40
0.4997660166252908
 41
6.283185307179586
 42
9.444847744050267
  0
LINE
  5
1D69185809
330
1D69183399
100
AcDbEntity
  8
JISSEN
100
AcDbLine
 10
71.14286551984213
 20
199.371582496169
 30
0.0
 11
70.44745024388936
 21
199.371582496169
 31
0.0
  0
TEXT
  5
1D6918580A
330
1D69183399
100
AcDbEntity
  8
TEXT
100
AcDbText
 10
316.7218798497315
 20
262.5000002582271
 30
0.0
 40
3.0
  1
SCS13
  7
K
 72
     4
 11
323.9361655640172
 21
264.0000002582271
 31
0.0
100
AcDbText
  0
TEXT
  5
1D6918580B
330
1D69183399
100
AcDbEntity
  8
TEXT
100
AcDbText
 10
337.7857119733164
 20
262.5000002582271
 30
0.0
 40
3.0
  1
1
  7
K
 72
     4
 11
338.9999976876022
 21
264.0000002582271
 31
0.0
100
AcDbText
  0
LINE
  5
1D6918580C
330
1D69183399
100
AcDbEntity
  8
JISSEN
100
AcDbLine
 10
269.9769785567417
 20
267.000000258227
 30
0.0
 11
361.9999976876023
 21
267.0000002582271
 31
0.0
  0
LINE
  5
1D6918580D
330
1D69183399
100
AcDbEntity
  8
JISSEN
100
AcDbLine
 10
269.9769785567417
 20
261.0000002582271
 30
0.0
 11
361.9999976876023
 21
261.0000002582271
 31
0.0
  0
TEXT
  5
1D6918580E
330
1D69183399
100
AcDbEntity
  8
TEXT
100
AcDbText
 10
287.6818111056497
 20
268.5000002582271
 30
0.0
 40
3.0
  1
名      称
  7
K
 72
     4
 11
296.2818111056497
 21
270.0000002582271
 31
0.0
100
AcDbText
  0
TEXT
  5
1D6918580F
330
1D69183399
100
AcDbEntity
  8
TEXT
100
AcDbText
 10
272.0081201070673
 20
268.5000002582271
 30
0.0
 40
3.0
  1
番号
  7
K
 72
     4
 11
275.2081201070673
 21
270.0000002582271
 31
0.0
100
AcDbText
  0
LINE
  5
1D69185810
330
1D69183399
100
AcDbEntity
  8
JISSEN
100
AcDbLine
 10
269.9769785567417
 20
261.0000002582271
 30
0.0
 11
269.9769785567417
 21
273.0000002582271
 31
0.0
  0
LINE
  5
1D69185811
330
1D69183399
100
AcDbEntity
  8
JISSEN
100
AcDbLine
 10
279.9769785567416
 20
273.0000002582271
 30
0.0
 11
279.9769785567416
 21
261.0000002582271
 31
0.0
  0
TEXT
  5
1D69185812
330
1D69183399
100
AcDbEntity
  8
TEXT
100
AcDbText
 10
317.1361655640172
 20
268.5000002582271
 30
0.0
 40
3.0
  1
材    質
  7
K
 72
     4
 11
323.9361655640172
 21
270.0000002582271
 31
0.0
100
AcDbText
  0
LINE
  5
1D69185813
330
1D69183399
100
AcDbEntity
  8
JISSEN
100
AcDbLine
 10
314.0914804995529
 20
273.0000002582271
 30
0.0
 11
314.0914804995529
 21
261.0000002582271
 31
0.0
  0
LINE
  5
1D69185814
330
1D69183399
100
AcDbEntity
  8
JISSEN
100
AcDbLine
 10
333.4999976876022
 20
261.0000002582271
 30
0.0
 11
333.4999976876022
 21
273.0000002582271
 31
0.0
  0
TEXT
  5
1D69185815
330
1D69183399
100
AcDbEntity
  8
TEXT
100
AcDbText
 10
346.6999976876022
 20
268.5000002582271
 30
0.0
 40
3.0
  1
備    考
  7
K
 72
     4
 11
353.4999976876022
 21
270.0000002582271
 31
0.0
100
AcDbText
  0
TEXT
  5
1D69185816
330
1D69183399
100
AcDbEntity
  8
TEXT
100
AcDbText
 10
335.7999976876022
 20
268.5000002582271
 30
0.0
 40
3.0
  1
個数
  7
K
 72
     4
 11
338.9999976876022
 21
270.0000002582271
 31
0.0
100
AcDbText
  0
LINE
  5
1D69185817
330
1D69183399
100
AcDbEntity
  8
JISSEN
100
AcDbLine
 10
344.4999976876022
 20
273.0000002582271
 30
0.0
 11
344.4999976876022
 21
261.0000002582271
 31
0.0
  0
TEXT
  5
1D69185818
330
1D69183399
100
AcDbEntity
  8
TEXT
100
AcDbText
 10
281.6383955549641
 20
262.5000002582271
 30
0.0
 40
3.0
  1
ガードZN露出型B
  7
K
 72
     4
 11
296.8241098406784
 21
264.0000002582271
 31
0.0
100
AcDbText
  0
TEXT
  5
1D69185819
330
1D69183399
100
AcDbEntity
  8
TEXT
100
AcDbText
 10
345.8054427579436
 20
262.5000002582271
 30
0.0
 40
3.0
  1
Crメッキ
  7
K
 72
     4
 11
353.3482999008008
 21
264.0000002582271
 31
0.0
100
AcDbText
  0
TEXT
  5
1D6918581A
330
1D69183399
100
AcDbEntity
  8
TEXT
100
AcDbText
 10
164.8054437579436
 20
262.5000002582271
 30
0.0
 40
3.0
  1
Crメッキ
  7
K
 72
     4
 11
172.3483009008008
 21
264.0000002582271
 31
0.0
100
AcDbText
  0
TEXT
  5
1D6918581B
330
1D69183399
100
AcDbEntity
  8
TEXT
100
AcDbText
 10
100.6383965549641
 20
262.5000002582271
 30
0.0
 40
3.0
  1
ガードZN露出型B
  7
K
 72
     4
 11
115.8241108406784
 21
264.0000002582271
 31
0.0
100
AcDbText
  0
LINE
  5
1D6918581C
330
1D69183399
100
AcDbEntity
  8
JISSEN
100
AcDbLine
 10
163.4999986876022
 20
273.0000002582271
 30
0.0
 11
163.4999986876022
 21
261.0000002582271
 31
0.0
  0
TEXT
  5
1D6918581D
330
1D69183399
100
AcDbEntity
  8
TEXT
100
AcDbText
 10
154.7999986876022
 20
268.5000002582271
 30
0.0
 40
3.0
  1
個数
  7
K
 72
     4
 11
157.9999986876022
 21
270.0000002582271
 31
0.0
100
AcDbText
  0
TEXT
  5
1D6918581E
330
1D69183399
100
AcDbEntity
  8
TEXT
100
AcDbText
 10
165.6999986876022
 20
268.5000002582271
 30
0.0
 40
3.0
  1
備    考
  7
K
 72
     4
 11
172.4999986876022
 21
270.0000002582271
 31
0.0
100
AcDbText
  0
LINE
  5
1D6918581F
330
1D69183399
100
AcDbEntity
  8
JISSEN
100
AcDbLine
 10
152.4999986876022
 20
261.0000002582271
 30
0.0
 11
152.4999986876022
 21
273.0000002582271
 31
0.0
  0
LINE
  5
1D69185820
330
1D69183399
100
AcDbEntity
  8
JISSEN
100
AcDbLine
 10
133.0914814995529
 20
273.0000002582271
 30
0.0
 11
133.0914814995529
 21
261.0000002582271
 31
0.0
  0
TEXT
  5
1D69185821
330
1D69183399
100
AcDbEntity
  8
TEXT
100
AcDbText
 10
136.1361665640172
 20
268.5000002582271
 30
0.0
 40
3.0
  1
材    質
  7
K
 72
     4
 11
142.9361665640173
 21
270.0000002582271
 31
0.0
100
AcDbText
  0
LINE
  5
1D69185822
330
1D69183399
100
AcDbEntity
  8
JISSEN
100
AcDbLine
 10
98.97697955674169
 20
273.0000002582271
 30
0.0
 11
98.97697955674169
 21
261.0000002582271
 31
0.0
  0
LINE
  5
1D69185823
330
1D69183399
100
AcDbEntity
  8
JISSEN
100
AcDbLine
 10
88.97697955674169
 20
261.0000002582271
 30
0.0
 11
88.97697955674169
 21
273.0000002582271
 31
0.0
  0
TEXT
  5
1D69185824
330
1D69183399
100
AcDbEntity
  8
TEXT
100
AcDbText
 10
91.00812110706737
 20
268.5000002582271
 30
0.0
 40
3.0
  1
番号
  7
K
 72
     4
 11
94.20812110706737
 21
270.0000002582271
 31
0.0
100
AcDbText
  0
TEXT
  5
1D69185825
330
1D69183399
100
AcDbEntity
  8
TEXT
100
AcDbText
 10
106.6818121056497
 20
268.5000002582271
 30
0.0
 40
3.0
  1
名      称
  7
K
 72
     4
 11
115.2818121056497
 21
270.0000002582271
 31
0.0
100
AcDbText
  0
LINE
  5
1D69185826
330
1D69183399
100
AcDbEntity
  8
JISSEN
100
AcDbLine
 10
88.97697955674169
 20
261.0000002582271
 30
0.0
 11
180.9999986876023
 21
261.0000002582271
 31
0.0
  0
LINE
  5
1D69185827
330
1D69183399
100
AcDbEntity
  8
JISSEN
100
AcDbLine
 10
88.97697955674169
 20
267.000000258227
 30
0.0
 11
180.9999986876023
 21
267.0000002582271
 31
0.0
  0
TEXT
  5
1D69185828
330
1D69183399
100
AcDbEntity
  8
TEXT
100
AcDbText
 10
156.7857129733164
 20
262.5000002582271
 30
0.0
 40
3.0
  1
1
  7
K
 72
     4
 11
157.9999986876022
 21
264.0000002582271
 31
0.0
100
AcDbText
  0
TEXT
  5
1D69185829
330
1D69183399
100
AcDbEntity
  8
TEXT
100
AcDbText
 10
135.7218808497315
 20
262.5000002582271
 30
0.0
 40
3.0
  1
SCS13
  7
K
 72
     4
 11
142.9361665640173
 21
264.0000002582271
 31
0.0
100
AcDbText
  0
TEXT
  5
1D6918582A
330
1D69183399
100
AcDbEntity
  8
SUNPOU
100
AcDbText
 10
147.0382869917501
 20
7.849424483059008
 30
0.0
 40
3.0
  1
ガードZN露出型B
  7
K
100
AcDbText
  0
TEXT
  5
1D6918582B
330
1D69183399
100
AcDbEntity
  8
SUNPOU
100
AcDbText
 10
147.0382869917501
 20
2.849424483059008
 30
0.0
 40
3.0
  1
尺度　1/1
  7
K
100
AcDbText
  0
TEXT
  5
1D6918582C
330
1D69183399
100
AcDbEntity
  8
SUNPOU
100
AcDbText
 10
280.4418937428511
 20
2.849424483059008
 30
0.0
 40
3.0
  1
尺度　1/1
  7
K
100
AcDbText
  0
TEXT
  5
1D6918582D
330
1D69183399
100
AcDbEntity
  8
TEXT
100
AcDbText
 10
280.4418937428511
 20
7.849424483059008
 30
0.0
 40
3.0
  1
ガードZN露出型B、取付状態図（ヘッドはVZF）
  7
K
100
AcDbText
  0
LWPOLYLINE
  5
1D6918582E
330
1D69183399
100
AcDbEntity
  8
WAKU
100
AcDbPolyline
 90
        4
 70
     1
 43
0.0
 10
180.9999986916022
 20
0.0000002582271463
 10
361.9999976916023
 20
0.0000002582271463
 10
361.9999976916023
 20
273.0000002582271
 10
180.9999986916022
 20
273.0000002582271
  0
LWPOLYLINE
  5
1D6918582F
330
1D69183399
100
AcDbEntity
  8
NITEN
100
AcDbPolyline
 90
        2
 70
     0
 43
0.0
 10
287.4999986916023
 20
208.3570076037367
 42
0.5882352941176297
 10
270.4999986916021
 20
208.357007603737
 42
0.5882352941176297
  0
LWPOLYLINE
  5
1D69185830
330
1D69183399
100
AcDbEntity
  8
NITEN
100
AcDbPolyline
 90
       15
 70
     1
 43
0.0
 10
256.4999986916022
 20
147.0192899525909
 42
0.4142135623730927
 10
257.9999986916021
 20
145.5192899525907
 10
281.0940498625988
 20
145.5192899525907
 10
282.9999986916023
 20
145.5192899525907
 42
0.4142135623730925
 10
284.4999986916022
 20
147.0192899525909
 10
284.4999986916022
 20
158.0653059788086
 42
-0.4142135623730943
 10
289.4999986916023
 20
163.0653059788087
 42
0.4142135623730951
 10
291.4999986916022
 20
165.0653059788086
 10
291.4999986916022
 20
185.5192899525907
 42
0.4142135623730951
 10
289.4999986916023
 20
187.5192899525907
 10
251.4999986916023
 20
187.5192899525907
 42
0.4142135623730951
 10
249.4999986916023
 20
185.5192899525907
 10
249.4999986916023
 20
165.0653059788086
 42
0.4142135623730951
 10
251.4999986916023
 20
163.0653059788087
 42
-0.4142135623730961
 10
256.4999986916022
 20
158.0653059788086
  0
LWPOLYLINE
  5
1D69185831
330
1D69183399
100
AcDbEntity
  8
NITEN
100
AcDbPolyline
 90
        5
 70
     0
 43
0.0
 10
287.4999986916023
 20
187.5192899525907
 10
287.4999986916023
 20
208.3570076037367
 42
-0.5882352941176478
 10
270.4999986916023
 20
208.3570076037367
 42
0.5882352941176478
 10
253.4999986916023
 20
208.3570076037362
 10
253.4999986916023
 20
187.5192899525907
  0
LWPOLYLINE
  5
1D69185832
330
1D69183399
100
AcDbEntity
  8
WAKU
100
AcDbPolyline
 90
        4
 70
     1
 43
0.0
 10
-0.0000003083977163
 20
0.0000002582271463
 10
180.9999986916022
 20
0.0000002582271463
 10
180.9999986916022
 20
273.0000002582271
 10
-0.0000003083977163
 20
273.0000002582271
  0
LINE
  5
1D69185833
330
1D69183399
100
AcDbEntity
  8
JISSEN
 62
     7
100
AcDbLine
 10
269.0999986916021
 20
106.2692899525791
 30
0.0
 11
266.949998691603
 21
106.2692899525791
 31
0.0
  0
LINE
  5
1D69185834
330
1D69183399
100
AcDbEntity
  8
JISSEN
 62
     7
100
AcDbLine
 10
271.8999986916024
 20
106.2692899525791
 30
0.0
 11
274.0499986916019
 21
106.2692899525791
 31
0.0
  0
ENDSEC
  0
SECTION
  2
OBJECTS
  0
DICTIONARY
  5
1D6918338D
330
0
100
AcDbDictionary
281
     1
  3
ACAD_GROUP
350
1D6918338E
  3
ACAD_LAYOUT
350
1D69183F2F
  3
ACAD_MLINESTYLE
350
1D6918338F
  3
ACAD_PLOTSETTINGS
350
1D69183F30
  3
ACAD_PLOTSTYLENAME
350
1D69183F2D
  3
ACDBVARIABLEDICTIONARY
350
1D691838E2
  0
DICTIONARY
  5
1D69184A9E
330
1D69183383
100
AcDbDictionary
280
     1
281
     1
  3
ACAD_LAYERFILTERS
360
1D69184F93
  3
ACAD_LAYERSTATES
360
1D69184A9F
  0
DICTIONARY
  5
1D69184A9A
330
1D69184A99
100
AcDbDictionary
280
     1
281
     1
  3
ACAD_XREC_ROUNDTRIP
360
1D69184A9B
  3
ADSK_XREC_LAYER_RECONCILED
360
1D69184A9C
  0
DICTIONARY
  5
1D691843B3
330
1D69183399
100
AcDbDictionary
280
     1
281
     1
  3
ACAD_LAYOUTSELFREF
360
1D691848F8
  0
DICTIONARY
  5
1D691843B1
330
1D69183396
100
AcDbDictionary
280
     1
281
     1
  3
ACAD_LAYOUTSELFREF
360
1D691848F7
  0
DICTIONARY
  5
1D6918338E
102
{ACAD_REACTORS
330
1D6918338D
102
}
330
1D6918338D
100
AcDbDictionary
281
     1
  0
DICTIONARY
  5
1D69183F2F
102
{ACAD_REACTORS
330
1D6918338D
102
}
330
1D6918338D
100
AcDbDictionary
281
     1
  3
Model
350
1D691848FE
  3
ﾚｲｱｳﾄ1
350
1D691848FF
  0
DICTIONARY
  5
1D6918338F
102
{ACAD_REACTORS
330
1D6918338D
102
}
330
1D6918338D
100
AcDbDictionary
281
     1
  3
STANDARD
350
1D6918339C
  0
DICTIONARY
  5
1D69183F30
102
{ACAD_REACTORS
330
1D6918338D
102
}
330
1D6918338D
100
AcDbDictionary
281
     1
  0
ACDBDICTIONARYWDFLT
  5
1D69183F2D
102
{ACAD_REACTORS
330
1D6918338D
102
}
330
1D6918338D
100
AcDbDictionary
281
     1
  3
Normal
350
1D69183F2E
100
AcDbDictionaryWithDefault
340
1D69183F2E
  0
DICTIONARY
  5
1D691838E2
102
{ACAD_REACTORS
330
1D6918338D
102
}
330
1D6918338D
100
AcDbDictionary
281
     1
  3
DIMASSOC
350
1D691848A5
  3
SORTENTS
350
1D691838E3
  0
DICTIONARY
  5
1D69184F93
102
{ACAD_REACTORS
330
1D69184A9E
102
}
330
1D69184A9E
100
AcDbDictionary
280
     1
281
     1
  3
0
360
1D69184F94
  3
0-0
360
1D69184F95
  3
10画層
360
1D69184F96
  3
2
360
1D69184F97
  3
3
360
1D69184F98
  3
3A
360
1D69184F99
  3
4
360
1D69184F9A
  3
5画層
360
1D69184F9B
  3
6画層
360
1D69184F9C
  3
7
360
1D69184F9D
  3
7a画層
360
1D69184F9E
  3
8
360
1D69184F9F
  3
ASYST
360
1D69184FA0
  3
ASYST PHASE 1
360
1D69184FA1
  3
ASYST PHASE 2
360
1D69184FA2
  3
cap-0
360
1D69184FA3
  3
dims
360
1D69184FA4
  3
elec
360
1D69184FA5
  3
ELECTRICAL
360
1D69184FA6
  3
F
360
1D69184FA7
  3
Frame
360
1D69184FA8
  3
FROZEN
360
1D69184FA9
  3
FROZEN ACTIVE
360
1D69184FAA
  3
jiku-0
360
1D69184FAB
  3
MP
360
1D69184FAC
  3
MPR
360
1D69184FAD
  3
p-
360
1D69184FAE
  3
ST
360
1D69184FAF
  3
TC
360
1D69184FB0
  3
TEXT
360
1D69184FB1
  3
ｹｰﾌﾞﾙ図
360
1D69184FB2
  3
０画層
360
1D69184FB3
  3
３A画層
360
1D69184FB4
  3
３画層
360
1D69184FB5
  0
DICTIONARY
  5
1D69184A9F
102
{ACAD_REACTORS
330
1D69184A9E
102
}
330
1D69184A9E
100
AcDbDictionary
281
     1
  0
XRECORD
  5
1D69184A9B
102
{ACAD_REACTORS
330
1D69184A9A
102
}
330
1D69184A9A
100
AcDbXrecord
280
     1
102
MATERIAL
340
0
  0
XRECORD
  5
1D69184A9C
102
{ACAD_REACTORS
330
1D69184A9A
102
}
330
1D69184A9A
100
AcDbXrecord
280
     1
290
     1
  0
XRECORD
  5
1D691848F8
102
{ACAD_REACTORS
330
1D691843B3
102
}
330
1D691843B3
100
AcDbXrecord
280
     1
340
1D69183399
  0
XRECORD
  5
1D691848F7
102
{ACAD_REACTORS
330
1D691843B1
102
}
330
1D691843B1
100
AcDbXrecord
280
     1
340
1D69183396
  0
LAYOUT
  5
1D691848FE
102
{ACAD_REACTORS
330
1D69183F2F
102
}
330
1D69183F2F
100
AcDbPlotSettings
  1

  2
\\Nt_honsya\GL-8300A
  4

  6

 40
0.0
 41
0.0
 42
0.0
 43
0.0
 44
0.0
 45
0.0
 46
0.0
 47
0.0
 48
0.0
 49
0.0
140
0.0
141
0.0
142
1.0
143
1.0
 70
  1712
 72
     0
 73
     0
 74
     0
  7

 75
     0
147
1.0
148
0.0
149
0.0
100
AcDbLayout
  1
Model
 70
     1
 71
     0
 10
0.0
 20
0.0
 11
12.0
 21
9.0
 12
0.0
 22
0.0
 32
0.0
 14
0.0
 24
0.0
 34
0.0
 15
0.0
 25
0.0
 35
0.0
146
0.0
 13
0.0
 23
0.0
 33
0.0
 16
1.0
 26
0.0
 36
0.0
 17
0.0
 27
1.0
 37
0.0
 76
     0
330
1D69183399
  0
LAYOUT
  5
1D691848FF
102
{ACAD_REACTORS
330
1D69183F2F
102
}
330
1D69183F2F
100
AcDbPlotSettings
  1

  2
\\Nt_honsya\GL-8300A
  4

  6

 40
0.0
 41
0.0
 42
0.0
 43
0.0
 44
0.0
 45
0.0
 46
0.0
 47
0.0
 48
0.0
 49
0.0
140
0.0
141
0.0
142
1.0
143
1.0
 70
   688
 72
     0
 73
     0
 74
     5
  7

 75
    16
147
1.0
148
0.0
149
0.0
100
AcDbLayout
  1
ﾚｲｱｳﾄ1
 70
     0
 71
     1
 10
0.0
 20
0.0
 11
12.0
 21
9.0
 12
0.0
 22
0.0
 32
0.0
 14
1.000000000000000E+20
 24
1.000000000000000E+20
 34
1.000000000000000E+20
 15
-1.000000000000000E+20
 25
-1.000000000000000E+20
 35
-1.000000000000000E+20
146
0.0
 13
0.0
 23
0.0
 33
0.0
 16
1.0
 26
0.0
 36
0.0
 17
0.0
 27
1.0
 37
0.0
 76
     0
330
1D69183396
  0
MLINESTYLE
  5
1D6918339C
102
{ACAD_REACTORS
330
1D6918338F
102
}
330
1D6918338F
100
AcDbMlineStyle
  2
STANDARD
 70
     0
  3

 62
     0
 51
90.0
 52
90.0
 71
     2
 49
0.5
 62
   256
  6
BYLAYER
 49
-0.5
 62
   256
  6
BYLAYER
  0
ACDBPLACEHOLDER
  5
1D69183F2E
102
{ACAD_REACTORS
330
1D69183F2D
102
}
330
1D69183F2D
  0
DICTIONARYVAR
  5
1D691848A5
102
{ACAD_REACTORS
330
1D691838E2
102
}
330
1D691838E2
100
DictionaryVariables
280
     0
  1
0
  0
DICTIONARYVAR
  5
1D691838E3
102
{ACAD_REACTORS
330
1D691838E2
102
}
330
1D691838E2
100
DictionaryVariables
280
     0
  1
96
  0
XRECORD
  5
1D69184F94
102
{ACAD_REACTORS
330
1D69184F93
102
}
330
1D69184F93
100
AcDbXrecord
280
     1
  1
0
  1
*-0
  1
*
  1
*
 70
     0
  1
*
  1
*
  0
XRECORD
  5
1D69184F95
102
{ACAD_REACTORS
330
1D69184F93
102
}
330
1D69184F93
100
AcDbXrecord
280
     1
  1
0-0
  1
*-0
  1
*
  1
*
 70
     0
  1
*
  1
*
  0
XRECORD
  5
1D69184F96
102
{ACAD_REACTORS
330
1D69184F93
102
}
330
1D69184F93
100
AcDbXrecord
280
     1
  1
10画層
  1
*-10
  1
*
  1
*
 70
     0
  1
*
  1
*
  0
XRECORD
  5
1D69184F97
102
{ACAD_REACTORS
330
1D69184F93
102
}
330
1D69184F93
100
AcDbXrecord
280
     1
  1
2
  1
*-2
  1
*
  1
*
 70
     0
  1
*
  1
*
  0
XRECORD
  5
1D69184F98
102
{ACAD_REACTORS
330
1D69184F93
102
}
330
1D69184F93
100
AcDbXrecord
280
     1
  1
3
  1
*-3
  1
*
  1
*
 70
     0
  1
*
  1
*
  0
XRECORD
  5
1D69184F99
102
{ACAD_REACTORS
330
1D69184F93
102
}
330
1D69184F93
100
AcDbXrecord
280
     1
  1
3A
  1
*-3A
  1
*
  1
*
 70
     0
  1
*
  1
*
  0
XRECORD
  5
1D69184F9A
102
{ACAD_REACTORS
330
1D69184F93
102
}
330
1D69184F93
100
AcDbXrecord
280
     1
  1
4
  1
*-4
  1
*
  1
*
 70
     0
  1
*
  1
*
  0
XRECORD
  5
1D69184F9B
102
{ACAD_REACTORS
330
1D69184F93
102
}
330
1D69184F93
100
AcDbXrecord
280
     1
  1
5画層
  1
*-5
  1
*
  1
*
 70
     0
  1
*
  1
*
  0
XRECORD
  5
1D69184F9C
102
{ACAD_REACTORS
330
1D69184F93
102
}
330
1D69184F93
100
AcDbXrecord
280
     1
  1
6画層
  1
*-6
  1
*
  1
*
 70
     0
  1
*
  1
*
  0
XRECORD
  5
1D69184F9D
102
{ACAD_REACTORS
330
1D69184F93
102
}
330
1D69184F93
100
AcDbXrecord
280
     1
  1
7
  1
*-7*
  1
*
  1
*
 70
     0
  1
*
  1
*
  0
XRECORD
  5
1D69184F9E
102
{ACAD_REACTORS
330
1D69184F93
102
}
330
1D69184F93
100
AcDbXrecord
280
     1
  1
7a画層
  1
*-7a
  1
*
  1
*
 70
     0
  1
*
  1
*
  0
XRECORD
  5
1D69184F9F
102
{ACAD_REACTORS
330
1D69184F93
102
}
330
1D69184F93
100
AcDbXrecord
280
     1
  1
8
  1
*-8,8
  1
*
  1
*
 70
     0
  1
*
  1
*
  0
XRECORD
  5
1D69184FA0
102
{ACAD_REACTORS
330
1D69184F93
102
}
330
1D69184F93
100
AcDbXrecord
280
     1
  1
ASYST
  1
ASYST*
  1
*
  1
*
 70
     0
  1
*
  1
*
  0
XRECORD
  5
1D69184FA1
102
{ACAD_REACTORS
330
1D69184F93
102
}
330
1D69184F93
100
AcDbXrecord
280
     1
  1
ASYST PHASE 1
  1
A1.0-8$0$ASYT*
  1
*
  1
*
 70
     0
  1
*
  1
*
  0
XRECORD
  5
1D69184FA2
102
{ACAD_REACTORS
330
1D69184F93
102
}
330
1D69184F93
100
AcDbXrecord
280
     1
  1
ASYST PHASE 2
  1
A2.0-8$0$ASYT*
  1
*
  1
*
 70
     0
  1
*
  1
*
  0
XRECORD
  5
1D69184FA3
102
{ACAD_REACTORS
330
1D69184F93
102
}
330
1D69184F93
100
AcDbXrecord
280
     1
  1
cap-0
  1
*
  1
*
  1
*
 70
     0
  1
*
  1
*
  0
XRECORD
  5
1D69184FA4
102
{ACAD_REACTORS
330
1D69184F93
102
}
330
1D69184F93
100
AcDbXrecord
280
     1
  1
dims
  1
*di*
  1
*
  1
*
 70
     0
  1
*
  1
*
  0
XRECORD
  5
1D69184FA5
102
{ACAD_REACTORS
330
1D69184F93
102
}
330
1D69184F93
100
AcDbXrecord
280
     1
  1
elec
  1
e-*
  1
*
  1
*
 70
     0
  1
*
  1
*
  0
XRECORD
  5
1D69184FA6
102
{ACAD_REACTORS
330
1D69184F93
102
}
330
1D69184F93
100
AcDbXrecord
280
     1
  1
ELECTRICAL
  1
E-*
  1
*
  1
*
 70
     0
  1
*
  1
*
  0
XRECORD
  5
1D69184FA7
102
{ACAD_REACTORS
330
1D69184F93
102
}
330
1D69184F93
100
AcDbXrecord
280
     1
  1
F
  1
*
  1
*
  1
*
 70
     0
  1
*
  1
*
  0
XRECORD
  5
1D69184FA8
102
{ACAD_REACTORS
330
1D69184F93
102
}
330
1D69184F93
100
AcDbXrecord
280
     1
  1
Frame
  1
F*
  1
*
  1
*
 70
     0
  1
*
  1
*
  0
XRECORD
  5
1D69184FA9
102
{ACAD_REACTORS
330
1D69184F93
102
}
330
1D69184F93
100
AcDbXrecord
280
     1
  1
FROZEN
  1
*
  1
*
  1
*
 70
     4
  1
*
  1
*
  0
XRECORD
  5
1D69184FAA
102
{ACAD_REACTORS
330
1D69184F93
102
}
330
1D69184F93
100
AcDbXrecord
280
     1
  1
FROZEN ACTIVE
  1
*
  1
*
  1
*
 70
    16
  1
*
  1
*
  0
XRECORD
  5
1D69184FAB
102
{ACAD_REACTORS
330
1D69184F93
102
}
330
1D69184F93
100
AcDbXrecord
280
     1
  1
jiku-0
  1
*
  1
*
  1
*
 70
     0
  1
*
  1
*
  0
XRECORD
  5
1D69184FAC
102
{ACAD_REACTORS
330
1D69184F93
102
}
330
1D69184F93
100
AcDbXrecord
280
     1
  1
MP
  1
MP_*
  1
*
  1
*
 70
     0
  1
*
  1
*
  0
XRECORD
  5
1D69184FAD
102
{ACAD_REACTORS
330
1D69184F93
102
}
330
1D69184F93
100
AcDbXrecord
280
     1
  1
MPR
  1
MPR*
  1
*
  1
*
 70
     0
  1
*
  1
*
  0
XRECORD
  5
1D69184FAE
102
{ACAD_REACTORS
330
1D69184F93
102
}
330
1D69184F93
100
AcDbXrecord
280
     1
  1
p-
  1
p-*
  1
*
  1
*
 70
     0
  1
*
  1
*
  0
XRECORD
  5
1D69184FAF
102
{ACAD_REACTORS
330
1D69184F93
102
}
330
1D69184F93
100
AcDbXrecord
280
     1
  1
ST
  1
ST_*
  1
*
  1
*
 70
     0
  1
*
  1
*
  0
XRECORD
  5
1D69184FB0
102
{ACAD_REACTORS
330
1D69184F93
102
}
330
1D69184F93
100
AcDbXrecord
280
     1
  1
TC
  1
TC_*,0N
  1
*
  1
*
 70
     0
  1
*
  1
*
  0
XRECORD
  5
1D69184FB1
102
{ACAD_REACTORS
330
1D69184F93
102
}
330
1D69184F93
100
AcDbXrecord
280
     1
  1
TEXT
  1
TEXT
  1
*
  1
*
 70
     0
  1
*
  1
*
  0
XRECORD
  5
1D69184FB2
102
{ACAD_REACTORS
330
1D69184F93
102
}
330
1D69184F93
100
AcDbXrecord
280
     1
  1
ｹｰﾌﾞﾙ図
  1
*
  1
*
  1
*
 70
     0
  1
*
  1
*
  0
XRECORD
  5
1D69184FB3
102
{ACAD_REACTORS
330
1D69184F93
102
}
330
1D69184F93
100
AcDbXrecord
280
     1
  1
０画層
  1
*-0
  1
*
  1
*
 70
     0
  1
*
  1
*
  0
XRECORD
  5
1D69184FB4
102
{ACAD_REACTORS
330
1D69184F93
102
}
330
1D69184F93
100
AcDbXrecord
280
     1
  1
３A画層
  1
*-3A
  1
*
  1
*
 70
     0
  1
*
  1
*
  0
XRECORD
  5
1D69184FB5
102
{ACAD_REACTORS
330
1D69184F93
102
}
330
1D69184F93
100
AcDbXrecord
280
     1
  1
３画層
  1
*-3
  1
*
  1
*
 70
     0
  1
*
  1
*
  0
ENDSEC
  0
EOF
