  0
SECTION
  2
HEADER
  9
$ACADVER
  1
AC1015
  9
$ACADMAINTVER
 70
    10
  9
$DWGCODEPAGE
  3
ANSI_932
  9
$INSBASE
 10
0.0
 20
0.0
 30
0.0
  9
$EXTMIN
 10
0.0
 20
0.0
 30
0.0
  9
$EXTMAX
 10
361.999998
 20
273.0
 30
0.0
  9
$LIMMIN
 10
0.0
 20
0.0
  9
$LIMMAX
 10
180.999999
 20
273.0
  9
$ORTHOMODE
 70
     1
  9
$REGENMODE
 70
     1
  9
$FILLMODE
 70
     1
  9
$QTEXTMODE
 70
     0
  9
$MIRRTEXT
 70
     0
  9
$LTSCALE
 40
5.0
  9
$ATTMODE
 70
     1
  9
$TEXTSIZE
 40
1.5
  9
$TRACEWID
 40
0.05
  9
$TEXTSTYLE
  7
K
  9
$CLAYER
  8
JISSEN
  9
$CELTYPE
  6
BYLAYER
  9
$CECOLOR
 62
   256
  9
$CELTSCALE
 40
1.0
  9
$DISPSILH
 70
     0
  9
$DIMSCALE
 40
1.0
  9
$DIMASZ
 40
1.5
  9
$DIMEXO
 40
1.0
  9
$DIMDLI
 40
6.0
  9
$DIMRND
 40
0.0
  9
$DIMDLE
 40
0.0
  9
$DIMEXE
 40
1.0
  9
$DIMTP
 40
495.0
  9
$DIMTM
 40
0.0
  9
$DIMTXT
 40
3.0
  9
$DIMCEN
 40
0.0
  9
$DIMTSZ
 40
0.0
  9
$DIMTOL
 70
     0
  9
$DIMLIM
 70
     0
  9
$DIMTIH
 70
     0
  9
$DIMTOH
 70
     0
  9
$DIMSE1
 70
     0
  9
$DIMSE2
 70
     0
  9
$DIMTAD
 70
     1
  9
$DIMZIN
 70
     8
  9
$DIMBLK
  1
ARROWANG
  9
$DIMASO
 70
     0
  9
$DIMSHO
 70
     0
  9
$DIMPOST
  1

  9
$DIMAPOST
  1

  9
$DIMALT
 70
     0
  9
$DIMALTD
 70
     2
  9
$DIMALTF
 40
25.4
  9
$DIMLFAC
 40
1.0
  9
$DIMTOFL
 70
     1
  9
$DIMTVP
 40
0.0
  9
$DIMTIX
 70
     1
  9
$DIMSOXD
 70
     0
  9
$DIMSAH
 70
     0
  9
$DIMBLK1
  1
ARROWANG
  9
$DIMBLK2
  1
ARROWANG
  9
$DIMSTYLE
  2
IMAO
  9
$DIMCLRD
 70
     0
  9
$DIMCLRE
 70
     0
  9
$DIMCLRT
 70
     0
  9
$DIMTFAC
 40
1.0
  9
$DIMGAP
 40
0.09
  9
$DIMJUST
 70
     0
  9
$DIMSD1
 70
     0
  9
$DIMSD2
 70
     0
  9
$DIMTOLJ
 70
     1
  9
$DIMTZIN
 70
     0
  9
$DIMALTZ
 70
     0
  9
$DIMALTTZ
 70
     0
  9
$DIMUPT
 70
     0
  9
$DIMDEC
 70
     4
  9
$DIMTDEC
 70
     4
  9
$DIMALTU
 70
     2
  9
$DIMALTTD
 70
     2
  9
$DIMTXSTY
  7
STANDARD
  9
$DIMAUNIT
 70
     0
  9
$DIMADEC
 70
     0
  9
$DIMALTRND
 40
0.0
  9
$DIMAZIN
 70
     0
  9
$DIMDSEP
 70
    46
  9
$DIMATFIT
 70
     3
  9
$DIMFRAC
 70
     0
  9
$DIMLDRBLK
  1
ARROWANG
  9
$DIMLUNIT
 70
     2
  9
$DIMLWD
 70
    -2
  9
$DIMLWE
 70
    -2
  9
$DIMTMOVE
 70
     0
  9
$LUNITS
 70
     2
  9
$LUPREC
 70
     2
  9
$SKETCHINC
 40
0.1
  9
$FILLETRAD
 40
0.3
  9
$AUNITS
 70
     0
  9
$AUPREC
 70
     2
  9
$MENU
  1
STDR12J
  9
$ELEVATION
 40
0.0
  9
$PELEVATION
 40
0.0
  9
$THICKNESS
 40
0.0
  9
$LIMCHECK
 70
     0
  9
$CHAMFERA
 40
0.3
  9
$CHAMFERB
 40
0.3
  9
$CHAMFERC
 40
0.0
  9
$CHAMFERD
 40
0.0
  9
$SKPOLY
 70
     0
  9
$TDCREATE
 40
2450354.415456018
  9
$TDUCREATE
 40
2450354.040456018
  9
$TDUPDATE
 40
2454757.689728403
  9
$TDUUPDATE
 40
2454757.314728403
  9
$TDINDWG
 40
0.2179197801
  9
$TDUSRTIMER
 40
0.2179196065
  9
$USRTIMER
 70
     1
  9
$ANGBASE
 50
0.0
  9
$ANGDIR
 70
     0
  9
$PDMODE
 70
     0
  9
$PDSIZE
 40
0.0
  9
$PLINEWID
 40
0.0
  9
$SPLFRAME
 70
     0
  9
$SPLINETYPE
 70
     6
  9
$SPLINESEGS
 70
     8
  9
$HANDSEED
  5
1D6918443B
  9
$SURFTAB1
 70
     6
  9
$SURFTAB2
 70
     6
  9
$SURFTYPE
 70
     6
  9
$SURFU
 70
     6
  9
$SURFV
 70
     6
  9
$UCSBASE
  2

  9
$UCSNAME
  2

  9
$UCSORG
 10
0.0
 20
0.0
 30
0.0
  9
$UCSXDIR
 10
1.0
 20
0.0
 30
0.0
  9
$UCSYDIR
 10
0.0
 20
1.0
 30
0.0
  9
$UCSORTHOREF
  2

  9
$UCSORTHOVIEW
 70
     0
  9
$UCSORGTOP
 10
0.0
 20
0.0
 30
0.0
  9
$UCSORGBOTTOM
 10
0.0
 20
0.0
 30
0.0
  9
$UCSORGLEFT
 10
0.0
 20
0.0
 30
0.0
  9
$UCSORGRIGHT
 10
0.0
 20
0.0
 30
0.0
  9
$UCSORGFRONT
 10
0.0
 20
0.0
 30
0.0
  9
$UCSORGBACK
 10
0.0
 20
0.0
 30
0.0
  9
$PUCSBASE
  2

  9
$PUCSNAME
  2

  9
$PUCSORG
 10
0.0
 20
0.0
 30
0.0
  9
$PUCSXDIR
 10
1.0
 20
0.0
 30
0.0
  9
$PUCSYDIR
 10
0.0
 20
1.0
 30
0.0
  9
$PUCSORTHOREF
  2

  9
$PUCSORTHOVIEW
 70
     0
  9
$PUCSORGTOP
 10
0.0
 20
0.0
 30
0.0
  9
$PUCSORGBOTTOM
 10
0.0
 20
0.0
 30
0.0
  9
$PUCSORGLEFT
 10
0.0
 20
0.0
 30
0.0
  9
$PUCSORGRIGHT
 10
0.0
 20
0.0
 30
0.0
  9
$PUCSORGFRONT
 10
0.0
 20
0.0
 30
0.0
  9
$PUCSORGBACK
 10
0.0
 20
0.0
 30
0.0
  9
$USERI1
 70
     4
  9
$USERI2
 70
     1
  9
$USERI3
 70
     1
  9
$USERI4
 70
     2
  9
$USERI5
 70
     1
  9
$USERR1
 40
1.0
  9
$USERR2
 40
3.0
  9
$USERR3
 40
3.0
  9
$USERR4
 40
1.5
  9
$USERR5
 40
8.0
  9
$WORLDVIEW
 70
     1
  9
$SHADEDGE
 70
     3
  9
$SHADEDIF
 70
    70
  9
$TILEMODE
 70
     1
  9
$MAXACTVP
 70
    16
  9
$PINSBASE
 10
0.0
 20
0.0
 30
0.0
  9
$PLIMCHECK
 70
     0
  9
$PEXTMIN
 10
1.000000000000000E+20
 20
1.000000000000000E+20
 30
1.000000000000000E+20
  9
$PEXTMAX
 10
-1.000000000000000E+20
 20
-1.000000000000000E+20
 30
-1.000000000000000E+20
  9
$PLIMMIN
 10
0.0
 20
0.0
  9
$PLIMMAX
 10
12.0
 20
9.0
  9
$UNITMODE
 70
     0
  9
$VISRETAIN
 70
     0
  9
$PLINEGEN
 70
     0
  9
$PSLTSCALE
 70
     0
  9
$TREEDEPTH
 70
     0
  9
$CMLSTYLE
  2
STANDARD
  9
$CMLJUST
 70
     0
  9
$CMLSCALE
 40
1.0
  9
$PROXYGRAPHICS
 70
     1
  9
$MEASUREMENT
 70
     0
  9
$CELWEIGHT
370
    -1
  9
$ENDCAPS
280
     0
  9
$JOINSTYLE
280
     0
  9
$LWDISPLAY
290
     0
  9
$INSUNITS
 70
     0
  9
$HYPERLINKBASE
  1

  9
$STYLESHEET
  1

  9
$XEDIT
290
     1
  9
$CEPSNTYPE
380
     0
  9
$PSTYLEMODE
290
     1
  9
$FINGERPRINTGUID
  2
{505022D2-60A7-4B41-BCD0-88E652839BB9}
  9
$VERSIONGUID
  2
{DAB43512-91CE-4D64-8DBB-A97717D4BB86}
  9
$EXTNAMES
290
     1
  9
$PSVPSCALE
 40
0.0
  9
$OLESTARTUP
290
     0
  0
ENDSEC
  0
SECTION
  2
CLASSES
  0
CLASS
  1
LWPOLYLINE
  2
AcDbPolyline
  3
AutoCAD 2000
 90
    32768
280
     0
281
     1
  0
CLASS
  1
DICTIONARYVAR
  2
AcDbDictionaryVar
  3
AutoCAD 2000
 90
        0
280
     0
281
     0
  0
CLASS
  1
HATCH
  2
AcDbHatch
  3
AutoCAD 2000
 90
    32768
280
     0
281
     1
  0
CLASS
  1
ACDBDICTIONARYWDFLT
  2
AcDbDictionaryWithDefault
  3
AutoCAD 2000
 90
        0
280
     0
281
     0
  0
CLASS
  1
ACDBPLACEHOLDER
  2
AcDbPlaceHolder
  3
AutoCAD 2000
 90
        0
280
     0
281
     0
  0
CLASS
  1
LAYOUT
  2
AcDbLayout
  3
AutoCAD 2000
 90
        0
280
     0
281
     0
  0
CLASS
  1
LONG_TRANSACTION
  2
AcDbLongTransaction
  3
AutoCAD 2000
 90
    32768
280
     0
281
     0
  0
CLASS
  1
LWPOLYLINE
  2
AcDbPolyline
  3
AutoCAD 2000
 90
    32768
280
     0
281
     1
  0
CLASS
  1
HATCH
  2
AcDbHatch
  3
AutoCAD 2000
 90
    32768
280
     0
281
     1
  0
CLASS
  1
XRECORD
  2
AcDbXrecord
  3
AutoCAD 2000
 90
    32768
280
     0
281
     0
  0
CLASS
  1
LONG_TRANSACTION
  2
AcDbLongTransaction
  3
AutoCAD 2000
 90
    32768
280
     0
281
     0
  0
CLASS
  1
LWPOLYLINE
  2
AcDbPolyline
  3
AutoCAD 2000
 90
    32768
280
     0
281
     1
  0
CLASS
  1
HATCH
  2
AcDbHatch
  3
AutoCAD 2000
 90
    32768
280
     0
281
     1
  0
CLASS
  1
XRECORD
  2
AcDbXrecord
  3
AutoCAD 2000
 90
    32768
280
     0
281
     0
  0
CLASS
  1
LONG_TRANSACTION
  2
AcDbLongTransaction
  3
AutoCAD 2000
 90
    32768
280
     0
281
     0
  0
CLASS
  1
LWPOLYLINE
  2
AcDbPolyline
  3
AutoCAD 2000
 90
    32768
280
     0
281
     1
  0
CLASS
  1
HATCH
  2
AcDbHatch
  3
AutoCAD 2000
 90
    32768
280
     0
281
     1
  0
CLASS
  1
XRECORD
  2
AcDbXrecord
  3
AutoCAD 2000
 90
    32768
280
     0
281
     0
  0
ENDSEC
  0
SECTION
  2
TABLES
  0
TABLE
  2
VPORT
  5
1D69183389
330
0
100
AcDbSymbolTable
 70
    10
  0
VPORT
  5
1D691833BC
330
1D69183389
100
AcDbSymbolTableRecord
100
AcDbViewportTableRecord
  2
2
 70
     0
 10
0.5
 20
0.0
 11
1.0
 21
1.0
 12
0.9240309999999999
 22
1.052651
 13
0.0
 23
0.0
 14
1.0
 24
1.0
 15
10.0
 25
10.0
 16
0.0
 26
0.0
 36
1.0
 17
0.0
 27
0.0
 37
0.0
 40
2.105302
 41
0.877814
 42
50.0
 43
0.0
 44
0.0
 50
0.0
 51
0.0
 71
     0
 72
   500
 73
     1
 74
     1
 75
     0
 76
     0
 77
     0
 78
     0
281
     0
 65
     1
110
0.0
120
0.0
130
0.0
111
1.0
121
0.0
131
0.0
112
0.0
122
1.0
132
0.0
 79
     0
146
0.0
  0
VPORT
  5
1D691833BD
330
1D69183389
100
AcDbSymbolTableRecord
100
AcDbViewportTableRecord
  2
2
 70
     0
 10
0.0
 20
0.0
 11
0.5
 21
1.0
 12
0.9240309999999999
 22
1.052651
 13
0.0
 23
0.0
 14
1.0
 24
1.0
 15
10.0
 25
10.0
 16
0.0
 26
0.0
 36
1.0
 17
0.0
 27
0.0
 37
0.0
 40
2.105302
 41
0.877814
 42
50.0
 43
0.0
 44
0.0
 50
0.0
 51
0.0
 71
     0
 72
   500
 73
     1
 74
     1
 75
     0
 76
     0
 77
     0
 78
     0
281
     0
 65
     1
110
0.0
120
0.0
130
0.0
111
1.0
121
0.0
131
0.0
112
0.0
122
1.0
132
0.0
 79
     0
146
0.0
  0
VPORT
  5
1D691833BE
330
1D69183389
100
AcDbSymbolTableRecord
100
AcDbViewportTableRecord
  2
3
 70
     0
 10
0.0
 20
0.5
 11
1.0
 21
1.0
 12
2.832169999999998
 22
1.052651
 13
0.0
 23
0.0
 14
1.0
 24
1.0
 15
10.0
 25
10.0
 16
0.0
 26
0.0
 36
1.0
 17
0.0
 27
0.0
 37
0.0
 40
2.105302
 41
3.571429
 42
50.0
 43
0.0
 44
0.0
 50
0.0
 51
0.0
 71
     0
 72
   500
 73
     1
 74
     1
 75
     0
 76
     0
 77
     0
 78
     0
281
     0
 65
     1
110
0.0
120
0.0
130
0.0
111
1.0
121
0.0
131
0.0
112
0.0
122
1.0
132
0.0
 79
     0
146
0.0
  0
VPORT
  5
1D691833BF
330
1D69183389
100
AcDbSymbolTableRecord
100
AcDbViewportTableRecord
  2
3
 70
     0
 10
0.0
 20
0.0
 11
1.0
 21
0.5
 12
2.856741999999998
 22
1.052651
 13
0.0
 23
0.0
 14
1.0
 24
1.0
 15
10.0
 25
10.0
 16
0.0
 26
0.0
 36
1.0
 17
0.0
 27
0.0
 37
0.0
 40
2.105302
 41
3.594770999999998
 42
50.0
 43
0.0
 44
0.0
 50
0.0
 51
0.0
 71
     0
 72
   500
 73
     1
 74
     1
 75
     0
 76
     0
 77
     0
 78
     0
281
     0
 65
     1
110
0.0
120
0.0
130
0.0
111
1.0
121
0.0
131
0.0
112
0.0
122
1.0
132
0.0
 79
     0
146
0.0
  0
VPORT
  5
1D691833C0
330
1D69183389
100
AcDbSymbolTableRecord
100
AcDbViewportTableRecord
  2
4
 70
     0
 10
0.5
 20
0.0
 11
1.0
 21
0.5
 12
2.886858
 22
1.052651
 13
0.0
 23
0.0
 14
1.0
 24
1.0
 15
10.0
 25
10.0
 16
0.0
 26
0.0
 36
1.0
 17
0.0
 27
0.0
 37
0.0
 40
4.275206999999999
 41
1.784314
 42
50.0
 43
0.0
 44
0.0
 50
0.0
 51
0.0
 71
     0
 72
   500
 73
     1
 74
     1
 75
     0
 76
     0
 77
     0
 78
     0
281
     0
 65
     1
110
0.0
120
0.0
130
0.0
111
1.0
121
0.0
131
0.0
112
0.0
122
1.0
132
0.0
 79
     0
146
0.0
  0
VPORT
  5
1D691833C1
330
1D69183389
100
AcDbSymbolTableRecord
100
AcDbViewportTableRecord
  2
4
 70
     0
 10
0.5
 20
0.5
 11
1.0
 21
1.0
 12
2.86209
 22
1.052651
 13
0.0
 23
0.0
 14
1.0
 24
1.0
 15
10.0
 25
10.0
 16
0.0
 26
0.0
 36
1.0
 17
0.0
 27
0.0
 37
0.0
 40
4.275206999999999
 41
1.772726999999999
 42
50.0
 43
0.0
 44
0.0
 50
0.0
 51
0.0
 71
     0
 72
   500
 73
     1
 74
     1
 75
     0
 76
     0
 77
     0
 78
     0
281
     0
 65
     1
110
0.0
120
0.0
130
0.0
111
1.0
121
0.0
131
0.0
112
0.0
122
1.0
132
0.0
 79
     0
146
0.0
  0
VPORT
  5
1D691833C2
330
1D69183389
100
AcDbSymbolTableRecord
100
AcDbViewportTableRecord
  2
4
 70
     0
 10
0.0
 20
0.5
 11
0.5
 21
1.0
 12
2.86209
 22
1.052651
 13
0.0
 23
0.0
 14
1.0
 24
1.0
 15
10.0
 25
10.0
 16
0.0
 26
0.0
 36
1.0
 17
0.0
 27
0.0
 37
0.0
 40
4.275206999999999
 41
1.772726999999999
 42
50.0
 43
0.0
 44
0.0
 50
0.0
 51
0.0
 71
     0
 72
   500
 73
     1
 74
     1
 75
     0
 76
     0
 77
     0
 78
     0
281
     0
 65
     1
110
0.0
120
0.0
130
0.0
111
1.0
121
0.0
131
0.0
112
0.0
122
1.0
132
0.0
 79
     0
146
0.0
  0
VPORT
  5
1D691833C3
330
1D69183389
100
AcDbSymbolTableRecord
100
AcDbViewportTableRecord
  2
4
 70
     0
 10
0.0
 20
0.0
 11
0.5
 21
0.5
 12
2.886858
 22
1.052651
 13
0.0
 23
0.0
 14
1.0
 24
1.0
 15
10.0
 25
10.0
 16
0.0
 26
0.0
 36
1.0
 17
0.0
 27
0.0
 37
0.0
 40
4.275206999999999
 41
1.784314
 42
50.0
 43
0.0
 44
0.0
 50
0.0
 51
0.0
 71
     0
 72
   500
 73
     1
 74
     1
 75
     0
 76
     0
 77
     0
 78
     0
281
     0
 65
     1
110
0.0
120
0.0
130
0.0
111
1.0
121
0.0
131
0.0
112
0.0
122
1.0
132
0.0
 79
     0
146
0.0
  0
VPORT
  5
1D6918443A
330
1D69183389
100
AcDbSymbolTableRecord
100
AcDbViewportTableRecord
  2
*Active
 70
     0
 10
0.0
 20
0.0
 11
1.0
 21
1.0
 12
180.9999998428469
 22
136.5000006356275
 13
0.0
 23
0.0
 14
1.0
 24
1.0
 15
10.0
 25
10.0
 16
0.0
 26
0.0
 36
1.0
 17
0.0
 27
0.0
 37
0.0
 40
275.0167846679882
 41
1.537897310513447
 42
50.0
 43
0.0
 44
0.0
 50
0.0
 51
0.0
 71
     0
 72
   500
 73
     1
 74
     0
 75
     0
 76
     0
 77
     0
 78
     0
281
     0
 65
     1
110
0.0
120
0.0
130
0.0
111
1.0
121
0.0
131
0.0
112
0.0
122
1.0
132
0.0
 79
     0
146
0.0
  0
ENDTAB
  0
TABLE
  2
LTYPE
  5
1D69183386
330
0
100
AcDbSymbolTable
 70
     3
  0
LTYPE
  5
1D69183393
330
1D69183386
100
AcDbSymbolTableRecord
100
AcDbLinetypeTableRecord
  2
BYBLOCK
 70
     0
  3

 72
    65
 73
     0
 40
0.0
  0
LTYPE
  5
1D69183394
330
1D69183386
100
AcDbSymbolTableRecord
100
AcDbLinetypeTableRecord
  2
BYLAYER
 70
     0
  3

 72
    65
 73
     0
 40
0.0
  0
LTYPE
  5
1D69183395
330
1D69183386
100
AcDbSymbolTableRecord
100
AcDbLinetypeTableRecord
  2
CONTINUOUS
 70
     0
  3
実線
 72
    65
 73
     0
 40
0.0
  0
LTYPE
  5
1D691833B9
330
1D69183386
100
AcDbSymbolTableRecord
100
AcDbLinetypeTableRecord
  2
CENTER
 70
     0
  3
____ _ ____ _ ____ _ ____ _ ____ _ ____ _ ____
 72
    65
 73
     4
 40
2.0
 49
1.25
 74
     0
 49
-0.25
 74
     0
 49
0.25
 74
     0
 49
-0.25
 74
     0
  0
LTYPE
  5
1D691833BA
330
1D69183386
100
AcDbSymbolTableRecord
100
AcDbLinetypeTableRecord
  2
PHANTOM
 70
     0
  3
_____ _ _ _____ _ _ _____ _ _ _____ _ _ ____
 72
    65
 73
     6
 40
2.5
 49
1.25
 74
     0
 49
-0.25
 74
     0
 49
0.25
 74
     0
 49
-0.25
 74
     0
 49
0.25
 74
     0
 49
-0.25
 74
     0
  0
ENDTAB
  0
TABLE
  2
LAYER
  5
1D69183383
330
0
100
AcDbSymbolTable
 70
     8
  0
LAYER
  5
1D69183390
330
1D69183383
100
AcDbSymbolTableRecord
100
AcDbLayerTableRecord
  2
0
 70
     0
 62
     7
  6
CONTINUOUS
370
    -3
390
1D69183F2E
  0
LAYER
  5
1D691833C8
330
1D69183383
100
AcDbSymbolTableRecord
100
AcDbLayerTableRecord
  2
ITTEN
 70
     0
 62
     1
  6
CENTER
370
    -3
390
1D69183F2E
  0
LAYER
  5
1D691833C9
330
1D69183383
100
AcDbSymbolTableRecord
100
AcDbLayerTableRecord
  2
NITEN
 70
     0
 62
     2
  6
PHANTOM
370
    -3
390
1D69183F2E
  0
LAYER
  5
1D691833CB
330
1D69183383
100
AcDbSymbolTableRecord
100
AcDbLayerTableRecord
  2
SUNPOU
 70
     0
 62
     3
  6
CONTINUOUS
370
    -3
390
1D69183F2E
  0
LAYER
  5
1D691833CC
330
1D69183383
100
AcDbSymbolTableRecord
100
AcDbLayerTableRecord
  2
TEXT
 70
     0
 62
     3
  6
CONTINUOUS
370
    -3
390
1D69183F2E
  0
LAYER
  5
1D691833CD
330
1D69183383
100
AcDbSymbolTableRecord
100
AcDbLayerTableRecord
  2
SAISEN
 70
     0
 62
     4
  6
CONTINUOUS
370
    -3
390
1D69183F2E
  0
LAYER
  5
1D691833CE
330
1D69183383
100
AcDbSymbolTableRecord
100
AcDbLayerTableRecord
  2
JISSEN
 70
     0
 62
     7
  6
CONTINUOUS
370
    -3
390
1D69183F2E
  0
LAYER
  5
1D691833D2
330
1D69183383
100
AcDbSymbolTableRecord
100
AcDbLayerTableRecord
  2
WAKU
 70
     0
 62
     5
  6
CONTINUOUS
370
    -3
390
1D69183F2E
  0
ENDTAB
  0
TABLE
  2
STYLE
  5
1D69183384
330
0
100
AcDbSymbolTable
 70
     3
  0
STYLE
  5
1D69183391
330
1D69183384
100
AcDbSymbolTableRecord
100
AcDbTextStyleTableRecord
  2
STANDARD
 70
     0
 40
0.0
 41
1.0
 50
0.0
 71
     0
 42
0.2
  3
ROMANS
  4
EXTFONT
  0
STYLE
  5
1D691833B3
330
1D69183384
100
AcDbSymbolTableRecord
100
AcDbTextStyleTableRecord
  2
K
 70
     0
 40
0.0
 41
1.0
 50
0.0
 71
     0
 42
1.5
  3
ROMANS.shx
  4
bigfont.shx
  0
STYLE
  5
1D691833B5
330
1D69183384
100
AcDbSymbolTableRecord
100
AcDbTextStyleTableRecord
  2
BIGFONT
 70
     0
 40
0.0
 41
1.0
 50
0.0
 71
     0
 42
3.0
  3
txt.shx
  4
bigfont
  0
ENDTAB
  0
TABLE
  2
VIEW
  5
1D69183387
330
0
100
AcDbSymbolTable
 70
     0
  0
ENDTAB
  0
TABLE
  2
UCS
  5
1D69183388
330
0
100
AcDbSymbolTable
 70
     0
  0
ENDTAB
  0
TABLE
  2
APPID
  5
1D6918338A
330
0
100
AcDbSymbolTable
 70
     1
  0
APPID
  5
1D69183392
330
1D6918338A
100
AcDbSymbolTableRecord
100
AcDbRegAppTableRecord
  2
ACAD
 70
     0
  0
ENDTAB
  0
TABLE
  2
DIMSTYLE
  5
1D6918338B
330
0
100
AcDbSymbolTable
 70
     1
100
AcDbDimStyleTable
 71
     0
  0
DIMSTYLE
105
1D691833C6
330
1D6918338B
100
AcDbSymbolTableRecord
100
AcDbDimStyleTableRecord
  2
IMAO
 70
     0
 41
1.5
 42
1.0
 43
6.0
 44
1.0
 47
495.0
 73
     0
 74
     0
 77
     1
 78
     8
140
3.0
141
0.0
172
     1
174
     1
271
     2
272
     2
284
     8
285
     8
286
     8
340
1D691833B5
341
1D691833A3
342
1D691833A3
343
1D691833A3
344
1D691833A3
  0
ENDTAB
  0
TABLE
  2
BLOCK_RECORD
  5
1D69183382
330
0
100
AcDbSymbolTable
 70
     1
  0
BLOCK_RECORD
  5
1D69183399
102
{ACAD_XDICTIONARY
360
1D691843B3
102
}
330
1D69183382
100
AcDbSymbolTableRecord
100
AcDbBlockTableRecord
  2
*MODEL_SPACE
340
1D69184428
  0
BLOCK_RECORD
  5
1D69183396
102
{ACAD_XDICTIONARY
360
1D691843B1
102
}
330
1D69183382
100
AcDbSymbolTableRecord
100
AcDbBlockTableRecord
  2
*PAPER_SPACE
340
1D69184429
  0
BLOCK_RECORD
  5
1D691833A3
330
1D69183382
100
AcDbSymbolTableRecord
100
AcDbBlockTableRecord
  2
ARROWANG
340
0
  0
ENDTAB
  0
ENDSEC
  0
SECTION
  2
BLOCKS
  0
BLOCK
  5
1D691833D6
330
1D69183399
100
AcDbEntity
  8
0
100
AcDbBlockBegin
  2
*MODEL_SPACE
 70
     0
 10
0.0
 20
0.0
 30
0.0
  3
*MODEL_SPACE
  1

  0
ENDBLK
  5
1D691833D7
330
1D69183399
100
AcDbEntity
  8
0
100
AcDbBlockEnd
  0
BLOCK
  5
1D691833D4
330
1D69183396
100
AcDbEntity
 67
     1
  8
0
100
AcDbBlockBegin
  2
*PAPER_SPACE
 70
     0
 10
0.0
 20
0.0
 30
0.0
  3
*PAPER_SPACE
  1

  0
ENDBLK
  5
1D691833D5
330
1D69183396
100
AcDbEntity
 67
     1
  8
0
100
AcDbBlockEnd
  0
BLOCK
  5
1D
330
1D691833A3
100
AcDbEntity
  8
0
100
AcDbBlockBegin
  2
ARROWANG
 70
     0
 10
0.0
 20
0.0
 30
0.0
  3
ARROWANG
  1

  0
LINE
  5
1E
330
1D691833A3
100
AcDbEntity
  8
SUNPOU
100
AcDbLine
 10
0.0
 20
0.0
 30
0.0
 11
-1.5
 21
0.401924
 31
0.0
  0
LINE
  5
1F
330
1D691833A3
100
AcDbEntity
  8
SUNPOU
100
AcDbLine
 10
0.0
 20
0.0
 30
0.0
 11
-1.5
 21
-0.401924
 31
0.0
  0
ENDBLK
  5
20
330
1D691833A3
100
AcDbEntity
  8
0
100
AcDbBlockEnd
  0
ENDSEC
  0
SECTION
  2
ENTITIES
  0
TEXT
  5
9255532
330
1D69183399
100
AcDbEntity
  8
TEXT
100
AcDbText
 10
137.0075955714284
 20
262.5
 30
0.0
 40
3.0
  1
SPCC
  7
K
 72
     4
 11
142.9361669999998
 21
264.0
 31
0.0
100
AcDbText
  0
TEXT
  5
9255533
330
1D69183399
100
AcDbEntity
  8
TEXT
100
AcDbText
 10
156.7857132857142
 20
262.5
 30
0.0
 40
3.0
  1
1
  7
K
 72
     4
 11
157.999999
 21
264.0
 31
0.0
100
AcDbText
  0
LINE
  5
9255535
330
1D69183399
100
AcDbEntity
  8
JISSEN
100
AcDbLine
 10
91.499999
 20
267.0
 30
0.0
 11
180.999999
 21
267.0
 31
0.0
  0
LINE
  5
9255536
330
1D69183399
100
AcDbEntity
  8
JISSEN
100
AcDbLine
 10
91.499999
 20
261.0
 30
0.0
 11
180.999999
 21
261.0
 31
0.0
  0
TEXT
  5
9255537
330
1D69183399
100
AcDbEntity
  8
TEXT
100
AcDbText
 10
108.742549
 20
268.5
 30
0.0
 40
3.0
  1
名      称
  7
K
 72
     4
 11
117.342549
 21
270.0
 31
0.0
100
AcDbText
  0
TEXT
  5
9255538
330
1D69183399
100
AcDbEntity
  8
TEXT
100
AcDbText
 10
93.299999
 20
268.5
 30
0.0
 40
3.0
  1
番号
  7
K
 72
     4
 11
96.499999
 21
270.0
 31
0.0
100
AcDbText
  0
LINE
  5
9255539
330
1D69183399
100
AcDbEntity
  8
JISSEN
100
AcDbLine
 10
91.499999
 20
249.0
 30
0.0
 11
91.499999
 21
273.0
 31
0.0
  0
LINE
  5
925553A
330
1D69183399
100
AcDbEntity
  8
JISSEN
100
AcDbLine
 10
101.4999989999999
 20
273.0
 30
0.0
 11
101.4999989999999
 21
249.0
 31
0.0
  0
TEXT
  5
925553B
330
1D69183399
100
AcDbEntity
  8
TEXT
100
AcDbText
 10
136.1361669999997
 20
268.5
 30
0.0
 40
3.0
  1
材    質
  7
K
 72
     4
 11
142.9361669999998
 21
270.0
 31
0.0
100
AcDbText
  0
LINE
  5
925553C
330
1D69183399
100
AcDbEntity
  8
JISSEN
100
AcDbLine
 10
133.091482
 20
273.0
 30
0.0
 11
133.091482
 21
249.0
 31
0.0
  0
LINE
  5
925553D
330
1D69183399
100
AcDbEntity
  8
JISSEN
100
AcDbLine
 10
152.4999989999999
 20
249.0
 30
0.0
 11
152.4999989999999
 21
273.0
 31
0.0
  0
TEXT
  5
925553E
330
1D69183399
100
AcDbEntity
  8
TEXT
100
AcDbText
 10
165.6999989999999
 20
268.5
 30
0.0
 40
3.0
  1
備    考
  7
K
 72
     4
 11
172.499999
 21
270.0
 31
0.0
100
AcDbText
  0
TEXT
  5
925553F
330
1D69183399
100
AcDbEntity
  8
TEXT
100
AcDbText
 10
154.799999
 20
268.5
 30
0.0
 40
3.0
  1
個数
  7
K
 72
     4
 11
157.999999
 21
270.0
 31
0.0
100
AcDbText
  0
LINE
  5
9255540
330
1D69183399
100
AcDbEntity
  8
JISSEN
100
AcDbLine
 10
163.499999
 20
273.0
 30
0.0
 11
163.499999
 21
249.0
 31
0.0
  0
TEXT
  5
1D69182ABB
330
1D69183399
100
AcDbEntity
  8
TEXT
100
AcDbText
 10
114.142549
 20
262.5
 30
0.0
 40
3.0
  1
本体
  7
BIGFONT
 72
     4
 11
117.342549
 21
264.0
 31
0.0
100
AcDbText
  0
TEXT
  5
1D6918384B
330
1D69183399
100
AcDbEntity
  8
TEXT
100
AcDbText
 10
164.8122534285714
 20
262.5
 30
0.0
 40
3.0
  1
Cr
  7
K
 72
     4
 11
167.383682
 21
264.0
 31
0.0
100
AcDbText
  0
LWPOLYLINE
  5
1D6918385A
330
1D69183399
100
AcDbEntity
  8
WAKU
100
AcDbPolyline
 90
        4
 70
     1
 43
0.0
 10
0.0
 20
0.0
 10
180.999999
 20
0.0
 10
180.999999
 20
273.0
 10
0.0
 20
273.0
  0
LINE
  5
1D691839E7
330
1D69183399
100
AcDbEntity
  8
JISSEN
100
AcDbLine
 10
91.499999
 20
255.0
 30
0.0
 11
180.999999
 21
255.0
 31
0.0
  0
TEXT
  5
1D691839E8
330
1D69183399
100
AcDbEntity
  8
TEXT
100
AcDbText
 10
156.499999
 20
256.4999999999999
 30
0.0
 40
3.0
  1
6
  7
K
 72
     4
 11
157.999999
 21
258.0
 31
0.0
100
AcDbText
  0
TEXT
  5
1D691839E9
330
1D69183399
100
AcDbEntity
  8
TEXT
100
AcDbText
 10
112.342549
 20
256.4999999999999
 30
0.0
 40
3.0
  1
ステム
  7
BIGFONT
 72
     4
 11
117.342549
 21
258.0
 31
0.0
100
AcDbText
  0
TEXT
  5
1D691839EA
330
1D69183399
100
AcDbEntity
  8
TEXT
100
AcDbText
 10
140.0790241428569
 20
256.4999999999999
 30
0.0
 40
3.0
  1
SS
  7
K
 72
     4
 11
142.9361669999998
 21
258.0
 31
0.0
100
AcDbText
  0
LINE
  5
1D691839EE
330
1D69183399
100
AcDbEntity
  8
JISSEN
100
AcDbLine
 10
91.499999
 20
249.0
 30
0.0
 11
180.999999
 21
249.0
 31
0.0
  0
TEXT
  5
1D691839F2
330
1D69183399
100
AcDbEntity
  8
TEXT
100
AcDbText
 10
112.042549
 20
250.4
 30
0.0
 40
3.0
  1
リング
  7
BIGFONT
 72
     4
 11
117.342549
 21
252.0
 31
0.0
100
AcDbText
  0
TEXT
  5
1D691839F3
330
1D69183399
100
AcDbEntity
  8
TEXT
100
AcDbText
 10
156.7857132857142
 20
250.4999999999999
 30
0.0
 40
3.0
  1
1
  7
K
 72
     4
 11
157.999999
 21
252.0
 31
0.0
100
AcDbText
  0
TEXT
  5
1D691839F4
330
1D69183399
100
AcDbEntity
  8
TEXT
100
AcDbText
 10
140.0790241428569
 20
250.4999999999999
 30
0.0
 40
3.0
  1
SS
  7
K
 72
     4
 11
142.9361669999998
 21
252.0
 31
0.0
100
AcDbText
  0
TEXT
  5
1D691839F5
330
1D69183399
100
AcDbEntity
  8
TEXT
100
AcDbText
 10
95.28571328571429
 20
262.5
 30
0.0
 40
3.0
  1
1
  7
K
 72
     4
 11
96.499999
 21
264.0
 31
0.0
100
AcDbText
  0
TEXT
  5
1D691839F6
330
1D69183399
100
AcDbEntity
  8
TEXT
100
AcDbText
 10
95.07142757142856
 20
256.4999999999999
 30
0.0
 40
3.0
  1
2
  7
K
 72
     4
 11
96.499999
 21
258.0
 31
0.0
100
AcDbText
  0
TEXT
  5
1D691839F7
330
1D69183399
100
AcDbEntity
  8
TEXT
100
AcDbText
 10
95.07142757142856
 20
250.4999999999999
 30
0.0
 40
3.0
  1
3
  7
K
 72
     4
 11
96.499999
 21
252.0
 31
0.0
100
AcDbText
  0
TEXT
  5
1D691839F8
330
1D69183399
100
AcDbEntity
  8
TEXT
100
AcDbText
 10
170.153078
 20
262.1999999999999
 30
0.0
 40
3.0
  1
メッキ
  7
BIGFONT
 72
     4
 11
175.353078
 21
263.7
 31
0.0
100
AcDbText
  0
LINE
  5
1D69183D06
330
1D69183399
100
AcDbEntity
  8
JISSEN
100
AcDbLine
 10
71.498965
 20
149.317432
 30
0.0
 11
111.19181
 21
149.317432
 31
0.0
  0
LINE
  5
1D69183D09
330
1D69183399
100
AcDbEntity
  8
JISSEN
100
AcDbLine
 10
71.498965
 20
147.017432
 30
0.0
 11
111.19181
 21
147.017432
 31
0.0
  0
LINE
  5
1D69183D0E
330
1D69183399
100
AcDbEntity
  8
JISSEN
100
AcDbLine
 10
93.84538799999999
 20
179.017432
 30
0.0
 11
88.84538799999999
 21
179.017432
 31
0.0
  0
LINE
  5
1D69183D13
330
1D69183399
100
AcDbEntity
  8
JISSEN
100
AcDbLine
 10
70.645388
 20
169.017432
 30
0.0
 11
112.0453879999999
 21
169.017432
 31
0.0
  0
LINE
  5
1D69183D17
330
1D69183399
100
AcDbEntity
  8
JISSEN
100
AcDbLine
 10
84.22038800000001
 20
169.017432
 30
0.0
 11
83.750274
 21
149.317432
 31
0.0
  0
LINE
  5
1D69183D18
330
1D69183399
100
AcDbEntity
  8
JISSEN
100
AcDbLine
 10
81.920388
 20
169.017432
 30
0.0
 11
81.450274
 21
149.317432
 31
0.0
  0
LINE
  5
1D69183D19
330
1D69183399
100
AcDbEntity
  8
JISSEN
100
AcDbLine
 10
73.645388
 20
169.017432
 30
0.0
 11
72.70515999999997
 21
149.317432
 31
0.0
  0
LINE
  5
1D69183D1A
330
1D69183399
100
AcDbEntity
  8
JISSEN
100
AcDbLine
 10
75.94538799999998
 20
169.017432
 30
0.0
 11
75.00516000000001
 21
149.317432
 31
0.0
  0
ARC
  5
1D69183D32
330
1D69183399
100
AcDbEntity
  8
JISSEN
100
AcDbCircle
 10
83.07038799999999
 20
69.002994
 30
0.0
 40
1.149999999999999
100
AcDbArc
 50
330.0
 51
150.0
  0
CIRCLE
  5
1D69183D33
330
1D69183399
100
AcDbEntity
  8
JISSEN
100
AcDbCircle
 10
82.545388
 20
68.09366800000001
 30
0.0
 40
1.149999999999999
  0
LINE
  5
1D69183D34
330
1D69183399
100
AcDbEntity
  8
JISSEN
100
AcDbLine
 10
82.07445899999997
 20
69.57799399999998
 30
0.0
 11
81.54945899999999
 21
68.66866800000001
 31
0.0
  0
LINE
  5
1D69183D35
330
1D69183399
100
AcDbEntity
  8
JISSEN
100
AcDbLine
 10
84.066317
 20
68.427994
 30
0.0
 11
83.54131700000001
 21
67.51866800000001
 31
0.0
  0
ARC
  5
1D69183D3B
330
1D69183399
100
AcDbEntity
  8
JISSEN
100
AcDbCircle
 10
71.498965
 20
148.167432
 30
0.0
 40
1.149999999999999
100
AcDbArc
 50
90.0
 51
270.0
  0
LINE
  5
1D69183D45
330
1D69183399
100
AcDbEntity
  8
JISSEN
100
AcDbLine
 10
69.868931
 20
169.1196539999999
 30
0.0
 11
59.957159
 21
171.775505
 31
0.0
  0
LINE
  5
1D69183D46
330
1D69183399
100
AcDbEntity
  8
JISSEN
100
AcDbLine
 10
58.845388
 20
174.017432
 30
0.0
 11
123.8453879999999
 21
174.017432
 31
0.0
  0
LINE
  5
1D69183D54
330
1D69183399
100
AcDbEntity
  8
JISSEN
100
AcDbLine
 10
58.845388
 20
173.224394
 30
0.0
 11
58.845388
 21
174.017432
 31
0.0
  0
ARC
  5
1D69183D55
330
1D69183399
100
AcDbEntity
  8
JISSEN
100
AcDbCircle
 10
60.34538799999999
 20
173.224394
 30
0.0
 40
1.5
100
AcDbArc
 50
180.0
 51
255.0
  0
LINE
  5
1D69183D58
330
1D69183399
100
AcDbEntity
  8
JISSEN
100
AcDbLine
 10
79.26023599999997
 20
187.027534
 30
0.0
 11
86.18844000000001
 21
187.027534
 31
0.0
  0
LINE
  5
1D69183D59
330
1D69183399
100
AcDbEntity
  8
JISSEN
100
AcDbLine
 10
86.18844000000001
 20
188.00733
 30
0.0
 11
79.26023599999997
 21
188.00733
 31
0.0
  0
ARC
  5
1D69183D5A
330
1D69183399
100
AcDbEntity
  8
JISSEN
100
AcDbCircle
 10
78.92144
 20
187.517432
 30
0.0
 40
0.595636
100
AcDbArc
 50
304.666366
 51
55.33363399999998
  0
LINE
  5
1D69183D5B
330
1D69183399
100
AcDbEntity
  8
JISSEN
100
AcDbLine
 10
76.800895
 20
200.017432
 30
0.0
 11
89.345388
 21
200.017432
 31
0.0
  0
ARC
  5
1D69183D5C
330
1D69183399
100
AcDbEntity
  8
JISSEN
100
AcDbCircle
 10
78.92144
 20
190.517432
 30
0.0
 40
0.595636
100
AcDbArc
 50
304.666366
 51
55.33363399999998
  0
ARC
  5
1D69183D5D
330
1D69183399
100
AcDbEntity
  8
JISSEN
100
AcDbCircle
 10
78.901973
 20
193.517432
 30
0.0
 40
0.615104
100
AcDbArc
 50
305.6226179999999
 51
54.377382
  0
ARC
  5
1D69183D5E
330
1D69183399
100
AcDbEntity
  8
JISSEN
100
AcDbCircle
 10
78.901973
 20
196.517432
 30
0.0
 40
0.615104
100
AcDbArc
 50
305.6226179999999
 51
54.377382
  0
LINE
  5
1D69183D5F
330
1D69183399
100
AcDbEntity
  8
JISSEN
100
AcDbLine
 10
86.18844000000001
 20
191.00733
 30
0.0
 11
79.26023599999997
 21
191.00733
 31
0.0
  0
LINE
  5
1D69183D60
330
1D69183399
100
AcDbEntity
  8
JISSEN
100
AcDbLine
 10
79.26023599999997
 20
190.027534
 30
0.0
 11
86.18844000000001
 21
190.027534
 31
0.0
  0
LINE
  5
1D69183D61
330
1D69183399
100
AcDbEntity
  8
JISSEN
100
AcDbLine
 10
86.18844000000001
 20
193.017432
 30
0.0
 11
79.26023599999997
 21
193.017432
 31
0.0
  0
LINE
  5
1D69183D62
330
1D69183399
100
AcDbEntity
  8
JISSEN
100
AcDbLine
 10
79.26023599999997
 20
194.017432
 30
0.0
 11
86.18844000000001
 21
194.017432
 31
0.0
  0
LINE
  5
1D69183D63
330
1D69183399
100
AcDbEntity
  8
JISSEN
100
AcDbLine
 10
79.26023599999997
 20
196.017432
 30
0.0
 11
86.18844000000001
 21
196.017432
 31
0.0
  0
LINE
  5
1D69183D64
330
1D69183399
100
AcDbEntity
  8
JISSEN
100
AcDbLine
 10
86.18844000000001
 20
197.017432
 30
0.0
 11
79.26023599999997
 21
197.017432
 31
0.0
  0
ARC
  5
1D69183D65
330
1D69183399
100
AcDbEntity
  8
JISSEN
100
AcDbCircle
 10
76.374581
 20
182.591118
 30
0.0
 40
0.573687
100
AcDbArc
 50
180.0
 51
270.0
  0
LINE
  5
1D69183D66
330
1D69183399
100
AcDbEntity
  8
JISSEN
100
AcDbLine
 10
74.800895
 20
199.017432
 30
0.0
 11
74.800895
 21
182.447432
 31
0.0
  0
LINE
  5
1D69183D67
330
1D69183399
100
AcDbEntity
  8
JISSEN
100
AcDbLine
 10
73.145388
 20
200.017432
 30
0.0
 11
73.145388
 21
174.017432
 31
0.0
  0
ARC
  5
1D69183D68
330
1D69183399
100
AcDbEntity
  8
JISSEN
100
AcDbCircle
 10
70.645388
 20
172.017432
 30
0.0
 40
3.0
100
AcDbArc
 50
255.0
 51
270.0
  0
LINE
  5
1D69183D69
330
1D69183399
100
AcDbEntity
  8
JISSEN
100
AcDbLine
 10
73.942806
 20
179.017432
 30
0.0
 11
76.680081
 21
179.017432
 31
0.0
  0
LINE
  5
1D69183D6A
330
1D69183399
100
AcDbEntity
  8
JISSEN
100
AcDbLine
 10
74.37089499999998
 20
182.017432
 30
0.0
 11
73.942806
 21
182.017432
 31
0.0
  0
LWPOLYLINE
  5
1D69183D6B
330
1D69183399
100
AcDbEntity
  8
JISSEN
100
AcDbPolyline
 90
        9
 70
     0
 43
0.0
 10
73.942806
 20
179.017432
 42
-0.22352
 10
73.783457
 20
179.092413
 42
-0.090504
 10
73.579335
 20
179.456771
 42
-0.04732
 10
73.47214699999998
 20
179.903336
 42
-0.035265
 10
73.42878
 20
180.517432
 42
-0.035265
 10
73.47214699999998
 20
181.131528
 42
-0.04732
 10
73.579335
 20
181.5780919999999
 42
-0.090504
 10
73.783457
 20
181.94245
 42
-0.22352
 10
73.942806
 20
182.017432
 42
-0.22352
  0
ARC
  5
1D69183D6C
330
1D69183399
100
AcDbEntity
  8
JISSEN
100
AcDbCircle
 10
74.37089499999998
 20
182.447432
 30
0.0
 40
0.43
100
AcDbArc
 50
270.0
 51
0.0
  0
LINE
  5
1D69183D6D
330
1D69183399
100
AcDbEntity
  8
JISSEN
100
AcDbLine
 10
74.060568
 20
179.017432
 30
0.0
 11
75.060568
 21
179.017432
 31
0.0
  0
LWPOLYLINE
  5
1D69183D6E
330
1D69183399
100
AcDbEntity
  8
JISSEN
100
AcDbPolyline
 90
        9
 70
     0
 43
0.0
 10
76.680081
 20
182.017432
 42
-0.140707
 10
77.03638399999999
 20
181.9151379999999
 42
-0.10714
 10
77.38215600000002
 20
181.5780919999999
 42
-0.079444
 10
77.59258800000002
 20
181.11456
 42
-0.067
 10
77.67296400000002
 20
180.517432
 42
-0.067
 10
77.59258800000002
 20
179.9203029999999
 42
-0.079444
 10
77.38215600000002
 20
179.456771
 42
-0.10714
 10
77.03638399999999
 20
179.1197249999999
 42
-0.140707
 10
76.680081
 20
179.017432
 42
-0.140707
  0
LINE
  5
1D69183D6F
330
1D69183399
100
AcDbEntity
  8
JISSEN
100
AcDbLine
 10
75.94538799999998
 20
182.210449
 30
0.0
 11
75.94538799999998
 21
179.017432
 31
0.0
  0
LINE
  5
1D69183D70
330
1D69183399
100
AcDbEntity
  8
JISSEN
100
AcDbLine
 10
76.374581
 20
182.017432
 30
0.0
 11
76.680081
 21
182.017432
 31
0.0
  0
LINE
  5
1D69183D71
330
1D69183399
100
AcDbEntity
  8
JISSEN
100
AcDbLine
 10
79.26023599999997
 20
193.017432
 30
0.0
 11
79.26023599999997
 21
194.017432
 31
0.0
  0
LINE
  5
1D69183D72
330
1D69183399
100
AcDbEntity
  8
JISSEN
100
AcDbLine
 10
75.80089499999998
 20
182.591118
 30
0.0
 11
75.80089499999998
 21
199.017432
 31
0.0
  0
LINE
  5
1D69183D73
330
1D69183399
100
AcDbEntity
  8
JISSEN
100
AcDbLine
 10
75.80089499999998
 20
185.017432
 30
0.0
 11
74.800895
 21
185.017432
 31
0.0
  0
LINE
  5
1D69183D74
330
1D69183399
100
AcDbEntity
  8
JISSEN
100
AcDbLine
 10
79.26023599999997
 20
188.00733
 30
0.0
 11
79.26023599999997
 21
187.027534
 31
0.0
  0
LINE
  5
1D69183D75
330
1D69183399
100
AcDbEntity
  8
JISSEN
100
AcDbLine
 10
79.26023599999997
 20
191.00733
 30
0.0
 11
79.26023599999997
 21
190.027534
 31
0.0
  0
ARC
  5
1D69183D77
330
1D69183399
100
AcDbEntity
  8
JISSEN
100
AcDbCircle
 10
76.800895
 20
199.017432
 30
0.0
 40
1.0
100
AcDbArc
 50
90.0
 51
180.0
  0
ARC
  5
1D69183D78
330
1D69183399
100
AcDbEntity
  8
JISSEN
100
AcDbCircle
 10
73.800895
 20
199.017432
 30
0.0
 40
1.0
100
AcDbArc
 50
0.0
 51
90.0
  0
LINE
  5
1D69183D79
330
1D69183399
100
AcDbEntity
  8
JISSEN
100
AcDbLine
 10
73.145388
 20
200.017432
 30
0.0
 11
73.800895
 21
200.017432
 31
0.0
  0
LINE
  5
1D69183D7A
330
1D69183399
100
AcDbEntity
  8
JISSEN
100
AcDbLine
 10
79.26023599999997
 20
197.017432
 30
0.0
 11
79.26023599999997
 21
196.017432
 31
0.0
  0
ARC
  5
1D69183D7B
330
1D69183399
100
AcDbEntity
  8
JISSEN
100
AcDbCircle
 10
89.345388
 20
183.017432
 30
0.0
 40
1.0
100
AcDbArc
 50
270.0
 51
0.0
  0
ARC
  5
1D69183D7C
330
1D69183399
100
AcDbEntity
  8
JISSEN
100
AcDbCircle
 10
88.84538799999999
 20
180.517432
 30
0.0
 40
1.5
100
AcDbArc
 50
90.0
 51
270.0
  0
LINE
  5
1D69183D7D
330
1D69183399
100
AcDbEntity
  8
JISSEN
100
AcDbLine
 10
89.345388
 20
182.017432
 30
0.0
 11
88.84538799999999
 21
182.017432
 31
0.0
  0
LINE
  5
1D69183D7E
330
1D69183399
100
AcDbEntity
  8
JISSEN
100
AcDbLine
 10
86.18844000000001
 20
194.017432
 30
0.0
 11
86.18844000000001
 21
193.017432
 31
0.0
  0
LINE
  5
1D69183D7F
330
1D69183399
100
AcDbEntity
  8
JISSEN
100
AcDbLine
 10
86.18844000000001
 20
187.027534
 30
0.0
 11
86.18844000000001
 21
188.00733
 31
0.0
  0
LINE
  5
1D69183D80
330
1D69183399
100
AcDbEntity
  8
JISSEN
100
AcDbLine
 10
86.18844000000001
 20
190.027534
 30
0.0
 11
86.18844000000001
 21
191.00733
 31
0.0
  0
LINE
  5
1D69183D81
330
1D69183399
100
AcDbEntity
  8
JISSEN
100
AcDbLine
 10
86.18844000000001
 20
196.017432
 30
0.0
 11
86.18844000000001
 21
197.017432
 31
0.0
  0
LINE
  5
1D69183D82
330
1D69183399
100
AcDbEntity
  8
JISSEN
100
AcDbLine
 10
90.34538799999999
 20
183.017432
 30
0.0
 11
90.34538799999999
 21
199.017432
 31
0.0
  0
ARC
  5
1D69183D84
330
1D69183399
100
AcDbEntity
  8
JISSEN
100
AcDbCircle
 10
89.345388
 20
199.017432
 30
0.0
 40
1.0
100
AcDbArc
 50
0.0
 51
90.0
  0
ARC
  5
1D69183DB3
330
1D69183399
100
AcDbEntity
  8
JISSEN
100
AcDbCircle
 10
99.62038800000001
 20
69.002994
 30
0.0
 40
1.149999999999999
100
AcDbArc
 50
30.0
 51
210.0
  0
CIRCLE
  5
1D69183DB4
330
1D69183399
100
AcDbEntity
  8
JISSEN
100
AcDbCircle
 10
100.1453879999999
 20
68.09366800000001
 30
0.0
 40
1.149999999999999
  0
LINE
  5
1D69183DB5
330
1D69183399
100
AcDbEntity
  8
ITTEN
100
AcDbLine
 10
99.62038800000001
 20
69.002994
 30
0.0
 11
99.62038800000001
 21
69.002994
 31
0.0
  0
LINE
  5
1D69183DB6
330
1D69183399
100
AcDbEntity
  8
ITTEN
100
AcDbLine
 10
99.62038800000001
 20
69.002994
 30
0.0
 11
99.62038800000001
 21
69.002994
 31
0.0
  0
LINE
  5
1D69183DB7
330
1D69183399
100
AcDbEntity
  8
JISSEN
100
AcDbLine
 10
98.624459
 20
68.427994
 30
0.0
 11
99.14945899999999
 21
67.51866800000001
 31
0.0
  0
LINE
  5
1D69183DB8
330
1D69183399
100
AcDbEntity
  8
JISSEN
100
AcDbLine
 10
100.616317
 20
69.57799399999998
 30
0.0
 11
101.1413169999999
 21
68.66866800000001
 31
0.0
  0
CIRCLE
  5
1D69183E45
330
1D69183399
100
AcDbEntity
  8
JISSEN
100
AcDbCircle
 10
91.34538799999999
 20
83.33571500000003
 30
0.0
 40
18.75
  0
CIRCLE
  5
1D69183E46
330
1D69183399
100
AcDbEntity
  8
JISSEN
100
AcDbCircle
 10
91.34538799999999
 20
83.33571500000003
 30
0.0
 40
21.04999999999998
  0
CIRCLE
  5
1D69183E47
330
1D69183399
100
AcDbEntity
  8
JISSEN
100
AcDbCircle
 10
91.34538799999999
 20
83.33571500000003
 30
0.0
 40
32.5
  0
LINE
  5
1D69183E48
330
1D69183399
100
AcDbEntity
  8
JISSEN
100
AcDbLine
 10
100.616317
 20
97.09343500000001
 30
0.0
 11
101.1413169999999
 21
98.002762
 31
0.0
  0
LINE
  5
1D69183E49
330
1D69183399
100
AcDbEntity
  8
JISSEN
100
AcDbLine
 10
98.624459
 20
98.24343500000001
 30
0.0
 11
99.14945899999999
 21
99.152762
 31
0.0
  0
LINE
  5
1D69183E4A
330
1D69183399
100
AcDbEntity
  8
ITTEN
100
AcDbLine
 10
99.62038800000001
 20
97.668435
 30
0.0
 11
99.62038800000001
 21
97.668435
 31
0.0
  0
LINE
  5
1D69183E4B
330
1D69183399
100
AcDbEntity
  8
ITTEN
100
AcDbLine
 10
99.62038800000001
 20
97.668435
 30
0.0
 11
99.62038800000001
 21
97.668435
 31
0.0
  0
CIRCLE
  5
1D69183E4C
330
1D69183399
100
AcDbEntity
  8
JISSEN
100
AcDbCircle
 10
100.1453879999999
 20
98.57776200000001
 30
0.0
 40
1.149999999999999
  0
ARC
  5
1D69183E4D
330
1D69183399
100
AcDbEntity
  8
JISSEN
100
AcDbCircle
 10
99.62038800000001
 20
97.668435
 30
0.0
 40
1.149999999999999
100
AcDbArc
 50
150.0
 51
330.0
  0
LINE
  5
1D69183E4F
330
1D69183399
100
AcDbEntity
  8
JISSEN
100
AcDbLine
 10
84.066317
 20
98.24343500000001
 30
0.0
 11
83.54131700000001
 21
99.152762
 31
0.0
  0
LINE
  5
1D69183E50
330
1D69183399
100
AcDbEntity
  8
JISSEN
100
AcDbLine
 10
82.07445899999997
 20
97.09343500000001
 30
0.0
 11
81.54945899999999
 21
98.002762
 31
0.0
  0
CIRCLE
  5
1D69183E51
330
1D69183399
100
AcDbEntity
  8
JISSEN
100
AcDbCircle
 10
82.545388
 20
98.57776200000001
 30
0.0
 40
1.149999999999999
  0
ARC
  5
1D69183E52
330
1D69183399
100
AcDbEntity
  8
JISSEN
100
AcDbCircle
 10
83.07038799999999
 20
97.668435
 30
0.0
 40
1.149999999999999
100
AcDbArc
 50
210.0
 51
30.0
  0
LINE
  5
1D69183E54
330
1D69183399
100
AcDbEntity
  8
JISSEN
100
AcDbLine
 10
107.8953879999999
 20
84.48571499999998
 30
0.0
 11
108.9453879999999
 21
84.48571499999998
 31
0.0
  0
LINE
  5
1D69183E55
330
1D69183399
100
AcDbEntity
  8
JISSEN
100
AcDbLine
 10
107.8953879999999
 20
82.18571500000001
 30
0.0
 11
108.9453879999999
 21
82.18571500000001
 31
0.0
  0
LINE
  5
1D69183E56
330
1D69183399
100
AcDbEntity
  8
ITTEN
100
AcDbLine
 10
107.8953879999999
 20
83.33571500000003
 30
0.0
 11
107.8953879999999
 21
83.33571500000003
 31
0.0
  0
LINE
  5
1D69183E57
330
1D69183399
100
AcDbEntity
  8
ITTEN
100
AcDbLine
 10
107.8953879999999
 20
83.33571500000003
 30
0.0
 11
107.8953879999999
 21
83.33571500000003
 31
0.0
  0
CIRCLE
  5
1D69183E58
330
1D69183399
100
AcDbEntity
  8
JISSEN
100
AcDbCircle
 10
108.9453879999999
 20
83.33571500000003
 30
0.0
 40
1.149999999999999
  0
ARC
  5
1D69183E59
330
1D69183399
100
AcDbEntity
  8
JISSEN
100
AcDbCircle
 10
107.8953879999999
 20
83.33571500000003
 30
0.0
 40
1.149999999999999
100
AcDbArc
 50
90.0
 51
270.0
  0
ARC
  5
1D69183E5A
330
1D69183399
100
AcDbEntity
  8
JISSEN
100
AcDbCircle
 10
74.795388
 20
83.33571500000003
 30
0.0
 40
1.149999999999999
100
AcDbArc
 50
270.0
 51
90.0
  0
CIRCLE
  5
1D69183E5B
330
1D69183399
100
AcDbEntity
  8
JISSEN
100
AcDbCircle
 10
73.745388
 20
83.33571500000003
 30
0.0
 40
1.149999999999999
  0
LINE
  5
1D69183E5C
330
1D69183399
100
AcDbEntity
  8
ITTEN
100
AcDbLine
 10
74.795388
 20
83.33571500000003
 30
0.0
 11
74.795388
 21
83.33571500000003
 31
0.0
  0
LINE
  5
1D69183E5D
330
1D69183399
100
AcDbEntity
  8
ITTEN
100
AcDbLine
 10
74.795388
 20
83.33571500000003
 30
0.0
 11
74.795388
 21
83.33571500000003
 31
0.0
  0
LINE
  5
1D69183E5E
330
1D69183399
100
AcDbEntity
  8
JISSEN
100
AcDbLine
 10
74.795388
 20
82.18571500000001
 30
0.0
 11
73.745388
 21
82.18571500000001
 31
0.0
  0
LINE
  5
1D69183E5F
330
1D69183399
100
AcDbEntity
  8
JISSEN
100
AcDbLine
 10
74.795388
 20
84.48571499999998
 30
0.0
 11
73.745388
 21
84.48571499999998
 31
0.0
  0
ARC
  5
1D69183E62
330
1D69183399
100
AcDbEntity
  8
JISSEN
100
AcDbCircle
 10
93.345388
 20
199.017432
 30
0.0
 40
1.0
100
AcDbArc
 50
90.0
 51
180.0
  0
LINE
  5
1D69183E63
330
1D69183399
100
AcDbEntity
  8
JISSEN
100
AcDbLine
 10
92.34538800000001
 20
183.017432
 30
0.0
 11
92.34538800000001
 21
199.017432
 31
0.0
  0
LINE
  5
1D69183E64
330
1D69183399
100
AcDbEntity
  8
JISSEN
100
AcDbLine
 10
96.50233599999999
 20
196.017432
 30
0.0
 11
96.50233599999999
 21
197.017432
 31
0.0
  0
LINE
  5
1D69183E65
330
1D69183399
100
AcDbEntity
  8
JISSEN
100
AcDbLine
 10
96.50233599999999
 20
190.027534
 30
0.0
 11
96.50233599999999
 21
191.00733
 31
0.0
  0
LINE
  5
1D69183E66
330
1D69183399
100
AcDbEntity
  8
JISSEN
100
AcDbLine
 10
96.50233599999999
 20
187.027534
 30
0.0
 11
96.50233599999999
 21
188.00733
 31
0.0
  0
LINE
  5
1D69183E67
330
1D69183399
100
AcDbEntity
  8
JISSEN
100
AcDbLine
 10
96.50233599999999
 20
194.017432
 30
0.0
 11
96.50233599999999
 21
193.017432
 31
0.0
  0
LINE
  5
1D69183E68
330
1D69183399
100
AcDbEntity
  8
JISSEN
100
AcDbLine
 10
93.345388
 20
182.017432
 30
0.0
 11
93.84538799999999
 21
182.017432
 31
0.0
  0
ARC
  5
1D69183E69
330
1D69183399
100
AcDbEntity
  8
JISSEN
100
AcDbCircle
 10
93.84538799999999
 20
180.517432
 30
0.0
 40
1.5
100
AcDbArc
 50
270.0
 51
90.0
  0
ARC
  5
1D69183E6A
330
1D69183399
100
AcDbEntity
  8
JISSEN
100
AcDbCircle
 10
93.345388
 20
183.017432
 30
0.0
 40
1.0
100
AcDbArc
 50
180.0
 51
270.0
  0
LINE
  5
1D69183E6B
330
1D69183399
100
AcDbEntity
  8
JISSEN
100
AcDbLine
 10
103.4305389999999
 20
197.017432
 30
0.0
 11
103.4305389999999
 21
196.017432
 31
0.0
  0
LINE
  5
1D69183E6C
330
1D69183399
100
AcDbEntity
  8
JISSEN
100
AcDbLine
 10
109.5453879999999
 20
200.017432
 30
0.0
 11
108.889881
 21
200.017432
 31
0.0
  0
ARC
  5
1D69183E6D
330
1D69183399
100
AcDbEntity
  8
JISSEN
100
AcDbCircle
 10
108.889881
 20
199.017432
 30
0.0
 40
1.0
100
AcDbArc
 50
90.0
 51
180.0
  0
ARC
  5
1D69183E6E
330
1D69183399
100
AcDbEntity
  8
JISSEN
100
AcDbCircle
 10
105.889881
 20
199.017432
 30
0.0
 40
1.0
100
AcDbArc
 50
0.0
 51
90.0
  0
LINE
  5
1D69183E6F
330
1D69183399
100
AcDbEntity
  8
JISSEN
100
AcDbLine
 10
103.4305389999999
 20
191.00733
 30
0.0
 11
103.4305389999999
 21
190.027534
 31
0.0
  0
LINE
  5
1D69183E70
330
1D69183399
100
AcDbEntity
  8
JISSEN
100
AcDbLine
 10
103.4305389999999
 20
188.00733
 30
0.0
 11
103.4305389999999
 21
187.027534
 31
0.0
  0
LINE
  5
1D69183E71
330
1D69183399
100
AcDbEntity
  8
JISSEN
100
AcDbLine
 10
106.889881
 20
185.017432
 30
0.0
 11
107.889881
 21
185.017432
 31
0.0
  0
LINE
  5
1D69183E72
330
1D69183399
100
AcDbEntity
  8
JISSEN
100
AcDbLine
 10
106.889881
 20
182.591118
 30
0.0
 11
106.889881
 21
199.017432
 31
0.0
  0
LINE
  5
1D69183E73
330
1D69183399
100
AcDbEntity
  8
JISSEN
100
AcDbLine
 10
103.4305389999999
 20
193.017432
 30
0.0
 11
103.4305389999999
 21
194.017432
 31
0.0
  0
LINE
  5
1D69183E74
330
1D69183399
100
AcDbEntity
  8
JISSEN
100
AcDbLine
 10
106.316194
 20
182.017432
 30
0.0
 11
106.010694
 21
182.017432
 31
0.0
  0
LINE
  5
1D69183E75
330
1D69183399
100
AcDbEntity
  8
JISSEN
100
AcDbLine
 10
106.7453879999999
 20
182.210449
 30
0.0
 11
106.7453879999999
 21
179.017432
 31
0.0
  0
LWPOLYLINE
  5
1D69183E76
330
1D69183399
100
AcDbEntity
  8
JISSEN
100
AcDbPolyline
 90
        9
 70
     0
 43
0.0
 10
106.010694
 20
182.017432
 42
0.140707
 10
105.6543909999999
 20
181.9151379999999
 42
0.10714
 10
105.3086199999997
 20
181.5780919999999
 42
0.079444
 10
105.098187
 20
181.11456
 42
0.067
 10
105.017811
 20
180.517432
 42
0.067
 10
105.098187
 20
179.9203029999999
 42
0.079444
 10
105.3086199999997
 20
179.456771
 42
0.10714
 10
105.6543909999999
 20
179.1197249999999
 42
0.140707
 10
106.010694
 20
179.017432
 42
0.140707
  0
LINE
  5
1D69183E77
330
1D69183399
100
AcDbEntity
  8
JISSEN
100
AcDbLine
 10
108.630208
 20
179.017432
 30
0.0
 11
107.630208
 21
179.017432
 31
0.0
  0
ARC
  5
1D69183E78
330
1D69183399
100
AcDbEntity
  8
JISSEN
100
AcDbCircle
 10
108.319881
 20
182.447432
 30
0.0
 40
0.43
100
AcDbArc
 50
180.0
 51
270.0
  0
LWPOLYLINE
  5
1D69183E79
330
1D69183399
100
AcDbEntity
  8
JISSEN
100
AcDbPolyline
 90
        9
 70
     0
 43
0.0
 10
108.74797
 20
179.017432
 42
0.22352
 10
108.907319
 20
179.092413
 42
0.090504
 10
109.1114409999997
 20
179.456771
 42
0.04732
 10
109.218629
 20
179.903336
 42
0.035265
 10
109.261995
 20
180.517432
 42
0.035265
 10
109.218629
 20
181.131528
 42
0.04732
 10
109.1114409999997
 20
181.5780919999999
 42
0.090504
 10
108.907319
 20
181.94245
 42
0.22352
 10
108.74797
 20
182.017432
 42
0.22352
  0
LINE
  5
1D69183E7A
330
1D69183399
100
AcDbEntity
  8
JISSEN
100
AcDbLine
 10
108.319881
 20
182.017432
 30
0.0
 11
108.74797
 21
182.017432
 31
0.0
  0
LINE
  5
1D69183E7B
330
1D69183399
100
AcDbEntity
  8
JISSEN
100
AcDbLine
 10
108.74797
 20
179.017432
 30
0.0
 11
106.010694
 21
179.017432
 31
0.0
  0
ARC
  5
1D69183E7C
330
1D69183399
100
AcDbEntity
  8
JISSEN
100
AcDbCircle
 10
112.0453879999999
 20
172.017432
 30
0.0
 40
3.0
100
AcDbArc
 50
270.0
 51
285.0
  0
LINE
  5
1D69183E7D
330
1D69183399
100
AcDbEntity
  8
JISSEN
100
AcDbLine
 10
109.5453879999999
 20
200.017432
 30
0.0
 11
109.5453879999999
 21
174.017432
 31
0.0
  0
LINE
  5
1D69183E7E
330
1D69183399
100
AcDbEntity
  8
JISSEN
100
AcDbLine
 10
107.889881
 20
199.017432
 30
0.0
 11
107.889881
 21
182.447432
 31
0.0
  0
ARC
  5
1D69183E7F
330
1D69183399
100
AcDbEntity
  8
JISSEN
100
AcDbCircle
 10
106.316194
 20
182.591118
 30
0.0
 40
0.573687
100
AcDbArc
 50
270.0
 51
0.0
  0
LINE
  5
1D69183E80
330
1D69183399
100
AcDbEntity
  8
JISSEN
100
AcDbLine
 10
96.50233599999999
 20
197.017432
 30
0.0
 11
103.4305389999999
 21
197.017432
 31
0.0
  0
LINE
  5
1D69183E81
330
1D69183399
100
AcDbEntity
  8
JISSEN
100
AcDbLine
 10
103.4305389999999
 20
196.017432
 30
0.0
 11
96.50233599999999
 21
196.017432
 31
0.0
  0
LINE
  5
1D69183E82
330
1D69183399
100
AcDbEntity
  8
JISSEN
100
AcDbLine
 10
103.4305389999999
 20
194.017432
 30
0.0
 11
96.50233599999999
 21
194.017432
 31
0.0
  0
LINE
  5
1D69183E83
330
1D69183399
100
AcDbEntity
  8
JISSEN
100
AcDbLine
 10
96.50233599999999
 20
193.017432
 30
0.0
 11
103.4305389999999
 21
193.017432
 31
0.0
  0
LINE
  5
1D69183E84
330
1D69183399
100
AcDbEntity
  8
JISSEN
100
AcDbLine
 10
103.4305389999999
 20
190.027534
 30
0.0
 11
96.50233599999999
 21
190.027534
 31
0.0
  0
LINE
  5
1D69183E85
330
1D69183399
100
AcDbEntity
  8
JISSEN
100
AcDbLine
 10
96.50233599999999
 20
191.00733
 30
0.0
 11
103.4305389999999
 21
191.00733
 31
0.0
  0
ARC
  5
1D69183E86
330
1D69183399
100
AcDbEntity
  8
JISSEN
100
AcDbCircle
 10
103.7888029999999
 20
196.517432
 30
0.0
 40
0.615104
100
AcDbArc
 50
125.6226179999999
 51
234.377382
  0
ARC
  5
1D69183E87
330
1D69183399
100
AcDbEntity
  8
JISSEN
100
AcDbCircle
 10
103.7888029999999
 20
193.517432
 30
0.0
 40
0.615104
100
AcDbArc
 50
125.6226179999999
 51
234.377382
  0
ARC
  5
1D69183E88
330
1D69183399
100
AcDbEntity
  8
JISSEN
100
AcDbCircle
 10
103.769335
 20
190.517432
 30
0.0
 40
0.595636
100
AcDbArc
 50
124.6663659999999
 51
235.3336339999999
  0
LINE
  5
1D69183E89
330
1D69183399
100
AcDbEntity
  8
JISSEN
100
AcDbLine
 10
105.889881
 20
200.017432
 30
0.0
 11
93.345388
 21
200.017432
 31
0.0
  0
ARC
  5
1D69183E8A
330
1D69183399
100
AcDbEntity
  8
JISSEN
100
AcDbCircle
 10
103.769335
 20
187.517432
 30
0.0
 40
0.595636
100
AcDbArc
 50
124.6663659999999
 51
235.3336339999999
  0
LINE
  5
1D69183E8B
330
1D69183399
100
AcDbEntity
  8
JISSEN
100
AcDbLine
 10
96.50233599999999
 20
188.00733
 30
0.0
 11
103.4305389999999
 21
188.00733
 31
0.0
  0
LINE
  5
1D69183E8C
330
1D69183399
100
AcDbEntity
  8
JISSEN
100
AcDbLine
 10
103.4305389999999
 20
187.027534
 30
0.0
 11
96.50233599999999
 21
187.027534
 31
0.0
  0
ARC
  5
1D69183E8D
330
1D69183399
100
AcDbEntity
  8
JISSEN
100
AcDbCircle
 10
122.3453879999997
 20
173.224394
 30
0.0
 40
1.5
100
AcDbArc
 50
285.0
 51
0.0
  0
LINE
  5
1D69183E8E
330
1D69183399
100
AcDbEntity
  8
JISSEN
100
AcDbLine
 10
123.8453879999999
 20
173.224394
 30
0.0
 11
123.8453879999999
 21
174.017432
 31
0.0
  0
LINE
  5
1D69183E8F
330
1D69183399
100
AcDbEntity
  8
JISSEN
100
AcDbLine
 10
112.821845
 20
169.1196539999999
 30
0.0
 11
122.7336159999999
 21
171.775505
 31
0.0
  0
ARC
  5
1D69183E90
330
1D69183399
100
AcDbEntity
  8
JISSEN
100
AcDbCircle
 10
111.19181
 20
148.167432
 30
0.0
 40
1.149999999999999
100
AcDbArc
 50
270.0
 51
90.0
  0
LINE
  5
1D69183E91
330
1D69183399
100
AcDbEntity
  8
JISSEN
100
AcDbLine
 10
106.7453879999999
 20
169.017432
 30
0.0
 11
107.6856149999999
 21
149.317432
 31
0.0
  0
LINE
  5
1D69183E92
330
1D69183399
100
AcDbEntity
  8
JISSEN
100
AcDbLine
 10
109.0453879999997
 20
169.017432
 30
0.0
 11
109.9856149999999
 21
149.317432
 31
0.0
  0
LINE
  5
1D69183E93
330
1D69183399
100
AcDbEntity
  8
JISSEN
100
AcDbLine
 10
100.7703879999999
 20
169.017432
 30
0.0
 11
101.2405009999999
 21
149.317432
 31
0.0
  0
LINE
  5
1D69183E94
330
1D69183399
100
AcDbEntity
  8
JISSEN
100
AcDbLine
 10
98.47038799999999
 20
169.017432
 30
0.0
 11
98.94050100000001
 21
149.317432
 31
0.0
  0
LINE
  5
1D69183EE1
330
1D69183399
100
AcDbEntity
  8
SUNPOU
100
AcDbLine
 10
51.71236799999999
 20
205.718945
 30
0.0
 11
73.145388
 21
188.329806
 31
0.0
  0
LINE
  5
1D69183EE5
330
1D69183399
100
AcDbEntity
  8
SUNPOU
100
AcDbLine
 10
73.145388
 20
188.329806
 30
0.0
 11
71.77796999999998
 21
190.2155789999999
 31
0.0
  0
LINE
  5
1D69183EE6
330
1D69183399
100
AcDbEntity
  8
SUNPOU
100
AcDbLine
 10
73.145388
 20
188.329806
 30
0.0
 11
71.018283
 21
189.279225
 31
0.0
  0
CIRCLE
  5
1D69183EE8
330
1D69183399
100
AcDbEntity
  8
SUNPOU
100
AcDbCircle
 10
47.05300499999998
 20
209.4992019999998
 30
0.0
 40
6.0
  0
TEXT
  5
1D69183EE9
330
1D69183399
100
AcDbEntity
  8
SUNPOU
100
AcDbText
 10
45.23157642857141
 20
207.2492019999998
 30
0.0
 40
4.5
  1
1
  7
K
 72
     4
 11
47.05300499999998
 21
209.4992019999998
 31
0.0
100
AcDbText
  0
LINE
  5
1D69183EEA
330
1D69183399
100
AcDbEntity
  8
SUNPOU
100
AcDbLine
 10
73.328831
 20
162.384815
 30
0.0
 11
71.01244799999998
 21
162.630455
 31
0.0
  0
LINE
  5
1D69183EEB
330
1D69183399
100
AcDbEntity
  8
SUNPOU
100
AcDbLine
 10
73.328831
 20
162.384815
 30
0.0
 11
71.445604
 21
163.755737
 31
0.0
  0
TEXT
  5
1D69183EEC
330
1D69183399
100
AcDbEntity
  8
SUNPOU
100
AcDbText
 10
44.91014785714283
 20
170.249202
 30
0.0
 40
4.5
  1
2
  7
K
 72
     4
 11
47.05300499999998
 21
172.499202
 31
0.0
100
AcDbText
  0
CIRCLE
  5
1D69183EED
330
1D69183399
100
AcDbEntity
  8
SUNPOU
100
AcDbCircle
 10
47.05300499999998
 20
172.499202
 30
0.0
 40
6.0
  0
LINE
  5
1D69183EEE
330
1D69183399
100
AcDbEntity
  8
SUNPOU
100
AcDbLine
 10
52.65248599999999
 20
170.343787
 30
0.0
 11
73.328831
 21
162.384815
 31
0.0
  0
LINE
  5
1D69183EEF
330
1D69183399
100
AcDbEntity
  8
SUNPOU
100
AcDbLine
 10
70.38999
 20
148.5160669999999
 30
0.0
 11
68.506763
 21
149.8869889999999
 31
0.0
  0
LINE
  5
1D69183EF0
330
1D69183399
100
AcDbEntity
  8
SUNPOU
100
AcDbLine
 10
70.38999
 20
148.5160669999999
 30
0.0
 11
68.073607
 21
148.7617069999999
 31
0.0
  0
LINE
  5
1D69183EF1
330
1D69183399
100
AcDbEntity
  8
SUNPOU
100
AcDbLine
 10
52.65248599999999
 20
155.343787
 30
0.0
 11
70.40166500000002
 21
148.5115729999999
 31
0.0
  0
CIRCLE
  5
1D69183EF2
330
1D69183399
100
AcDbEntity
  8
SUNPOU
100
AcDbCircle
 10
47.05300499999998
 20
157.499202
 30
0.0
 40
6.0
  0
TEXT
  5
1D69183EF3
330
1D69183399
100
AcDbEntity
  8
SUNPOU
100
AcDbText
 10
44.91014785714283
 20
155.249202
 30
0.0
 40
4.5
  1
3
  7
K
 72
     4
 11
47.05300499999998
 21
157.499202
 31
0.0
100
AcDbText
  0
LWPOLYLINE
  5
1D69184001
330
1D69183399
100
AcDbEntity
  8
NITEN
100
AcDbPolyline
 90
        5
 70
     0
 43
0.0
 10
289.345387
 20
213.3779809057239
 10
289.345387
 20
234.2156985568698
 42
-0.5882352941176477
 10
272.345387
 20
234.2156985568698
 42
0.5882352941176478
 10
255.345387
 20
234.2156985568696
 10
255.345387
 20
213.3779809057239
  0
LINE
  5
1D69184005
330
1D69183399
100
AcDbEntity
  8
JISSEN
100
AcDbLine
 10
282.6073113636109
 20
182.0055076363914
 30
0.0
 11
282.9819574490752
 21
170.017432
 31
0.0
  0
LINE
  5
1D69184006
330
1D69183399
100
AcDbEntity
  8
SAISEN
100
AcDbLine
 10
281.407825558974
 20
183.2049934410283
 30
0.0
 11
281.8199574490752
 21
170.0174319999999
 31
0.0
  0
LINE
  5
1D69184007
330
1D69183399
100
AcDbEntity
  8
JISSEN
100
AcDbLine
 10
262.0834626363905
 20
182.0055076363894
 30
0.0
 11
261.7088165509263
 21
170.0174319999999
 31
0.0
  0
LINE
  5
1D69184008
330
1D69183399
100
AcDbEntity
  8
SAISEN
100
AcDbLine
 10
263.2829484410275
 20
183.2049934410265
 30
0.0
 11
262.8708165509264
 21
170.0174319999999
 31
0.0
  0
LWPOLYLINE
  5
1D69184009
330
1D69183399
100
AcDbEntity
  8
JISSEN
100
AcDbPolyline
 90
        4
 70
     0
 43
0.0
 10
286.345470438016
 20
139.017432
 10
286.345470438016
 20
136.3450037345159
 42
-0.3813056827265855
 10
283.6856766235831
 20
133.3643561955904
 42
-0.0044643754366617
 10
281.9097440144815
 20
133.1777015835114
 42
-0.0044643754366617
  0
LWPOLYLINE
  5
1D6918400E
330
1D69183399
100
AcDbEntity
  8
JISSEN
100
AcDbPolyline
 90
        4
 70
     0
 43
0.0
 10
258.345470438016
 20
139.017432
 10
258.345470438016
 20
136.3450037345159
 42
0.3813056827265855
 10
261.005264252449
 20
133.3643561955904
 42
0.0044639565328748
 10
262.7810300715211
 20
133.1777176093735
 42
0.0044639565328748
  0
LINE
  5
1D69184025
330
1D69183399
100
AcDbEntity
  8
JISSEN
100
AcDbLine
 10
262.0834626363905
 20
182.0055076363894
 30
0.0
 11
282.6073113636109
 21
182.0055076363914
 31
0.0
  0
LINE
  5
1D69184026
330
1D69183399
100
AcDbEntity
  8
JISSEN
100
AcDbLine
 10
264.2686484154424
 20
183.2674319999998
 30
0.0
 11
280.4222924605894
 21
183.2674320000006
 31
0.0
  0
LWPOLYLINE
  5
1D69184027
330
1D69183399
100
AcDbEntity
  8
NITEN
100
AcDbPolyline
 90
       15
 70
     1
 43
0.0
 10
258.345387
 20
172.877980905724
 42
0.4142135623730927
 10
259.8453869999999
 20
171.377980905724
 10
282.9394381709965
 20
171.377980905724
 10
284.845387
 20
171.377980905724
 42
0.4142135623730925
 10
286.345387
 20
172.877980905724
 10
286.345387
 20
183.9239969319417
 42
-0.4142135623730943
 10
291.345387
 20
188.9239969319419
 42
0.4142135623730951
 10
293.345387
 20
190.9239969319419
 10
293.345387
 20
211.3779809057239
 42
0.414213562373095
 10
291.345387
 20
213.3779809057239
 10
253.345387
 20
213.3779809057239
 42
0.4142135623730951
 10
251.345387
 20
211.3779809057239
 10
251.345387
 20
190.9239969319419
 42
0.4142135623730951
 10
253.345387
 20
188.9239969319419
 42
-0.4142135623730961
 10
258.345387
 20
183.9239969319417
  0
LINE
  5
1D69184028
330
1D69183399
100
AcDbEntity
  8
JISSEN
100
AcDbLine
 10
263.3453870000008
 20
183.2674319999998
 30
0.0
 11
264.2686484154424
 21
183.2674319999998
 31
0.0
  0
LINE
  5
1D69184029
330
1D69183399
100
AcDbEntity
  8
JISSEN
100
AcDbLine
 10
263.3453870000008
 20
183.2674319999998
 30
0.0
 11
262.0834626363905
 21
182.0055076363894
 31
0.0
  0
LINE
  5
1D6918402A
330
1D69183399
100
AcDbEntity
  8
JISSEN
100
AcDbLine
 10
281.3453870000008
 20
183.2674320000014
 30
0.0
 11
282.6073113636109
 21
182.0055076363914
 31
0.0
  0
LINE
  5
1D6918402B
330
1D69183399
100
AcDbEntity
  8
JISSEN
100
AcDbLine
 10
280.4222924605894
 20
183.2674320000014
 30
0.0
 11
281.3453870000008
 21
183.2674320000014
 31
0.0
  0
LWPOLYLINE
  5
1D6918402D
330
1D69183399
100
AcDbEntity
  8
NITEN
100
AcDbPolyline
 90
        2
 70
     0
 43
0.0
 10
289.345387
 20
234.2156985568698
 42
0.5882352941176296
 10
272.3453869999999
 20
234.21569855687
 42
0.5882352941176296
  0
LWPOLYLINE
  5
1D6918402E
330
1D69183399
100
AcDbEntity
  8
WAKU
100
AcDbPolyline
 90
        4
 70
     1
 43
0.0
 10
180.999999
 20
0.0
 10
361.999998
 20
0.0
 10
361.999998
 20
273.0
 10
180.999999
 20
273.0
  0
LINE
  5
1D6918403E
330
1D69183399
100
AcDbEntity
  8
JISSEN
100
AcDbLine
 10
279.470387
 20
139.017432
 30
0.0
 11
279.9404999999999
 21
119.317432
 31
0.0
  0
LINE
  5
1D6918403F
330
1D69183399
100
AcDbEntity
  8
JISSEN
100
AcDbLine
 10
281.770387
 20
139.017432
 30
0.0
 11
282.2404999999998
 21
119.317432
 31
0.0
  0
LINE
  5
1D69184040
330
1D69183399
100
AcDbEntity
  8
JISSEN
100
AcDbLine
 10
290.045387
 20
139.017432
 30
0.0
 11
290.985614
 21
119.317432
 31
0.0
  0
LINE
  5
1D69184041
330
1D69183399
100
AcDbEntity
  8
JISSEN
100
AcDbLine
 10
287.745387
 20
139.017432
 30
0.0
 11
288.6856139999998
 21
119.317432
 31
0.0
  0
ARC
  5
1D69184042
330
1D69183399
100
AcDbEntity
  8
JISSEN
100
AcDbCircle
 10
292.1918089999998
 20
118.167432
 30
0.0
 40
1.149999999999999
100
AcDbArc
 50
270.0
 51
90.0
  0
LINE
  5
1D69184043
330
1D69183399
100
AcDbEntity
  8
JISSEN
100
AcDbLine
 10
293.8218439999999
 20
139.1196539999999
 30
0.0
 11
303.7336149999998
 21
141.775505
 31
0.0
  0
LINE
  5
1D69184044
330
1D69183399
100
AcDbEntity
  8
JISSEN
100
AcDbLine
 10
304.8453869999999
 20
143.224394
 30
0.0
 11
304.8453869999999
 21
144.017432
 31
0.0
  0
ARC
  5
1D69184045
330
1D69183399
100
AcDbEntity
  8
JISSEN
100
AcDbCircle
 10
303.3453869999997
 20
143.224394
 30
0.0
 40
1.5
100
AcDbArc
 50
285.0
 51
0.0
  0
LINE
  5
1D69184046
330
1D69183399
100
AcDbEntity
  8
JISSEN
100
AcDbLine
 10
284.430538
 20
157.027534
 30
0.0
 11
277.502335
 21
157.027534
 31
0.0
  0
LINE
  5
1D69184047
330
1D69183399
100
AcDbEntity
  8
JISSEN
100
AcDbLine
 10
277.502335
 20
158.00733
 30
0.0
 11
284.430538
 21
158.00733
 31
0.0
  0
ARC
  5
1D69184048
330
1D69183399
100
AcDbEntity
  8
JISSEN
100
AcDbCircle
 10
284.7693339999998
 20
157.517432
 30
0.0
 40
0.595636
100
AcDbArc
 50
124.6663659999999
 51
235.3336339999999
  0
LINE
  5
1D69184049
330
1D69183399
100
AcDbEntity
  8
JISSEN
100
AcDbLine
 10
286.88988
 20
170.017432
 30
0.0
 11
274.345387
 21
170.017432
 31
0.0
  0
ARC
  5
1D6918404A
330
1D69183399
100
AcDbEntity
  8
JISSEN
100
AcDbCircle
 10
284.7693339999998
 20
160.517432
 30
0.0
 40
0.595636
100
AcDbArc
 50
124.6663659999999
 51
235.3336339999999
  0
ARC
  5
1D6918404B
330
1D69183399
100
AcDbEntity
  8
JISSEN
100
AcDbCircle
 10
284.7888019999998
 20
163.517432
 30
0.0
 40
0.615104
100
AcDbArc
 50
125.6226179999999
 51
234.377382
  0
ARC
  5
1D6918404C
330
1D69183399
100
AcDbEntity
  8
JISSEN
100
AcDbCircle
 10
284.7888019999998
 20
166.517432
 30
0.0
 40
0.615104
100
AcDbArc
 50
125.6226179999999
 51
234.377382
  0
LINE
  5
1D6918404D
330
1D69183399
100
AcDbEntity
  8
JISSEN
100
AcDbLine
 10
277.502335
 20
161.0073299999999
 30
0.0
 11
284.430538
 21
161.0073299999999
 31
0.0
  0
LINE
  5
1D6918404E
330
1D69183399
100
AcDbEntity
  8
JISSEN
100
AcDbLine
 10
284.430538
 20
160.027534
 30
0.0
 11
277.502335
 21
160.027534
 31
0.0
  0
LINE
  5
1D6918404F
330
1D69183399
100
AcDbEntity
  8
JISSEN
100
AcDbLine
 10
277.502335
 20
163.017432
 30
0.0
 11
284.430538
 21
163.017432
 31
0.0
  0
LINE
  5
1D69184050
330
1D69183399
100
AcDbEntity
  8
JISSEN
100
AcDbLine
 10
284.430538
 20
164.017432
 30
0.0
 11
277.502335
 21
164.017432
 31
0.0
  0
LINE
  5
1D69184051
330
1D69183399
100
AcDbEntity
  8
JISSEN
100
AcDbLine
 10
284.430538
 20
166.017432
 30
0.0
 11
277.502335
 21
166.017432
 31
0.0
  0
LINE
  5
1D69184052
330
1D69183399
100
AcDbEntity
  8
JISSEN
100
AcDbLine
 10
277.502335
 20
167.017432
 30
0.0
 11
284.430538
 21
167.017432
 31
0.0
  0
ARC
  5
1D69184053
330
1D69183399
100
AcDbEntity
  8
JISSEN
100
AcDbCircle
 10
287.316193
 20
152.591118
 30
0.0
 40
0.573687
100
AcDbArc
 50
270.0
 51
0.0
  0
LINE
  5
1D69184054
330
1D69183399
100
AcDbEntity
  8
JISSEN
100
AcDbLine
 10
288.88988
 20
169.017432
 30
0.0
 11
288.88988
 21
152.447432
 31
0.0
  0
LINE
  5
1D69184055
330
1D69183399
100
AcDbEntity
  8
JISSEN
100
AcDbLine
 10
290.545387
 20
170.017432
 30
0.0
 11
290.545387
 21
144.017432
 31
0.0
  0
ARC
  5
1D69184056
330
1D69183399
100
AcDbEntity
  8
JISSEN
100
AcDbCircle
 10
293.045387
 20
142.017432
 30
0.0
 40
3.0
100
AcDbArc
 50
270.0
 51
285.0
  0
LINE
  5
1D69184057
330
1D69183399
100
AcDbEntity
  8
JISSEN
100
AcDbLine
 10
289.747969
 20
149.017432
 30
0.0
 11
287.010693
 21
149.017432
 31
0.0
  0
LINE
  5
1D69184058
330
1D69183399
100
AcDbEntity
  8
JISSEN
100
AcDbLine
 10
289.3198799999998
 20
152.017432
 30
0.0
 11
289.747969
 21
152.017432
 31
0.0
  0
LWPOLYLINE
  5
1D69184059
330
1D69183399
100
AcDbEntity
  8
JISSEN
100
AcDbPolyline
 90
        9
 70
     0
 43
0.0
 10
289.747969
 20
149.017432
 42
0.22352
 10
289.907318
 20
149.0924129999999
 42
0.090504
 10
290.11144
 20
149.456771
 42
0.04732
 10
290.2186279999999
 20
149.903336
 42
0.035265
 10
290.261994
 20
150.517432
 42
0.035265
 10
290.2186279999999
 20
151.1315279999999
 42
0.04732
 10
290.11144
 20
151.578092
 42
0.090504
 10
289.907318
 20
151.94245
 42
0.22352
 10
289.747969
 20
152.017432
 42
0.22352
  0
ARC
  5
1D6918405A
330
1D69183399
100
AcDbEntity
  8
JISSEN
100
AcDbCircle
 10
289.3198799999998
 20
152.447432
 30
0.0
 40
0.43
100
AcDbArc
 50
180.0
 51
270.0
  0
LINE
  5
1D6918405B
330
1D69183399
100
AcDbEntity
  8
JISSEN
100
AcDbLine
 10
289.6302069999998
 20
149.017432
 30
0.0
 11
288.6302069999998
 21
149.017432
 31
0.0
  0
LWPOLYLINE
  5
1D6918405C
330
1D69183399
100
AcDbEntity
  8
JISSEN
100
AcDbPolyline
 90
        9
 70
     0
 43
0.0
 10
287.010693
 20
152.017432
 42
0.140707
 10
286.6543899999998
 20
151.9151379999998
 42
0.10714
 10
286.308619
 20
151.578092
 42
0.079444
 10
286.0981859999998
 20
151.11456
 42
0.067
 10
286.01781
 20
150.517432
 42
0.067
 10
286.0981859999998
 20
149.9203029999998
 42
0.079444
 10
286.308619
 20
149.456771
 42
0.10714
 10
286.6543899999998
 20
149.1197249999999
 42
0.140707
 10
287.010693
 20
149.017432
 42
0.140707
  0
LINE
  5
1D6918405D
330
1D69183399
100
AcDbEntity
  8
JISSEN
100
AcDbLine
 10
287.745387
 20
152.210449
 30
0.0
 11
287.745387
 21
149.017432
 31
0.0
  0
LINE
  5
1D6918405E
330
1D69183399
100
AcDbEntity
  8
JISSEN
100
AcDbLine
 10
287.316193
 20
152.017432
 30
0.0
 11
287.010693
 21
152.017432
 31
0.0
  0
LINE
  5
1D6918405F
330
1D69183399
100
AcDbEntity
  8
JISSEN
100
AcDbLine
 10
284.430538
 20
163.017432
 30
0.0
 11
284.430538
 21
164.017432
 31
0.0
  0
LINE
  5
1D69184060
330
1D69183399
100
AcDbEntity
  8
JISSEN
100
AcDbLine
 10
287.8898799999999
 20
152.591118
 30
0.0
 11
287.8898799999999
 21
169.017432
 31
0.0
  0
LINE
  5
1D69184061
330
1D69183399
100
AcDbEntity
  8
JISSEN
100
AcDbLine
 10
287.8898799999999
 20
155.017432
 30
0.0
 11
288.88988
 21
155.017432
 31
0.0
  0
LINE
  5
1D69184062
330
1D69183399
100
AcDbEntity
  8
JISSEN
100
AcDbLine
 10
284.430538
 20
158.00733
 30
0.0
 11
284.430538
 21
157.027534
 31
0.0
  0
LINE
  5
1D69184063
330
1D69183399
100
AcDbEntity
  8
JISSEN
100
AcDbLine
 10
284.430538
 20
161.0073299999999
 30
0.0
 11
284.430538
 21
160.027534
 31
0.0
  0
ARC
  5
1D69184064
330
1D69183399
100
AcDbEntity
  8
JISSEN
100
AcDbCircle
 10
286.88988
 20
169.017432
 30
0.0
 40
1.0
100
AcDbArc
 50
0.0
 51
90.0
  0
ARC
  5
1D69184065
330
1D69183399
100
AcDbEntity
  8
JISSEN
100
AcDbCircle
 10
289.8898799999999
 20
169.017432
 30
0.0
 40
1.0
100
AcDbArc
 50
90.0
 51
180.0
  0
LINE
  5
1D69184066
330
1D69183399
100
AcDbEntity
  8
JISSEN
100
AcDbLine
 10
290.545387
 20
170.017432
 30
0.0
 11
289.8898799999999
 21
170.017432
 31
0.0
  0
LINE
  5
1D69184067
330
1D69183399
100
AcDbEntity
  8
JISSEN
100
AcDbLine
 10
284.430538
 20
167.017432
 30
0.0
 11
284.430538
 21
166.017432
 31
0.0
  0
ARC
  5
1D69184068
330
1D69183399
100
AcDbEntity
  8
JISSEN
100
AcDbCircle
 10
274.345387
 20
153.017432
 30
0.0
 40
1.0
100
AcDbArc
 50
180.0
 51
270.0
  0
ARC
  5
1D69184069
330
1D69183399
100
AcDbEntity
  8
JISSEN
100
AcDbCircle
 10
274.845387
 20
150.517432
 30
0.0
 40
1.5
100
AcDbArc
 50
270.0
 51
90.0
  0
LINE
  5
1D6918406A
330
1D69183399
100
AcDbEntity
  8
JISSEN
100
AcDbLine
 10
274.345387
 20
152.017432
 30
0.0
 11
274.845387
 21
152.017432
 31
0.0
  0
LINE
  5
1D6918406B
330
1D69183399
100
AcDbEntity
  8
JISSEN
100
AcDbLine
 10
277.502335
 20
164.017432
 30
0.0
 11
277.502335
 21
163.017432
 31
0.0
  0
LINE
  5
1D6918406C
330
1D69183399
100
AcDbEntity
  8
JISSEN
100
AcDbLine
 10
277.502335
 20
157.027534
 30
0.0
 11
277.502335
 21
158.00733
 31
0.0
  0
LINE
  5
1D6918406D
330
1D69183399
100
AcDbEntity
  8
JISSEN
100
AcDbLine
 10
277.502335
 20
160.027534
 30
0.0
 11
277.502335
 21
161.0073299999999
 31
0.0
  0
LINE
  5
1D6918406E
330
1D69183399
100
AcDbEntity
  8
JISSEN
100
AcDbLine
 10
277.502335
 20
166.017432
 30
0.0
 11
277.502335
 21
167.017432
 31
0.0
  0
LINE
  5
1D6918406F
330
1D69183399
100
AcDbEntity
  8
JISSEN
100
AcDbLine
 10
273.345387
 20
153.017432
 30
0.0
 11
273.345387
 21
169.017432
 31
0.0
  0
ARC
  5
1D69184070
330
1D69183399
100
AcDbEntity
  8
JISSEN
100
AcDbCircle
 10
274.345387
 20
169.017432
 30
0.0
 40
1.0
100
AcDbArc
 50
90.0
 51
180.0
  0
ARC
  5
1D69184090
330
1D69183399
100
AcDbEntity
  8
JISSEN
100
AcDbCircle
 10
270.345387
 20
169.017432
 30
0.0
 40
1.0
100
AcDbArc
 50
0.0
 51
90.0
  0
LINE
  5
1D69184091
330
1D69183399
100
AcDbEntity
  8
JISSEN
100
AcDbLine
 10
271.345387
 20
153.017432
 30
0.0
 11
271.345387
 21
169.017432
 31
0.0
  0
LINE
  5
1D69184092
330
1D69183399
100
AcDbEntity
  8
JISSEN
100
AcDbLine
 10
267.188439
 20
166.017432
 30
0.0
 11
267.188439
 21
167.017432
 31
0.0
  0
LINE
  5
1D69184093
330
1D69183399
100
AcDbEntity
  8
JISSEN
100
AcDbLine
 10
267.188439
 20
160.027534
 30
0.0
 11
267.188439
 21
161.0073299999999
 31
0.0
  0
LINE
  5
1D69184094
330
1D69183399
100
AcDbEntity
  8
JISSEN
100
AcDbLine
 10
267.188439
 20
157.027534
 30
0.0
 11
267.188439
 21
158.00733
 31
0.0
  0
LINE
  5
1D69184095
330
1D69183399
100
AcDbEntity
  8
JISSEN
100
AcDbLine
 10
267.188439
 20
164.017432
 30
0.0
 11
267.188439
 21
163.017432
 31
0.0
  0
LINE
  5
1D69184096
330
1D69183399
100
AcDbEntity
  8
JISSEN
100
AcDbLine
 10
270.345387
 20
152.017432
 30
0.0
 11
269.845387
 21
152.017432
 31
0.0
  0
ARC
  5
1D69184097
330
1D69183399
100
AcDbEntity
  8
JISSEN
100
AcDbCircle
 10
269.845387
 20
150.517432
 30
0.0
 40
1.5
100
AcDbArc
 50
90.0
 51
270.0
  0
ARC
  5
1D69184098
330
1D69183399
100
AcDbEntity
  8
JISSEN
100
AcDbCircle
 10
270.345387
 20
153.017432
 30
0.0
 40
1.0
100
AcDbArc
 50
270.0
 51
0.0
  0
LINE
  5
1D69184099
330
1D69183399
100
AcDbEntity
  8
JISSEN
100
AcDbLine
 10
260.2602349999999
 20
167.017432
 30
0.0
 11
260.2602349999999
 21
166.017432
 31
0.0
  0
LINE
  5
1D6918409A
330
1D69183399
100
AcDbEntity
  8
JISSEN
100
AcDbLine
 10
254.145387
 20
170.017432
 30
0.0
 11
254.8008939999999
 21
170.017432
 31
0.0
  0
ARC
  5
1D6918409B
330
1D69183399
100
AcDbEntity
  8
JISSEN
100
AcDbCircle
 10
254.8008939999999
 20
169.017432
 30
0.0
 40
1.0
100
AcDbArc
 50
0.0
 51
90.0
  0
ARC
  5
1D6918409C
330
1D69183399
100
AcDbEntity
  8
JISSEN
100
AcDbCircle
 10
257.8008939999999
 20
169.017432
 30
0.0
 40
1.0
100
AcDbArc
 50
90.0
 51
180.0
  0
LINE
  5
1D6918409D
330
1D69183399
100
AcDbEntity
  8
JISSEN
100
AcDbLine
 10
260.2602349999999
 20
161.0073299999999
 30
0.0
 11
260.2602349999999
 21
160.027534
 31
0.0
  0
LINE
  5
1D6918409E
330
1D69183399
100
AcDbEntity
  8
JISSEN
100
AcDbLine
 10
260.2602349999999
 20
158.00733
 30
0.0
 11
260.2602349999999
 21
157.027534
 31
0.0
  0
LINE
  5
1D6918409F
330
1D69183399
100
AcDbEntity
  8
JISSEN
100
AcDbLine
 10
256.8008939999999
 20
155.017432
 30
0.0
 11
255.800894
 21
155.017432
 31
0.0
  0
LINE
  5
1D691840A0
330
1D69183399
100
AcDbEntity
  8
JISSEN
100
AcDbLine
 10
256.8008939999999
 20
152.591118
 30
0.0
 11
256.8008939999999
 21
169.017432
 31
0.0
  0
LINE
  5
1D691840A1
330
1D69183399
100
AcDbEntity
  8
JISSEN
100
AcDbLine
 10
260.2602349999999
 20
163.017432
 30
0.0
 11
260.2602349999999
 21
164.017432
 31
0.0
  0
LINE
  5
1D691840A2
330
1D69183399
100
AcDbEntity
  8
JISSEN
100
AcDbLine
 10
257.3745799999999
 20
152.017432
 30
0.0
 11
257.68008
 21
152.017432
 31
0.0
  0
LINE
  5
1D691840A3
330
1D69183399
100
AcDbEntity
  8
JISSEN
100
AcDbLine
 10
256.9453869999999
 20
152.210449
 30
0.0
 11
256.9453869999999
 21
149.017432
 31
0.0
  0
LWPOLYLINE
  5
1D691840A4
330
1D69183399
100
AcDbEntity
  8
JISSEN
100
AcDbPolyline
 90
        9
 70
     0
 43
0.0
 10
257.68008
 20
152.017432
 42
-0.140707
 10
258.036383
 20
151.9151379999998
 42
-0.10714
 10
258.3821549999999
 20
151.578092
 42
-0.079444
 10
258.592587
 20
151.11456
 42
-0.067
 10
258.6729629999999
 20
150.517432
 42
-0.067
 10
258.592587
 20
149.9203029999998
 42
-0.079444
 10
258.3821549999999
 20
149.456771
 42
-0.10714
 10
258.036383
 20
149.1197249999999
 42
-0.140707
 10
257.68008
 20
149.017432
 42
-0.140707
  0
LINE
  5
1D691840A5
330
1D69183399
100
AcDbEntity
  8
JISSEN
100
AcDbLine
 10
255.0605669999999
 20
149.017432
 30
0.0
 11
256.060567
 21
149.017432
 31
0.0
  0
ARC
  5
1D691840A6
330
1D69183399
100
AcDbEntity
  8
JISSEN
100
AcDbCircle
 10
255.3708939999999
 20
152.447432
 30
0.0
 40
0.43
100
AcDbArc
 50
270.0
 51
0.0
  0
LWPOLYLINE
  5
1D691840A7
330
1D69183399
100
AcDbEntity
  8
JISSEN
100
AcDbPolyline
 90
        9
 70
     0
 43
0.0
 10
254.9428049999999
 20
149.017432
 42
-0.22352
 10
254.783456
 20
149.0924129999999
 42
-0.090504
 10
254.5793339999999
 20
149.456771
 42
-0.04732
 10
254.472146
 20
149.903336
 42
-0.035265
 10
254.4287789999999
 20
150.517432
 42
-0.035265
 10
254.472146
 20
151.1315279999999
 42
-0.04732
 10
254.5793339999999
 20
151.578092
 42
-0.090504
 10
254.783456
 20
151.94245
 42
-0.22352
 10
254.9428049999999
 20
152.017432
 42
-0.22352
  0
LINE
  5
1D691840A8
330
1D69183399
100
AcDbEntity
  8
JISSEN
100
AcDbLine
 10
255.3708939999999
 20
152.017432
 30
0.0
 11
254.9428049999999
 21
152.017432
 31
0.0
  0
LINE
  5
1D691840A9
330
1D69183399
100
AcDbEntity
  8
JISSEN
100
AcDbLine
 10
254.9428049999999
 20
149.017432
 30
0.0
 11
257.68008
 21
149.017432
 31
0.0
  0
ARC
  5
1D691840AA
330
1D69183399
100
AcDbEntity
  8
JISSEN
100
AcDbCircle
 10
251.6453869999998
 20
142.017432
 30
0.0
 40
3.0
100
AcDbArc
 50
255.0
 51
270.0
  0
LINE
  5
1D691840AB
330
1D69183399
100
AcDbEntity
  8
JISSEN
100
AcDbLine
 10
254.145387
 20
170.017432
 30
0.0
 11
254.145387
 21
144.017432
 31
0.0
  0
LINE
  5
1D691840AC
330
1D69183399
100
AcDbEntity
  8
JISSEN
100
AcDbLine
 10
255.800894
 20
169.017432
 30
0.0
 11
255.800894
 21
152.447432
 31
0.0
  0
ARC
  5
1D691840AD
330
1D69183399
100
AcDbEntity
  8
JISSEN
100
AcDbCircle
 10
257.3745799999999
 20
152.591118
 30
0.0
 40
0.573687
100
AcDbArc
 50
180.0
 51
270.0
  0
LINE
  5
1D691840AE
330
1D69183399
100
AcDbEntity
  8
JISSEN
100
AcDbLine
 10
267.188439
 20
167.017432
 30
0.0
 11
260.2602349999999
 21
167.017432
 31
0.0
  0
LINE
  5
1D691840AF
330
1D69183399
100
AcDbEntity
  8
JISSEN
100
AcDbLine
 10
260.2602349999999
 20
166.017432
 30
0.0
 11
267.188439
 21
166.017432
 31
0.0
  0
LINE
  5
1D691840B0
330
1D69183399
100
AcDbEntity
  8
JISSEN
100
AcDbLine
 10
260.2602349999999
 20
164.017432
 30
0.0
 11
267.188439
 21
164.017432
 31
0.0
  0
LINE
  5
1D691840B1
330
1D69183399
100
AcDbEntity
  8
JISSEN
100
AcDbLine
 10
267.188439
 20
163.017432
 30
0.0
 11
260.2602349999999
 21
163.017432
 31
0.0
  0
LINE
  5
1D691840B2
330
1D69183399
100
AcDbEntity
  8
JISSEN
100
AcDbLine
 10
260.2602349999999
 20
160.027534
 30
0.0
 11
267.188439
 21
160.027534
 31
0.0
  0
LINE
  5
1D691840B3
330
1D69183399
100
AcDbEntity
  8
JISSEN
100
AcDbLine
 10
267.188439
 20
161.0073299999999
 30
0.0
 11
260.2602349999999
 21
161.0073299999999
 31
0.0
  0
ARC
  5
1D691840B4
330
1D69183399
100
AcDbEntity
  8
JISSEN
100
AcDbCircle
 10
259.901972
 20
166.517432
 30
0.0
 40
0.615104
100
AcDbArc
 50
305.6226179999999
 51
54.377382
  0
ARC
  5
1D691840B5
330
1D69183399
100
AcDbEntity
  8
JISSEN
100
AcDbCircle
 10
259.901972
 20
163.517432
 30
0.0
 40
0.615104
100
AcDbArc
 50
305.6226179999999
 51
54.377382
  0
ARC
  5
1D691840B6
330
1D69183399
100
AcDbEntity
  8
JISSEN
100
AcDbCircle
 10
259.921439
 20
160.517432
 30
0.0
 40
0.595636
100
AcDbArc
 50
304.666366
 51
55.33363399999998
  0
LINE
  5
1D691840B7
330
1D69183399
100
AcDbEntity
  8
JISSEN
100
AcDbLine
 10
257.8008939999999
 20
170.017432
 30
0.0
 11
270.345387
 21
170.017432
 31
0.0
  0
ARC
  5
1D691840B8
330
1D69183399
100
AcDbEntity
  8
JISSEN
100
AcDbCircle
 10
259.921439
 20
157.517432
 30
0.0
 40
0.595636
100
AcDbArc
 50
304.666366
 51
55.33363399999998
  0
LINE
  5
1D691840B9
330
1D69183399
100
AcDbEntity
  8
JISSEN
100
AcDbLine
 10
267.188439
 20
158.00733
 30
0.0
 11
260.2602349999999
 21
158.00733
 31
0.0
  0
LINE
  5
1D691840BA
330
1D69183399
100
AcDbEntity
  8
JISSEN
100
AcDbLine
 10
260.2602349999999
 20
157.027534
 30
0.0
 11
267.188439
 21
157.027534
 31
0.0
  0
ARC
  5
1D691840BB
330
1D69183399
100
AcDbEntity
  8
JISSEN
100
AcDbCircle
 10
241.345387
 20
143.224394
 30
0.0
 40
1.5
100
AcDbArc
 50
180.0
 51
255.0
  0
LINE
  5
1D691840BC
330
1D69183399
100
AcDbEntity
  8
JISSEN
100
AcDbLine
 10
239.845387
 20
143.224394
 30
0.0
 11
239.845387
 21
144.017432
 31
0.0
  0
LINE
  5
1D691840BD
330
1D69183399
100
AcDbEntity
  8
JISSEN
100
AcDbLine
 10
239.845387
 20
144.017432
 30
0.0
 11
304.8453869999999
 21
144.017432
 31
0.0
  0
LINE
  5
1D691840BE
330
1D69183399
100
AcDbEntity
  8
JISSEN
100
AcDbLine
 10
250.8689299999999
 20
139.1196539999999
 30
0.0
 11
240.957158
 21
141.775505
 31
0.0
  0
ARC
  5
1D691840BF
330
1D69183399
100
AcDbEntity
  8
JISSEN
100
AcDbCircle
 10
252.498964
 20
118.167432
 30
0.0
 40
1.149999999999999
100
AcDbArc
 50
90.0
 51
270.0
  0
LINE
  5
1D691840C4
330
1D69183399
100
AcDbEntity
  8
JISSEN
100
AcDbLine
 10
256.9453869999999
 20
139.017432
 30
0.0
 11
256.005159
 21
119.317432
 31
0.0
  0
LINE
  5
1D691840C5
330
1D69183399
100
AcDbEntity
  8
JISSEN
100
AcDbLine
 10
254.645387
 20
139.017432
 30
0.0
 11
253.7051589999999
 21
119.317432
 31
0.0
  0
LINE
  5
1D691840C6
330
1D69183399
100
AcDbEntity
  8
JISSEN
100
AcDbLine
 10
262.9203869999999
 20
139.017432
 30
0.0
 11
262.4502729999999
 21
119.317432
 31
0.0
  0
LINE
  5
1D691840C7
330
1D69183399
100
AcDbEntity
  8
JISSEN
100
AcDbLine
 10
265.220387
 20
139.017432
 30
0.0
 11
264.7502729999999
 21
119.317432
 31
0.0
  0
LINE
  5
1D691840C8
330
1D69183399
100
AcDbEntity
  8
JISSEN
100
AcDbLine
 10
251.6453869999998
 20
139.017432
 30
0.0
 11
293.045387
 21
139.017432
 31
0.0
  0
LINE
  5
1D691840C9
330
1D69183399
100
AcDbEntity
  8
JISSEN
100
AcDbLine
 10
274.845387
 20
149.017432
 30
0.0
 11
269.845387
 21
149.017432
 31
0.0
  0
LINE
  5
1D691840CA
330
1D69183399
100
AcDbEntity
  8
JISSEN
100
AcDbLine
 10
252.498964
 20
117.017432
 30
0.0
 11
292.1918089999998
 21
117.017432
 31
0.0
  0
LINE
  5
1D691840CB
330
1D69183399
100
AcDbEntity
  8
JISSEN
100
AcDbLine
 10
252.498964
 20
119.317432
 30
0.0
 11
292.1918089999998
 21
119.317432
 31
0.0
  0
LWPOLYLINE
  5
1D691840CC
330
1D69183399
100
AcDbEntity
  8
JISSEN
100
AcDbPolyline
 90
        3
 70
     0
 43
0.0
 10
279.6143709991773
 20
132.9838086290372
 42
-0.0104296671613613
 10
275.4485735411199
 20
132.7674320000002
 10
272.3454704380161
 20
132.7674320000002
  0
LWPOLYLINE
  5
1D691840CD
330
1D69183399
100
AcDbEntity
  8
JISSEN
100
AcDbPolyline
 90
        3
 70
     0
 43
0.0
 10
265.0764029848135
 20
132.9838207925704
 42
0.0104300855436424
 10
269.2423673349121
 20
132.7674320000002
 10
272.3454704380161
 20
132.7674320000002
  0
LINE
  5
1D691840CE
330
1D69183399
100
AcDbEntity
  8
JISSEN
100
AcDbLine
 10
304.845386999999
 20
84.01743200000002
 30
0.0
 11
304.845386999999
 21
83.53718012683765
 31
0.0
  0
LINE
  5
1D691840CF
330
1D69183399
100
AcDbEntity
  8
JISSEN
100
AcDbLine
 10
302.11268738278
 20
84.01743200000002
 30
0.0
 11
304.845386999999
 21
84.01743200000002
 31
0.0
  0
LINE
  5
1D691840D0
330
1D69183399
100
AcDbEntity
  8
JISSEN
100
AcDbLine
 10
290.845386999999
 20
84.01743200000002
 30
0.0
 11
253.8453870000009
 21
84.01743200000002
 31
0.0
  0
LINE
  5
1D691840D1
330
1D69183399
100
AcDbEntity
  8
JISSEN
100
AcDbLine
 10
303.7336155676525
 20
82.08829138740401
 30
0.0
 11
292.2730123109548
 21
79.01743200000002
 31
0.0
  0
LWPOLYLINE
  5
1D691840D2
330
1D69183399
100
AcDbEntity
  8
JISSEN
100
AcDbPolyline
 90
        4
 70
     0
 43
0.0
 10
258.3454704380165
 20
79.01743200000004
 10
258.3454704380165
 20
76.34500373451593
 42
0.3813056827265855
 10
261.0052642524494
 20
73.36435619559054
 42
0.0044639565328746
 10
262.7810300715214
 20
73.1777176093736
 42
0.0044639565328746
  0
LINE
  5
1D691840D3
330
1D69183399
100
AcDbEntity
  8
JISSEN
100
AcDbLine
 10
252.4177616890458
 20
79.01743200000004
 30
0.0
 11
292.2730123109548
 21
79.01743200000004
 31
0.0
  0
LWPOLYLINE
  5
1D691840D4
330
1D69183399
100
AcDbEntity
  8
JISSEN
100
AcDbPolyline
 90
        4
 70
     0
 43
0.0
 10
286.3454704380163
 20
79.01743200000004
 10
286.3454704380163
 20
76.34500373451593
 42
-0.3813056827265855
 10
283.6856766235835
 20
73.36435619559054
 42
-0.0044643754366618
 10
281.9097440144819
 20
73.17770158351156
 42
-0.0044643754366618
  0
ARC
  5
1D691840D5
330
1D69183399
100
AcDbEntity
  8
JISSEN
100
AcDbCircle
 10
303.345386999999
 20
83.53718012683765
 30
0.0
 40
1.5
100
AcDbArc
 50
284.9999999999926
 51
359.9999999999991
  0
LINE
  5
1D691840D6
330
1D69183399
100
AcDbEntity
  8
JISSEN
100
AcDbLine
 10
290.8453869999997
 20
84.01743200000002
 30
0.0
 11
337.621292955696
 21
84.01743200000002
 31
0.0
  0
LINE
  5
1D691840D7
330
1D69183399
100
AcDbEntity
  8
JISSEN
100
AcDbLine
 10
242.5780866172208
 20
84.01743200000002
 30
0.0
 11
239.8453870000018
 21
84.01743200000002
 31
0.0
  0
LINE
  5
1D691840D8
330
1D69183399
100
AcDbEntity
  8
JISSEN
100
AcDbLine
 10
239.8453870000018
 20
84.01743200000002
 30
0.0
 11
239.8453870000015
 21
83.53718012683765
 31
0.0
  0
LINE
  5
1D691840D9
330
1D69183399
100
AcDbEntity
  8
SUNPOU
100
AcDbLine
 10
227.4865524106604
 20
84.01743200000002
 30
0.0
 11
227.4865524106604
 21
84.01743200000002
 31
0.0
  0
ARC
  5
1D691840DA
330
1D69183399
100
AcDbEntity
  8
JISSEN
100
AcDbCircle
 10
241.3453870000016
 20
83.53718012683765
 30
0.0
 40
1.5
100
AcDbArc
 50
180.0000000000006
 51
255.0000000000073
  0
LINE
  5
1D691840DB
330
1D69183399
100
AcDbEntity
  8
JISSEN
100
AcDbLine
 10
253.8453870000009
 20
84.01743200000002
 30
0.0
 11
207.0694810443049
 21
84.01743200000002
 31
0.0
  0
LINE
  5
1D691840DC
330
1D69183399
100
AcDbEntity
  8
JISSEN
100
AcDbLine
 10
253.8453870000018
 20
84.01743200000002
 30
0.0
 11
242.5780866172208
 21
84.01743200000002
 31
0.0
  0
LINE
  5
1D691840DD
330
1D69183399
100
AcDbEntity
  8
JISSEN
100
AcDbLine
 10
240.9571584323481
 20
82.08829138740401
 30
0.0
 11
252.4177616890459
 21
79.01743200000002
 31
0.0
  0
TEXT
  5
1D69184373
330
1D69183399
100
AcDbEntity
  8
SUNPOU
100
AcDbText
 10
290.5498144990928
 20
7.849424224831862
 30
0.0
 40
3.0
  1
ガードF 型、取付状態図（ヘッドはVZF）
  7
K
100
AcDbText
  0
TEXT
  5
1D69184374
330
1D69183399
100
AcDbEntity
  8
SUNPOU
100
AcDbText
 10
290.5498144990928
 20
2.849424224831862
 30
0.0
 40
3.0
  1
尺度　1/1
  7
K
100
AcDbText
  0
TEXT
  5
1D69184379
330
1D69183399
100
AcDbEntity
  8
SUNPOU
100
AcDbText
 10
158.4545897110329
 20
2.849424224831862
 30
0.0
 40
3.0
  1
尺度　1/1
  7
K
100
AcDbText
  0
TEXT
  5
1D6918437A
330
1D69183399
100
AcDbEntity
  8
SUNPOU
100
AcDbText
 10
158.4545897110329
 20
7.849424224831862
 30
0.0
 40
3.0
  1
ガードF 型
  7
K
100
AcDbText
  0
LINE
  5
1D6918437F
330
1D69183399
100
AcDbEntity
  8
JISSEN
100
AcDbLine
 10
252.4989640000004
 20
59.31743200000003
 30
0.0
 11
292.1918090000003
 21
59.31743200000003
 31
0.0
  0
LINE
  5
1D69184380
330
1D69183399
100
AcDbEntity
  8
JISSEN
100
AcDbLine
 10
252.4989640000004
 20
57.01743200000002
 30
0.0
 11
292.1918090000003
 21
57.01743200000002
 31
0.0
  0
LINE
  5
1D69184381
330
1D69183399
100
AcDbEntity
  8
JISSEN
100
AcDbLine
 10
265.2203870000004
 20
79.01743200000004
 30
0.0
 11
264.7502730000001
 21
59.31743200000003
 31
0.0
  0
LINE
  5
1D69184382
330
1D69183399
100
AcDbEntity
  8
JISSEN
100
AcDbLine
 10
262.9203870000003
 20
79.01743200000004
 30
0.0
 11
262.4502730000003
 21
59.31743200000003
 31
0.0
  0
LINE
  5
1D69184383
330
1D69183399
100
AcDbEntity
  8
JISSEN
100
AcDbLine
 10
254.6453870000004
 20
79.01743200000004
 30
0.0
 11
253.7051590000003
 21
59.31743200000003
 31
0.0
  0
LINE
  5
1D69184384
330
1D69183399
100
AcDbEntity
  8
JISSEN
100
AcDbLine
 10
256.9453870000003
 20
79.01743200000004
 30
0.0
 11
256.0051590000004
 21
59.31743200000003
 31
0.0
  0
ARC
  5
1D69184385
330
1D69183399
100
AcDbEntity
  8
JISSEN
100
AcDbCircle
 10
252.4989640000004
 20
58.16743200000004
 30
0.0
 40
1.149999999999999
100
AcDbArc
 50
90.0
 51
270.0
  0
ARC
  5
1D69184386
330
1D69183399
100
AcDbEntity
  8
JISSEN
100
AcDbCircle
 10
292.1918090000003
 20
58.16743200000004
 30
0.0
 40
1.149999999999999
100
AcDbArc
 50
270.0
 51
90.0
  0
LINE
  5
1D69184387
330
1D69183399
100
AcDbEntity
  8
JISSEN
100
AcDbLine
 10
287.7453870000001
 20
79.01743200000004
 30
0.0
 11
288.6856140000003
 21
59.31743200000003
 31
0.0
  0
LINE
  5
1D69184388
330
1D69183399
100
AcDbEntity
  8
JISSEN
100
AcDbLine
 10
290.0453870000004
 20
79.01743200000004
 30
0.0
 11
290.9856140000004
 21
59.31743200000003
 31
0.0
  0
LINE
  5
1D69184389
330
1D69183399
100
AcDbEntity
  8
JISSEN
100
AcDbLine
 10
281.7703870000002
 20
79.01743200000004
 30
0.0
 11
282.2405000000003
 21
59.31743200000003
 31
0.0
  0
LINE
  5
1D6918438A
330
1D69183399
100
AcDbEntity
  8
JISSEN
100
AcDbLine
 10
279.4703870000004
 20
79.01743200000004
 30
0.0
 11
279.9405000000003
 21
59.31743200000003
 31
0.0
  0
LWPOLYLINE
  5
1D6918438B
330
1D69183399
100
AcDbEntity
  8
JISSEN
100
AcDbPolyline
 90
        3
 70
     0
 43
0.0
 10
279.6143709991777
 20
72.98380862903741
 42
-0.0104296671613613
 10
275.4485735411203
 20
72.76743200000034
 10
272.3454704380165
 20
72.76743200000033
  0
LWPOLYLINE
  5
1D6918438C
330
1D69183399
100
AcDbEntity
  8
JISSEN
100
AcDbPolyline
 90
        3
 70
     0
 43
0.0
 10
265.0764029848141
 20
72.98382079257065
 42
0.0104300855436422
 10
269.2423673349126
 20
72.76743200000034
 10
272.3454704380165
 20
72.76743200000033
  0
ENDSEC
  0
SECTION
  2
OBJECTS
  0
DICTIONARY
  5
1D6918338D
330
0
100
AcDbDictionary
281
     1
  3
ACAD_GROUP
350
1D6918338E
  3
ACAD_LAYOUT
350
1D69183F2F
  3
ACAD_MLINESTYLE
350
1D6918338F
  3
ACAD_PLOTSETTINGS
350
1D69183F30
  3
ACAD_PLOTSTYLENAME
350
1D69183F2D
  3
ACDBVARIABLEDICTIONARY
350
1D691838E2
  0
DICTIONARY
  5
1D691843B3
330
1D69183399
100
AcDbDictionary
280
     1
281
     1
  3
ACAD_LAYOUTSELFREF
360
1D69184422
  0
DICTIONARY
  5
1D691843B1
330
1D69183396
100
AcDbDictionary
280
     1
281
     1
  3
ACAD_LAYOUTSELFREF
360
1D69184421
  0
DICTIONARY
  5
1D6918338E
102
{ACAD_REACTORS
330
1D6918338D
102
}
330
1D6918338D
100
AcDbDictionary
281
     1
  0
DICTIONARY
  5
1D69183F2F
102
{ACAD_REACTORS
330
1D6918338D
102
}
330
1D6918338D
100
AcDbDictionary
281
     1
  3
Model
350
1D69184428
  3
ﾚｲｱｳﾄ1
350
1D69184429
  0
DICTIONARY
  5
1D6918338F
102
{ACAD_REACTORS
330
1D6918338D
102
}
330
1D6918338D
100
AcDbDictionary
281
     1
  3
STANDARD
350
1D6918339C
  0
DICTIONARY
  5
1D69183F30
102
{ACAD_REACTORS
330
1D6918338D
102
}
330
1D6918338D
100
AcDbDictionary
281
     1
  0
ACDBDICTIONARYWDFLT
  5
1D69183F2D
102
{ACAD_REACTORS
330
1D6918338D
102
}
330
1D6918338D
100
AcDbDictionary
281
     1
  3
Normal
350
1D69183F2E
100
AcDbDictionaryWithDefault
340
1D69183F2E
  0
DICTIONARY
  5
1D691838E2
102
{ACAD_REACTORS
330
1D6918338D
102
}
330
1D6918338D
100
AcDbDictionary
281
     1
  3
DIMASSOC
350
1D691843CF
  3
SORTENTS
350
1D691838E3
  0
XRECORD
  5
1D69184422
102
{ACAD_REACTORS
330
1D691843B3
102
}
330
1D691843B3
100
AcDbXrecord
280
     1
340
1D69183399
  0
XRECORD
  5
1D69184421
102
{ACAD_REACTORS
330
1D691843B1
102
}
330
1D691843B1
100
AcDbXrecord
280
     1
340
1D69183396
  0
LAYOUT
  5
1D69184428
102
{ACAD_REACTORS
330
1D69183F2F
102
}
330
1D69183F2F
100
AcDbPlotSettings
  1

  2
\\Nt_honsya\GL-8300A
  4

  6

 40
0.0
 41
0.0
 42
0.0
 43
0.0
 44
0.0
 45
0.0
 46
0.0
 47
0.0
 48
0.0
 49
0.0
140
0.0
141
0.0
142
1.0
143
1.0
 70
  1712
 72
     0
 73
     0
 74
     0
  7

 75
     0
147
1.0
148
0.0
149
0.0
100
AcDbLayout
  1
Model
 70
     1
 71
     0
 10
0.0
 20
0.0
 11
12.0
 21
9.0
 12
0.0
 22
0.0
 32
0.0
 14
0.0
 24
0.0
 34
0.0
 15
0.0
 25
0.0
 35
0.0
146
0.0
 13
0.0
 23
0.0
 33
0.0
 16
1.0
 26
0.0
 36
0.0
 17
0.0
 27
1.0
 37
0.0
 76
     0
330
1D69183399
  0
LAYOUT
  5
1D69184429
102
{ACAD_REACTORS
330
1D69183F2F
102
}
330
1D69183F2F
100
AcDbPlotSettings
  1

  2
\\Nt_honsya\GL-8300A
  4

  6

 40
0.0
 41
0.0
 42
0.0
 43
0.0
 44
0.0
 45
0.0
 46
0.0
 47
0.0
 48
0.0
 49
0.0
140
0.0
141
0.0
142
1.0
143
1.0
 70
   688
 72
     0
 73
     0
 74
     5
  7

 75
    16
147
1.0
148
0.0
149
0.0
100
AcDbLayout
  1
ﾚｲｱｳﾄ1
 70
     0
 71
     1
 10
0.0
 20
0.0
 11
12.0
 21
9.0
 12
0.0
 22
0.0
 32
0.0
 14
1.000000000000000E+20
 24
1.000000000000000E+20
 34
1.000000000000000E+20
 15
-1.000000000000000E+20
 25
-1.000000000000000E+20
 35
-1.000000000000000E+20
146
0.0
 13
0.0
 23
0.0
 33
0.0
 16
1.0
 26
0.0
 36
0.0
 17
0.0
 27
1.0
 37
0.0
 76
     0
330
1D69183396
  0
MLINESTYLE
  5
1D6918339C
102
{ACAD_REACTORS
330
1D6918338F
102
}
330
1D6918338F
100
AcDbMlineStyle
  2
STANDARD
 70
     0
  3

 62
     0
 51
90.0
 52
90.0
 71
     2
 49
0.5
 62
   256
  6
BYLAYER
 49
-0.5
 62
   256
  6
BYLAYER
  0
ACDBPLACEHOLDER
  5
1D69183F2E
102
{ACAD_REACTORS
330
1D69183F2D
102
}
330
1D69183F2D
  0
DICTIONARYVAR
  5
1D691843CF
102
{ACAD_REACTORS
330
1D691838E2
102
}
330
1D691838E2
100
DictionaryVariables
280
     0
  1
0
  0
DICTIONARYVAR
  5
1D691838E3
102
{ACAD_REACTORS
330
1D691838E2
102
}
330
1D691838E2
100
DictionaryVariables
280
     0
  1
96
  0
ENDSEC
  0
EOF
