  0
SECTION
  2
HEADER
  9
$ACADVER
  1
AC1015
  9
$ACADMAINTVER
 70
    10
  9
$DWGCODEPAGE
  3
ANSI_932
  9
$INSBASE
 10
0.0
 20
0.0
 30
0.0
  9
$EXTMIN
 10
0.0
 20
0.0
 30
0.0
  9
$EXTMAX
 10
361.9999983709023
 20
273.0000000443201
 30
0.0
  9
$LIMMIN
 10
0.0
 20
0.0
  9
$LIMMAX
 10
180.999999
 20
273.0
  9
$ORTHOMODE
 70
     1
  9
$REGENMODE
 70
     1
  9
$FILLMODE
 70
     1
  9
$QTEXTMODE
 70
     0
  9
$MIRRTEXT
 70
     0
  9
$LTSCALE
 40
5.0
  9
$ATTMODE
 70
     1
  9
$TEXTSIZE
 40
1.5
  9
$TRACEWID
 40
0.05
  9
$TEXTSTYLE
  7
K
  9
$CLAYER
  8
JISSEN
  9
$CELTYPE
  6
BYLAYER
  9
$CECOLOR
 62
   256
  9
$CELTSCALE
 40
1.0
  9
$DISPSILH
 70
     0
  9
$DIMSCALE
 40
1.0
  9
$DIMASZ
 40
1.5
  9
$DIMEXO
 40
1.0
  9
$DIMDLI
 40
6.0
  9
$DIMRND
 40
0.0
  9
$DIMDLE
 40
0.0
  9
$DIMEXE
 40
1.0
  9
$DIMTP
 40
495.0
  9
$DIMTM
 40
0.0
  9
$DIMTXT
 40
3.0
  9
$DIMCEN
 40
0.0
  9
$DIMTSZ
 40
0.0
  9
$DIMTOL
 70
     0
  9
$DIMLIM
 70
     0
  9
$DIMTIH
 70
     0
  9
$DIMTOH
 70
     0
  9
$DIMSE1
 70
     0
  9
$DIMSE2
 70
     0
  9
$DIMTAD
 70
     1
  9
$DIMZIN
 70
     8
  9
$DIMBLK
  1
ARROWANG
  9
$DIMASO
 70
     0
  9
$DIMSHO
 70
     0
  9
$DIMPOST
  1

  9
$DIMAPOST
  1

  9
$DIMALT
 70
     0
  9
$DIMALTD
 70
     2
  9
$DIMALTF
 40
25.4
  9
$DIMLFAC
 40
1.0
  9
$DIMTOFL
 70
     1
  9
$DIMTVP
 40
0.0
  9
$DIMTIX
 70
     1
  9
$DIMSOXD
 70
     0
  9
$DIMSAH
 70
     0
  9
$DIMBLK1
  1
ARROWANG
  9
$DIMBLK2
  1
ARROWANG
  9
$DIMSTYLE
  2
IMAO
  9
$DIMCLRD
 70
     0
  9
$DIMCLRE
 70
     0
  9
$DIMCLRT
 70
     0
  9
$DIMTFAC
 40
1.0
  9
$DIMGAP
 40
0.09
  9
$DIMJUST
 70
     0
  9
$DIMSD1
 70
     0
  9
$DIMSD2
 70
     0
  9
$DIMTOLJ
 70
     1
  9
$DIMTZIN
 70
     0
  9
$DIMALTZ
 70
     0
  9
$DIMALTTZ
 70
     0
  9
$DIMUPT
 70
     0
  9
$DIMDEC
 70
     4
  9
$DIMTDEC
 70
     4
  9
$DIMALTU
 70
     2
  9
$DIMALTTD
 70
     2
  9
$DIMTXSTY
  7
STANDARD
  9
$DIMAUNIT
 70
     0
  9
$DIMADEC
 70
     0
  9
$DIMALTRND
 40
0.0
  9
$DIMAZIN
 70
     0
  9
$DIMDSEP
 70
    46
  9
$DIMATFIT
 70
     3
  9
$DIMFRAC
 70
     0
  9
$DIMLDRBLK
  1
ARROWANG
  9
$DIMLUNIT
 70
     2
  9
$DIMLWD
 70
    -2
  9
$DIMLWE
 70
    -2
  9
$DIMTMOVE
 70
     0
  9
$LUNITS
 70
     2
  9
$LUPREC
 70
     2
  9
$SKETCHINC
 40
0.1
  9
$FILLETRAD
 40
0.5
  9
$AUNITS
 70
     0
  9
$AUPREC
 70
     2
  9
$MENU
  1
STDR12J
  9
$ELEVATION
 40
0.0
  9
$PELEVATION
 40
0.0
  9
$THICKNESS
 40
0.0
  9
$LIMCHECK
 70
     0
  9
$CHAMFERA
 40
0.5
  9
$CHAMFERB
 40
0.5
  9
$CHAMFERC
 40
0.0
  9
$CHAMFERD
 40
0.0
  9
$SKPOLY
 70
     0
  9
$TDCREATE
 40
2450354.415456018
  9
$TDUCREATE
 40
2450354.040456018
  9
$TDUPDATE
 40
2454757.690107650
  9
$TDUUPDATE
 40
2454757.315107650
  9
$TDINDWG
 40
0.0695428588
  9
$TDUSRTIMER
 40
0.0695428588
  9
$USRTIMER
 70
     1
  9
$ANGBASE
 50
0.0
  9
$ANGDIR
 70
     0
  9
$PDMODE
 70
     0
  9
$PDSIZE
 40
0.0
  9
$PLINEWID
 40
0.0
  9
$SPLFRAME
 70
     0
  9
$SPLINETYPE
 70
     6
  9
$SPLINESEGS
 70
     8
  9
$HANDSEED
  5
1D69184145
  9
$SURFTAB1
 70
     6
  9
$SURFTAB2
 70
     6
  9
$SURFTYPE
 70
     6
  9
$SURFU
 70
     6
  9
$SURFV
 70
     6
  9
$UCSBASE
  2

  9
$UCSNAME
  2

  9
$UCSORG
 10
0.0
 20
0.0
 30
0.0
  9
$UCSXDIR
 10
1.0
 20
0.0
 30
0.0
  9
$UCSYDIR
 10
0.0
 20
1.0
 30
0.0
  9
$UCSORTHOREF
  2

  9
$UCSORTHOVIEW
 70
     0
  9
$UCSORGTOP
 10
0.0
 20
0.0
 30
0.0
  9
$UCSORGBOTTOM
 10
0.0
 20
0.0
 30
0.0
  9
$UCSORGLEFT
 10
0.0
 20
0.0
 30
0.0
  9
$UCSORGRIGHT
 10
0.0
 20
0.0
 30
0.0
  9
$UCSORGFRONT
 10
0.0
 20
0.0
 30
0.0
  9
$UCSORGBACK
 10
0.0
 20
0.0
 30
0.0
  9
$PUCSBASE
  2

  9
$PUCSNAME
  2

  9
$PUCSORG
 10
0.0
 20
0.0
 30
0.0
  9
$PUCSXDIR
 10
1.0
 20
0.0
 30
0.0
  9
$PUCSYDIR
 10
0.0
 20
1.0
 30
0.0
  9
$PUCSORTHOREF
  2

  9
$PUCSORTHOVIEW
 70
     0
  9
$PUCSORGTOP
 10
0.0
 20
0.0
 30
0.0
  9
$PUCSORGBOTTOM
 10
0.0
 20
0.0
 30
0.0
  9
$PUCSORGLEFT
 10
0.0
 20
0.0
 30
0.0
  9
$PUCSORGRIGHT
 10
0.0
 20
0.0
 30
0.0
  9
$PUCSORGFRONT
 10
0.0
 20
0.0
 30
0.0
  9
$PUCSORGBACK
 10
0.0
 20
0.0
 30
0.0
  9
$USERI1
 70
     4
  9
$USERI2
 70
     1
  9
$USERI3
 70
     1
  9
$USERI4
 70
     2
  9
$USERI5
 70
     1
  9
$USERR1
 40
1.0
  9
$USERR2
 40
3.0
  9
$USERR3
 40
3.0
  9
$USERR4
 40
1.5
  9
$USERR5
 40
8.0
  9
$WORLDVIEW
 70
     1
  9
$SHADEDGE
 70
     3
  9
$SHADEDIF
 70
    70
  9
$TILEMODE
 70
     1
  9
$MAXACTVP
 70
    16
  9
$PINSBASE
 10
0.0
 20
0.0
 30
0.0
  9
$PLIMCHECK
 70
     0
  9
$PEXTMIN
 10
1.000000000000000E+20
 20
1.000000000000000E+20
 30
1.000000000000000E+20
  9
$PEXTMAX
 10
-1.000000000000000E+20
 20
-1.000000000000000E+20
 30
-1.000000000000000E+20
  9
$PLIMMIN
 10
0.0
 20
0.0
  9
$PLIMMAX
 10
12.0
 20
9.0
  9
$UNITMODE
 70
     0
  9
$VISRETAIN
 70
     0
  9
$PLINEGEN
 70
     0
  9
$PSLTSCALE
 70
     0
  9
$TREEDEPTH
 70
     0
  9
$CMLSTYLE
  2
STANDARD
  9
$CMLJUST
 70
     0
  9
$CMLSCALE
 40
1.0
  9
$PROXYGRAPHICS
 70
     1
  9
$MEASUREMENT
 70
     0
  9
$CELWEIGHT
370
    -1
  9
$ENDCAPS
280
     0
  9
$JOINSTYLE
280
     0
  9
$LWDISPLAY
290
     0
  9
$INSUNITS
 70
     0
  9
$HYPERLINKBASE
  1

  9
$STYLESHEET
  1

  9
$XEDIT
290
     1
  9
$CEPSNTYPE
380
     0
  9
$PSTYLEMODE
290
     1
  9
$FINGERPRINTGUID
  2
{9E4523D2-8DA8-438B-B789-0D080F5E267A}
  9
$VERSIONGUID
  2
{93932DB1-D9E4-461A-AE7F-33CF1DBE902E}
  9
$EXTNAMES
290
     1
  9
$PSVPSCALE
 40
0.0
  9
$OLESTARTUP
290
     0
  0
ENDSEC
  0
SECTION
  2
CLASSES
  0
CLASS
  1
LWPOLYLINE
  2
AcDbPolyline
  3
AutoCAD 2000
 90
    32768
280
     0
281
     1
  0
CLASS
  1
ACDBDICTIONARYWDFLT
  2
AcDbDictionaryWithDefault
  3
AutoCAD 2000
 90
        0
280
     0
281
     0
  0
CLASS
  1
ACDBPLACEHOLDER
  2
AcDbPlaceHolder
  3
AutoCAD 2000
 90
        0
280
     0
281
     0
  0
CLASS
  1
LAYOUT
  2
AcDbLayout
  3
AutoCAD 2000
 90
        0
280
     0
281
     0
  0
CLASS
  1
LONG_TRANSACTION
  2
AcDbLongTransaction
  3
AutoCAD 2000
 90
    32768
280
     0
281
     0
  0
CLASS
  1
LWPOLYLINE
  2
AcDbPolyline
  3
AutoCAD 2000
 90
    32768
280
     0
281
     1
  0
CLASS
  1
HATCH
  2
AcDbHatch
  3
AutoCAD 2000
 90
    32768
280
     0
281
     1
  0
CLASS
  1
XRECORD
  2
AcDbXrecord
  3
AutoCAD 2000
 90
    32768
280
     0
281
     0
  0
CLASS
  1
LONG_TRANSACTION
  2
AcDbLongTransaction
  3
AutoCAD 2000
 90
    32768
280
     0
281
     0
  0
CLASS
  1
LWPOLYLINE
  2
AcDbPolyline
  3
AutoCAD 2000
 90
    32768
280
     0
281
     1
  0
CLASS
  1
HATCH
  2
AcDbHatch
  3
AutoCAD 2000
 90
    32768
280
     0
281
     1
  0
CLASS
  1
XRECORD
  2
AcDbXrecord
  3
AutoCAD 2000
 90
    32768
280
     0
281
     0
  0
CLASS
  1
LONG_TRANSACTION
  2
AcDbLongTransaction
  3
AutoCAD 2000
 90
    32768
280
     0
281
     0
  0
CLASS
  1
LWPOLYLINE
  2
AcDbPolyline
  3
AutoCAD 2000
 90
    32768
280
     0
281
     1
  0
CLASS
  1
HATCH
  2
AcDbHatch
  3
AutoCAD 2000
 90
    32768
280
     0
281
     1
  0
CLASS
  1
XRECORD
  2
AcDbXrecord
  3
AutoCAD 2000
 90
    32768
280
     0
281
     0
  0
CLASS
  1
DICTIONARYVAR
  2
AcDbDictionaryVar
  3
AutoCAD 2000
 90
        0
280
     0
281
     0
  0
CLASS
  1
LONG_TRANSACTION
  2
AcDbLongTransaction
  3
AutoCAD 2000
 90
    32768
280
     0
281
     0
  0
CLASS
  1
LWPOLYLINE
  2
AcDbPolyline
  3
AutoCAD 2000
 90
    32768
280
     0
281
     1
  0
CLASS
  1
HATCH
  2
AcDbHatch
  3
AutoCAD 2000
 90
    32768
280
     0
281
     1
  0
CLASS
  1
XRECORD
  2
AcDbXrecord
  3
AutoCAD 2000
 90
    32768
280
     0
281
     0
  0
CLASS
  1
LONG_TRANSACTION
  2
AcDbLongTransaction
  3
AutoCAD 2000
 90
    32768
280
     0
281
     0
  0
CLASS
  1
LWPOLYLINE
  2
AcDbPolyline
  3
AutoCAD 2000
 90
    32768
280
     0
281
     1
  0
CLASS
  1
HATCH
  2
AcDbHatch
  3
AutoCAD 2000
 90
    32768
280
     0
281
     1
  0
CLASS
  1
XRECORD
  2
AcDbXrecord
  3
AutoCAD 2000
 90
    32768
280
     0
281
     0
  0
ENDSEC
  0
SECTION
  2
TABLES
  0
TABLE
  2
VPORT
  5
1D69183389
330
0
100
AcDbSymbolTable
 70
    10
  0
VPORT
  5
1D691833BC
330
1D69183389
100
AcDbSymbolTableRecord
100
AcDbViewportTableRecord
  2
2
 70
     0
 10
0.5
 20
0.0
 11
1.0
 21
1.0
 12
0.9240309999999999
 22
1.052651
 13
0.0
 23
0.0
 14
1.0
 24
1.0
 15
10.0
 25
10.0
 16
0.0
 26
0.0
 36
1.0
 17
0.0
 27
0.0
 37
0.0
 40
2.105302
 41
0.877814
 42
50.0
 43
0.0
 44
0.0
 50
0.0
 51
0.0
 71
     0
 72
   500
 73
     1
 74
     1
 75
     0
 76
     0
 77
     0
 78
     0
281
     0
 65
     1
110
0.0
120
0.0
130
0.0
111
1.0
121
0.0
131
0.0
112
0.0
122
1.0
132
0.0
 79
     0
146
0.0
  0
VPORT
  5
1D691833BD
330
1D69183389
100
AcDbSymbolTableRecord
100
AcDbViewportTableRecord
  2
2
 70
     0
 10
0.0
 20
0.0
 11
0.5
 21
1.0
 12
0.9240309999999999
 22
1.052651
 13
0.0
 23
0.0
 14
1.0
 24
1.0
 15
10.0
 25
10.0
 16
0.0
 26
0.0
 36
1.0
 17
0.0
 27
0.0
 37
0.0
 40
2.105302
 41
0.877814
 42
50.0
 43
0.0
 44
0.0
 50
0.0
 51
0.0
 71
     0
 72
   500
 73
     1
 74
     1
 75
     0
 76
     0
 77
     0
 78
     0
281
     0
 65
     1
110
0.0
120
0.0
130
0.0
111
1.0
121
0.0
131
0.0
112
0.0
122
1.0
132
0.0
 79
     0
146
0.0
  0
VPORT
  5
1D691833BE
330
1D69183389
100
AcDbSymbolTableRecord
100
AcDbViewportTableRecord
  2
3
 70
     0
 10
0.0
 20
0.5
 11
1.0
 21
1.0
 12
2.832169999999998
 22
1.052651
 13
0.0
 23
0.0
 14
1.0
 24
1.0
 15
10.0
 25
10.0
 16
0.0
 26
0.0
 36
1.0
 17
0.0
 27
0.0
 37
0.0
 40
2.105302
 41
3.571429
 42
50.0
 43
0.0
 44
0.0
 50
0.0
 51
0.0
 71
     0
 72
   500
 73
     1
 74
     1
 75
     0
 76
     0
 77
     0
 78
     0
281
     0
 65
     1
110
0.0
120
0.0
130
0.0
111
1.0
121
0.0
131
0.0
112
0.0
122
1.0
132
0.0
 79
     0
146
0.0
  0
VPORT
  5
1D691833BF
330
1D69183389
100
AcDbSymbolTableRecord
100
AcDbViewportTableRecord
  2
3
 70
     0
 10
0.0
 20
0.0
 11
1.0
 21
0.5
 12
2.856741999999998
 22
1.052651
 13
0.0
 23
0.0
 14
1.0
 24
1.0
 15
10.0
 25
10.0
 16
0.0
 26
0.0
 36
1.0
 17
0.0
 27
0.0
 37
0.0
 40
2.105302
 41
3.594770999999998
 42
50.0
 43
0.0
 44
0.0
 50
0.0
 51
0.0
 71
     0
 72
   500
 73
     1
 74
     1
 75
     0
 76
     0
 77
     0
 78
     0
281
     0
 65
     1
110
0.0
120
0.0
130
0.0
111
1.0
121
0.0
131
0.0
112
0.0
122
1.0
132
0.0
 79
     0
146
0.0
  0
VPORT
  5
1D691833C0
330
1D69183389
100
AcDbSymbolTableRecord
100
AcDbViewportTableRecord
  2
4
 70
     0
 10
0.5
 20
0.0
 11
1.0
 21
0.5
 12
2.886858
 22
1.052651
 13
0.0
 23
0.0
 14
1.0
 24
1.0
 15
10.0
 25
10.0
 16
0.0
 26
0.0
 36
1.0
 17
0.0
 27
0.0
 37
0.0
 40
4.275206999999999
 41
1.784314
 42
50.0
 43
0.0
 44
0.0
 50
0.0
 51
0.0
 71
     0
 72
   500
 73
     1
 74
     1
 75
     0
 76
     0
 77
     0
 78
     0
281
     0
 65
     1
110
0.0
120
0.0
130
0.0
111
1.0
121
0.0
131
0.0
112
0.0
122
1.0
132
0.0
 79
     0
146
0.0
  0
VPORT
  5
1D691833C1
330
1D69183389
100
AcDbSymbolTableRecord
100
AcDbViewportTableRecord
  2
4
 70
     0
 10
0.5
 20
0.5
 11
1.0
 21
1.0
 12
2.86209
 22
1.052651
 13
0.0
 23
0.0
 14
1.0
 24
1.0
 15
10.0
 25
10.0
 16
0.0
 26
0.0
 36
1.0
 17
0.0
 27
0.0
 37
0.0
 40
4.275206999999999
 41
1.772726999999999
 42
50.0
 43
0.0
 44
0.0
 50
0.0
 51
0.0
 71
     0
 72
   500
 73
     1
 74
     1
 75
     0
 76
     0
 77
     0
 78
     0
281
     0
 65
     1
110
0.0
120
0.0
130
0.0
111
1.0
121
0.0
131
0.0
112
0.0
122
1.0
132
0.0
 79
     0
146
0.0
  0
VPORT
  5
1D691833C2
330
1D69183389
100
AcDbSymbolTableRecord
100
AcDbViewportTableRecord
  2
4
 70
     0
 10
0.0
 20
0.5
 11
0.5
 21
1.0
 12
2.86209
 22
1.052651
 13
0.0
 23
0.0
 14
1.0
 24
1.0
 15
10.0
 25
10.0
 16
0.0
 26
0.0
 36
1.0
 17
0.0
 27
0.0
 37
0.0
 40
4.275206999999999
 41
1.772726999999999
 42
50.0
 43
0.0
 44
0.0
 50
0.0
 51
0.0
 71
     0
 72
   500
 73
     1
 74
     1
 75
     0
 76
     0
 77
     0
 78
     0
281
     0
 65
     1
110
0.0
120
0.0
130
0.0
111
1.0
121
0.0
131
0.0
112
0.0
122
1.0
132
0.0
 79
     0
146
0.0
  0
VPORT
  5
1D691833C3
330
1D69183389
100
AcDbSymbolTableRecord
100
AcDbViewportTableRecord
  2
4
 70
     0
 10
0.0
 20
0.0
 11
0.5
 21
0.5
 12
2.886858
 22
1.052651
 13
0.0
 23
0.0
 14
1.0
 24
1.0
 15
10.0
 25
10.0
 16
0.0
 26
0.0
 36
1.0
 17
0.0
 27
0.0
 37
0.0
 40
4.275206999999999
 41
1.784314
 42
50.0
 43
0.0
 44
0.0
 50
0.0
 51
0.0
 71
     0
 72
   500
 73
     1
 74
     1
 75
     0
 76
     0
 77
     0
 78
     0
281
     0
 65
     1
110
0.0
120
0.0
130
0.0
111
1.0
121
0.0
131
0.0
112
0.0
122
1.0
132
0.0
 79
     0
146
0.0
  0
VPORT
  5
1D69184144
330
1D69183389
100
AcDbSymbolTableRecord
100
AcDbViewportTableRecord
  2
*Active
 70
     0
 10
0.0
 20
0.0
 11
1.0
 21
1.0
 12
181.0000000282982
 22
136.5000006577876
 13
0.0
 23
0.0
 14
1.0
 24
1.0
 15
10.0
 25
10.0
 16
0.0
 26
0.0
 36
1.0
 17
0.0
 27
0.0
 37
0.0
 40
275.0636639594564
 41
1.537897310513447
 42
50.0
 43
0.0
 44
0.0
 50
0.0
 51
0.0
 71
     0
 72
   500
 73
     1
 74
     0
 75
     0
 76
     0
 77
     0
 78
     0
281
     0
 65
     1
110
0.0
120
0.0
130
0.0
111
1.0
121
0.0
131
0.0
112
0.0
122
1.0
132
0.0
 79
     0
146
0.0
  0
ENDTAB
  0
TABLE
  2
LTYPE
  5
1D69183386
330
0
100
AcDbSymbolTable
 70
     2
  0
LTYPE
  5
1D69183393
330
1D69183386
100
AcDbSymbolTableRecord
100
AcDbLinetypeTableRecord
  2
BYBLOCK
 70
     0
  3

 72
    65
 73
     0
 40
0.0
  0
LTYPE
  5
1D69183394
330
1D69183386
100
AcDbSymbolTableRecord
100
AcDbLinetypeTableRecord
  2
BYLAYER
 70
     0
  3

 72
    65
 73
     0
 40
0.0
  0
LTYPE
  5
1D69183395
330
1D69183386
100
AcDbSymbolTableRecord
100
AcDbLinetypeTableRecord
  2
CONTINUOUS
 70
     0
  3
実線
 72
    65
 73
     0
 40
0.0
  0
LTYPE
  5
1D691833BA
330
1D69183386
100
AcDbSymbolTableRecord
100
AcDbLinetypeTableRecord
  2
PHANTOM
 70
     0
  3
_____ _ _ _____ _ _ _____ _ _ _____ _ _ ____
 72
    65
 73
     6
 40
2.5
 49
1.25
 74
     0
 49
-0.25
 74
     0
 49
0.25
 74
     0
 49
-0.25
 74
     0
 49
0.25
 74
     0
 49
-0.25
 74
     0
  0
ENDTAB
  0
TABLE
  2
LAYER
  5
1D69183383
102
{ACAD_XDICTIONARY
360
1D69183E05
102
}
330
0
100
AcDbSymbolTable
 70
     8
  0
LAYER
  5
1D69183390
330
1D69183383
100
AcDbSymbolTableRecord
100
AcDbLayerTableRecord
  2
0
 70
     0
 62
     7
  6
CONTINUOUS
370
    -3
390
1D691837E5
  0
LAYER
  5
1D691833C9
330
1D69183383
100
AcDbSymbolTableRecord
100
AcDbLayerTableRecord
  2
NITEN
 70
     0
 62
     2
  6
PHANTOM
370
    -3
390
1D691837E5
  0
LAYER
  5
1D691833CA
330
1D69183383
100
AcDbSymbolTableRecord
100
AcDbLayerTableRecord
  2
HATCH
 70
     0
 62
     4
  6
CONTINUOUS
370
    -3
390
1D691837E5
  0
LAYER
  5
1D691833CB
330
1D69183383
100
AcDbSymbolTableRecord
100
AcDbLayerTableRecord
  2
SUNPOU
 70
     0
 62
     3
  6
CONTINUOUS
370
    -3
390
1D691837E5
  0
LAYER
  5
1D691833CC
330
1D69183383
100
AcDbSymbolTableRecord
100
AcDbLayerTableRecord
  2
TEXT
 70
     0
 62
     3
  6
CONTINUOUS
370
    -3
390
1D691837E5
  0
LAYER
  5
1D691833CD
330
1D69183383
100
AcDbSymbolTableRecord
100
AcDbLayerTableRecord
  2
SAISEN
 70
     0
 62
     4
  6
CONTINUOUS
370
    -3
390
1D691837E5
  0
LAYER
  5
1D691833CE
330
1D69183383
100
AcDbSymbolTableRecord
100
AcDbLayerTableRecord
  2
JISSEN
 70
     0
 62
     7
  6
CONTINUOUS
370
    -3
390
1D691837E5
  0
LAYER
  5
1D691833D2
330
1D69183383
100
AcDbSymbolTableRecord
100
AcDbLayerTableRecord
  2
WAKU
 70
     0
 62
     5
  6
CONTINUOUS
370
    -3
390
1D691837E5
  0
ENDTAB
  0
TABLE
  2
STYLE
  5
1D69183384
330
0
100
AcDbSymbolTable
 70
     3
  0
STYLE
  5
1D69183391
330
1D69183384
100
AcDbSymbolTableRecord
100
AcDbTextStyleTableRecord
  2
STANDARD
 70
     0
 40
0.0
 41
1.0
 50
0.0
 71
     0
 42
0.2
  3
ROMANS
  4
EXTFONT
  0
STYLE
  5
1D691833B3
330
1D69183384
100
AcDbSymbolTableRecord
100
AcDbTextStyleTableRecord
  2
K
 70
     0
 40
0.0
 41
1.0
 50
0.0
 71
     0
 42
1.5
  3
ROMANS.shx
  4
bigfont.shx
  0
STYLE
  5
1D691833B5
330
1D69183384
100
AcDbSymbolTableRecord
100
AcDbTextStyleTableRecord
  2
BIGFONT
 70
     0
 40
0.0
 41
1.0
 50
0.0
 71
     0
 42
1.5
  3
txt.shx
  4
bigfont
  0
ENDTAB
  0
TABLE
  2
VIEW
  5
1D69183387
330
0
100
AcDbSymbolTable
 70
     0
  0
ENDTAB
  0
TABLE
  2
UCS
  5
1D69183388
330
0
100
AcDbSymbolTable
 70
     0
  0
ENDTAB
  0
TABLE
  2
APPID
  5
1D6918338A
330
0
100
AcDbSymbolTable
 70
     1
  0
APPID
  5
1D69183392
330
1D6918338A
100
AcDbSymbolTableRecord
100
AcDbRegAppTableRecord
  2
ACAD
 70
     0
  0
ENDTAB
  0
TABLE
  2
DIMSTYLE
  5
1D6918338B
330
0
100
AcDbSymbolTable
 70
     1
100
AcDbDimStyleTable
 71
     0
  0
DIMSTYLE
105
1D691833C6
330
1D6918338B
100
AcDbSymbolTableRecord
100
AcDbDimStyleTableRecord
  2
IMAO
 70
     0
 41
1.5
 42
1.0
 43
6.0
 44
1.0
 47
495.0
 73
     0
 74
     0
 77
     1
 78
     8
140
3.0
141
0.0
172
     1
174
     1
271
     2
272
     2
284
     8
285
     8
286
     8
340
1D691833B5
341
1D691833A3
342
1D691833A3
343
1D691833A3
344
1D691833A3
  0
ENDTAB
  0
TABLE
  2
BLOCK_RECORD
  5
1D69183382
330
0
100
AcDbSymbolTable
 70
     3
  0
BLOCK_RECORD
  5
1D69183399
102
{ACAD_XDICTIONARY
360
1D69183A5C
102
}
330
1D69183382
100
AcDbSymbolTableRecord
100
AcDbBlockTableRecord
  2
*MODEL_SPACE
340
1D69184138
  0
BLOCK_RECORD
  5
1D69183396
102
{ACAD_XDICTIONARY
360
1D69183A5A
102
}
330
1D69183382
100
AcDbSymbolTableRecord
100
AcDbBlockTableRecord
  2
*PAPER_SPACE
340
1D69184139
  0
BLOCK_RECORD
  5
1D691833A3
330
1D69183382
100
AcDbSymbolTableRecord
100
AcDbBlockTableRecord
  2
ARROWANG
340
0
  0
BLOCK_RECORD
  5
1D691837EF
330
1D69183382
100
AcDbSymbolTableRecord
100
AcDbBlockTableRecord
  2
ARROW
340
0
102
{BLKREFS
331
1D6918391D
331
1D6918392A
102
}
  0
BLOCK_RECORD
  5
1D69183DF1
330
1D69183382
100
AcDbSymbolTableRecord
100
AcDbBlockTableRecord
  2
*X2
340
0
102
{BLKREFS
331
1D6918401F
331
1D69184024
102
}
  0
ENDTAB
  0
ENDSEC
  0
SECTION
  2
BLOCKS
  0
BLOCK
  5
1D691833D6
330
1D69183399
100
AcDbEntity
  8
0
100
AcDbBlockBegin
  2
*MODEL_SPACE
 70
     0
 10
0.0
 20
0.0
 30
0.0
  3
*MODEL_SPACE
  1

  0
ENDBLK
  5
1D691833D7
330
1D69183399
100
AcDbEntity
  8
0
100
AcDbBlockEnd
  0
BLOCK
  5
1D691833D4
330
1D69183396
100
AcDbEntity
 67
     1
  8
0
100
AcDbBlockBegin
  2
*PAPER_SPACE
 70
     0
 10
0.0
 20
0.0
 30
0.0
  3
*PAPER_SPACE
  1

  0
ENDBLK
  5
1D691833D5
330
1D69183396
100
AcDbEntity
 67
     1
  8
0
100
AcDbBlockEnd
  0
BLOCK
  5
1D
330
1D691833A3
100
AcDbEntity
  8
0
100
AcDbBlockBegin
  2
ARROWANG
 70
     0
 10
0.0
 20
0.0
 30
0.0
  3
ARROWANG
  1

  0
LINE
  5
1E
330
1D691833A3
100
AcDbEntity
  8
SUNPOU
100
AcDbLine
 10
0.0
 20
0.0
 30
0.0
 11
-1.5
 21
0.401924
 31
0.0
  0
LINE
  5
1F
330
1D691833A3
100
AcDbEntity
  8
SUNPOU
100
AcDbLine
 10
0.0
 20
0.0
 30
0.0
 11
-1.5
 21
-0.401924
 31
0.0
  0
ENDBLK
  5
20
330
1D691833A3
100
AcDbEntity
  8
0
100
AcDbBlockEnd
  0
BLOCK
  5
1D691837F3
330
1D691837EF
100
AcDbEntity
  8
0
100
AcDbBlockBegin
  2
ARROW
 70
     0
 10
1.0
 20
0.5
 30
0.0
  3
ARROW
  1

  0
LINE
  5
1D691837F0
330
1D691837EF
100
AcDbEntity
  8
0
100
AcDbLine
 10
1.0
 20
0.5
 30
0.0
 11
-0.5000000000000214
 21
0.0980762113533018
 31
0.0
  0
LINE
  5
1D691837F1
330
1D691837EF
100
AcDbEntity
  8
0
100
AcDbLine
 10
0.0
 20
0.5
 30
0.0
 11
1.0
 21
0.5
 31
0.0
  0
LINE
  5
1D691837F2
330
1D691837EF
100
AcDbEntity
  8
0
100
AcDbLine
 10
1.0
 20
0.5
 30
0.0
 11
-0.4999999999999575
 21
0.9019237886467408
 31
0.0
  0
ENDBLK
  5
1D691837F4
330
1D691837EF
100
AcDbEntity
  8
0
100
AcDbBlockEnd
  0
BLOCK
  5
1D69183E03
330
1D69183DF1
100
AcDbEntity
  8
0
100
AcDbBlockBegin
  2
*X2
 70
     1
 10
0.0
 20
0.0
 30
0.0
  3
*X2
  1

  0
LINE
  5
1D69183DF2
330
1D69183DF1
100
AcDbEntity
  8
0
 62
     0
100
AcDbLine
 10
42.91207191918546
 20
139.0785941605559
 30
0.0
 11
47.91207191918545
 21
144.0785941605559
 31
0.0
  0
LINE
  5
1D69183DF3
330
1D69183DF1
100
AcDbEntity
  8
0
 62
     0
100
AcDbLine
 10
40.08364479443928
 20
139.0785941605559
 30
0.0
 11
45.08364479443929
 21
144.0785941605559
 31
0.0
  0
LINE
  5
1D69183DF4
330
1D69183DF1
100
AcDbEntity
  8
0
 62
     0
100
AcDbLine
 10
37.25521766969309
 20
139.0785941605559
 30
0.0
 11
42.25521766969309
 21
144.0785941605559
 31
0.0
  0
LINE
  5
1D69183DF5
330
1D69183DF1
100
AcDbEntity
  8
0
 62
     0
100
AcDbLine
 10
34.42679054494689
 20
139.0785941605559
 30
0.0
 11
39.42679054494689
 21
144.0785941605559
 31
0.0
  0
LINE
  5
1D69183DF6
330
1D69183DF1
100
AcDbEntity
  8
0
 62
     0
100
AcDbLine
 10
31.59836342020071
 20
139.0785941605559
 30
0.0
 11
36.59836342020072
 21
144.0785941605559
 31
0.0
  0
LINE
  5
1D69183DF7
330
1D69183DF1
100
AcDbEntity
  8
0
 62
     0
100
AcDbLine
 10
28.76993629545451
 20
139.0785941605559
 30
0.0
 11
33.76993629545452
 21
144.0785941605559
 31
0.0
  0
LINE
  5
1D69183DF8
330
1D69183DF1
100
AcDbEntity
  8
0
 62
     0
100
AcDbLine
 10
25.94150917070832
 20
139.0785941605559
 30
0.0
 11
30.94150917070832
 21
144.0785941605559
 31
0.0
  0
LINE
  5
1D69183DF9
330
1D69183DF1
100
AcDbEntity
  8
0
 62
     0
100
AcDbLine
 10
24.20506654826371
 20
140.1705786628574
 30
0.0
 11
28.11308204596214
 21
144.0785941605559
 31
0.0
  0
LINE
  5
1D69183DFA
330
1D69183DF1
100
AcDbEntity
  8
0
 62
     0
100
AcDbLine
 10
22.72841915269601
 20
141.522358392036
 30
0.0
 11
25.28465492121595
 21
144.0785941605559
 31
0.0
  0
LINE
  5
1D69183DFB
330
1D69183DF1
100
AcDbEntity
  8
0
 62
     0
100
AcDbLine
 10
21.47523861350567
 20
143.0976049775918
 30
0.0
 11
22.45622779646976
 21
144.0785941605559
 31
0.0
  0
LINE
  5
1D69183DFC
330
1D69183DF1
100
AcDbEntity
  8
0
 62
     0
100
AcDbLine
 10
45.74049904393166
 20
139.0785941605559
 30
0.0
 11
50.74049904393167
 21
144.0785941605559
 31
0.0
  0
LINE
  5
1D69183DFD
330
1D69183DF1
100
AcDbEntity
  8
0
 62
     0
100
AcDbLine
 10
48.56892616867785
 20
139.0785941605559
 30
0.0
 11
53.56892616867786
 21
144.0785941605559
 31
0.0
  0
LINE
  5
1D69183DFE
330
1D69183DF1
100
AcDbEntity
  8
0
 62
     0
100
AcDbLine
 10
51.39735329342403
 20
139.0785941605559
 30
0.0
 11
56.39735329342404
 21
144.0785941605559
 31
0.0
  0
LINE
  5
1D69183DFF
330
1D69183DF1
100
AcDbEntity
  8
0
 62
     0
100
AcDbLine
 10
54.22578041817022
 20
139.0785941605559
 30
0.0
 11
59.22578041817022
 21
144.0785941605559
 31
0.0
  0
LINE
  5
1D69183E00
330
1D69183DF1
100
AcDbEntity
  8
0
 62
     0
100
AcDbLine
 10
57.0542075429164
 20
139.0785941605559
 30
0.0
 11
62.05420754291642
 21
144.0785941605559
 31
0.0
  0
LINE
  5
1D69183E01
330
1D69183DF1
100
AcDbEntity
  8
0
 62
     0
100
AcDbLine
 10
59.8826346676626
 20
139.0785941605559
 30
0.0
 11
64.88263466766261
 21
144.0785941605559
 31
0.0
  0
LINE
  5
1D69183E02
330
1D69183DF1
100
AcDbEntity
  8
0
 62
     0
100
AcDbLine
 10
62.71106179240879
 20
139.0785941605559
 30
0.0
 11
65.0
 21
141.3675323681469
 31
0.0
  0
ENDBLK
  5
1D69183E04
330
1D69183DF1
100
AcDbEntity
  8
0
100
AcDbBlockEnd
  0
ENDSEC
  0
SECTION
  2
ENTITIES
  0
TEXT
  5
9255532
330
1D69183399
100
AcDbEntity
  8
TEXT
100
AcDbText
 10
137.642856142857
 20
262.5
 30
0.0
 40
3.0
  1
PBT
  7
K
 72
     4
 11
141.9999989999999
 21
264.0
 31
0.0
100
AcDbText
  0
TEXT
  5
9255533
330
1D69183399
100
AcDbEntity
  8
TEXT
100
AcDbText
 10
156.7857132857142
 20
262.5
 30
0.0
 40
3.0
  1
1
  7
K
 72
     4
 11
157.999999
 21
264.0
 31
0.0
100
AcDbText
  0
LINE
  5
9255535
330
1D69183399
100
AcDbEntity
  8
JISSEN
100
AcDbLine
 10
91.499999
 20
267.0
 30
0.0
 11
180.999999
 21
267.0
 31
0.0
  0
LINE
  5
9255536
330
1D69183399
100
AcDbEntity
  8
JISSEN
100
AcDbLine
 10
91.499999
 20
261.0
 30
0.0
 11
180.999999
 21
261.0
 31
0.0
  0
TEXT
  5
9255537
330
1D69183399
100
AcDbEntity
  8
TEXT
100
AcDbText
 10
107.899999
 20
268.5
 30
0.0
 40
3.0
  1
名      称
  7
K
 72
     4
 11
116.499999
 21
270.0
 31
0.0
100
AcDbText
  0
TEXT
  5
9255538
330
1D69183399
100
AcDbEntity
  8
TEXT
100
AcDbText
 10
93.299999
 20
268.5
 30
0.0
 40
3.0
  1
番号
  7
K
 72
     4
 11
96.499999
 21
270.0
 31
0.0
100
AcDbText
  0
LINE
  5
9255539
330
1D69183399
100
AcDbEntity
  8
JISSEN
100
AcDbLine
 10
91.499999
 20
261.0
 30
0.0
 11
91.499999
 21
273.0
 31
0.0
  0
LINE
  5
925553A
330
1D69183399
100
AcDbEntity
  8
JISSEN
100
AcDbLine
 10
101.4999989999999
 20
273.0
 30
0.0
 11
101.4999989999999
 21
261.0
 31
0.0
  0
TEXT
  5
925553B
330
1D69183399
100
AcDbEntity
  8
TEXT
100
AcDbText
 10
135.1999989999999
 20
268.5
 30
0.0
 40
3.0
  1
材    質
  7
K
 72
     4
 11
141.9999989999999
 21
270.0
 31
0.0
100
AcDbText
  0
LINE
  5
925553C
330
1D69183399
100
AcDbEntity
  8
JISSEN
100
AcDbLine
 10
131.499999
 20
273.0
 30
0.0
 11
131.499999
 21
261.0
 31
0.0
  0
LINE
  5
925553D
330
1D69183399
100
AcDbEntity
  8
JISSEN
100
AcDbLine
 10
152.4999989999999
 20
261.0
 30
0.0
 11
152.4999989999999
 21
273.0
 31
0.0
  0
TEXT
  5
925553E
330
1D69183399
100
AcDbEntity
  8
TEXT
100
AcDbText
 10
165.6999989999999
 20
268.5
 30
0.0
 40
3.0
  1
備    考
  7
K
 72
     4
 11
172.499999
 21
270.0
 31
0.0
100
AcDbText
  0
TEXT
  5
925553F
330
1D69183399
100
AcDbEntity
  8
TEXT
100
AcDbText
 10
154.799999
 20
268.5
 30
0.0
 40
3.0
  1
個数
  7
K
 72
     4
 11
157.999999
 21
270.0
 31
0.0
100
AcDbText
  0
LINE
  5
9255540
330
1D69183399
100
AcDbEntity
  8
JISSEN
100
AcDbLine
 10
163.499999
 20
273.0
 30
0.0
 11
163.499999
 21
261.0
 31
0.0
  0
LWPOLYLINE
  5
1D691837CF
330
1D69183399
100
AcDbEntity
  8
WAKU
100
AcDbPolyline
 90
        4
 70
     1
 43
0.0
 10
0.0
 20
0.0
 10
180.999999
 20
0.0
 10
180.999999
 20
273.0
 10
0.0
 20
273.0
  0
LINE
  5
1D691838B4
330
1D69183399
100
AcDbEntity
  8
JISSEN
100
AcDbLine
 10
272.4999983709023
 20
255.00000004432
 30
0.0
 11
361.9999983709023
 21
255.00000004432
 31
0.0
  0
LINE
  5
1D691838B5
330
1D69183399
100
AcDbEntity
  8
JISSEN
100
AcDbLine
 10
272.4999983709023
 20
261.00000004432
 30
0.0
 11
361.9999983709023
 21
261.00000004432
 31
0.0
  0
LINE
  5
1D691838B6
330
1D69183399
100
AcDbEntity
  8
JISSEN
100
AcDbLine
 10
272.4999983709023
 20
267.00000004432
 30
0.0
 11
361.9999983709023
 21
267.00000004432
 31
0.0
  0
LINE
  5
1D691838B7
330
1D69183399
100
AcDbEntity
  8
SUNPOU
100
AcDbLine
 10
292.7950040700242
 20
140.2919758107902
 30
0.0
 11
306.0629153093267
 21
113.3876897066165
 31
0.0
  0
CIRCLE
  5
1D691838E8
330
1D69183399
100
AcDbEntity
  8
SUNPOU
100
AcDbCircle
 10
308.716677312263
 20
108.0064679836459
 30
0.0
 40
6.0
  0
TEXT
  5
1D691838FF
330
1D69183399
100
AcDbEntity
  8
SUNPOU
100
AcDbText
 10
251.8952487408343
 20
105.7564679836458
 30
0.0
 40
4.5
  1
1
  7
K
 72
     4
 11
253.7166773122629
 21
108.0064679836459
 31
0.0
100
AcDbText
  0
CIRCLE
  5
1D69183900
330
1D69183399
100
AcDbEntity
  8
SUNPOU
100
AcDbCircle
 10
253.7166773122629
 20
108.0064679836459
 30
0.0
 40
6.0
  0
TEXT
  5
1D69183903
330
1D69183399
100
AcDbEntity
  8
SUNPOU
100
AcDbText
 10
306.5738201694058
 20
105.7564679836458
 30
0.0
 40
4.5
  1
2
  7
K
 72
     4
 11
308.716677312263
 21
108.0064679836459
 31
0.0
100
AcDbText
  0
INSERT
  5
1D6918391D
330
1D69183399
100
AcDbEntity
  8
SUNPOU
100
AcDbBlockReference
  2
ARROW
 10
266.0372302649859
 20
132.9036618003525
 30
0.0
 41
1.499999999999995
 42
1.5
 43
1.5
 50
63.67116692485383
  0
INSERT
  5
1D6918392A
330
1D69183399
100
AcDbEntity
  8
SUNPOU
100
AcDbBlockReference
  2
ARROW
 10
292.7950040700248
 20
140.2919758107898
 30
0.0
 41
1.499999999999998
 42
1.5
 43
1.5
 50
116.2503179468657
  0
TEXT
  5
1D6918393C
330
1D69183399
100
AcDbEntity
  8
TEXT
100
AcDbText
 10
286.8285697994737
 20
262.50000004432
 30
0.0
 40
3.0
  1
VZF型ヘッド
  7
K
 72
     4
 11
297.4999983709023
 21
264.00000004432
 31
0.0
100
AcDbText
  0
TEXT
  5
1D6918393D
330
1D69183399
100
AcDbEntity
  8
TEXT
100
AcDbText
 10
288.8999983709023
 20
268.50000004432
 30
0.0
 40
3.0
  1
名      称
  7
K
 72
     4
 11
297.4999983709023
 21
270.00000004432
 31
0.0
100
AcDbText
  0
LINE
  5
1D6918393E
330
1D69183399
100
AcDbEntity
  8
TEXT
100
AcDbLine
 10
116.7085149569792
 20
265.5007424338287
 30
0.0
 11
116.7085149569792
 21
262.5007424338288
 31
0.0
  0
LINE
  5
1D6918393F
330
1D69183399
100
AcDbEntity
  8
TEXT
100
AcDbLine
 10
115.8085149569793
 20
265.5007424338287
 30
0.0
 11
115.8085149569793
 21
262.5007424338288
 31
0.0
  0
TEXT
  5
1D69183940
330
1D69183399
100
AcDbEntity
  8
TEXT
100
AcDbText
 10
276.2857126566166
 20
262.50000004432
 30
0.0
 40
3.0
  1
1
  7
K
 72
     4
 11
277.4999983709023
 21
264.00000004432
 31
0.0
100
AcDbText
  0
LINE
  5
1D69183941
330
1D69183399
100
AcDbEntity
  8
JISSEN
100
AcDbLine
 10
282.4999983709023
 20
273.0000000443201
 30
0.0
 11
282.4999983709023
 21
255.00000004432
 31
0.0
  0
LINE
  5
1D69183942
330
1D69183399
100
AcDbEntity
  8
JISSEN
100
AcDbLine
 10
272.4999983709023
 20
255.00000004432
 30
0.0
 11
272.4999983709023
 21
273.0000000443201
 31
0.0
  0
TEXT
  5
1D69183943
330
1D69183399
100
AcDbEntity
  8
TEXT
100
AcDbText
 10
276.3830707764365
 20
256.50000004432
 30
0.0
 40
3.0
  1
2
  7
K
 72
     4
 11
277.811642205008
 21
258.00000004432
 31
0.0
100
AcDbText
  0
LINE
  5
1D69183945
330
1D69183399
100
AcDbEntity
  8
TEXT
100
AcDbLine
 10
115.3585149569792
 20
262.5007424338288
 30
0.0
 11
117.1585149569792
 21
262.5007424338288
 31
0.0
  0
TEXT
  5
1D69183946
330
1D69183399
100
AcDbEntity
  8
TEXT
100
AcDbText
 10
274.2999983709023
 20
268.50000004432
 30
0.0
 40
3.0
  1
番号
  7
K
 72
     4
 11
277.4999983709023
 21
270.00000004432
 31
0.0
100
AcDbText
  0
LINE
  5
1D69183947
330
1D69183399
100
AcDbEntity
  8
TEXT
100
AcDbLine
 10
115.3585149569792
 20
265.5007424338287
 30
0.0
 11
117.1585149569792
 21
265.5007424338287
 31
0.0
  0
TEXT
  5
1D69183948
330
1D69183399
100
AcDbEntity
  8
TEXT
100
AcDbText
 10
337.6795468573116
 20
262.50000004432
 30
0.0
 40
3.0
  1
1
  7
K
 72
     4
 11
338.8938325715973
 21
264.00000004432
 31
0.0
100
AcDbText
  0
LINE
  5
1D69183949
330
1D69183399
100
AcDbEntity
  8
JISSEN
100
AcDbLine
 10
344.4999983709023
 20
273.0000000443201
 30
0.0
 11
344.4999983709021
 21
255.00000004432
 31
0.0
  0
LINE
  5
1D6918394A
330
1D69183399
100
AcDbEntity
  8
JISSEN
100
AcDbLine
 10
333.4999983709021
 20
255.00000004432
 30
0.0
 11
333.4999983709023
 21
273.0000000443201
 31
0.0
  0
LINE
  5
1D6918394B
330
1D69183399
100
AcDbEntity
  8
JISSEN
100
AcDbLine
 10
312.4999983709023
 20
273.0000000443201
 30
0.0
 11
312.4999983709021
 21
255.00000004432
 31
0.0
  0
TEXT
  5
1D6918394C
330
1D69183399
100
AcDbEntity
  8
TEXT
100
AcDbText
 10
318.6428555137593
 20
256.50000004432
 30
0.0
 40
3.0
  1
PBT
  7
K
 72
     4
 11
322.9999983709021
 21
258.00000004432
 31
0.0
100
AcDbText
  0
TEXT
  5
1D6918394D
330
1D69183399
100
AcDbEntity
  8
TEXT
100
AcDbText
 10
317.8249983709021
 20
264.30000004432
 30
0.0
 40
3.0
  1
%%u      
  7
K
 72
     4
 11
322.9999983709021
 21
264.00000004432
 31
0.0
100
AcDbText
  0
TEXT
  5
1D6918394E
330
1D69183399
100
AcDbEntity
  8
TEXT
100
AcDbText
 10
337.6795468573116
 20
256.5808352206611
 30
0.0
 40
3.0
  1
1
  7
K
 72
     4
 11
338.8938325715973
 21
258.0808352206612
 31
0.0
100
AcDbText
  0
TEXT
  5
1D6918394F
330
1D69183399
100
AcDbEntity
  8
TEXT
100
AcDbText
 10
316.1999983709023
 20
268.50000004432
 30
0.0
 40
3.0
  1
材    質
  7
K
 72
     4
 11
322.9999983709023
 21
270.00000004432
 31
0.0
100
AcDbText
  0
TEXT
  5
1D69183950
330
1D69183399
100
AcDbEntity
  8
TEXT
100
AcDbText
 10
346.6999983709023
 20
268.50000004432
 30
0.0
 40
3.0
  1
備    考
  7
K
 72
     4
 11
353.4999983709023
 21
270.00000004432
 31
0.0
100
AcDbText
  0
TEXT
  5
1D69183951
330
1D69183399
100
AcDbEntity
  8
TEXT
100
AcDbText
 10
335.7999983709023
 20
268.50000004432
 30
0.0
 40
3.0
  1
個数
  7
K
 72
     4
 11
338.9999983709023
 21
270.00000004432
 31
0.0
100
AcDbText
  0
LWPOLYLINE
  5
1D69183952
330
1D69183399
100
AcDbEntity
  8
WAKU
100
AcDbPolyline
 90
        4
 70
     1
 43
0.0
 10
180.999999
 20
0.0
 10
361.999998
 20
0.0
 10
361.999998
 20
273.0
 10
180.999999
 20
273.0
  0
LINE
  5
1D691839FB
330
1D69183399
100
AcDbEntity
  8
SUNPOU
100
AcDbLine
 10
266.0372302649859
 20
132.9036618003525
 30
0.0
 11
256.3778109649463
 21
113.3840480790565
 31
0.0
  0
TEXT
  5
1D69183A35
330
1D69183399
100
AcDbEntity
  8
TEXT
100
AcDbText
 10
102.2392847142856
 20
262.5
 30
0.0
 40
3.0
  1
ガードZN  -20mm
 41
0.75
  7
K
 72
     4
 11
116.499999
 21
264.0
 31
0.0
100
AcDbText
  0
LINE
  5
1D69183DE8
330
1D69183399
100
AcDbEntity
  8
SUNPOU
100
AcDbLine
 10
116.2585149569792
 20
265.5007424338287
 30
0.0
 11
116.2585149569792
 21
262.5007424338288
 31
0.0
  0
LWPOLYLINE
  5
1D69183F4C
330
1D69183399
100
AcDbEntity
  8
JISSEN
100
AcDbPolyline
 90
        5
 70
     0
 43
0.0
 10
256.9999990949036
 20
139.0785942048759
 10
256.9999990949036
 20
136.4061659393918
 42
0.3813056827265855
 10
259.6597929093366
 20
133.4255184004664
 42
0.0206555680720094
 10
267.8968959917996
 20
132.8285942048762
 10
269.4999990949022
 20
132.8285942048762
  0
LWPOLYLINE
  5
1D69183F4D
330
1D69183399
100
AcDbEntity
  8
JISSEN
100
AcDbPolyline
 90
        5
 70
     0
 43
0.0
 10
284.9999990949035
 20
139.0785942048759
 10
284.9999990949035
 20
136.4061659393918
 42
-0.3813056827265855
 10
282.3402052804705
 20
133.4255184004664
 42
-0.0206555680720094
 10
274.1031021980075
 20
132.8285942048762
 10
272.4999990949021
 20
132.8285942048762
  0
LINE
  5
1D69183F4E
330
1D69183399
100
AcDbEntity
  8
JISSEN
100
AcDbLine
 10
205.7240931392068
 20
164.078594204876
 30
0.0
 11
336.2759050505979
 21
164.078594204876
 31
0.0
  0
LINE
  5
1D69183F76
330
1D69183399
100
AcDbEntity
  8
SUNPOU
100
AcDbLine
 10
156.2821127336587
 20
10.84292512777993
 30
0.0
 11
156.2821127336587
 21
7.842925127779948
 31
0.0
  0
LINE
  5
1D69183F77
330
1D69183399
100
AcDbEntity
  8
TEXT
100
AcDbLine
 10
155.3821127336589
 20
10.84292512777993
 30
0.0
 11
157.1821127336586
 21
10.84292512777993
 31
0.0
  0
LINE
  5
1D69183F78
330
1D69183399
100
AcDbEntity
  8
TEXT
100
AcDbLine
 10
155.3821127336589
 20
7.842925127779948
 30
0.0
 11
157.1821127336586
 21
7.842925127779948
 31
0.0
  0
LINE
  5
1D69183F79
330
1D69183399
100
AcDbEntity
  8
TEXT
100
AcDbLine
 10
156.7321127336588
 20
10.84292512777993
 30
0.0
 11
156.7321127336588
 21
7.842925127779948
 31
0.0
  0
LINE
  5
1D69183F7A
330
1D69183399
100
AcDbEntity
  8
TEXT
100
AcDbLine
 10
155.8321127336587
 20
10.84292512777993
 30
0.0
 11
155.8321127336587
 21
7.842925127779948
 31
0.0
  0
LINE
  5
1D69183F7B
330
1D69183399
100
AcDbEntity
  8
TEXT
100
AcDbLine
 10
288.1393230286978
 20
10.84292512777993
 30
0.0
 11
288.1393230286978
 21
7.842925127779948
 31
0.0
  0
LINE
  5
1D69183F7C
330
1D69183399
100
AcDbEntity
  8
TEXT
100
AcDbLine
 10
289.0393230286978
 20
10.84292512777993
 30
0.0
 11
289.0393230286978
 21
7.842925127779948
 31
0.0
  0
LINE
  5
1D69183F7D
330
1D69183399
100
AcDbEntity
  8
TEXT
100
AcDbLine
 10
287.689323028698
 20
7.842925127779948
 30
0.0
 11
289.4893230286978
 21
7.842925127779948
 31
0.0
  0
LINE
  5
1D69183F7E
330
1D69183399
100
AcDbEntity
  8
TEXT
100
AcDbLine
 10
287.689323028698
 20
10.84292512777993
 30
0.0
 11
289.4893230286978
 21
10.84292512777993
 31
0.0
  0
LINE
  5
1D69183F7F
330
1D69183399
100
AcDbEntity
  8
SUNPOU
100
AcDbLine
 10
288.5893230286979
 20
10.84292512777993
 30
0.0
 11
288.5893230286979
 21
7.842925127779948
 31
0.0
  0
LINE
  5
1D69183F80
330
1D69183399
100
AcDbEntity
  8
JISSEN
100
AcDbLine
 10
62.59102522604644
 20
101.583801335711
 30
0.0
 11
68.30300728876864
 21
101.5838013357122
 31
0.0
  0
ARC
  5
1D69183F81
330
1D69183399
100
AcDbEntity
  8
JISSEN
100
AcDbCircle
 10
69.81174829731845
 20
101.583801335721
 30
0.0
 40
1.5
100
AcDbArc
 50
270.0
 51
359.9999999999218
  0
LINE
  5
1D69183F82
330
1D69183399
100
AcDbEntity
  8
JISSEN
100
AcDbLine
 10
71.31174829731844
 20
101.5838013357182
 30
0.0
 11
72.31534114391706
 21
101.5838013357192
 31
0.0
  0
ARC
  5
1D69183F83
330
1D69183399
100
AcDbEntity
  8
JISSEN
100
AcDbCircle
 10
70.75
 20
100.0838013357132
 30
0.0
 40
1.5
100
AcDbArc
 50
359.9999999999218
 51
68.16576798430684
  0
ELLIPSE
  5
1D69183F84
330
1D69183399
100
AcDbEntity
  8
JISSEN
100
AcDbEllipse
 10
62.59102522604644
 20
100.0838013357113
 30
0.0
 11
-3.286276802032261
 21
0.0
 31
0.0
210
0.0
220
0.0
230
-1.0
 40
0.4564435957043948
 41
6.283185307179585
 42
7.853981633974482
  0
ARC
  5
1D69183F85
330
1D69183399
100
AcDbEntity
  8
JISSEN
100
AcDbCircle
 10
89.50000000000363
 20
100.0838013357068
 30
0.0
 40
18.25
100
AcDbArc
 50
4.441444665114123
 51
41.99999999997274
  0
ELLIPSE
  5
1D69183F86
330
1D69183399
100
AcDbEntity
  8
JISSEN
100
AcDbEllipse
 10
116.4089747739534
 20
100.0838013357113
 30
0.0
 11
3.286276802032261
 21
0.0
 31
0.0
210
0.0
220
0.0
230
1.0
 40
0.4564435957043948
 41
6.283185307179585
 42
7.853981633974482
  0
ARC
  5
1D69183F87
330
1D69183399
100
AcDbEntity
  8
JISSEN
100
AcDbCircle
 10
108.25
 20
100.0838013357132
 30
0.0
 40
1.5
100
AcDbArc
 50
111.834232015693
 51
180.000000000078
  0
LINE
  5
1D69183F88
330
1D69183399
100
AcDbEntity
  8
JISSEN
100
AcDbLine
 10
107.6882517026815
 20
101.5838013357182
 30
0.0
 11
106.6846588560828
 21
101.5838013357192
 31
0.0
  0
LINE
  5
1D69183F89
330
1D69183399
100
AcDbEntity
  8
JISSEN
100
AcDbLine
 10
101.0425029596954
 20
112.9030495751865
 30
0.0
 11
101.7116335660574
 21
113.6461944006649
 31
0.0
  0
LINE
  5
1D69183F8A
330
1D69183399
100
AcDbEntity
  8
JISSEN
100
AcDbLine
 10
102.3192482394915
 20
111.6263042953891
 30
0.0
 11
103.0623930649717
 21
112.2954349017495
 31
0.0
  0
ARC
  5
1D69183F8B
330
1D69183399
100
AcDbEntity
  8
JISSEN
100
AcDbCircle
 10
109.1882517026814
 20
101.583801335721
 30
0.0
 40
1.5
100
AcDbArc
 50
180.000000000078
 51
270.0
  0
ARC
  5
1D69183F8C
330
1D69183399
100
AcDbEntity
  8
JISSEN
100
AcDbCircle
 10
91.0
 20
119.7720530383862
 30
0.0
 40
1.5
100
AcDbArc
 50
180.0000000001041
 51
270.0
  0
ARC
  5
1D69183F8D
330
1D69183399
100
AcDbEntity
  8
JISSEN
100
AcDbCircle
 10
87.9999999999991
 20
119.7720530383834
 30
0.0
 40
1.5
100
AcDbArc
 50
270.0000000001042
 51
0.0
  0
LINE
  5
1D69183F8E
330
1D69183399
100
AcDbEntity
  8
JISSEN
100
AcDbLine
 10
88.0
 20
126.9927761096649
 30
0.0
 11
88.0
 21
121.2807940469373
 31
0.0
  0
LINE
  5
1D69183F8F
330
1D69183399
100
AcDbEntity
  8
JISSEN
100
AcDbLine
 10
90.99531990104788
 20
121.2811247137536
 30
0.0
 11
90.99531990104788
 21
127.2521713517251
 31
0.0
  0
ELLIPSE
  5
1D69183F90
330
1D69183399
100
AcDbEntity
  8
JISSEN
100
AcDbEllipse
 10
89.50000000000001
 20
126.9927761096649
 30
0.0
 11
-0.0000000000000009
 21
3.286276802032261
 31
0.0
210
0.0
220
0.0
230
-1.0
 40
0.4564435957043948
 41
4.712388980384688
 42
7.853981633974482
  0
ARC
  5
1D69183F91
330
1D69183399
100
AcDbEntity
  8
JISSEN
100
AcDbCircle
 10
89.49999999999363
 20
118.8338013357087
 30
0.0
 40
1.5
100
AcDbArc
 50
201.8342320160308
 51
338.1657679841106
  0
LINE
  5
1D69183F92
330
1D69183399
100
AcDbEntity
  8
JISSEN
100
AcDbLine
 10
87.99999999999727
 20
118.2720530383853
 30
0.0
 11
87.99999999999547
 21
117.2684601917875
 31
0.0
  0
LINE
  5
1D69183F93
330
1D69183399
100
AcDbEntity
  8
JISSEN
100
AcDbLine
 10
91.00000000000092
 20
118.2720530383857
 30
0.0
 11
91.00000000000273
 21
117.268460191788
 31
0.0
  0
ARC
  5
1D69183F94
330
1D69183399
100
AcDbEntity
  8
JISSEN
100
AcDbCircle
 10
89.50000000000363
 20
100.0838013357068
 30
0.0
 40
18.25
100
AcDbArc
 50
47.99999999997871
 51
85.28543945913403
  0
LINE
  5
1D69183F95
330
1D69183399
100
AcDbEntity
  8
JISSEN
100
AcDbLine
 10
116.4089747739534
 20
101.583801335711
 30
0.0
 11
110.6969927112313
 21
101.5838013357122
 31
0.0
  0
LINE
  5
1D69183F96
330
1D69183399
100
AcDbEntity
  8
JISSEN
100
AcDbLine
 10
76.68075176050932
 20
111.6263042953832
 30
0.0
 11
75.93760693502919
 21
112.295434901743
 31
0.0
  0
LINE
  5
1D69183F97
330
1D69183399
100
AcDbEntity
  8
JISSEN
100
AcDbLine
 10
77.95749704030459
 20
112.9030495751812
 30
0.0
 11
77.28836643394244
 21
113.646194400659
 31
0.0
  0
ARC
  5
1D69183F98
330
1D69183399
100
AcDbEntity
  8
JISSEN
100
AcDbCircle
 10
89.50000000000272
 20
100.0838013357068
 30
0.0
 40
18.25
100
AcDbArc
 50
138.0000000000709
 51
175.2854394591078
  0
ARC
  5
1D69183F99
330
1D69183399
100
AcDbEntity
  8
JISSEN
100
AcDbCircle
 10
89.50000000000001
 20
100.0838013357113
 30
0.0
 40
15.75
100
AcDbArc
 50
0.0
 51
180.0
  0
ARC
  5
1D69183F9A
330
1D69183399
100
AcDbEntity
  8
JISSEN
 48
10.0
100
AcDbCircle
 10
89.50000000000001
 20
100.0838013357064
 30
0.0
 40
16.75
100
AcDbArc
 50
0.0000000000260691
 51
179.9999999999739
  0
ARC
  5
1D69183F9B
330
1D69183399
100
AcDbEntity
  8
JISSEN
100
AcDbCircle
 10
89.50000000000272
 20
100.0838013357068
 30
0.0
 40
18.25
100
AcDbArc
 50
94.71456054081366
 51
132.0000000000398
  0
ARC
  5
1D69183F9C
330
1D69183399
100
AcDbEntity
  8
JISSEN
 48
10.0
100
AcDbCircle
 10
89.50000000000001
 20
100.0838013357064
 30
0.0
 40
17.25
100
AcDbArc
 50
0.0000000000260691
 51
179.9999999999739
  0
ARC
  5
1D69183F9D
330
1D69183399
100
AcDbEntity
  8
JISSEN
100
AcDbCircle
 10
89.50000000000001
 20
100.083801335706
 30
0.0
 40
21.25
100
AcDbArc
 50
0.0000000000260691
 51
179.9999999999853
  0
ARC
  5
1D69183F9E
330
1D69183399
100
AcDbEntity
  8
JISSEN
100
AcDbCircle
 10
89.50000000000001
 20
100.0838013357113
 30
0.0
 40
15.2500000000009
100
AcDbArc
 50
0.0
 51
180.0
  0
ARC
  5
1D69183F9F
330
1D69183399
100
AcDbEntity
  8
JISSEN
100
AcDbCircle
 10
89.50000000000091
 20
100.0838013357055
 30
0.0
 40
34.0
100
AcDbArc
 50
0.0
 51
180.0
  0
LINE
  5
1D69183FA0
330
1D69183399
100
AcDbEntity
  8
JISSEN
100
AcDbLine
 10
68.34999999999985
 20
179.2188150000033
 30
0.0
 11
68.34999999999985
 21
169.718814999941
 31
0.0
  0
LINE
  5
1D69183FA1
330
1D69183399
100
AcDbEntity
  8
JISSEN
100
AcDbLine
 10
110.65
 20
179.2188150000033
 30
0.0
 11
110.65
 21
169.718814999941
 31
0.0
  0
LINE
  5
1D69183FA3
330
1D69183399
100
AcDbEntity
  8
JISSEN
100
AcDbLine
 10
90.0
 20
222.218815
 30
0.0
 11
90.00000000000001
 21
215.2188150000029
 31
0.0
  0
ELLIPSE
  5
1D69183FA5
330
1D69183399
100
AcDbEntity
  8
JISSEN
100
AcDbEllipse
 10
89.4999999999996
 20
191.022172566394
 30
0.0
 11
0.0
 21
2.6733896743317
 31
0.0
210
0.0
220
0.0
230
-1.0
 40
0.5610854318774398
 41
6.283185307179585
 42
7.853981633974482
  0
ARC
  5
1D69183FA6
330
1D69183399
100
AcDbEntity
  8
JISSEN
 48
3.0
100
AcDbCircle
 10
90.9999999999996
 20
169.7188149999401
 30
0.0
 40
1.49999999999909
100
AcDbArc
 50
90.0
 51
180.0
  0
LINE
  5
1D69183FA7
330
1D69183399
100
AcDbEntity
  8
JISSEN
 48
3.0
100
AcDbLine
 10
91.00000000000051
 20
191.0221725663935
 30
0.0
 11
90.99999999999868
 21
171.2188149999391
 31
0.0
  0
LINE
  5
1D69183FA8
330
1D69183399
100
AcDbEntity
  8
JISSEN
100
AcDbLine
 10
107.7499999999996
 20
222.2188150000028
 30
0.0
 11
107.9999999999996
 21
221.9688150000028
 31
0.0
  0
LINE
  5
1D69183FAA
330
1D69183399
100
AcDbEntity
  8
JISSEN
100
AcDbLine
 10
105.9980467557757
 20
222.2188150000028
 30
0.0
 11
105.9980467557757
 21
215.2188150000029
 31
0.0
  0
LINE
  5
1D69183FAB
330
1D69183399
100
AcDbEntity
  8
JISSEN
100
AcDbLine
 10
104.9980467557757
 20
222.2188150000028
 30
0.0
 11
104.9980467557757
 21
215.2188150000029
 31
0.0
  0
ARC
  5
1D69183FAC
330
1D69183399
100
AcDbEntity
  8
JISSEN
 48
3.0
100
AcDbCircle
 10
107.6500000000019
 20
191.5221725663935
 30
0.0
 40
0.5
100
AcDbArc
 50
270.0
 51
280.2483788343932
  0
LINE
  5
1D69183FAD
330
1D69183399
100
AcDbEntity
  8
JISSEN
100
AcDbLine
 10
107.9999999999994
 20
215.2188150000029
 30
0.0
 11
107.9999999999996
 21
221.9688150000028
 31
0.0
  0
LINE
  5
1D69183FAE
330
1D69183399
100
AcDbEntity
  8
JISSEN
100
AcDbLine
 10
123.5000000000004
 20
194.7151625631603
 30
0.0
 11
123.5
 21
215.2188150000028
 31
0.0
  0
ARC
  5
1D69183FAF
330
1D69183399
100
AcDbEntity
  8
JISSEN
100
AcDbCircle
 10
122.5000000000004
 20
194.7151625631603
 30
0.0
 40
1.0
100
AcDbArc
 50
280.2483788343932
 51
0.000000000000007
  0
LINE
  5
1D69183FB0
330
1D69183399
100
AcDbEntity
  8
JISSEN
 48
3.0
100
AcDbLine
 10
107.738957851146
 20
191.0301497003388
 30
0.0
 11
122.6779157022888
 21
193.731116831053
 31
0.0
  0
LINE
  5
1D69183FB1
330
1D69183399
100
AcDbEntity
  8
JISSEN
100
AcDbLine
 10
107.1499999999983
 20
168.2188149999386
 30
0.0
 11
108.1500000000036
 21
168.2188149999415
 31
0.0
  0
ARC
  5
1D69183FB2
330
1D69183399
100
AcDbEntity
  8
JISSEN
 62
     7
100
AcDbCircle
 10
109.1500000000009
 20
169.718814999941
 30
0.0
 40
1.49999999999909
100
AcDbArc
 50
270.0000000001563
 51
0.0000000008858806
  0
ARC
  5
1D69183FB3
330
1D69183399
100
AcDbEntity
  8
JISSEN
 48
3.0
100
AcDbCircle
 10
109.1500000000009
 20
169.718814999941
 30
0.0
 40
1.49999999999909
100
AcDbArc
 50
0.000000000000007
 51
90.0
  0
LINE
  5
1D69183FB4
330
1D69183399
100
AcDbEntity
  8
JISSEN
100
AcDbLine
 10
106.6500000000019
 20
191.0221725663932
 30
0.0
 11
106.6500000000027
 21
171.2188149999386
 31
0.0
  0
ARC
  5
1D69183FB5
330
1D69183399
100
AcDbEntity
  8
JISSEN
100
AcDbCircle
 10
125.65
 20
179.2188150000033
 30
0.0
 40
15.0
100
AcDbArc
 50
109.3883336172966
 51
180.0
  0
LINE
  5
1D69183FB6
330
1D69183399
100
AcDbEntity
  8
JISSEN
100
AcDbLine
 10
107.6500000000019
 20
191.0221725663935
 30
0.0
 11
91.00000000000051
 21
191.022172566394
 31
0.0
  0
LINE
  5
1D69183FB7
330
1D69183399
100
AcDbEntity
  8
JISSEN
100
AcDbLine
 10
106.65
 20
190.2188149999997
 30
0.0
 11
91.00000000000051
 21
190.2188149999997
 31
0.0
  0
LINE
  5
1D69183FB8
330
1D69183399
100
AcDbEntity
  8
JISSEN
100
AcDbLine
 10
109.1500000000009
 20
168.2188150000029
 30
0.0
 11
89.49999999999977
 21
168.2188150000029
 31
0.0
  0
LINE
  5
1D69183FB9
330
1D69183399
100
AcDbEntity
  8
JISSEN
100
AcDbLine
 10
90.9999999999996
 20
171.2188149999391
 30
0.0
 11
109.1500000000009
 21
171.2188149999391
 31
0.0
  0
LINE
  5
1D69183FBA
330
1D69183399
100
AcDbEntity
  8
JISSEN
100
AcDbLine
 10
107.7499999999996
 20
222.2188150000028
 30
0.0
 11
90.00000000000005
 21
222.2188150000033
 31
0.0
  0
LINE
  5
1D69183FC0
330
1D69183399
100
AcDbEntity
  8
JISSEN
100
AcDbLine
 10
71.25000000000039
 20
222.2188150000028
 30
0.0
 11
88.99999999999996
 21
222.2188150000033
 31
0.0
  0
LINE
  5
1D69183FC1
330
1D69183399
100
AcDbEntity
  8
JISSEN
100
AcDbLine
 10
88.00000000000038
 20
171.2188149999391
 30
0.0
 11
69.84999999999894
 21
171.2188149999391
 31
0.0
  0
LINE
  5
1D69183FC2
330
1D69183399
100
AcDbEntity
  8
JISSEN
100
AcDbLine
 10
69.84999999999894
 20
168.2188150000029
 30
0.0
 11
89.50000000000022
 21
168.2188150000029
 31
0.0
  0
LINE
  5
1D69183FC3
330
1D69183399
100
AcDbEntity
  8
JISSEN
100
AcDbLine
 10
72.34999999999985
 20
190.2188149999997
 30
0.0
 11
87.99999999999949
 21
190.2188149999997
 31
0.0
  0
LINE
  5
1D69183FC4
330
1D69183399
100
AcDbEntity
  8
JISSEN
100
AcDbLine
 10
71.34999999999803
 20
191.0221725663935
 30
0.0
 11
87.99999999999949
 21
191.022172566394
 31
0.0
  0
ARC
  5
1D69183FC5
330
1D69183399
100
AcDbEntity
  8
JISSEN
100
AcDbCircle
 10
53.34999999999984
 20
179.2188150000033
 30
0.0
 40
15.0
100
AcDbArc
 50
0.0
 51
70.61166638270323
  0
LINE
  5
1D69183FC6
330
1D69183399
100
AcDbEntity
  8
JISSEN
100
AcDbLine
 10
72.34999999999804
 20
191.0221725663932
 30
0.0
 11
72.34999999999712
 21
171.2188149999386
 31
0.0
  0
ARC
  5
1D69183FC7
330
1D69183399
100
AcDbEntity
  8
JISSEN
 48
3.0
100
AcDbCircle
 10
69.84999999999894
 20
169.718814999941
 30
0.0
 40
1.49999999999909
100
AcDbArc
 50
90.0
 51
180.0
  0
ARC
  5
1D69183FC8
330
1D69183399
100
AcDbEntity
  8
JISSEN
 62
     7
100
AcDbCircle
 10
69.84999999999894
 20
169.718814999941
 30
0.0
 40
1.49999999999909
100
AcDbArc
 50
179.999999999114
 51
269.9999999998436
  0
LINE
  5
1D69183FC9
330
1D69183399
100
AcDbEntity
  8
JISSEN
100
AcDbLine
 10
71.85000000000167
 20
168.2188149999386
 30
0.0
 11
70.8499999999962
 21
168.2188149999415
 31
0.0
  0
LINE
  5
1D69183FCA
330
1D69183399
100
AcDbEntity
  8
JISSEN
 48
3.0
100
AcDbLine
 10
71.26104214885384
 20
191.0301497003388
 30
0.0
 11
56.32208429771111
 21
193.731116831053
 31
0.0
  0
ARC
  5
1D69183FCB
330
1D69183399
100
AcDbEntity
  8
JISSEN
100
AcDbCircle
 10
56.49999999999947
 20
194.7151625631603
 30
0.0
 40
1.0
100
AcDbArc
 50
180.0
 51
259.7516211656066
  0
LINE
  5
1D69183FCC
330
1D69183399
100
AcDbEntity
  8
JISSEN
100
AcDbLine
 10
55.4999999999995
 20
194.7151625631603
 30
0.0
 11
55.49999999999928
 21
215.2188150000028
 31
0.0
  0
LINE
  5
1D69183FCD
330
1D69183399
100
AcDbEntity
  8
JISSEN
100
AcDbLine
 10
71.00000000000041
 20
215.2188150000029
 30
0.0
 11
71.00000000000041
 21
221.9688150000028
 31
0.0
  0
ARC
  5
1D69183FCE
330
1D69183399
100
AcDbEntity
  8
JISSEN
 48
3.0
100
AcDbCircle
 10
71.34999999999803
 20
191.5221725663935
 30
0.0
 40
0.5
100
AcDbArc
 50
259.7516211656066
 51
270.0
  0
LINE
  5
1D69183FCF
330
1D69183399
100
AcDbEntity
  8
JISSEN
100
AcDbLine
 10
74.00195324422424
 20
222.2188150000028
 30
0.0
 11
74.00195324422424
 21
215.2188150000029
 31
0.0
  0
LINE
  5
1D69183FD0
330
1D69183399
100
AcDbEntity
  8
JISSEN
100
AcDbLine
 10
73.00195324422424
 20
222.2188150000028
 30
0.0
 11
73.00195324422425
 21
215.2188150000029
 31
0.0
  0
LINE
  5
1D69183FD2
330
1D69183399
100
AcDbEntity
  8
JISSEN
100
AcDbLine
 10
71.25000000000039
 20
222.2188150000028
 30
0.0
 11
71.00000000000041
 21
221.9688150000028
 31
0.0
  0
LINE
  5
1D69183FD3
330
1D69183399
100
AcDbEntity
  8
JISSEN
 48
3.0
100
AcDbLine
 10
87.99999999999949
 20
191.0221725663935
 30
0.0
 11
88.0000000000013
 21
171.2188149999391
 31
0.0
  0
ARC
  5
1D69183FD4
330
1D69183399
100
AcDbEntity
  8
JISSEN
 48
3.0
100
AcDbCircle
 10
88.00000000000038
 20
169.7188149999401
 30
0.0
 40
1.49999999999909
100
AcDbArc
 50
0.0
 51
90.0
  0
ELLIPSE
  5
1D69183FD5
330
1D69183399
100
AcDbEntity
  8
JISSEN
100
AcDbEllipse
 10
89.5000000000004
 20
191.022172566394
 30
0.0
 11
0.0
 21
2.6733896743317
 31
0.0
210
0.0
220
0.0
230
1.0
 40
0.5610854318774398
 41
6.283185307179585
 42
7.853981633974482
  0
ELLIPSE
  5
1D69183FD6
330
1D69183399
100
AcDbEntity
  8
JISSEN
100
AcDbEllipse
 10
89.50000000000045
 20
191.0221725663907
 30
0.0
 11
0.0
 21
2.6733896743317
 31
0.0
210
0.0
220
0.0
230
1.0
 40
0.5610854318774398
 41
4.712388980384688
 42
6.283185307179585
  0
ARC
  5
1D69183FD7
330
1D69183399
100
AcDbEntity
  8
JISSEN
 48
3.0
100
AcDbCircle
 10
91.00000000000044
 20
169.7188149999368
 30
0.0
 40
1.49999999999909
100
AcDbArc
 50
90.0
 51
180.0
  0
LINE
  5
1D69183FD8
330
1D69183399
100
AcDbEntity
  8
JISSEN
100
AcDbLine
 10
89.50000000000034
 20
168.2188149999996
 30
0.0
 11
109.1500000000019
 21
168.2188149999996
 31
0.0
  0
LINE
  5
1D69183FDA
330
1D69183399
100
AcDbEntity
  8
JISSEN
100
AcDbLine
 10
89.0
 20
222.218815
 30
0.0
 11
89.0
 21
215.2188150000029
 31
0.0
  0
ARC
  5
1D69183FDB
330
1D69183399
100
AcDbEntity
  8
JISSEN
100
AcDbCircle
 10
89.50000000000091
 20
100.0838013357173
 30
0.0
 40
34.0
100
AcDbArc
 50
180.0
 51
0.0
  0
ARC
  5
1D69183FDC
330
1D69183399
100
AcDbEntity
  8
JISSEN
100
AcDbCircle
 10
89.50000000000001
 20
100.0838013357113
 30
0.0
 40
15.2500000000009
100
AcDbArc
 50
180.0
 51
0.0
  0
ARC
  5
1D69183FDD
330
1D69183399
100
AcDbEntity
  8
JISSEN
100
AcDbCircle
 10
89.50000000000001
 20
100.0838013357169
 30
0.0
 40
21.25
100
AcDbArc
 50
180.0000000000146
 51
359.9999999999738
  0
ARC
  5
1D69183FDE
330
1D69183399
100
AcDbEntity
  8
JISSEN
 48
10.0
100
AcDbCircle
 10
89.50000000000001
 20
100.0838013357163
 30
0.0
 40
17.25
100
AcDbArc
 50
180.000000000026
 51
359.9999999999738
  0
ARC
  5
1D69183FDF
330
1D69183399
100
AcDbEntity
  8
JISSEN
100
AcDbCircle
 10
89.50000000000272
 20
100.083801335716
 30
0.0
 40
18.25
100
AcDbArc
 50
227.9999999999601
 51
265.2854394591863
  0
ARC
  5
1D69183FE0
330
1D69183399
100
AcDbEntity
  8
JISSEN
 48
10.0
100
AcDbCircle
 10
89.50000000000001
 20
100.0838013357163
 30
0.0
 40
16.75
100
AcDbArc
 50
180.000000000026
 51
359.9999999999738
  0
ARC
  5
1D69183FE1
330
1D69183399
100
AcDbEntity
  8
JISSEN
100
AcDbCircle
 10
89.50000000000001
 20
100.0838013357113
 30
0.0
 40
15.75
100
AcDbArc
 50
180.0
 51
0.0
  0
ARC
  5
1D69183FE2
330
1D69183399
100
AcDbEntity
  8
JISSEN
100
AcDbCircle
 10
89.50000000000272
 20
100.083801335716
 30
0.0
 40
18.25
100
AcDbArc
 50
184.714560540892
 51
221.9999999999288
  0
LINE
  5
1D69183FE3
330
1D69183399
100
AcDbEntity
  8
JISSEN
100
AcDbLine
 10
77.95749704030459
 20
87.26455309624174
 30
0.0
 11
77.28836643394244
 21
86.52140827076385
 31
0.0
  0
LINE
  5
1D69183FE4
330
1D69183399
100
AcDbEntity
  8
JISSEN
100
AcDbLine
 10
76.68075176050932
 20
88.54129837603972
 30
0.0
 11
75.93760693502919
 21
87.87216776967985
 31
0.0
  0
LINE
  5
1D69183FE5
330
1D69183399
100
AcDbEntity
  8
JISSEN
100
AcDbLine
 10
116.4089747739534
 20
98.58380133571195
 30
0.0
 11
110.6969927112313
 21
98.5838013357106
 31
0.0
  0
ARC
  5
1D69183FE6
330
1D69183399
100
AcDbEntity
  8
JISSEN
100
AcDbCircle
 10
89.50000000000363
 20
100.083801335716
 30
0.0
 40
18.25
100
AcDbArc
 50
274.7145605408658
 51
312.0000000000211
  0
LINE
  5
1D69183FE7
330
1D69183399
100
AcDbEntity
  8
JISSEN
100
AcDbLine
 10
91.00000000000092
 20
81.8955496330372
 30
0.0
 11
91.00000000000273
 21
82.89914247963492
 31
0.0
  0
LINE
  5
1D69183FE8
330
1D69183399
100
AcDbEntity
  8
JISSEN
100
AcDbLine
 10
87.99999999999727
 20
81.89554963303764
 30
0.0
 11
87.99999999999547
 21
82.89914247963537
 31
0.0
  0
ARC
  5
1D69183FE9
330
1D69183399
100
AcDbEntity
  8
JISSEN
100
AcDbCircle
 10
89.49999999999363
 20
81.33380133571421
 30
0.0
 40
1.5
100
AcDbArc
 50
21.83423201588931
 51
158.165767983969
  0
ELLIPSE
  5
1D69183FEA
330
1D69183399
100
AcDbEntity
  8
JISSEN
100
AcDbEllipse
 10
89.50000000000001
 20
73.17482656175791
 30
0.0
 11
-0.0000000000000009
 21
-3.286276802032261
 31
0.0
210
0.0
220
0.0
230
1.0
 40
0.4564435957043948
 41
4.712388980384688
 42
7.853981633974482
  0
LINE
  5
1D69183FEB
330
1D69183399
100
AcDbEntity
  8
JISSEN
100
AcDbLine
 10
90.99531990104788
 20
78.88647795766924
 30
0.0
 11
90.99531990104788
 21
72.91543131969769
 31
0.0
  0
LINE
  5
1D69183FEC
330
1D69183399
100
AcDbEntity
  8
JISSEN
100
AcDbLine
 10
88.0
 20
73.17482656175791
 30
0.0
 11
88.0
 21
78.88680862448558
 31
0.0
  0
ARC
  5
1D69183FED
330
1D69183399
100
AcDbEntity
  8
JISSEN
100
AcDbCircle
 10
87.9999999999991
 20
80.39554963303947
 30
0.0
 40
1.5
100
AcDbArc
 50
0.0
 51
89.99999999989578
  0
ARC
  5
1D69183FEE
330
1D69183399
100
AcDbEntity
  8
JISSEN
100
AcDbCircle
 10
91.0
 20
80.39554963303675
 30
0.0
 40
1.5
100
AcDbArc
 50
90.0
 51
179.9999999998956
  0
ARC
  5
1D69183FEF
330
1D69183399
100
AcDbEntity
  8
JISSEN
100
AcDbCircle
 10
109.1882517026814
 20
98.58380133570193
 30
0.0
 40
1.5
100
AcDbArc
 50
90.0
 51
179.9999999999218
  0
LINE
  5
1D69183FF0
330
1D69183399
100
AcDbEntity
  8
JISSEN
100
AcDbLine
 10
102.3192482394915
 20
88.5412983760338
 30
0.0
 11
103.0623930649717
 21
87.87216776967346
 31
0.0
  0
LINE
  5
1D69183FF1
330
1D69183399
100
AcDbEntity
  8
JISSEN
100
AcDbLine
 10
101.0425029596954
 20
87.26455309623629
 30
0.0
 11
101.7116335660574
 21
86.52140827075795
 31
0.0
  0
LINE
  5
1D69183FF2
330
1D69183399
100
AcDbEntity
  8
JISSEN
100
AcDbLine
 10
107.6882517026815
 20
98.5838013357047
 30
0.0
 11
106.6846588560828
 21
98.58380133570378
 31
0.0
  0
ARC
  5
1D69183FF3
330
1D69183399
100
AcDbEntity
  8
JISSEN
100
AcDbCircle
 10
108.25
 20
100.0838013357095
 30
0.0
 40
1.5
100
AcDbArc
 50
179.9999999999218
 51
248.1657679843068
  0
ELLIPSE
  5
1D69183FF4
330
1D69183399
100
AcDbEntity
  8
JISSEN
100
AcDbEllipse
 10
116.4089747739534
 20
100.0838013357113
 30
0.0
 11
3.286276802032261
 21
0.0
 31
0.0
210
0.0
220
0.0
230
-1.0
 40
0.4564435957043948
 41
6.283185307179585
 42
7.853981633974482
  0
ARC
  5
1D69183FF5
330
1D69183399
100
AcDbEntity
  8
JISSEN
100
AcDbCircle
 10
89.50000000000363
 20
100.083801335716
 30
0.0
 40
18.25
100
AcDbArc
 50
318.0000000000271
 51
355.5585553348858
  0
ELLIPSE
  5
1D69183FF6
330
1D69183399
100
AcDbEntity
  8
JISSEN
100
AcDbEllipse
 10
62.59102522604644
 20
100.0838013357113
 30
0.0
 11
-3.286276802032261
 21
0.0
 31
0.0
210
0.0
220
0.0
230
1.0
 40
0.4564435957043948
 41
6.283185307179585
 42
7.853981633974482
  0
ARC
  5
1D69183FF7
330
1D69183399
100
AcDbEntity
  8
JISSEN
100
AcDbCircle
 10
70.75
 20
100.0838013357095
 30
0.0
 40
1.5
100
AcDbArc
 50
291.8342320156931
 51
0.0000000000781653
  0
LINE
  5
1D69183FF8
330
1D69183399
100
AcDbEntity
  8
JISSEN
100
AcDbLine
 10
71.31174829731844
 20
98.5838013357047
 30
0.0
 11
72.31534114391706
 21
98.58380133570378
 31
0.0
  0
ARC
  5
1D69183FF9
330
1D69183399
100
AcDbEntity
  8
JISSEN
100
AcDbCircle
 10
69.81174829731845
 20
98.58380133570193
 30
0.0
 40
1.5
100
AcDbArc
 50
0.0000000000781653
 51
90.0
  0
LINE
  5
1D69183FFA
330
1D69183399
100
AcDbEntity
  8
JISSEN
100
AcDbLine
 10
62.59102522604644
 20
98.58380133571195
 30
0.0
 11
68.30300728876864
 21
98.5838013357106
 31
0.0
  0
LINE
  5
1D69183FFC
330
1D69183399
100
AcDbEntity
  8
JISSEN
100
AcDbLine
 10
205.7240931392068
 20
84.07859420487605
 30
0.0
 11
336.2759050505979
 21
84.07859420487605
 31
0.0
  0
TEXT
  5
1D69183FFE
330
1D69183399
100
AcDbEntity
  8
SUNPOU
100
AcDbText
 10
137.5544588103577
 20
2.849424007059838
 30
0.0
 40
3.0
  1
尺度　1/1
  7
K
100
AcDbText
  0
TEXT
  5
1D69183FFF
330
1D69183399
100
AcDbEntity
  8
SUNPOU
100
AcDbText
 10
137.5544588103577
 20
7.849424007059838
 30
0.0
 40
3.0
  1
ガードZN  -20mm
  7
K
100
AcDbText
  0
LWPOLYLINE
  5
1D69184001
330
1D69183399
100
AcDbEntity
  8
NITEN
100
AcDbPolyline
 90
        2
 70
     0
 43
0.0
 10
287.9999990949023
 20
234.2768607617459
 42
0.5882352941176296
 10
270.9999990949021
 20
234.2768607617461
 42
0.5882352941176296
  0
LWPOLYLINE
  5
1D69184002
330
1D69183399
100
AcDbEntity
  8
HATCH
100
AcDbPolyline
 90
       13
 70
     0
 43
0.0
 10
339.7336680840278
 20
169.078594204876
 10
339.5690809057778
 20
168.2589571266439
 10
339.4271755490976
 20
167.7423391498795
 10
339.1994669119497
 20
167.3239128631919
 10
338.8915794252905
 20
166.9857958395249
 10
338.5253561363108
 20
166.6955447668748
 10
338.1226400922021
 20
166.4207163332371
 10
337.7052743401552
 20
166.1288672266083
 10
337.2951019273613
 20
165.7875541349836
 10
336.9139659010118
 20
165.3643337463591
 10
336.5837093082973
 20
164.8267627487309
 10
336.3091292450945
 20
164.1631439614434
 10
336.2759050505979
 20
164.078594204876
  0
LINE
  5
1D69184003
330
1D69183399
100
AcDbEntity
  8
JISSEN
100
AcDbLine
 10
279.0769045554915
 20
183.3285942048775
 30
0.0
 11
279.999999094903
 21
183.3285942048775
 31
0.0
  0
LINE
  5
1D69184004
330
1D69183399
100
AcDbEntity
  8
JISSEN
100
AcDbLine
 10
279.999999094903
 20
183.3285942048775
 30
0.0
 11
281.2619234585131
 21
182.0666698412673
 31
0.0
  0
LINE
  5
1D69184005
330
1D69183399
100
AcDbEntity
  8
JISSEN
100
AcDbLine
 10
261.9999990949031
 20
183.3285942048756
 30
0.0
 11
260.7380747312928
 21
182.0666698412656
 31
0.0
  0
LINE
  5
1D69184006
330
1D69183399
100
AcDbEntity
  8
JISSEN
100
AcDbLine
 10
261.9999990949031
 20
183.3285942048756
 30
0.0
 11
262.923260510345
 21
183.3285942048759
 31
0.0
  0
LWPOLYLINE
  5
1D69184007
330
1D69183399
100
AcDbEntity
  8
NITEN
100
AcDbPolyline
 90
       15
 70
     1
 43
0.0
 10
256.9999990949022
 20
172.9391431106001
 42
0.4142135623730927
 10
258.4999990949021
 20
171.4391431106001
 10
281.5940502658988
 20
171.4391431106001
 10
283.4999990949021
 20
171.4391431106001
 42
0.4142135623730925
 10
284.9999990949021
 20
172.9391431106001
 10
284.9999990949021
 20
183.985159136818
 42
-0.4142135623730943
 10
289.9999990949022
 20
188.9851591368178
 42
0.4142135623730951
 10
291.9999990949022
 20
190.9851591368178
 10
291.9999990949022
 20
211.4391431106001
 42
0.414213562373095
 10
289.9999990949022
 20
213.4391431106001
 10
251.9999990949021
 20
213.4391431106001
 42
0.4142135623730951
 10
249.9999990949021
 20
211.4391431106001
 10
249.9999990949021
 20
190.9851591368178
 42
0.4142135623730951
 10
251.9999990949021
 20
188.9851591368178
 42
-0.4142135623730961
 10
256.9999990949022
 20
183.985159136818
  0
LINE
  5
1D69184008
330
1D69183399
100
AcDbEntity
  8
JISSEN
100
AcDbLine
 10
262.923260510345
 20
183.3285942048759
 30
0.0
 11
279.0769045554918
 21
183.3285942048765
 31
0.0
  0
LINE
  5
1D69184009
330
1D69183399
100
AcDbEntity
  8
JISSEN
100
AcDbLine
 10
260.7380747312928
 20
182.0666698412656
 30
0.0
 11
281.2619234585131
 21
182.0666698412673
 31
0.0
  0
LINE
  5
1D6918400F
330
1D69183399
100
AcDbEntity
  8
JISSEN
100
AcDbLine
 10
295.9999990949023
 20
164.078594204876
 30
0.0
 11
295.9999990949023
 21
169.078594204876
 31
0.0
  0
LINE
  5
1D6918401B
330
1D69183399
100
AcDbEntity
  8
SAISEN
100
AcDbLine
 10
261.9375605359298
 20
183.2661556459024
 30
0.0
 11
261.5679479239075
 21
171.4391431106001
 31
0.0
  0
LINE
  5
1D6918401C
330
1D69183399
100
AcDbEntity
  8
JISSEN
100
AcDbLine
 10
260.7380747312928
 20
182.0666698412656
 30
0.0
 11
260.4059479239073
 21
171.4391431106001
 31
0.0
  0
LINE
  5
1D6918401D
330
1D69183399
100
AcDbEntity
  8
SAISEN
100
AcDbLine
 10
280.0624376538765
 20
183.2661556459043
 30
0.0
 11
280.4320502658987
 21
171.4391431106001
 31
0.0
  0
LINE
  5
1D6918401E
330
1D69183399
100
AcDbEntity
  8
JISSEN
100
AcDbLine
 10
281.2619234585131
 20
182.0666698412673
 30
0.0
 11
281.5940502658985
 21
171.4391431106001
 31
0.0
  0
INSERT
  5
1D6918401F
330
1D69183399
100
AcDbEntity
  8
HATCH
100
AcDbBlockReference
  2
*X2
 10
360.9999990949023
 20
25.00000004432013
 30
0.0
 41
-1.0
1001
ACAD
1000
HATCH
1002
{
1070
    16
1000
_U
1040
2.0
1040
0.7853981633974483
1070
     0
1002
}
  0
LINE
  5
1D69184020
330
1D69183399
100
AcDbEntity
  8
JISSEN
100
AcDbLine
 10
339.7336680840278
 20
169.078594204876
 30
0.0
 11
289.4999990949019
 21
169.078594204876
 31
0.0
  0
LWPOLYLINE
  5
1D69184021
330
1D69183399
100
AcDbEntity
  8
NITEN
100
AcDbPolyline
 90
        5
 70
     0
 43
0.0
 10
287.9999990949022
 20
213.4391431106001
 10
287.9999990949022
 20
234.2768607617459
 42
-0.5882352941176477
 10
270.9999990949021
 20
234.2768607617459
 42
0.5882352941176478
 10
253.9999990949021
 20
234.2768607617456
 10
253.9999990949021
 20
213.4391431106001
  0
LINE
  5
1D69184022
330
1D69183399
100
AcDbEntity
  8
JISSEN
100
AcDbLine
 10
245.9999990949021
 20
164.078594204876
 30
0.0
 11
245.9999990949021
 21
169.078594204876
 31
0.0
  0
LWPOLYLINE
  5
1D69184023
330
1D69183399
100
AcDbEntity
  8
HATCH
100
AcDbPolyline
 90
       13
 70
     0
 43
0.0
 10
202.2663301057769
 20
169.078594204876
 10
202.4309172840269
 20
168.2589571266439
 10
202.572822640707
 20
167.7423391498795
 10
202.800531277855
 20
167.3239128631919
 10
203.1084187645143
 20
166.9857958395249
 10
203.4746420534939
 20
166.6955447668748
 10
203.8773580976025
 20
166.4207163332371
 10
204.2947238496493
 20
166.1288672266083
 10
204.704896262443
 20
165.7875541349836
 10
205.0860322887929
 20
165.3643337463591
 10
205.4162888815073
 20
164.8267627487309
 10
205.6908689447102
 20
164.1631439614434
 10
205.7240931392068
 20
164.078594204876
  0
INSERT
  5
1D69184024
330
1D69183399
100
AcDbEntity
  8
HATCH
100
AcDbBlockReference
  2
*X2
 10
180.9999990949021
 20
25.00000004432013
 30
0.0
1001
ACAD
1000
HATCH
1002
{
1070
    16
1000
_U
1040
2.0
1040
0.7853981633974483
1070
     0
1002
}
  0
LINE
  5
1D69184025
330
1D69183399
100
AcDbEntity
  8
JISSEN
100
AcDbLine
 10
202.2663301057769
 20
169.078594204876
 30
0.0
 11
252.4999990949027
 21
169.078594204876
 31
0.0
  0
TEXT
  5
1D6918402A
330
1D69183399
100
AcDbEntity
  8
SUNPOU
100
AcDbText
 10
270.1006763551615
 20
7.849424007059838
 30
0.0
 40
3.0
  1
ガードZN  -20mm、取付状態図（ヘッドはVZF）
  7
K
100
AcDbText
  0
TEXT
  5
1D6918402B
330
1D69183399
100
AcDbEntity
  8
SUNPOU
100
AcDbText
 10
270.1006763551615
 20
2.849424007059838
 30
0.0
 40
3.0
  1
尺度　1/1
  7
K
100
AcDbText
  0
LINE
  5
1D6918403C
330
1D69183399
100
AcDbEntity
  8
JISSEN
100
AcDbLine
 10
55.4999999999995
 20
215.2188150000029
 30
0.0
 11
123.5000000000004
 21
215.2188150000029
 31
0.0
  0
LINE
  5
1D69184071
330
1D69183399
100
AcDbEntity
  8
SUNPOU
100
AcDbLine
 10
297.2585143278815
 20
259.5007424781487
 30
0.0
 11
297.2585143278815
 21
256.5007424781488
 31
0.0
  0
TEXT
  5
1D69184072
330
1D69183399
100
AcDbEntity
  8
TEXT
100
AcDbText
 10
283.2392840851878
 20
256.50000004432
 30
0.0
 40
3.0
  1
ガードZN  -20mm
 41
0.75
  7
K
 72
     4
 11
297.4999983709021
 21
258.00000004432
 31
0.0
100
AcDbText
  0
LINE
  5
1D69184073
330
1D69183399
100
AcDbEntity
  8
TEXT
100
AcDbLine
 10
296.3585143278815
 20
259.5007424781487
 30
0.0
 11
298.1585143278815
 21
259.5007424781487
 31
0.0
  0
LINE
  5
1D69184074
330
1D69183399
100
AcDbEntity
  8
TEXT
100
AcDbLine
 10
296.3585143278815
 20
256.5007424781488
 30
0.0
 11
298.1585143278815
 21
256.5007424781488
 31
0.0
  0
LINE
  5
1D69184075
330
1D69183399
100
AcDbEntity
  8
TEXT
100
AcDbLine
 10
296.8085143278814
 20
259.5007424781487
 30
0.0
 11
296.8085143278814
 21
256.5007424781488
 31
0.0
  0
LINE
  5
1D69184076
330
1D69183399
100
AcDbEntity
  8
TEXT
100
AcDbLine
 10
297.7085143278815
 20
259.5007424781487
 30
0.0
 11
297.7085143278815
 21
256.5007424781488
 31
0.0
  0
LINE
  5
1D69184077
330
1D69183399
100
AcDbEntity
  8
JISSEN
100
AcDbLine
 10
236.9999990949017
 20
164.078594204876
 30
0.0
 11
304.9999990949028
 21
164.078594204876
 31
0.0
  0
LINE
  5
1D69184078
330
1D69183399
100
AcDbEntity
  8
JISSEN
100
AcDbLine
 10
270.4999990949023
 20
171.0785942048731
 30
0.0
 11
270.4999990949023
 21
164.078594204876
 31
0.0
  0
LINE
  5
1D69184079
330
1D69183399
100
AcDbEntity
  8
JISSEN
100
AcDbLine
 10
270.9999990949027
 20
117.0785942048725
 30
0.0
 11
290.6499990949041
 21
117.0785942048725
 31
0.0
  0
ARC
  5
1D6918407A
330
1D69183399
100
AcDbEntity
  8
JISSEN
 48
3.0
100
AcDbCircle
 10
272.4999990949028
 20
118.5785942048099
 30
0.0
 40
1.49999999999909
100
AcDbArc
 50
90.0
 51
180.0
  0
ELLIPSE
  5
1D6918407B
330
1D69183399
100
AcDbEntity
  8
JISSEN
100
AcDbEllipse
 10
270.9999990949028
 20
139.8819517712639
 30
0.0
 11
0.0
 21
2.6733896743317
 31
0.0
210
0.0
220
0.0
230
1.0
 40
0.5610854318774398
 41
4.712388980384688
 42
6.283185307179585
  0
ELLIPSE
  5
1D6918407C
330
1D69183399
100
AcDbEntity
  8
JISSEN
100
AcDbEllipse
 10
270.9999990949027
 20
139.8819517712672
 30
0.0
 11
0.0
 21
2.6733896743317
 31
0.0
210
0.0
220
0.0
230
1.0
 40
0.5610854318774398
 41
6.283185307179585
 42
7.853981633974482
  0
ARC
  5
1D6918407D
330
1D69183399
100
AcDbEntity
  8
JISSEN
 48
3.0
100
AcDbCircle
 10
269.4999990949026
 20
118.5785942048132
 30
0.0
 40
1.49999999999909
100
AcDbArc
 50
0.0
 51
90.0
  0
LINE
  5
1D6918407E
330
1D69183399
100
AcDbEntity
  8
JISSEN
 48
3.0
100
AcDbLine
 10
269.4999990949018
 20
139.8819517712666
 30
0.0
 11
269.4999990949036
 21
120.0785942048123
 31
0.0
  0
LINE
  5
1D6918407F
330
1D69183399
100
AcDbEntity
  8
JISSEN
100
AcDbLine
 10
252.7499990949026
 20
171.078594204876
 30
0.0
 11
252.4999990949026
 21
170.8285942048759
 31
0.0
  0
LINE
  5
1D69184080
330
1D69183399
100
AcDbEntity
  8
JISSEN
100
AcDbLine
 10
254.5019523391265
 20
171.078594204876
 30
0.0
 11
254.5019523391265
 21
164.078594204876
 31
0.0
  0
LINE
  5
1D69184081
330
1D69183399
100
AcDbEntity
  8
JISSEN
100
AcDbLine
 10
255.5019523391265
 20
171.078594204876
 30
0.0
 11
255.5019523391265
 21
164.078594204876
 31
0.0
  0
ARC
  5
1D69184082
330
1D69183399
100
AcDbEntity
  8
JISSEN
 48
3.0
100
AcDbCircle
 10
252.8499990949004
 20
140.3819517712667
 30
0.0
 40
0.5
100
AcDbArc
 50
259.7516211656066
 51
270.0
  0
LINE
  5
1D69184083
330
1D69183399
100
AcDbEntity
  8
JISSEN
100
AcDbLine
 10
252.4999990949026
 20
164.0785942048759
 30
0.0
 11
252.4999990949026
 21
170.8285942048759
 31
0.0
  0
LINE
  5
1D69184084
330
1D69183399
100
AcDbEntity
  8
JISSEN
100
AcDbLine
 10
236.9999990949019
 20
143.5749417680335
 30
0.0
 11
236.9999990949017
 21
164.078594204876
 31
0.0
  0
ARC
  5
1D69184085
330
1D69183399
100
AcDbEntity
  8
JISSEN
100
AcDbCircle
 10
237.9999990949018
 20
143.5749417680335
 30
0.0
 40
1.0
100
AcDbArc
 50
180.0
 51
259.7516211656066
  0
LINE
  5
1D69184086
330
1D69183399
100
AcDbEntity
  8
JISSEN
 48
3.0
100
AcDbLine
 10
252.7610412437562
 20
139.8899289052119
 30
0.0
 11
237.8220833926135
 21
142.590896035926
 31
0.0
  0
LINE
  5
1D69184087
330
1D69183399
100
AcDbEntity
  8
JISSEN
100
AcDbLine
 10
253.3499990949039
 20
117.0785942048118
 30
0.0
 11
252.3499990948984
 21
117.0785942048145
 31
0.0
  0
ARC
  5
1D69184088
330
1D69183399
100
AcDbEntity
  8
JISSEN
 62
     7
100
AcDbCircle
 10
251.3499990949012
 20
118.578594204814
 30
0.0
 40
1.49999999999909
100
AcDbArc
 50
179.999999999114
 51
269.9999999998436
  0
ARC
  5
1D69184089
330
1D69183399
100
AcDbEntity
  8
JISSEN
 48
3.0
100
AcDbCircle
 10
251.3499990949012
 20
118.578594204814
 30
0.0
 40
1.49999999999909
100
AcDbArc
 50
90.0
 51
180.0
  0
LINE
  5
1D6918408A
330
1D69183399
100
AcDbEntity
  8
JISSEN
100
AcDbLine
 10
253.8499990949004
 20
139.8819517712662
 30
0.0
 11
253.8499990948995
 21
120.0785942048118
 31
0.0
  0
ARC
  5
1D6918408B
330
1D69183399
100
AcDbEntity
  8
JISSEN
100
AcDbCircle
 10
234.8499990949021
 20
128.0785942048763
 30
0.0
 40
15.0
100
AcDbArc
 50
0.0
 51
70.61166638270323
  0
LINE
  5
1D6918408C
330
1D69183399
100
AcDbEntity
  8
JISSEN
100
AcDbLine
 10
252.8499990949004
 20
139.8819517712666
 30
0.0
 11
269.4999990949018
 21
139.8819517712672
 31
0.0
  0
LINE
  5
1D6918408D
330
1D69183399
100
AcDbEntity
  8
JISSEN
100
AcDbLine
 10
253.8499990949021
 20
139.0785942048727
 30
0.0
 11
269.4999990949018
 21
139.0785942048727
 31
0.0
  0
LINE
  5
1D6918408E
330
1D69183399
100
AcDbEntity
  8
JISSEN
100
AcDbLine
 10
251.3499990949012
 20
117.078594204876
 30
0.0
 11
270.9999990949024
 21
117.078594204876
 31
0.0
  0
LINE
  5
1D6918408F
330
1D69183399
100
AcDbEntity
  8
JISSEN
100
AcDbLine
 10
269.4999990949026
 20
120.0785942048123
 30
0.0
 11
251.3499990949012
 21
120.0785942048123
 31
0.0
  0
LINE
  5
1D69184090
330
1D69183399
100
AcDbEntity
  8
JISSEN
100
AcDbLine
 10
252.7499990949026
 20
171.078594204876
 30
0.0
 11
270.4999990949023
 21
171.0785942048763
 31
0.0
  0
LINE
  5
1D69184091
330
1D69183399
100
AcDbEntity
  8
JISSEN
100
AcDbLine
 10
289.2499990949019
 20
171.078594204876
 30
0.0
 11
271.4999990949024
 21
171.0785942048763
 31
0.0
  0
LINE
  5
1D69184092
330
1D69183399
100
AcDbEntity
  8
JISSEN
100
AcDbLine
 10
272.4999990949019
 20
120.0785942048123
 30
0.0
 11
290.6499990949033
 21
120.0785942048123
 31
0.0
  0
LINE
  5
1D69184093
330
1D69183399
100
AcDbEntity
  8
JISSEN
100
AcDbLine
 10
290.6499990949033
 20
117.078594204876
 30
0.0
 11
270.999999094902
 21
117.078594204876
 31
0.0
  0
LINE
  5
1D69184094
330
1D69183399
100
AcDbEntity
  8
JISSEN
100
AcDbLine
 10
288.1499990949025
 20
139.0785942048727
 30
0.0
 11
272.4999990949029
 21
139.0785942048727
 31
0.0
  0
LINE
  5
1D69184095
330
1D69183399
100
AcDbEntity
  8
JISSEN
100
AcDbLine
 10
289.1499990949043
 20
139.8819517712666
 30
0.0
 11
272.4999990949029
 21
139.8819517712672
 31
0.0
  0
ARC
  5
1D69184096
330
1D69183399
100
AcDbEntity
  8
JISSEN
100
AcDbCircle
 10
307.1499990949025
 20
128.0785942048763
 30
0.0
 40
15.0
100
AcDbArc
 50
109.3883336172966
 51
180.0
  0
LINE
  5
1D69184097
330
1D69183399
100
AcDbEntity
  8
JISSEN
100
AcDbLine
 10
288.1499990949043
 20
139.8819517712662
 30
0.0
 11
288.1499990949052
 21
120.0785942048118
 31
0.0
  0
ARC
  5
1D69184098
330
1D69183399
100
AcDbEntity
  8
JISSEN
 48
3.0
100
AcDbCircle
 10
290.6499990949033
 20
118.578594204814
 30
0.0
 40
1.49999999999909
100
AcDbArc
 50
0.000000000000007
 51
90.0
  0
ARC
  5
1D69184099
330
1D69183399
100
AcDbEntity
  8
JISSEN
 62
     7
100
AcDbCircle
 10
290.6499990949033
 20
118.578594204814
 30
0.0
 40
1.49999999999909
100
AcDbArc
 50
270.0000000001563
 51
0.0000000008858806
  0
LINE
  5
1D6918409A
330
1D69183399
100
AcDbEntity
  8
JISSEN
100
AcDbLine
 10
288.6499990949006
 20
117.0785942048118
 30
0.0
 11
289.649999094906
 21
117.0785942048145
 31
0.0
  0
LINE
  5
1D6918409B
330
1D69183399
100
AcDbEntity
  8
JISSEN
 48
3.0
100
AcDbLine
 10
289.2389569460485
 20
139.8899289052119
 30
0.0
 11
304.1779147971912
 21
142.590896035926
 31
0.0
  0
ARC
  5
1D6918409C
330
1D69183399
100
AcDbEntity
  8
JISSEN
100
AcDbCircle
 10
303.9999990949028
 20
143.5749417680335
 30
0.0
 40
1.0
100
AcDbArc
 50
280.2483788343932
 51
0.000000000000007
  0
LINE
  5
1D6918409D
330
1D69183399
100
AcDbEntity
  8
JISSEN
100
AcDbLine
 10
304.999999094903
 20
143.5749417680335
 30
0.0
 11
304.9999990949026
 21
164.078594204876
 31
0.0
  0
LINE
  5
1D6918409E
330
1D69183399
100
AcDbEntity
  8
JISSEN
100
AcDbLine
 10
289.4999990949019
 20
164.0785942048759
 30
0.0
 11
289.4999990949019
 21
170.8285942048759
 31
0.0
  0
ARC
  5
1D6918409F
330
1D69183399
100
AcDbEntity
  8
JISSEN
 48
3.0
100
AcDbCircle
 10
289.1499990949043
 20
140.3819517712667
 30
0.0
 40
0.5
100
AcDbArc
 50
270.0
 51
280.2483788343932
  0
LINE
  5
1D691840A0
330
1D69183399
100
AcDbEntity
  8
JISSEN
100
AcDbLine
 10
286.4980458506781
 20
171.078594204876
 30
0.0
 11
286.4980458506781
 21
164.078594204876
 31
0.0
  0
LINE
  5
1D691840A1
330
1D69183399
100
AcDbEntity
  8
JISSEN
100
AcDbLine
 10
287.4980458506781
 20
171.078594204876
 30
0.0
 11
287.4980458506781
 21
164.078594204876
 31
0.0
  0
LINE
  5
1D691840A2
330
1D69183399
100
AcDbEntity
  8
JISSEN
100
AcDbLine
 10
289.2499990949019
 20
171.078594204876
 30
0.0
 11
289.4999990949019
 21
170.8285942048759
 31
0.0
  0
LINE
  5
1D691840A3
330
1D69183399
100
AcDbEntity
  8
JISSEN
 48
3.0
100
AcDbLine
 10
272.4999990949029
 20
139.8819517712666
 30
0.0
 11
272.4999990949009
 21
120.0785942048123
 31
0.0
  0
ARC
  5
1D691840A4
330
1D69183399
100
AcDbEntity
  8
JISSEN
 48
3.0
100
AcDbCircle
 10
272.4999990949019
 20
118.5785942048132
 30
0.0
 40
1.49999999999909
100
AcDbArc
 50
90.0
 51
180.0
  0
ELLIPSE
  5
1D691840A5
330
1D69183399
100
AcDbEntity
  8
JISSEN
100
AcDbEllipse
 10
270.9999990949019
 20
139.8819517712672
 30
0.0
 11
0.0
 21
2.6733896743317
 31
0.0
210
0.0
220
0.0
230
-1.0
 40
0.5610854318774398
 41
6.283185307179585
 42
7.853981633974482
  0
LINE
  5
1D691840A6
330
1D69183399
100
AcDbEntity
  8
JISSEN
100
AcDbLine
 10
271.4999990949023
 20
171.0785942048731
 30
0.0
 11
271.4999990949023
 21
164.078594204876
 31
0.0
  0
LINE
  5
1D691840A7
330
1D69183399
100
AcDbEntity
  8
JISSEN
100
AcDbLine
 10
292.1499990949025
 20
128.0785942048763
 30
0.0
 11
292.1499990949025
 21
118.578594204814
 31
0.0
  0
LINE
  5
1D691840A8
330
1D69183399
100
AcDbEntity
  8
JISSEN
100
AcDbLine
 10
249.8499990949021
 20
128.0785942048763
 30
0.0
 11
249.8499990949021
 21
118.578594204814
 31
0.0
  0
LINE
  5
1D691840D9
330
1D69183399
100
AcDbEntity
  8
JISSEN
100
AcDbLine
 10
249.8499990949021
 20
53.07859420487651
 30
0.0
 11
249.8499990949021
 21
43.5785942048142
 31
0.0
  0
LINE
  5
1D691840DA
330
1D69183399
100
AcDbEntity
  8
JISSEN
100
AcDbLine
 10
292.1499990949025
 20
53.07859420487651
 30
0.0
 11
292.1499990949025
 21
43.5785942048142
 31
0.0
  0
ELLIPSE
  5
1D691840DB
330
1D69183399
100
AcDbEntity
  8
JISSEN
100
AcDbEllipse
 10
270.9999990949019
 20
64.8819517712673
 30
0.0
 11
0.0
 21
2.6733896743317
 31
0.0
210
0.0
220
0.0
230
-1.0
 40
0.5610854318774398
 41
6.283185307179585
 42
7.853981633974482
  0
ARC
  5
1D691840DC
330
1D69183399
100
AcDbEntity
  8
JISSEN
 48
3.0
100
AcDbCircle
 10
272.4999990949019
 20
43.5785942048133
 30
0.0
 40
1.49999999999909
100
AcDbArc
 50
90.0
 51
180.0
  0
LINE
  5
1D691840DD
330
1D69183399
100
AcDbEntity
  8
JISSEN
 48
3.0
100
AcDbLine
 10
272.4999990949029
 20
64.88195177126684
 30
0.0
 11
272.4999990949009
 21
45.07859420481238
 31
0.0
  0
ARC
  5
1D691840DE
330
1D69183399
100
AcDbEntity
  8
JISSEN
 48
3.0
100
AcDbCircle
 10
289.1499990949043
 20
65.38195177126684
 30
0.0
 40
0.5
100
AcDbArc
 50
270.0
 51
280.2483788343932
  0
LINE
  5
1D691840DF
330
1D69183399
100
AcDbEntity
  8
JISSEN
100
AcDbLine
 10
304.999999094903
 20
68.57494176803363
 30
0.0
 11
304.9999990949026
 21
84.07859420487605
 31
0.0
  0
ARC
  5
1D691840E0
330
1D69183399
100
AcDbEntity
  8
JISSEN
100
AcDbCircle
 10
303.9999990949028
 20
68.5749417680336
 30
0.0
 40
1.0
100
AcDbArc
 50
280.2483788343932
 51
0.000000000000007
  0
LINE
  5
1D691840E1
330
1D69183399
100
AcDbEntity
  8
JISSEN
 48
3.0
100
AcDbLine
 10
289.2389569460485
 20
64.88992890521197
 30
0.0
 11
304.1779147971912
 21
67.59089603592613
 31
0.0
  0
LINE
  5
1D691840E2
330
1D69183399
100
AcDbEntity
  8
JISSEN
100
AcDbLine
 10
288.6499990949006
 20
42.07859420481192
 30
0.0
 11
289.649999094906
 21
42.07859420481465
 31
0.0
  0
ARC
  5
1D691840E3
330
1D69183399
100
AcDbEntity
  8
JISSEN
 62
     7
100
AcDbCircle
 10
290.6499990949033
 20
43.5785942048142
 30
0.0
 40
1.49999999999909
100
AcDbArc
 50
270.0000000001563
 51
0.0000000008858806
  0
ARC
  5
1D691840E4
330
1D69183399
100
AcDbEntity
  8
JISSEN
 48
3.0
100
AcDbCircle
 10
290.6499990949033
 20
43.5785942048142
 30
0.0
 40
1.49999999999909
100
AcDbArc
 50
0.000000000000007
 51
90.0
  0
LINE
  5
1D691840E5
330
1D69183399
100
AcDbEntity
  8
JISSEN
100
AcDbLine
 10
288.1499990949043
 20
64.88195177126638
 30
0.0
 11
288.1499990949052
 21
45.07859420481192
 31
0.0
  0
ARC
  5
1D691840E6
330
1D69183399
100
AcDbEntity
  8
JISSEN
100
AcDbCircle
 10
307.1499990949025
 20
53.07859420487651
 30
0.0
 40
15.0
100
AcDbArc
 50
109.3883336172966
 51
180.0
  0
LINE
  5
1D691840E7
330
1D69183399
100
AcDbEntity
  8
JISSEN
100
AcDbLine
 10
289.1499990949043
 20
64.88195177126684
 30
0.0
 11
272.4999990949029
 21
64.8819517712673
 31
0.0
  0
LINE
  5
1D691840E8
330
1D69183399
100
AcDbEntity
  8
JISSEN
100
AcDbLine
 10
288.1499990949025
 20
64.07859420487287
 30
0.0
 11
272.4999990949029
 21
64.07859420487287
 31
0.0
  0
LINE
  5
1D691840E9
330
1D69183399
100
AcDbEntity
  8
JISSEN
100
AcDbLine
 10
290.6499990949033
 20
42.07859420487604
 30
0.0
 11
270.999999094902
 21
42.07859420487604
 31
0.0
  0
LINE
  5
1D691840EA
330
1D69183399
100
AcDbEntity
  8
JISSEN
100
AcDbLine
 10
272.4999990949019
 20
45.07859420481238
 30
0.0
 11
290.6499990949033
 21
45.07859420481238
 31
0.0
  0
LINE
  5
1D691840EB
330
1D69183399
100
AcDbEntity
  8
JISSEN
100
AcDbLine
 10
269.4999990949026
 20
45.07859420481238
 30
0.0
 11
251.3499990949012
 21
45.07859420481238
 31
0.0
  0
LINE
  5
1D691840EC
330
1D69183399
100
AcDbEntity
  8
JISSEN
100
AcDbLine
 10
251.3499990949012
 20
42.07859420487604
 30
0.0
 11
270.9999990949024
 21
42.07859420487604
 31
0.0
  0
LINE
  5
1D691840ED
330
1D69183399
100
AcDbEntity
  8
JISSEN
100
AcDbLine
 10
253.8499990949021
 20
64.07859420487287
 30
0.0
 11
269.4999990949018
 21
64.07859420487287
 31
0.0
  0
LINE
  5
1D691840EE
330
1D69183399
100
AcDbEntity
  8
JISSEN
100
AcDbLine
 10
252.8499990949004
 20
64.88195177126684
 30
0.0
 11
269.4999990949018
 21
64.8819517712673
 31
0.0
  0
ARC
  5
1D691840EF
330
1D69183399
100
AcDbEntity
  8
JISSEN
100
AcDbCircle
 10
234.8499990949021
 20
53.07859420487651
 30
0.0
 40
15.0
100
AcDbArc
 50
0.0
 51
70.61166638270323
  0
LINE
  5
1D691840F0
330
1D69183399
100
AcDbEntity
  8
JISSEN
100
AcDbLine
 10
253.8499990949004
 20
64.88195177126638
 30
0.0
 11
253.8499990948995
 21
45.07859420481192
 31
0.0
  0
ARC
  5
1D691840F1
330
1D69183399
100
AcDbEntity
  8
JISSEN
 48
3.0
100
AcDbCircle
 10
251.3499990949012
 20
43.5785942048142
 30
0.0
 40
1.49999999999909
100
AcDbArc
 50
90.0
 51
180.0
  0
ARC
  5
1D691840F2
330
1D69183399
100
AcDbEntity
  8
JISSEN
 62
     7
100
AcDbCircle
 10
251.3499990949012
 20
43.5785942048142
 30
0.0
 40
1.49999999999909
100
AcDbArc
 50
179.999999999114
 51
269.9999999998436
  0
LINE
  5
1D691840F3
330
1D69183399
100
AcDbEntity
  8
JISSEN
100
AcDbLine
 10
253.3499990949039
 20
42.07859420481192
 30
0.0
 11
252.3499990948984
 21
42.07859420481465
 31
0.0
  0
LINE
  5
1D691840F4
330
1D69183399
100
AcDbEntity
  8
JISSEN
 48
3.0
100
AcDbLine
 10
252.7610412437562
 20
64.88992890521197
 30
0.0
 11
237.8220833926135
 21
67.59089603592613
 31
0.0
  0
ARC
  5
1D691840F5
330
1D69183399
100
AcDbEntity
  8
JISSEN
100
AcDbCircle
 10
237.9999990949018
 20
68.5749417680336
 30
0.0
 40
1.0
100
AcDbArc
 50
180.0
 51
259.7516211656066
  0
LINE
  5
1D691840F6
330
1D69183399
100
AcDbEntity
  8
JISSEN
100
AcDbLine
 10
236.9999990949019
 20
68.5749417680336
 30
0.0
 11
236.9999990949017
 21
84.07859420487605
 31
0.0
  0
ARC
  5
1D691840F7
330
1D69183399
100
AcDbEntity
  8
JISSEN
 48
3.0
100
AcDbCircle
 10
252.8499990949004
 20
65.38195177126684
 30
0.0
 40
0.5
100
AcDbArc
 50
259.7516211656066
 51
270.0
  0
LINE
  5
1D691840F8
330
1D69183399
100
AcDbEntity
  8
JISSEN
 48
3.0
100
AcDbLine
 10
269.4999990949018
 20
64.88195177126684
 30
0.0
 11
269.4999990949036
 21
45.07859420481238
 31
0.0
  0
ARC
  5
1D691840F9
330
1D69183399
100
AcDbEntity
  8
JISSEN
 48
3.0
100
AcDbCircle
 10
269.4999990949026
 20
43.5785942048133
 30
0.0
 40
1.49999999999909
100
AcDbArc
 50
0.0
 51
90.0
  0
ELLIPSE
  5
1D691840FA
330
1D69183399
100
AcDbEntity
  8
JISSEN
100
AcDbEllipse
 10
270.9999990949027
 20
64.8819517712673
 30
0.0
 11
0.0
 21
2.6733896743317
 31
0.0
210
0.0
220
0.0
230
1.0
 40
0.5610854318774398
 41
6.283185307179585
 42
7.853981633974482
  0
ELLIPSE
  5
1D691840FB
330
1D69183399
100
AcDbEntity
  8
JISSEN
100
AcDbEllipse
 10
270.9999990949028
 20
64.88195177126399
 30
0.0
 11
0.0
 21
2.6733896743317
 31
0.0
210
0.0
220
0.0
230
1.0
 40
0.5610854318774398
 41
4.712388980384688
 42
6.283185307179585
  0
ARC
  5
1D691840FC
330
1D69183399
100
AcDbEntity
  8
JISSEN
 48
3.0
100
AcDbCircle
 10
272.4999990949028
 20
43.57859420481
 30
0.0
 40
1.49999999999909
100
AcDbArc
 50
90.0
 51
180.0
  0
LINE
  5
1D691840FD
330
1D69183399
100
AcDbEntity
  8
JISSEN
100
AcDbLine
 10
270.9999990949027
 20
42.07859420487276
 30
0.0
 11
290.6499990949041
 21
42.07859420487276
 31
0.0
  0
LINE
  5
1D691840FE
330
1D69183399
100
AcDbEntity
  8
JISSEN
100
AcDbLine
 10
236.9999990949017
 20
84.07859420487605
 30
0.0
 11
304.9999990949028
 21
84.07859420487605
 31
0.0
  0
LWPOLYLINE
  5
1D69184101
330
1D69183399
100
AcDbEntity
  8
JISSEN
100
AcDbPolyline
 90
        5
 70
     0
 43
0.0
 10
284.9999990949035
 20
64.07859420487596
 10
284.9999990949035
 20
61.40616593939189
 42
-0.3813056827265855
 10
282.3402052804705
 20
58.42551840046647
 42
-0.0206555680720094
 10
274.1031021980075
 20
57.82859420487625
 10
272.4999990949021
 20
57.82859420487625
  0
LWPOLYLINE
  5
1D69184102
330
1D69183399
100
AcDbEntity
  8
JISSEN
100
AcDbPolyline
 90
        5
 70
     0
 43
0.0
 10
256.9999990949036
 20
64.07859420487596
 10
256.9999990949036
 20
61.40616593939189
 42
0.3813056827265855
 10
259.6597929093366
 20
58.42551840046647
 42
0.0206555680720094
 10
267.8968959917996
 20
57.82859420487625
 10
269.4999990949022
 20
57.82859420487625
  0
ENDSEC
  0
SECTION
  2
OBJECTS
  0
DICTIONARY
  5
1D6918338D
330
0
100
AcDbDictionary
281
     1
  3
ACAD_GROUP
350
1D6918338E
  3
ACAD_LAYOUT
350
1D691837E6
  3
ACAD_MLINESTYLE
350
1D6918338F
  3
ACAD_PLOTSETTINGS
350
1D691837E7
  3
ACAD_PLOTSTYLENAME
350
1D691837E4
  3
ACDBVARIABLEDICTIONARY
350
1D69183DB9
  0
DICTIONARY
  5
1D69183E05
330
1D69183383
100
AcDbDictionary
280
     1
281
     1
  3
ACAD_LAYERSTATES
360
1D69183E06
  0
DICTIONARY
  5
1D69183A5C
330
1D69183399
100
AcDbDictionary
280
     1
281
     1
  3
ACAD_LAYOUTSELFREF
360
1D69184133
  0
DICTIONARY
  5
1D69183A5A
330
1D69183396
100
AcDbDictionary
280
     1
281
     1
  3
ACAD_LAYOUTSELFREF
360
1D69184132
  0
DICTIONARY
  5
1D6918338E
102
{ACAD_REACTORS
330
1D6918338D
102
}
330
1D6918338D
100
AcDbDictionary
281
     1
  0
DICTIONARY
  5
1D691837E6
102
{ACAD_REACTORS
330
1D6918338D
102
}
330
1D6918338D
100
AcDbDictionary
281
     1
  3
Model
350
1D69184138
  3
ﾚｲｱｳﾄ1
350
1D69184139
  0
DICTIONARY
  5
1D6918338F
102
{ACAD_REACTORS
330
1D6918338D
102
}
330
1D6918338D
100
AcDbDictionary
281
     1
  3
STANDARD
350
1D6918339C
  0
DICTIONARY
  5
1D691837E7
102
{ACAD_REACTORS
330
1D6918338D
102
}
330
1D6918338D
100
AcDbDictionary
281
     1
  0
ACDBDICTIONARYWDFLT
  5
1D691837E4
102
{ACAD_REACTORS
330
1D6918338D
102
}
330
1D6918338D
100
AcDbDictionary
281
     1
  3
Normal
350
1D691837E5
100
AcDbDictionaryWithDefault
340
1D691837E5
  0
DICTIONARY
  5
1D69183DB9
102
{ACAD_REACTORS
330
1D6918338D
102
}
330
1D6918338D
100
AcDbDictionary
281
     1
  3
DIMASSOC
350
1D69183DBA
  0
DICTIONARY
  5
1D69183E06
102
{ACAD_REACTORS
330
1D69183E05
102
}
330
1D69183E05
100
AcDbDictionary
281
     1
  0
XRECORD
  5
1D69184133
102
{ACAD_REACTORS
330
1D69183A5C
102
}
330
1D69183A5C
100
AcDbXrecord
280
     1
340
1D69183399
  0
XRECORD
  5
1D69184132
102
{ACAD_REACTORS
330
1D69183A5A
102
}
330
1D69183A5A
100
AcDbXrecord
280
     1
340
1D69183396
  0
LAYOUT
  5
1D69184138
102
{ACAD_REACTORS
330
1D691837E6
102
}
330
1D691837E6
100
AcDbPlotSettings
  1

  2
\\Nt_honsya\GL-8300A
  4

  6

 40
0.0
 41
0.0
 42
0.0
 43
0.0
 44
0.0
 45
0.0
 46
0.0
 47
0.0
 48
0.0
 49
0.0
140
0.0
141
0.0
142
1.0
143
1.0
 70
  1712
 72
     0
 73
     0
 74
     0
  7

 75
     0
147
1.0
148
0.0
149
0.0
100
AcDbLayout
  1
Model
 70
     1
 71
     0
 10
0.0
 20
0.0
 11
12.0
 21
9.0
 12
0.0
 22
0.0
 32
0.0
 14
0.0
 24
0.0
 34
0.0
 15
0.0
 25
0.0
 35
0.0
146
0.0
 13
0.0
 23
0.0
 33
0.0
 16
1.0
 26
0.0
 36
0.0
 17
0.0
 27
1.0
 37
0.0
 76
     0
330
1D69183399
  0
LAYOUT
  5
1D69184139
102
{ACAD_REACTORS
330
1D691837E6
102
}
330
1D691837E6
100
AcDbPlotSettings
  1

  2
\\Nt_honsya\GL-8300A
  4

  6

 40
0.0
 41
0.0
 42
0.0
 43
0.0
 44
0.0
 45
0.0
 46
0.0
 47
0.0
 48
0.0
 49
0.0
140
0.0
141
0.0
142
1.0
143
1.0
 70
   688
 72
     0
 73
     0
 74
     5
  7

 75
    16
147
1.0
148
0.0
149
0.0
100
AcDbLayout
  1
ﾚｲｱｳﾄ1
 70
     0
 71
     1
 10
0.0
 20
0.0
 11
12.0
 21
9.0
 12
0.0
 22
0.0
 32
0.0
 14
1.000000000000000E+20
 24
1.000000000000000E+20
 34
1.000000000000000E+20
 15
-1.000000000000000E+20
 25
-1.000000000000000E+20
 35
-1.000000000000000E+20
146
0.0
 13
0.0
 23
0.0
 33
0.0
 16
1.0
 26
0.0
 36
0.0
 17
0.0
 27
1.0
 37
0.0
 76
     0
330
1D69183396
  0
MLINESTYLE
  5
1D6918339C
102
{ACAD_REACTORS
330
1D6918338F
102
}
330
1D6918338F
100
AcDbMlineStyle
  2
STANDARD
 70
     0
  3

 62
     0
 51
90.0
 52
90.0
 71
     2
 49
0.5
 62
   256
  6
BYLAYER
 49
-0.5
 62
   256
  6
BYLAYER
  0
ACDBPLACEHOLDER
  5
1D691837E5
102
{ACAD_REACTORS
330
1D691837E4
102
}
330
1D691837E4
  0
DICTIONARYVAR
  5
1D69183DBA
102
{ACAD_REACTORS
330
1D69183DB9
102
}
330
1D69183DB9
100
DictionaryVariables
280
     0
  1
0
  0
ENDSEC
  0
EOF
