  0
SECTION
  2
HEADER
  9
$ACADVER
  1
AC1015
  9
$ACADMAINTVER
 70
    10
  9
$DWGCODEPAGE
  3
ANSI_932
  9
$INSBASE
 10
0.0
 20
0.0
 30
0.0
  9
$EXTMIN
 10
-0.0000005059737305
 20
-0.000000341307441
 30
0.0
  9
$EXTMAX
 10
180.9999987700266
 20
272.9999996586925
 30
240.0520776831561
  9
$LIMMIN
 10
-0.0000005059737305
 20
-0.000000341307441
  9
$LIMMAX
 10
180.9999987700266
 20
272.9999996586925
  9
$ORTHOMODE
 70
     1
  9
$REGENMODE
 70
     1
  9
$FILLMODE
 70
     1
  9
$QTEXTMODE
 70
     0
  9
$MIRRTEXT
 70
     0
  9
$LTSCALE
 40
5.0
  9
$ATTMODE
 70
     1
  9
$TEXTSIZE
 40
6.0
  9
$TRACEWID
 40
0.05
  9
$TEXTSTYLE
  7
K
  9
$CLAYER
  8
JISSEN
  9
$CELTYPE
  6
BYLAYER
  9
$CECOLOR
 62
   256
  9
$CELTSCALE
 40
1.0
  9
$DISPSILH
 70
     0
  9
$DIMSCALE
 40
1.0
  9
$DIMASZ
 40
1.099999999999998
  9
$DIMEXO
 40
1.0
  9
$DIMDLI
 40
6.0
  9
$DIMRND
 40
0.0
  9
$DIMDLE
 40
0.0
  9
$DIMEXE
 40
1.0
  9
$DIMTP
 40
0.0
  9
$DIMTM
 40
0.0
  9
$DIMTXT
 40
3.0
  9
$DIMCEN
 40
1.0
  9
$DIMTSZ
 40
0.0
  9
$DIMTOL
 70
     0
  9
$DIMLIM
 70
     0
  9
$DIMTIH
 70
     0
  9
$DIMTOH
 70
     0
  9
$DIMSE1
 70
     0
  9
$DIMSE2
 70
     0
  9
$DIMTAD
 70
     0
  9
$DIMZIN
 70
     8
  9
$DIMBLK
  1
ARROW
  9
$DIMASO
 70
     0
  9
$DIMSHO
 70
     0
  9
$DIMPOST
  1

  9
$DIMAPOST
  1

  9
$DIMALT
 70
     0
  9
$DIMALTD
 70
     2
  9
$DIMALTF
 40
25.4
  9
$DIMLFAC
 40
1.0
  9
$DIMTOFL
 70
     1
  9
$DIMTVP
 40
1.0
  9
$DIMTIX
 70
     0
  9
$DIMSOXD
 70
     0
  9
$DIMSAH
 70
     0
  9
$DIMBLK1
  1

  9
$DIMBLK2
  1

  9
$DIMSTYLE
  2
IMAO
  9
$DIMCLRD
 70
     0
  9
$DIMCLRE
 70
     0
  9
$DIMCLRT
 70
     0
  9
$DIMTFAC
 40
1.0
  9
$DIMGAP
 40
0.09
  9
$DIMJUST
 70
     0
  9
$DIMSD1
 70
     0
  9
$DIMSD2
 70
     0
  9
$DIMTOLJ
 70
     1
  9
$DIMTZIN
 70
     0
  9
$DIMALTZ
 70
     0
  9
$DIMALTTZ
 70
     0
  9
$DIMUPT
 70
     0
  9
$DIMDEC
 70
     2
  9
$DIMTDEC
 70
     2
  9
$DIMALTU
 70
     2
  9
$DIMALTTD
 70
     2
  9
$DIMTXSTY
  7
STANDARD
  9
$DIMAUNIT
 70
     0
  9
$DIMADEC
 70
     0
  9
$DIMALTRND
 40
0.0
  9
$DIMAZIN
 70
     0
  9
$DIMDSEP
 70
    46
  9
$DIMATFIT
 70
     3
  9
$DIMFRAC
 70
     0
  9
$DIMLDRBLK
  1
ARROW
  9
$DIMLUNIT
 70
     2
  9
$DIMLWD
 70
    -2
  9
$DIMLWE
 70
    -2
  9
$DIMTMOVE
 70
     0
  9
$LUNITS
 70
     2
  9
$LUPREC
 70
     2
  9
$SKETCHINC
 40
0.1
  9
$FILLETRAD
 40
0.3
  9
$AUNITS
 70
     0
  9
$AUPREC
 70
     2
  9
$MENU
  1
stdr12j
  9
$ELEVATION
 40
0.0
  9
$PELEVATION
 40
0.0
  9
$THICKNESS
 40
0.0
  9
$LIMCHECK
 70
     0
  9
$CHAMFERA
 40
0.0
  9
$CHAMFERB
 40
0.0
  9
$CHAMFERC
 40
0.0
  9
$CHAMFERD
 40
0.0
  9
$SKPOLY
 70
     0
  9
$TDCREATE
 40
2450542.749144212
  9
$TDUCREATE
 40
2450542.374144212
  9
$TDUPDATE
 40
2456268.670144988
  9
$TDUUPDATE
 40
2456268.295144988
  9
$TDINDWG
 40
1.5084522569
  9
$TDUSRTIMER
 40
1.5084516782
  9
$USRTIMER
 70
     1
  9
$ANGBASE
 50
0.0
  9
$ANGDIR
 70
     0
  9
$PDMODE
 70
     0
  9
$PDSIZE
 40
0.0
  9
$PLINEWID
 40
0.0
  9
$SPLFRAME
 70
     0
  9
$SPLINETYPE
 70
     6
  9
$SPLINESEGS
 70
     8
  9
$HANDSEED
  5
E00EDBA1
  9
$SURFTAB1
 70
     6
  9
$SURFTAB2
 70
     6
  9
$SURFTYPE
 70
     6
  9
$SURFU
 70
     6
  9
$SURFV
 70
     6
  9
$UCSBASE
  2

  9
$UCSNAME
  2

  9
$UCSORG
 10
0.0
 20
0.0
 30
0.0
  9
$UCSXDIR
 10
1.0
 20
0.0
 30
0.0
  9
$UCSYDIR
 10
0.0
 20
1.0
 30
0.0
  9
$UCSORTHOREF
  2

  9
$UCSORTHOVIEW
 70
     0
  9
$UCSORGTOP
 10
0.0
 20
0.0
 30
0.0
  9
$UCSORGBOTTOM
 10
0.0
 20
0.0
 30
0.0
  9
$UCSORGLEFT
 10
0.0
 20
0.0
 30
0.0
  9
$UCSORGRIGHT
 10
0.0
 20
0.0
 30
0.0
  9
$UCSORGFRONT
 10
0.0
 20
0.0
 30
0.0
  9
$UCSORGBACK
 10
0.0
 20
0.0
 30
0.0
  9
$PUCSBASE
  2

  9
$PUCSNAME
  2

  9
$PUCSORG
 10
0.0
 20
0.0
 30
0.0
  9
$PUCSXDIR
 10
1.0
 20
0.0
 30
0.0
  9
$PUCSYDIR
 10
0.0
 20
1.0
 30
0.0
  9
$PUCSORTHOREF
  2

  9
$PUCSORTHOVIEW
 70
     0
  9
$PUCSORGTOP
 10
0.0
 20
0.0
 30
0.0
  9
$PUCSORGBOTTOM
 10
0.0
 20
0.0
 30
0.0
  9
$PUCSORGLEFT
 10
0.0
 20
0.0
 30
0.0
  9
$PUCSORGRIGHT
 10
0.0
 20
0.0
 30
0.0
  9
$PUCSORGFRONT
 10
0.0
 20
0.0
 30
0.0
  9
$PUCSORGBACK
 10
0.0
 20
0.0
 30
0.0
  9
$USERI1
 70
     4
  9
$USERI2
 70
     1
  9
$USERI3
 70
     1
  9
$USERI4
 70
     2
  9
$USERI5
 70
     0
  9
$USERR1
 40
1.0
  9
$USERR2
 40
3.0
  9
$USERR3
 40
3.0
  9
$USERR4
 40
1.5
  9
$USERR5
 40
8.0
  9
$WORLDVIEW
 70
     1
  9
$SHADEDGE
 70
     3
  9
$SHADEDIF
 70
    70
  9
$TILEMODE
 70
     1
  9
$MAXACTVP
 70
    16
  9
$PINSBASE
 10
0.0
 20
0.0
 30
0.0
  9
$PLIMCHECK
 70
     0
  9
$PEXTMIN
 10
1.000000000000000E+20
 20
1.000000000000000E+20
 30
1.000000000000000E+20
  9
$PEXTMAX
 10
-1.000000000000000E+20
 20
-1.000000000000000E+20
 30
-1.000000000000000E+20
  9
$PLIMMIN
 10
0.0
 20
0.0
  9
$PLIMMAX
 10
12.0
 20
9.0
  9
$UNITMODE
 70
     0
  9
$VISRETAIN
 70
     0
  9
$PLINEGEN
 70
     0
  9
$PSLTSCALE
 70
     0
  9
$TREEDEPTH
 70
  3020
  9
$CMLSTYLE
  2
STANDARD
  9
$CMLJUST
 70
     0
  9
$CMLSCALE
 40
1.0
  9
$PROXYGRAPHICS
 70
     1
  9
$MEASUREMENT
 70
     0
  9
$CELWEIGHT
370
    -1
  9
$ENDCAPS
280
     0
  9
$JOINSTYLE
280
     0
  9
$LWDISPLAY
290
     0
  9
$INSUNITS
 70
     0
  9
$HYPERLINKBASE
  1

  9
$STYLESHEET
  1
aclt.ctb
  9
$XEDIT
290
     1
  9
$CEPSNTYPE
380
     0
  9
$PSTYLEMODE
290
     1
  9
$FINGERPRINTGUID
  2
{3644D75A-AD60-4D58-9D7E-D616B61E4E68}
  9
$VERSIONGUID
  2
{E6F93A17-C930-4550-A03A-D8BA2452ACB0}
  9
$EXTNAMES
290
     1
  9
$PSVPSCALE
 40
0.0
  9
$OLESTARTUP
290
     0
  0
ENDSEC
  0
SECTION
  2
CLASSES
  0
CLASS
  1
LWPOLYLINE
  2
AcDbPolyline
  3
AutoCAD 2000
 90
    32768
280
     0
281
     1
  0
CLASS
  1
DICTIONARYVAR
  2
AcDbDictionaryVar
  3
AutoCAD 2000
 90
        0
280
     0
281
     0
  0
CLASS
  1
HATCH
  2
AcDbHatch
  3
AutoCAD 2000
 90
    32768
280
     0
281
     1
  0
CLASS
  1
ACDBDICTIONARYWDFLT
  2
AcDbDictionaryWithDefault
  3
AutoCAD 2000
 90
        0
280
     0
281
     0
  0
CLASS
  1
ACDBPLACEHOLDER
  2
AcDbPlaceHolder
  3
AutoCAD 2000
 90
        0
280
     0
281
     0
  0
CLASS
  1
LAYOUT
  2
AcDbLayout
  3
AutoCAD 2000
 90
        0
280
     0
281
     0
  0
CLASS
  1
LONG_TRANSACTION
  2
AcDbLongTransaction
  3
AutoCAD 2000
 90
    32768
280
     0
281
     0
  0
CLASS
  1
LWPOLYLINE
  2
AcDbPolyline
  3
AutoCAD 2000
 90
    32768
280
     0
281
     1
  0
CLASS
  1
HATCH
  2
AcDbHatch
  3
AutoCAD 2000
 90
    32768
280
     0
281
     1
  0
CLASS
  1
XRECORD
  2
AcDbXrecord
  3
AutoCAD 2000
 90
    32768
280
     0
281
     0
  0
ENDSEC
  0
SECTION
  2
TABLES
  0
TABLE
  2
VPORT
  5
E00DEA4D
330
0
100
AcDbSymbolTable
 70
    10
  0
VPORT
  5
E00DEA82
330
E00DEA4D
100
AcDbSymbolTableRecord
100
AcDbViewportTableRecord
  2
2
 70
     0
 10
0.5
 20
0.0
 11
1.0
 21
1.0
 12
0.9240312421264802
 22
1.052650975462765
 13
0.0
 23
0.0
 14
1.0
 24
1.0
 15
10.0
 25
10.0
 16
0.0
 26
0.0
 36
1.0
 17
0.0
 27
0.0
 37
0.0
 40
2.105301950925533
 41
0.8778135048231511
 42
50.0
 43
0.0
 44
0.0
 50
0.0
 51
0.0
 71
     0
 72
   500
 73
     1
 74
     1
 75
     0
 76
     0
 77
     0
 78
     0
281
     0
 65
     1
110
0.0
120
0.0
130
0.0
111
1.0
121
0.0
131
0.0
112
0.0
122
1.0
132
0.0
 79
     0
146
0.0
  0
VPORT
  5
E00DEA83
330
E00DEA4D
100
AcDbSymbolTableRecord
100
AcDbViewportTableRecord
  2
2
 70
     0
 10
0.0
 20
0.0
 11
0.5
 21
1.0
 12
0.9240312421264802
 22
1.052650975462765
 13
0.0
 23
0.0
 14
1.0
 24
1.0
 15
10.0
 25
10.0
 16
0.0
 26
0.0
 36
1.0
 17
0.0
 27
0.0
 37
0.0
 40
2.105301950925533
 41
0.8778135048231511
 42
50.0
 43
0.0
 44
0.0
 50
0.0
 51
0.0
 71
     0
 72
   500
 73
     1
 74
     1
 75
     0
 76
     0
 77
     0
 78
     0
281
     0
 65
     1
110
0.0
120
0.0
130
0.0
111
1.0
121
0.0
131
0.0
112
0.0
122
1.0
132
0.0
 79
     0
146
0.0
  0
VPORT
  5
E00DEA84
330
E00DEA4D
100
AcDbSymbolTableRecord
100
AcDbViewportTableRecord
  2
3
 70
     0
 10
0.0
 20
0.5
 11
1.0
 21
1.0
 12
2.832169994473273
 22
1.052650975462765
 13
0.0
 23
0.0
 14
1.0
 24
1.0
 15
10.0
 25
10.0
 16
0.0
 26
0.0
 36
1.0
 17
0.0
 27
0.0
 37
0.0
 40
2.105301950925533
 41
3.571428571428571
 42
50.0
 43
0.0
 44
0.0
 50
0.0
 51
0.0
 71
     0
 72
   500
 73
     1
 74
     1
 75
     0
 76
     0
 77
     0
 78
     0
281
     0
 65
     1
110
0.0
120
0.0
130
0.0
111
1.0
121
0.0
131
0.0
112
0.0
122
1.0
132
0.0
 79
     0
146
0.0
  0
VPORT
  5
E00DEA85
330
E00DEA4D
100
AcDbSymbolTableRecord
100
AcDbViewportTableRecord
  2
3
 70
     0
 10
0.0
 20
0.0
 11
1.0
 21
0.5
 12
2.856741679241311
 22
1.052650975462765
 13
0.0
 23
0.0
 14
1.0
 24
1.0
 15
10.0
 25
10.0
 16
0.0
 26
0.0
 36
1.0
 17
0.0
 27
0.0
 37
0.0
 40
2.105301950925533
 41
3.594771241830064
 42
50.0
 43
0.0
 44
0.0
 50
0.0
 51
0.0
 71
     0
 72
   500
 73
     1
 74
     1
 75
     0
 76
     0
 77
     0
 78
     0
281
     0
 65
     1
110
0.0
120
0.0
130
0.0
111
1.0
121
0.0
131
0.0
112
0.0
122
1.0
132
0.0
 79
     0
146
0.0
  0
VPORT
  5
E00DEA86
330
E00DEA4D
100
AcDbSymbolTableRecord
100
AcDbViewportTableRecord
  2
4
 70
     0
 10
0.5
 20
0.0
 11
1.0
 21
0.5
 12
2.886857516709718
 22
1.052650975462765
 13
0.0
 23
0.0
 14
1.0
 24
1.0
 15
10.0
 25
10.0
 16
0.0
 26
0.0
 36
1.0
 17
0.0
 27
0.0
 37
0.0
 40
4.275207030309069
 41
1.784313725490195
 42
50.0
 43
0.0
 44
0.0
 50
0.0
 51
0.0
 71
     0
 72
   500
 73
     1
 74
     1
 75
     0
 76
     0
 77
     0
 78
     0
281
     0
 65
     1
110
0.0
120
0.0
130
0.0
111
1.0
121
0.0
131
0.0
112
0.0
122
1.0
132
0.0
 79
     0
146
0.0
  0
VPORT
  5
E00DEA87
330
E00DEA4D
100
AcDbSymbolTableRecord
100
AcDbViewportTableRecord
  2
4
 70
     0
 10
0.5
 20
0.5
 11
1.0
 21
1.0
 12
2.862090274555523
 22
1.052650975462765
 13
0.0
 23
0.0
 14
1.0
 24
1.0
 15
10.0
 25
10.0
 16
0.0
 26
0.0
 36
1.0
 17
0.0
 27
0.0
 37
0.0
 40
4.275207030309069
 41
1.772727272727271
 42
50.0
 43
0.0
 44
0.0
 50
0.0
 51
0.0
 71
     0
 72
   500
 73
     1
 74
     1
 75
     0
 76
     0
 77
     0
 78
     0
281
     0
 65
     1
110
0.0
120
0.0
130
0.0
111
1.0
121
0.0
131
0.0
112
0.0
122
1.0
132
0.0
 79
     0
146
0.0
  0
VPORT
  5
E00DEA88
330
E00DEA4D
100
AcDbSymbolTableRecord
100
AcDbViewportTableRecord
  2
4
 70
     0
 10
0.0
 20
0.5
 11
0.5
 21
1.0
 12
2.862090274555523
 22
1.052650975462765
 13
0.0
 23
0.0
 14
1.0
 24
1.0
 15
10.0
 25
10.0
 16
0.0
 26
0.0
 36
1.0
 17
0.0
 27
0.0
 37
0.0
 40
4.275207030309069
 41
1.772727272727271
 42
50.0
 43
0.0
 44
0.0
 50
0.0
 51
0.0
 71
     0
 72
   500
 73
     1
 74
     1
 75
     0
 76
     0
 77
     0
 78
     0
281
     0
 65
     1
110
0.0
120
0.0
130
0.0
111
1.0
121
0.0
131
0.0
112
0.0
122
1.0
132
0.0
 79
     0
146
0.0
  0
VPORT
  5
E00DEA89
330
E00DEA4D
100
AcDbSymbolTableRecord
100
AcDbViewportTableRecord
  2
4
 70
     0
 10
0.0
 20
0.0
 11
0.5
 21
0.5
 12
2.886857516709718
 22
1.052650975462765
 13
0.0
 23
0.0
 14
1.0
 24
1.0
 15
10.0
 25
10.0
 16
0.0
 26
0.0
 36
1.0
 17
0.0
 27
0.0
 37
0.0
 40
4.275207030309069
 41
1.784313725490195
 42
50.0
 43
0.0
 44
0.0
 50
0.0
 51
0.0
 71
     0
 72
   500
 73
     1
 74
     1
 75
     0
 76
     0
 77
     0
 78
     0
281
     0
 65
     1
110
0.0
120
0.0
130
0.0
111
1.0
121
0.0
131
0.0
112
0.0
122
1.0
132
0.0
 79
     0
146
0.0
  0
VPORT
  5
E00EDBA0
330
E00DEA4D
100
AcDbSymbolTableRecord
100
AcDbViewportTableRecord
  2
*Active
 70
     0
 10
0.0
 20
0.0
 11
1.0
 21
1.0
 12
90.49447626420361
 22
136.500000499305
 13
0.0
 23
0.0
 14
1.0
 24
1.0
 15
10.0
 25
10.0
 16
0.0
 26
0.0
 36
1.0
 17
0.0
 27
0.0
 37
0.0
 40
275.0823624407854
 41
1.588383838383838
 42
50.0
 43
0.0
 44
0.0
 50
0.0
 51
0.0
 71
     0
 72
   500
 73
     1
 74
     0
 75
     0
 76
     0
 77
     0
 78
     0
281
     0
 65
     1
110
0.0
120
0.0
130
0.0
111
1.0
121
0.0
131
0.0
112
0.0
122
1.0
132
0.0
 79
     0
146
0.0
  0
ENDTAB
  0
TABLE
  2
LTYPE
  5
E00DEA4A
330
0
100
AcDbSymbolTable
 70
     5
  0
LTYPE
  5
E00DEA57
330
E00DEA4A
100
AcDbSymbolTableRecord
100
AcDbLinetypeTableRecord
  2
BYBLOCK
 70
     0
  3

 72
    65
 73
     0
 40
0.0
  0
LTYPE
  5
E00DEA58
330
E00DEA4A
100
AcDbSymbolTableRecord
100
AcDbLinetypeTableRecord
  2
BYLAYER
 70
     0
  3

 72
    65
 73
     0
 40
0.0
  0
LTYPE
  5
E00DEA59
330
E00DEA4A
100
AcDbSymbolTableRecord
100
AcDbLinetypeTableRecord
  2
CONTINUOUS
 70
     0
  3
実線
 72
    65
 73
     0
 40
0.0
  0
LTYPE
  5
E00DEA7E
330
E00DEA4A
100
AcDbSymbolTableRecord
100
AcDbLinetypeTableRecord
  2
CENTER
 70
     0
  3
____ _ ____ _ ____ _ ____ _ ____ _ ____ _ ____
 72
    65
 73
     4
 40
2.0
 49
1.25
 74
     0
 49
-0.25
 74
     0
 49
0.25
 74
     0
 49
-0.25
 74
     0
  0
LTYPE
  5
E00DEA81
330
E00DEA4A
100
AcDbSymbolTableRecord
100
AcDbLinetypeTableRecord
  2
HIDDEN
 70
     0
  3
_ _ _ _ _ _ _ _ _ _ _ _ _ _ _ _ _ _ _ _ _ _ _
 72
    65
 73
     2
 40
0.375
 49
0.25
 74
     0
 49
-0.125
 74
     0
  0
LTYPE
  5
E00E0AD4
330
E00DEA4A
100
AcDbSymbolTableRecord
100
AcDbLinetypeTableRecord
  2
PHANTOM
 70
     0
  3
Phantom ______  __  __  ______  __  __  ______
 72
    65
 73
     6
 40
2.5
 49
1.25
 74
     0
 49
-0.25
 74
     0
 49
0.25
 74
     0
 49
-0.25
 74
     0
 49
0.25
 74
     0
 49
-0.25
 74
     0
  0
LTYPE
  5
E00ECC5C
330
E00DEA4A
100
AcDbSymbolTableRecord
100
AcDbLinetypeTableRecord
  2
SLD-実線
 70
     0
  3
SolidWorks Line Style
 72
    65
 73
     0
 40
0.0
  0
ENDTAB
  0
TABLE
  2
LAYER
  5
E00DEA47
102
{ACAD_XDICTIONARY
360
E00DFB39
102
}
330
0
100
AcDbSymbolTable
 70
    13
  0
LAYER
  5
E00DEA54
330
E00DEA47
100
AcDbSymbolTableRecord
100
AcDbLayerTableRecord
  2
0
 70
     0
 62
     6
  6
CONTINUOUS
370
    -3
390
E00DFA69
  0
LAYER
  5
E00DEA8D
330
E00DEA47
100
AcDbSymbolTableRecord
100
AcDbLayerTableRecord
  2
ITTEN
 70
     0
 62
     1
  6
CENTER
370
    -3
390
E00DFA69
  0
LAYER
  5
E00DEA8F
330
E00DEA47
100
AcDbSymbolTableRecord
100
AcDbLayerTableRecord
  2
HATCH
 70
     0
 62
     4
  6
CONTINUOUS
370
    -3
390
E00DFA69
  0
LAYER
  5
E00DEA90
330
E00DEA47
100
AcDbSymbolTableRecord
100
AcDbLayerTableRecord
  2
SUNPOU
 70
     0
 62
     3
  6
CONTINUOUS
370
    -3
390
E00DFA69
  0
LAYER
  5
E00DEA91
330
E00DEA47
100
AcDbSymbolTableRecord
100
AcDbLayerTableRecord
  2
TEXT
 70
     0
 62
     3
  6
CONTINUOUS
370
    -3
390
E00DFA69
  0
LAYER
  5
E00DEA92
330
E00DEA47
100
AcDbSymbolTableRecord
100
AcDbLayerTableRecord
  2
SAISEN
 70
     0
 62
     4
  6
CONTINUOUS
370
    -3
390
E00DFA69
  0
LAYER
  5
E00DEA93
330
E00DEA47
100
AcDbSymbolTableRecord
100
AcDbLayerTableRecord
  2
JISSEN
 70
     0
 62
     7
  6
CONTINUOUS
370
    -3
390
E00DFA69
  0
LAYER
  5
E00DEA96
330
E00DEA47
100
AcDbSymbolTableRecord
100
AcDbLayerTableRecord
  2
WAKU
 70
     0
 62
     5
  6
CONTINUOUS
370
    -3
390
E00DFA69
  0
LAYER
  5
E00DEA97
330
E00DEA47
100
AcDbSymbolTableRecord
100
AcDbLayerTableRecord
  2
TENSEN
 70
     0
 62
     2
  6
HIDDEN
370
    -3
390
E00DFA69
  0
LAYER
  5
E00E0AD5
330
E00DEA47
100
AcDbSymbolTableRecord
100
AcDbLayerTableRecord
  2
SCALE
 70
     0
 62
     4
  6
CONTINUOUS
370
    -3
390
E00DFA69
  0
LAYER
  5
E00E0AD6
330
E00DEA47
100
AcDbSymbolTableRecord
100
AcDbLayerTableRecord
  2
BORDER
 70
     0
 62
     5
  6
CONTINUOUS
370
    -3
390
E00DFA69
  0
LAYER
  5
E00E0AD7
330
E00DEA47
100
AcDbSymbolTableRecord
100
AcDbLayerTableRecord
  2
NITEN
 70
     0
 62
     2
  6
PHANTOM
370
    -3
390
E00DFA69
  0
LAYER
  5
E00E5AB9
330
E00DEA47
100
AcDbSymbolTableRecord
100
AcDbLayerTableRecord
  2
DEFPOINTS
 70
     0
 62
    -7
  6
CONTINUOUS
290
     0
370
    -3
390
E00DFA69
  0
ENDTAB
  0
TABLE
  2
STYLE
  5
E00DEA48
330
0
100
AcDbSymbolTable
 70
     5
  0
STYLE
  5
E00DEA55
330
E00DEA48
100
AcDbSymbolTableRecord
100
AcDbTextStyleTableRecord
  2
STANDARD
 70
     0
 40
0.0
 41
1.0
 50
0.0
 71
     0
 42
2.5
  3
SIMPLEX
  4

  0
STYLE
  5
E00DEA7C
330
E00DEA48
100
AcDbSymbolTableRecord
100
AcDbTextStyleTableRecord
  2
K
 70
     0
 40
0.0
 41
1.0
 50
0.0
 71
     0
 42
6.0
  3
SIMPLEX
  4
bigfont.shx
  0
STYLE
  5
E00DFB37
330
E00DEA48
100
AcDbSymbolTableRecord
100
AcDbTextStyleTableRecord
  2
DIMENSION
 70
     0
 40
0.0
 41
1.0
 50
0.0
 71
     0
 42
2.5
  3
TXT
  4

  0
STYLE
  5
E00EC309
330
E00DEA48
100
AcDbSymbolTableRecord
100
AcDbTextStyleTableRecord
  2
BIGFONT
 70
     0
 40
0.0
 41
1.0
 50
0.0
 71
     0
 42
3.0
  3
txt.shx
  4
bigfont
  0
STYLE
  5
E00ECC5D
330
E00DEA48
100
AcDbSymbolTableRecord
100
AcDbTextStyleTableRecord
  2
ROMANS
 70
     0
 40
0.0
 41
0.8
 50
0.0
 71
     0
 42
6.0
  3
romans
  4

  0
ENDTAB
  0
TABLE
  2
VIEW
  5
E00DEA4B
330
0
100
AcDbSymbolTable
 70
     0
  0
ENDTAB
  0
TABLE
  2
UCS
  5
E00DEA4C
330
0
100
AcDbSymbolTable
 70
     0
  0
ENDTAB
  0
TABLE
  2
APPID
  5
E00DEA4E
330
0
100
AcDbSymbolTable
 70
     8
  0
APPID
  5
E00DEA56
330
E00DEA4E
100
AcDbSymbolTableRecord
100
AcDbRegAppTableRecord
  2
ACAD
 70
     0
  0
APPID
  5
E00E89BA
330
E00DEA4E
100
AcDbSymbolTableRecord
100
AcDbRegAppTableRecord
  2
CONTENTBLOCKICON
 70
     0
  0
APPID
  5
E00E89BB
330
E00DEA4E
100
AcDbSymbolTableRecord
100
AcDbRegAppTableRecord
  2
X_OBJNAME
 70
     0
  0
APPID
  5
E00E89BC
330
E00DEA4E
100
AcDbSymbolTableRecord
100
AcDbRegAppTableRecord
  2
X_PARAM_BALLOON
 70
     0
  0
APPID
  5
E00E89BD
330
E00DEA4E
100
AcDbSymbolTableRecord
100
AcDbRegAppTableRecord
  2
X_PARAM_TXTPATERN
 70
     0
  0
APPID
  5
E00E89BE
330
E00DEA4E
100
AcDbSymbolTableRecord
100
AcDbRegAppTableRecord
  2
X_PARAM_CTXTPATERN
 70
     0
  0
APPID
  5
E00E89BF
330
E00DEA4E
100
AcDbSymbolTableRecord
100
AcDbRegAppTableRecord
  2
X_PARAM_SYSVAL
 70
     0
  0
APPID
  5
E00E89C0
330
E00DEA4E
100
AcDbSymbolTableRecord
100
AcDbRegAppTableRecord
  2
X_DEFINELIST
 70
     0
  0
ENDTAB
  0
TABLE
  2
DIMSTYLE
  5
E00DEA4F
330
0
100
AcDbSymbolTable
 70
     2
100
AcDbDimStyleTable
 71
     1
340
E00DEA8C
  0
DIMSTYLE
105
E00DEA8C
330
E00DEA4F
100
AcDbSymbolTableRecord
100
AcDbDimStyleTableRecord
  2
IMAO
 70
     0
 41
1.5
 42
1.0
 43
6.0
 44
1.0
 47
495.0
 73
     0
 74
     0
 77
     1
 78
     8
140
3.0
141
0.0
172
     1
174
     1
271
     2
272
     2
279
     2
284
     8
285
     8
286
     8
340
E00DEA7C
341
E00DEA68
342
E00DEA68
343
E00DEA68
344
E00DEA68
  0
DIMSTYLE
105
E00DFB38
330
E00DEA4F
100
AcDbSymbolTableRecord
100
AcDbDimStyleTableRecord
  2
STANDARD
 70
     0
 40
0.5
 41
2.0
 42
0.1
 43
10.0
 44
1.5
 73
     0
 74
     0
 78
     8
140
3.0
145
1.0
147
0.1
172
     1
176
   256
177
   256
178
   256
271
     2
272
     2
284
     8
340
E00DFB37
341
E00DFB2F
342
E00DFB2F
  0
ENDTAB
  0
TABLE
  2
BLOCK_RECORD
  5
E00DEA46
330
0
100
AcDbSymbolTable
 70
     4
  0
BLOCK_RECORD
  5
E00DEA5D
102
{ACAD_XDICTIONARY
360
E00DFB13
102
}
330
E00DEA46
100
AcDbSymbolTableRecord
100
AcDbBlockTableRecord
  2
*MODEL_SPACE
340
E00DFA6C
  0
BLOCK_RECORD
  5
E00DEA5A
102
{ACAD_XDICTIONARY
360
E00DFB11
102
}
330
E00DEA46
100
AcDbSymbolTableRecord
100
AcDbBlockTableRecord
  2
*PAPER_SPACE
340
E00DFA6D
  0
BLOCK_RECORD
  5
E00DEA61
330
E00DEA46
100
AcDbSymbolTableRecord
100
AcDbBlockTableRecord
  2
ARROW
340
0
  0
BLOCK_RECORD
  5
E00DEA68
330
E00DEA46
100
AcDbSymbolTableRecord
100
AcDbBlockTableRecord
  2
ARROWANG
340
0
  0
BLOCK_RECORD
  5
E00DFB2F
330
E00DEA46
100
AcDbSymbolTableRecord
100
AcDbBlockTableRecord
  2
AR_OPEN
340
0
  0
BLOCK_RECORD
  5
E00E0A21
330
E00DEA46
100
AcDbSymbolTableRecord
100
AcDbBlockTableRecord
  2
WAKU
340
0
  0
ENDTAB
  0
ENDSEC
  0
SECTION
  2
BLOCKS
  0
BLOCK
  5
E00DEA9A
330
E00DEA5D
100
AcDbEntity
  8
0
100
AcDbBlockBegin
  2
*MODEL_SPACE
 70
     0
 10
0.0
 20
0.0
 30
0.0
  3
*MODEL_SPACE
  1

  0
ENDBLK
  5
E00DEA9B
330
E00DEA5D
100
AcDbEntity
  8
0
100
AcDbBlockEnd
  0
BLOCK
  5
E00DEA98
330
E00DEA5A
100
AcDbEntity
 67
     1
  8
0
100
AcDbBlockBegin
  2
*PAPER_SPACE
 70
     0
 10
0.0
 20
0.0
 30
0.0
  3
*PAPER_SPACE
  1

  0
ENDBLK
  5
E00DEA99
330
E00DEA5A
100
AcDbEntity
 67
     1
  8
0
100
AcDbBlockEnd
  0
BLOCK
  5
41E
330
E00DEA61
100
AcDbEntity
  8
0
100
AcDbBlockBegin
  2
ARROW
 70
     0
 10
1.0
 20
0.5
 30
0.0
  3
ARROW
  1

  0
LINE
  5
41F
330
E00DEA61
100
AcDbEntity
  8
0
100
AcDbLine
 10
1.0
 20
0.5
 30
0.0
 11
-0.5000000000000214
 21
0.0980762113533018
 31
0.0
  0
LINE
  5
420
330
E00DEA61
100
AcDbEntity
  8
0
100
AcDbLine
 10
0.0
 20
0.5
 30
0.0
 11
1.0
 21
0.5
 31
0.0
  0
LINE
  5
421
330
E00DEA61
100
AcDbEntity
  8
0
100
AcDbLine
 10
1.0
 20
0.5
 30
0.0
 11
-0.4999999999999575
 21
0.9019237886467408
 31
0.0
  0
ENDBLK
  5
422
330
E00DEA61
100
AcDbEntity
  8
0
100
AcDbBlockEnd
  0
BLOCK
  5
460
330
E00DEA68
100
AcDbEntity
  8
0
100
AcDbBlockBegin
  2
ARROWANG
 70
     0
 10
0.0
 20
0.0
 30
0.0
  3
ARROWANG
  1

  0
LINE
  5
461
330
E00DEA68
100
AcDbEntity
  8
SUNPOU
100
AcDbLine
 10
0.0
 20
0.0
 30
0.0
 11
-1.499999999999956
 21
0.401923788646741
 31
0.0
  0
LINE
  5
462
330
E00DEA68
100
AcDbEntity
  8
SUNPOU
100
AcDbLine
 10
0.0
 20
0.0
 30
0.0
 11
-1.500000000000027
 21
-0.4019237886467124
 31
0.0
  0
ENDBLK
  5
463
330
E00DEA68
100
AcDbEntity
  8
0
100
AcDbBlockEnd
  0
BLOCK
  5
E00DFB33
330
E00DFB2F
100
AcDbEntity
  8
0
100
AcDbBlockBegin
  2
AR_OPEN
 70
     0
 10
0.0
 20
0.0
 30
0.0
  3
AR_OPEN
  1

  0
LINE
  5
E00DFB30
330
E00DFB2F
100
AcDbEntity
  8
0
 62
     0
100
AcDbLine
 10
-1.0
 20
0.0
 30
0.0
 11
0.0
 21
0.0
 31
0.0
  0
LINE
  5
E00DFB31
330
E00DFB2F
100
AcDbEntity
  8
0
 62
     0
100
AcDbLine
 10
0.0
 20
0.0
 30
0.0
 11
-1.0
 21
0.2679491924311037
 31
0.0
  0
LINE
  5
E00DFB32
330
E00DFB2F
100
AcDbEntity
  8
0
 62
     0
100
AcDbLine
 10
0.0
 20
0.0
 30
0.0
 11
-1.0
 21
-0.2679491924311037
 31
0.0
  0
ENDBLK
  5
E00DFB34
330
E00DFB2F
100
AcDbEntity
  8
0
100
AcDbBlockEnd
  0
BLOCK
  5
E00E0A26
330
E00E0A21
100
AcDbEntity
  8
0
100
AcDbBlockBegin
  2
WAKU
 70
     0
 10
0.0
 20
0.0
 30
0.0
  3
WAKU
  1

  0
LINE
  5
E00E0A22
330
E00E0A21
100
AcDbEntity
  8
WAKU
100
AcDbLine
 10
0.9999999959999998
 20
0.0
 30
0.0
 11
0.9999999959999998
 21
0.9999999999999998
 31
0.0
  0
LINE
  5
E00E0A23
330
E00E0A21
100
AcDbEntity
  8
WAKU
100
AcDbLine
 10
0.0
 20
0.9999999999999998
 30
0.0
 11
0.9999999959999998
 21
0.9999999999999998
 31
0.0
  0
LINE
  5
E00E0A24
330
E00E0A21
100
AcDbEntity
  8
WAKU
100
AcDbLine
 10
0.9999999959999998
 20
0.0
 30
0.0
 11
0.0
 21
0.0
 31
0.0
  0
LINE
  5
E00E0A25
330
E00E0A21
100
AcDbEntity
  8
WAKU
100
AcDbLine
 10
0.0
 20
0.0
 30
0.0
 11
0.0
 21
0.9999999999999998
 31
0.0
  0
ENDBLK
  5
E00E0A27
330
E00E0A21
100
AcDbEntity
  8
0
100
AcDbBlockEnd
  0
ENDSEC
  0
SECTION
  2
ENTITIES
  0
LINE
  5
E00EDAA5
330
E00DEA5D
100
AcDbEntity
  8
JISSEN
100
AcDbLine
 10
90.7161844024945
 20
202.9478149933429
 30
0.0
 11
87.10575889019537
 21
202.9478149933429
 31
0.0
  0
SPLINE
  5
E00EDAA6
330
E00DEA5D
100
AcDbEntity
  8
JISSEN
100
AcDbSpline
210
0.0
220
0.0
230
1.0
 70
     8
 71
     3
 72
    16
 73
    12
 74
     0
 42
0.0000000001
 43
0.0000000001
 40
0.0
 40
0.0
 40
0.0
 40
0.0
 40
0.2500000000000009
 40
0.2500000000000009
 40
0.3750000000000013
 40
0.3750000000000013
 40
0.5000000000000018
 40
0.5000000000000018
 40
0.7500000000000009
 40
0.7500000000000009
 40
1.0
 40
1.0
 40
1.0
 40
1.0
 10
89.81618443098751
 20
175.1467362678913
 30
0.0
 10
89.81618443098751
 20
175.137623123478
 30
0.0
 10
89.87538803605048
 20
175.0703884006898
 30
0.0
 10
90.0188959022339
 20
174.9200638681113
 30
0.0
 10
90.07593639616288
 20
174.861550274606
 30
0.0
 10
90.20013487665847
 20
174.7359404084972
 30
0.0
 10
90.26801283390842
 20
174.6680928978121
 30
0.0
 10
90.4859107039806
 20
174.4521642813188
 30
0.0
 10
90.64262856302731
 20
174.2991436990551
 30
0.0
 10
90.97331539714241
 20
173.9783622809291
 30
0.0
 10
91.14574082543413
 20
173.812133016544
 30
0.0
 10
91.3161844309875
 20
173.6478151051223
 30
0.0
  0
SPLINE
  5
E00EDAA7
330
E00DEA5D
100
AcDbEntity
  8
JISSEN
100
AcDbSpline
210
0.0
220
0.0
230
1.0
 70
     8
 71
     3
 72
     8
 73
     4
 74
     0
 42
0.0000000001
 43
0.0000000001
 40
0.0
 40
0.0
 40
0.0
 40
0.0
 40
2.236014716865069
 40
2.236014716865111
 40
2.236014716865111
 40
2.236014716865111
 10
89.81618441794353
 20
194.951486818295
 30
0.0
 10
90.31736845807676
 20
195.780347431184
 30
0.0
 10
90.81855249821002
 20
196.609208044073
 30
0.0
 10
91.31618443099297
 20
196.6097273843433
 30
0.0
  0
SPLINE
  5
E00EDAA8
330
E00DEA5D
100
AcDbEntity
  8
JISSEN
100
AcDbSpline
210
0.0
220
0.0
230
1.0
 70
     8
 71
     3
 72
     8
 73
     4
 74
     0
 42
0.0000000001
 43
0.0000000001
 40
0.0
 40
0.0
 40
0.0
 40
0.0
 40
2.236014716865069
 40
2.236014716865111
 40
2.236014716865111
 40
2.236014716865111
 10
89.81618441794365
 20
139.9621328013135
 30
0.0
 10
90.31736845807676
 20
140.7909934142026
 30
0.0
 10
90.81855249821002
 20
141.6198540270916
 30
0.0
 10
91.31618443099307
 20
141.6203733673619
 30
0.0
  0
LINE
  5
E00EDAA9
330
E00DEA5D
100
AcDbEntity
  8
JISSEN
100
AcDbLine
 10
71.56618352199302
 20
172.1478147325933
 30
0.0
 11
91.31618443099297
 21
172.1478147325933
 31
0.0
  0
ARC
  5
E00EDAAA
330
E00DEA5D
100
AcDbEntity
  8
JISSEN
100
AcDbCircle
 10
91.31618443099297
 20
130.3213783484034
 30
0.0
 40
1.5
100
AcDbArc
 50
201.647108497037
 51
270.0
  0
SPLINE
  5
E00EDAAB
330
E00DEA5D
100
AcDbEntity
  8
JISSEN
100
AcDbSpline
210
0.0
220
0.0
230
1.0
 70
     8
 71
     3
 72
     8
 73
     4
 74
     0
 42
0.0000000001
 43
0.0000000001
 40
0.0
 40
0.0
 40
0.0
 40
0.0
 40
2.236014716865069
 40
2.236014716865111
 40
2.236014716865111
 40
2.236014716865111
 10
89.81618441794353
 20
83.18062389549323
 30
0.0
 10
90.31736845807666
 20
82.35176328260422
 30
0.0
 10
90.81855249820979
 20
81.52290266971522
 30
0.0
 10
91.31618443099297
 20
81.5223833294449
 30
0.0
  0
SPLINE
  5
E00EDAAC
330
E00DEA5D
100
AcDbEntity
  8
JISSEN
100
AcDbSpline
210
0.0
220
0.0
230
1.0
 70
     8
 71
     3
 72
    10
 73
     6
 74
     0
 42
0.0000000001
 43
0.0000000001
 40
0.0
 40
0.0
 40
0.0
 40
0.0
 40
0.5
 40
0.5
 40
1.0
 40
1.0
 40
1.0
 40
1.0
 10
90.34150088668367
 20
92.82137834840705
 30
0.0
 10
90.48685892251205
 20
92.66826788400157
 30
0.0
 10
90.6431530156883
 20
92.50553125132592
 30
0.0
 10
90.97352890371121
 20
92.16631784589571
 30
0.0
 10
91.14506305803615
 20
91.99252345467085
 30
0.0
 10
91.3161844309875
 20
91.82137834840705
 30
0.0
  0
ARC
  5
E00EDAAD
330
E00DEA5D
100
AcDbEntity
  8
JISSEN
100
AcDbCircle
 10
91.31618443099297
 20
92.82137834840341
 30
0.0
 40
1.5
100
AcDbArc
 50
90.0
 51
158.3528915029629
  0
ARC
  5
E00EDAAE
330
E00DEA5D
100
AcDbEntity
  8
JISSEN
100
AcDbCircle
 10
91.31618443099297
 20
111.5713783484034
 30
0.0
 40
21.25000000000001
100
AcDbArc
 50
180.0000113140641
 51
270.0000113141162
  0
ARC
  5
E00EDAAF
330
E00DEA5D
100
AcDbEntity
  8
JISSEN
100
AcDbCircle
 10
91.31618443099297
 20
111.5713783484034
 30
0.0
 40
21.25000000000001
100
AcDbArc
 50
89.99998868588376
 51
179.9999886859358
  0
SPLINE
  5
E00EDAB0
330
E00DEA5D
100
AcDbEntity
  8
JISSEN
100
AcDbSpline
210
0.0
220
0.0
230
1.0
 70
     8
 71
     3
 72
    10
 73
     6
 74
     0
 42
0.0000000001
 43
0.0000000001
 40
0.0
 40
0.0
 40
0.0
 40
0.0
 40
0.5
 40
0.5
 40
1.0
 40
1.0
 40
1.0
 40
1.0
 10
90.34150088668367
 20
130.3213783483997
 30
0.0
 10
90.48685892251205
 20
130.4744888128052
 30
0.0
 10
90.6431530156883
 20
130.6372254454809
 30
0.0
 10
90.97352890371121
 20
130.9764388509111
 30
0.0
 10
91.14506305803615
 20
131.1502332421359
 30
0.0
 10
91.3161844309875
 20
131.3213783483997
 30
0.0
  0
ARC
  5
E00EDAB1
330
E00DEA5D
100
AcDbEntity
  8
JISSEN
100
AcDbCircle
 10
91.31618443099297
 20
111.5713783484034
 30
0.0
 40
15.0
100
AcDbArc
 50
180.0
 51
0.0
  0
ARC
  5
E00EDAB2
330
E00DEA5D
100
AcDbEntity
  8
JISSEN
100
AcDbCircle
 10
91.31618443099297
 20
111.5713783484034
 30
0.0
 40
15.0
100
AcDbArc
 50
0.0
 51
180.0
  0
LINE
  5
E00EDAB3
330
E00DEA5D
100
AcDbEntity
  8
JISSEN
100
AcDbLine
 10
57.31618258324534
 20
197.9478151051434
 30
0.0
 11
91.31618443099297
 21
197.9478151051434
 31
0.0
  0
ARC
  5
E00EDAB4
330
E00DEA5D
100
AcDbEntity
  8
JISSEN
100
AcDbCircle
 10
91.31618443099297
 20
111.5713783484034
 30
0.0
 40
34.0
100
AcDbArc
 50
180.0
 51
0.0
  0
ARC
  5
E00EDAB5
330
E00DEA5D
100
AcDbEntity
  8
JISSEN
100
AcDbCircle
 10
91.31618443099297
 20
111.5713783484034
 30
0.0
 40
34.0
100
AcDbArc
 50
0.0
 51
180.0
  0
LWPOLYLINE
  5
E00EDAB6
330
E00DEA5D
100
AcDbEntity
  8
WAKU
100
AcDbPolyline
 90
        4
 70
     1
 43
0.0
 10
180.9999987700266
 20
-0.000000341307441
 10
-0.0000005059737305
 20
-0.000000341307441
 10
-0.0000005059737305
 20
272.9999996586925
 10
180.9999987700266
 20
272.9999996586925
  0
LINE
  5
E00EDAB7
330
E00DEA5D
100
AcDbEntity
  8
JISSEN
100
AcDbLine
 10
89.81618441794353
 20
139.9743734092935
 30
0.0
 11
89.81618441794353
 21
132.7683714162531
 31
0.0
  0
SPLINE
  5
E00EDAB8
330
E00DEA5D
100
AcDbEntity
  8
JISSEN
100
AcDbSpline
210
0.0
220
0.0
230
1.0
 70
     8
 71
     3
 72
     8
 73
     4
 74
     0
 42
0.0000000001
 43
0.0000000001
 40
0.0
 40
0.0
 40
0.0
 40
0.0
 40
2.236014716865069
 40
2.236014716865111
 40
2.236014716865111
 40
2.236014716865111
 10
62.92542997808254
 20
110.0713783353539
 30
0.0
 10
62.09656936519377
 20
110.572562375487
 30
0.0
 10
61.26770875230477
 20
111.0737464156204
 30
0.0
 10
61.26718941203421
 20
111.5713783484034
 30
0.0
  0
SPLINE
  5
E00EDAB9
330
E00DEA5D
100
AcDbEntity
  8
JISSEN
100
AcDbSpline
210
0.0
220
0.0
230
1.0
 70
     8
 71
     3
 72
     8
 73
     4
 74
     0
 42
0.0000000001
 43
0.0000000001
 40
0.0
 40
0.0
 40
0.0
 40
0.0
 40
2.236014716865069
 40
2.236014716865111
 40
2.236014716865111
 40
2.236014716865111
 10
62.92542997808254
 20
113.0713783614528
 30
0.0
 10
62.09656936519377
 20
112.5701943213198
 30
0.0
 10
61.26770875230477
 20
112.0690102811868
 30
0.0
 10
61.26718941203421
 20
111.5713783484034
 30
0.0
  0
LINE
  5
E00EDABA
330
E00DEA5D
100
AcDbEntity
  8
JISSEN
100
AcDbLine
 10
89.81618441794353
 20
93.48837593010376
 30
0.0
 11
89.81618441794353
 21
94.27636237255411
 31
0.0
  0
ARC
  5
E00EDABB
330
E00DEA5D
100
AcDbEntity
  8
JISSEN
100
AcDbCircle
 10
91.31618443099297
 20
111.5713783484034
 30
0.0
 40
17.25000000000002
100
AcDbArc
 50
228.000000000006
 51
265.011458024399
  0
ARC
  5
E00EDABC
330
E00DEA5D
100
AcDbEntity
  8
JISSEN
100
AcDbCircle
 10
91.31618443099297
 20
111.5713783484034
 30
0.0
 40
18.25
100
AcDbArc
 50
184.3813846339228
 51
265.618615366078
  0
LINE
  5
E00EDABD
330
E00DEA5D
100
AcDbEntity
  8
JISSEN
100
AcDbLine
 10
89.81618441794353
 20
83.1880254373682
 30
0.0
 11
89.81618441794353
 21
90.37438528055373
 31
0.0
  0
SPLINE
  5
E00EDABE
330
E00DEA5D
100
AcDbEntity
  8
JISSEN
100
AcDbSpline
210
0.0
220
0.0
230
1.0
 70
    24
 71
     3
 72
     9
 73
     5
 74
     0
 42
0.0000000001
 43
0.0000000001
 40
0.0
 40
0.0
 40
0.0
 40
0.0
 40
0.5
 40
1.0
 40
1.0
 40
1.0
 40
1.0
 10
89.81618443098751
 20
93.38312664572823
 30
0.0
 10
89.81618443098751
 20
93.40061202125889
 30
0.0
 10
89.81618443098751
 20
93.43563862720202
 30
0.0
 10
89.81618443098751
 20
93.47077739149154
 30
0.0
 10
89.81618443098751
 20
93.48837503026606
 30
0.0
  0
SPLINE
  5
E00EDABF
330
E00DEA5D
100
AcDbEntity
  8
JISSEN
100
AcDbSpline
210
0.0
220
0.0
230
1.0
 70
     8
 71
     3
 72
    12
 73
     8
 74
     0
 42
0.0000000001
 43
0.0000000001
 40
0.0
 40
0.0
 40
0.0
 40
0.0
 40
0.2500000000000007
 40
0.2500000000000007
 40
0.5000000000000015
 40
0.5000000000000015
 40
1.0
 40
1.0
 40
1.0
 40
1.0
 10
89.92197418062232
 20
93.37471168174033
 30
0.0
 10
89.92197418062232
 20
93.37471168174033
 30
0.0
 10
89.93085266127446
 20
93.36032715552846
 30
0.0
 10
89.96639704566632
 20
93.30476626163818
 30
0.0
 10
89.99310745018329
 20
93.26356440871222
 30
0.0
 10
90.09829900563318
 20
93.11076659280752
 30
0.0
 10
90.20342321534508
 20
92.96682016221621
 30
0.0
 10
90.34150088668274
 20
92.82137834840705
 30
0.0
  0
ARC
  5
E00EDAC0
330
E00DEA5D
100
AcDbEntity
  8
JISSEN
100
AcDbCircle
 10
91.31618443099297
 20
111.5713783484034
 30
0.0
 40
17.25000000000002
100
AcDbArc
 50
184.9885419756015
 51
221.9999999999756
  0
ARC
  5
E00EDAC1
330
E00DEA5D
100
AcDbEntity
  8
JISSEN
100
AcDbCircle
 10
91.31618443099297
 20
111.5713783484034
 30
0.0
 40
17.25000000000002
100
AcDbArc
 50
138.0000000000243
 51
175.0114580243984
  0
ARC
  5
E00EDAC2
330
E00DEA5D
100
AcDbEntity
  8
JISSEN
100
AcDbCircle
 10
91.31618443099297
 20
111.5713783484034
 30
0.0
 40
18.25
100
AcDbArc
 50
94.38138463392192
 51
175.618615366077
  0
LINE
  5
E00EDAC3
330
E00DEA5D
100
AcDbEntity
  8
JISSEN
100
AcDbLine
 10
70.11919136314327
 20
113.0713783614528
 30
0.0
 11
62.91318937010055
 21
113.0713783614528
 31
0.0
  0
LINE
  5
E00EDAC4
330
E00DEA5D
100
AcDbEntity
  8
JISSEN
100
AcDbLine
 10
70.11919136314327
 20
110.0713783353539
 30
0.0
 11
62.92542997808289
 21
110.0713783353539
 31
0.0
  0
SPLINE
  5
E00EDAC5
330
E00DEA5D
100
AcDbEntity
  8
JISSEN
100
AcDbSpline
210
0.0
220
0.0
230
1.0
 70
     8
 71
     3
 72
    12
 73
     8
 74
     0
 42
0.0000000001
 43
0.0000000001
 40
0.0
 40
0.0
 40
0.0
 40
0.0
 40
0.2499999999999992
 40
0.2499999999999992
 40
0.4999999999999984
 40
0.4999999999999984
 40
1.0
 40
1.0
 40
1.0
 40
1.0
 10
73.11951776432079
 20
112.965588598764
 30
0.0
 10
73.11951776432079
 20
112.965588598764
 30
0.0
 10
73.10513323810801
 20
112.9567101181119
 30
0.0
 10
73.04957234421681
 20
112.9211657337191
 30
0.0
 10
73.00837049129177
 20
112.894455329203
 30
0.0
 10
72.85557267538615
 20
112.7892637737541
 30
0.0
 10
72.71162624479666
 20
112.6841395640412
 30
0.0
 10
72.56618443098841
 20
112.5460618927036
 30
0.0
  0
SPLINE
  5
E00EDAC6
330
E00DEA5D
100
AcDbEntity
  8
JISSEN
100
AcDbSpline
210
0.0
220
0.0
230
1.0
 70
     8
 71
     3
 72
    12
 73
     8
 74
     0
 42
0.0000000001
 43
0.0000000001
 40
0.0
 40
0.0
 40
0.0
 40
0.0
 40
0.2499999999999992
 40
0.2499999999999992
 40
0.4999999999999984
 40
0.4999999999999984
 40
1.0
 40
1.0
 40
1.0
 40
1.0
 10
73.11951776432079
 20
110.1771680980427
 30
0.0
 10
73.11951776432079
 20
110.1771680980427
 30
0.0
 10
73.10513323810801
 20
110.1860465786949
 30
0.0
 10
73.04957234421681
 20
110.2215909630877
 30
0.0
 10
73.00837049129177
 20
110.2483013676037
 30
0.0
 10
72.85557267538615
 20
110.3534929230527
 30
0.0
 10
72.71162624479666
 20
110.4586171327655
 30
0.0
 10
72.56618443098841
 20
110.5966948041032
 30
0.0
  0
SPLINE
  5
E00EDAC7
330
E00DEA5D
100
AcDbEntity
  8
JISSEN
100
AcDbSpline
210
0.0
220
0.0
230
1.0
 70
     8
 71
     3
 72
    10
 73
     6
 74
     0
 42
0.0000000001
 43
0.0000000001
 40
0.0
 40
0.0
 40
0.0
 40
0.0
 40
0.5
 40
0.5
 40
1.0
 40
1.0
 40
1.0
 40
1.0
 10
72.56618443098751
 20
112.5460618927036
 30
0.0
 10
72.41307396658112
 20
112.4007038568752
 30
0.0
 10
72.25033733390546
 20
112.2444097636989
 30
0.0
 10
71.91112392847344
 20
111.9140338756742
 30
0.0
 10
71.73732953724948
 20
111.7424997213502
 30
0.0
 10
71.5661844309875
 20
111.5713783483997
 30
0.0
  0
SPLINE
  5
E00EDAC8
330
E00DEA5D
100
AcDbEntity
  8
JISSEN
100
AcDbSpline
210
0.0
220
0.0
230
1.0
 70
     8
 71
     3
 72
    10
 73
     6
 74
     0
 42
0.0000000001
 43
0.0000000001
 40
0.0
 40
0.0
 40
0.0
 40
0.0
 40
0.5
 40
0.5
 40
1.0
 40
1.0
 40
1.0
 40
1.0
 10
72.56618443098751
 20
110.5966948041032
 30
0.0
 10
72.41307396658112
 20
110.7420528399316
 30
0.0
 10
72.25033733390546
 20
110.8983469331078
 30
0.0
 10
71.91112392847344
 20
111.2287228211325
 30
0.0
 10
71.73732953724948
 20
111.4002569754566
 30
0.0
 10
71.5661844309875
 20
111.571378348407
 30
0.0
  0
SPLINE
  5
E00EDAC9
330
E00DEA5D
100
AcDbEntity
  8
JISSEN
100
AcDbSpline
210
0.0
220
0.0
230
1.0
 70
    24
 71
     3
 72
    10
 73
     6
 74
     0
 42
0.0000000001
 43
0.0000000001
 40
0.0
 40
0.0
 40
0.0
 40
0.0
 40
0.5
 40
0.5
 40
1.0
 40
1.0
 40
1.0
 40
1.0
 10
74.13152557490275
 20
113.0713783483997
 30
0.0
 10
74.11320518840557
 20
113.0713783483997
 30
0.0
 10
74.0948440626612
 20
113.0713783483997
 30
0.0
 10
74.05803972935382
 20
113.0713783483997
 30
0.0
 10
74.03956936124131
 20
113.0713783483997
 30
0.0
 10
74.02116859431089
 20
113.0713783483997
 30
0.0
  0
SPLINE
  5
E00EDACA
330
E00DEA5D
100
AcDbEntity
  8
JISSEN
100
AcDbSpline
210
0.0
220
0.0
230
1.0
 70
    24
 71
     3
 72
     9
 73
     5
 74
     0
 42
0.0000000001
 43
0.0000000001
 40
0.0
 40
0.0
 40
0.0
 40
0.0
 40
0.5
 40
1.0
 40
1.0
 40
1.0
 40
1.0
 10
73.23318111284561
 20
113.0713783483997
 30
0.0
 10
73.21554402582342
 20
113.0713783483997
 30
0.0
 10
73.18036643275582
 20
113.0713783483997
 30
0.0
 10
73.1453792341249
 20
113.0713783483997
 30
0.0
 10
73.12793272830868
 20
113.0713783483997
 30
0.0
  0
LINE
  5
E00EDACB
330
E00DEA5D
100
AcDbEntity
  8
JISSEN
100
AcDbLine
 10
74.02116845514365
 20
113.0713783614528
 30
0.0
 11
73.23318201269512
 21
113.0713783614528
 31
0.0
  0
ARC
  5
E00EDACC
330
E00DEA5D
100
AcDbEntity
  8
JISSEN
100
AcDbCircle
 10
72.56618443099296
 20
111.5713783484034
 30
0.0
 40
1.500000000000028
100
AcDbArc
 50
0.0
 51
68.35289150300889
  0
ARC
  5
E00EDACD
330
E00DEA5D
100
AcDbEntity
  8
JISSEN
100
AcDbCircle
 10
72.56618443099296
 20
111.5713783484034
 30
0.0
 40
1.500000000000028
100
AcDbArc
 50
291.6471084969911
 51
0.0
  0
LINE
  5
E00EDACE
330
E00DEA5D
100
AcDbEntity
  8
JISSEN
100
AcDbLine
 10
74.02116845514365
 20
110.0713783353539
 30
0.0
 11
73.23318201269512
 21
110.0713783353539
 31
0.0
  0
SPLINE
  5
E00EDACF
330
E00DEA5D
100
AcDbEntity
  8
JISSEN
100
AcDbSpline
210
0.0
220
0.0
230
1.0
 70
    24
 71
     3
 72
     9
 73
     5
 74
     0
 42
0.0000000001
 43
0.0000000001
 40
0.0
 40
0.0
 40
0.0
 40
0.0
 40
0.5
 40
1.0
 40
1.0
 40
1.0
 40
1.0
 10
73.23318111284561
 20
110.071378348407
 30
0.0
 10
73.21554402582342
 20
110.071378348407
 30
0.0
 10
73.18036643275582
 20
110.071378348407
 30
0.0
 10
73.1453792341249
 20
110.071378348407
 30
0.0
 10
73.12793272830868
 20
110.071378348407
 30
0.0
  0
SPLINE
  5
E00EDAD0
330
E00DEA5D
100
AcDbEntity
  8
JISSEN
100
AcDbSpline
210
0.0
220
0.0
230
1.0
 70
    24
 71
     3
 72
    10
 73
     6
 74
     0
 42
0.0000000001
 43
0.0000000001
 40
0.0
 40
0.0
 40
0.0
 40
0.0
 40
0.5
 40
0.5
 40
1.0
 40
1.0
 40
1.0
 40
1.0
 10
74.13152557490275
 20
110.071378348407
 30
0.0
 10
74.11320518840557
 20
110.071378348407
 30
0.0
 10
74.0948440626612
 20
110.071378348407
 30
0.0
 10
74.05803972935382
 20
110.071378348407
 30
0.0
 10
74.03956936124131
 20
110.071378348407
 30
0.0
 10
74.02116859431089
 20
110.071378348407
 30
0.0
  0
SPLINE
  5
E00EDAD1
330
E00DEA5D
100
AcDbEntity
  8
JISSEN
100
AcDbSpline
210
0.0
220
0.0
230
1.0
 70
     8
 71
     3
 72
     8
 73
     4
 74
     0
 42
0.0000000001
 43
0.0000000001
 40
0.0
 40
0.0
 40
0.0
 40
0.0
 40
1.0
 40
1.0
 40
1.0
 40
1.0
 10
85.85065386888118
 20
98.19488868650205
 30
0.0
 10
84.62974262564012
 20
98.69374360899474
 30
0.0
 10
83.48254801500798
 20
99.36091868903986
 30
0.0
 10
82.4645698513118
 20
100.1498452055429
 30
0.0
  0
LWPOLYLINE
  5
E00EDAD2
330
E00DEA5D
100
AcDbEntity
  8
JISSEN
100
AcDbPolyline
 90
        9
 70
   128
 43
0.0
 10
79.77368164029349
 20
98.75213009680464
 10
79.764499731044
 20
98.74193211460351
 10
79.7553122338436
 20
98.73172854445238
 10
79.74612008004396
 20
98.72151938640399
 10
79.73692326959417
 20
98.7113065030544
 10
79.72772459654379
 20
98.7010898944036
 10
79.71852312949386
 20
98.69087049180325
 10
79.70931979979423
 20
98.68064922655413
 10
79.70011647014371
 20
98.67042796130499
  0
LWPOLYLINE
  5
E00EDAD3
330
E00DEA5D
100
AcDbEntity
  8
JISSEN
100
AcDbPolyline
 90
        9
 70
   128
 43
0.0
 10
79.17473598539391
 20
98.08693387920449
 10
79.16595547614406
 20
98.07718293185372
 10
79.15717682954391
 20
98.06743198450295
 10
79.14839818294376
 20
98.05768289975368
 10
79.13962233034317
 20
98.04793567770412
 10
79.13084834034407
 20
98.03819218095396
 10
79.12207807569348
 20
98.0284514781024
 10
79.11331246759392
 20
98.01871543190372
 10
79.10455058484377
 20
98.00898497365507
  0
LINE
  5
E00EDAD4
330
E00DEA5D
100
AcDbEntity
  8
JISSEN
100
AcDbLine
 10
79.70011647014371
 20
98.67042796130499
 30
0.0
 11
79.174735985393
 21
98.08693387920449
 31
0.0
  0
LINE
  5
E00EDAD5
330
E00DEA5D
100
AcDbEntity
  8
JISSEN
100
AcDbLine
 10
77.83173996179403
 20
99.42992990280345
 30
0.0
 11
78.41523404384361
 21
99.95531038755416
 31
0.0
  0
LWPOLYLINE
  5
E00EDAD6
330
E00DEA5D
100
AcDbEntity
  8
JISSEN
100
AcDbPolyline
 90
        9
 70
   128
 43
0.0
 10
77.7537910562437
 20
99.35974450225423
 10
77.76352151449419
 20
99.36850638500345
 10
77.77325756069377
 20
99.37727199310485
 10
77.78299826349348
 20
99.38604225780455
 10
77.79274176029367
 20
99.39481624775453
 10
77.80248898234413
 20
99.40359210040424
 10
77.81223806704429
 20
99.41237074695255
 10
77.82198901439324
 20
99.42114939355361
 10
77.83173996179312
 20
99.42992990280345
  0
LWPOLYLINE
  5
E00EDAD7
330
E00DEA5D
100
AcDbEntity
  8
JISSEN
100
AcDbPolyline
 90
        9
 70
   128
 43
0.0
 10
78.41523404384361
 20
99.95531038755416
 10
78.42545530914367
 20
99.96451371725289
 10
78.43567657439371
 20
99.9737170469025
 10
78.44589597699405
 20
99.98291851395425
 10
78.45611258564395
 20
99.99211718700372
 10
78.46632546899354
 20
100.0013139974535
 10
78.47653462704375
 20
100.010506151254
 10
78.48673819719397
 20
100.0196936484544
 10
78.49693617939329
 20
100.028875557703
  0
SPLINE
  5
E00EDAD8
330
E00DEA5D
100
AcDbEntity
  8
JISSEN
100
AcDbSpline
210
0.0
220
0.0
230
1.0
 70
    24
 71
     3
 72
    14
 73
    10
 74
     0
 42
0.0000000001
 43
0.0000000001
 40
0.0000000000000002
 40
0.0000000000000002
 40
0.0000000000000002
 40
0.0000000000000002
 40
0.00043480365775
 40
0.00043480365775
 40
0.00043480365775
 40
0.0008696074301266
 40
0.0008696074301266
 40
0.0008696074301266
 40
0.001739277755159
 40
0.001739277755159
 40
0.001739277755159
 40
0.001739277755159
 10
81.67437028564881
 20
100.0807117016238
 30
0.0
 10
81.73927613612931
 20
100.0863902277387
 30
0.0
 10
81.80440273124395
 20
100.0920880665044
 30
0.0
 10
81.86976054092657
 20
100.0978061339237
 30
0.0
 10
81.93511836086463
 20
100.1035242022417
 30
0.0
 10
82.00070760250264
 20
100.1092625173341
 30
0.0
 10
82.06653946518191
 20
100.1150220590179
 30
0.0
 10
82.19821191582695
 20
100.1265419057481
 30
0.0
 10
82.33085556104697
 20
100.1381467209948
 30
0.0
 10
82.4645698513118
 20
100.1498452055429
 30
0.0
  0
SPLINE
  5
E00EDAD9
330
E00DEA5D
100
AcDbEntity
  8
JISSEN
100
AcDbSpline
210
0.0
220
0.0
230
1.0
 70
     8
 71
     3
 72
     8
 73
     4
 74
     0
 42
0.0000000001
 43
0.0000000001
 40
0.0
 40
0.0
 40
0.0
 40
0.0
 40
0.497068135136995
 40
0.497068135136995
 40
0.497068135136995
 40
0.497068135136995
 10
76.99903928924277
 20
109.6164218293643
 30
0.0
 10
76.91034514236571
 20
110.2659743701433
 30
0.0
 10
76.86677408733385
 20
110.9205474118216
 30
0.0
 10
76.86678115040058
 20
111.5713783484016
 30
0.0
  0
SPLINE
  5
E00EDADA
330
E00DEA5D
100
AcDbEntity
  8
JISSEN
100
AcDbSpline
210
0.0
220
0.0
230
1.0
 70
    24
 71
     3
 72
    14
 73
    10
 74
     0
 42
0.0000000001
 43
0.0000000001
 40
0.0
 40
0.0
 40
0.0
 40
0.0
 40
0.0008361626839863
 40
0.0008361626839863
 40
0.0008361626839863
 40
0.0012542730052595
 40
0.0012542730052595
 40
0.0012542730052595
 40
0.0016723910970264
 40
0.0016723910970264
 40
0.0016723910970264
 40
0.0016723910970264
 10
76.99903928924311
 20
109.6164218293615
 30
0.0
 10
76.92189653195772
 20
109.5062505543119
 30
0.0
 10
76.84545660916217
 20
109.3970830309372
 30
0.0
 10
76.76965276208273
 20
109.2888239178264
 30
0.0
 10
76.7317478891855
 20
109.2346901491528
 30
0.0
 10
76.69400190987289
 20
109.1807833040347
 30
0.0
 10
76.65640732353859
 20
109.1270926704964
 30
0.0
 10
76.61881203259873
 20
109.0734010306787
 30
0.0
 10
76.58136797007137
 20
109.0199253674163
 30
0.0
 10
76.54406813576497
 20
108.9666556833999
 30
0.0
  0
SPLINE
  5
E00EDADB
330
E00DEA5D
100
AcDbEntity
  8
JISSEN
100
AcDbSpline
210
0.0
220
0.0
230
1.0
 70
    24
 71
     3
 72
    14
 73
    10
 74
     0
 42
0.0000000001
 43
0.0000000001
 40
0.0
 40
0.0
 40
0.0
 40
0.0
 40
0.0008361626839863
 40
0.0008361626839863
 40
0.0008361626839863
 40
0.0012542730052595
 40
0.0012542730052595
 40
0.0012542730052595
 40
0.0016723910970264
 40
0.0016723910970264
 40
0.0016723910970264
 40
0.0016723910970264
 10
76.99903928924277
 20
113.5263348674388
 30
0.0
 10
76.92189653195737
 20
113.6365061424885
 30
0.0
 10
76.84545660916183
 20
113.7456736658632
 30
0.0
 10
76.76965276208239
 20
113.853932778974
 30
0.0
 10
76.73174788918505
 20
113.9080665476476
 30
0.0
 10
76.69400190987244
 20
113.9619733927656
 30
0.0
 10
76.65640732353813
 20
114.0156640263039
 30
0.0
 10
76.61881203259827
 20
114.0693556661217
 30
0.0
 10
76.58136797007092
 20
114.1228313293841
 30
0.0
 10
76.54406813576452
 20
114.1761010134005
 30
0.0
  0
SPLINE
  5
E00EDADC
330
E00DEA5D
100
AcDbEntity
  8
JISSEN
100
AcDbSpline
210
0.0
220
0.0
230
1.0
 70
     8
 71
     3
 72
     8
 73
     4
 74
     0
 42
0.0000000001
 43
0.0000000001
 40
0.0
 40
0.0
 40
0.0
 40
0.0
 40
0.497068135136995
 40
0.497068135136995
 40
0.497068135136995
 40
0.497068135136995
 10
76.99903928924277
 20
113.5263348674425
 30
0.0
 10
76.91034514236571
 20
112.8767823266634
 30
0.0
 10
76.86677408733385
 20
112.2222092849851
 30
0.0
 10
76.86678115040058
 20
111.5713783484052
 30
0.0
  0
SPLINE
  5
E00EDADD
330
E00DEA5D
100
AcDbEntity
  8
JISSEN
100
AcDbSpline
210
0.0
220
0.0
230
1.0
 70
    24
 71
     3
 72
    14
 73
    10
 74
     0
 42
0.0000000001
 43
0.0000000001
 40
0.0
 40
0.0
 40
0.0
 40
0.0
 40
0.0008361626839863
 40
0.0008361626839863
 40
0.0008361626839863
 40
0.0012542730052595
 40
0.0012542730052595
 40
0.0012542730052595
 40
0.0016723910970264
 40
0.0016723910970264
 40
0.0016723910970264
 40
0.0016723910970264
 10
85.85065386887754
 20
98.19488868650388
 30
0.0
 10
85.90749361319604
 20
98.07299546145168
 30
0.0
 10
85.96381550030992
 20
97.95221278476038
 30
0.0
 10
86.01966871891409
 20
97.83243517092797
 30
0.0
 10
86.04759750134098
 20
97.77254170373545
 30
0.0
 10
86.07540920899328
 20
97.71289930419971
 30
0.0
 10
86.10310936841552
 20
97.65349612062074
 30
0.0
 10
86.13081004699916
 20
97.59409182369655
 30
0.0
 10
86.15839929860475
 20
97.53492648269549
 30
0.0
 10
86.18588228106228
 20
97.47598903661947
 30
0.0
  0
SPLINE
  5
E00EDADE
330
E00DEA5D
100
AcDbEntity
  8
JISSEN
100
AcDbSpline
210
0.0
220
0.0
230
1.0
 70
    24
 71
     3
 72
    10
 73
     6
 74
     0
 42
0.0000000001
 43
0.0000000001
 40
0.0
 40
0.0
 40
0.0
 40
0.0
 40
0.5
 40
0.5
 40
1.0
 40
1.0
 40
1.0
 40
1.0
 10
89.81618443098751
 20
94.27636251173044
 30
0.0
 10
89.81618443098751
 20
94.29480676347248
 30
0.0
 10
89.81618443098751
 20
94.31329873894265
 30
0.0
 10
89.81618443098751
 20
94.35010255657926
 30
0.0
 10
89.81618443098751
 20
94.36844187413862
 30
0.0
 10
89.81618443098751
 20
94.3867194923232
 30
0.0
  0
SPLINE
  5
E00EDADF
330
E00DEA5D
100
AcDbEntity
  8
JISSEN
100
AcDbSpline
210
0.0
220
0.0
230
1.0
 70
     8
 71
     3
 72
     8
 73
     4
 74
     0
 42
0.0000000001
 43
0.0000000001
 40
0.0
 40
0.0
 40
0.0
 40
0.0
 40
1.0
 40
1.0
 40
1.0
 40
1.0
 10
85.85065386888118
 20
124.9478680103047
 30
0.0
 10
84.62974262564012
 20
124.449013087812
 30
0.0
 10
83.48254801500798
 20
123.7818380077669
 30
0.0
 10
82.4645698513118
 20
122.9929114912638
 30
0.0
  0
ARC
  5
E00EDAE0
330
E00DEA5D
100
AcDbEntity
  8
JISSEN
100
AcDbCircle
 10
91.31618443099297
 20
111.5713783484034
 30
0.0
 40
17.25000000000002
100
AcDbArc
 50
94.98854197560092
 51
131.999999999994
  0
LINE
  5
E00EDAE1
330
E00DEA5D
100
AcDbEntity
  8
JISSEN
100
AcDbLine
 10
77.83173996179403
 20
123.7128267940033
 30
0.0
 11
78.41523404384361
 21
123.1874463092526
 31
0.0
  0
LWPOLYLINE
  5
E00EDAE2
330
E00DEA5D
100
AcDbEntity
  8
JISSEN
100
AcDbPolyline
 90
        9
 70
   128
 43
0.0
 10
77.7537910562437
 20
123.7830121945526
 10
77.76352151449419
 20
123.7742503118033
 10
77.77325756069377
 20
123.7654847037019
 10
77.78299826349348
 20
123.7567144390022
 10
77.79274176029367
 20
123.7479404490523
 10
77.80248898234413
 20
123.7391645964025
 10
77.81223806704429
 20
123.7303859498542
 10
77.82198901439324
 20
123.7216073032532
 10
77.83173996179312
 20
123.7128267940033
  0
LWPOLYLINE
  5
E00EDAE3
330
E00DEA5D
100
AcDbEntity
  8
JISSEN
100
AcDbPolyline
 90
        9
 70
   128
 43
0.0
 10
79.77368164029349
 20
124.3906266000021
 10
79.764499731044
 20
124.4008245822033
 10
79.7553122338436
 20
124.4110281523544
 10
79.74612008004396
 20
124.4212373104028
 10
79.73692326959417
 20
124.4314501937524
 10
79.72772459654379
 20
124.4416668024032
 10
79.71852312949386
 20
124.4518862050035
 10
79.70931979979423
 20
124.4621074702527
 10
79.70011647014371
 20
124.4723287355018
  0
LWPOLYLINE
  5
E00EDAE4
330
E00DEA5D
100
AcDbEntity
  8
JISSEN
100
AcDbPolyline
 90
        9
 70
   128
 43
0.0
 10
79.17473598539391
 20
125.0558228176023
 10
79.16595547614406
 20
125.0655737649531
 10
79.15717682954391
 20
125.0753247123038
 10
79.14839818294376
 20
125.0850737970531
 10
79.13962233034317
 20
125.0948210191027
 10
79.13084834034407
 20
125.1045645158528
 10
79.12207807569348
 20
125.1143052187044
 10
79.11331246759392
 20
125.1240412649031
 10
79.10455058484377
 20
125.1337717231517
  0
LWPOLYLINE
  5
E00EDAE5
330
E00DEA5D
100
AcDbEntity
  8
JISSEN
100
AcDbPolyline
 90
        9
 70
   128
 43
0.0
 10
78.41523404384361
 20
123.1874463092526
 10
78.42545530914367
 20
123.1782429795539
 10
78.43567657439371
 20
123.1690396499043
 10
78.44589597699405
 20
123.1598381828525
 10
78.45611258564395
 20
123.1506395098031
 10
78.46632546899354
 20
123.1414426993533
 10
78.47653462704375
 20
123.1322505455527
 10
78.48673819719397
 20
123.1230630483523
 10
78.49693617939329
 20
123.1138811391037
  0
LINE
  5
E00EDAE6
330
E00DEA5D
100
AcDbEntity
  8
JISSEN
100
AcDbLine
 10
79.70011647014371
 20
124.4723287355018
 30
0.0
 11
79.174735985393
 21
125.0558228176023
 31
0.0
  0
SPLINE
  5
E00EDAE7
330
E00DEA5D
100
AcDbEntity
  8
JISSEN
100
AcDbSpline
210
0.0
220
0.0
230
1.0
 70
    24
 71
     3
 72
    14
 73
    10
 74
     0
 42
0.0000000001
 43
0.0000000001
 40
0.0000000000000002
 40
0.0000000000000002
 40
0.0000000000000002
 40
0.0000000000000002
 40
0.00043480365775
 40
0.00043480365775
 40
0.00043480365775
 40
0.0008696074301266
 40
0.0008696074301266
 40
0.0008696074301266
 40
0.001739277755159
 40
0.001739277755159
 40
0.001739277755159
 40
0.001739277755159
 10
81.67437028564881
 20
123.0620449951829
 30
0.0
 10
81.73927613612931
 20
123.056366469068
 30
0.0
 10
81.80440273124395
 20
123.0506686303024
 30
0.0
 10
81.86976054092657
 20
123.044950562883
 30
0.0
 10
81.93511836086463
 20
123.0392324945651
 30
0.0
 10
82.00070760250264
 20
123.0334941794726
 30
0.0
 10
82.06653946518191
 20
123.0277346377888
 30
0.0
 10
82.19821191582695
 20
123.0162147910587
 30
0.0
 10
82.33085556104697
 20
123.0046099758119
 30
0.0
 10
82.4645698513118
 20
122.9929114912638
 30
0.0
  0
SPLINE
  5
E00EDAE8
330
E00DEA5D
100
AcDbEntity
  8
JISSEN
100
AcDbSpline
210
0.0
220
0.0
230
1.0
 70
    24
 71
     3
 72
    14
 73
    10
 74
     0
 42
0.0000000001
 43
0.0000000001
 40
0.0
 40
0.0
 40
0.0
 40
0.0
 40
0.0008361626839863
 40
0.0008361626839863
 40
0.0008361626839863
 40
0.0012542730052595
 40
0.0012542730052595
 40
0.0012542730052595
 40
0.0016723910970264
 40
0.0016723910970264
 40
0.0016723910970264
 40
0.0016723910970264
 10
85.85065386887754
 20
124.9478680103029
 30
0.0
 10
85.90749361319604
 20
125.0697612353551
 30
0.0
 10
85.96381550030992
 20
125.1905439120464
 30
0.0
 10
86.01966871891409
 20
125.3103215258788
 30
0.0
 10
86.04759750134098
 20
125.3702149930713
 30
0.0
 10
86.07540920899328
 20
125.4298573926071
 30
0.0
 10
86.10310936841552
 20
125.4892605761861
 30
0.0
 10
86.13081004699916
 20
125.5486648731102
 30
0.0
 10
86.15839929860475
 20
125.6078302141113
 30
0.0
 10
86.18588228106228
 20
125.6667676601873
 30
0.0
  0
SPLINE
  5
E00EDAE9
330
E00DEA5D
100
AcDbEntity
  8
JISSEN
100
AcDbSpline
210
0.0
220
0.0
230
1.0
 70
    24
 71
     3
 72
    10
 73
     6
 74
     0
 42
0.0000000001
 43
0.0000000001
 40
0.0
 40
0.0
 40
0.0
 40
0.0
 40
0.5
 40
0.5
 40
1.0
 40
1.0
 40
1.0
 40
1.0
 10
89.81618443098751
 20
128.8663941850763
 30
0.0
 10
89.81618443098751
 20
128.8479499333343
 30
0.0
 10
89.81618443098751
 20
128.8294579578641
 30
0.0
 10
89.81618443098751
 20
128.7926541402275
 30
0.0
 10
89.81618443098751
 20
128.7743148226682
 30
0.0
 10
89.81618443098751
 20
128.7560372044836
 30
0.0
  0
SPLINE
  5
E00EDAEA
330
E00DEA5D
100
AcDbEntity
  8
JISSEN
100
AcDbSpline
210
0.0
220
0.0
230
1.0
 70
    24
 71
     3
 72
     9
 73
     5
 74
     0
 42
0.0000000001
 43
0.0000000001
 40
0.0
 40
0.0
 40
0.0
 40
0.0
 40
0.5
 40
1.0
 40
1.0
 40
1.0
 40
1.0
 10
89.81618443098751
 20
129.7596300510786
 30
0.0
 10
89.81618443098751
 20
129.7421446755479
 30
0.0
 10
89.81618443098751
 20
129.7071180696047
 30
0.0
 10
89.81618443098751
 20
129.6719793053152
 30
0.0
 10
89.81618443098751
 20
129.6543816665407
 30
0.0
  0
LINE
  5
E00EDAEB
330
E00DEA5D
100
AcDbEntity
  8
JISSEN
100
AcDbLine
 10
89.81618441794353
 20
129.654380766703
 30
0.0
 11
89.81618441794353
 21
128.8663943242527
 31
0.0
  0
SPLINE
  5
E00EDAEC
330
E00DEA5D
100
AcDbEntity
  8
JISSEN
100
AcDbSpline
210
0.0
220
0.0
230
1.0
 70
     8
 71
     3
 72
    12
 73
     8
 74
     0
 42
0.0000000001
 43
0.0000000001
 40
0.0
 40
0.0
 40
0.0
 40
0.0
 40
0.2500000000000007
 40
0.2500000000000007
 40
0.5000000000000015
 40
0.5000000000000015
 40
1.0
 40
1.0
 40
1.0
 40
1.0
 10
89.92197418062232
 20
129.7680450150664
 30
0.0
 10
89.92197418062232
 20
129.7680450150664
 30
0.0
 10
89.93085266127446
 20
129.7824295412783
 30
0.0
 10
89.96639704566632
 20
129.8379904351686
 30
0.0
 10
89.99310745018329
 20
129.8791922880946
 30
0.0
 10
90.09829900563318
 20
130.0319901039993
 30
0.0
 10
90.20342321534508
 20
130.1759365345906
 30
0.0
 10
90.34150088668274
 20
130.3213783483997
 30
0.0
  0
LINE
  5
E00EDAED
330
E00DEA5D
100
AcDbEntity
  8
JISSEN
100
AcDbLine
 39
240.0520776831561
 10
57.31618258324534
 20
197.9478151051434
 30
0.0
 11
57.31618258324534
 21
197.5959765960969
 31
0.0
  0
ARC
  5
E00EDAEE
330
E00DEA5D
100
AcDbEntity
  8
JISSEN
100
AcDbCircle
 39
240.0520776831561
 10
57.81618258324534
 20
197.5959765960969
 30
0.0
 40
0.5
100
AcDbArc
 50
180.0
 51
262.0000049459387
  0
ARC
  5
E00EDAEF
330
E00DEA5D
100
AcDbEntity
  8
JISSEN
100
AcDbCircle
 10
55.06618443099296
 20
182.9478151051434
 30
0.0
 40
15.0
100
AcDbArc
 50
0.0
 51
65.58138155571473
  0
LINE
  5
E00EDAF0
330
E00DEA5D
100
AcDbEntity
  8
JISSEN
100
AcDbLine
 10
57.74659607550574
 20
197.1008425557202
 30
0.0
 11
73.04006639130182
 21
194.951486818295
 31
0.0
  0
LINE
  5
E00EDAF1
330
E00DEA5D
100
AcDbEntity
  8
JISSEN
100
AcDbLine
 10
89.81618441794353
 20
175.1478152243444
 30
0.0
 11
89.81618441794353
 21
182.9478154403941
 31
0.0
  0
LINE
  5
E00EDAF2
330
E00DEA5D
100
AcDbEntity
  8
JISSEN
100
AcDbLine
 10
74.06618486314482
 20
175.1478152243444
 30
0.0
 11
74.06618486314482
 21
194.9489217230939
 31
0.0
  0
LINE
  5
E00EDAF3
330
E00DEA5D
100
AcDbEntity
  8
JISSEN
100
AcDbLine
 10
70.06618420749373
 20
173.6478151051223
 30
0.0
 11
70.06618420749373
 21
182.9478154403941
 31
0.0
  0
LINE
  5
E00EDAF4
330
E00DEA5D
100
AcDbEntity
  8
JISSEN
100
AcDbLine
 10
71.62322889234428
 20
175.1478152243444
 30
0.0
 11
89.81618441794353
 21
175.1478152243444
 31
0.0
  0
SPLINE
  5
E00EDAF5
330
E00DEA5D
100
AcDbEntity
  8
JISSEN
100
AcDbSpline
210
0.0
220
0.0
230
1.0
 70
     8
 71
     3
 72
    16
 73
    12
 74
     0
 42
0.0000000001
 43
0.0000000001
 40
0.0
 40
0.0
 40
0.0
 40
0.0
 40
0.249999999999999
 40
0.249999999999999
 40
0.3749999999999985
 40
0.3749999999999985
 40
0.4999999999999981
 40
0.4999999999999981
 40
0.7499999999999991
 40
0.7499999999999991
 40
1.0
 40
1.0
 40
1.0
 40
1.0
 10
71.5661844309875
 20
175.1467362678913
 30
0.0
 10
71.32534059826912
 20
175.137623123478
 30
0.0
 10
71.09624459178622
 20
175.0703884006898
 30
0.0
 10
70.8054434111932
 20
174.9200638681113
 30
0.0
 10
70.7165662784987
 20
174.861550274606
 30
0.0
 10
70.55896072931727
 20
174.7359404084972
 30
0.0
 10
70.48892923307767
 20
174.6680928978121
 30
0.0
 10
70.30237456727036
 20
174.4521642813188
 30
0.0
 10
70.2144425545498
 20
174.2991436990551
 30
0.0
 10
70.09536002494542
 20
173.9783622809291
 30
0.0
 10
70.06618443098751
 20
173.812133016544
 30
0.0
 10
70.06618443098751
 20
173.6478151051223
 30
0.0
  0
ARC
  5
E00EDAF6
330
E00DEA5D
100
AcDbEntity
  8
JISSEN
100
AcDbCircle
 10
71.56618443099296
 20
173.6478151051442
 30
0.0
 40
1.5
100
AcDbArc
 50
180.0
 51
270.0
  0
SPLINE
  5
E00EDAF7
330
E00DEA5D
100
AcDbEntity
  8
JISSEN
100
AcDbSpline
210
0.0
220
0.0
230
1.0
 70
     8
 71
     3
 72
     9
 73
     5
 74
     0
 42
0.0000000001
 43
0.0000000001
 40
0.0
 40
0.0
 40
0.0
 40
0.0
 40
0.5
 40
1.0
 40
1.0
 40
1.0
 40
1.0
 10
71.6232288376791
 20
175.1478151051223
 30
0.0
 10
71.61374082190241
 20
175.1478151051223
 30
0.0
 10
71.5947454930697
 20
175.1476361157101
 30
0.0
 10
71.57571131117902
 20
175.1470967497616
 30
0.0
 10
71.5661844309875
 20
175.1467362678913
 30
0.0
  0
LINE
  5
E00EDAF8
330
E00DEA5D
100
AcDbEntity
  8
JISSEN
100
AcDbLine
 10
76.05166400939424
 20
209.4478151274425
 30
0.0
 11
76.54406822449391
 21
208.9478150455424
 31
0.0
  0
LINE
  5
E00EDAF9
330
E00DEA5D
100
AcDbEntity
  8
JISSEN
100
AcDbLine
 10
76.73621590409538
 20
202.9478149933429
 30
0.0
 11
75.39461407039425
 21
202.9478149933429
 31
0.0
  0
LINE
  5
E00EDAFA
330
E00DEA5D
100
AcDbEntity
  8
JISSEN
100
AcDbLine
 10
89.81618441794353
 20
194.951486818295
 30
0.0
 11
73.04006639130102
 21
194.951486818295
 31
0.0
  0
LINE
  5
E00EDAFB
330
E00DEA5D
100
AcDbEntity
  8
JISSEN
100
AcDbLine
 10
74.81618452039447
 20
209.4478151274425
 30
0.0
 11
74.81618452039447
 21
200.0421297715429
 31
0.0
  0
ARC
  5
E00EDAFC
330
E00DEA5D
100
AcDbEntity
  8
JISSEN
100
AcDbCircle
 10
73.06618443099296
 20
197.838031071943
 30
0.0
 40
0.999999999999998
100
AcDbArc
 50
102.0000000000157
 51
173.6971338164194
  0
ARC
  5
E00EDAFD
330
E00DEA5D
100
AcDbEntity
  8
JISSEN
100
AcDbCircle
 10
73.81618443099296
 20
200.0421296828435
 30
0.0
 40
1.000000000000007
100
AcDbArc
 50
282.0000000000157
 51
0.0
  0
LINE
  5
E00EDAFE
330
E00DEA5D
100
AcDbEntity
  8
JISSEN
100
AcDbLine
 10
74.02409653339282
 20
199.0639820441419
 30
0.0
 11
72.85827252239551
 21
198.8161786438422
 31
0.0
  0
LINE
  5
E00EDAFF
330
E00DEA5D
100
AcDbEntity
  8
JISSEN
100
AcDbLine
 10
75.06685557929313
 20
204.447815239243
 30
0.0
 11
75.06685557929313
 21
209.4478151274425
 31
0.0
  0
SPLINE
  5
E00EDB00
330
E00DEA5D
100
AcDbEntity
  8
JISSEN
100
AcDbSpline
210
0.0
220
0.0
230
1.0
 70
     8
 71
     3
 72
    18
 73
    14
 74
     0
 42
0.0000000001
 43
0.0000000001
 40
0.0
 40
0.0
 40
0.0
 40
0.0
 40
0.1249999999999998
 40
0.1249999999999998
 40
0.2499999999999997
 40
0.2499999999999997
 40
0.3749999999999995
 40
0.3749999999999995
 40
0.4999999999999993
 40
0.4999999999999993
 40
0.7499999999999997
 40
0.7499999999999997
 40
1.0
 40
1.0
 40
1.0
 40
1.0
 10
75.39461406360851
 20
202.9478151050998
 30
0.0
 10
75.36859963468351
 20
202.9478151050998
 30
0.0
 10
75.34387861647656
 20
202.957464023787
 30
0.0
 10
75.29682753164843
 20
202.9953599186364
 30
0.0
 10
75.27427433957337
 20
203.0240689443426
 30
0.0
 10
75.2326954823543
 20
203.0991045646814
 30
0.0
 10
75.21370101739148
 20
203.1450538393646
 30
0.0
 10
75.17886188769034
 20
203.2536970459577
 30
0.0
 10
75.16296967865537
 20
203.3169669451154
 30
0.0
 10
75.12142055454524
 20
203.5243576521234
 30
0.0
 10
75.10073896273616
 20
203.6916331443162
 30
0.0
 10
75.07365932488619
 20
204.052573813432
 30
0.0
 10
75.06685650633016
 20
204.2495698296561
 30
0.0
 10
75.06685650633016
 20
204.4478151050998
 30
0.0
  0
LINE
  5
E00EDB01
330
E00DEA5D
100
AcDbEntity
  8
JISSEN
100
AcDbLine
 10
74.81618452039447
 20
209.4478151274425
 30
0.0
 11
75.06685557929313
 21
209.4478151274425
 31
0.0
  0
LINE
  5
E00EDB02
330
E00DEA5D
100
AcDbEntity
  8
JISSEN
100
AcDbLine
 10
75.06685557929313
 20
209.4478151274425
 30
0.0
 11
76.05166400939424
 21
209.4478151274425
 31
0.0
  0
LINE
  5
E00EDB03
330
E00DEA5D
100
AcDbEntity
  8
JISSEN
100
AcDbLine
 10
77.33621581619309
 20
200.0421297715429
 30
0.0
 11
77.33621581619309
 21
202.9478149933429
 31
0.0
  0
LINE
  5
E00EDB04
330
E00DEA5D
100
AcDbEntity
  8
JISSEN
100
AcDbLine
 10
76.73621590409538
 20
202.9478149933429
 30
0.0
 11
76.73621590409538
 21
200.0421297715429
 31
0.0
  0
SPLINE
  5
E00EDB05
330
E00DEA5D
100
AcDbEntity
  8
JISSEN
100
AcDbSpline
210
0.0
220
0.0
230
1.0
 70
     8
 71
     3
 72
     8
 73
     4
 74
     0
 42
0.0000000001
 43
0.0000000001
 40
0.0
 40
0.0
 40
0.0
 40
0.0
 40
0.000094419996181
 40
0.000094419996181
 40
0.000094419996181
 40
0.000094419996181
 10
77.33235303392712
 20
199.9478151050998
 30
0.0
 10
77.33492542382783
 20
199.9791479586447
 30
0.0
 10
77.3362159436715
 20
200.0106563508279
 30
0.0
 10
77.3362159436715
 20
200.0421296828871
 30
0.0
  0
SPLINE
  5
E00EDB06
330
E00DEA5D
100
AcDbEntity
  8
JISSEN
100
AcDbSpline
210
0.0
220
0.0
230
1.0
 70
     8
 71
     3
 72
     8
 73
     4
 74
     0
 42
0.0000000001
 43
0.0000000001
 40
0.0
 40
0.0
 40
0.0
 40
0.0
 40
0.000094419996181
 40
0.000094419996181
 40
0.000094419996181
 40
0.000094419996181
 10
76.73621594367114
 20
200.0421296828871
 30
0.0
 10
76.73621594367114
 20
200.0106563508279
 30
0.0
 10
76.73492542382837
 20
199.9791479586447
 30
0.0
 10
76.73235303392766
 20
199.9478151050998
 30
0.0
  0
LINE
  5
E00EDB07
330
E00DEA5D
100
AcDbEntity
  8
JISSEN
100
AcDbLine
 10
76.73235277799403
 20
199.947815200142
 30
0.0
 11
77.33235269009537
 21
199.947815200142
 31
0.0
  0
LINE
  5
E00EDB08
330
E00DEA5D
100
AcDbEntity
  8
JISSEN
100
AcDbLine
 10
89.81618441794353
 20
182.9478154403941
 30
0.0
 11
89.81618441794353
 21
194.9514868182955
 31
0.0
  0
LINE
  5
E00EDB09
330
E00DEA5D
100
AcDbEntity
  8
JISSEN
100
AcDbLine
 10
80.71018888769549
 20
209.4478151274425
 30
0.0
 11
85.6728520539932
 21
209.4478151274425
 31
0.0
  0
SPLINE
  5
E00EDB0A
330
E00DEA5D
100
AcDbEntity
  8
JISSEN
100
AcDbSpline
210
0.0
220
0.0
230
1.0
 70
     8
 71
     3
 72
    18
 73
    14
 74
     0
 42
0.0000000001
 43
0.0000000001
 40
0.0
 40
0.0
 40
0.0
 40
0.0
 40
0.1249999999999998
 40
0.1249999999999998
 40
0.2499999999999995
 40
0.2499999999999995
 40
0.3749999999999992
 40
0.3749999999999992
 40
0.499999999999999
 40
0.499999999999999
 40
0.7499999999999995
 40
0.7499999999999995
 40
1.0
 40
1.0
 40
1.0
 40
1.0
 10
80.71018887120363
 20
204.4478151050998
 30
0.0
 10
80.71018887120363
 20
204.3486917651725
 30
0.0
 10
80.70273092854723
 20
204.2512251423149
 30
0.0
 10
80.67357226556897
 20
204.059469899993
 30
0.0
 10
80.65151831465163
 20
203.964187571234
 30
0.0
 10
80.59414990414325
 20
203.7824974430141
 30
0.0
 10
80.55912293413667
 20
203.6963260836446
 30
0.0
 10
80.47677046463604
 20
203.533249199384
 30
0.0
 10
80.4290156099455
 20
203.4560442123174
 30
0.0
 10
80.27350519928267
 20
203.2485089173797
 30
0.0
 10
80.14935585077592
 20
203.1368217079425
 30
0.0
 10
79.886140921893
 20
202.9873775073165
 30
0.0
 10
79.7446899621068
 20
202.9478151050998
 30
0.0
 10
79.60503956104867
 20
202.9478151050998
 30
0.0
  0
LINE
  5
E00EDB0B
330
E00DEA5D
100
AcDbEntity
  8
JISSEN
100
AcDbLine
 10
76.54406822449391
 20
205.2065022734432
 30
0.0
 11
76.54406822449391
 21
207.017614550642
 31
0.0
  0
SPLINE
  5
E00EDB0C
330
E00DEA5D
100
AcDbEntity
  8
JISSEN
100
AcDbSpline
210
0.0
220
0.0
230
1.0
 70
     8
 71
     3
 72
    14
 73
    10
 74
     0
 42
0.0000000001
 43
0.0000000001
 40
0.0
 40
0.0
 40
0.0
 40
0.0
 40
0.00043480365775
 40
0.00043480365775
 40
0.00043480365775
 40
0.0008696074301266
 40
0.0008696074301266
 40
0.0008696074301266
 40
0.001739277755159
 40
0.001739277755159
 40
0.001739277755159
 40
0.001739277755159
 10
76.54406813584819
 20
207.0176146814674
 30
0.0
 10
76.58143880895886
 20
206.8881503641942
 30
0.0
 10
76.61893657963401
 20
206.7587973007984
 30
0.0
 10
76.65656747612183
 20
206.6295623018586
 30
0.0
 10
76.6941983785141
 20
206.500327282637
 30
0.0
 10
76.73196252597927
 20
206.3712099060349
 30
0.0
 10
76.76986636673018
 20
206.2422175626152
 30
0.0
 10
76.84567907196878
 20
205.9842157792581
 30
0.0
 10
76.92205095938835
 20
205.7267105985474
 30
0.0
 10
76.99903928932553
 20
205.4697691745195
 30
0.0
  0
LINE
  5
E00EDB0D
330
E00DEA5D
100
AcDbEntity
  8
JISSEN
100
AcDbLine
 10
79.60503961119548
 20
202.9478149933429
 30
0.0
 11
77.33621581619309
 21
202.9478149933429
 31
0.0
  0
LINE
  5
E00EDB0E
330
E00DEA5D
100
AcDbEntity
  8
JISSEN
100
AcDbLine
 10
76.99903885989488
 20
205.4697690045423
 30
0.0
 11
76.99903885989488
 21
205.1697690484425
 31
0.0
  0
LINE
  5
E00EDB0F
330
E00DEA5D
100
AcDbEntity
  8
JISSEN
100
AcDbLine
 10
76.99903885989488
 20
204.9032971707429
 30
0.0
 11
76.99903885989488
 21
205.1697690484425
 31
0.0
  0
LINE
  5
E00EDB10
330
E00DEA5D
100
AcDbEntity
  8
JISSEN
100
AcDbLine
 10
76.54406822449391
 20
205.2065022734432
 30
0.0
 11
76.54406822449391
 21
204.447815239243
 31
0.0
  0
SPLINE
  5
E00EDB11
330
E00DEA5D
100
AcDbEntity
  8
JISSEN
100
AcDbSpline
210
0.0
220
0.0
230
1.0
 70
     8
 71
     3
 72
    14
 73
    10
 74
     0
 42
0.0000000001
 43
0.0000000001
 40
0.0
 40
0.0
 40
0.0
 40
0.0
 40
0.000317542727739
 40
0.000317542727739
 40
0.000317542727739
 40
0.0005558549641894
 40
0.0005558549641894
 40
0.0005558549641894
 40
0.0007941674852212
 40
0.0007941674852212
 40
0.0007941674852212
 40
0.0007941674852212
 10
76.54406813584819
 20
204.8644812224747
 30
0.0
 10
76.60471246604129
 20
204.8694653901648
 30
0.0
 10
76.66535480101311
 20
204.8745239294394
 30
0.0
 10
76.72599500493061
 20
204.8796584312649
 30
0.0
 10
76.77150479907368
 20
204.8835118174019
 30
0.0
 10
76.81701340824702
 20
204.8874079875831
 30
0.0
 10
76.86252077444215
 20
204.8913475677955
 30
0.0
 10
76.90802819485225
 20
204.8952871527008
 30
0.0
 10
76.95353438587836
 20
204.8992701493834
 30
0.0
 10
76.99903928932553
 20
204.9032971366059
 30
0.0
  0
SPLINE
  5
E00EDB12
330
E00DEA5D
100
AcDbEntity
  8
JISSEN
100
AcDbSpline
210
0.0
220
0.0
230
1.0
 70
     8
 71
     3
 72
    18
 73
    14
 74
     0
 42
0.0000000001
 43
0.0000000001
 40
0.0
 40
0.0
 40
0.0
 40
0.0
 40
0.1250000000000001
 40
0.1250000000000001
 40
0.2500000000000002
 40
0.2500000000000002
 40
0.3750000000000002
 40
0.3750000000000002
 40
0.5000000000000004
 40
0.5000000000000004
 40
0.7500000000000001
 40
0.7500000000000001
 40
1.0
 40
1.0
 40
1.0
 40
1.0
 10
76.54406813584819
 20
204.4478151050998
 30
0.0
 10
76.54406813584819
 20
204.3486743237362
 30
0.0
 10
76.54574929257478
 20
204.2511908098413
 30
0.0
 10
76.55244313788035
 20
204.0594028638888
 30
0.0
 10
76.55753878279438
 20
203.9641040760006
 30
0.0
 10
76.57118958742057
 20
203.7823889546043
 30
0.0
 10
76.57967605273689
 20
203.6962067511931
 30
0.0
 10
76.60040038038869
 20
203.5331122247543
 30
0.0
 10
76.61276124640744
 20
203.4559026951874
 30
0.0
 10
76.6548278252726
 20
203.2483689833234
 30
0.0
 10
76.69073609211364
 20
203.1367015630394
 30
0.0
 10
76.7753143142113
 20
202.9873268406854
 30
0.0
 10
76.82480189820717
 20
202.9478151050998
 30
0.0
 10
76.87858656434627
 20
202.9478151050998
 30
0.0
  0
LINE
  5
E00EDB13
330
E00DEA5D
100
AcDbEntity
  8
JISSEN
100
AcDbLine
 10
76.73621590409538
 20
202.9478149933429
 30
0.0
 11
77.33621581619309
 21
202.9478149933429
 31
0.0
  0
LINE
  5
E00EDB14
330
E00DEA5D
100
AcDbEntity
  8
JISSEN
100
AcDbLine
 10
76.54406822449391
 20
208.9478150455424
 30
0.0
 11
76.54406822449391
 21
207.017614550642
 31
0.0
  0
LINE
  5
E00EDB15
330
E00DEA5D
100
AcDbEntity
  8
JISSEN
100
AcDbLine
 10
80.71018888769549
 20
209.4478151274425
 30
0.0
 11
80.71018888769549
 21
204.447815239243
 31
0.0
  0
SPLINE
  5
E00EDB16
330
E00DEA5D
100
AcDbEntity
  8
JISSEN
100
AcDbSpline
210
0.0
220
0.0
230
1.0
 70
     8
 71
     3
 72
    18
 73
    14
 74
     0
 42
0.0000000001
 43
0.0000000001
 40
0.0
 40
0.0
 40
0.0
 40
0.0
 40
0.1250000000000003
 40
0.1250000000000003
 40
0.2500000000000006
 40
0.2500000000000006
 40
0.3750000000000009
 40
0.3750000000000009
 40
0.5000000000000013
 40
0.5000000000000013
 40
0.7500000000000006
 40
0.7500000000000006
 40
1.0
 40
1.0
 40
1.0
 40
1.0
 10
87.10575893359191
 20
202.9478151050998
 30
0.0
 10
87.00992155175345
 20
202.9478151050998
 30
0.0
 10
86.91590421184674
 20
202.957464023787
 30
0.0
 10
86.73134920521215
 20
202.9953599186364
 30
0.0
 10
86.63985760464175
 20
203.0240689443426
 30
0.0
 10
86.46579310085554
 20
203.0991045646814
 30
0.0
 10
86.38343885758287
 20
203.1450538393646
 30
0.0
 10
86.22789445299122
 20
203.2536970459577
 30
0.0
 10
86.15442542374285
 20
203.3169669451154
 30
0.0
 10
85.95725493942836
 20
203.5243576521234
 30
0.0
 10
85.85160686198424
 20
203.6916331443162
 30
0.0
 10
85.7102754907587
 20
204.052573813432
 30
0.0
 10
85.67285206615769
 20
204.2495698296561
 30
0.0
 10
85.67285206615769
 20
204.4478151050998
 30
0.0
  0
SPLINE
  5
E00EDB17
330
E00DEA5D
100
AcDbEntity
  8
JISSEN
100
AcDbSpline
210
0.0
220
0.0
230
1.0
 70
     8
 71
     3
 72
    18
 73
    14
 74
     0
 42
0.0000000001
 43
0.0000000001
 40
0.0
 40
0.0
 40
0.0
 40
0.0
 40
0.1250000000000001
 40
0.1250000000000001
 40
0.2500000000000003
 40
0.2500000000000003
 40
0.3750000000000004
 40
0.3750000000000004
 40
0.5000000000000006
 40
0.5000000000000006
 40
0.7500000000000002
 40
0.7500000000000002
 40
1.0
 40
1.0
 40
1.0
 40
1.0
 10
86.18588228114594
 20
204.4478107758377
 30
0.0
 10
86.18588255002714
 20
204.3486701771425
 30
0.0
 10
86.19502500600493
 20
204.251186867953
 30
0.0
 10
86.2308838376507
 20
204.0593993735883
 30
0.0
 10
86.25803663563464
 20
203.9641008399803
 30
0.0
 10
86.32904152201945
 20
203.7823862013583
 30
0.0
 10
86.37253806615035
 20
203.6962042477798
 30
0.0
 10
86.47553454557373
 20
203.53311023297
 30
0.0
 10
86.53558459648456
 20
203.4559009436334
 30
0.0
 10
86.73284430812646
 20
203.2483678970192
 30
0.0
 10
86.89252164818254
 20
203.1367008792012
 30
0.0
 10
87.23899217615098
 20
202.9873266931563
 30
0.0
 10
87.42896935049021
 20
202.9478151050998
 30
0.0
 10
87.62113717451347
 20
202.9478151050998
 30
0.0
  0
LINE
  5
E00EDB18
330
E00DEA5D
100
AcDbEntity
  8
JISSEN
100
AcDbLine
 10
85.6728520539932
 20
204.447815239243
 30
0.0
 11
85.6728520539932
 21
209.4478151274425
 31
0.0
  0
LINE
  5
E00EDB19
330
E00DEA5D
100
AcDbEntity
  8
JISSEN
100
AcDbLine
 10
86.18588227009468
 20
208.9478150455424
 30
0.0
 11
86.18588227009468
 21
205.0176146885433
 31
0.0
  0
LINE
  5
E00EDB1A
330
E00DEA5D
100
AcDbEntity
  8
JISSEN
100
AcDbLine
 10
86.18588227009468
 20
205.0176146885433
 30
0.0
 11
86.18588227009468
 21
204.4478105826428
 31
0.0
  0
LINE
  5
E00EDB1B
330
E00DEA5D
100
AcDbEntity
  8
JISSEN
100
AcDbLine
 10
85.6728520539932
 20
209.4478151274425
 30
0.0
 11
86.01487235319519
 21
209.4478151274425
 31
0.0
  0
LINE
  5
E00EDB1C
330
E00DEA5D
100
AcDbEntity
  8
JISSEN
100
AcDbLine
 10
86.01487235319519
 20
209.4478151274425
 30
0.0
 11
86.18588227009468
 21
208.9478150455424
 31
0.0
  0
LINE
  5
E00EDB1D
330
E00DEA5D
100
AcDbEntity
  8
JISSEN
100
AcDbLine
 10
92.81618444404239
 20
132.7683714162531
 30
0.0
 11
92.81618444404239
 21
139.9621328013135
 31
0.0
  0
ARC
  5
E00EDB1E
330
E00DEA5D
100
AcDbEntity
  8
JISSEN
100
AcDbCircle
 10
91.31618443099297
 20
111.5713783484034
 30
0.0
 40
21.25000000000001
100
AcDbArc
 50
359.9999886859358
 51
89.99998868588376
  0
LINE
  5
E00EDB1F
330
E00DEA5D
100
AcDbEntity
  8
SAISEN
100
AcDbLine
 39
240.0520776831561
 10
106.088300637492
 20
114.1761010922027
 30
0.0
 11
105.6333295726531
 21
113.5263348674388
 31
0.0
  0
LINE
  5
E00EDB20
330
E00DEA5D
100
AcDbEntity
  8
SAISEN
100
AcDbLine
 39
240.0520776831561
 10
106.0883006374924
 20
108.9666556046031
 30
0.0
 11
105.6333295726534
 21
109.616421829367
 31
0.0
  0
LINE
  5
E00EDB21
330
E00DEA5D
100
AcDbEntity
  8
JISSEN
100
AcDbLine
 10
119.7191794918845
 20
113.0713783614528
 30
0.0
 11
112.5131774988426
 21
113.0713783614528
 31
0.0
  0
LINE
  5
E00EDB22
330
E00DEA5D
100
AcDbEntity
  8
JISSEN
100
AcDbLine
 10
119.7069388839037
 20
110.0713783353539
 30
0.0
 11
112.5131774988426
 21
110.0713783353539
 31
0.0
  0
LINE
  5
E00EDB23
330
E00DEA5D
100
AcDbEntity
  8
JISSEN
100
AcDbLine
 10
92.81618444404239
 20
94.27636237255411
 30
0.0
 11
92.81618444404239
 21
93.48837593010376
 31
0.0
  0
ARC
  5
E00EDB24
330
E00DEA5D
100
AcDbEntity
  8
JISSEN
100
AcDbCircle
 10
91.31618443099297
 20
92.82137834840341
 30
0.0
 40
1.500000000000023
100
AcDbArc
 50
21.64710849703705
 51
90.0
  0
ARC
  5
E00EDB25
330
E00DEA5D
100
AcDbEntity
  8
JISSEN
100
AcDbCircle
 10
91.31618443099297
 20
111.5713783484034
 30
0.0
 40
21.25000000000001
100
AcDbArc
 50
270.0000113141162
 51
0.0000113140641191
  0
ARC
  5
E00EDB26
330
E00DEA5D
100
AcDbEntity
  8
JISSEN
100
AcDbCircle
 10
91.31618443099297
 20
111.5713783484034
 30
0.0
 40
17.24999999999999
100
AcDbArc
 50
274.9885419756009
 51
311.9999999999939
  0
ARC
  5
E00EDB27
330
E00DEA5D
100
AcDbEntity
  8
JISSEN
100
AcDbCircle
 10
91.31618443099297
 20
111.5713783484034
 30
0.0
 40
18.25
100
AcDbArc
 50
274.3813846339219
 51
355.618615366077
  0
SPLINE
  5
E00EDB28
330
E00DEA5D
100
AcDbEntity
  8
JISSEN
100
AcDbSpline
210
0.0
220
0.0
230
1.0
 70
     8
 71
     3
 72
     8
 73
     4
 74
     0
 42
0.0000000001
 43
0.0000000001
 40
0.0
 40
0.0
 40
0.0
 40
0.0
 40
2.236014716865069
 40
2.236014716865111
 40
2.236014716865111
 40
2.236014716865111
 10
92.81618444404239
 20
83.18062389549323
 30
0.0
 10
92.31500040390915
 20
82.35176328260422
 30
0.0
 10
91.81381636377592
 20
81.52290266971522
 30
0.0
 10
91.31618443099297
 20
81.5223833294449
 30
0.0
  0
LINE
  5
E00EDB29
330
E00DEA5D
100
AcDbEntity
  8
JISSEN
100
AcDbLine
 10
92.81618444404239
 20
90.37438528055373
 30
0.0
 11
92.81618444404239
 21
83.1880254373682
 31
0.0
  0
SPLINE
  5
E00EDB2A
330
E00DEA5D
100
AcDbEntity
  8
JISSEN
100
AcDbSpline
210
0.0
220
0.0
230
1.0
 70
     8
 71
     3
 72
    10
 73
     6
 74
     0
 42
0.0000000001
 43
0.0000000001
 40
0.0
 40
0.0
 40
0.0
 40
0.0
 40
0.5
 40
0.5
 40
1.0
 40
1.0
 40
1.0
 40
1.0
 10
92.29086797529044
 20
92.82137834840705
 30
0.0
 10
92.14550993946204
 20
92.66826788400157
 30
0.0
 10
91.98921584628669
 20
92.50553125132592
 30
0.0
 10
91.65883995826289
 20
92.16631784589571
 30
0.0
 10
91.48730580393886
 20
91.99252345467085
 30
0.0
 10
91.3161844309875
 20
91.82137834840705
 30
0.0
  0
SPLINE
  5
E00EDB2B
330
E00DEA5D
100
AcDbEntity
  8
JISSEN
100
AcDbSpline
210
0.0
220
0.0
230
1.0
 70
    24
 71
     3
 72
     9
 73
     5
 74
     0
 42
0.0000000001
 43
0.0000000001
 40
0.0
 40
0.0
 40
0.0
 40
0.0
 40
0.5
 40
1.0
 40
1.0
 40
1.0
 40
1.0
 10
92.8161844309875
 20
93.48837503026606
 30
0.0
 10
92.8161844309875
 20
93.47073794324478
 30
0.0
 10
92.8161844309875
 20
93.43556035017627
 30
0.0
 10
92.8161844309875
 20
93.40057315154718
 30
0.0
 10
92.8161844309875
 20
93.38312664572823
 30
0.0
  0
SPLINE
  5
E00EDB2C
330
E00DEA5D
100
AcDbEntity
  8
JISSEN
100
AcDbSpline
210
0.0
220
0.0
230
1.0
 70
     8
 71
     3
 72
    12
 73
     8
 74
     0
 42
0.0000000001
 43
0.0000000001
 40
0.0
 40
0.0
 40
0.0
 40
0.0
 40
0.2499999999999991
 40
0.2499999999999991
 40
0.4999999999999983
 40
0.4999999999999983
 40
1.0
 40
1.0
 40
1.0
 40
1.0
 10
92.71039468135269
 20
93.37471168174033
 30
0.0
 10
92.71039468135269
 20
93.37471168174033
 30
0.0
 10
92.70151620070055
 20
93.36032715552846
 30
0.0
 10
92.66597181630777
 20
93.30476626163818
 30
0.0
 10
92.63926141179172
 20
93.26356440871222
 30
0.0
 10
92.53406985634184
 20
93.11076659280752
 30
0.0
 10
92.42894564662902
 20
92.96682016221621
 30
0.0
 10
92.29086797529225
 20
92.82137834840705
 30
0.0
  0
LINE
  5
E00EDB2D
330
E00DEA5D
100
AcDbEntity
  8
JISSEN
100
AcDbLine
 10
104.217134818095
 20
99.95531038755416
 30
0.0
 11
104.8006289001937
 21
99.42992990280345
 31
0.0
  0
LINE
  5
E00EDB2E
330
E00DEA5D
100
AcDbEntity
  8
JISSEN
100
AcDbLine
 10
104.217134818095
 20
123.1874463092526
 30
0.0
 11
104.8006289001937
 21
123.7128267940033
 31
0.0
  0
ARC
  5
E00EDB2F
330
E00DEA5D
100
AcDbEntity
  8
JISSEN
100
AcDbCircle
 10
91.31618443099297
 20
111.5713783484034
 30
0.0
 40
17.24999999999999
100
AcDbArc
 50
4.988541975601502
 51
41.9999999999756
  0
ARC
  5
E00EDB30
330
E00DEA5D
100
AcDbEntity
  8
JISSEN
100
AcDbCircle
 10
91.31618443099297
 20
111.5713783484034
 30
0.0
 40
17.24999999999999
100
AcDbArc
 50
318.0000000000243
 51
355.0114580243985
  0
ARC
  5
E00EDB31
330
E00DEA5D
100
AcDbEntity
  8
JISSEN
100
AcDbCircle
 10
91.31618443099297
 20
111.5713783484034
 30
0.0
 40
18.25
100
AcDbArc
 50
4.381384633922913
 51
85.61861536607809
  0
SPLINE
  5
E00EDB32
330
E00DEA5D
100
AcDbEntity
  8
JISSEN
100
AcDbSpline
210
0.0
220
0.0
230
1.0
 70
     8
 71
     3
 72
     8
 73
     4
 74
     0
 42
0.0000000001
 43
0.0000000001
 40
0.0
 40
0.0
 40
0.0
 40
0.0
 40
1.0
 40
1.0
 40
1.0
 40
1.0
 10
100.1677990105868
 20
100.1498452055466
 30
0.0
 10
99.12532235328354
 20
99.34193251437774
 30
0.0
 10
97.97393447987587
 20
98.68202037851098
 30
0.0
 10
96.78171499301743
 20
98.19488868650388
 30
0.0
  0
SPLINE
  5
E00EDB33
330
E00DEA5D
100
AcDbEntity
  8
JISSEN
100
AcDbSpline
210
0.0
220
0.0
230
1.0
 70
    24
 71
     3
 72
    10
 73
     6
 74
     0
 42
0.0000000001
 43
0.0000000001
 40
0.0
 40
0.0
 40
0.0
 40
0.0
 40
0.5
 40
0.5
 40
1.0
 40
1.0
 40
1.0
 40
1.0
 10
92.8161844309875
 20
94.3867194923232
 30
0.0
 10
92.8161844309875
 20
94.36839910582511
 30
0.0
 10
92.8161844309875
 20
94.35003798008166
 30
0.0
 10
92.8161844309875
 20
94.31323364677428
 30
0.0
 10
92.8161844309875
 20
94.29476327866087
 30
0.0
 10
92.8161844309875
 20
94.27636251173044
 30
0.0
  0
SPLINE
  5
E00EDB34
330
E00DEA5D
100
AcDbEntity
  8
JISSEN
100
AcDbSpline
210
0.0
220
0.0
230
1.0
 70
    24
 71
     3
 72
    14
 73
    10
 74
     0
 42
0.0000000001
 43
0.0000000001
 40
0.0
 40
0.0
 40
0.0
 40
0.0
 40
0.00043480365775
 40
0.00043480365775
 40
0.00043480365775
 40
0.0008696074301266
 40
0.0008696074301266
 40
0.0008696074301266
 40
0.001739277755159
 40
0.001739277755159
 40
0.001739277755159
 40
0.001739277755159
 10
96.44648658083269
 20
97.47598903661947
 30
0.0
 10
96.47402175820161
 20
97.53503841504699
 30
0.0
 10
96.5016505826402
 20
97.59428862026197
 30
0.0
 10
96.52937749583498
 20
97.65374917749159
 30
0.0
 10
96.55710441338079
 20
97.71320974405263
 30
0.0
 10
96.58492950755636
 20
97.77288085107375
 30
0.0
 10
96.6128575294838
 20
97.83277268737311
 30
0.0
 10
96.66871727488933
 20
97.95256429797611
 30
0.0
 10
96.72498903269071
 20
98.07323947201167
 30
0.0
 10
96.78171499301743
 20
98.19488868650388
 30
0.0
  0
SPLINE
  5
E00EDB35
330
E00DEA5D
100
AcDbEntity
  8
JISSEN
100
AcDbSpline
210
0.0
220
0.0
230
1.0
 70
    24
 71
     3
 72
    14
 73
    10
 74
     0
 42
0.0000000001
 43
0.0000000001
 40
0.0
 40
0.0
 40
0.0
 40
0.0
 40
0.0008361626839863
 40
0.0008361626839863
 40
0.0008361626839863
 40
0.0012542730052595
 40
0.0012542730052595
 40
0.0012542730052595
 40
0.0016723910970264
 40
0.0016723910970264
 40
0.0016723910970264
 40
0.0016723910970264
 10
100.1677990105831
 20
100.1498452055429
 30
0.0
 10
100.301781512187
 20
100.1381232555404
 30
0.0
 10
100.4345433220946
 20
100.1265081022256
 30
0.0
 10
100.5662003877801
 20
100.1149896015058
 30
0.0
 10
100.6320340431025
 20
100.1092299029851
 30
0.0
 10
100.6975917300692
 20
100.1034943485692
 30
0.0
 10
100.7628864758257
 20
100.0977817985267
 30
0.0
 10
100.8281824453474
 20
100.0920691414221
 30
0.0
 10
100.8932157594822
 20
100.0863794636834
 30
0.0
 10
100.9579985762461
 20
100.0807117016238
 30
0.0
  0
LWPOLYLINE
  5
E00EDB36
330
E00DEA5D
100
AcDbEntity
  8
JISSEN
100
AcDbPolyline
 90
        9
 70
   128
 43
0.0
 10
102.9322523918431
 20
98.67042796130499
 10
102.9230490621444
 20
98.68064922655413
 10
102.9138457324938
 20
98.69087049180325
 10
102.9046442654439
 20
98.7010898944036
 10
102.8954455923935
 20
98.7113065030544
 10
102.8862487819437
 20
98.72151938640399
 10
102.8770566281432
 20
98.73172854445238
 10
102.8678691309437
 20
98.74193211460351
 10
102.8586872216942
 20
98.75213009680464
  0
LINE
  5
E00EDB37
330
E00DEA5D
100
AcDbEntity
  8
JISSEN
100
AcDbLine
 10
103.4576328765929
 20
98.08693387920449
 30
0.0
 11
102.932252391844
 21
98.67042796130499
 31
0.0
  0
LWPOLYLINE
  5
E00EDB38
330
E00DEA5D
100
AcDbEntity
  8
JISSEN
100
AcDbPolyline
 90
        9
 70
   128
 43
0.0
 10
103.5278182771439
 20
98.00898497365507
 10
103.5190563943938
 20
98.01871543190372
 10
103.5102907862942
 20
98.0284514781024
 10
103.5015205215936
 20
98.03819218095396
 10
103.4927465316436
 20
98.04793567770412
 10
103.4839706789939
 20
98.05768289975368
 10
103.4751920324438
 20
98.06743198450295
 10
103.4664133858436
 20
98.07718293185372
 10
103.4576328765938
 20
98.08693387920449
  0
LWPOLYLINE
  5
E00EDB39
330
E00DEA5D
100
AcDbEntity
  8
JISSEN
100
AcDbPolyline
 90
        9
 70
   128
 43
0.0
 10
104.1354326825935
 20
100.028875557703
 10
104.1456306647937
 20
100.0196936484544
 10
104.1558342349439
 20
100.010506151254
 10
104.1660433929932
 20
100.0013139974535
 10
104.1762562763437
 20
99.99211718700372
 10
104.1864728849936
 20
99.98291851395425
 10
104.196692287594
 20
99.9737170469025
 10
104.2069135528431
 20
99.96451371725289
 10
104.2171348180941
 20
99.95531038755416
  0
ARC
  5
E00EDB3A
330
E00DEA5D
100
AcDbEntity
  8
JISSEN
100
AcDbCircle
 10
91.31618443099297
 20
111.5713783484034
 30
0.0
 40
17.24999999999999
100
AcDbArc
 50
48.00000000000601
 51
85.01145802439907
  0
SPLINE
  5
E00EDB3B
330
E00DEA5D
100
AcDbEntity
  8
JISSEN
100
AcDbSpline
210
0.0
220
0.0
230
1.0
 70
     8
 71
     3
 72
     8
 73
     4
 74
     0
 42
0.0000000001
 43
0.0000000001
 40
0.0
 40
0.0
 40
0.0
 40
0.0
 40
1.0
 40
1.0
 40
1.0
 40
1.0
 10
100.1677990105868
 20
122.9929114912602
 30
0.0
 10
99.12532235328354
 20
123.8008241824291
 30
0.0
 10
97.97393447987587
 20
124.4607363182958
 30
0.0
 10
96.78171499301743
 20
124.9478680103029
 30
0.0
  0
SPLINE
  5
E00EDB3C
330
E00DEA5D
100
AcDbEntity
  8
JISSEN
100
AcDbSpline
210
0.0
220
0.0
230
1.0
 70
    24
 71
     3
 72
    14
 73
    10
 74
     0
 42
0.0000000001
 43
0.0000000001
 40
0.0
 40
0.0
 40
0.0
 40
0.0
 40
0.00043480365775
 40
0.00043480365775
 40
0.00043480365775
 40
0.0008696074301266
 40
0.0008696074301266
 40
0.0008696074301266
 40
0.001739277755159
 40
0.001739277755159
 40
0.001739277755159
 40
0.001739277755159
 10
96.44648658083269
 20
125.6667676601873
 30
0.0
 10
96.47402175820161
 20
125.6077182817598
 30
0.0
 10
96.5016505826402
 20
125.5484680765448
 30
0.0
 10
96.52937749583498
 20
125.4890075193152
 30
0.0
 10
96.55710441338079
 20
125.4295469527542
 30
0.0
 10
96.58492950755636
 20
125.369875845733
 30
0.0
 10
96.6128575294838
 20
125.3099840094337
 30
0.0
 10
96.66871727488933
 20
125.1901923988307
 30
0.0
 10
96.72498903269071
 20
125.0695172247951
 30
0.0
 10
96.78171499301743
 20
124.9478680103029
 30
0.0
  0
SPLINE
  5
E00EDB3D
330
E00DEA5D
100
AcDbEntity
  8
JISSEN
100
AcDbSpline
210
0.0
220
0.0
230
1.0
 70
     8
 71
     3
 72
    10
 73
     6
 74
     0
 42
0.0000000001
 43
0.0000000001
 40
0.0
 40
0.0
 40
0.0
 40
0.0
 40
0.5
 40
0.5
 40
1.0
 40
1.0
 40
1.0
 40
1.0
 10
92.29086797529044
 20
130.3213783483997
 30
0.0
 10
92.14550993946204
 20
130.4744888128052
 30
0.0
 10
91.98921584628669
 20
130.6372254454809
 30
0.0
 10
91.65883995826289
 20
130.9764388509111
 30
0.0
 10
91.48730580393886
 20
131.1502332421359
 30
0.0
 10
91.3161844309875
 20
131.3213783483997
 30
0.0
  0
ARC
  5
E00EDB3E
330
E00DEA5D
100
AcDbEntity
  8
JISSEN
100
AcDbCircle
 10
91.31618443099297
 20
130.3213783484034
 30
0.0
 40
1.500000000000023
100
AcDbArc
 50
270.0
 51
338.3528915029629
  0
SPLINE
  5
E00EDB3F
330
E00DEA5D
100
AcDbEntity
  8
JISSEN
100
AcDbSpline
210
0.0
220
0.0
230
1.0
 70
    24
 71
     3
 72
    10
 73
     6
 74
     0
 42
0.0000000001
 43
0.0000000001
 40
0.0
 40
0.0
 40
0.0
 40
0.0
 40
0.5
 40
0.5
 40
1.0
 40
1.0
 40
1.0
 40
1.0
 10
92.8161844309875
 20
128.7560372044836
 30
0.0
 10
92.8161844309875
 20
128.7743575909817
 30
0.0
 10
92.8161844309875
 20
128.7927187167251
 30
0.0
 10
92.8161844309875
 20
128.8295230500325
 30
0.0
 10
92.8161844309875
 20
128.8479934181459
 30
0.0
 10
92.8161844309875
 20
128.8663941850763
 30
0.0
  0
SPLINE
  5
E00EDB40
330
E00DEA5D
100
AcDbEntity
  8
JISSEN
100
AcDbSpline
210
0.0
220
0.0
230
1.0
 70
    24
 71
     3
 72
     9
 73
     5
 74
     0
 42
0.0000000001
 43
0.0000000001
 40
0.0
 40
0.0
 40
0.0
 40
0.0
 40
0.5
 40
1.0
 40
1.0
 40
1.0
 40
1.0
 10
92.8161844309875
 20
129.6543816665407
 30
0.0
 10
92.8161844309875
 20
129.672018753562
 30
0.0
 10
92.8161844309875
 20
129.7071963466305
 30
0.0
 10
92.8161844309875
 20
129.7421835452596
 30
0.0
 10
92.8161844309875
 20
129.7596300510786
 30
0.0
  0
LINE
  5
E00EDB41
330
E00DEA5D
100
AcDbEntity
  8
JISSEN
100
AcDbLine
 10
92.81618444404239
 20
128.8663943242527
 30
0.0
 11
92.81618444404239
 21
129.654380766703
 31
0.0
  0
SPLINE
  5
E00EDB42
330
E00DEA5D
100
AcDbEntity
  8
JISSEN
100
AcDbSpline
210
0.0
220
0.0
230
1.0
 70
     8
 71
     3
 72
    12
 73
     8
 74
     0
 42
0.0000000001
 43
0.0000000001
 40
0.0
 40
0.0
 40
0.0
 40
0.0
 40
0.2499999999999991
 40
0.2499999999999991
 40
0.4999999999999983
 40
0.4999999999999983
 40
1.0
 40
1.0
 40
1.0
 40
1.0
 10
92.71039468135269
 20
129.7680450150664
 30
0.0
 10
92.71039468135269
 20
129.7680450150664
 30
0.0
 10
92.70151620070055
 20
129.7824295412783
 30
0.0
 10
92.66597181630777
 20
129.8379904351686
 30
0.0
 10
92.63926141179172
 20
129.8791922880946
 30
0.0
 10
92.53406985634184
 20
130.0319901039993
 30
0.0
 10
92.42894564662902
 20
130.1759365345906
 30
0.0
 10
92.29086797529225
 20
130.3213783483997
 30
0.0
  0
SPLINE
  5
E00EDB43
330
E00DEA5D
100
AcDbEntity
  8
JISSEN
100
AcDbSpline
210
0.0
220
0.0
230
1.0
 70
    24
 71
     3
 72
    14
 73
    10
 74
     0
 42
0.0000000001
 43
0.0000000001
 40
0.0
 40
0.0
 40
0.0
 40
0.0
 40
0.0008361626839863
 40
0.0008361626839863
 40
0.0008361626839863
 40
0.0012542730052595
 40
0.0012542730052595
 40
0.0012542730052595
 40
0.0016723910970264
 40
0.0016723910970264
 40
0.0016723910970264
 40
0.0016723910970264
 10
100.1677990105831
 20
122.9929114912638
 30
0.0
 10
100.301781512187
 20
123.0046334412663
 30
0.0
 10
100.4345433220946
 20
123.0162485945811
 30
0.0
 10
100.5662003877801
 20
123.0277670953009
 30
0.0
 10
100.6320340431025
 20
123.0335267938216
 30
0.0
 10
100.6975917300692
 20
123.0392623482375
 30
0.0
 10
100.7628864758257
 20
123.0449748982801
 30
0.0
 10
100.8281824453474
 20
123.0506875553846
 30
0.0
 10
100.8932157594822
 20
123.0563772331233
 30
0.0
 10
100.9579985762461
 20
123.0620449951829
 30
0.0
  0
LWPOLYLINE
  5
E00EDB44
330
E00DEA5D
100
AcDbEntity
  8
JISSEN
100
AcDbPolyline
 90
        9
 70
   128
 43
0.0
 10
102.9322523918431
 20
124.4723287355018
 10
102.9230490621444
 20
124.4621074702527
 10
102.9138457324938
 20
124.4518862050035
 10
102.9046442654439
 20
124.4416668024032
 10
102.8954455923935
 20
124.4314501937524
 10
102.8862487819437
 20
124.4212373104028
 10
102.8770566281432
 20
124.4110281523544
 10
102.8678691309437
 20
124.4008245822033
 10
102.8586872216942
 20
124.3906266000021
  0
LWPOLYLINE
  5
E00EDB45
330
E00DEA5D
100
AcDbEntity
  8
JISSEN
100
AcDbPolyline
 90
        9
 70
   128
 43
0.0
 10
103.5278182771439
 20
125.1337717231517
 10
103.5190563943938
 20
125.1240412649031
 10
103.5102907862942
 20
125.1143052187044
 10
103.5015205215936
 20
125.1045645158528
 10
103.4927465316436
 20
125.0948210191027
 10
103.4839706789939
 20
125.0850737970531
 10
103.4751920324438
 20
125.0753247123038
 10
103.4664133858436
 20
125.0655737649531
 10
103.4576328765938
 20
125.0558228176023
  0
LINE
  5
E00EDB46
330
E00DEA5D
100
AcDbEntity
  8
JISSEN
100
AcDbLine
 10
103.4576328765929
 20
125.0558228176023
 30
0.0
 11
102.932252391844
 21
124.4723287355018
 31
0.0
  0
LWPOLYLINE
  5
E00EDB47
330
E00DEA5D
100
AcDbEntity
  8
JISSEN
100
AcDbPolyline
 90
        9
 70
   128
 43
0.0
 10
104.1354326825935
 20
123.1138811391037
 10
104.1456306647937
 20
123.1230630483523
 10
104.1558342349439
 20
123.1322505455527
 10
104.1660433929932
 20
123.1414426993533
 10
104.1762562763437
 20
123.1506395098031
 10
104.1864728849936
 20
123.1598381828525
 10
104.196692287594
 20
123.1690396499043
 10
104.2069135528431
 20
123.1782429795539
 10
104.2171348180941
 20
123.1874463092526
  0
LWPOLYLINE
  5
E00EDB48
330
E00DEA5D
100
AcDbEntity
  8
JISSEN
100
AcDbPolyline
 90
        9
 70
   128
 43
0.0
 10
104.8006289001937
 20
99.42992990280345
 10
104.8103798475435
 20
99.42114939355361
 10
104.8201307948943
 20
99.41237074695255
 10
104.8298798796436
 20
99.40359210040424
 10
104.8396271016931
 20
99.39481624775453
 10
104.8493705984433
 20
99.38604225780455
 10
104.8591113012939
 20
99.37727199310485
 10
104.8688473474935
 20
99.36850638500345
 10
104.878577805744
 20
99.35974450225423
  0
SPLINE
  5
E00EDB49
330
E00DEA5D
100
AcDbEntity
  8
JISSEN
100
AcDbSpline
210
0.0
220
0.0
230
1.0
 70
     8
 71
     3
 72
     8
 73
     4
 74
     0
 42
0.0000000001
 43
0.0000000001
 40
0.4970681351399652
 40
0.4970681351399652
 40
0.4970681351399652
 40
0.4970681351399652
 40
1.0
 40
1.0
 40
1.0
 40
1.0
 10
105.7655877114944
 20
111.5713783484034
 30
0.0
 10
105.7655805651061
 20
110.9128697989626
 30
0.0
 10
105.720961086246
 20
110.2581921638438
 30
0.0
 10
105.6333295726522
 20
109.6164218293679
 30
0.0
  0
SPLINE
  5
E00EDB4A
330
E00DEA5D
100
AcDbEntity
  8
JISSEN
100
AcDbSpline
210
0.0
220
0.0
230
1.0
 70
    24
 71
     3
 72
    14
 73
    10
 74
     0
 42
0.0000000001
 43
0.0000000001
 40
0.0
 40
0.0
 40
0.0
 40
0.0
 40
0.00043480365775
 40
0.00043480365775
 40
0.00043480365775
 40
0.0008696074301266
 40
0.0008696074301266
 40
0.0008696074301266
 40
0.001739277755159
 40
0.001739277755159
 40
0.001739277755159
 40
0.001739277755159
 10
106.0883007261309
 20
108.9666556834053
 30
0.0
 10
106.0509300530211
 20
109.0200265357161
 30
0.0
 10
106.013432282345
 20
109.0735789021655
 30
0.0
 10
105.9758013858572
 20
109.1273213919757
 30
0.0
 10
105.938170483465
 20
109.1810638902206
 30
0.0
 10
105.9004063360007
 20
109.2349966821475
 30
0.0
 10
105.8625024952488
 20
109.2891289767649
 30
0.0
 10
105.7866897900111
 20
109.3974007406359
 30
0.0
 10
105.7103179025906
 20
109.5064710994247
 30
0.0
 10
105.6333295726525
 20
109.616421829367
 30
0.0
  0
SPLINE
  5
E00EDB4B
330
E00DEA5D
100
AcDbEntity
  8
JISSEN
100
AcDbSpline
210
0.0
220
0.0
230
1.0
 70
    24
 71
     3
 72
    14
 73
    10
 74
     0
 42
0.0000000001
 43
0.0000000001
 40
0.0
 40
0.0
 40
0.0
 40
0.0
 40
0.00043480365775
 40
0.00043480365775
 40
0.00043480365775
 40
0.0008696074301266
 40
0.0008696074301266
 40
0.0008696074301266
 40
0.001739277755159
 40
0.001739277755159
 40
0.001739277755159
 40
0.001739277755159
 10
106.0883007261304
 20
114.1761010134005
 30
0.0
 10
106.0509300530206
 20
114.1227301610897
 30
0.0
 10
106.0134322823446
 20
114.0691777946403
 30
0.0
 10
105.9758013858568
 20
114.0154353048301
 30
0.0
 10
105.9381704834645
 20
113.9616928065852
 30
0.0
 10
105.9004063360002
 20
113.9077600146583
 30
0.0
 10
105.8625024952484
 20
113.853627720041
 30
0.0
 10
105.7866897900107
 20
113.7453559561699
 30
0.0
 10
105.7103179025903
 20
113.6362855973811
 30
0.0
 10
105.6333295726522
 20
113.5263348674388
 30
0.0
  0
SPLINE
  5
E00EDB4C
330
E00DEA5D
100
AcDbEntity
  8
JISSEN
100
AcDbSpline
210
0.0
220
0.0
230
1.0
 70
     8
 71
     3
 72
     8
 73
     4
 74
     0
 42
0.0000000001
 43
0.0000000001
 40
0.4970681351399652
 40
0.4970681351399652
 40
0.4970681351399652
 40
0.4970681351399652
 40
1.0
 40
1.0
 40
1.0
 40
1.0
 10
105.7655877114944
 20
111.5713783484034
 30
0.0
 10
105.7655805651061
 20
112.2298868978441
 30
0.0
 10
105.720961086246
 20
112.8845645329629
 30
0.0
 10
105.6333295726522
 20
113.5263348674388
 30
0.0
  0
SPLINE
  5
E00EDB4D
330
E00DEA5D
100
AcDbEntity
  8
JISSEN
100
AcDbSpline
210
0.0
220
0.0
230
1.0
 70
     8
 71
     3
 72
    12
 73
     8
 74
     0
 42
0.0000000001
 43
0.0000000001
 40
0.0
 40
0.0
 40
0.0
 40
0.0
 40
0.2499999999999976
 40
0.2499999999999976
 40
0.4999999999999952
 40
0.4999999999999952
 40
1.0
 40
1.0
 40
1.0
 40
1.0
 10
109.5128510976542
 20
112.965588598764
 30
0.0
 10
109.5128510976542
 20
112.965588598764
 30
0.0
 10
109.5272356238669
 20
112.9567101181119
 30
0.0
 10
109.5827965177572
 20
112.9211657337191
 30
0.0
 10
109.6239983706832
 20
112.894455329203
 30
0.0
 10
109.7767961865879
 20
112.7892637737541
 30
0.0
 10
109.9207426171774
 20
112.6841395640412
 30
0.0
 10
110.0661844309865
 20
112.5460618927036
 30
0.0
  0
SPLINE
  5
E00EDB4E
330
E00DEA5D
100
AcDbEntity
  8
JISSEN
100
AcDbSpline
210
0.0
220
0.0
230
1.0
 70
     8
 71
     3
 72
    12
 73
     8
 74
     0
 42
0.0000000001
 43
0.0000000001
 40
0.0
 40
0.0
 40
0.0
 40
0.0
 40
0.2499999999999976
 40
0.2499999999999976
 40
0.4999999999999952
 40
0.4999999999999952
 40
1.0
 40
1.0
 40
1.0
 40
1.0
 10
109.5128510976542
 20
110.1771680980427
 30
0.0
 10
109.5128510976542
 20
110.1771680980427
 30
0.0
 10
109.5272356238669
 20
110.1860465786949
 30
0.0
 10
109.5827965177572
 20
110.2215909630877
 30
0.0
 10
109.6239983706832
 20
110.2483013676037
 30
0.0
 10
109.7767961865879
 20
110.3534929230527
 30
0.0
 10
109.9207426171774
 20
110.4586171327655
 30
0.0
 10
110.0661844309865
 20
110.5966948041032
 30
0.0
  0
SPLINE
  5
E00EDB4F
330
E00DEA5D
100
AcDbEntity
  8
JISSEN
100
AcDbSpline
210
0.0
220
0.0
230
1.0
 70
    24
 71
     3
 72
     9
 73
     5
 74
     0
 42
0.0000000001
 43
0.0000000001
 40
0.0
 40
0.0
 40
0.0
 40
0.0
 40
0.5
 40
1.0
 40
1.0
 40
1.0
 40
1.0
 10
109.5044361336663
 20
113.0713783483997
 30
0.0
 10
109.4869227349458
 20
113.0713783483997
 30
0.0
 10
109.4518679327588
 20
113.0713783483997
 30
0.0
 10
109.4167571649518
 20
113.0713783483997
 30
0.0
 10
109.3991877491284
 20
113.0713783483997
 30
0.0
  0
SPLINE
  5
E00EDB50
330
E00DEA5D
100
AcDbEntity
  8
JISSEN
100
AcDbSpline
210
0.0
220
0.0
230
1.0
 70
    24
 71
     3
 72
    10
 73
     6
 74
     0
 42
0.0000000001
 43
0.0000000001
 40
0.0
 40
0.0
 40
0.0
 40
0.0
 40
0.5
 40
0.5
 40
1.0
 40
1.0
 40
1.0
 40
1.0
 10
108.6112002676641
 20
113.0713783483997
 30
0.0
 10
108.5927560159211
 20
113.0713783483997
 30
0.0
 10
108.5742640404519
 20
113.0713783483997
 30
0.0
 10
108.5374602228162
 20
113.0713783483997
 30
0.0
 10
108.5191209052568
 20
113.0713783483997
 30
0.0
 10
108.5008432870722
 20
113.0713783483997
 30
0.0
  0
LINE
  5
E00EDB51
330
E00DEA5D
100
AcDbEntity
  8
JISSEN
100
AcDbLine
 10
109.3991868492435
 20
113.0713783614528
 30
0.0
 11
108.611200406844
 21
113.0713783614528
 31
0.0
  0
ARC
  5
E00EDB52
330
E00DEA5D
100
AcDbEntity
  8
JISSEN
100
AcDbCircle
 10
110.0661844309929
 20
111.5713783484034
 30
0.0
 40
1.500000000000018
100
AcDbArc
 50
111.6471084969911
 51
180.0
  0
ARC
  5
E00EDB53
330
E00DEA5D
100
AcDbEntity
  8
JISSEN
100
AcDbCircle
 10
110.0661844309929
 20
111.5713783484034
 30
0.0
 40
1.500000000000018
100
AcDbArc
 50
180.0
 51
248.3528915030088
  0
LINE
  5
E00EDB54
330
E00DEA5D
100
AcDbEntity
  8
JISSEN
100
AcDbLine
 10
109.3991868492435
 20
110.0713783353539
 30
0.0
 11
108.611200406844
 21
110.0713783353539
 31
0.0
  0
SPLINE
  5
E00EDB55
330
E00DEA5D
100
AcDbEntity
  8
JISSEN
100
AcDbSpline
210
0.0
220
0.0
230
1.0
 70
    24
 71
     3
 72
    10
 73
     6
 74
     0
 42
0.0000000001
 43
0.0000000001
 40
0.0
 40
0.0
 40
0.0
 40
0.0
 40
0.5
 40
0.5
 40
1.0
 40
1.0
 40
1.0
 40
1.0
 10
108.6112002676641
 20
110.071378348407
 30
0.0
 10
108.5927560159211
 20
110.071378348407
 30
0.0
 10
108.5742640404519
 20
110.071378348407
 30
0.0
 10
108.5374602228162
 20
110.071378348407
 30
0.0
 10
108.5191209052568
 20
110.071378348407
 30
0.0
 10
108.5008432870722
 20
110.071378348407
 30
0.0
  0
SPLINE
  5
E00EDB56
330
E00DEA5D
100
AcDbEntity
  8
JISSEN
100
AcDbSpline
210
0.0
220
0.0
230
1.0
 70
    24
 71
     3
 72
     9
 73
     5
 74
     0
 42
0.0000000001
 43
0.0000000001
 40
0.0
 40
0.0
 40
0.0
 40
0.0
 40
0.5
 40
1.0
 40
1.0
 40
1.0
 40
1.0
 10
109.5044361336663
 20
110.071378348407
 30
0.0
 10
109.4869227349458
 20
110.071378348407
 30
0.0
 10
109.4518679327588
 20
110.071378348407
 30
0.0
 10
109.4167571649518
 20
110.071378348407
 30
0.0
 10
109.3991877491284
 20
110.071378348407
 30
0.0
  0
SPLINE
  5
E00EDB57
330
E00DEA5D
100
AcDbEntity
  8
JISSEN
100
AcDbSpline
210
0.0
220
0.0
230
1.0
 70
     8
 71
     3
 72
    10
 73
     6
 74
     0
 42
0.0000000001
 43
0.0000000001
 40
0.0
 40
0.0
 40
0.0
 40
0.0
 40
0.5
 40
0.5
 40
1.0
 40
1.0
 40
1.0
 40
1.0
 10
110.0661844309875
 20
112.5460618927036
 30
0.0
 10
110.2192948953938
 20
112.4007038568752
 30
0.0
 10
110.3820315280686
 20
112.2444097636989
 30
0.0
 10
110.7212449335006
 20
111.9140338756742
 30
0.0
 10
110.8950393247246
 20
111.7424997213502
 30
0.0
 10
111.0661844309875
 20
111.5713783483997
 30
0.0
  0
SPLINE
  5
E00EDB58
330
E00DEA5D
100
AcDbEntity
  8
JISSEN
100
AcDbSpline
210
0.0
220
0.0
230
1.0
 70
     8
 71
     3
 72
    10
 73
     6
 74
     0
 42
0.0000000001
 43
0.0000000001
 40
0.0
 40
0.0
 40
0.0
 40
0.0
 40
0.5
 40
0.5
 40
1.0
 40
1.0
 40
1.0
 40
1.0
 10
110.0661844309875
 20
110.5966948041032
 30
0.0
 10
110.2192948953938
 20
110.7420528399316
 30
0.0
 10
110.3820315280686
 20
110.8983469331078
 30
0.0
 10
110.7212449335006
 20
111.2287228211325
 30
0.0
 10
110.8950393247246
 20
111.4002569754566
 30
0.0
 10
111.0661844309875
 20
111.571378348407
 30
0.0
  0
LWPOLYLINE
  5
E00EDB59
330
E00DEA5D
100
AcDbEntity
  8
JISSEN
100
AcDbPolyline
 90
        9
 70
   128
 43
0.0
 10
104.8006289001937
 20
123.7128267940033
 10
104.8103798475435
 20
123.7216073032532
 10
104.8201307948943
 20
123.7303859498542
 10
104.8298798796436
 20
123.7391645964025
 10
104.8396271016931
 20
123.7479404490523
 10
104.8493705984433
 20
123.7567144390022
 10
104.8591113012939
 20
123.7654847037019
 10
104.8688473474935
 20
123.7742503118033
 10
104.878577805744
 20
123.7830121945526
  0
SPLINE
  5
E00EDB5A
330
E00DEA5D
100
AcDbEntity
  8
JISSEN
100
AcDbSpline
210
0.0
220
0.0
230
1.0
 70
     8
 71
     3
 72
     8
 73
     4
 74
     0
 42
0.0000000001
 43
0.0000000001
 40
0.0
 40
0.0
 40
0.0
 40
0.0
 40
2.236014716865069
 40
2.236014716865111
 40
2.236014716865111
 40
2.236014716865111
 10
119.7069388839033
 20
113.0713783614528
 30
0.0
 10
120.5357994967921
 20
112.5701943213198
 30
0.0
 10
121.3646601096811
 20
112.0690102811863
 30
0.0
 10
121.3651794499517
 20
111.5713783484034
 30
0.0
  0
SPLINE
  5
E00EDB5B
330
E00DEA5D
100
AcDbEntity
  8
JISSEN
100
AcDbSpline
210
0.0
220
0.0
230
1.0
 70
     8
 71
     3
 72
     8
 73
     4
 74
     0
 42
0.0000000001
 43
0.0000000001
 40
0.0
 40
0.0
 40
0.0
 40
0.0
 40
2.236014716865069
 40
2.236014716865111
 40
2.236014716865111
 40
2.236014716865111
 10
119.7069388839033
 20
110.0713783353539
 30
0.0
 10
120.5357994967921
 20
110.572562375487
 30
0.0
 10
121.3646601096811
 20
111.07374641562
 30
0.0
 10
121.3651794499517
 20
111.5713783484034
 30
0.0
  0
TEXT
  5
E00EDB5C
330
E00DEA5D
100
AcDbEntity
  8
TEXT
100
AcDbText
 10
151.5870496134383
 20
7.678038248554848
 30
0.0
 40
3.0
  1
尺度 1/1
  7
K
 72
     4
 11
159.1584781848669
 21
8.963752534269133
 31
0.0
100
AcDbText
  0
TEXT
  5
E00EDB5D
330
E00DEA5D
100
AcDbEntity
  8
TEXT
100
AcDbText
 10
151.8584781848669
 20
12.94747840819082
 30
0.0
 40
3.0
  1
ガード K
  7
K
 72
     4
 11
159.1584781848669
 21
14.44747840819081
 31
0.0
100
AcDbText
  0
ARC
  5
E00EDB5E
330
E00DEA5D
100
AcDbEntity
  8
JISSEN
100
AcDbCircle
 39
240.0520776831561
 10
124.8161862787405
 20
197.5959765960969
 30
0.0
 40
0.5
100
AcDbArc
 50
277.9999950540612
 51
0.0
  0
LINE
  5
E00EDB5F
330
E00DEA5D
100
AcDbEntity
  8
JISSEN
100
AcDbLine
 39
240.0520776831561
 10
125.3161862787405
 20
197.9478151051434
 30
0.0
 11
125.3161862787405
 21
197.5959765960969
 31
0.0
  0
ARC
  5
E00EDB60
330
E00DEA5D
100
AcDbEntity
  8
JISSEN
100
AcDbCircle
 10
127.5661844309929
 20
182.9478151051434
 30
0.0
 40
15.0
100
AcDbArc
 50
114.4186184442852
 51
180.0
  0
LINE
  5
E00EDB61
330
E00DEA5D
100
AcDbEntity
  8
JISSEN
100
AcDbLine
 10
124.8857727864801
 20
197.1008425557202
 30
0.0
 11
109.592302470684
 21
194.951486818295
 31
0.0
  0
LINE
  5
E00EDB62
330
E00DEA5D
100
AcDbEntity
  8
JISSEN
100
AcDbLine
 10
125.3161862787405
 20
197.9478151051434
 30
0.0
 11
91.31618443099297
 21
197.9478151051434
 31
0.0
  0
LINE
  5
E00EDB63
330
E00DEA5D
100
AcDbEntity
  8
JISSEN
100
AcDbLine
 10
92.81618444404239
 20
175.1478152243444
 30
0.0
 11
92.81618444404239
 21
182.9478154403941
 31
0.0
  0
LINE
  5
E00EDB64
330
E00DEA5D
100
AcDbEntity
  8
JISSEN
100
AcDbLine
 10
112.5661846544921
 20
173.6478151051223
 30
0.0
 11
112.5661846544921
 21
182.9478154403941
 31
0.0
  0
LINE
  5
E00EDB65
330
E00DEA5D
100
AcDbEntity
  8
JISSEN
100
AcDbLine
 10
108.5661839988411
 20
175.1478152243444
 30
0.0
 11
108.5661839988411
 21
194.9489217230939
 31
0.0
  0
LINE
  5
E00EDB66
330
E00DEA5D
100
AcDbEntity
  8
JISSEN
100
AcDbLine
 10
111.0661853399929
 20
172.1478147325933
 30
0.0
 11
91.31618443099297
 21
172.1478147325933
 31
0.0
  0
LINE
  5
E00EDB67
330
E00DEA5D
100
AcDbEntity
  8
JISSEN
100
AcDbLine
 10
111.0091399696416
 20
175.1478152243444
 30
0.0
 11
92.81618444404239
 21
175.1478152243444
 31
0.0
  0
SPLINE
  5
E00EDB68
330
E00DEA5D
100
AcDbEntity
  8
JISSEN
100
AcDbSpline
210
0.0
220
0.0
230
1.0
 70
     8
 71
     3
 72
     8
 73
     4
 74
     0
 42
0.0000000001
 43
0.0000000001
 40
0.0
 40
0.0
 40
0.0
 40
0.0
 40
2.236014716865069
 40
2.236014716865111
 40
2.236014716865111
 40
2.236014716865111
 10
92.8161844440425
 20
139.9621328013135
 30
0.0
 10
92.31500040390939
 20
140.7909934142026
 30
0.0
 10
91.81381636377613
 20
141.6198540270916
 30
0.0
 10
91.31618443099307
 20
141.6203733673619
 30
0.0
  0
SPLINE
  5
E00EDB69
330
E00DEA5D
100
AcDbEntity
  8
JISSEN
100
AcDbSpline
210
0.0
220
0.0
230
1.0
 70
     8
 71
     3
 72
    16
 73
    12
 74
     0
 42
0.0000000001
 43
0.0000000001
 40
0.0
 40
0.0
 40
0.0
 40
0.0
 40
0.2500000000000009
 40
0.2500000000000009
 40
0.3750000000000013
 40
0.3750000000000013
 40
0.5000000000000018
 40
0.5000000000000018
 40
0.7500000000000009
 40
0.7500000000000009
 40
1.0
 40
1.0
 40
1.0
 40
1.0
 10
92.81618443099842
 20
175.1467362678913
 30
0.0
 10
92.81618443099842
 20
175.137623123478
 30
0.0
 10
92.75698082593544
 20
175.0703884006898
 30
0.0
 10
92.61347295975202
 20
174.9200638681113
 30
0.0
 10
92.55643246582303
 20
174.861550274606
 30
0.0
 10
92.43223398532746
 20
174.7359404084972
 30
0.0
 10
92.3643560280775
 20
174.6680928978121
 30
0.0
 10
92.14645815800531
 20
174.4521642813188
 30
0.0
 10
91.98974029895863
 20
174.2991436990551
 30
0.0
 10
91.6590534648435
 20
173.9783622809291
 30
0.0
 10
91.48662803655179
 20
173.812133016544
 30
0.0
 10
91.31618443099842
 20
173.6478151051223
 30
0.0
  0
SPLINE
  5
E00EDB6A
330
E00DEA5D
100
AcDbEntity
  8
JISSEN
100
AcDbSpline
210
0.0
220
0.0
230
1.0
 70
     8
 71
     3
 72
    16
 73
    12
 74
     0
 42
0.0000000001
 43
0.0000000001
 40
0.0
 40
0.0
 40
0.0
 40
0.0
 40
0.249999999999999
 40
0.249999999999999
 40
0.3749999999999985
 40
0.3749999999999985
 40
0.4999999999999981
 40
0.4999999999999981
 40
0.7499999999999991
 40
0.7499999999999991
 40
1.0
 40
1.0
 40
1.0
 40
1.0
 10
111.0661844309984
 20
175.1467362678913
 30
0.0
 10
111.3070282637168
 20
175.137623123478
 30
0.0
 10
111.5361242701996
 20
175.0703884006898
 30
0.0
 10
111.8269254507927
 20
174.9200638681113
 30
0.0
 10
111.9158025834872
 20
174.861550274606
 30
0.0
 10
112.0734081326686
 20
174.7359404084972
 30
0.0
 10
112.1434396289082
 20
174.6680928978121
 30
0.0
 10
112.3299942947155
 20
174.4521642813188
 30
0.0
 10
112.4179263074361
 20
174.2991436990551
 30
0.0
 10
112.5370088370404
 20
173.9783622809291
 30
0.0
 10
112.5661844309984
 20
173.812133016544
 30
0.0
 10
112.5661844309984
 20
173.6478151051223
 30
0.0
  0
ARC
  5
E00EDB6B
330
E00DEA5D
100
AcDbEntity
  8
JISSEN
100
AcDbCircle
 10
111.0661844309929
 20
173.6478151051442
 30
0.0
 40
1.5
100
AcDbArc
 50
270.0
 51
0.0
  0
SPLINE
  5
E00EDB6C
330
E00DEA5D
100
AcDbEntity
  8
JISSEN
100
AcDbSpline
210
0.0
220
0.0
230
1.0
 70
     8
 71
     3
 72
     9
 73
     5
 74
     0
 42
0.0000000001
 43
0.0000000001
 40
0.0
 40
0.0
 40
0.0
 40
0.0
 40
0.5
 40
1.0
 40
1.0
 40
1.0
 40
1.0
 10
111.0091400243068
 20
175.1478151051223
 30
0.0
 10
111.0186280400835
 20
175.1478151051223
 30
0.0
 10
111.0376233689162
 20
175.1476361157101
 30
0.0
 10
111.0566575508069
 20
175.1470967497616
 30
0.0
 10
111.0661844309984
 20
175.1467362678913
 30
0.0
  0
LINE
  5
E00EDB6D
330
E00DEA5D
100
AcDbEntity
  8
JISSEN
100
AcDbLine
 10
92.81618444404239
 20
194.951486818295
 30
0.0
 11
109.5923024706848
 21
194.951486818295
 31
0.0
  0
LINE
  5
E00EDB6E
330
E00DEA5D
100
AcDbEntity
  8
JISSEN
100
AcDbLine
 10
103.0273292507904
 20
202.9478149933429
 30
0.0
 11
105.2961530457928
 21
202.9478149933429
 31
0.0
  0
LINE
  5
E00EDB6F
330
E00DEA5D
100
AcDbEntity
  8
JISSEN
100
AcDbLine
 10
91.91618445949144
 20
202.9478149933429
 30
0.0
 11
91.91618445949144
 21
200.0421297715429
 31
0.0
  0
LINE
  5
E00EDB70
330
E00DEA5D
100
AcDbEntity
  8
JISSEN
100
AcDbLine
 10
90.7161844024945
 20
202.9478149933429
 30
0.0
 11
90.7161844024945
 21
200.0421297715429
 31
0.0
  0
LINE
  5
E00EDB71
330
E00DEA5D
100
AcDbEntity
  8
JISSEN
100
AcDbLine
 10
92.81618444404239
 20
182.9478154403941
 30
0.0
 11
92.81618444404239
 21
194.9514868182955
 31
0.0
  0
SPLINE
  5
E00EDB72
330
E00DEA5D
100
AcDbEntity
  8
JISSEN
100
AcDbSpline
210
0.0
220
0.0
230
1.0
 70
     8
 71
     3
 72
     8
 73
     4
 74
     0
 42
0.0000000001
 43
0.0000000001
 40
0.0
 40
0.0
 40
0.0
 40
0.0
 40
2.236014716865069
 40
2.236014716865111
 40
2.236014716865111
 40
2.236014716865111
 10
92.81618444404239
 20
194.951486818295
 30
0.0
 10
92.31500040390915
 20
195.780347431184
 30
0.0
 10
91.81381636377592
 20
196.609208044073
 30
0.0
 10
91.31618443099297
 20
196.6097273843433
 30
0.0
  0
LINE
  5
E00EDB73
330
E00DEA5D
100
AcDbEntity
  8
JISSEN
100
AcDbLine
 10
91.91618445949144
 20
199.947815200142
 30
0.0
 11
91.31618443099297
 21
199.947815200142
 31
0.0
  0
SPLINE
  5
E00EDB74
330
E00DEA5D
100
AcDbEntity
  8
JISSEN
100
AcDbSpline
210
0.0
220
0.0
230
1.0
 70
    24
 71
     3
 72
     8
 73
     4
 74
     0
 42
0.0000000001
 43
0.0000000001
 40
0.0
 40
0.0
 40
0.0
 40
0.0
 40
0.000094419996181
 40
0.000094419996181
 40
0.000094419996181
 40
0.000094419996181
 10
91.91618443095421
 20
200.0421296828871
 30
0.0
 10
91.91618443095421
 20
200.0106563508279
 30
0.0
 10
91.91618443095421
 20
199.9791479586447
 30
0.0
 10
91.91618443095421
 20
199.9478151050998
 30
0.0
  0
SPLINE
  5
E00EDB75
330
E00DEA5D
100
AcDbEntity
  8
JISSEN
100
AcDbSpline
210
0.0
220
0.0
230
1.0
 70
    24
 71
     3
 72
     8
 73
     4
 74
     0
 42
0.0000000001
 43
0.0000000001
 40
0.0
 40
0.0
 40
0.0
 40
0.0
 40
0.000094419996181
 40
0.000094419996181
 40
0.000094419996181
 40
0.000094419996181
 10
90.71618443103171
 20
200.0421296828871
 30
0.0
 10
90.71618443103171
 20
200.0106563508279
 30
0.0
 10
90.71618443103171
 20
199.9791479586447
 30
0.0
 10
90.71618443103171
 20
199.9478151050998
 30
0.0
  0
LINE
  5
E00EDB76
330
E00DEA5D
100
AcDbEntity
  8
JISSEN
100
AcDbLine
 10
90.7161844024945
 20
199.947815200142
 30
0.0
 11
91.31618443099297
 21
199.947815200142
 31
0.0
  0
LINE
  5
E00EDB77
330
E00DEA5D
100
AcDbEntity
  8
JISSEN
100
AcDbLine
 10
101.9221799742904
 20
209.4478151274425
 30
0.0
 11
96.95951680799272
 21
209.4478151274425
 31
0.0
  0
LINE
  5
E00EDB78
330
E00DEA5D
100
AcDbEntity
  8
JISSEN
100
AcDbLine
 10
91.91618445949144
 20
202.9478149933429
 30
0.0
 11
95.52660997179055
 21
202.9478149933429
 31
0.0
  0
LINE
  5
E00EDB79
330
E00DEA5D
100
AcDbEntity
  8
JISSEN
100
AcDbLine
 10
96.44648659189124
 20
208.9478150455424
 30
0.0
 11
96.44648659189124
 21
205.0176146885433
 31
0.0
  0
LINE
  5
E00EDB7A
330
E00DEA5D
100
AcDbEntity
  8
JISSEN
100
AcDbLine
 10
96.95951680799272
 20
204.447815239243
 30
0.0
 11
96.95951680799272
 21
209.4478151274425
 31
0.0
  0
SPLINE
  5
E00EDB7B
330
E00DEA5D
100
AcDbEntity
  8
JISSEN
100
AcDbSpline
210
0.0
220
0.0
230
1.0
 70
     8
 71
     3
 72
    18
 73
    14
 74
     0
 42
0.0000000001
 43
0.0000000001
 40
0.0
 40
0.0
 40
0.0
 40
0.0
 40
0.1250000000000001
 40
0.1250000000000001
 40
0.2500000000000003
 40
0.2500000000000003
 40
0.3750000000000004
 40
0.3750000000000004
 40
0.5000000000000006
 40
0.5000000000000006
 40
0.7500000000000002
 40
0.7500000000000002
 40
1.0
 40
1.0
 40
1.0
 40
1.0
 10
96.44648658083998
 20
204.4478107758377
 30
0.0
 10
96.44648631195877
 20
204.3486701771425
 30
0.0
 10
96.43734385598101
 20
204.251186867953
 30
0.0
 10
96.40148502433522
 20
204.0593993735883
 30
0.0
 10
96.37433222635127
 20
203.9641008399803
 30
0.0
 10
96.30332733996647
 20
203.7823862013583
 30
0.0
 10
96.25983079583557
 20
203.6962042477798
 30
0.0
 10
96.15683431641219
 20
203.53311023297
 30
0.0
 10
96.09678426550136
 20
203.4559009436334
 30
0.0
 10
95.89952455385946
 20
203.2483678970192
 30
0.0
 10
95.73984721380339
 20
203.1367008792012
 30
0.0
 10
95.39337668583494
 20
202.9873266931563
 30
0.0
 10
95.20339951149571
 20
202.9478151050998
 30
0.0
 10
95.01123168747245
 20
202.9478151050998
 30
0.0
  0
SPLINE
  5
E00EDB7C
330
E00DEA5D
100
AcDbEntity
  8
JISSEN
100
AcDbSpline
210
0.0
220
0.0
230
1.0
 70
     8
 71
     3
 72
    18
 73
    14
 74
     0
 42
0.0000000001
 43
0.0000000001
 40
0.0
 40
0.0
 40
0.0
 40
0.0
 40
0.1250000000000003
 40
0.1250000000000003
 40
0.2500000000000006
 40
0.2500000000000006
 40
0.3750000000000009
 40
0.3750000000000009
 40
0.5000000000000013
 40
0.5000000000000013
 40
0.7500000000000006
 40
0.7500000000000006
 40
1.0
 40
1.0
 40
1.0
 40
1.0
 10
95.52660992839401
 20
202.9478151050998
 30
0.0
 10
95.62244731023247
 20
202.9478151050998
 30
0.0
 10
95.71646465013918
 20
202.957464023787
 30
0.0
 10
95.90101965677376
 20
202.9953599186364
 30
0.0
 10
95.99251125734417
 20
203.0240689443426
 30
0.0
 10
96.16657576113039
 20
203.0991045646814
 30
0.0
 10
96.24893000440307
 20
203.1450538393646
 30
0.0
 10
96.40447440899471
 20
203.2536970459577
 30
0.0
 10
96.47794343824308
 20
203.3169669451154
 30
0.0
 10
96.67511392255756
 20
203.5243576521234
 30
0.0
 10
96.7807620000017
 20
203.6916331443162
 30
0.0
 10
96.92209337122722
 20
204.052573813432
 30
0.0
 10
96.95951679582822
 20
204.2495698296561
 30
0.0
 10
96.95951679582822
 20
204.4478151050998
 30
0.0
  0
LINE
  5
E00EDB7D
330
E00DEA5D
100
AcDbEntity
  8
JISSEN
100
AcDbLine
 10
96.44648659189124
 20
205.0176146885433
 30
0.0
 11
96.44648659189124
 21
204.4478105826428
 31
0.0
  0
LINE
  5
E00EDB7E
330
E00DEA5D
100
AcDbEntity
  8
JISSEN
100
AcDbLine
 10
96.61749650879073
 20
209.4478151274425
 30
0.0
 11
96.44648659189124
 21
208.9478150455424
 31
0.0
  0
LINE
  5
E00EDB7F
330
E00DEA5D
100
AcDbEntity
  8
JISSEN
100
AcDbLine
 10
96.95951680799272
 20
209.4478151274425
 30
0.0
 11
96.61749650879073
 21
209.4478151274425
 31
0.0
  0
LINE
  5
E00EDB80
330
E00DEA5D
100
AcDbEntity
  8
JISSEN
100
AcDbLine
 10
101.9221799742904
 20
209.4478151274425
 30
0.0
 11
101.9221799742904
 21
204.447815239243
 31
0.0
  0
SPLINE
  5
E00EDB81
330
E00DEA5D
100
AcDbEntity
  8
JISSEN
100
AcDbSpline
210
0.0
220
0.0
230
1.0
 70
     8
 71
     3
 72
    18
 73
    14
 74
     0
 42
0.0000000001
 43
0.0000000001
 40
0.0
 40
0.0
 40
0.0
 40
0.0
 40
0.1249999999999998
 40
0.1249999999999998
 40
0.2499999999999995
 40
0.2499999999999995
 40
0.3749999999999992
 40
0.3749999999999992
 40
0.499999999999999
 40
0.499999999999999
 40
0.7499999999999995
 40
0.7499999999999995
 40
1.0
 40
1.0
 40
1.0
 40
1.0
 10
101.9221799907823
 20
204.4478151050998
 30
0.0
 10
101.9221799907823
 20
204.3486917651725
 30
0.0
 10
101.9296379334386
 20
204.2512251423149
 30
0.0
 10
101.9587965964169
 20
204.059469899993
 30
0.0
 10
101.9808505473342
 20
203.964187571234
 30
0.0
 10
102.0382189578426
 20
203.7824974430141
 30
0.0
 10
102.0732459278492
 20
203.6963260836446
 30
0.0
 10
102.1555983973498
 20
203.533249199384
 30
0.0
 10
102.2033532520404
 20
203.4560442123174
 30
0.0
 10
102.3588636627032
 20
203.2485089173797
 30
0.0
 10
102.48301301121
 20
203.1368217079425
 30
0.0
 10
102.7462279400929
 20
202.9873775073165
 30
0.0
 10
102.8876788998791
 20
202.9478151050998
 30
0.0
 10
103.0273293009372
 20
202.9478151050998
 30
0.0
  0
LINE
  5
E00EDB82
330
E00DEA5D
100
AcDbEntity
  8
JISSEN
100
AcDbLine
 10
107.8161843415914
 20
209.4478151274425
 30
0.0
 11
107.8161843415914
 21
200.0421297715429
 31
0.0
  0
LINE
  5
E00EDB83
330
E00DEA5D
100
AcDbEntity
  8
JISSEN
100
AcDbLine
 10
105.8961529578905
 20
202.9478149933429
 30
0.0
 11
105.8961529578905
 21
200.0421297715429
 31
0.0
  0
LINE
  5
E00EDB84
330
E00DEA5D
100
AcDbEntity
  8
JISSEN
100
AcDbLine
 10
105.2961530457928
 20
200.0421297715429
 30
0.0
 11
105.2961530457928
 21
202.9478149933429
 31
0.0
  0
ARC
  5
E00EDB85
330
E00DEA5D
100
AcDbEntity
  8
JISSEN
100
AcDbCircle
 10
108.8161844309929
 20
200.0421296828435
 30
0.0
 40
1.000000000000007
100
AcDbArc
 50
180.0
 51
257.9999999999842
  0
SPLINE
  5
E00EDB86
330
E00DEA5D
100
AcDbEntity
  8
JISSEN
100
AcDbSpline
210
0.0
220
0.0
230
1.0
 70
     8
 71
     3
 72
     8
 73
     4
 74
     0
 42
0.0000000001
 43
0.0000000001
 40
0.0
 40
0.0
 40
0.0
 40
0.0
 40
0.000094419996181
 40
0.000094419996181
 40
0.000094419996181
 40
0.000094419996181
 10
105.3000158280588
 20
199.9478151050998
 30
0.0
 10
105.2974434381581
 20
199.9791479586447
 30
0.0
 10
105.2961529183144
 20
200.0106563508279
 30
0.0
 10
105.2961529183144
 20
200.0421296828871
 30
0.0
  0
SPLINE
  5
E00EDB87
330
E00DEA5D
100
AcDbEntity
  8
JISSEN
100
AcDbSpline
210
0.0
220
0.0
230
1.0
 70
     8
 71
     3
 72
     8
 73
     4
 74
     0
 42
0.0000000001
 43
0.0000000001
 40
0.0
 40
0.0
 40
0.0
 40
0.0
 40
0.000094419996181
 40
0.000094419996181
 40
0.000094419996181
 40
0.000094419996181
 10
105.8961529183147
 20
200.0421296828871
 30
0.0
 10
105.8961529183147
 20
200.0106563508279
 30
0.0
 10
105.8974434381575
 20
199.9791479586447
 30
0.0
 10
105.9000158280582
 20
199.9478151050998
 30
0.0
  0
LINE
  5
E00EDB88
330
E00DEA5D
100
AcDbEntity
  8
JISSEN
100
AcDbLine
 10
105.9000160839918
 20
199.947815200142
 30
0.0
 11
105.3000161718905
 21
199.947815200142
 31
0.0
  0
ARC
  5
E00EDB89
330
E00DEA5D
100
AcDbEntity
  8
JISSEN
100
AcDbCircle
 10
109.5661844309929
 20
197.838031071943
 30
0.0
 40
0.999999999999998
100
AcDbArc
 50
6.302866183580547
 51
77.99999999998428
  0
LINE
  5
E00EDB8A
330
E00DEA5D
100
AcDbEntity
  8
JISSEN
100
AcDbLine
 10
108.6082723285931
 20
199.0639820441419
 30
0.0
 11
109.7740963395904
 21
198.8161786438422
 31
0.0
  0
LINE
  5
E00EDB8B
330
E00DEA5D
100
AcDbEntity
  8
JISSEN
100
AcDbLine
 10
107.5655132826927
 20
204.447815239243
 30
0.0
 11
107.5655132826927
 21
209.4478151274425
 31
0.0
  0
SPLINE
  5
E00EDB8C
330
E00DEA5D
100
AcDbEntity
  8
JISSEN
100
AcDbSpline
210
0.0
220
0.0
230
1.0
 70
     8
 71
     3
 72
    14
 73
    10
 74
     0
 42
0.0000000001
 43
0.0000000001
 40
0.0
 40
0.0
 40
0.0
 40
0.0
 40
0.00043480365775
 40
0.00043480365775
 40
0.00043480365775
 40
0.0008696074301266
 40
0.0008696074301266
 40
0.0008696074301266
 40
0.001739277755159
 40
0.001739277755159
 40
0.001739277755159
 40
0.001739277755159
 10
106.0883007261377
 20
207.0176146814674
 30
0.0
 10
106.050930053027
 20
206.8881503641942
 30
0.0
 10
106.0134322823519
 20
206.7587973007984
 30
0.0
 10
105.975801385864
 20
206.6295623018586
 30
0.0
 10
105.9381704834718
 20
206.500327282637
 30
0.0
 10
105.9004063360066
 20
206.3712099060349
 30
0.0
 10
105.8625024952557
 20
206.2422175626152
 30
0.0
 10
105.7866897900171
 20
205.9842157792581
 30
0.0
 10
105.7103179025975
 20
205.7267105985474
 30
0.0
 10
105.6333295726603
 20
205.4697691745195
 30
0.0
  0
LINE
  5
E00EDB8D
330
E00DEA5D
100
AcDbEntity
  8
JISSEN
100
AcDbLine
 10
106.088300637492
 20
205.2065022734432
 30
0.0
 11
106.088300637492
 21
207.017614550642
 31
0.0
  0
LINE
  5
E00EDB8E
330
E00DEA5D
100
AcDbEntity
  8
JISSEN
100
AcDbLine
 10
105.8961529578905
 20
202.9478149933429
 30
0.0
 11
107.2377547915916
 21
202.9478149933429
 31
0.0
  0
LINE
  5
E00EDB8F
330
E00DEA5D
100
AcDbEntity
  8
JISSEN
100
AcDbLine
 10
105.633330002091
 20
204.9032971707429
 30
0.0
 11
105.633330002091
 21
205.1697690484425
 31
0.0
  0
LINE
  5
E00EDB90
330
E00DEA5D
100
AcDbEntity
  8
JISSEN
100
AcDbLine
 10
105.633330002091
 20
205.4697690045423
 30
0.0
 11
105.633330002091
 21
205.1697690484425
 31
0.0
  0
LINE
  5
E00EDB91
330
E00DEA5D
100
AcDbEntity
  8
JISSEN
100
AcDbLine
 10
106.088300637492
 20
205.2065022734432
 30
0.0
 11
106.088300637492
 21
204.447815239243
 31
0.0
  0
LINE
  5
E00EDB92
330
E00DEA5D
100
AcDbEntity
  8
JISSEN
100
AcDbLine
 10
105.8961529578905
 20
202.9478149933429
 30
0.0
 11
105.2961530457928
 21
202.9478149933429
 31
0.0
  0
SPLINE
  5
E00EDB93
330
E00DEA5D
100
AcDbEntity
  8
JISSEN
100
AcDbSpline
210
0.0
220
0.0
230
1.0
 70
     8
 71
     3
 72
    18
 73
    14
 74
     0
 42
0.0000000001
 43
0.0000000001
 40
0.0
 40
0.0
 40
0.0
 40
0.0
 40
0.1250000000000001
 40
0.1250000000000001
 40
0.2500000000000002
 40
0.2500000000000002
 40
0.3750000000000002
 40
0.3750000000000002
 40
0.5000000000000004
 40
0.5000000000000004
 40
0.7500000000000001
 40
0.7500000000000001
 40
1.0
 40
1.0
 40
1.0
 40
1.0
 10
106.0883007261377
 20
204.4478151050998
 30
0.0
 10
106.0883007261377
 20
204.3486743237362
 30
0.0
 10
106.0866195694111
 20
204.2511908098413
 30
0.0
 10
106.0799257241055
 20
204.0594028638888
 30
0.0
 10
106.0748300791915
 20
203.9641040760006
 30
0.0
 10
106.0611792745653
 20
203.7823889546043
 30
0.0
 10
106.052692809249
 20
203.6962067511931
 30
0.0
 10
106.0319684815972
 20
203.5331122247543
 30
0.0
 10
106.0196076155784
 20
203.4559026951874
 30
0.0
 10
105.9775410367133
 20
203.2483689833234
 30
0.0
 10
105.9416327698722
 20
203.1367015630394
 30
0.0
 10
105.8570545477746
 20
202.9873268406854
 30
0.0
 10
105.8075669637787
 20
202.9478151050998
 30
0.0
 10
105.7537822976396
 20
202.9478151050998
 30
0.0
  0
SPLINE
  5
E00EDB94
330
E00DEA5D
100
AcDbEntity
  8
JISSEN
100
AcDbSpline
210
0.0
220
0.0
230
1.0
 70
     8
 71
     3
 72
    14
 73
    10
 74
     0
 42
0.0000000001
 43
0.0000000001
 40
0.0
 40
0.0
 40
0.0
 40
0.0
 40
0.000317542727739
 40
0.000317542727739
 40
0.000317542727739
 40
0.0005558549641894
 40
0.0005558549641894
 40
0.0005558549641894
 40
0.0007941674852212
 40
0.0007941674852212
 40
0.0007941674852212
 40
0.0007941674852212
 10
106.0883007261377
 20
204.8644812224747
 30
0.0
 10
106.0276563959446
 20
204.8694653901648
 30
0.0
 10
105.9670140609728
 20
204.8745239294394
 30
0.0
 10
105.9063738570553
 20
204.8796584312649
 30
0.0
 10
105.8608640629122
 20
204.8835118174019
 30
0.0
 10
105.8153554537389
 20
204.8874079875831
 30
0.0
 10
105.7698480875437
 20
204.8913475677955
 30
0.0
 10
105.7243406671336
 20
204.8952871527008
 30
0.0
 10
105.6788344761075
 20
204.8992701493834
 30
0.0
 10
105.6333295726603
 20
204.9032971366059
 30
0.0
  0
SPLINE
  5
E00EDB95
330
E00DEA5D
100
AcDbEntity
  8
JISSEN
100
AcDbSpline
210
0.0
220
0.0
230
1.0
 70
     8
 71
     3
 72
    18
 73
    14
 74
     0
 42
0.0000000001
 43
0.0000000001
 40
0.0
 40
0.0
 40
0.0
 40
0.0
 40
0.1249999999999998
 40
0.1249999999999998
 40
0.2499999999999997
 40
0.2499999999999997
 40
0.3749999999999995
 40
0.3749999999999995
 40
0.4999999999999993
 40
0.4999999999999993
 40
0.7499999999999997
 40
0.7499999999999997
 40
1.0
 40
1.0
 40
1.0
 40
1.0
 10
107.2377547983774
 20
202.9478151050998
 30
0.0
 10
107.2637692273024
 20
202.9478151050998
 30
0.0
 10
107.2884902455093
 20
202.957464023787
 30
0.0
 10
107.3355413303374
 20
202.9953599186364
 30
0.0
 10
107.3580945224125
 20
203.0240689443426
 30
0.0
 10
107.3996733796316
 20
203.0991045646814
 30
0.0
 10
107.4186678445944
 20
203.1450538393646
 30
0.0
 10
107.4535069742955
 20
203.2536970459577
 30
0.0
 10
107.4693991833305
 20
203.3169669451154
 30
0.0
 10
107.5109483074406
 20
203.5243576521234
 30
0.0
 10
107.5316298992497
 20
203.6916331443162
 30
0.0
 10
107.5587095370997
 20
204.052573813432
 30
0.0
 10
107.5655123556557
 20
204.2495698296561
 30
0.0
 10
107.5655123556557
 20
204.4478151050998
 30
0.0
  0
LINE
  5
E00EDB96
330
E00DEA5D
100
AcDbEntity
  8
JISSEN
100
AcDbLine
 10
106.5807048525916
 20
209.4478151274425
 30
0.0
 11
106.088300637492
 21
208.9478150455424
 31
0.0
  0
LINE
  5
E00EDB97
330
E00DEA5D
100
AcDbEntity
  8
JISSEN
100
AcDbLine
 10
106.088300637492
 20
208.9478150455424
 30
0.0
 11
106.088300637492
 21
207.017614550642
 31
0.0
  0
LINE
  5
E00EDB98
330
E00DEA5D
100
AcDbEntity
  8
JISSEN
100
AcDbLine
 10
107.5655132826927
 20
209.4478151274425
 30
0.0
 11
106.5807048525916
 21
209.4478151274425
 31
0.0
  0
LINE
  5
E00EDB99
330
E00DEA5D
100
AcDbEntity
  8
JISSEN
100
AcDbLine
 10
107.8161843415914
 20
209.4478151274425
 30
0.0
 11
107.5655132826927
 21
209.4478151274425
 31
0.0
  0
ENDSEC
  0
SECTION
  2
OBJECTS
  0
DICTIONARY
  5
E00DEA51
330
0
100
AcDbDictionary
281
     1
  3
ACAD_GROUP
350
E00DEA52
  3
ACAD_LAYOUT
350
E00DFA6A
  3
ACAD_MLINESTYLE
350
E00DEA53
  3
ACAD_PLOTSETTINGS
350
E00DFA6B
  3
ACAD_PLOTSTYLENAME
350
E00DFA68
  3
AcadDim
350
E00E59A8
  3
ACDBVARIABLEDICTIONARY
350
E00DF82C
  0
DICTIONARY
  5
E00DFB39
330
E00DEA47
100
AcDbDictionary
280
     1
281
     1
  3
ACAD_LAYERFILTERS
360
E00E26A3
  3
ACAD_LAYERSTATES
360
E00DFB3A
  0
DICTIONARY
  5
E00DFB13
330
E00DEA5D
100
AcDbDictionary
280
     1
281
     1
  3
ACAD_LAYOUTSELFREF
360
E00DFB14
  0
DICTIONARY
  5
E00DFB11
330
E00DEA5A
100
AcDbDictionary
280
     1
281
     1
  3
ACAD_LAYOUTSELFREF
360
E00DFB12
  0
DICTIONARY
  5
E00DEA52
102
{ACAD_REACTORS
330
E00DEA51
102
}
330
E00DEA51
100
AcDbDictionary
281
     1
  0
DICTIONARY
  5
E00DFA6A
102
{ACAD_REACTORS
330
E00DEA51
102
}
330
E00DEA51
100
AcDbDictionary
281
     1
  3
Model
350
E00DFA6C
  3
ﾚｲｱｳﾄ1
350
E00DFA6D
  0
DICTIONARY
  5
E00DEA53
102
{ACAD_REACTORS
330
E00DEA51
102
}
330
E00DEA51
100
AcDbDictionary
281
     1
  3
STANDARD
350
E00DEA60
  0
DICTIONARY
  5
E00DFA6B
102
{ACAD_REACTORS
330
E00DEA51
102
}
330
E00DEA51
100
AcDbDictionary
281
     1
  0
ACDBDICTIONARYWDFLT
  5
E00DFA68
102
{ACAD_REACTORS
330
E00DEA51
102
}
330
E00DEA51
100
AcDbDictionary
281
     1
  3
Normal
350
E00DFA69
  3
Style_1
350
E00ECC5E
100
AcDbDictionaryWithDefault
340
E00DFA69
  0
XRECORD
  5
E00E59A8
102
{ACAD_REACTORS
330
E00DEA51
102
}
330
E00DEA51
100
AcDbXrecord
280
     1
 90
   990106
  3

 60
     0
 61
     0
 62
     1
 63
     3
 64
     0
 65
     0
 66
     0
 67
     3
 68
     1
 69
     0
 70
     0
 71
     0
 72
     0
 40
0.0
170
     0
  0
DICTIONARY
  5
E00DF82C
102
{ACAD_REACTORS
330
E00DEA51
102
}
330
E00DEA51
100
AcDbDictionary
281
     1
  3
DIMASSOC
350
E00DFB2E
  3
SORTENTS
350
E00DF82D
  0
DICTIONARY
  5
E00E26A3
102
{ACAD_REACTORS
330
E00DFB39
102
}
330
E00DFB39
100
AcDbDictionary
280
     1
281
     1
  3
0
360
E00E26A4
  3
0-0
360
E00E26A5
  3
10画層
360
E00E26A6
  3
2
360
E00E26A7
  3
3
360
E00E26A8
  3
3A
360
E00E26A9
  3
4
360
E00E26AA
  3
5画層
360
E00E26AB
  3
6画層
360
E00E26AC
  3
7
360
E00E26AD
  3
7a画層
360
E00E26AE
  3
8
360
E00E26AF
  3
ASYST
360
E00E26B0
  3
ASYST PHASE 1
360
E00E26B1
  3
ASYST PHASE 2
360
E00E26B2
  3
cap-0
360
E00E26B3
  3
dims
360
E00E26B4
  3
elec
360
E00E26B5
  3
ELECTRICAL
360
E00E26B6
  3
F
360
E00E26B7
  3
Frame
360
E00E26B8
  3
FROZEN
360
E00E26B9
  3
FROZEN ACTIVE
360
E00E26BA
  3
jiku-0
360
E00E26BB
  3
MP
360
E00E26BC
  3
MPR
360
E00E26BD
  3
p-
360
E00E26BE
  3
ST
360
E00E26BF
  3
TC
360
E00E26C0
  3
TEXT
360
E00E26C1
  3
ｹｰﾌﾞﾙ図
360
E00E26C2
  3
０画層
360
E00E26C3
  3
３A画層
360
E00E26C4
  3
３画層
360
E00E26C5
  0
DICTIONARY
  5
E00DFB3A
102
{ACAD_REACTORS
330
E00DFB39
102
}
330
E00DFB39
100
AcDbDictionary
281
     1
  0
XRECORD
  5
E00DFB14
102
{ACAD_REACTORS
330
E00DFB13
102
}
330
E00DFB13
100
AcDbXrecord
280
     1
340
E00DEA5D
  0
XRECORD
  5
E00DFB12
102
{ACAD_REACTORS
330
E00DFB11
102
}
330
E00DFB11
100
AcDbXrecord
280
     1
340
E00DEA5A
  0
LAYOUT
  5
E00DFA6C
102
{ACAD_REACTORS
330
E00DFA6A
102
}
330
E00DFA6A
100
AcDbPlotSettings
  1

  2
\\Nt_honsya\FUJITSU XL-5300-3
  4
A4
  6

 40
5.873749732971191
 41
5.704405784606932
 42
5.789077758789062
 43
5.873748779296875
 44
209.9733276367186
 45
296.9259948730469
 46
0.0
 47
0.0
 48
0.0
 49
0.0
140
0.0
141
0.0
142
1.0
143
1.0
 70
 11952
 72
     0
 73
     1
 74
     0
  7
aclt.ctb
 75
     0
147
1.0
148
1211.157904756485
149
44.79223521629618
100
AcDbLayout
  1
Model
 70
     1
 71
     0
 10
0.0
 20
0.0
 11
12.0
 21
9.0
 12
0.0
 22
0.0
 32
0.0
 14
0.0
 24
0.0
 34
0.0
 15
0.0
 25
0.0
 35
0.0
146
0.0
 13
0.0
 23
0.0
 33
0.0
 16
1.0
 26
0.0
 36
0.0
 17
0.0
 27
1.0
 37
0.0
 76
     0
330
E00DEA5D
  0
LAYOUT
  5
E00DFA6D
102
{ACAD_REACTORS
330
E00DFA6A
102
}
330
E00DFA6A
100
AcDbPlotSettings
  1

  2
\\Nt_honsya\FUJITSU XL-5300-3
  4

  6

 40
0.0
 41
0.0
 42
0.0
 43
0.0
 44
0.0
 45
0.0
 46
0.0
 47
0.0
 48
0.0
 49
0.0
140
0.0
141
0.0
142
1.0
143
1.0
 70
   688
 72
     0
 73
     0
 74
     5
  7
aclt(XL).ctb
 75
    16
147
1.0
148
0.0
149
0.0
100
AcDbLayout
  1
ﾚｲｱｳﾄ1
 70
     0
 71
     1
 10
0.0
 20
0.0
 11
12.0
 21
9.0
 12
0.0
 22
0.0
 32
0.0
 14
1.000000000000000E+20
 24
1.000000000000000E+20
 34
1.000000000000000E+20
 15
-1.000000000000000E+20
 25
-1.000000000000000E+20
 35
-1.000000000000000E+20
146
0.0
 13
0.0
 23
0.0
 33
0.0
 16
1.0
 26
0.0
 36
0.0
 17
0.0
 27
1.0
 37
0.0
 76
     0
330
E00DEA5A
  0
MLINESTYLE
  5
E00DEA60
102
{ACAD_REACTORS
330
E00DEA53
102
}
330
E00DEA53
100
AcDbMlineStyle
  2
STANDARD
 70
     0
  3

 62
     0
 51
90.0
 52
90.0
 71
     2
 49
0.5
 62
   256
  6
BYLAYER
 49
-0.5
 62
   256
  6
BYLAYER
  0
ACDBPLACEHOLDER
  5
E00DFA69
102
{ACAD_REACTORS
330
E00DFA68
102
}
330
E00DFA68
  0
ACDBPLACEHOLDER
  5
E00ECC5E
102
{ACAD_REACTORS
330
E00DFA68
102
}
330
E00DFA68
  0
DICTIONARYVAR
  5
E00DFB2E
102
{ACAD_REACTORS
330
E00DF82C
102
}
330
E00DF82C
100
DictionaryVariables
280
     0
  1
0
  0
DICTIONARYVAR
  5
E00DF82D
102
{ACAD_REACTORS
330
E00DF82C
102
}
330
E00DF82C
100
DictionaryVariables
280
     0
  1
96
  0
XRECORD
  5
E00E26A4
102
{ACAD_REACTORS
330
E00E26A3
102
}
330
E00E26A3
100
AcDbXrecord
280
     1
  1
0
  1
*-0
  1
*
  1
*
 70
     0
  1
*
  1
*
  0
XRECORD
  5
E00E26A5
102
{ACAD_REACTORS
330
E00E26A3
102
}
330
E00E26A3
100
AcDbXrecord
280
     1
  1
0-0
  1
*-0
  1
*
  1
*
 70
     0
  1
*
  1
*
  0
XRECORD
  5
E00E26A6
102
{ACAD_REACTORS
330
E00E26A3
102
}
330
E00E26A3
100
AcDbXrecord
280
     1
  1
10画層
  1
*-10
  1
*
  1
*
 70
     0
  1
*
  1
*
  0
XRECORD
  5
E00E26A7
102
{ACAD_REACTORS
330
E00E26A3
102
}
330
E00E26A3
100
AcDbXrecord
280
     1
  1
2
  1
*-2
  1
*
  1
*
 70
     0
  1
*
  1
*
  0
XRECORD
  5
E00E26A8
102
{ACAD_REACTORS
330
E00E26A3
102
}
330
E00E26A3
100
AcDbXrecord
280
     1
  1
3
  1
*-3
  1
*
  1
*
 70
     0
  1
*
  1
*
  0
XRECORD
  5
E00E26A9
102
{ACAD_REACTORS
330
E00E26A3
102
}
330
E00E26A3
100
AcDbXrecord
280
     1
  1
3A
  1
*-3A
  1
*
  1
*
 70
     0
  1
*
  1
*
  0
XRECORD
  5
E00E26AA
102
{ACAD_REACTORS
330
E00E26A3
102
}
330
E00E26A3
100
AcDbXrecord
280
     1
  1
4
  1
*-4
  1
*
  1
*
 70
     0
  1
*
  1
*
  0
XRECORD
  5
E00E26AB
102
{ACAD_REACTORS
330
E00E26A3
102
}
330
E00E26A3
100
AcDbXrecord
280
     1
  1
5画層
  1
*-5
  1
*
  1
*
 70
     0
  1
*
  1
*
  0
XRECORD
  5
E00E26AC
102
{ACAD_REACTORS
330
E00E26A3
102
}
330
E00E26A3
100
AcDbXrecord
280
     1
  1
6画層
  1
*-6
  1
*
  1
*
 70
     0
  1
*
  1
*
  0
XRECORD
  5
E00E26AD
102
{ACAD_REACTORS
330
E00E26A3
102
}
330
E00E26A3
100
AcDbXrecord
280
     1
  1
7
  1
*-7*
  1
*
  1
*
 70
     0
  1
*
  1
*
  0
XRECORD
  5
E00E26AE
102
{ACAD_REACTORS
330
E00E26A3
102
}
330
E00E26A3
100
AcDbXrecord
280
     1
  1
7a画層
  1
*-7a
  1
*
  1
*
 70
     0
  1
*
  1
*
  0
XRECORD
  5
E00E26AF
102
{ACAD_REACTORS
330
E00E26A3
102
}
330
E00E26A3
100
AcDbXrecord
280
     1
  1
8
  1
*-8,8
  1
*
  1
*
 70
     0
  1
*
  1
*
  0
XRECORD
  5
E00E26B0
102
{ACAD_REACTORS
330
E00E26A3
102
}
330
E00E26A3
100
AcDbXrecord
280
     1
  1
ASYST
  1
ASYST*
  1
*
  1
*
 70
     0
  1
*
  1
*
  0
XRECORD
  5
E00E26B1
102
{ACAD_REACTORS
330
E00E26A3
102
}
330
E00E26A3
100
AcDbXrecord
280
     1
  1
ASYST PHASE 1
  1
A1.0-8$0$ASYT*
  1
*
  1
*
 70
     0
  1
*
  1
*
  0
XRECORD
  5
E00E26B2
102
{ACAD_REACTORS
330
E00E26A3
102
}
330
E00E26A3
100
AcDbXrecord
280
     1
  1
ASYST PHASE 2
  1
A2.0-8$0$ASYT*
  1
*
  1
*
 70
     0
  1
*
  1
*
  0
XRECORD
  5
E00E26B3
102
{ACAD_REACTORS
330
E00E26A3
102
}
330
E00E26A3
100
AcDbXrecord
280
     1
  1
cap-0
  1
*
  1
*
  1
*
 70
     0
  1
*
  1
*
  0
XRECORD
  5
E00E26B4
102
{ACAD_REACTORS
330
E00E26A3
102
}
330
E00E26A3
100
AcDbXrecord
280
     1
  1
dims
  1
*di*
  1
*
  1
*
 70
     0
  1
*
  1
*
  0
XRECORD
  5
E00E26B5
102
{ACAD_REACTORS
330
E00E26A3
102
}
330
E00E26A3
100
AcDbXrecord
280
     1
  1
elec
  1
e-*
  1
*
  1
*
 70
     0
  1
*
  1
*
  0
XRECORD
  5
E00E26B6
102
{ACAD_REACTORS
330
E00E26A3
102
}
330
E00E26A3
100
AcDbXrecord
280
     1
  1
ELECTRICAL
  1
E-*
  1
*
  1
*
 70
     0
  1
*
  1
*
  0
XRECORD
  5
E00E26B7
102
{ACAD_REACTORS
330
E00E26A3
102
}
330
E00E26A3
100
AcDbXrecord
280
     1
  1
F
  1
*
  1
*
  1
*
 70
     0
  1
*
  1
*
  0
XRECORD
  5
E00E26B8
102
{ACAD_REACTORS
330
E00E26A3
102
}
330
E00E26A3
100
AcDbXrecord
280
     1
  1
Frame
  1
F*
  1
*
  1
*
 70
     0
  1
*
  1
*
  0
XRECORD
  5
E00E26B9
102
{ACAD_REACTORS
330
E00E26A3
102
}
330
E00E26A3
100
AcDbXrecord
280
     1
  1
FROZEN
  1
*
  1
*
  1
*
 70
     4
  1
*
  1
*
  0
XRECORD
  5
E00E26BA
102
{ACAD_REACTORS
330
E00E26A3
102
}
330
E00E26A3
100
AcDbXrecord
280
     1
  1
FROZEN ACTIVE
  1
*
  1
*
  1
*
 70
    16
  1
*
  1
*
  0
XRECORD
  5
E00E26BB
102
{ACAD_REACTORS
330
E00E26A3
102
}
330
E00E26A3
100
AcDbXrecord
280
     1
  1
jiku-0
  1
*
  1
*
  1
*
 70
     0
  1
*
  1
*
  0
XRECORD
  5
E00E26BC
102
{ACAD_REACTORS
330
E00E26A3
102
}
330
E00E26A3
100
AcDbXrecord
280
     1
  1
MP
  1
MP_*
  1
*
  1
*
 70
     0
  1
*
  1
*
  0
XRECORD
  5
E00E26BD
102
{ACAD_REACTORS
330
E00E26A3
102
}
330
E00E26A3
100
AcDbXrecord
280
     1
  1
MPR
  1
MPR*
  1
*
  1
*
 70
     0
  1
*
  1
*
  0
XRECORD
  5
E00E26BE
102
{ACAD_REACTORS
330
E00E26A3
102
}
330
E00E26A3
100
AcDbXrecord
280
     1
  1
p-
  1
p-*
  1
*
  1
*
 70
     0
  1
*
  1
*
  0
XRECORD
  5
E00E26BF
102
{ACAD_REACTORS
330
E00E26A3
102
}
330
E00E26A3
100
AcDbXrecord
280
     1
  1
ST
  1
ST_*
  1
*
  1
*
 70
     0
  1
*
  1
*
  0
XRECORD
  5
E00E26C0
102
{ACAD_REACTORS
330
E00E26A3
102
}
330
E00E26A3
100
AcDbXrecord
280
     1
  1
TC
  1
TC_*,0N
  1
*
  1
*
 70
     0
  1
*
  1
*
  0
XRECORD
  5
E00E26C1
102
{ACAD_REACTORS
330
E00E26A3
102
}
330
E00E26A3
100
AcDbXrecord
280
     1
  1
TEXT
  1
TEXT
  1
*
  1
*
 70
     0
  1
*
  1
*
  0
XRECORD
  5
E00E26C2
102
{ACAD_REACTORS
330
E00E26A3
102
}
330
E00E26A3
100
AcDbXrecord
280
     1
  1
ｹｰﾌﾞﾙ図
  1
*
  1
*
  1
*
 70
     0
  1
*
  1
*
  0
XRECORD
  5
E00E26C3
102
{ACAD_REACTORS
330
E00E26A3
102
}
330
E00E26A3
100
AcDbXrecord
280
     1
  1
０画層
  1
*-0
  1
*
  1
*
 70
     0
  1
*
  1
*
  0
XRECORD
  5
E00E26C4
102
{ACAD_REACTORS
330
E00E26A3
102
}
330
E00E26A3
100
AcDbXrecord
280
     1
  1
３A画層
  1
*-3A
  1
*
  1
*
 70
     0
  1
*
  1
*
  0
XRECORD
  5
E00E26C5
102
{ACAD_REACTORS
330
E00E26A3
102
}
330
E00E26A3
100
AcDbXrecord
280
     1
  1
３画層
  1
*-3
  1
*
  1
*
 70
     0
  1
*
  1
*
  0
ENDSEC
  0
EOF
