  0
SECTION
  2
HEADER
  9
$ACADVER
  1
AC1014
  9
$ACADMAINTVER
 70
     9
  9
$DWGCODEPAGE
  3
ANSI_932
  9
$INSBASE
 10
0.0
 20
0.0
 30
0.0
  9
$EXTMIN
 10
0.0
 20
0.0
 30
0.0
  9
$EXTMAX
 10
361.999998
 20
273.0
 30
0.0
  9
$LIMMIN
 10
0.0
 20
0.0
  9
$LIMMAX
 10
180.999999
 20
273.0
  9
$ORTHOMODE
 70
     1
  9
$REGENMODE
 70
     1
  9
$FILLMODE
 70
     1
  9
$QTEXTMODE
 70
     0
  9
$MIRRTEXT
 70
     0
  9
$DRAGMODE
 70
     2
  9
$LTSCALE
 40
5.0
  9
$OSMODE
 70
   167
  9
$ATTMODE
 70
     1
  9
$TEXTSIZE
 40
1.5
  9
$TRACEWID
 40
0.05
  9
$TEXTSTYLE
  7
K
  9
$CLAYER
  8
SUNPOU
  9
$CELTYPE
  6
BYLAYER
  9
$CECOLOR
 62
   256
  9
$CELTSCALE
 40
1.0
  9
$DELOBJ
 70
     1
  9
$DISPSILH
 70
     0
  9
$DIMSCALE
 40
1.0
  9
$DIMASZ
 40
1.5
  9
$DIMEXO
 40
1.0
  9
$DIMDLI
 40
6.0
  9
$DIMRND
 40
0.0
  9
$DIMDLE
 40
0.0
  9
$DIMEXE
 40
1.0
  9
$DIMTP
 40
495.0
  9
$DIMTM
 40
0.0
  9
$DIMTXT
 40
3.0
  9
$DIMCEN
 40
0.0
  9
$DIMTSZ
 40
0.0
  9
$DIMTOL
 70
     0
  9
$DIMLIM
 70
     0
  9
$DIMTIH
 70
     0
  9
$DIMTOH
 70
     0
  9
$DIMSE1
 70
     0
  9
$DIMSE2
 70
     0
  9
$DIMTAD
 70
     1
  9
$DIMZIN
 70
     8
  9
$DIMBLK
  1
ARROWANG
  9
$DIMASO
 70
     0
  9
$DIMSHO
 70
     0
  9
$DIMPOST
  1

  9
$DIMAPOST
  1

  9
$DIMALT
 70
     0
  9
$DIMALTD
 70
     2
  9
$DIMALTF
 40
25.4
  9
$DIMLFAC
 40
1.0
  9
$DIMTOFL
 70
     1
  9
$DIMTVP
 40
0.0
  9
$DIMTIX
 70
     1
  9
$DIMSOXD
 70
     0
  9
$DIMSAH
 70
     0
  9
$DIMBLK1
  1
ARROWANG
  9
$DIMBLK2
  1
ARROWANG
  9
$DIMSTYLE
  2
IMAO
  9
$DIMCLRD
 70
     0
  9
$DIMCLRE
 70
     0
  9
$DIMCLRT
 70
     0
  9
$DIMTFAC
 40
1.0
  9
$DIMGAP
 40
0.09
  9
$DIMJUST
 70
     0
  9
$DIMSD1
 70
     0
  9
$DIMSD2
 70
     0
  9
$DIMTOLJ
 70
     1
  9
$DIMTZIN
 70
     0
  9
$DIMALTZ
 70
     0
  9
$DIMALTTZ
 70
     0
  9
$DIMFIT
 70
     3
  9
$DIMUPT
 70
     0
  9
$DIMUNIT
 70
     2
  9
$DIMDEC
 70
     4
  9
$DIMTDEC
 70
     4
  9
$DIMALTU
 70
     2
  9
$DIMALTTD
 70
     2
  9
$DIMTXSTY
  7
STANDARD
  9
$DIMAUNIT
 70
     0
  9
$LUNITS
 70
     2
  9
$LUPREC
 70
     2
  9
$SKETCHINC
 40
0.1
  9
$FILLETRAD
 40
0.5
  9
$AUNITS
 70
     0
  9
$AUPREC
 70
     2
  9
$MENU
  1
STDR12J
  9
$ELEVATION
 40
0.0
  9
$PELEVATION
 40
0.0
  9
$THICKNESS
 40
0.0
  9
$LIMCHECK
 70
     0
  9
$BLIPMODE
 70
     0
  9
$CHAMFERA
 40
0.5
  9
$CHAMFERB
 40
0.5
  9
$CHAMFERC
 40
0.0
  9
$CHAMFERD
 40
0.0
  9
$SKPOLY
 70
     0
  9
$TDCREATE
 40
2450354.415456018
  9
$TDUPDATE
 40
2453334.731742870
  9
$TDINDWG
 40
0.0732865856
  9
$TDUSRTIMER
 40
0.0732865856
  9
$USRTIMER
 70
     1
  9
$ANGBASE
 50
0.0
  9
$ANGDIR
 70
     0
  9
$PDMODE
 70
     0
  9
$PDSIZE
 40
0.0
  9
$PLINEWID
 40
0.0
  9
$COORDS
 70
     2
  9
$SPLFRAME
 70
     0
  9
$SPLINETYPE
 70
     6
  9
$SPLINESEGS
 70
     8
  9
$ATTDIA
 70
     0
  9
$ATTREQ
 70
     1
  9
$HANDLING
 70
 22529
  9
$HANDSEED
  5
1D69184CD7
  9
$SURFTAB1
 70
     6
  9
$SURFTAB2
 70
     6
  9
$SURFTYPE
 70
     6
  9
$SURFU
 70
     6
  9
$SURFV
 70
     6
  9
$UCSNAME
  2

  9
$UCSORG
 10
0.0
 20
0.0
 30
0.0
  9
$UCSXDIR
 10
1.0
 20
0.0
 30
0.0
  9
$UCSYDIR
 10
0.0
 20
1.0
 30
0.0
  9
$PUCSNAME
  2

  9
$PUCSORG
 10
0.0
 20
0.0
 30
0.0
  9
$PUCSXDIR
 10
1.0
 20
0.0
 30
0.0
  9
$PUCSYDIR
 10
0.0
 20
1.0
 30
0.0
  9
$USERI1
 70
     4
  9
$USERI2
 70
     1
  9
$USERI3
 70
     1
  9
$USERI4
 70
     2
  9
$USERI5
 70
     1
  9
$USERR1
 40
1.0
  9
$USERR2
 40
3.0
  9
$USERR3
 40
3.0
  9
$USERR4
 40
1.5
  9
$USERR5
 40
8.0
  9
$WORLDVIEW
 70
     1
  9
$SHADEDGE
 70
     3
  9
$SHADEDIF
 70
    70
  9
$TILEMODE
 70
     1
  9
$MAXACTVP
 70
    16
  9
$PINSBASE
 10
0.0
 20
0.0
 30
0.0
  9
$PLIMCHECK
 70
     0
  9
$PEXTMIN
 10
1.000000000000000E+20
 20
1.000000000000000E+20
 30
1.000000000000000E+20
  9
$PEXTMAX
 10
-1.000000000000000E+20
 20
-1.000000000000000E+20
 30
-1.000000000000000E+20
  9
$PLIMMIN
 10
0.0
 20
0.0
  9
$PLIMMAX
 10
12.0
 20
9.0
  9
$UNITMODE
 70
     0
  9
$VISRETAIN
 70
     0
  9
$PLINEGEN
 70
     0
  9
$PSLTSCALE
 70
     0
  9
$TREEDEPTH
 70
     0
  9
$PICKSTYLE
 70
     1
  9
$CMLSTYLE
  2
STANDARD
  9
$CMLJUST
 70
     0
  9
$CMLSCALE
 40
1.0
  9
$PROXYGRAPHICS
 70
     1
  9
$MEASUREMENT
 70
     0
  0
ENDSEC
  0
SECTION
  2
CLASSES
  0
CLASS
  1
LWPOLYLINE
  2
AcDbPolyline
  3
AutoCAD 2000
 90
        0
280
     0
281
     1
  0
CLASS
  1
ACDBDICTIONARYWDFLT
  2
AcDbDictionaryWithDefault
  3
AutoCAD 2000
 90
        0
280
     0
281
     0
  0
CLASS
  1
ACDBPLACEHOLDER
  2
AcDbPlaceHolder
  3
AutoCAD 2000
 90
        0
280
     0
281
     0
  0
CLASS
  1
LAYOUT
  2
AcDbLayout
  3
AutoCAD 2000
 90
        0
280
     0
281
     0
  0
CLASS
  1
LONG_TRANSACTION
  2
AcDbLongTransaction
  3
AutoCAD 2000
 90
        0
280
     0
281
     0
  0
CLASS
  1
LWPOLYLINE
  2
AcDbPolyline
  3
AutoCAD 2000
 90
        0
280
     0
281
     1
  0
CLASS
  1
HATCH
  2
AcDbHatch
  3
AutoCAD 2000
 90
        0
280
     0
281
     1
  0
CLASS
  1
XRECORD
  2
AcDbXrecord
  3
AutoCAD 2000
 90
        0
280
     0
281
     0
  0
CLASS
  1
LONG_TRANSACTION
  2
AcDbLongTransaction
  3
AutoCAD 2000
 90
        0
280
     0
281
     0
  0
CLASS
  1
LWPOLYLINE
  2
AcDbPolyline
  3
AutoCAD 2000
 90
        0
280
     0
281
     1
  0
CLASS
  1
HATCH
  2
AcDbHatch
  3
AutoCAD 2000
 90
        0
280
     0
281
     1
  0
CLASS
  1
XRECORD
  2
AcDbXrecord
  3
AutoCAD 2000
 90
        0
280
     0
281
     0
  0
CLASS
  1
LONG_TRANSACTION
  2
AcDbLongTransaction
  3
AutoCAD 2000
 90
        0
280
     0
281
     0
  0
CLASS
  1
LWPOLYLINE
  2
AcDbPolyline
  3
AutoCAD 2000
 90
        0
280
     0
281
     1
  0
CLASS
  1
HATCH
  2
AcDbHatch
  3
AutoCAD 2000
 90
        0
280
     0
281
     1
  0
CLASS
  1
XRECORD
  2
AcDbXrecord
  3
AutoCAD 2000
 90
        0
280
     0
281
     0
  0
CLASS
  1
LONG_TRANSACTION
  2
AcDbLongTransaction
  3
AutoCAD 2000
 90
        0
280
     0
281
     0
  0
CLASS
  1
LWPOLYLINE
  2
AcDbPolyline
  3
AutoCAD 2000
 90
        0
280
     0
281
     1
  0
CLASS
  1
HATCH
  2
AcDbHatch
  3
AutoCAD 2000
 90
        0
280
     0
281
     1
  0
CLASS
  1
XRECORD
  2
AcDbXrecord
  3
AutoCAD 2000
 90
        0
280
     0
281
     0
  0
CLASS
  1
LONG_TRANSACTION
  2
AcDbLongTransaction
  3
AutoCAD 2000
 90
        0
280
     0
281
     0
  0
CLASS
  1
LWPOLYLINE
  2
AcDbPolyline
  3
AutoCAD 2000
 90
        0
280
     0
281
     1
  0
CLASS
  1
HATCH
  2
AcDbHatch
  3
AutoCAD 2000
 90
        0
280
     0
281
     1
  0
CLASS
  1
XRECORD
  2
AcDbXrecord
  3
AutoCAD 2000
 90
        0
280
     0
281
     0
  0
CLASS
  1
DICTIONARYVAR
  2
AcDbDictionaryVar
  3
AutoCAD 2000
 90
        0
280
     0
281
     0
  0
CLASS
  1
LONG_TRANSACTION
  2
AcDbLongTransaction
  3
AutoCAD 2000
 90
        0
280
     0
281
     0
  0
CLASS
  1
LWPOLYLINE
  2
AcDbPolyline
  3
AutoCAD 2000
 90
        0
280
     0
281
     1
  0
CLASS
  1
HATCH
  2
AcDbHatch
  3
AutoCAD 2000
 90
        0
280
     0
281
     1
  0
CLASS
  1
XRECORD
  2
AcDbXrecord
  3
AutoCAD 2000
 90
        0
280
     0
281
     0
  0
CLASS
  1
LONG_TRANSACTION
  2
AcDbLongTransaction
  3
AutoCAD 2000
 90
        0
280
     0
281
     0
  0
CLASS
  1
LWPOLYLINE
  2
AcDbPolyline
  3
AutoCAD 2000
 90
        0
280
     0
281
     1
  0
CLASS
  1
HATCH
  2
AcDbHatch
  3
AutoCAD 2000
 90
        0
280
     0
281
     1
  0
CLASS
  1
XRECORD
  2
AcDbXrecord
  3
AutoCAD 2000
 90
        0
280
     0
281
     0
  0
ENDSEC
  0
SECTION
  2
TABLES
  0
TABLE
  2
VPORT
  5
1D69183389
330
0
100
AcDbSymbolTable
 70
    10
  0
VPORT
  5
1D691833BC
330
1D69183389
100
AcDbSymbolTableRecord
100
AcDbViewportTableRecord
  2
2
 70
     0
 10
0.5
 20
0.0
 11
1.0
 21
1.0
 12
0.9240309999999999
 22
1.052651
 13
0.0
 23
0.0
 14
1.0
 24
1.0
 15
10.0
 25
10.0
 16
0.0
 26
0.0
 36
1.0
 17
0.0
 27
0.0
 37
0.0
 40
2.105302
 41
0.877814
 42
50.0
 43
0.0
 44
0.0
 50
0.0
 51
0.0
 71
     0
 72
   500
 73
     1
 74
     1
 75
     0
 76
     0
 77
     0
 78
     0
  0
VPORT
  5
1D691833BD
330
1D69183389
100
AcDbSymbolTableRecord
100
AcDbViewportTableRecord
  2
2
 70
     0
 10
0.0
 20
0.0
 11
0.5
 21
1.0
 12
0.9240309999999999
 22
1.052651
 13
0.0
 23
0.0
 14
1.0
 24
1.0
 15
10.0
 25
10.0
 16
0.0
 26
0.0
 36
1.0
 17
0.0
 27
0.0
 37
0.0
 40
2.105302
 41
0.877814
 42
50.0
 43
0.0
 44
0.0
 50
0.0
 51
0.0
 71
     0
 72
   500
 73
     1
 74
     1
 75
     0
 76
     0
 77
     0
 78
     0
  0
VPORT
  5
1D691833BE
330
1D69183389
100
AcDbSymbolTableRecord
100
AcDbViewportTableRecord
  2
3
 70
     0
 10
0.0
 20
0.5
 11
1.0
 21
1.0
 12
2.832169999999999
 22
1.052651
 13
0.0
 23
0.0
 14
1.0
 24
1.0
 15
10.0
 25
10.0
 16
0.0
 26
0.0
 36
1.0
 17
0.0
 27
0.0
 37
0.0
 40
2.105302
 41
3.571429
 42
50.0
 43
0.0
 44
0.0
 50
0.0
 51
0.0
 71
     0
 72
   500
 73
     1
 74
     1
 75
     0
 76
     0
 77
     0
 78
     0
  0
VPORT
  5
1D691833BF
330
1D69183389
100
AcDbSymbolTableRecord
100
AcDbViewportTableRecord
  2
3
 70
     0
 10
0.0
 20
0.0
 11
1.0
 21
0.5
 12
2.856741999999999
 22
1.052651
 13
0.0
 23
0.0
 14
1.0
 24
1.0
 15
10.0
 25
10.0
 16
0.0
 26
0.0
 36
1.0
 17
0.0
 27
0.0
 37
0.0
 40
2.105302
 41
3.594770999999999
 42
50.0
 43
0.0
 44
0.0
 50
0.0
 51
0.0
 71
     0
 72
   500
 73
     1
 74
     1
 75
     0
 76
     0
 77
     0
 78
     0
  0
VPORT
  5
1D691833C0
330
1D69183389
100
AcDbSymbolTableRecord
100
AcDbViewportTableRecord
  2
4
 70
     0
 10
0.5
 20
0.0
 11
1.0
 21
0.5
 12
2.886858
 22
1.052651
 13
0.0
 23
0.0
 14
1.0
 24
1.0
 15
10.0
 25
10.0
 16
0.0
 26
0.0
 36
1.0
 17
0.0
 27
0.0
 37
0.0
 40
4.275206999999999
 41
1.784314
 42
50.0
 43
0.0
 44
0.0
 50
0.0
 51
0.0
 71
     0
 72
   500
 73
     1
 74
     1
 75
     0
 76
     0
 77
     0
 78
     0
  0
VPORT
  5
1D691833C1
330
1D69183389
100
AcDbSymbolTableRecord
100
AcDbViewportTableRecord
  2
4
 70
     0
 10
0.5
 20
0.5
 11
1.0
 21
1.0
 12
2.86209
 22
1.052651
 13
0.0
 23
0.0
 14
1.0
 24
1.0
 15
10.0
 25
10.0
 16
0.0
 26
0.0
 36
1.0
 17
0.0
 27
0.0
 37
0.0
 40
4.275206999999999
 41
1.772726999999999
 42
50.0
 43
0.0
 44
0.0
 50
0.0
 51
0.0
 71
     0
 72
   500
 73
     1
 74
     1
 75
     0
 76
     0
 77
     0
 78
     0
  0
VPORT
  5
1D691833C2
330
1D69183389
100
AcDbSymbolTableRecord
100
AcDbViewportTableRecord
  2
4
 70
     0
 10
0.0
 20
0.5
 11
0.5
 21
1.0
 12
2.86209
 22
1.052651
 13
0.0
 23
0.0
 14
1.0
 24
1.0
 15
10.0
 25
10.0
 16
0.0
 26
0.0
 36
1.0
 17
0.0
 27
0.0
 37
0.0
 40
4.275206999999999
 41
1.772726999999999
 42
50.0
 43
0.0
 44
0.0
 50
0.0
 51
0.0
 71
     0
 72
   500
 73
     1
 74
     1
 75
     0
 76
     0
 77
     0
 78
     0
  0
VPORT
  5
1D691833C3
330
1D69183389
100
AcDbSymbolTableRecord
100
AcDbViewportTableRecord
  2
4
 70
     0
 10
0.0
 20
0.0
 11
0.5
 21
0.5
 12
2.886858
 22
1.052651
 13
0.0
 23
0.0
 14
1.0
 24
1.0
 15
10.0
 25
10.0
 16
0.0
 26
0.0
 36
1.0
 17
0.0
 27
0.0
 37
0.0
 40
4.275206999999999
 41
1.784314
 42
50.0
 43
0.0
 44
0.0
 50
0.0
 51
0.0
 71
     0
 72
   500
 73
     1
 74
     1
 75
     0
 76
     0
 77
     0
 78
     0
  0
VPORT
  5
1D69184CB3
330
1D69183389
100
AcDbSymbolTableRecord
100
AcDbViewportTableRecord
  2
*ACTIVE
 70
     0
 10
0.0
 20
0.0
 11
1.0
 21
1.0
 12
259.9527942162568
 22
136.501644172671
 13
0.0
 23
0.0
 14
1.0
 24
1.0
 15
10.0
 25
10.0
 16
0.0
 26
0.0
 36
1.0
 17
0.0
 27
0.0
 37
0.0
 40
276.1477566686179
 41
1.771962616822429
 42
50.0
 43
0.0
 44
0.0
 50
0.0
 51
0.0
 71
     0
 72
   500
 73
     1
 74
     0
 75
     0
 76
     0
 77
     0
 78
     0
  0
ENDTAB
  0
TABLE
  2
LTYPE
  5
1D69183386
330
0
100
AcDbSymbolTable
 70
     2
  0
LTYPE
  5
1D69183393
330
1D69183386
100
AcDbSymbolTableRecord
100
AcDbLinetypeTableRecord
  2
BYBLOCK
 70
     0
  3

 72
    65
 73
     0
 40
0.0
  0
LTYPE
  5
1D69183394
330
1D69183386
100
AcDbSymbolTableRecord
100
AcDbLinetypeTableRecord
  2
BYLAYER
 70
     0
  3

 72
    65
 73
     0
 40
0.0
  0
LTYPE
  5
1D69183395
330
1D69183386
100
AcDbSymbolTableRecord
100
AcDbLinetypeTableRecord
  2
CONTINUOUS
 70
     0
  3
実線
 72
    65
 73
     0
 40
0.0
  0
LTYPE
  5
1D691833BA
330
1D69183386
100
AcDbSymbolTableRecord
100
AcDbLinetypeTableRecord
  2
PHANTOM
 70
     0
  3
_____ _ _ _____ _ _ _____ _ _ _____ _ _ ____
 72
    65
 73
     6
 40
2.5
 49
1.25
 74
     0
 49
-0.25
 74
     0
 49
0.25
 74
     0
 49
-0.25
 74
     0
 49
0.25
 74
     0
 49
-0.25
 74
     0
  0
ENDTAB
  0
TABLE
  2
LAYER
  5
1D69183383
330
0
100
AcDbSymbolTable
 70
     7
  0
LAYER
  5
1D69183390
330
1D69183383
100
AcDbSymbolTableRecord
100
AcDbLayerTableRecord
  2
0
 70
     0
 62
     7
  6
CONTINUOUS
  0
LAYER
  5
1D691833C9
330
1D69183383
100
AcDbSymbolTableRecord
100
AcDbLayerTableRecord
  2
NITEN
 70
     0
 62
     2
  6
PHANTOM
  0
LAYER
  5
1D691833CB
330
1D69183383
100
AcDbSymbolTableRecord
100
AcDbLayerTableRecord
  2
SUNPOU
 70
     0
 62
     3
  6
CONTINUOUS
  0
LAYER
  5
1D691833CC
330
1D69183383
100
AcDbSymbolTableRecord
100
AcDbLayerTableRecord
  2
TEXT
 70
     0
 62
     3
  6
CONTINUOUS
  0
LAYER
  5
1D691833CD
330
1D69183383
100
AcDbSymbolTableRecord
100
AcDbLayerTableRecord
  2
SAISEN
 70
     0
 62
     4
  6
CONTINUOUS
  0
LAYER
  5
1D691833CE
330
1D69183383
100
AcDbSymbolTableRecord
100
AcDbLayerTableRecord
  2
JISSEN
 70
     0
 62
     7
  6
CONTINUOUS
  0
LAYER
  5
1D691833D2
330
1D69183383
100
AcDbSymbolTableRecord
100
AcDbLayerTableRecord
  2
WAKU
 70
     0
 62
     5
  6
CONTINUOUS
  0
ENDTAB
  0
TABLE
  2
STYLE
  5
1D69183384
330
0
100
AcDbSymbolTable
 70
     3
  0
STYLE
  5
1D69183391
330
1D69183384
100
AcDbSymbolTableRecord
100
AcDbTextStyleTableRecord
  2
STANDARD
 70
     0
 40
0.0
 41
1.0
 50
0.0
 71
     0
 42
0.2
  3
ROMANS
  4
EXTFONT
  0
STYLE
  5
1D691833B3
330
1D69183384
100
AcDbSymbolTableRecord
100
AcDbTextStyleTableRecord
  2
K
 70
     0
 40
0.0
 41
1.0
 50
0.0
 71
     0
 42
1.5
  3
ROMANS.shx
  4
bigfont.shx
  0
STYLE
  5
1D691833B5
330
1D69183384
100
AcDbSymbolTableRecord
100
AcDbTextStyleTableRecord
  2
BIGFONT
 70
     0
 40
0.0
 41
1.0
 50
0.0
 71
     0
 42
1.5
  3
txt.shx
  4
bigfont
  0
ENDTAB
  0
TABLE
  2
VIEW
  5
1D69183387
330
0
100
AcDbSymbolTable
 70
     0
  0
ENDTAB
  0
TABLE
  2
UCS
  5
1D69183388
330
0
100
AcDbSymbolTable
 70
     0
  0
ENDTAB
  0
TABLE
  2
APPID
  5
1D6918338A
330
0
100
AcDbSymbolTable
 70
     1
  0
APPID
  5
1D69183392
330
1D6918338A
100
AcDbSymbolTableRecord
100
AcDbRegAppTableRecord
  2
ACAD
 70
     0
  0
ENDTAB
  0
TABLE
  2
DIMSTYLE
  5
1D6918338B
330
0
100
AcDbSymbolTable
 70
     1
  0
DIMSTYLE
105
1D691833C6
330
1D6918338B
100
AcDbSymbolTableRecord
100
AcDbDimStyleTableRecord
  2
IMAO
 70
     0
  3

  4

  5
ARROWANG
  6
ARROWANG
  7
ARROWANG
 40
1.0
 41
1.5
 42
1.0
 43
6.0
 44
1.0
 45
0.0
 46
0.0
 47
495.0
 48
0.0
140
3.0
141
0.0
142
0.0
143
25.4
144
1.0
145
0.0
146
1.0
147
0.09
 71
     0
 72
     0
 73
     0
 74
     0
 75
     0
 76
     0
 77
     1
 78
     8
170
     0
171
     2
172
     1
173
     0
174
     1
175
     0
176
     0
177
     0
178
     0
270
     2
271
     2
272
     2
273
     2
274
     2
340
1D691833B5
275
     0
280
     0
281
     0
282
     0
283
     1
284
     8
285
     8
286
     8
287
     5
288
     0
  0
ENDTAB
  0
TABLE
  2
BLOCK_RECORD
  5
1D69183382
330
0
100
AcDbSymbolTable
 70
     2
  0
BLOCK_RECORD
  5
1D69183399
102
{ACAD_XDICTIONARY
360
1D69183A5C
102
}
330
1D69183382
100
AcDbSymbolTableRecord
100
AcDbBlockTableRecord
  2
*MODEL_SPACE
  0
BLOCK_RECORD
  5
1D69183396
102
{ACAD_XDICTIONARY
360
1D69183A5A
102
}
330
1D69183382
100
AcDbSymbolTableRecord
100
AcDbBlockTableRecord
  2
*PAPER_SPACE
  0
BLOCK_RECORD
  5
1D691833A3
330
1D69183382
100
AcDbSymbolTableRecord
100
AcDbBlockTableRecord
  2
ARROWANG
  0
BLOCK_RECORD
  5
1D691842D1
330
1D69183382
100
AcDbSymbolTableRecord
100
AcDbBlockTableRecord
  2
ARROW
  0
ENDTAB
  0
ENDSEC
  0
SECTION
  2
BLOCKS
  0
BLOCK
  5
1D691833D6
330
1D69183399
100
AcDbEntity
  8
0
100
AcDbBlockBegin
  2
*MODEL_SPACE
 70
     0
 10
0.0
 20
0.0
 30
0.0
  3
*MODEL_SPACE
  1

  0
ENDBLK
  5
1D691833D7
330
1D69183399
100
AcDbEntity
  8
0
100
AcDbBlockEnd
  0
BLOCK
  5
1D691833D4
330
1D69183396
100
AcDbEntity
 67
     1
  8
0
100
AcDbBlockBegin
  2
*PAPER_SPACE
 70
     0
 10
0.0
 20
0.0
 30
0.0
  3
*PAPER_SPACE
  1

  0
ENDBLK
  5
1D691833D5
330
1D69183396
100
AcDbEntity
 67
     1
  8
0
100
AcDbBlockEnd
  0
BLOCK
  5
1D
330
1D691833A3
100
AcDbEntity
  8
0
100
AcDbBlockBegin
  2
ARROWANG
 70
     0
 10
0.0
 20
0.0
 30
0.0
  3
ARROWANG
  1

  0
LINE
  5
1E
330
1D691833A3
100
AcDbEntity
  8
SUNPOU
100
AcDbLine
 10
0.0
 20
0.0
 30
0.0
 11
-1.5
 21
0.401924
 31
0.0
  0
LINE
  5
1F
330
1D691833A3
100
AcDbEntity
  8
SUNPOU
100
AcDbLine
 10
0.0
 20
0.0
 30
0.0
 11
-1.5
 21
-0.401924
 31
0.0
  0
ENDBLK
  5
20
330
1D691833A3
100
AcDbEntity
  8
0
100
AcDbBlockEnd
  0
BLOCK
  5
1D691842D5
330
1D691842D1
100
AcDbEntity
  8
0
100
AcDbBlockBegin
  2
ARROW
 70
     0
 10
1.0
 20
0.5
 30
0.0
  3
ARROW
  1

  0
LINE
  5
1D691842D2
330
1D691842D1
100
AcDbEntity
  8
0
100
AcDbLine
 10
1.0
 20
0.5
 30
0.0
 11
-0.5
 21
0.098076
 31
0.0
  0
LINE
  5
1D691842D3
330
1D691842D1
100
AcDbEntity
  8
0
100
AcDbLine
 10
0.0
 20
0.5
 30
0.0
 11
1.0
 21
0.5
 31
0.0
  0
LINE
  5
1D691842D4
330
1D691842D1
100
AcDbEntity
  8
0
100
AcDbLine
 10
1.0
 20
0.5
 30
0.0
 11
-0.5
 21
0.9019239999999999
 31
0.0
  0
ENDBLK
  5
1D691842D6
330
1D691842D1
100
AcDbEntity
  8
0
100
AcDbBlockEnd
  0
ENDSEC
  0
SECTION
  2
ENTITIES
  0
TEXT
  5
9255532
330
1D69183399
100
AcDbEntity
  8
TEXT
100
AcDbText
 10
135.2142847142857
 20
262.5
 30
0.0
 40
3.0
  1
C2801
  7
K
 72
     4
 11
141.9999989999999
 21
264.0
 31
0.0
100
AcDbText
  0
TEXT
  5
9255533
330
1D69183399
100
AcDbEntity
  8
TEXT
100
AcDbText
 10
156.7857132857142
 20
262.5
 30
0.0
 40
3.0
  1
1
  7
K
 72
     4
 11
157.999999
 21
264.0
 31
0.0
100
AcDbText
  0
LINE
  5
9255535
330
1D69183399
100
AcDbEntity
  8
JISSEN
100
AcDbLine
 10
91.499999
 20
267.0
 30
0.0
 11
180.999999
 21
267.0
 31
0.0
  0
LINE
  5
9255536
330
1D69183399
100
AcDbEntity
  8
JISSEN
100
AcDbLine
 10
91.499999
 20
261.0
 30
0.0
 11
180.999999
 21
261.0
 31
0.0
  0
TEXT
  5
9255537
330
1D69183399
100
AcDbEntity
  8
TEXT
100
AcDbText
 10
107.899999
 20
268.5
 30
0.0
 40
3.0
  1
名      称
  7
K
 72
     4
 11
116.499999
 21
270.0
 31
0.0
100
AcDbText
  0
TEXT
  5
9255538
330
1D69183399
100
AcDbEntity
  8
TEXT
100
AcDbText
 10
93.299999
 20
268.5
 30
0.0
 40
3.0
  1
番号
  7
K
 72
     4
 11
96.499999
 21
270.0
 31
0.0
100
AcDbText
  0
LINE
  5
9255539
330
1D69183399
100
AcDbEntity
  8
JISSEN
100
AcDbLine
 10
91.499999
 20
261.0
 30
0.0
 11
91.499999
 21
273.0
 31
0.0
  0
LINE
  5
925553A
330
1D69183399
100
AcDbEntity
  8
JISSEN
100
AcDbLine
 10
101.4999989999999
 20
273.0
 30
0.0
 11
101.4999989999999
 21
261.0
 31
0.0
  0
TEXT
  5
925553B
330
1D69183399
100
AcDbEntity
  8
TEXT
100
AcDbText
 10
135.1999989999999
 20
268.5
 30
0.0
 40
3.0
  1
材    質
  7
K
 72
     4
 11
141.9999989999999
 21
270.0
 31
0.0
100
AcDbText
  0
LINE
  5
925553C
330
1D69183399
100
AcDbEntity
  8
JISSEN
100
AcDbLine
 10
131.499999
 20
273.0
 30
0.0
 11
131.499999
 21
261.0
 31
0.0
  0
LINE
  5
925553D
330
1D69183399
100
AcDbEntity
  8
JISSEN
100
AcDbLine
 10
152.4999989999999
 20
261.0
 30
0.0
 11
152.4999989999999
 21
273.0
 31
0.0
  0
TEXT
  5
925553E
330
1D69183399
100
AcDbEntity
  8
TEXT
100
AcDbText
 10
165.6999989999999
 20
268.5
 30
0.0
 40
3.0
  1
備    考
  7
K
 72
     4
 11
172.499999
 21
270.0
 31
0.0
100
AcDbText
  0
TEXT
  5
925553F
330
1D69183399
100
AcDbEntity
  8
TEXT
100
AcDbText
 10
154.799999
 20
268.5
 30
0.0
 40
3.0
  1
個数
  7
K
 72
     4
 11
157.999999
 21
270.0
 31
0.0
100
AcDbText
  0
LINE
  5
9255540
330
1D69183399
100
AcDbEntity
  8
JISSEN
100
AcDbLine
 10
163.499999
 20
273.0
 30
0.0
 11
163.499999
 21
261.0
 31
0.0
  0
LWPOLYLINE
  5
1D691837CF
330
1D69183399
100
AcDbEntity
  8
WAKU
100
AcDbPolyline
 90
        4
 70
     1
 43
0.0
 10
0.0
 20
0.0
 10
180.999999
 20
0.0
 10
180.999999
 20
273.0
 10
0.0
 20
273.0
  0
LWPOLYLINE
  5
1D69183952
330
1D69183399
100
AcDbEntity
  8
WAKU
100
AcDbPolyline
 90
        4
 70
     1
 43
0.0
 10
180.999999
 20
0.0
 10
361.999998
 20
0.0
 10
361.999998
 20
273.0
 10
180.999999
 20
273.0
  0
TEXT
  5
1D69183A33
330
1D69183399
100
AcDbEntity
  8
SUNPOU
100
AcDbText
 10
126.7153145101101
 20
7.849423943005376
 30
0.0
 40
3.0
  1
シーリングプレートS (9mm)
  7
K
100
AcDbText
  0
TEXT
  5
1D69183A34
330
1D69183399
100
AcDbEntity
  8
SUNPOU
100
AcDbText
 10
126.7153145101101
 20
2.849423943005376
 30
0.0
 40
3.0
  1
尺度　1/1
  7
K
100
AcDbText
  0
TEXT
  5
1D69183A35
330
1D69183399
100
AcDbEntity
  8
TEXT
100
AcDbText
 10
102.6142847142857
 20
262.5
 30
0.0
 40
3.0
  1
シーリングプレート S
 41
0.75
  7
K
 72
     4
 11
116.499999
 21
264.0
 31
0.0
100
AcDbText
  0
CIRCLE
  5
1D69184331
330
1D69183399
100
AcDbEntity
  8
JISSEN
100
AcDbCircle
 10
89.49999899999999
 20
100.560201
 30
0.0
 40
10.74999999999999
  0
CIRCLE
  5
1D69184332
330
1D69183399
100
AcDbEntity
  8
JISSEN
100
AcDbCircle
 10
89.49999899999999
 20
100.560201
 30
0.0
 40
30.0
  0
LINE
  5
1D69184605
330
1D69183399
100
AcDbEntity
  8
JISSEN
100
AcDbLine
 10
272.4999972759998
 20
266.9999999999999
 30
0.0
 11
361.9999972759999
 21
266.9999999999999
 31
0.0
  0
LINE
  5
1D69184606
330
1D69183399
100
AcDbEntity
  8
JISSEN
100
AcDbLine
 10
272.4999972759998
 20
260.9999999999999
 30
0.0
 11
361.9999972759999
 21
260.9999999999999
 31
0.0
  0
LINE
  5
1D69184607
330
1D69183399
100
AcDbEntity
  8
JISSEN
100
AcDbLine
 10
272.4999972759998
 20
254.9999999256194
 30
0.0
 11
361.9999972759999
 21
254.9999999256194
 31
0.0
  0
LINE
  5
1D69184608
330
1D69183399
100
AcDbEntity
  8
SUNPOU
100
AcDbLine
 10
296.0114606254303
 20
172.1905568042311
 30
0.0
 11
316.3844757915692
 21
111.1273328659496
 31
0.0
  0
ARC
  5
1D69184609
330
1D69183399
100
AcDbEntity
  8
JISSEN
100
AcDbCircle
 10
280.9060302670195
 20
152.5007540037038
 30
0.0
 40
28.0
100
AcDbArc
 50
180.0
 51
202.0243128370418
  0
ARC
  5
1D6918460A
330
1D69183399
100
AcDbEntity
  8
JISSEN
100
AcDbCircle
 10
280.9060302670195
 20
152.5007540037038
 30
0.0
 40
26.0
100
AcDbArc
 50
180.0
 51
203.8188413934558
  0
ARC
  5
1D6918460B
330
1D69183399
100
AcDbEntity
  8
JISSEN
100
AcDbCircle
 10
264.9060302670195
 20
152.5007540037038
 30
0.0
 40
28.0
100
AcDbArc
 50
337.975687162958
 51
0.0
  0
ARC
  5
1D6918460C
330
1D69183399
100
AcDbEntity
  8
JISSEN
100
AcDbCircle
 10
264.9060302670195
 20
152.5007540037038
 30
0.0
 40
26.0
100
AcDbArc
 50
336.181158606544
 51
0.0
  0
ARC
  5
1D6918460D
330
1D69183399
100
AcDbEntity
  8
JISSEN
100
AcDbCircle
 10
264.9060302670195
 20
152.5007540037038
 30
0.0
 40
24.0
100
AcDbArc
 50
302.1818839204042
 51
0.0
  0
ARC
  5
1D6918460E
330
1D69183399
100
AcDbEntity
  8
JISSEN
100
AcDbCircle
 10
264.9060302670195
 20
152.5007540037038
 30
0.0
 40
30.0
100
AcDbArc
 50
319.7809012554434
 51
0.0
  0
ARC
  5
1D6918460F
330
1D69183399
100
AcDbEntity
  8
JISSEN
100
AcDbCircle
 10
280.9060302670195
 20
152.5007540037038
 30
0.0
 40
30.0
100
AcDbArc
 50
180.0
 51
220.2190987445565
  0
ARC
  5
1D69184610
330
1D69183399
100
AcDbEntity
  8
JISSEN
100
AcDbCircle
 10
280.9060302670195
 20
152.5007540037038
 30
0.0
 40
24.0
100
AcDbArc
 50
180.0
 51
237.8181160795957
  0
ARC
  5
1D69184611
330
1D69183399
100
AcDbEntity
  8
JISSEN
100
AcDbCircle
 10
266.9471930071888
 20
144.8383405388707
 30
0.0
 40
13.5
100
AcDbArc
 50
317.7945535962691
 51
0.0
  0
ARC
  5
1D69184612
330
1D69183399
100
AcDbEntity
  8
JISSEN
100
AcDbCircle
 10
278.9471930071888
 20
144.8383405388707
 30
0.0
 40
13.5
100
AcDbArc
 50
180.0
 51
222.2054464037312
  0
LINE
  5
1D69184613
330
1D69183399
100
AcDbEntity
  8
JISSEN
100
AcDbLine
 10
271.4065545518717
 20
152.816023699905
 30
0.0
 11
270.4471930071889
 21
139.3849620743442
 31
0.0
  0
LINE
  5
1D69184614
330
1D69183399
100
AcDbEntity
  8
JISSEN
100
AcDbLine
 10
275.4471930071888
 20
139.3849620743442
 30
0.0
 11
274.487831462506
 21
152.816023699905
 31
0.0
  0
LINE
  5
1D69184615
330
1D69183399
100
AcDbEntity
  8
JISSEN
100
AcDbLine
 10
270.3221930071888
 20
144.5883405388707
 30
0.0
 11
270.3221930071888
 21
140.0883405388707
 31
0.0
  0
LINE
  5
1D69184616
330
1D69183399
100
AcDbEntity
  8
JISSEN
100
AcDbLine
 10
275.5721930071888
 20
144.5883405388707
 30
0.0
 11
275.5721930071888
 21
140.0883405388707
 31
0.0
  0
TEXT
  5
1D69184629
330
1D69183399
100
AcDbEntity
  8
SUNPOU
100
AcDbText
 10
268.0915259067627
 20
2.849423898685245
 30
0.0
 40
3.0
  1
尺度　1/1
  7
K
100
AcDbText
  0
TEXT
  5
1D6918462A
330
1D69183399
100
AcDbEntity
  8
SUNPOU
100
AcDbText
 10
268.0915259067627
 20
7.849423898685245
 30
0.0
 40
3.0
  1
シーリングプレートS(9mm) 取付状態（ヘッドはDP）
  7
K
100
AcDbText
  0
LINE
  5
1D691846ED
330
1D69183399
100
AcDbEntity
  8
SUNPOU
100
AcDbLine
 10
272.9060302670193
 20
118.7007539293233
 30
0.0
 11
288.2549649112653
 21
108.7091016775145
 31
0.0
  0
LINE
  5
1D691846EE
330
1D69183399
100
AcDbEntity
  8
JISSEN
100
AcDbLine
 10
282.4265973175713
 20
118.7007540037038
 30
0.0
 11
272.9060302670195
 21
118.7007540037038
 31
0.0
  0
LINE
  5
1D691846EF
330
1D69183399
100
AcDbEntity
  8
JISSEN
100
AcDbLine
 10
253.9060302670195
 20
119.8635266541729
 30
0.0
 11
291.9060302670195
 21
119.8635266541731
 31
0.0
  0
LINE
  5
1D691846F0
330
1D69183399
100
AcDbEntity
  8
JISSEN
100
AcDbLine
 10
291.7323820893525
 20
118.8787189011607
 30
0.0
 11
254.0796784446864
 21
118.8787189011607
 31
0.0
  0
LINE
  5
1D691846F1
330
1D69183399
100
AcDbEntity
  8
JISSEN
100
AcDbLine
 10
277.1609531765014
 20
119.863526654173
 30
0.0
 11
276.8006580210626
 21
121.1368917372371
 31
0.0
  0
LINE
  5
1D691846F2
330
1D69183399
100
AcDbEntity
  8
JISSEN
100
AcDbLine
 10
276.3195459713135
 20
121.5007624031976
 30
0.0
 11
280.2242894746142
 21
121.5007624031977
 31
0.0
  0
ARC
  5
1D691846F3
330
1D69183399
100
AcDbEntity
  8
JISSEN
100
AcDbCircle
 10
277.1560302670195
 20
133.0344369406331
 30
0.0
 40
1.0
100
AcDbArc
 50
234.4366714240503
 51
302.1818839204042
  0
LINE
  5
1D691846F4
330
1D69183399
100
AcDbEntity
  8
JISSEN
100
AcDbLine
 10
276.637862124442
 20
137.1124841385515
 30
0.0
 11
278.0179266270374
 21
137.1124841385515
 31
0.0
  0
LINE
  5
1D691846F5
330
1D69183399
100
AcDbEntity
  8
JISSEN
100
AcDbLine
 10
260.691198035043
 20
119.8635266541729
 30
0.0
 11
262.4848382092539
 21
121.5007624031977
 31
0.0
  0
ARC
  5
1D691846F6
330
1D69183399
100
AcDbEntity
  8
JISSEN
100
AcDbCircle
 10
261.9400221798303
 20
120.1452624031976
 30
0.0
 40
1.355499999999999
100
AcDbArc
 50
70.26879749382185
 51
124.999999999997
  0
LINE
  5
1D691846F7
330
1D69183399
100
AcDbEntity
  8
JISSEN
100
AcDbLine
 10
264.4551367059037
 20
119.863526654173
 30
0.0
 11
265.5877710594249
 21
121.5007624031977
 31
0.0
  0
ARC
  5
1D691846F8
330
1D69183399
100
AcDbEntity
  8
JISSEN
100
AcDbCircle
 10
264.739242922001
 20
120.5007624031972
 30
0.0
 40
1.0
100
AcDbArc
 50
47.91894748809164
 51
146.349034175398
  0
ARC
  5
1D691846F9
330
1D69183399
100
AcDbEntity
  8
JISSEN
100
AcDbCircle
 10
269.4925145627255
 20
121.0007624031967
 30
0.0
 40
0.5
100
AcDbArc
 50
13.29012998990337
 51
164.2012849264967
  0
LINE
  5
1D691846FA
330
1D69183399
100
AcDbEntity
  8
JISSEN
100
AcDbLine
 10
270.4834854817872
 20
119.863526654173
 30
0.0
 11
270.6516255542724
 21
121.5007624031977
 31
0.0
  0
LINE
  5
1D691846FB
330
1D69183399
100
AcDbEntity
  8
JISSEN
100
AcDbLine
 10
275.1604349797667
 20
121.5007624031977
 30
0.0
 11
275.3285750522521
 21
119.863526654173
 31
0.0
  0
ARC
  5
1D691846FC
330
1D69183399
100
AcDbEntity
  8
JISSEN
100
AcDbCircle
 10
276.3195459713135
 20
121.0007624031967
 30
0.0
 40
0.5
100
AcDbArc
 50
15.79871507350328
 51
166.7098700100966
  0
LINE
  5
1D691846FD
330
1D69183399
100
AcDbEntity
  8
JISSEN
100
AcDbLine
 10
255.8185416034936
 20
120.2007540037038
 30
0.0
 11
259.6560302670195
 21
120.2007540037038
 31
0.0
  0
LINE
  5
1D691846FE
330
1D69183399
100
AcDbEntity
  8
JISSEN
100
AcDbLine
 10
254.9060302670191
 20
120.0398536348811
 30
0.0
 11
255.8185416034934
 21
120.2007540037038
 31
0.0
  0
LINE
  5
1D691846FF
330
1D69183399
100
AcDbEntity
  8
JISSEN
100
AcDbLine
 10
254.0796784446865
 20
118.8787189011604
 30
0.0
 11
253.9060302670195
 21
119.8635266541729
 31
0.0
  0
LINE
  5
1D69184700
330
1D69183399
100
AcDbEntity
  8
JISSEN
100
AcDbLine
 10
253.9060302670195
 20
119.8635266541729
 30
0.0
 11
254.9060302670191
 21
120.0398536348811
 31
0.0
  0
LINE
  5
1D69184701
330
1D69183399
100
AcDbEntity
  8
JISSEN
100
AcDbLine
 10
259.6560302670195
 20
120.2007540037038
 30
0.0
 11
261.1625393203564
 21
121.2556229992314
 31
0.0
  0
LINE
  5
1D69184702
330
1D69183399
100
AcDbEntity
  8
JISSEN
100
AcDbLine
 10
263.3854632164677
 20
118.7007540037038
 30
0.0
 11
272.9060302670195
 21
118.7007540037038
 31
0.0
  0
LINE
  5
1D69184703
330
1D69183399
100
AcDbEntity
  8
JISSEN
100
AcDbLine
 10
270.2748981080133
 20
119.863526654173
 30
0.0
 11
269.9791238065581
 21
121.1157034481575
 31
0.0
  0
LINE
  5
1D69184704
330
1D69183399
100
AcDbEntity
  8
JISSEN
100
AcDbLine
 10
263.1137428202755
 20
119.863526654173
 30
0.0
 11
263.9068142644005
 21
121.0548946347136
 31
0.0
  0
LINE
  5
1D69184705
330
1D69183399
100
AcDbEntity
  8
JISSEN
100
AcDbLine
 10
263.3854632164677
 20
118.7007540037038
 30
0.0
 11
263.2608508537318
 21
118.8787189011607
 31
0.0
  0
LINE
  5
1D69184706
330
1D69183399
100
AcDbEntity
  8
JISSEN
100
AcDbLine
 10
269.4925145627255
 20
119.863526654173
 30
0.0
 11
269.5959802763038
 21
120.2291980349174
 31
0.0
  0
LINE
  5
1D69184707
330
1D69183399
100
AcDbEntity
  8
JISSEN
100
AcDbLine
 10
269.8748981080132
 20
119.863526654173
 30
0.0
 11
269.7895245350202
 21
120.2249603771015
 31
0.0
  0
ARC
  5
1D69184708
330
1D69183399
100
AcDbEntity
  8
JISSEN
100
AcDbCircle
 10
269.6922026862537
 20
120.2019721681093
 30
0.0
 40
0.1
100
AcDbArc
 50
13.29012998990868
 51
164.2012849264931
  0
LINE
  5
1D69184709
330
1D69183399
100
AcDbEntity
  8
JISSEN
100
AcDbLine
 10
268.6511073575377
 20
119.863526654173
 30
0.0
 11
269.0114025129765
 21
121.1368917372371
 31
0.0
  0
INSERT
  5
1D6918470A
330
1D69183399
100
AcDbEntity
  8
SUNPOU
100
AcDbBlockReference
  2
ARROW
 10
272.9060302670196
 20
118.7007539293231
 30
0.0
 41
-1.499999999999984
 42
1.5
 43
1.5
 50
326.937194541139
  0
LINE
  5
1D6918470B
330
1D69183399
100
AcDbEntity
  8
JISSEN
100
AcDbLine
 10
275.5371624260258
 20
119.863526654173
 30
0.0
 11
275.8329367274809
 21
121.1157034481575
 31
0.0
  0
LINE
  5
1D6918470C
330
1D69183399
100
AcDbEntity
  8
JISSEN
100
AcDbLine
 10
275.9371624260259
 20
119.863526654173
 30
0.0
 11
276.0225359990189
 21
120.2249603771015
 31
0.0
  0
LINE
  5
1D6918470D
330
1D69183399
100
AcDbEntity
  8
JISSEN
100
AcDbLine
 10
276.3195459713135
 20
119.863526654173
 30
0.0
 11
276.2160802577352
 21
120.2291980349174
 31
0.0
  0
ARC
  5
1D6918470E
330
1D69183399
100
AcDbEntity
  8
JISSEN
100
AcDbCircle
 10
276.1198578477853
 20
120.2019721681093
 30
0.0
 40
0.1
100
AcDbArc
 50
15.79871507350683
 51
166.7098700100913
  0
LINE
  5
1D6918470F
330
1D69183399
100
AcDbEntity
  8
JISSEN
100
AcDbLine
 10
257.9986053089137
 20
133.1293864270782
 30
0.0
 11
267.8322007823874
 21
121.5007624031977
 31
0.0
  0
LINE
  5
1D69184710
330
1D69183399
100
AcDbEntity
  8
JISSEN
100
AcDbLine
 10
262.4848382092539
 20
121.5007624031977
 30
0.0
 11
264.739242922001
 21
121.5007624031977
 31
0.0
  0
ARC
  5
1D69184711
330
1D69183399
100
AcDbEntity
  8
JISSEN
100
AcDbCircle
 10
270.1100363578055
 20
131.0007540037039
 30
0.0
 40
1.5
100
AcDbArc
 50
90.0
 51
125.5633285759495
  0
ARC
  5
1D69184712
330
1D69183399
100
AcDbEntity
  8
JISSEN
100
AcDbCircle
 10
275.7020241762336
 20
131.0007540037039
 30
0.0
 40
1.5
100
AcDbArc
 50
54.43667142405045
 51
90.0
  0
ARC
  5
1D69184713
330
1D69183399
100
AcDbEntity
  8
JISSEN
100
AcDbCircle
 10
256.1560302670195
 20
126.5007540037038
 30
0.0
 40
12.49999999999999
100
AcDbArc
 50
343.7397952916872
 51
16.26020470831272
  0
LINE
  5
1D69184714
330
1D69183399
100
AcDbEntity
  8
JISSEN
100
AcDbLine
 10
269.4925145627255
 20
121.5007624031977
 30
0.0
 11
265.5877710594249
 21
121.5007624031977
 31
0.0
  0
ARC
  5
1D69184715
330
1D69183399
100
AcDbEntity
  8
JISSEN
100
AcDbCircle
 10
266.9060302670195
 20
121.0473190215647
 30
0.0
 40
1.0
100
AcDbArc
 50
26.96482331252925
 51
40.21909874455654
  0
ARC
  5
1D69184716
330
1D69183399
100
AcDbEntity
  8
JISSEN
100
AcDbCircle
 10
268.6560302670195
 20
133.0344369406331
 30
0.0
 40
1.0
100
AcDbArc
 50
237.8181160795957
 51
305.5633285759496
  0
LINE
  5
1D69184717
330
1D69183399
100
AcDbEntity
  8
JISSEN
100
AcDbLine
 10
270.6516255542724
 20
121.5007624031977
 30
0.0
 11
275.1604349797667
 21
121.5007624031977
 31
0.0
  0
ARC
  5
1D69184718
330
1D69183399
100
AcDbEntity
  8
JISSEN
100
AcDbCircle
 10
268.9471930071889
 20
139.3849620743442
 30
0.0
 40
1.5
100
AcDbArc
 50
284.2500326978035
 51
0.0
  0
LINE
  5
1D69184719
330
1D69183399
100
AcDbEntity
  8
JISSEN
100
AcDbLine
 10
276.9471930071889
 20
133.6098931419531
 30
0.0
 11
268.9471930071889
 21
133.6098931419531
 31
0.0
  0
LINE
  5
1D6918471A
330
1D69183399
100
AcDbEntity
  8
JISSEN
100
AcDbLine
 10
268.9471930071889
 20
133.6098931419531
 30
0.0
 11
268.9471930071889
 21
135.9849620743441
 31
0.0
  0
ARC
  5
1D6918471B
330
1D69183399
100
AcDbEntity
  8
JISSEN
100
AcDbCircle
 10
268.7174284690611
 20
136.4139970815915
 30
0.0
 40
0.4866855046380603
100
AcDbArc
 50
298.1707402297525
 51
355.8150838748825
  0
LINE
  5
1D6918471C
330
1D69183399
100
AcDbEntity
  8
JISSEN
100
AcDbLine
 10
269.2028163356198
 20
136.3784808962335
 30
0.0
 11
269.3164237764197
 21
137.9311159204981
 31
0.0
  0
LINE
  5
1D6918471D
330
1D69183399
100
AcDbEntity
  8
JISSEN
100
AcDbLine
 10
267.8764593873402
 20
137.1124841385515
 30
0.0
 11
269.2565238899358
 21
137.1124841385515
 31
0.0
  0
ARC
  5
1D6918471E
330
1D69183399
100
AcDbEntity
  8
JISSEN
100
AcDbCircle
 10
276.9471930071889
 20
139.3849620743442
 30
0.0
 40
1.5
100
AcDbArc
 50
180.0
 51
255.7499673021964
  0
LINE
  5
1D6918471F
330
1D69183399
100
AcDbEntity
  8
JISSEN
100
AcDbLine
 10
275.7020241762336
 20
132.5007540037038
 30
0.0
 11
272.9060302670195
 21
132.5007540037038
 31
0.0
  0
LINE
  5
1D69184720
330
1D69183399
100
AcDbEntity
  8
JISSEN
100
AcDbLine
 10
270.1100363578055
 20
132.5007540037038
 30
0.0
 11
272.9060302670195
 21
132.5007540037038
 31
0.0
  0
LINE
  5
1D69184721
330
1D69183399
100
AcDbEntity
  8
SAISEN
100
AcDbLine
 10
270.9060302670196
 20
132.5007540037038
 30
0.0
 11
270.9060302670196
 21
132.9324082084744
 31
0.0
  0
LINE
  5
1D69184722
330
1D69183399
100
AcDbEntity
  8
JISSEN
100
AcDbLine
 10
270.474376062249
 20
132.5007540037038
 30
0.0
 11
271.5835152004983
 21
133.6098931419531
 31
0.0
  0
LINE
  5
1D69184723
330
1D69183399
100
AcDbEntity
  8
JISSEN
100
AcDbLine
 10
276.9471930071889
 20
135.9849620743441
 30
0.0
 11
276.9471930071889
 21
133.6098931419531
 31
0.0
  0
ARC
  5
1D69184724
330
1D69183399
100
AcDbEntity
  8
JISSEN
100
AcDbCircle
 10
277.1769575453167
 20
136.4139970815915
 30
0.0
 40
0.4866855046380603
100
AcDbArc
 50
184.1849161251174
 51
241.8292597702474
  0
LINE
  5
1D69184725
330
1D69183399
100
AcDbEntity
  8
JISSEN
100
AcDbLine
 10
276.5779622379581
 20
137.931115920498
 30
0.0
 11
276.6915696787579
 21
136.3784808962335
 31
0.0
  0
LINE
  5
1D69184726
330
1D69183399
100
AcDbEntity
  8
SAISEN
100
AcDbLine
 10
274.9060302670196
 20
132.5007540037038
 30
0.0
 11
274.9060302670196
 21
132.9324082084744
 31
0.0
  0
LINE
  5
1D69184727
330
1D69183399
100
AcDbEntity
  8
JISSEN
100
AcDbLine
 10
275.3376844717901
 20
132.5007540037038
 30
0.0
 11
274.2285453335409
 21
133.6098931419531
 31
0.0
  0
LINE
  5
1D69184728
330
1D69183399
100
AcDbEntity
  8
JISSEN
100
AcDbLine
 10
281.3569238281353
 20
119.863526654173
 30
0.0
 11
280.2242894746142
 21
121.5007624031976
 31
0.0
  0
ARC
  5
1D69184729
330
1D69183399
100
AcDbEntity
  8
JISSEN
100
AcDbCircle
 10
281.0728176120381
 20
120.5007624031972
 30
0.0
 40
1.0
100
AcDbArc
 50
33.65096582460195
 51
132.0810525119083
  0
ARC
  5
1D6918472A
330
1D69183399
100
AcDbEntity
  8
JISSEN
100
AcDbCircle
 10
283.8720383542088
 20
120.1452624031976
 30
0.0
 40
1.355499999999999
100
AcDbArc
 50
55.00000000000294
 51
109.7312025061712
  0
LINE
  5
1D6918472B
330
1D69183399
100
AcDbEntity
  8
JISSEN
100
AcDbLine
 10
285.120862498996
 20
119.8635266541729
 30
0.0
 11
283.3272223247852
 21
121.5007624031976
 31
0.0
  0
CIRCLE
  5
1D6918472C
330
1D69183399
100
AcDbEntity
  8
SUNPOU
100
AcDbCircle
 10
293.2834032206566
 20
105.4357535187258
 30
0.0
 40
6.0
  0
LINE
  5
1D6918472D
330
1D69183399
100
AcDbEntity
  8
JISSEN
100
AcDbLine
 10
291.9060302670195
 20
119.8635266541731
 30
0.0
 11
289.9935189305456
 21
120.2007540037041
 31
0.0
  0
LINE
  5
1D6918472E
330
1D69183399
100
AcDbEntity
  8
JISSEN
100
AcDbLine
 10
282.6983177137636
 20
119.863526654173
 30
0.0
 11
281.9052462696387
 21
121.0548946347136
 31
0.0
  0
LINE
  5
1D6918472F
330
1D69183399
100
AcDbEntity
  8
JISSEN
100
AcDbLine
 10
282.4265973175713
 20
118.7007540037038
 30
0.0
 11
282.5512096803073
 21
118.8787189011607
 31
0.0
  0
LINE
  5
1D69184730
330
1D69183399
100
AcDbEntity
  8
JISSEN
100
AcDbLine
 10
286.1560302670195
 20
120.2007540037038
 30
0.0
 11
289.993518930547
 21
120.2007540037038
 31
0.0
  0
LINE
  5
1D69184731
330
1D69183399
100
AcDbEntity
  8
JISSEN
100
AcDbLine
 10
286.1560302670195
 20
120.2007540037038
 30
0.0
 11
284.6495212136826
 21
121.2556229992314
 31
0.0
  0
TEXT
  5
1D69184732
330
1D69183399
100
AcDbEntity
  8
SUNPOU
100
AcDbText
 10
291.4619746492281
 20
103.1857535187258
 30
0.0
 40
4.5
  1
1
  7
K
 72
     4
 11
293.2834032206566
 21
105.4357535187258
 31
0.0
100
AcDbText
  0
LINE
  5
1D69184733
330
1D69183399
100
AcDbEntity
  8
JISSEN
100
AcDbLine
 10
291.7323820893525
 20
118.8787189011607
 30
0.0
 11
291.9060302670195
 21
119.8635266541731
 31
0.0
  0
LINE
  5
1D69184734
330
1D69183399
100
AcDbEntity
  8
JISSEN
100
AcDbLine
 10
287.8134552251253
 20
133.1293864270782
 30
0.0
 11
277.9798597516517
 21
121.5007624031976
 31
0.0
  0
ARC
  5
1D69184735
330
1D69183399
100
AcDbEntity
  8
JISSEN
100
AcDbCircle
 10
289.6560302670195
 20
126.5007540037038
 30
0.0
 40
12.49999999999999
100
AcDbArc
 50
163.7397952916872
 51
196.2602047083127
  0
ARC
  5
1D69184736
330
1D69183399
100
AcDbEntity
  8
JISSEN
100
AcDbCircle
 10
278.9060302670195
 20
121.0473190215647
 30
0.0
 40
1.0
100
AcDbArc
 50
139.7809012554434
 51
153.0351766874608
  0
LINE
  5
1D69184737
330
1D69183399
100
AcDbEntity
  8
JISSEN
100
AcDbLine
 10
283.3272223247852
 20
121.5007624031976
 30
0.0
 11
281.0728176120381
 21
121.5007624031976
 31
0.0
  0
CIRCLE
  5
1D69184738
330
1D69183399
100
AcDbEntity
  8
SUNPOU
100
AcDbCircle
 10
318.2834032206567
 20
105.4357535931063
 30
0.0
 40
6.0
  0
TEXT
  5
1D69184739
330
1D69183399
100
AcDbEntity
  8
SUNPOU
100
AcDbText
 10
316.1405460777996
 20
103.1857535931063
 30
0.0
 40
4.5
  1
2
  7
K
 72
     4
 11
318.2834032206567
 21
105.4357535931063
 31
0.0
100
AcDbText
  0
ARC
  5
1D6918473D
330
1D69183399
100
AcDbEntity
  8
JISSEN
100
AcDbCircle
 10
267.9060302670195
 20
152.5007540037038
 30
0.0
 40
17.0
100
AcDbArc
 50
109.7499227956426
 51
180.0
  0
HATCH
  5
1D6918473E
330
1D69183399
100
AcDbEntity
  8
JISSEN
 62
     0
100
AcDbHatch
 10
0.0
 20
0.0
 30
0.0
210
0.0
220
0.0
230
1.0
  2
ANSI31
 70
     0
 71
     0
 91
        2
 92
        7
 72
     0
 73
     1
 93
       50
 10
311.7692018690433
 20
180.594926901706
 10
311.6471634434895
 20
180.6610012999502
 10
311.4854742479981
 20
180.7246132872863
 10
311.3103524953911
 20
180.7877327850159
 10
311.1480163984869
 20
180.8523297144437
 10
311.0246841701046
 20
180.9203739968726
 10
310.9665740230635
 20
180.9938355536062
 10
310.9891204596979
 20
181.0747718044514
 10
311.0646231404037
 20
181.1655901632341
 10
311.1545980150834
 20
181.2687855422764
 10
311.2205610336512
 20
181.3868528539121
 10
311.2240281460135
 20
181.5222870104673
 10
311.1265153020786
 20
181.6775829242694
 10
310.889538451755
 20
181.8552355076464
 10
310.4746135449514
 20
182.0577396729262
 10
292.9746135449509
 20
182.0577396729263
 10
292.9746135449509
 20
177.0577396729262
 10
310.4746135449507
 20
177.0577396729264
 10
310.8696714803973
 20
177.2166672314149
 10
311.0710999489525
 20
177.3558642264994
 10
311.11796832751
 20
177.4788880322009
 10
311.0493459929642
 20
177.5892960225406
 10
310.9043023222087
 20
177.6906455715388
 10
310.7219066921395
 20
177.786494053222
 10
310.5412284796437
 20
177.8803988415956
 10
310.4013370616222
 20
177.9759173106958
 10
310.3031343584761
 20
178.1168130114535
 10
310.3575270844701
 20
178.2871495087726
 10
310.415796628914
 20
178.3964955428489
 10
310.4794885110935
 20
178.5069496533
 10
310.5299942725989
 20
178.6174960955287
 10
310.5487054550233
 20
178.7271191249433
 10
310.517013599959
 20
178.8348029969518
 10
310.4232011288694
 20
178.9398141185668
 10
310.2831139827024
 20
179.0425475032245
 10
310.1194889822768
 20
179.1436803159649
 10
309.9550629484161
 20
179.2438897218331
 10
309.8125727019356
 20
179.3438528858664
 10
309.7147550636567
 20
179.4442469731083
 10
309.6843468543987
 20
179.5457491485997
 10
309.7440848949811
 20
179.6490365773822
 10
309.9081001094405
 20
179.7544478429665
 10
310.1560998346784
 20
179.8609672027393
 10
310.4591855108119
 20
179.9672403325563
 10
310.7884585779637
 20
180.0719129082759
 10
311.1150204762412
 20
180.1736306057495
 10
311.4099726457746
 20
180.2710391008379
 10
311.6444165266755
 20
180.3627840693952
 10
311.789453559064
 20
180.4475111872777
 10
311.8253713118413
 20
180.5244201712494
 97
        0
 92
        7
 72
     0
 73
     1
 93
       50
 10
252.9746135449509
 20
182.0577396729265
 10
235.474613544951
 20
182.0577396729264
 10
235.0596886381469
 20
181.8552355076463
 10
234.8227117878232
 20
181.6775829242694
 10
234.7251989438883
 20
181.5222870104672
 10
234.7286660562507
 20
181.3868528539122
 10
234.7946290748184
 20
181.2687855422764
 10
234.8846039495008
 20
181.165590163231
 10
234.9601066302038
 20
181.0747718044514
 10
234.9826530668384
 20
180.9938355536062
 10
234.9245429197974
 20
180.9203739968728
 10
234.8012106914147
 20
180.8523297144438
 10
234.63887459451
 20
180.787732785016
 10
234.4637528419027
 20
180.7246132872858
 10
234.3020636464126
 20
180.6610012999503
 10
234.1800252208586
 20
180.594926901706
 10
234.1238557780607
 20
180.5244201712495
 10
234.1597735308379
 20
180.4475111872777
 10
234.3048105632263
 20
180.3627840693953
 10
234.5392544441283
 20
180.2710391008377
 10
234.8342066136574
 20
180.1736306057502
 10
235.160768511941
 20
180.0719129082759
 10
235.4900415790896
 20
179.9672403325564
 10
235.7931272552237
 20
179.8609672027391
 10
236.0411269804617
 20
179.7544478429665
 10
236.2051421949206
 20
179.6490365773823
 10
236.2648802355033
 20
179.5457491485996
 10
236.2344720262452
 20
179.4442469731083
 10
236.1366543879666
 20
179.3438528858667
 10
235.9941641414863
 20
179.2438897218332
 10
235.8297381076204
 20
179.143680315964
 10
235.6661131071994
 20
179.0425475032245
 10
235.5260259610326
 20
178.9398141185668
 10
235.4322134899427
 20
178.8348029969518
 10
235.4005216348785
 20
178.7271191249432
 10
235.419232817303
 20
178.6174960955285
 10
235.4697385788085
 20
178.5069496532996
 10
235.5334304609872
 20
178.3964955428503
 10
235.5917000054319
 20
178.2871495087725
 10
235.6460927314258
 20
178.1168130114535
 10
235.5478900282796
 20
177.9759173106958
 10
235.4079986102581
 20
177.8803988415956
 10
235.2273203977667
 20
177.786494053218
 10
235.0449247676932
 20
177.6906455715389
 10
234.8998810969378
 20
177.5892960225407
 10
234.8312587623919
 20
177.478888032201
 10
234.8781271409495
 20
177.3558642264994
 10
235.0795556095047
 20
177.2166672314149
 10
235.4746135449512
 20
177.0577396729264
 10
252.9746135449509
 20
177.0577396729263
 97
        0
 75
     0
 76
     1
 52
0.0
 41
20.0
 77
     0
 78
     1
 53
45.0
 43
214.615108781506
 44
-529.296717527619
 45
-1.767766952966368
 46
1.767766952966368
 79
     0
 47
0.1350417537953048
 98
        2
 10
379.5383550654296
 20
179.2419035301762
 10
323.4437634253127
 20
180.7273629303139
  0
LINE
  5
1D6918473F
330
1D69183399
100
AcDbEntity
  8
JISSEN
100
AcDbLine
 10
235.4746135449513
 20
177.0577396729264
 30
0.0
 11
262.3571825037889
 21
177.0577396729263
 31
0.0
  0
LINE
  5
1D69184740
330
1D69183399
100
AcDbEntity
  8
JISSEN
100
AcDbLine
 10
262.5134403123095
 20
182.0577396729266
 30
0.0
 11
235.4746135449511
 21
182.0577396729264
 31
0.0
  0
POLYLINE
  5
1D69184741
330
1D69183399
100
AcDbEntity
  8
JISSEN
 62
     0
100
AcDb2dPolyline
 66
     1
 10
0.0
 20
0.0
 30
0.0
 70
     4
 75
     6
  0
VERTEX
  5
1D69184742
330
1D69184741
100
AcDbEntity
  8
JISSEN
 62
     0
100
AcDbVertex
100
AcDb2dVertex
 10
235.4746135449508
 20
182.0577396729264
 30
0.0
 70
    16
  0
VERTEX
  5
1D69184743
330
1D69184741
100
AcDbEntity
  8
JISSEN
 62
     0
100
AcDbVertex
100
AcDb2dVertex
 10
235.4746135449508
 20
182.0577396729264
 30
0.0
 70
     8
  0
VERTEX
  5
1D69184744
330
1D69184741
100
AcDbEntity
  8
JISSEN
 62
     0
100
AcDbVertex
100
AcDb2dVertex
 10
235.059688638147
 20
181.8552355076463
 30
0.0
 70
     8
  0
VERTEX
  5
1D69184745
330
1D69184741
100
AcDbEntity
  8
JISSEN
 62
     0
100
AcDbVertex
100
AcDb2dVertex
 10
234.8227117878232
 20
181.6775829242693
 30
0.0
 70
     8
  0
VERTEX
  5
1D69184746
330
1D69184741
100
AcDbEntity
  8
JISSEN
 62
     0
100
AcDbVertex
100
AcDb2dVertex
 10
234.7251989438884
 20
181.5222870104672
 30
0.0
 70
     8
  0
VERTEX
  5
1D69184747
330
1D69184741
100
AcDbEntity
  8
JISSEN
 62
     0
100
AcDbVertex
100
AcDb2dVertex
 10
234.7286660562506
 20
181.3868528539121
 30
0.0
 70
     8
  0
VERTEX
  5
1D69184748
330
1D69184741
100
AcDbEntity
  8
JISSEN
 62
     0
100
AcDbVertex
100
AcDb2dVertex
 10
234.7946290748184
 20
181.2687855422765
 30
0.0
 70
     8
  0
VERTEX
  5
1D69184749
330
1D69184741
100
AcDbEntity
  8
JISSEN
 62
     0
100
AcDbVertex
100
AcDb2dVertex
 10
234.8846039494999
 20
181.1655901632321
 30
0.0
 70
     8
  0
VERTEX
  5
1D6918474A
330
1D69184741
100
AcDbEntity
  8
JISSEN
 62
     0
100
AcDbVertex
100
AcDb2dVertex
 10
234.9601066302038
 20
181.0747718044514
 30
0.0
 70
     8
  0
VERTEX
  5
1D6918474B
330
1D69184741
100
AcDbEntity
  8
JISSEN
 62
     0
100
AcDbVertex
100
AcDb2dVertex
 10
234.9826530668385
 20
180.9938355536062
 30
0.0
 70
     8
  0
VERTEX
  5
1D6918474C
330
1D69184741
100
AcDbEntity
  8
JISSEN
 62
     0
100
AcDbVertex
100
AcDb2dVertex
 10
234.9245429197974
 20
180.9203739968727
 30
0.0
 70
     8
  0
VERTEX
  5
1D6918474D
330
1D69184741
100
AcDbEntity
  8
JISSEN
 62
     0
100
AcDbVertex
100
AcDb2dVertex
 10
234.8012106914147
 20
180.8523297144438
 30
0.0
 70
     8
  0
VERTEX
  5
1D6918474E
330
1D69184741
100
AcDbEntity
  8
JISSEN
 62
     0
100
AcDbVertex
100
AcDb2dVertex
 10
234.63887459451
 20
180.787732785016
 30
0.0
 70
     8
  0
VERTEX
  5
1D6918474F
330
1D69184741
100
AcDbEntity
  8
JISSEN
 62
     0
100
AcDbVertex
100
AcDb2dVertex
 10
234.4637528419029
 20
180.7246132872858
 30
0.0
 70
     8
  0
VERTEX
  5
1D69184750
330
1D69184741
100
AcDbEntity
  8
JISSEN
 62
     0
100
AcDbVertex
100
AcDb2dVertex
 10
234.3020636464125
 20
180.6610012999503
 30
0.0
 70
     8
  0
VERTEX
  5
1D69184751
330
1D69184741
100
AcDbEntity
  8
JISSEN
 62
     0
100
AcDbVertex
100
AcDb2dVertex
 10
234.1800252208586
 20
180.594926901706
 30
0.0
 70
     8
  0
VERTEX
  5
1D69184752
330
1D69184741
100
AcDbEntity
  8
JISSEN
 62
     0
100
AcDbVertex
100
AcDb2dVertex
 10
234.1238557780607
 20
180.5244201712495
 30
0.0
 70
     8
  0
VERTEX
  5
1D69184753
330
1D69184741
100
AcDbEntity
  8
JISSEN
 62
     0
100
AcDbVertex
100
AcDb2dVertex
 10
234.1597735308378
 20
180.4475111872777
 30
0.0
 70
     8
  0
VERTEX
  5
1D69184754
330
1D69184741
100
AcDbEntity
  8
JISSEN
 62
     0
100
AcDbVertex
100
AcDb2dVertex
 10
234.3048105632262
 20
180.3627840693952
 30
0.0
 70
     8
  0
VERTEX
  5
1D69184755
330
1D69184741
100
AcDbEntity
  8
JISSEN
 62
     0
100
AcDbVertex
100
AcDb2dVertex
 10
234.5392544441274
 20
180.2710391008379
 30
0.0
 70
     8
  0
VERTEX
  5
1D69184756
330
1D69184741
100
AcDbEntity
  8
JISSEN
 62
     0
100
AcDbVertex
100
AcDb2dVertex
 10
234.8342066136597
 20
180.1736306057498
 30
0.0
 70
     8
  0
VERTEX
  5
1D69184757
330
1D69184741
100
AcDbEntity
  8
JISSEN
 62
     0
100
AcDbVertex
100
AcDb2dVertex
 10
235.160768511941
 20
180.0719129082747
 30
0.0
 70
     8
  0
VERTEX
  5
1D69184758
330
1D69184741
100
AcDbEntity
  8
JISSEN
 62
     0
100
AcDbVertex
100
AcDb2dVertex
 10
235.4900415790898
 20
179.9672403325564
 30
0.0
 70
     8
  0
VERTEX
  5
1D69184759
330
1D69184741
100
AcDbEntity
  8
JISSEN
 62
     0
100
AcDbVertex
100
AcDb2dVertex
 10
235.7931272552239
 20
179.8609672027391
 30
0.0
 70
     8
  0
VERTEX
  5
1D6918475A
330
1D69184741
100
AcDbEntity
  8
JISSEN
 62
     0
100
AcDbVertex
100
AcDb2dVertex
 10
236.0411269804615
 20
179.7544478429664
 30
0.0
 70
     8
  0
VERTEX
  5
1D6918475B
330
1D69184741
100
AcDbEntity
  8
JISSEN
 62
     0
100
AcDbVertex
100
AcDb2dVertex
 10
236.2051421949206
 20
179.6490365773822
 30
0.0
 70
     8
  0
VERTEX
  5
1D6918475C
330
1D69184741
100
AcDbEntity
  8
JISSEN
 62
     0
100
AcDbVertex
100
AcDb2dVertex
 10
236.2648802355033
 20
179.5457491485997
 30
0.0
 70
     8
  0
VERTEX
  5
1D6918475D
330
1D69184741
100
AcDbEntity
  8
JISSEN
 62
     0
100
AcDbVertex
100
AcDb2dVertex
 10
236.2344720262453
 20
179.4442469731084
 30
0.0
 70
     8
  0
VERTEX
  5
1D6918475E
330
1D69184741
100
AcDbEntity
  8
JISSEN
 62
     0
100
AcDbVertex
100
AcDb2dVertex
 10
236.1366543879664
 20
179.3438528858665
 30
0.0
 70
     8
  0
VERTEX
  5
1D6918475F
330
1D69184741
100
AcDbEntity
  8
JISSEN
 62
     0
100
AcDbVertex
100
AcDb2dVertex
 10
235.9941641414859
 20
179.243889721833
 30
0.0
 70
     8
  0
VERTEX
  5
1D69184760
330
1D69184741
100
AcDbEntity
  8
JISSEN
 62
     0
100
AcDbVertex
100
AcDb2dVertex
 10
235.8297381076238
 20
179.1436803159661
 30
0.0
 70
     8
  0
VERTEX
  5
1D69184761
330
1D69184741
100
AcDbEntity
  8
JISSEN
 62
     0
100
AcDbVertex
100
AcDb2dVertex
 10
235.6661131071996
 20
179.0425475032245
 30
0.0
 70
     8
  0
VERTEX
  5
1D69184762
330
1D69184741
100
AcDbEntity
  8
JISSEN
 62
     0
100
AcDbVertex
100
AcDb2dVertex
 10
235.5260259610326
 20
178.9398141185668
 30
0.0
 70
     8
  0
VERTEX
  5
1D69184763
330
1D69184741
100
AcDbEntity
  8
JISSEN
 62
     0
100
AcDbVertex
100
AcDb2dVertex
 10
235.4322134899427
 20
178.8348029969518
 30
0.0
 70
     8
  0
VERTEX
  5
1D69184764
330
1D69184741
100
AcDbEntity
  8
JISSEN
 62
     0
100
AcDbVertex
100
AcDb2dVertex
 10
235.4005216348785
 20
178.7271191249433
 30
0.0
 70
     8
  0
VERTEX
  5
1D69184765
330
1D69184741
100
AcDbEntity
  8
JISSEN
 62
     0
100
AcDbVertex
100
AcDb2dVertex
 10
235.419232817303
 20
178.6174960955283
 30
0.0
 70
     8
  0
VERTEX
  5
1D69184766
330
1D69184741
100
AcDbEntity
  8
JISSEN
 62
     0
100
AcDbVertex
100
AcDb2dVertex
 10
235.4697385788085
 20
178.5069496532998
 30
0.0
 70
     8
  0
VERTEX
  5
1D69184767
330
1D69184741
100
AcDbEntity
  8
JISSEN
 62
     0
100
AcDbVertex
100
AcDb2dVertex
 10
235.5334304609875
 20
178.3964955428505
 30
0.0
 70
     8
  0
VERTEX
  5
1D69184768
330
1D69184741
100
AcDbEntity
  8
JISSEN
 62
     0
100
AcDbVertex
100
AcDb2dVertex
 10
235.5917000054319
 20
178.2871495087727
 30
0.0
 70
     8
  0
VERTEX
  5
1D69184769
330
1D69184741
100
AcDbEntity
  8
JISSEN
 62
     0
100
AcDbVertex
100
AcDb2dVertex
 10
235.6259387537338
 20
178.1799272956592
 30
0.0
 70
     8
  0
VERTEX
  5
1D6918476A
330
1D69184741
100
AcDbEntity
  8
JISSEN
 62
     0
100
AcDbVertex
100
AcDb2dVertex
 10
235.6175382474857
 20
178.0758446481028
 30
0.0
 70
     8
  0
VERTEX
  5
1D6918476B
330
1D69184741
100
AcDbEntity
  8
JISSEN
 62
     0
100
AcDbVertex
100
AcDb2dVertex
 10
235.5478900282796
 20
177.9759173106958
 30
0.0
 70
     8
  0
VERTEX
  5
1D6918476C
330
1D69184741
100
AcDbEntity
  8
JISSEN
 62
     0
100
AcDbVertex
100
AcDb2dVertex
 10
235.4079986102581
 20
177.8803988415956
 30
0.0
 70
     8
  0
VERTEX
  5
1D6918476D
330
1D69184741
100
AcDbEntity
  8
JISSEN
 62
     0
100
AcDbVertex
100
AcDb2dVertex
 10
235.2273203977647
 20
177.7864940532169
 30
0.0
 70
     8
  0
VERTEX
  5
1D6918476E
330
1D69184741
100
AcDbEntity
  8
JISSEN
 62
     0
100
AcDbVertex
100
AcDb2dVertex
 10
235.0449247676933
 20
177.690645571539
 30
0.0
 70
     8
  0
VERTEX
  5
1D6918476F
330
1D69184741
100
AcDbEntity
  8
JISSEN
 62
     0
100
AcDbVertex
100
AcDb2dVertex
 10
234.8998810969378
 20
177.5892960225406
 30
0.0
 70
     8
  0
VERTEX
  5
1D69184770
330
1D69184741
100
AcDbEntity
  8
JISSEN
 62
     0
100
AcDbVertex
100
AcDb2dVertex
 10
234.8312587623918
 20
177.4788880322009
 30
0.0
 70
     8
  0
VERTEX
  5
1D69184771
330
1D69184741
100
AcDbEntity
  8
JISSEN
 62
     0
100
AcDbVertex
100
AcDb2dVertex
 10
234.8781271409495
 20
177.3558642264994
 30
0.0
 70
     8
  0
VERTEX
  5
1D69184772
330
1D69184741
100
AcDbEntity
  8
JISSEN
 62
     0
100
AcDbVertex
100
AcDb2dVertex
 10
235.0795556095047
 20
177.2166672314149
 30
0.0
 70
     8
  0
VERTEX
  5
1D69184773
330
1D69184741
100
AcDbEntity
  8
JISSEN
 62
     0
100
AcDbVertex
100
AcDb2dVertex
 10
235.4746135449508
 20
177.0577396729265
 30
0.0
 70
     8
  0
VERTEX
  5
1D69184774
330
1D69184741
100
AcDbEntity
  8
JISSEN
 62
     0
100
AcDbVertex
100
AcDb2dVertex
 10
234.0966750069739
 20
181.4823754231289
 30
0.0
 70
    16
  0
VERTEX
  5
1D69184775
330
1D69184741
100
AcDbEntity
  8
JISSEN
 62
     0
100
AcDbVertex
100
AcDb2dVertex
 10
235.9580162045551
 20
180.9150388004574
 30
0.0
 70
    16
  0
VERTEX
  5
1D69184776
330
1D69184741
100
AcDbEntity
  8
JISSEN
 62
     0
100
AcDbVertex
100
AcDb2dVertex
 10
232.8978491746272
 20
180.5368143853435
 30
0.0
 70
    16
  0
VERTEX
  5
1D69184777
330
1D69184741
100
AcDbEntity
  8
JISSEN
 62
     0
100
AcDbVertex
100
AcDb2dVertex
 10
237.4092282819631
 20
179.6227707818358
 30
0.0
 70
    16
  0
VERTEX
  5
1D69184778
330
1D69184741
100
AcDbEntity
  8
JISSEN
 62
     0
100
AcDbVertex
100
AcDb2dVertex
 10
234.6960908670451
 20
178.8663219516075
 30
0.0
 70
    16
  0
VERTEX
  5
1D69184779
330
1D69184741
100
AcDbEntity
  8
JISSEN
 62
     0
100
AcDbVertex
100
AcDb2dVertex
 10
236.3996891895142
 20
177.9207593934444
 30
0.0
 70
    16
  0
VERTEX
  5
1D6918477A
330
1D69184741
100
AcDbEntity
  8
JISSEN
 62
     0
100
AcDbVertex
100
AcDb2dVertex
 10
234.1282247595557
 20
177.5110160236746
 30
0.0
 70
    16
  0
VERTEX
  5
1D6918477B
330
1D69184741
100
AcDbEntity
  8
JISSEN
 62
     0
100
AcDbVertex
100
AcDb2dVertex
 10
235.4746135449508
 20
177.0577396729264
 30
0.0
 70
    16
  0
SEQEND
  5
1D6918477C
330
1D69184741
100
AcDbEntity
  8
JISSEN
 62
     0
  0
LWPOLYLINE
  5
1D6918477D
330
1D69183399
100
AcDbEntity
  8
NITEN
100
AcDbPolyline
 90
        5
 70
     0
 43
0.0
 10
289.9060302670196
 20
214.6113029094276
 10
289.9060302670196
 20
235.4490205605734
 42
-0.5882352941176475
 10
272.9060302670196
 20
235.4490205605734
 42
0.5882352941176476
 10
255.9060302670196
 20
235.4490205605732
 10
255.9060302670196
 20
214.6113029094276
  0
LINE
  5
1D6918477E
330
1D69183399
100
AcDbEntity
  8
JISSEN
100
AcDbLine
 10
283.4548780302503
 20
177.057739672926
 30
0.0
 11
310.4746135449507
 21
177.0577396729264
 31
0.0
  0
LINE
  5
1D6918477F
330
1D69183399
100
AcDbEntity
  8
JISSEN
100
AcDbLine
 10
283.2986202217296
 20
182.0577396729263
 30
0.0
 11
310.4746135449514
 21
182.0577396729262
 31
0.0
  0
LWPOLYLINE
  5
1D69184780
330
1D69183399
100
AcDbEntity
  8
NITEN
100
AcDbPolyline
 90
       15
 70
     1
 43
0.0
 10
258.9060302670196
 20
174.1113029094276
 42
0.4142135623730927
 10
260.4060302670195
 20
172.6113029094276
 10
283.5000814380161
 20
172.6113029094276
 10
285.4060302670196
 20
172.6113029094276
 42
0.4142135623730925
 10
286.9060302670196
 20
174.1113029094276
 10
286.9060302670196
 20
185.1573189356455
 42
-0.4142135623730943
 10
291.9060302670196
 20
190.1573189356455
 42
0.4142135623730951
 10
293.9060302670196
 20
192.1573189356456
 10
293.9060302670195
 20
212.6113029094276
 42
0.4142135623730948
 10
291.9060302670196
 20
214.6113029094276
 10
253.9060302670196
 20
214.6113029094276
 42
0.4142135623730951
 10
251.9060302670196
 20
212.6113029094276
 10
251.9060302670196
 20
192.1573189356456
 42
0.4142135623730951
 10
253.9060302670196
 20
190.1573189356455
 42
-0.4142135623730961
 10
258.9060302670196
 20
185.1573189356455
  0
ARC
  5
1D69184781
330
1D69183399
100
AcDbEntity
  8
JISSEN
100
AcDbCircle
 10
266.9471930071888
 20
149.8383405388707
 30
0.0
 40
13.5
100
AcDbArc
 50
0.0
 51
40.96178855235445
  0
LINE
  5
1D69184782
330
1D69183399
100
AcDbEntity
  8
JISSEN
100
AcDbLine
 10
282.4060302670195
 20
170.0007540037038
 30
0.0
 11
272.9060302670195
 21
170.0007540037038
 31
0.0
  0
LINE
  5
1D69184783
330
1D69183399
100
AcDbEntity
  8
JISSEN
100
AcDbLine
 10
283.5695446213453
 20
170.3885921218126
 30
0.0
 11
272.9060302670195
 21
170.3885921218126
 31
0.0
  0
LINE
  5
1D69184784
330
1D69183399
100
AcDbEntity
  8
JISSEN
100
AcDbLine
 10
280.4060302670195
 20
160.9883405388714
 30
0.0
 11
272.9060302670195
 21
160.9883405388714
 31
0.0
  0
LINE
  5
1D69184785
330
1D69183399
100
AcDbEntity
  8
JISSEN
100
AcDbLine
 10
265.4060302670195
 20
158.6883405388715
 30
0.0
 11
280.4060302670195
 21
158.6883405388715
 31
0.0
  0
LINE
  5
1D69184786
330
1D69183399
100
AcDbEntity
  8
JISSEN
100
AcDbLine
 10
281.4060302670195
 20
184.5007540037038
 30
0.0
 11
272.9060302670195
 21
184.5007540037038
 31
0.0
  0
LINE
  5
1D69184787
330
1D69183399
100
AcDbEntity
  8
JISSEN
100
AcDbLine
 10
283.1840844949317
 20
182.7226997757916
 30
0.0
 11
262.6279760391073
 21
182.7226997757916
 31
0.0
  0
LINE
  5
1D69184788
330
1D69183399
100
AcDbEntity
  8
JISSEN
100
AcDbLine
 10
281.1054917542524
 20
164.5007540037038
 30
0.0
 11
274.4060302670195
 21
164.5007540037038
 31
0.0
  0
LINE
  5
1D69184789
330
1D69183399
100
AcDbEntity
  8
JISSEN
100
AcDbLine
 10
280.4060302670195
 20
162.7007540037038
 30
0.0
 11
274.4060302670195
 21
162.7007540037038
 31
0.0
  0
LINE
  5
1D6918478A
330
1D69183399
100
AcDbEntity
  8
JISSEN
100
AcDbLine
 10
278.90603026702
 20
161.2883405388716
 30
0.0
 11
274.5947742717787
 21
161.2883405388715
 31
0.0
  0
LINE
  5
1D6918478B
330
1D69183399
100
AcDbEntity
  8
JISSEN
100
AcDbLine
 10
280.1560302670195
 20
161.7224418401909
 30
0.0
 11
274.449362257306
 21
161.7224418401909
 31
0.0
  0
LINE
  5
1D6918478C
330
1D69183399
100
AcDbEntity
  8
JISSEN
100
AcDbLine
 10
283.6505929135575
 20
168.5007540037038
 30
0.0
 11
275.9060302670195
 21
168.5007540037038
 31
0.0
  0
ARC
  5
1D6918478D
330
1D69183399
100
AcDbEntity
  8
JISSEN
100
AcDbCircle
 10
275.6741626988974
 20
152.0383405388707
 30
0.0
 40
1.5
100
AcDbArc
 50
14.14900450893472
 51
90.0
  0
LINE
  5
1D6918478E
330
1D69183399
100
AcDbEntity
  8
JISSEN
100
AcDbLine
 10
277.9036299033535
 20
157.7254496759601
 30
0.0
 11
267.990756111024
 21
157.7254496759601
 31
0.0
  0
ARC
  5
1D6918478F
330
1D69183399
100
AcDbEntity
  8
JISSEN
100
AcDbCircle
 10
275.9471930071888
 20
146.0883405388707
 30
0.0
 40
1.5
100
AcDbArc
 50
270.0
 51
0.0
  0
ARC
  5
1D69184790
330
1D69183399
100
AcDbEntity
  8
JISSEN
100
AcDbCircle
 10
266.9471930071888
 20
149.8383405388707
 30
0.0
 40
10.5
100
AcDbArc
 50
0.0
 51
14.14900450893472
  0
LINE
  5
1D69184791
330
1D69183399
100
AcDbEntity
  8
JISSEN
100
AcDbLine
 10
264.7065687797868
 20
168.5007540037038
 30
0.0
 11
264.7065687797868
 21
164.5007540037038
 31
0.0
  0
LINE
  5
1D69184792
330
1D69183399
100
AcDbEntity
  8
JISSEN
100
AcDbLine
 10
268.9060302670195
 20
164.5007540037038
 30
0.0
 11
268.9060302670195
 21
168.5007540037038
 31
0.0
  0
TEXT
  5
1D69184793
330
1D69183399
100
AcDbEntity
  8
JISSEN
100
AcDbText
 10
268.4238146436847
 20
167.9594225373321
 30
0.0
 40
3.0
  1
D
 50
180.0
  7
K
 72
     4
 11
266.8523860722562
 21
166.4594225373321
 31
0.0
100
AcDbText
  0
ARC
  5
1D69184794
330
1D69183399
100
AcDbEntity
  8
JISSEN
100
AcDbCircle
 10
259.0182817353513
 20
171.6438713320802
 30
0.0
 40
6.498907295833106
100
AcDbArc
 50
284.6790800521959
 51
320.8990391255045
  0
ARC
  5
1D69184795
330
1D69183399
100
AcDbEntity
  8
JISSEN
100
AcDbCircle
 10
270.2060302670195
 20
165.8100283753507
 30
0.0
 40
0.3
100
AcDbArc
 50
180.0
 51
270.0
  0
LINE
  5
1D69184796
330
1D69183399
100
AcDbEntity
  8
JISSEN
100
AcDbLine
 10
276.9060302670195
 20
164.5007540037038
 30
0.0
 11
276.9060302670195
 21
168.5007540037038
 31
0.0
  0
ARC
  5
1D69184797
330
1D69183399
100
AcDbEntity
  8
JISSEN
100
AcDbCircle
 10
275.6060302670196
 20
165.8100283753507
 30
0.0
 40
0.3
100
AcDbArc
 50
270.0
 51
0.0
  0
ARC
  5
1D69184798
330
1D69183399
100
AcDbEntity
  8
JISSEN
100
AcDbCircle
 10
265.6947834834972
 20
151.8990962808592
 30
0.0
 40
10.80551655320168
100
AcDbArc
 50
91.53128360361938
 51
176.8080854238748
  0
ARC
  5
1D69184799
330
1D69183399
100
AcDbEntity
  8
JISSEN
100
AcDbCircle
 10
267.8453353146953
 20
151.3468020662754
 30
0.0
 40
11.0
100
AcDbArc
 50
104.840214838518
 51
173.9783228073658
  0
ARC
  5
1D6918479A
330
1D69183399
100
AcDbEntity
  8
JISSEN
100
AcDbCircle
 10
267.9060302670195
 20
152.5007540037038
 30
0.0
 40
15.0
100
AcDbArc
 50
126.6829888003598
 51
180.0
  0
ARC
  5
1D6918479B
330
1D69183399
100
AcDbEntity
  8
JISSEN
100
AcDbCircle
 10
261.9321595440949
 20
160.5202844504185
 30
0.0
 40
5.0
100
AcDbArc
 50
104.6790800521959
 51
126.6829888003598
  0
ARC
  5
1D6918479C
330
1D69183399
100
AcDbEntity
  8
JISSEN
100
AcDbCircle
 10
278.9471930071888
 20
149.8383405388707
 30
0.0
 40
13.5
100
AcDbArc
 50
139.0382114476455
 51
180.0
  0
LINE
  5
1D6918479D
330
1D69183399
100
AcDbEntity
  8
JISSEN
100
AcDbLine
 10
270.9471930071888
 20
153.7383405388707
 30
0.0
 11
270.9471930071888
 21
156.5516777454886
 31
0.0
  0
LINE
  5
1D6918479E
330
1D69183399
100
AcDbEntity
  8
JISSEN
100
AcDbLine
 10
274.9471930071888
 20
153.7383405388707
 30
0.0
 11
274.9471930071888
 21
156.5516777454886
 31
0.0
  0
LINE
  5
1D6918479F
330
1D69183399
100
AcDbEntity
  8
JISSEN
100
AcDbLine
 10
271.1971930071888
 20
152.816023699905
 30
0.0
 11
271.1971930071888
 21
155.3283942015011
 31
0.0
  0
LINE
  5
1D691847A0
330
1D69183399
100
AcDbEntity
  8
JISSEN
100
AcDbLine
 10
274.6971930071889
 20
155.3283942015011
 30
0.0
 11
274.6971930071889
 21
152.816023699905
 31
0.0
  0
ARC
  5
1D691847A1
330
1D69183399
100
AcDbEntity
  8
JISSEN
100
AcDbCircle
 10
270.2202233154802
 20
152.0383405388707
 30
0.0
 40
1.5
100
AcDbArc
 50
90.0
 51
165.8509954910652
  0
LINE
  5
1D691847A2
330
1D69183399
100
AcDbEntity
  8
JISSEN
100
AcDbLine
 10
269.6852369990702
 20
153.4396933285899
 30
0.0
 11
270.4471930071891
 21
152.9997778221918
 31
0.0
  0
ARC
  5
1D691847A3
330
1D69183399
100
AcDbEntity
  8
JISSEN
100
AcDbCircle
 10
271.0504631550278
 20
134.6802711707543
 30
0.0
 40
10.00141397672734
100
AcDbArc
 50
94.32888202861446
 51
97.36809719179866
  0
LINE
  5
1D691847A4
330
1D69183399
100
AcDbEntity
  8
JISSEN
100
AcDbLine
 10
269.9471930071888
 20
144.5883405388707
 30
0.0
 11
270.3221930071888
 21
144.5883405388707
 31
0.0
  0
ARC
  5
1D691847A5
330
1D69183399
100
AcDbEntity
  8
JISSEN
100
AcDbCircle
 10
271.050463155027
 20
140.547185690211
 30
0.0
 40
10.00141397672728
100
AcDbArc
 50
94.32888202861118
 51
100.3564926490359
  0
ARC
  5
1D691847A6
330
1D69183399
100
AcDbEntity
  8
JISSEN
100
AcDbCircle
 10
270.7413240774995
 20
152.1908344685776
 30
0.0
 40
0.6441310703106079
100
AcDbArc
 50
103.6591051852965
 51
180.0
  0
LINE
  5
1D691847A7
330
1D69183399
100
AcDbEntity
  8
JISSEN
100
AcDbLine
 10
265.4471930071888
 20
144.8383405388707
 30
0.0
 11
265.4471930071888
 21
149.8383405388707
 31
0.0
  0
LINE
  5
1D691847A8
330
1D69183399
100
AcDbEntity
  8
JISSEN
100
AcDbLine
 10
268.4471930071888
 20
146.0883405388707
 30
0.0
 11
268.4471930071888
 21
149.8383405388707
 31
0.0
  0
LINE
  5
1D691847A9
330
1D69183399
100
AcDbEntity
  8
JISSEN
100
AcDbLine
 10
269.1971930071888
 20
149.2024106524251
 30
0.0
 11
269.1971930071888
 21
148.4851287222009
 31
0.0
  0
LINE
  5
1D691847AA
330
1D69183399
100
AcDbEntity
  8
JISSEN
100
AcDbLine
 10
269.1971930071888
 20
148.1767394906033
 30
0.0
 11
269.1971930071888
 21
144.7893024331939
 31
0.0
  0
ARC
  5
1D691847AB
330
1D69183399
100
AcDbEntity
  8
JISSEN
100
AcDbCircle
 10
269.9471930071888
 20
146.0883405388707
 30
0.0
 40
1.5
100
AcDbArc
 50
180.0
 51
270.0
  0
LINE
  5
1D691847AC
330
1D69183399
100
AcDbEntity
  8
JISSEN
100
AcDbLine
 10
269.1971930071888
 20
148.1767394906033
 30
0.0
 11
269.1971930071888
 21
148.4851287222009
 31
0.0
  0
LINE
  5
1D691847AD
330
1D69183399
100
AcDbEntity
  8
JISSEN
100
AcDbLine
 10
269.1971930071606
 20
148.485128721807
 30
0.0
 11
269.1971930071606
 21
148.4851287223488
 31
0.0
  0
ARC
  5
1D691847AE
330
1D69183399
100
AcDbEntity
  8
JISSEN
100
AcDbCircle
 10
269.2646056680974
 20
150.3193448773643
 30
0.0
 40
0.0674126609085717
100
AcDbArc
 50
100.3564926490458
 51
180.0000000000244
  0
ARC
  5
1D691847AF
330
1D69183399
100
AcDbEntity
  8
JISSEN
100
AcDbCircle
 10
278.9471930071888
 20
149.8383405388707
 30
0.0
 40
10.5
100
AcDbArc
 50
165.8509954910652
 51
180.0
  0
LINE
  5
1D691847B0
330
1D69183399
100
AcDbEntity
  8
JISSEN
100
AcDbLine
 10
269.1971930071888
 20
150.3193448773643
 30
0.0
 11
269.1971930071888
 21
149.5089805736354
 31
0.0
  0
LINE
  5
1D691847B1
330
1D69183399
100
AcDbEntity
  8
JISSEN
100
AcDbLine
 10
269.197193007298
 20
149.5089805514117
 30
0.0
 11
269.197193007298
 21
149.5089806277466
 31
0.0
  0
LINE
  5
1D691847B2
330
1D69183399
100
AcDbEntity
  8
JISSEN
100
AcDbLine
 10
269.1971930071888
 20
149.2024106524251
 30
0.0
 11
269.1971930071888
 21
149.5089805736354
 31
0.0
  0
LINE
  5
1D691847B3
330
1D69183399
100
AcDbEntity
  8
JISSEN
100
AcDbLine
 10
276.6971930071889
 20
148.4851287222009
 30
0.0
 11
276.6971930071889
 21
149.2024106524251
 31
0.0
  0
ARC
  5
1D691847B4
330
1D69183399
100
AcDbEntity
  8
JISSEN
100
AcDbCircle
 10
270.3221930071888
 20
144.8883405388707
 30
0.0
 40
1.199999999999999
100
AcDbArc
 50
270.0
 51
291.4232972478953
  0
ARC
  5
1D691847B5
330
1D69183399
100
AcDbEntity
  8
JISSEN
100
AcDbCircle
 10
272.1752603343674
 20
169.0837282959578
 30
0.0
 40
24.90306398983168
100
AcDbArc
 50
265.7326069421967
 51
266.816945111796
  0
ARC
  5
1D691847B6
330
1D69183399
100
AcDbEntity
  8
JISSEN
100
AcDbCircle
 10
272.1752603343645
 20
119.8211324198592
 30
0.0
 40
24.90306398982979
100
AcDbArc
 50
93.10594061441934
 51
94.32888202860793
  0
LINE
  5
1D691847B7
330
1D69183399
100
AcDbEntity
  8
JISSEN
100
AcDbLine
 10
276.6971930071889
 20
144.7893024331941
 30
0.0
 11
276.6971930071889
 21
148.1767394906033
 31
0.0
  0
ARC
  5
1D691847B8
330
1D69183399
100
AcDbEntity
  8
JISSEN
100
AcDbCircle
 10
274.8439228593507
 20
134.6802711707527
 30
0.0
 40
10.00141397672887
100
AcDbArc
 50
82.63190280820792
 51
85.67111797138881
  0
LINE
  5
1D691847B9
330
1D69183399
100
AcDbEntity
  8
JISSEN
100
AcDbLine
 10
275.9471930071888
 20
144.5883405388707
 30
0.0
 11
275.5721930071888
 21
144.5883405388707
 31
0.0
  0
ARC
  5
1D691847BA
330
1D69183399
100
AcDbEntity
  8
JISSEN
100
AcDbCircle
 10
273.7191256800134
 20
119.8211324198599
 30
0.0
 40
24.90306398982914
100
AcDbArc
 50
85.67111797139208
 51
86.89405938558067
  0
ARC
  5
1D691847BB
330
1D69183399
100
AcDbEntity
  8
JISSEN
100
AcDbCircle
 10
273.7191256800129
 20
169.0837282959545
 30
0.0
 40
24.90306398982813
100
AcDbArc
 50
273.1830548881973
 51
274.2673930577966
  0
ARC
  5
1D691847BC
330
1D69183399
100
AcDbEntity
  8
JISSEN
100
AcDbCircle
 10
275.5721930071888
 20
144.8883405388707
 30
0.0
 40
1.199999999999999
100
AcDbArc
 50
248.5767027521151
 51
270.0
  0
LINE
  5
1D691847BD
330
1D69183399
100
AcDbEntity
  8
JISSEN
100
AcDbLine
 10
276.697268164227
 20
148.173251372698
 30
0.0
 11
276.697268164227
 21
148.5019851532676
 31
0.0
  0
LINE
  5
1D691847BE
330
1D69183399
100
AcDbEntity
  8
JISSEN
100
AcDbLine
 10
274.6971930071889
 20
153.5991948400691
 30
0.0
 11
271.1971930071888
 21
153.5991948400691
 31
0.0
  0
LINE
  5
1D691847BF
330
1D69183399
100
AcDbEntity
  8
JISSEN
100
AcDbLine
 10
274.6971930071889
 20
152.816023699905
 30
0.0
 11
271.1971930071888
 21
152.816023699905
 31
0.0
  0
LINE
  5
1D691847C0
330
1D69183399
100
AcDbEntity
  8
JISSEN
100
AcDbLine
 10
270.2202233154802
 20
153.5383405388707
 30
0.0
 11
270.7471930071888
 21
153.5383405388707
 31
0.0
  0
ARC
  5
1D691847C1
330
1D69183399
100
AcDbEntity
  8
JISSEN
100
AcDbCircle
 10
270.7471930071888
 20
153.7383405388707
 30
0.0
 40
0.2
100
AcDbArc
 50
270.0
 51
0.0
  0
ARC
  5
1D691847C2
330
1D69183399
100
AcDbEntity
  8
JISSEN
100
AcDbCircle
 10
272.1752603343658
 20
125.6880469393149
 30
0.0
 40
24.90306398983088
100
AcDbArc
 50
92.13758614180552
 51
94.32888202860793
  0
ARC
  5
1D691847C3
330
1D69183399
100
AcDbEntity
  8
JISSEN
100
AcDbCircle
 10
272.3711028662787
 20
143.325845281877
 30
0.0
 40
9.665948963623709
100
AcDbArc
 50
96.97567628298457
 51
98.56261218149002
  0
LINE
  5
1D691847C4
330
1D69183399
100
AcDbEntity
  8
JISSEN
100
AcDbLine
 10
270.0971930071889
 20
150.5030662418808
 30
0.0
 11
270.0971930071889
 21
152.1908344685776
 31
0.0
  0
ARC
  5
1D691847C5
330
1D69183399
100
AcDbEntity
  8
JISSEN
100
AcDbCircle
 10
272.9471930071891
 20
157.329904841114
 30
0.0
 40
5.0
100
AcDbArc
 50
239.9999999999999
 51
243.6791901783919
  0
ARC
  5
1D691847C6
330
1D69183399
100
AcDbEntity
  8
JISSEN
100
AcDbCircle
 10
271.5167566547996
 20
148.9999861955638
 30
0.0
 40
3.927849752435048
100
AcDbArc
 50
98.56261218149661
 51
103.6591051852965
  0
LINE
  5
1D691847C7
330
1D69183399
100
AcDbEntity
  8
JISSEN
100
AcDbLine
 10
276.209149015308
 20
153.4396933285899
 30
0.0
 11
275.4471930071892
 21
152.9997778221918
 31
0.0
  0
ARC
  5
1D691847C8
330
1D69183399
100
AcDbEntity
  8
JISSEN
100
AcDbCircle
 10
275.1471930071888
 20
153.7383405388707
 30
0.0
 40
0.2
100
AcDbArc
 50
180.0
 51
270.0
  0
LINE
  5
1D691847C9
330
1D69183399
100
AcDbEntity
  8
JISSEN
100
AcDbLine
 10
275.6741626988974
 20
153.5383405388707
 30
0.0
 11
275.1471930071888
 21
153.5383405388707
 31
0.0
  0
ARC
  5
1D691847CA
330
1D69183399
100
AcDbEntity
  8
JISSEN
100
AcDbCircle
 10
276.6297803462802
 20
150.3193448773643
 30
0.0
 40
0.0674126609086159
100
AcDbArc
 50
0.0000000000244267
 51
79.64350735095742
  0
LINE
  5
1D691847CB
330
1D69183399
100
AcDbEntity
  8
JISSEN
100
AcDbLine
 10
276.6971930071889
 20
149.5089805736354
 30
0.0
 11
276.6971930071889
 21
150.3193448773643
 31
0.0
  0
LINE
  5
1D691847CC
330
1D69183399
100
AcDbEntity
  8
JISSEN
100
AcDbLine
 10
276.697268164227
 20
149.2064153514812
 30
0.0
 11
276.697268164227
 21
149.5104321023996
 31
0.0
  0
ARC
  5
1D691847CD
330
1D69183399
100
AcDbEntity
  8
JISSEN
100
AcDbCircle
 10
274.8439228593505
 20
140.5471856902095
 30
0.0
 40
10.00141397672878
100
AcDbArc
 50
79.64350735096406
 51
85.67111797138881
  0
ARC
  5
1D691847CE
330
1D69183399
100
AcDbEntity
  8
JISSEN
100
AcDbCircle
 10
273.7191256800112
 20
125.6880469393166
 30
0.0
 40
24.90306398982923
100
AcDbArc
 50
85.67111797138881
 51
87.86241385819122
  0
ARC
  5
1D691847CF
330
1D69183399
100
AcDbEntity
  8
JISSEN
100
AcDbCircle
 10
275.1530619368783
 20
152.1908344685776
 30
0.0
 40
0.6441310703106079
100
AcDbArc
 50
0.0
 51
76.34089481470343
  0
LINE
  5
1D691847D0
330
1D69183399
100
AcDbEntity
  8
JISSEN
100
AcDbLine
 10
275.7971930071889
 20
152.1908344685776
 30
0.0
 11
275.7971930071889
 21
150.5030662418808
 31
0.0
  0
ARC
  5
1D691847D1
330
1D69183399
100
AcDbEntity
  8
JISSEN
100
AcDbCircle
 10
273.5232831480983
 20
143.3258452818774
 30
0.0
 40
9.665948963623366
100
AcDbArc
 50
81.43738781850339
 51
83.02432371701215
  0
ARC
  5
1D691847D2
330
1D69183399
100
AcDbEntity
  8
JISSEN
100
AcDbCircle
 10
274.3776293595781
 20
148.9999861955636
 30
0.0
 40
3.927849752435279
100
AcDbArc
 50
76.34089481470343
 51
81.43738781850339
  0
ARC
  5
1D691847D3
330
1D69183399
100
AcDbEntity
  8
JISSEN
100
AcDbCircle
 10
272.9471930071891
 20
157.329904841114
 30
0.0
 40
5.0
100
AcDbArc
 50
296.320809821608
 51
300.0
  0
ARC
  5
1D691847D4
330
1D69183399
100
AcDbEntity
  8
JISSEN
100
AcDbCircle
 10
272.7853104984856
 20
167.6866853508784
 30
0.0
 40
9.4
100
AcDbArc
 50
253.2252557359049
 51
264.1496496988334
  0
LINE
  5
1D691847D5
330
1D69183399
100
AcDbEntity
  8
JISSEN
100
AcDbLine
 10
264.7065687797868
 20
164.5007540037038
 30
0.0
 11
271.4060302670195
 21
164.5007540037038
 31
0.0
  0
LINE
  5
1D691847D6
330
1D69183399
100
AcDbEntity
  8
JISSEN
100
AcDbLine
 10
265.6560302670195
 20
161.7224418401909
 30
0.0
 11
271.3626982767331
 21
161.7224418401909
 31
0.0
  0
LINE
  5
1D691847D7
330
1D69183399
100
AcDbEntity
  8
JISSEN
100
AcDbLine
 10
265.4060302670195
 20
162.7007540037038
 30
0.0
 11
271.4060302670195
 21
162.7007540037038
 31
0.0
  0
LINE
  5
1D691847D8
330
1D69183399
100
AcDbEntity
  8
JISSEN
100
AcDbLine
 10
265.4060302670195
 20
160.9883405388714
 30
0.0
 11
272.9060302670195
 21
160.9883405388714
 31
0.0
  0
LINE
  5
1D691847D9
330
1D69183399
100
AcDbEntity
  8
JISSEN
100
AcDbLine
 10
266.9060302670191
 20
161.2883405388716
 30
0.0
 11
271.2172862622603
 21
161.2883405388715
 31
0.0
  0
LINE
  5
1D691847DA
330
1D69183399
100
AcDbEntity
  8
JISSEN
100
AcDbLine
 10
265.4060302670195
 20
161.2883405388714
 30
0.0
 11
265.4060302670195
 21
158.6883405388715
 31
0.0
  0
LINE
  5
1D691847DB
330
1D69183399
100
AcDbEntity
  8
JISSEN
100
AcDbLine
 10
266.9060302670191
 20
161.2883405388714
 30
0.0
 11
265.4060302670195
 21
161.2883405388714
 31
0.0
  0
LINE
  5
1D691847DC
330
1D69183399
100
AcDbEntity
  8
JISSEN
100
AcDbLine
 10
266.4079157765363
 20
161.2883405388714
 30
0.0
 11
265.5752287633668
 21
161.7690926100758
 31
0.0
  0
ARC
  5
1D691847DD
330
1D69183399
100
AcDbEntity
  8
JISSEN
100
AcDbCircle
 10
265.1560302670195
 20
161.4965625738217
 30
0.0
 40
0.5
100
AcDbArc
 50
33.0287688719123
 51
104.840214838518
  0
LINE
  5
1D691847DE
330
1D69183399
100
AcDbEntity
  8
JISSEN
100
AcDbLine
 10
265.4060302670195
 20
164.5007540037038
 30
0.0
 11
265.4060302670195
 21
162.7007540037038
 31
0.0
  0
LINE
  5
1D691847DF
330
1D69183399
100
AcDbEntity
  8
JISSEN
100
AcDbLine
 10
271.1971930071888
 20
155.3283942015011
 30
0.0
 11
274.6971930071889
 21
155.3283942015011
 31
0.0
  0
LINE
  5
1D691847E0
330
1D69183399
100
AcDbEntity
  8
JISSEN
100
AcDbLine
 10
273.7434575543833
 20
158.3356450761673
 30
0.0
 11
271.8271634425876
 21
158.3356450761671
 31
0.0
  0
ARC
  5
1D691847E1
330
1D69183399
100
AcDbEntity
  8
JISSEN
100
AcDbCircle
 10
271.2471930071888
 20
154.7558737563343
 30
0.0
 40
0.3
100
AcDbArc
 50
99.59406822683844
 51
180.0
  0
ARC
  5
1D691847E2
330
1D69183399
100
AcDbEntity
  8
JISSEN
100
AcDbCircle
 10
274.6471930071888
 20
154.7558737563343
 30
0.0
 40
0.3
100
AcDbArc
 50
0.0
 51
80.40593177313514
  0
ARC
  5
1D691847E3
330
1D69183399
100
AcDbEntity
  8
JISSEN
100
AcDbCircle
 10
272.7853104984856
 20
167.6866853508784
 30
0.0
 40
9.4
100
AcDbArc
 50
275.8503503011665
 51
286.774744264095
  0
LINE
  5
1D691847E4
330
1D69183399
100
AcDbEntity
  8
JISSEN
100
AcDbLine
 10
271.6560302670195
 20
165.5100283753507
 30
0.0
 11
271.6560302670195
 21
163.7275862757577
 31
0.0
  0
ARC
  5
1D691847E5
330
1D69183399
100
AcDbEntity
  8
JISSEN
100
AcDbCircle
 10
264.6560302670195
 20
163.7275862757577
 30
0.0
 40
7.0
100
AcDbArc
 50
336.9632903547645
 51
0.0
  0
LINE
  5
1D691847E6
330
1D69183399
100
AcDbEntity
  8
JISSEN
100
AcDbLine
 10
271.4060302670195
 20
162.7007540037038
 30
0.0
 11
271.4060302670195
 21
164.5007540037038
 31
0.0
  0
LINE
  5
1D691847E7
330
1D69183399
100
AcDbEntity
  8
JISSEN
100
AcDbLine
 10
271.6560302670195
 20
165.5100283753507
 30
0.0
 11
270.2060302670195
 21
165.5100283753507
 31
0.0
  0
LINE
  5
1D691847E8
330
1D69183399
100
AcDbEntity
  8
JISSEN
100
AcDbLine
 10
274.1560302670195
 20
165.5100283753507
 30
0.0
 11
274.1560302670195
 21
163.7275862757577
 31
0.0
  0
LINE
  5
1D691847E9
330
1D69183399
100
AcDbEntity
  8
JISSEN
100
AcDbLine
 10
274.4060302670195
 20
164.5007540037038
 30
0.0
 11
274.4060302670195
 21
162.7007540037038
 31
0.0
  0
LINE
  5
1D691847EA
330
1D69183399
100
AcDbEntity
  8
JISSEN
100
AcDbLine
 10
275.6060302670196
 20
165.5100283753507
 30
0.0
 11
274.1560302670195
 21
165.5100283753507
 31
0.0
  0
ARC
  5
1D691847EB
330
1D69183399
100
AcDbEntity
  8
JISSEN
100
AcDbCircle
 10
281.1560302670195
 20
163.7275862757577
 30
0.0
 40
7.0
100
AcDbArc
 50
180.0
 51
203.0367096452357
  0
LINE
  5
1D691847EC
330
1D69183399
100
AcDbEntity
  8
JISSEN
100
AcDbLine
 10
262.1614676204815
 20
168.5007540037038
 30
0.0
 11
269.9060302670195
 21
168.5007540037038
 31
0.0
  0
LINE
  5
1D691847ED
330
1D69183399
100
AcDbEntity
  8
JISSEN
100
AcDbLine
 10
262.2425159126937
 20
170.3885921218126
 30
0.0
 11
272.9060302670195
 21
170.3885921218126
 31
0.0
  0
LINE
  5
1D691847EE
330
1D69183399
100
AcDbEntity
  8
JISSEN
100
AcDbLine
 10
262.2425159126937
 20
170.3885921218126
 30
0.0
 11
263.4060302670195
 21
170.0007540037038
 31
0.0
  0
LINE
  5
1D691847EF
330
1D69183399
100
AcDbEntity
  8
JISSEN
100
AcDbLine
 10
264.4060302670195
 20
184.5007540037038
 30
0.0
 11
262.6279760391073
 21
182.7226997757916
 31
0.0
  0
LINE
  5
1D691847F0
330
1D69183399
100
AcDbEntity
  8
JISSEN
100
AcDbLine
 10
262.2425159126937
 20
170.3885921218126
 30
0.0
 11
262.6279760391073
 21
182.7226997757916
 31
0.0
  0
LINE
  5
1D691847F1
330
1D69183399
100
AcDbEntity
  8
JISSEN
100
AcDbLine
 10
252.9746135449509
 20
177.0577396729264
 30
0.0
 11
252.9746135449509
 21
182.0577396729264
 31
0.0
  0
LINE
  5
1D691847F4
330
1D69183399
100
AcDbEntity
  8
SAISEN
100
AcDbLine
 10
263.8274618437451
 20
183.9221855804295
 30
0.0
 11
263.3925359387594
 21
170.0052521131238
 31
0.0
  0
LINE
  5
1D691847F5
330
1D69183399
100
AcDbEntity
  8
JISSEN
100
AcDbLine
 10
263.4060302670195
 20
170.0007540037038
 30
0.0
 11
272.9060302670195
 21
170.0007540037038
 31
0.0
  0
ARC
  5
1D691847F6
330
1D69183399
100
AcDbEntity
  8
JISSEN
100
AcDbCircle
 10
270.2060302670195
 20
167.2100283753507
 30
0.0
 40
0.3
100
AcDbArc
 50
90.0
 51
180.0
  0
LINE
  5
1D691847F7
330
1D69183399
100
AcDbEntity
  8
JISSEN
100
AcDbLine
 10
263.4060302670195
 20
168.5007540037038
 30
0.0
 11
263.4060302670195
 21
170.0007540037038
 31
0.0
  0
LINE
  5
1D691847F8
330
1D69183399
100
AcDbEntity
  8
JISSEN
100
AcDbLine
 10
269.9060302670195
 20
168.5007540037038
 30
0.0
 11
269.9060302670195
 21
170.0007540037038
 31
0.0
  0
LINE
  5
1D691847F9
330
1D69183399
100
AcDbEntity
  8
JISSEN
100
AcDbLine
 10
269.9060302670195
 20
165.8100283753507
 30
0.0
 11
269.9060302670195
 21
167.2100283753507
 31
0.0
  0
LINE
  5
1D691847FA
330
1D69183399
100
AcDbEntity
  8
JISSEN
100
AcDbLine
 10
270.2060302670195
 20
167.5100283753507
 30
0.0
 11
275.6060302670196
 21
167.5100283753507
 31
0.0
  0
LINE
  5
1D691847FB
330
1D69183399
100
AcDbEntity
  8
JISSEN
100
AcDbLine
 10
275.9060302670195
 20
170.0007540037038
 30
0.0
 11
275.9060302670195
 21
168.5007540037038
 31
0.0
  0
ARC
  5
1D691847FC
330
1D69183399
100
AcDbEntity
  8
JISSEN
100
AcDbCircle
 10
275.6060302670196
 20
167.2100283753507
 30
0.0
 40
0.3
100
AcDbArc
 50
0.0
 51
90.0
  0
LINE
  5
1D691847FD
330
1D69183399
100
AcDbEntity
  8
JISSEN
100
AcDbLine
 10
275.9060302670195
 20
167.2100283753507
 30
0.0
 11
275.9060302670195
 21
165.8100283753507
 31
0.0
  0
LINE
  5
1D691847FE
330
1D69183399
100
AcDbEntity
  8
JISSEN
100
AcDbLine
 10
264.4060302670195
 20
184.5007540037038
 30
0.0
 11
272.9060302670195
 21
184.5007540037038
 31
0.0
  0
ARC
  5
1D691847FF
330
1D69183399
100
AcDbEntity
  8
JISSEN
100
AcDbCircle
 10
277.9060302670195
 20
152.5007540037038
 30
0.0
 40
17.0
100
AcDbArc
 50
0.0
 51
70.25007720435738
  0
LINE
  5
1D69184800
330
1D69183399
100
AcDbEntity
  8
JISSEN
100
AcDbLine
 10
281.1054917542524
 20
168.5007540037038
 30
0.0
 11
281.1054917542524
 21
164.5007540037038
 31
0.0
  0
ARC
  5
1D69184801
330
1D69183399
100
AcDbEntity
  8
JISSEN
100
AcDbCircle
 10
286.7937787986879
 20
171.6438713320802
 30
0.0
 40
6.498907295833106
100
AcDbArc
 50
219.1009608744954
 51
255.3209199478007
  0
ARC
  5
1D69184802
330
1D69183399
100
AcDbEntity
  8
JISSEN
100
AcDbCircle
 10
277.9060302670195
 20
152.5007540037038
 30
0.0
 40
15.0
100
AcDbArc
 50
0.0
 51
53.31701119964019
  0
ARC
  5
1D69184803
330
1D69183399
100
AcDbEntity
  8
JISSEN
100
AcDbCircle
 10
280.1172770505419
 20
151.8990962808592
 30
0.0
 40
10.80551655320168
100
AcDbArc
 50
3.191914576125987
 51
88.46871639638065
  0
ARC
  5
1D69184804
330
1D69183399
100
AcDbEntity
  8
JISSEN
100
AcDbCircle
 10
277.9667252193437
 20
151.3468020662754
 30
0.0
 40
11.0
100
AcDbArc
 50
6.021677192634145
 51
75.15978516148199
  0
LINE
  5
1D69184805
330
1D69183399
100
AcDbEntity
  8
JISSEN
100
AcDbLine
 10
280.4471930071888
 20
144.8383405388707
 30
0.0
 11
280.4471930071888
 21
149.8383405388707
 31
0.0
  0
LINE
  5
1D69184806
330
1D69183399
100
AcDbEntity
  8
JISSEN
100
AcDbLine
 10
277.4471930071888
 20
146.0883405388707
 30
0.0
 11
277.4471930071888
 21
149.8383405388707
 31
0.0
  0
LINE
  5
1D69184807
330
1D69183399
100
AcDbEntity
  8
JISSEN
100
AcDbLine
 10
280.4060302670195
 20
161.2883405388714
 30
0.0
 11
280.4060302670195
 21
158.6883405388715
 31
0.0
  0
ARC
  5
1D69184808
330
1D69183399
100
AcDbEntity
  8
JISSEN
100
AcDbCircle
 10
280.6560302670195
 20
161.4965625738217
 30
0.0
 40
0.5
100
AcDbArc
 50
75.15978516148199
 51
146.9712311280871
  0
LINE
  5
1D69184809
330
1D69183399
100
AcDbEntity
  8
JISSEN
100
AcDbLine
 10
279.4041447575027
 20
161.2883405388714
 30
0.0
 11
280.2368317706732
 21
161.7690926100763
 31
0.0
  0
LINE
  5
1D6918480A
330
1D69183399
100
AcDbEntity
  8
JISSEN
100
AcDbLine
 10
278.90603026702
 20
161.2883405388714
 30
0.0
 11
280.4060302670195
 21
161.2883405388714
 31
0.0
  0
LINE
  5
1D6918480B
330
1D69183399
100
AcDbEntity
  8
JISSEN
100
AcDbLine
 10
280.4060302670195
 20
164.5007540037038
 30
0.0
 11
280.4060302670195
 21
162.7007540037038
 31
0.0
  0
ARC
  5
1D6918480C
330
1D69183399
100
AcDbEntity
  8
JISSEN
100
AcDbCircle
 10
283.8799009899442
 20
160.5202844504185
 30
0.0
 40
5.0
100
AcDbArc
 50
53.31701119964019
 51
75.32091994780405
  0
LINE
  5
1D6918480F
330
1D69183399
100
AcDbEntity
  8
JISSEN
100
AcDbLine
 10
283.5695446213453
 20
170.3885921218126
 30
0.0
 11
283.1840844949317
 21
182.7226997757916
 31
0.0
  0
LINE
  5
1D69184810
330
1D69183399
100
AcDbEntity
  8
SAISEN
100
AcDbLine
 10
281.9845986902939
 20
183.9221855804295
 30
0.0
 11
282.4195245952796
 21
170.0052521131238
 31
0.0
  0
LINE
  5
1D69184812
330
1D69183399
100
AcDbEntity
  8
JISSEN
100
AcDbLine
 10
282.4060302670195
 20
168.5007540037038
 30
0.0
 11
282.4060302670195
 21
170.0007540037038
 31
0.0
  0
LINE
  5
1D69184813
330
1D69183399
100
AcDbEntity
  8
JISSEN
100
AcDbLine
 10
283.5695446213453
 20
170.3885921218126
 30
0.0
 11
282.4060302670195
 21
170.0007540037038
 31
0.0
  0
LINE
  5
1D69184814
330
1D69183399
100
AcDbEntity
  8
JISSEN
100
AcDbLine
 10
281.4060302670195
 20
184.5007540037038
 30
0.0
 11
283.1840844949317
 21
182.7226997757916
 31
0.0
  0
LINE
  5
1D69184815
330
1D69183399
100
AcDbEntity
  8
JISSEN
100
AcDbLine
 10
292.9746135449509
 20
182.0577396729264
 30
0.0
 11
292.9746135449509
 21
177.0577396729265
 31
0.0
  0
INSERT
  5
1D69184816
330
1D69183399
100
AcDbEntity
  8
SUNPOU
100
AcDbBlockReference
  2
ARROW
 10
296.0114606254302
 20
172.1905568042308
 30
0.0
 41
-1.499999999999994
 42
1.5
 43
1.5
 50
288.4506606400962
  0
POLYLINE
  5
1D69184817
330
1D69183399
100
AcDbEntity
  8
JISSEN
 62
     0
100
AcDb2dPolyline
 66
     1
 10
0.0
 20
0.0
 30
0.0
 70
     4
 75
     6
  0
VERTEX
  5
1D69184818
330
1D69184817
100
AcDbEntity
  8
JISSEN
 62
     0
100
AcDbVertex
100
AcDb2dVertex
 10
310.4746135449509
 20
182.0577396729264
 30
0.0
 70
    16
  0
VERTEX
  5
1D69184819
330
1D69184817
100
AcDbEntity
  8
JISSEN
 62
     0
100
AcDbVertex
100
AcDb2dVertex
 10
310.4746135449509
 20
182.0577396729264
 30
0.0
 70
     8
  0
VERTEX
  5
1D6918481A
330
1D69184817
100
AcDbEntity
  8
JISSEN
 62
     0
100
AcDbVertex
100
AcDb2dVertex
 10
310.889538451755
 20
181.8552355076463
 30
0.0
 70
     8
  0
VERTEX
  5
1D6918481B
330
1D69184817
100
AcDbEntity
  8
JISSEN
 62
     0
100
AcDbVertex
100
AcDb2dVertex
 10
311.1265153020786
 20
181.6775829242693
 30
0.0
 70
     8
  0
VERTEX
  5
1D6918481C
330
1D69184817
100
AcDbEntity
  8
JISSEN
 62
     0
100
AcDbVertex
100
AcDb2dVertex
 10
311.2240281460135
 20
181.5222870104672
 30
0.0
 70
     8
  0
VERTEX
  5
1D6918481D
330
1D69184817
100
AcDbEntity
  8
JISSEN
 62
     0
100
AcDbVertex
100
AcDb2dVertex
 10
311.2205610336512
 20
181.3868528539121
 30
0.0
 70
     8
  0
VERTEX
  5
1D6918481E
330
1D69184817
100
AcDbEntity
  8
JISSEN
 62
     0
100
AcDbVertex
100
AcDb2dVertex
 10
311.1545980150836
 20
181.2687855422765
 30
0.0
 70
     8
  0
VERTEX
  5
1D6918481F
330
1D69184817
100
AcDbEntity
  8
JISSEN
 62
     0
100
AcDbVertex
100
AcDb2dVertex
 10
311.0646231404019
 20
181.1655901632321
 30
0.0
 70
     8
  0
VERTEX
  5
1D69184820
330
1D69184817
100
AcDbEntity
  8
JISSEN
 62
     0
100
AcDbVertex
100
AcDb2dVertex
 10
310.9891204596979
 20
181.0747718044514
 30
0.0
 70
     8
  0
VERTEX
  5
1D69184821
330
1D69184817
100
AcDbEntity
  8
JISSEN
 62
     0
100
AcDbVertex
100
AcDb2dVertex
 10
310.9665740230635
 20
180.9938355536062
 30
0.0
 70
     8
  0
VERTEX
  5
1D69184822
330
1D69184817
100
AcDbEntity
  8
JISSEN
 62
     0
100
AcDbVertex
100
AcDb2dVertex
 10
311.0246841701046
 20
180.9203739968727
 30
0.0
 70
     8
  0
VERTEX
  5
1D69184823
330
1D69184817
100
AcDbEntity
  8
JISSEN
 62
     0
100
AcDbVertex
100
AcDb2dVertex
 10
311.1480163984873
 20
180.8523297144438
 30
0.0
 70
     8
  0
VERTEX
  5
1D69184824
330
1D69184817
100
AcDbEntity
  8
JISSEN
 62
     0
100
AcDbVertex
100
AcDb2dVertex
 10
311.3103524953917
 20
180.787732785016
 30
0.0
 70
     8
  0
VERTEX
  5
1D69184825
330
1D69184817
100
AcDbEntity
  8
JISSEN
 62
     0
100
AcDbVertex
100
AcDb2dVertex
 10
311.4854742479991
 20
180.7246132872858
 30
0.0
 70
     8
  0
VERTEX
  5
1D69184826
330
1D69184817
100
AcDbEntity
  8
JISSEN
 62
     0
100
AcDbVertex
100
AcDb2dVertex
 10
311.6471634434893
 20
180.6610012999503
 30
0.0
 70
     8
  0
VERTEX
  5
1D69184827
330
1D69184817
100
AcDbEntity
  8
JISSEN
 62
     0
100
AcDbVertex
100
AcDb2dVertex
 10
311.7692018690432
 20
180.594926901706
 30
0.0
 70
     8
  0
VERTEX
  5
1D69184828
330
1D69184817
100
AcDbEntity
  8
JISSEN
 62
     0
100
AcDbVertex
100
AcDb2dVertex
 10
311.8253713118413
 20
180.5244201712495
 30
0.0
 70
     8
  0
VERTEX
  5
1D69184829
330
1D69184817
100
AcDbEntity
  8
JISSEN
 62
     0
100
AcDbVertex
100
AcDb2dVertex
 10
311.789453559064
 20
180.4475111872777
 30
0.0
 70
     8
  0
VERTEX
  5
1D6918482A
330
1D69184817
100
AcDbEntity
  8
JISSEN
 62
     0
100
AcDbVertex
100
AcDb2dVertex
 10
311.6444165266758
 20
180.3627840693952
 30
0.0
 70
     8
  0
VERTEX
  5
1D6918482B
330
1D69184817
100
AcDbEntity
  8
JISSEN
 62
     0
100
AcDbVertex
100
AcDb2dVertex
 10
311.4099726457744
 20
180.2710391008379
 30
0.0
 70
     8
  0
VERTEX
  5
1D6918482C
330
1D69184817
100
AcDbEntity
  8
JISSEN
 62
     0
100
AcDbVertex
100
AcDb2dVertex
 10
311.1150204762421
 20
180.1736306057498
 30
0.0
 70
     8
  0
VERTEX
  5
1D6918482D
330
1D69184817
100
AcDbEntity
  8
JISSEN
 62
     0
100
AcDbVertex
100
AcDb2dVertex
 10
310.7884585779607
 20
180.0719129082747
 30
0.0
 70
     8
  0
VERTEX
  5
1D6918482E
330
1D69184817
100
AcDbEntity
  8
JISSEN
 62
     0
100
AcDbVertex
100
AcDb2dVertex
 10
310.4591855108122
 20
179.9672403325564
 30
0.0
 70
     8
  0
VERTEX
  5
1D6918482F
330
1D69184817
100
AcDbEntity
  8
JISSEN
 62
     0
100
AcDbVertex
100
AcDb2dVertex
 10
310.1560998346779
 20
179.8609672027391
 30
0.0
 70
     8
  0
VERTEX
  5
1D69184830
330
1D69184817
100
AcDbEntity
  8
JISSEN
 62
     0
100
AcDbVertex
100
AcDb2dVertex
 10
309.9081001094405
 20
179.7544478429664
 30
0.0
 70
     8
  0
VERTEX
  5
1D69184831
330
1D69184817
100
AcDbEntity
  8
JISSEN
 62
     0
100
AcDbVertex
100
AcDb2dVertex
 10
309.7440848949811
 20
179.6490365773822
 30
0.0
 70
     8
  0
VERTEX
  5
1D69184832
330
1D69184817
100
AcDbEntity
  8
JISSEN
 62
     0
100
AcDbVertex
100
AcDb2dVertex
 10
309.6843468543987
 20
179.5457491485997
 30
0.0
 70
     8
  0
VERTEX
  5
1D69184833
330
1D69184817
100
AcDbEntity
  8
JISSEN
 62
     0
100
AcDbVertex
100
AcDb2dVertex
 10
309.7147550636567
 20
179.4442469731084
 30
0.0
 70
     8
  0
VERTEX
  5
1D69184834
330
1D69184817
100
AcDbEntity
  8
JISSEN
 62
     0
100
AcDbVertex
100
AcDb2dVertex
 10
309.8125727019356
 20
179.3438528858665
 30
0.0
 70
     8
  0
VERTEX
  5
1D69184835
330
1D69184817
100
AcDbEntity
  8
JISSEN
 62
     0
100
AcDbVertex
100
AcDb2dVertex
 10
309.9550629484159
 20
179.243889721833
 30
0.0
 70
     8
  0
VERTEX
  5
1D69184836
330
1D69184817
100
AcDbEntity
  8
JISSEN
 62
     0
100
AcDbVertex
100
AcDb2dVertex
 10
310.119488982278
 20
179.1436803159661
 30
0.0
 70
     8
  0
VERTEX
  5
1D69184837
330
1D69184817
100
AcDbEntity
  8
JISSEN
 62
     0
100
AcDbVertex
100
AcDb2dVertex
 10
310.2831139827024
 20
179.0425475032245
 30
0.0
 70
     8
  0
VERTEX
  5
1D69184838
330
1D69184817
100
AcDbEntity
  8
JISSEN
 62
     0
100
AcDbVertex
100
AcDb2dVertex
 10
310.4232011288694
 20
178.9398141185668
 30
0.0
 70
     8
  0
VERTEX
  5
1D69184839
330
1D69184817
100
AcDbEntity
  8
JISSEN
 62
     0
100
AcDbVertex
100
AcDb2dVertex
 10
310.517013599959
 20
178.8348029969518
 30
0.0
 70
     8
  0
VERTEX
  5
1D6918483A
330
1D69184817
100
AcDbEntity
  8
JISSEN
 62
     0
100
AcDbVertex
100
AcDb2dVertex
 10
310.5487054550233
 20
178.7271191249433
 30
0.0
 70
     8
  0
VERTEX
  5
1D6918483B
330
1D69184817
100
AcDbEntity
  8
JISSEN
 62
     0
100
AcDbVertex
100
AcDb2dVertex
 10
310.5299942725987
 20
178.6174960955283
 30
0.0
 70
     8
  0
VERTEX
  5
1D6918483C
330
1D69184817
100
AcDbEntity
  8
JISSEN
 62
     0
100
AcDbVertex
100
AcDb2dVertex
 10
310.4794885110933
 20
178.5069496532998
 30
0.0
 70
     8
  0
VERTEX
  5
1D6918483D
330
1D69184817
100
AcDbEntity
  8
JISSEN
 62
     0
100
AcDbVertex
100
AcDb2dVertex
 10
310.4157966289144
 20
178.3964955428505
 30
0.0
 70
     8
  0
VERTEX
  5
1D6918483E
330
1D69184817
100
AcDbEntity
  8
JISSEN
 62
     0
100
AcDbVertex
100
AcDb2dVertex
 10
310.3575270844701
 20
178.2871495087727
 30
0.0
 70
     8
  0
VERTEX
  5
1D6918483F
330
1D69184817
100
AcDbEntity
  8
JISSEN
 62
     0
100
AcDbVertex
100
AcDb2dVertex
 10
310.3232883361682
 20
178.1799272956592
 30
0.0
 70
     8
  0
VERTEX
  5
1D69184840
330
1D69184817
100
AcDbEntity
  8
JISSEN
 62
     0
100
AcDbVertex
100
AcDb2dVertex
 10
310.3316888424163
 20
178.0758446481028
 30
0.0
 70
     8
  0
VERTEX
  5
1D69184841
330
1D69184817
100
AcDbEntity
  8
JISSEN
 62
     0
100
AcDbVertex
100
AcDb2dVertex
 10
310.4013370616222
 20
177.9759173106958
 30
0.0
 70
     8
  0
VERTEX
  5
1D69184842
330
1D69184817
100
AcDbEntity
  8
JISSEN
 62
     0
100
AcDbVertex
100
AcDb2dVertex
 10
310.5412284796437
 20
177.8803988415956
 30
0.0
 70
     8
  0
VERTEX
  5
1D69184843
330
1D69184817
100
AcDbEntity
  8
JISSEN
 62
     0
100
AcDbVertex
100
AcDb2dVertex
 10
310.7219066921371
 20
177.7864940532169
 30
0.0
 70
     8
  0
VERTEX
  5
1D69184844
330
1D69184817
100
AcDbEntity
  8
JISSEN
 62
     0
100
AcDbVertex
100
AcDb2dVertex
 10
310.9043023222087
 20
177.690645571539
 30
0.0
 70
     8
  0
VERTEX
  5
1D69184845
330
1D69184817
100
AcDbEntity
  8
JISSEN
 62
     0
100
AcDbVertex
100
AcDb2dVertex
 10
311.0493459929642
 20
177.5892960225406
 30
0.0
 70
     8
  0
VERTEX
  5
1D69184846
330
1D69184817
100
AcDbEntity
  8
JISSEN
 62
     0
100
AcDbVertex
100
AcDb2dVertex
 10
311.11796832751
 20
177.4788880322009
 30
0.0
 70
     8
  0
VERTEX
  5
1D69184847
330
1D69184817
100
AcDbEntity
  8
JISSEN
 62
     0
100
AcDbVertex
100
AcDb2dVertex
 10
311.0710999489525
 20
177.3558642264994
 30
0.0
 70
     8
  0
VERTEX
  5
1D69184848
330
1D69184817
100
AcDbEntity
  8
JISSEN
 62
     0
100
AcDbVertex
100
AcDb2dVertex
 10
310.8696714803973
 20
177.2166672314149
 30
0.0
 70
     8
  0
VERTEX
  5
1D69184849
330
1D69184817
100
AcDbEntity
  8
JISSEN
 62
     0
100
AcDbVertex
100
AcDb2dVertex
 10
310.4746135449509
 20
177.0577396729265
 30
0.0
 70
     8
  0
VERTEX
  5
1D6918484A
330
1D69184817
100
AcDbEntity
  8
JISSEN
 62
     0
100
AcDbVertex
100
AcDb2dVertex
 10
311.852552082928
 20
181.4823754231289
 30
0.0
 70
    16
  0
VERTEX
  5
1D6918484B
330
1D69184817
100
AcDbEntity
  8
JISSEN
 62
     0
100
AcDbVertex
100
AcDb2dVertex
 10
309.9912108853469
 20
180.9150388004574
 30
0.0
 70
    16
  0
VERTEX
  5
1D6918484C
330
1D69184817
100
AcDbEntity
  8
JISSEN
 62
     0
100
AcDbVertex
100
AcDb2dVertex
 10
313.0513779152748
 20
180.5368143853435
 30
0.0
 70
    16
  0
VERTEX
  5
1D6918484D
330
1D69184817
100
AcDbEntity
  8
JISSEN
 62
     0
100
AcDbVertex
100
AcDb2dVertex
 10
308.5399988079389
 20
179.6227707818358
 30
0.0
 70
    16
  0
VERTEX
  5
1D6918484E
330
1D69184817
100
AcDbEntity
  8
JISSEN
 62
     0
100
AcDbVertex
100
AcDb2dVertex
 10
311.2531362228569
 20
178.8663219516075
 30
0.0
 70
    16
  0
VERTEX
  5
1D6918484F
330
1D69184817
100
AcDbEntity
  8
JISSEN
 62
     0
100
AcDbVertex
100
AcDb2dVertex
 10
309.5495379003878
 20
177.9207593934444
 30
0.0
 70
    16
  0
VERTEX
  5
1D69184850
330
1D69184817
100
AcDbEntity
  8
JISSEN
 62
     0
100
AcDbVertex
100
AcDb2dVertex
 10
311.8210023303463
 20
177.5110160236746
 30
0.0
 70
    16
  0
VERTEX
  5
1D69184851
330
1D69184817
100
AcDbEntity
  8
JISSEN
 62
     0
100
AcDbVertex
100
AcDb2dVertex
 10
310.4746135449509
 20
177.0577396729264
 30
0.0
 70
    16
  0
SEQEND
  5
1D69184852
330
1D69184817
100
AcDbEntity
  8
JISSEN
 62
     0
  0
TEXT
  5
1D69184853
330
1D69183399
100
AcDbEntity
  8
TEXT
100
AcDbText
 10
288.8999972759999
 20
268.4999999999999
 30
0.0
 40
3.0
  1
名      称
  7
K
 72
     4
 11
297.499997276
 21
269.9999999999999
 31
0.0
100
AcDbText
  0
TEXT
  5
1D69184854
330
1D69183399
100
AcDbEntity
  8
TEXT
100
AcDbText
 10
287.7928544188571
 20
262.4999999999999
 30
0.0
 40
3.0
  1
DP 型ヘッド
 41
0.9
  7
K
 72
     4
 11
297.499997276
 21
263.9999999999999
 31
0.0
100
AcDbText
  0
TEXT
  5
1D69184855
330
1D69183399
100
AcDbEntity
  8
TEXT
100
AcDbText
 10
283.6142829902856
 20
256.4999999256194
 30
0.0
 40
3.0
  1
シーリングプレート S
 41
0.75
  7
K
 72
     4
 11
297.4999972759998
 21
257.9999999256194
 31
0.0
100
AcDbText
  0
TEXT
  5
1D69184856
330
1D69183399
100
AcDbEntity
  8
TEXT
100
AcDbText
 10
276.2857115617142
 20
262.4999999999999
 30
0.0
 40
3.0
  1
1
  7
K
 72
     4
 11
277.4999972759999
 21
263.9999999999999
 31
0.0
100
AcDbText
  0
LINE
  5
1D69184857
330
1D69183399
100
AcDbEntity
  8
JISSEN
100
AcDbLine
 10
272.4999972759998
 20
254.9999999256194
 30
0.0
 11
272.4999972759998
 21
272.9999999256194
 31
0.0
  0
LINE
  5
1D69184858
330
1D69183399
100
AcDbEntity
  8
JISSEN
100
AcDbLine
 10
282.4999972759998
 20
272.9999999256194
 30
0.0
 11
282.4999972759998
 21
254.9999999256194
 31
0.0
  0
LWPOLYLINE
  5
1D69184859
330
1D69183399
100
AcDbEntity
  8
NITEN
100
AcDbPolyline
 90
        2
 70
     0
 43
0.0
 10
289.9060302670197
 20
235.4490205605734
 42
0.5882352941176294
 10
272.9060302670196
 20
235.4490205605737
 42
0.5882352941176294
  0
TEXT
  5
1D6918485A
330
1D69183399
100
AcDbEntity
  8
TEXT
100
AcDbText
 10
276.3830696815342
 20
256.4999999256194
 30
0.0
 40
3.0
  1
2
  7
K
 72
     4
 11
277.8116411101056
 21
257.9999999256194
 31
0.0
100
AcDbText
  0
TEXT
  5
1D6918485B
330
1D69183399
100
AcDbEntity
  8
TEXT
100
AcDbText
 10
274.2999972759999
 20
268.4999999999999
 30
0.0
 40
3.0
  1
番号
  7
K
 72
     4
 11
277.4999972759999
 21
269.9999999999999
 31
0.0
100
AcDbText
  0
TEXT
  5
1D6918485C
330
1D69183399
100
AcDbEntity
  8
TEXT
100
AcDbText
 10
337.6795457624091
 20
262.4999999999999
 30
0.0
 40
3.0
  1
1
  7
K
 72
     4
 11
338.8938314766949
 21
263.9999999999999
 31
0.0
100
AcDbText
  0
LINE
  5
1D6918485D
330
1D69183399
100
AcDbEntity
  8
JISSEN
100
AcDbLine
 10
333.4999972759999
 20
254.9999999256194
 30
0.0
 11
333.4999972759999
 21
272.9999999256194
 31
0.0
  0
LINE
  5
1D6918485E
330
1D69183399
100
AcDbEntity
  8
JISSEN
100
AcDbLine
 10
344.4999972759999
 20
272.9999999256194
 30
0.0
 11
344.4999972759999
 21
254.9999999256194
 31
0.0
  0
LINE
  5
1D6918485F
330
1D69183399
100
AcDbEntity
  8
JISSEN
100
AcDbLine
 10
312.4999972759998
 20
272.9999999256194
 30
0.0
 11
312.4999972759998
 21
254.9999999256194
 31
0.0
  0
TEXT
  5
1D69184860
330
1D69183399
100
AcDbEntity
  8
TEXT
100
AcDbText
 10
317.8249972759999
 20
264.2999999999999
 30
0.0
 40
3.0
  1
%%u      
  7
K
 72
     4
 11
322.9999972759999
 21
263.9999999999999
 31
0.0
100
AcDbText
  0
TEXT
  5
1D69184861
330
1D69183399
100
AcDbEntity
  8
TEXT
100
AcDbText
 10
316.2142829902856
 20
256.4999999256194
 30
0.0
 40
3.0
  1
C2801
  7
K
 72
     4
 11
322.9999972759998
 21
257.9999999256194
 31
0.0
100
AcDbText
  0
TEXT
  5
1D69184862
330
1D69183399
100
AcDbEntity
  8
TEXT
100
AcDbText
 10
345.9571401331428
 20
256.4999999256194
 30
0.0
 40
3.0
  1
Crメッキ
  7
K
 72
     4
 11
353.4999972759999
 21
257.9999999256194
 31
0.0
100
AcDbText
  0
TEXT
  5
1D69184863
330
1D69183399
100
AcDbEntity
  8
TEXT
100
AcDbText
 10
337.6795457624091
 20
256.5808351019605
 30
0.0
 40
3.0
  1
1
  7
K
 72
     4
 11
338.8938314766949
 21
258.0808351019605
 31
0.0
100
AcDbText
  0
TEXT
  5
1D69184864
330
1D69183399
100
AcDbEntity
  8
TEXT
100
AcDbText
 10
316.1999972759999
 20
268.4999999999999
 30
0.0
 40
3.0
  1
材    質
  7
K
 72
     4
 11
322.9999972759999
 21
269.9999999999999
 31
0.0
100
AcDbText
  0
TEXT
  5
1D69184865
330
1D69183399
100
AcDbEntity
  8
TEXT
100
AcDbText
 10
346.6999972759999
 20
268.4999999999999
 30
0.0
 40
3.0
  1
備    考
  7
K
 72
     4
 11
353.4999972759999
 21
269.9999999999999
 31
0.0
100
AcDbText
  0
TEXT
  5
1D69184866
330
1D69183399
100
AcDbEntity
  8
TEXT
100
AcDbText
 10
335.7999972759999
 20
268.4999999999999
 30
0.0
 40
3.0
  1
個数
  7
K
 72
     4
 11
338.9999972759999
 21
269.9999999999999
 31
0.0
100
AcDbText
  0
LINE
  5
1D69184977
330
1D69183399
100
AcDbEntity
  8
JISSEN
100
AcDbLine
 10
59.499999
 20
181.4331099279988
 30
0.0
 11
119.499999
 21
181.4331099279988
 31
0.0
  0
LWPOLYLINE
  5
1D69184982
330
1D69183399
100
AcDbEntity
  8
JISSEN
100
AcDbPolyline
 90
        7
 70
     0
 43
0.0
 10
59.499999
 20
181.4331099279988
 42
0.15307
 10
74.42937599999999
 20
173.9839839279988
 42
-0.253147
 10
75.03315300000003
 20
173.5202969279988
 42
-0.020843
 10
75.07932600000003
 20
173.4041329279988
 42
0.318714
 10
76.44793199999998
 20
172.4331099279988
 10
76.749999
 20
172.4331099279988
 10
89.49999899999999
 20
172.4331099279988
  0
LWPOLYLINE
  5
1D691849E7
330
1D69183399
100
AcDbEntity
  8
JISSEN
100
AcDbPolyline
 90
        7
 70
     0
 43
0.0
 10
119.499999
 20
181.4331099279988
 42
-0.15307
 10
104.570622
 20
173.9839839279988
 42
0.253147
 10
103.9668449999999
 20
173.5202969279988
 42
0.020843
 10
103.9206719999999
 20
173.4041329279988
 42
-0.318714
 10
102.552066
 20
172.4331099279988
 10
102.249999
 20
172.4331099279988
 10
89.49999899999999
 20
172.4331099279988
  0
LWPOLYLINE
  5
1D69184A51
330
1D69183399
100
AcDbEntity
  8
JISSEN
100
AcDbPolyline
 90
        8
 70
     0
 43
0.0
 10
302.9060302670202
 20
177.0577396729261
 42
-0.15307
 10
287.9766532670203
 20
169.6086136729261
 42
0.253147
 10
287.3728752670202
 20
169.1449266729261
 42
0.020843
 10
287.3267022670202
 20
169.0287626729261
 42
-0.318714
 10
285.9580972670203
 20
168.0577396729261
 10
285.6560302670203
 20
168.0577396729261
 42
-0.4142140000000001
 10
283.6560302670203
 20
170.0577396729261
 10
283.6560302670203
 20
171.0577396729261
  0
LWPOLYLINE
  5
1D69184A53
330
1D69183399
100
AcDbEntity
  8
JISSEN
100
AcDbPolyline
 90
        8
 70
     0
 43
0.0
 10
301.4343242670202
 20
177.0577396729261
 42
-0.142996
 10
287.8182912670203
 20
170.5959956729261
 42
0.253147
 10
286.4597912670203
 20
169.5526986729261
 42
0.020843
 10
286.3828362670203
 20
169.3590916729261
 42
-0.318714
 10
285.9580972670203
 20
169.0577396729261
 10
285.6560302670203
 20
169.0577396729261
 42
-0.4142140000000001
 10
284.6560302670202
 20
170.0577396729261
 10
284.6560302670202
 20
171.0577396729261
  0
LWPOLYLINE
  5
1D69184A69
330
1D69183399
100
AcDbEntity
  8
JISSEN
100
AcDbPolyline
 90
        8
 70
     0
 43
0.0
 10
244.3777362670203
 20
177.0577396729261
 42
0.142996
 10
257.9937692670203
 20
170.5959956729261
 42
-0.253147
 10
259.3522692670203
 20
169.5526986729261
 42
-0.020843
 10
259.4292242670202
 20
169.3590916729261
 42
0.318714
 10
259.8539632670202
 20
169.0577396729261
 10
260.1560302670203
 20
169.0577396729261
 42
0.4142140000000001
 10
261.1560302670203
 20
170.0577396729261
 10
261.1560302670203
 20
171.0577396729261
  0
LWPOLYLINE
  5
1D69184A6A
330
1D69183399
100
AcDbEntity
  8
JISSEN
100
AcDbPolyline
 90
        8
 70
     0
 43
0.0
 10
242.9060302670202
 20
177.0577396729261
 42
0.15307
 10
257.8354072670202
 20
169.6086136729261
 42
-0.253147
 10
258.4391852670203
 20
169.1449266729261
 42
-0.020843
 10
258.4853582670203
 20
169.0287626729261
 42
0.318714
 10
259.8539632670202
 20
168.0577396729261
 10
260.1560302670203
 20
168.0577396729261
 42
0.4142140000000001
 10
262.1560302670203
 20
170.0577396729261
 10
262.1560302670203
 20
171.0577396729261
  0
LINE
  5
1D69184A6D
330
1D69183399
100
AcDbEntity
  8
JISSEN
100
AcDbLine
 10
284.6560302670202
 20
171.0577396729261
 30
0.0
 11
283.6560302670203
 21
171.0577396729261
 31
0.0
  0
LINE
  5
1D69184A6E
330
1D69183399
100
AcDbEntity
  8
JISSEN
100
AcDbLine
 10
262.1560302670203
 20
171.0577396729261
 30
0.0
 11
261.1560302670203
 21
171.0577396729261
 31
0.0
  0
LWPOLYLINE
  5
1D69184AB4
330
1D69183399
100
AcDbEntity
  8
JISSEN
100
AcDbPolyline
 90
        6
 70
     0
 43
0.0
 10
242.9060302670202
 20
82.05773967292614
 42
0.1530699999999999
 10
257.8354072670202
 20
74.60861367292617
 42
-0.253147
 10
258.4391852670203
 20
74.14492667292615
 42
-0.020843
 10
258.4853582670203
 20
74.02876267292615
 42
0.318714
 10
259.8539632670202
 20
73.05773967292615
 10
260.1560302670203
 20
73.05773967292615
  0
LWPOLYLINE
  5
1D69184AB7
330
1D69183399
100
AcDbEntity
  8
JISSEN
100
AcDbPolyline
 90
        6
 70
     0
 43
0.0
 10
302.9060302670202
 20
82.05773967292614
 42
-0.1530699999999999
 10
287.9766532670203
 20
74.60861367292617
 42
0.253147
 10
287.3728752670202
 20
74.14492667292615
 42
0.020843
 10
287.3267022670202
 20
74.02876267292615
 42
-0.318714
 10
285.9580972670203
 20
73.05773967292615
 10
285.6560302670203
 20
73.05773967292615
  0
ARC
  5
1D69184AFB
330
1D69183399
100
AcDbEntity
  8
JISSEN
100
AcDbCircle
 10
283.8799009899442
 20
65.52028445041855
 30
0.0
 40
5.0
100
AcDbArc
 50
53.31701119964019
 51
75.32091994780405
  0
LINE
  5
1D69184AFC
330
1D69183399
100
AcDbEntity
  8
JISSEN
100
AcDbLine
 10
280.4060302670195
 20
69.50075400370389
 30
0.0
 11
280.4060302670195
 21
67.70075400370382
 31
0.0
  0
LINE
  5
1D69184AFD
330
1D69183399
100
AcDbEntity
  8
JISSEN
100
AcDbLine
 10
278.90603026702
 20
66.28834053887146
 30
0.0
 11
280.4060302670195
 21
66.28834053887146
 31
0.0
  0
LINE
  5
1D69184AFE
330
1D69183399
100
AcDbEntity
  8
JISSEN
100
AcDbLine
 10
279.4041447575027
 20
66.28834053887146
 30
0.0
 11
280.2368317706732
 21
66.76909261007637
 31
0.0
  0
ARC
  5
1D69184AFF
330
1D69183399
100
AcDbEntity
  8
JISSEN
100
AcDbCircle
 10
280.6560302670195
 20
66.49656257382173
 30
0.0
 40
0.5
100
AcDbArc
 50
75.15978516148199
 51
146.9712311280871
  0
LINE
  5
1D69184B00
330
1D69183399
100
AcDbEntity
  8
JISSEN
100
AcDbLine
 10
280.4060302670195
 20
66.28834053887146
 30
0.0
 11
280.4060302670195
 21
63.6883405388715
 31
0.0
  0
LINE
  5
1D69184B01
330
1D69183399
100
AcDbEntity
  8
JISSEN
100
AcDbLine
 10
277.4471930071888
 20
51.08834053887076
 30
0.0
 11
277.4471930071888
 21
54.83834053887076
 31
0.0
  0
LINE
  5
1D69184B02
330
1D69183399
100
AcDbEntity
  8
JISSEN
100
AcDbLine
 10
280.4471930071888
 20
49.83834053887076
 30
0.0
 11
280.4471930071888
 21
54.83834053887076
 31
0.0
  0
ARC
  5
1D69184B03
330
1D69183399
100
AcDbEntity
  8
JISSEN
100
AcDbCircle
 10
277.9667252193437
 20
56.34680206627547
 30
0.0
 40
11.0
100
AcDbArc
 50
6.021677192634145
 51
75.15978516148199
  0
ARC
  5
1D69184B04
330
1D69183399
100
AcDbEntity
  8
JISSEN
100
AcDbCircle
 10
280.1172770505419
 20
56.89909628085922
 30
0.0
 40
10.80551655320168
100
AcDbArc
 50
3.191914576125987
 51
88.46871639638065
  0
ARC
  5
1D69184B05
330
1D69183399
100
AcDbEntity
  8
JISSEN
100
AcDbCircle
 10
277.9060302670195
 20
57.50075400370389
 30
0.0
 40
15.0
100
AcDbArc
 50
0.0
 51
53.31701119964019
  0
ARC
  5
1D69184B06
330
1D69183399
100
AcDbEntity
  8
JISSEN
100
AcDbCircle
 10
286.7937787986879
 20
76.64387133208021
 30
0.0
 40
6.498907295833106
100
AcDbArc
 50
219.1009608744954
 51
255.3209199478007
  0
LINE
  5
1D69184B07
330
1D69183399
100
AcDbEntity
  8
JISSEN
100
AcDbLine
 10
281.1054917542524
 20
73.05773967292615
 30
0.0
 11
281.1054917542524
 21
69.50075400370389
 31
0.0
  0
ARC
  5
1D69184B08
330
1D69183399
100
AcDbEntity
  8
JISSEN
100
AcDbCircle
 10
277.9060302670195
 20
57.50075400370389
 30
0.0
 40
17.0
100
AcDbArc
 50
0.0
 51
66.22232022148079
  0
LINE
  5
1D69184B0A
330
1D69183399
100
AcDbEntity
  8
JISSEN
100
AcDbLine
 10
275.9060302670195
 20
72.21002837535076
 30
0.0
 11
275.9060302670195
 21
70.81002837535078
 31
0.0
  0
ARC
  5
1D69184B0B
330
1D69183399
100
AcDbEntity
  8
JISSEN
100
AcDbCircle
 10
275.6060302670196
 20
72.21002837535076
 30
0.0
 40
0.3
100
AcDbArc
 50
0.0
 51
90.0
  0
LINE
  5
1D69184B0D
330
1D69183399
100
AcDbEntity
  8
JISSEN
100
AcDbLine
 10
270.2060302670195
 20
72.51002837535077
 30
0.0
 11
275.6060302670196
 21
72.51002837535077
 31
0.0
  0
LINE
  5
1D69184B0E
330
1D69183399
100
AcDbEntity
  8
JISSEN
100
AcDbLine
 10
269.9060302670195
 20
70.81002837535078
 30
0.0
 11
269.9060302670195
 21
72.21002837535076
 31
0.0
  0
ARC
  5
1D69184B11
330
1D69183399
100
AcDbEntity
  8
JISSEN
100
AcDbCircle
 10
270.2060302670195
 20
72.21002837535076
 30
0.0
 40
0.3
100
AcDbArc
 50
90.0
 51
180.0
  0
ARC
  5
1D69184B1A
330
1D69183399
100
AcDbEntity
  8
JISSEN
100
AcDbCircle
 10
281.1560302670195
 20
68.72758627575774
 30
0.0
 40
7.0
100
AcDbArc
 50
180.0
 51
203.0367096452357
  0
LINE
  5
1D69184B1B
330
1D69183399
100
AcDbEntity
  8
JISSEN
100
AcDbLine
 10
275.6060302670196
 20
70.51002837535077
 30
0.0
 11
274.1560302670195
 21
70.51002837535077
 31
0.0
  0
LINE
  5
1D69184B1C
330
1D69183399
100
AcDbEntity
  8
JISSEN
100
AcDbLine
 10
274.4060302670195
 20
69.50075400370389
 30
0.0
 11
274.4060302670195
 21
67.70075400370382
 31
0.0
  0
LINE
  5
1D69184B1D
330
1D69183399
100
AcDbEntity
  8
JISSEN
100
AcDbLine
 10
274.1560302670195
 20
70.51002837535077
 30
0.0
 11
274.1560302670195
 21
68.72758627575774
 31
0.0
  0
LINE
  5
1D69184B1E
330
1D69183399
100
AcDbEntity
  8
JISSEN
100
AcDbLine
 10
271.6560302670195
 20
70.51002837535077
 30
0.0
 11
270.2060302670195
 21
70.51002837535077
 31
0.0
  0
LINE
  5
1D69184B1F
330
1D69183399
100
AcDbEntity
  8
JISSEN
100
AcDbLine
 10
271.4060302670195
 20
67.70075400370382
 30
0.0
 11
271.4060302670195
 21
69.50075400370389
 31
0.0
  0
ARC
  5
1D69184B20
330
1D69183399
100
AcDbEntity
  8
JISSEN
100
AcDbCircle
 10
264.6560302670195
 20
68.72758627575774
 30
0.0
 40
7.0
100
AcDbArc
 50
336.9632903547645
 51
0.0
  0
LINE
  5
1D69184B21
330
1D69183399
100
AcDbEntity
  8
JISSEN
100
AcDbLine
 10
271.6560302670195
 20
70.51002837535077
 30
0.0
 11
271.6560302670195
 21
68.72758627575774
 31
0.0
  0
ARC
  5
1D69184B22
330
1D69183399
100
AcDbEntity
  8
JISSEN
100
AcDbCircle
 10
272.7853104984856
 20
72.68668535087844
 30
0.0
 40
9.4
100
AcDbArc
 50
275.8503503011665
 51
286.774744264095
  0
ARC
  5
1D69184B23
330
1D69183399
100
AcDbEntity
  8
JISSEN
100
AcDbCircle
 10
274.6471930071888
 20
59.7558737563343
 30
0.0
 40
0.3
100
AcDbArc
 50
0.0
 51
80.40593177313514
  0
ARC
  5
1D69184B24
330
1D69183399
100
AcDbEntity
  8
JISSEN
100
AcDbCircle
 10
271.2471930071888
 20
59.7558737563343
 30
0.0
 40
0.3
100
AcDbArc
 50
99.59406822683844
 51
180.0
  0
LINE
  5
1D69184B25
330
1D69183399
100
AcDbEntity
  8
JISSEN
100
AcDbLine
 10
273.7434575543833
 20
63.33564507616731
 30
0.0
 11
271.8271634425876
 21
63.33564507616713
 31
0.0
  0
LINE
  5
1D69184B26
330
1D69183399
100
AcDbEntity
  8
JISSEN
100
AcDbLine
 10
271.1971930071888
 20
60.32839420150114
 30
0.0
 11
274.6971930071889
 21
60.32839420150114
 31
0.0
  0
LINE
  5
1D69184B27
330
1D69183399
100
AcDbEntity
  8
JISSEN
100
AcDbLine
 10
265.4060302670195
 20
69.50075400370389
 30
0.0
 11
265.4060302670195
 21
67.70075400370382
 31
0.0
  0
ARC
  5
1D69184B28
330
1D69183399
100
AcDbEntity
  8
JISSEN
100
AcDbCircle
 10
265.1560302670195
 20
66.49656257382173
 30
0.0
 40
0.5
100
AcDbArc
 50
33.0287688719123
 51
104.840214838518
  0
LINE
  5
1D69184B29
330
1D69183399
100
AcDbEntity
  8
JISSEN
100
AcDbLine
 10
266.4079157765363
 20
66.28834053887146
 30
0.0
 11
265.5752287633668
 21
66.7690926100758
 31
0.0
  0
LINE
  5
1D69184B2A
330
1D69183399
100
AcDbEntity
  8
JISSEN
100
AcDbLine
 10
266.9060302670191
 20
66.28834053887146
 30
0.0
 11
265.4060302670195
 21
66.28834053887146
 31
0.0
  0
LINE
  5
1D69184B2B
330
1D69183399
100
AcDbEntity
  8
JISSEN
100
AcDbLine
 10
265.4060302670195
 20
66.28834053887146
 30
0.0
 11
265.4060302670195
 21
63.6883405388715
 31
0.0
  0
LINE
  5
1D69184B2C
330
1D69183399
100
AcDbEntity
  8
JISSEN
100
AcDbLine
 10
266.9060302670191
 20
66.28834053887164
 30
0.0
 11
271.2172862622603
 21
66.28834053887152
 31
0.0
  0
LINE
  5
1D69184B2D
330
1D69183399
100
AcDbEntity
  8
JISSEN
100
AcDbLine
 10
265.4060302670195
 20
65.98834053887145
 30
0.0
 11
272.9060302670195
 21
65.98834053887145
 31
0.0
  0
LINE
  5
1D69184B2E
330
1D69183399
100
AcDbEntity
  8
JISSEN
100
AcDbLine
 10
265.4060302670195
 20
67.70075400370382
 30
0.0
 11
271.4060302670195
 21
67.70075400370382
 31
0.0
  0
LINE
  5
1D69184B2F
330
1D69183399
100
AcDbEntity
  8
JISSEN
100
AcDbLine
 10
265.6560302670195
 20
66.72244184019092
 30
0.0
 11
271.3626982767331
 21
66.72244184019092
 31
0.0
  0
LINE
  5
1D69184B30
330
1D69183399
100
AcDbEntity
  8
JISSEN
100
AcDbLine
 10
264.7065687797868
 20
69.50075400370389
 30
0.0
 11
271.4060302670195
 21
69.50075400370389
 31
0.0
  0
ARC
  5
1D69184B31
330
1D69183399
100
AcDbEntity
  8
JISSEN
100
AcDbCircle
 10
272.7853104984856
 20
72.68668535087844
 30
0.0
 40
9.4
100
AcDbArc
 50
253.2252557359049
 51
264.1496496988334
  0
ARC
  5
1D69184B32
330
1D69183399
100
AcDbEntity
  8
JISSEN
100
AcDbCircle
 10
272.9471930071891
 20
62.32990484111408
 30
0.0
 40
5.0
100
AcDbArc
 50
296.320809821608
 51
300.0
  0
ARC
  5
1D69184B33
330
1D69183399
100
AcDbEntity
  8
JISSEN
100
AcDbCircle
 10
274.3776293595781
 20
53.99998619556365
 30
0.0
 40
3.927849752435279
100
AcDbArc
 50
76.34089481470343
 51
81.43738781850339
  0
ARC
  5
1D69184B34
330
1D69183399
100
AcDbEntity
  8
JISSEN
100
AcDbCircle
 10
273.5232831480983
 20
48.32584528187746
 30
0.0
 40
9.665948963623366
100
AcDbArc
 50
81.43738781850339
 51
83.02432371701215
  0
LINE
  5
1D69184B35
330
1D69183399
100
AcDbEntity
  8
JISSEN
100
AcDbLine
 10
275.7971930071889
 20
57.1908344685776
 30
0.0
 11
275.7971930071889
 21
55.50306624188087
 31
0.0
  0
ARC
  5
1D69184B36
330
1D69183399
100
AcDbEntity
  8
JISSEN
100
AcDbCircle
 10
275.1530619368783
 20
57.1908344685776
 30
0.0
 40
0.6441310703106079
100
AcDbArc
 50
0.0
 51
76.34089481470343
  0
ARC
  5
1D69184B37
330
1D69183399
100
AcDbEntity
  8
JISSEN
100
AcDbCircle
 10
273.7191256800112
 20
30.68804693931665
 30
0.0
 40
24.90306398982923
100
AcDbArc
 50
85.67111797138881
 51
87.86241385819122
  0
ARC
  5
1D69184B38
330
1D69183399
100
AcDbEntity
  8
JISSEN
100
AcDbCircle
 10
274.8439228593505
 20
45.54718569020955
 30
0.0
 40
10.00141397672878
100
AcDbArc
 50
79.64350735096406
 51
85.67111797138881
  0
LINE
  5
1D69184B39
330
1D69183399
100
AcDbEntity
  8
JISSEN
100
AcDbLine
 10
276.697268164227
 20
54.2064153514813
 30
0.0
 11
276.697268164227
 21
54.51043210239967
 31
0.0
  0
LINE
  5
1D69184B3A
330
1D69183399
100
AcDbEntity
  8
JISSEN
100
AcDbLine
 10
276.6971930071889
 20
54.50898057363545
 30
0.0
 11
276.6971930071889
 21
55.31934487736439
 31
0.0
  0
ARC
  5
1D69184B3B
330
1D69183399
100
AcDbEntity
  8
JISSEN
100
AcDbCircle
 10
276.6297803462802
 20
55.31934487736433
 30
0.0
 40
0.0674126609086159
100
AcDbArc
 50
0.0000000000244267
 51
79.64350735095742
  0
LINE
  5
1D69184B3C
330
1D69183399
100
AcDbEntity
  8
JISSEN
100
AcDbLine
 10
275.6741626988974
 20
58.53834053887076
 30
0.0
 11
275.1471930071888
 21
58.53834053887076
 31
0.0
  0
ARC
  5
1D69184B3D
330
1D69183399
100
AcDbEntity
  8
JISSEN
100
AcDbCircle
 10
275.1471930071888
 20
58.73834053887074
 30
0.0
 40
0.2
100
AcDbArc
 50
180.0
 51
270.0
  0
LINE
  5
1D69184B3E
330
1D69183399
100
AcDbEntity
  8
JISSEN
100
AcDbLine
 10
276.209149015308
 20
58.43969332858993
 30
0.0
 11
275.4471930071892
 21
57.99977782219187
 31
0.0
  0
ARC
  5
1D69184B3F
330
1D69183399
100
AcDbEntity
  8
JISSEN
100
AcDbCircle
 10
271.5167566547996
 20
53.99998619556388
 30
0.0
 40
3.927849752435048
100
AcDbArc
 50
98.56261218149661
 51
103.6591051852965
  0
ARC
  5
1D69184B40
330
1D69183399
100
AcDbEntity
  8
JISSEN
100
AcDbCircle
 10
272.9471930071891
 20
62.32990484111408
 30
0.0
 40
5.0
100
AcDbArc
 50
239.9999999999999
 51
243.6791901783919
  0
LINE
  5
1D69184B41
330
1D69183399
100
AcDbEntity
  8
JISSEN
100
AcDbLine
 10
270.0971930071889
 20
55.50306624188081
 30
0.0
 11
270.0971930071889
 21
57.1908344685776
 31
0.0
  0
ARC
  5
1D69184B42
330
1D69183399
100
AcDbEntity
  8
JISSEN
100
AcDbCircle
 10
272.3711028662787
 20
48.32584528187701
 30
0.0
 40
9.665948963623709
100
AcDbArc
 50
96.97567628298457
 51
98.56261218149002
  0
ARC
  5
1D69184B43
330
1D69183399
100
AcDbEntity
  8
JISSEN
100
AcDbCircle
 10
272.1752603343658
 20
30.68804693931494
 30
0.0
 40
24.90306398983088
100
AcDbArc
 50
92.13758614180552
 51
94.32888202860793
  0
ARC
  5
1D69184B44
330
1D69183399
100
AcDbEntity
  8
JISSEN
100
AcDbCircle
 10
270.7471930071888
 20
58.73834053887074
 30
0.0
 40
0.2
100
AcDbArc
 50
270.0
 51
0.0
  0
LINE
  5
1D69184B45
330
1D69183399
100
AcDbEntity
  8
JISSEN
100
AcDbLine
 10
270.2202233154802
 20
58.53834053887076
 30
0.0
 11
270.7471930071888
 21
58.53834053887076
 31
0.0
  0
LINE
  5
1D69184B46
330
1D69183399
100
AcDbEntity
  8
JISSEN
100
AcDbLine
 10
274.6971930071889
 20
57.81602369990506
 30
0.0
 11
271.1971930071888
 21
57.81602369990506
 31
0.0
  0
LINE
  5
1D69184B47
330
1D69183399
100
AcDbEntity
  8
JISSEN
100
AcDbLine
 10
274.6971930071889
 20
58.59919484006915
 30
0.0
 11
271.1971930071888
 21
58.59919484006915
 31
0.0
  0
LINE
  5
1D69184B48
330
1D69183399
100
AcDbEntity
  8
JISSEN
100
AcDbLine
 10
276.697268164227
 20
53.17325137269804
 30
0.0
 11
276.697268164227
 21
53.50198515326766
 31
0.0
  0
ARC
  5
1D69184B49
330
1D69183399
100
AcDbEntity
  8
JISSEN
100
AcDbCircle
 10
275.5721930071888
 20
49.88834053887078
 30
0.0
 40
1.199999999999999
100
AcDbArc
 50
248.5767027521151
 51
270.0
  0
ARC
  5
1D69184B4A
330
1D69183399
100
AcDbEntity
  8
JISSEN
100
AcDbCircle
 10
273.7191256800129
 20
74.0837282959545
 30
0.0
 40
24.90306398982813
100
AcDbArc
 50
273.1830548881973
 51
274.2673930577966
  0
ARC
  5
1D69184B4B
330
1D69183399
100
AcDbEntity
  8
JISSEN
100
AcDbCircle
 10
273.7191256800134
 20
24.82113241985993
 30
0.0
 40
24.90306398982914
100
AcDbArc
 50
85.67111797139208
 51
86.89405938558067
  0
LINE
  5
1D69184B4C
330
1D69183399
100
AcDbEntity
  8
JISSEN
100
AcDbLine
 10
275.9471930071888
 20
49.58834053887077
 30
0.0
 11
275.5721930071888
 21
49.58834053887077
 31
0.0
  0
ARC
  5
1D69184B4D
330
1D69183399
100
AcDbEntity
  8
JISSEN
100
AcDbCircle
 10
274.8439228593507
 20
39.68027117075277
 30
0.0
 40
10.00141397672887
100
AcDbArc
 50
82.63190280820792
 51
85.67111797138881
  0
LINE
  5
1D69184B4E
330
1D69183399
100
AcDbEntity
  8
JISSEN
100
AcDbLine
 10
276.6971930071889
 20
49.78930243319414
 30
0.0
 11
276.6971930071889
 21
53.17673949060335
 31
0.0
  0
ARC
  5
1D69184B4F
330
1D69183399
100
AcDbEntity
  8
JISSEN
100
AcDbCircle
 10
272.1752603343645
 20
24.82113241985928
 30
0.0
 40
24.90306398982979
100
AcDbArc
 50
93.10594061441934
 51
94.32888202860793
  0
ARC
  5
1D69184B50
330
1D69183399
100
AcDbEntity
  8
JISSEN
100
AcDbCircle
 10
272.1752603343674
 20
74.08372829595785
 30
0.0
 40
24.90306398983168
100
AcDbArc
 50
265.7326069421967
 51
266.816945111796
  0
ARC
  5
1D69184B51
330
1D69183399
100
AcDbEntity
  8
JISSEN
100
AcDbCircle
 10
270.3221930071888
 20
49.88834053887078
 30
0.0
 40
1.199999999999999
100
AcDbArc
 50
270.0
 51
291.4232972478953
  0
LINE
  5
1D69184B52
330
1D69183399
100
AcDbEntity
  8
JISSEN
100
AcDbLine
 10
276.6971930071889
 20
53.48512872220098
 30
0.0
 11
276.6971930071889
 21
54.20241065242518
 31
0.0
  0
LINE
  5
1D69184B53
330
1D69183399
100
AcDbEntity
  8
JISSEN
100
AcDbLine
 10
269.1971930071888
 20
54.20241065242518
 30
0.0
 11
269.1971930071888
 21
54.50898057363545
 31
0.0
  0
LINE
  5
1D69184B54
330
1D69183399
100
AcDbEntity
  8
JISSEN
100
AcDbLine
 10
269.197193007298
 20
54.50898055141172
 30
0.0
 11
269.197193007298
 21
54.50898062774669
 31
0.0
  0
LINE
  5
1D69184B55
330
1D69183399
100
AcDbEntity
  8
JISSEN
100
AcDbLine
 10
269.1971930071888
 20
55.31934487736439
 30
0.0
 11
269.1971930071888
 21
54.50898057363545
 31
0.0
  0
ARC
  5
1D69184B56
330
1D69183399
100
AcDbEntity
  8
JISSEN
100
AcDbCircle
 10
278.9471930071888
 20
54.83834053887076
 30
0.0
 40
10.5
100
AcDbArc
 50
165.8509954910652
 51
180.0
  0
ARC
  5
1D69184B57
330
1D69183399
100
AcDbEntity
  8
JISSEN
100
AcDbCircle
 10
269.2646056680974
 20
55.31934487736439
 30
0.0
 40
0.0674126609085717
100
AcDbArc
 50
100.3564926490458
 51
180.0000000000244
  0
LINE
  5
1D69184B58
330
1D69183399
100
AcDbEntity
  8
JISSEN
100
AcDbLine
 10
269.1971930071606
 20
53.485128721807
 30
0.0
 11
269.1971930071606
 21
53.48512872234883
 31
0.0
  0
LINE
  5
1D69184B59
330
1D69183399
100
AcDbEntity
  8
JISSEN
100
AcDbLine
 10
269.1971930071888
 20
53.17673949060335
 30
0.0
 11
269.1971930071888
 21
53.48512872220098
 31
0.0
  0
ARC
  5
1D69184B5A
330
1D69183399
100
AcDbEntity
  8
JISSEN
100
AcDbCircle
 10
269.9471930071888
 20
51.08834053887076
 30
0.0
 40
1.5
100
AcDbArc
 50
180.0
 51
270.0
  0
LINE
  5
1D69184B5B
330
1D69183399
100
AcDbEntity
  8
JISSEN
100
AcDbLine
 10
269.1971930071888
 20
53.17673949060335
 30
0.0
 11
269.1971930071888
 21
49.78930243319396
 31
0.0
  0
LINE
  5
1D69184B5C
330
1D69183399
100
AcDbEntity
  8
JISSEN
100
AcDbLine
 10
269.1971930071888
 20
54.20241065242518
 30
0.0
 11
269.1971930071888
 21
53.48512872220098
 31
0.0
  0
LINE
  5
1D69184B5D
330
1D69183399
100
AcDbEntity
  8
JISSEN
100
AcDbLine
 10
268.4471930071888
 20
51.08834053887076
 30
0.0
 11
268.4471930071888
 21
54.83834053887076
 31
0.0
  0
LINE
  5
1D69184B5E
330
1D69183399
100
AcDbEntity
  8
JISSEN
100
AcDbLine
 10
265.4471930071888
 20
49.83834053887076
 30
0.0
 11
265.4471930071888
 21
54.83834053887076
 31
0.0
  0
ARC
  5
1D69184B5F
330
1D69183399
100
AcDbEntity
  8
JISSEN
100
AcDbCircle
 10
270.7413240774995
 20
57.1908344685776
 30
0.0
 40
0.6441310703106079
100
AcDbArc
 50
103.6591051852965
 51
180.0
  0
ARC
  5
1D69184B60
330
1D69183399
100
AcDbEntity
  8
JISSEN
100
AcDbCircle
 10
271.050463155027
 20
45.54718569021102
 30
0.0
 40
10.00141397672728
100
AcDbArc
 50
94.32888202861118
 51
100.3564926490359
  0
LINE
  5
1D69184B61
330
1D69183399
100
AcDbEntity
  8
JISSEN
100
AcDbLine
 10
269.9471930071888
 20
49.58834053887077
 30
0.0
 11
270.3221930071888
 21
49.58834053887077
 31
0.0
  0
ARC
  5
1D69184B62
330
1D69183399
100
AcDbEntity
  8
JISSEN
100
AcDbCircle
 10
271.0504631550278
 20
39.68027117075436
 30
0.0
 40
10.00141397672734
100
AcDbArc
 50
94.32888202861446
 51
97.36809719179866
  0
LINE
  5
1D69184B63
330
1D69183399
100
AcDbEntity
  8
JISSEN
100
AcDbLine
 10
269.6852369990702
 20
58.43969332858998
 30
0.0
 11
270.4471930071891
 21
57.99977782219187
 31
0.0
  0
ARC
  5
1D69184B64
330
1D69183399
100
AcDbEntity
  8
JISSEN
100
AcDbCircle
 10
270.2202233154802
 20
57.03834053887075
 30
0.0
 40
1.5
100
AcDbArc
 50
90.0
 51
165.8509954910652
  0
LINE
  5
1D69184B65
330
1D69183399
100
AcDbEntity
  8
JISSEN
100
AcDbLine
 10
274.6971930071889
 20
60.32839420150114
 30
0.0
 11
274.6971930071889
 21
57.81602369990506
 31
0.0
  0
LINE
  5
1D69184B66
330
1D69183399
100
AcDbEntity
  8
JISSEN
100
AcDbLine
 10
271.1971930071888
 20
57.81602369990506
 30
0.0
 11
271.1971930071888
 21
60.32839420150114
 31
0.0
  0
LINE
  5
1D69184B67
330
1D69183399
100
AcDbEntity
  8
JISSEN
100
AcDbLine
 10
274.9471930071888
 20
58.73834053887074
 30
0.0
 11
274.9471930071888
 21
61.55167774548866
 31
0.0
  0
LINE
  5
1D69184B68
330
1D69183399
100
AcDbEntity
  8
JISSEN
100
AcDbLine
 10
270.9471930071888
 20
58.73834053887074
 30
0.0
 11
270.9471930071888
 21
61.55167774548866
 31
0.0
  0
ARC
  5
1D69184B69
330
1D69183399
100
AcDbEntity
  8
JISSEN
100
AcDbCircle
 10
278.9471930071888
 20
54.83834053887076
 30
0.0
 40
13.5
100
AcDbArc
 50
139.0382114476455
 51
180.0
  0
ARC
  5
1D69184B6A
330
1D69183399
100
AcDbEntity
  8
JISSEN
100
AcDbCircle
 10
261.9321595440949
 20
65.52028445041855
 30
0.0
 40
5.0
100
AcDbArc
 50
104.6790800521959
 51
126.6829888003598
  0
ARC
  5
1D69184B6B
330
1D69183399
100
AcDbEntity
  8
JISSEN
100
AcDbCircle
 10
267.9060302670195
 20
57.50075400370389
 30
0.0
 40
15.0
100
AcDbArc
 50
126.6829888003598
 51
180.0
  0
ARC
  5
1D69184B6C
330
1D69183399
100
AcDbEntity
  8
JISSEN
100
AcDbCircle
 10
267.8453353146953
 20
56.34680206627547
 30
0.0
 40
11.0
100
AcDbArc
 50
104.840214838518
 51
173.9783228073658
  0
ARC
  5
1D69184B6D
330
1D69183399
100
AcDbEntity
  8
JISSEN
100
AcDbCircle
 10
265.6947834834972
 20
56.89909628085922
 30
0.0
 40
10.80551655320168
100
AcDbArc
 50
91.53128360361938
 51
176.8080854238748
  0
ARC
  5
1D69184B6E
330
1D69183399
100
AcDbEntity
  8
JISSEN
100
AcDbCircle
 10
275.6060302670196
 20
70.81002837535073
 30
0.0
 40
0.3
100
AcDbArc
 50
270.0
 51
0.0
  0
LINE
  5
1D69184B6F
330
1D69183399
100
AcDbEntity
  8
JISSEN
100
AcDbLine
 10
276.9060302670195
 20
69.50075400370389
 30
0.0
 11
276.9060302670195
 21
73.05773967292615
 31
0.0
  0
ARC
  5
1D69184B70
330
1D69183399
100
AcDbEntity
  8
JISSEN
100
AcDbCircle
 10
270.2060302670195
 20
70.81002837535073
 30
0.0
 40
0.3
100
AcDbArc
 50
180.0
 51
270.0
  0
ARC
  5
1D69184B71
330
1D69183399
100
AcDbEntity
  8
JISSEN
100
AcDbCircle
 10
259.0182817353513
 20
76.64387133208021
 30
0.0
 40
6.498907295833106
100
AcDbArc
 50
284.6790800521959
 51
320.8990391255045
  0
TEXT
  5
1D69184B72
330
1D69183399
100
AcDbEntity
  8
JISSEN
100
AcDbText
 10
268.4238146436847
 20
72.95942253733215
 30
0.0
 40
3.0
  1
D
 50
180.0
  7
K
 72
     4
 11
266.8523860722562
 21
71.45942253733216
 31
0.0
100
AcDbText
  0
LINE
  5
1D69184B73
330
1D69183399
100
AcDbEntity
  8
JISSEN
100
AcDbLine
 10
268.9060302670195
 20
69.50075400370389
 30
0.0
 11
268.9060302670195
 21
73.05773967292615
 31
0.0
  0
LINE
  5
1D69184B74
330
1D69183399
100
AcDbEntity
  8
JISSEN
100
AcDbLine
 10
264.7065687797868
 20
73.05773967292615
 30
0.0
 11
264.7065687797868
 21
69.50075400370389
 31
0.0
  0
ARC
  5
1D69184B75
330
1D69183399
100
AcDbEntity
  8
JISSEN
100
AcDbCircle
 10
266.9471930071888
 20
54.83834053887076
 30
0.0
 40
10.5
100
AcDbArc
 50
0.0
 51
14.14900450893472
  0
ARC
  5
1D69184B76
330
1D69183399
100
AcDbEntity
  8
JISSEN
100
AcDbCircle
 10
275.9471930071888
 20
51.08834053887076
 30
0.0
 40
1.5
100
AcDbArc
 50
270.0
 51
0.0
  0
LINE
  5
1D69184B77
330
1D69183399
100
AcDbEntity
  8
JISSEN
100
AcDbLine
 10
277.9036299033535
 20
62.72544967596011
 30
0.0
 11
267.990756111024
 21
62.72544967596016
 31
0.0
  0
ARC
  5
1D69184B78
330
1D69183399
100
AcDbEntity
  8
JISSEN
100
AcDbCircle
 10
275.6741626988974
 20
57.03834053887075
 30
0.0
 40
1.5
100
AcDbArc
 50
14.14900450893472
 51
90.0
  0
LINE
  5
1D69184B7A
330
1D69183399
100
AcDbEntity
  8
JISSEN
100
AcDbLine
 10
280.1560302670195
 20
66.72244184019092
 30
0.0
 11
274.449362257306
 21
66.72244184019092
 31
0.0
  0
LINE
  5
1D69184B7B
330
1D69183399
100
AcDbEntity
  8
JISSEN
100
AcDbLine
 10
278.90603026702
 20
66.28834053887164
 30
0.0
 11
274.5947742717787
 21
66.28834053887152
 31
0.0
  0
LINE
  5
1D69184B7C
330
1D69183399
100
AcDbEntity
  8
JISSEN
100
AcDbLine
 10
280.4060302670195
 20
67.70075400370382
 30
0.0
 11
274.4060302670195
 21
67.70075400370382
 31
0.0
  0
LINE
  5
1D69184B7D
330
1D69183399
100
AcDbEntity
  8
JISSEN
100
AcDbLine
 10
281.1054917542524
 20
69.50075400370389
 30
0.0
 11
274.4060302670195
 21
69.50075400370389
 31
0.0
  0
LINE
  5
1D69184B80
330
1D69183399
100
AcDbEntity
  8
JISSEN
100
AcDbLine
 10
265.4060302670195
 20
63.6883405388715
 30
0.0
 11
280.4060302670195
 21
63.6883405388715
 31
0.0
  0
LINE
  5
1D69184B81
330
1D69183399
100
AcDbEntity
  8
JISSEN
100
AcDbLine
 10
280.4060302670195
 20
65.98834053887145
 30
0.0
 11
272.9060302670195
 21
65.98834053887145
 31
0.0
  0
ARC
  5
1D69184B84
330
1D69183399
100
AcDbEntity
  8
JISSEN
100
AcDbCircle
 10
266.9471930071888
 20
54.83834053887076
 30
0.0
 40
13.5
100
AcDbArc
 50
0.0
 51
40.96178855235445
  0
ARC
  5
1D69184BC6
330
1D69183399
100
AcDbEntity
  8
JISSEN
100
AcDbCircle
 10
267.9060302670195
 20
57.50075400370389
 30
0.0
 40
17.0
100
AcDbArc
 50
113.7776797785192
 51
180.0
  0
LINE
  5
1D69184BC7
330
1D69183399
100
AcDbEntity
  8
JISSEN
100
AcDbLine
 10
283.3272223247852
 20
26.50076240319765
 30
0.0
 11
281.0728176120381
 21
26.50076240319765
 31
0.0
  0
ARC
  5
1D69184BC8
330
1D69183399
100
AcDbEntity
  8
JISSEN
100
AcDbCircle
 10
278.9060302670195
 20
26.0473190215647
 30
0.0
 40
1.0
100
AcDbArc
 50
139.7809012554434
 51
153.0351766874608
  0
ARC
  5
1D69184BC9
330
1D69183399
100
AcDbEntity
  8
JISSEN
100
AcDbCircle
 10
289.6560302670195
 20
31.50075400370389
 30
0.0
 40
12.49999999999999
100
AcDbArc
 50
163.7397952916872
 51
196.2602047083127
  0
LINE
  5
1D69184BCA
330
1D69183399
100
AcDbEntity
  8
JISSEN
100
AcDbLine
 10
287.8134552251253
 20
38.1293864270782
 30
0.0
 11
277.9798597516517
 21
26.50076240319765
 31
0.0
  0
LINE
  5
1D69184BCB
330
1D69183399
100
AcDbEntity
  8
JISSEN
100
AcDbLine
 10
291.7323820893525
 20
23.87871890116071
 30
0.0
 11
291.9060302670195
 21
24.86352665417314
 31
0.0
  0
LINE
  5
1D69184BCC
330
1D69183399
100
AcDbEntity
  8
JISSEN
100
AcDbLine
 10
286.1560302670195
 20
25.20075400370387
 30
0.0
 11
284.6495212136826
 21
26.25562299923149
 31
0.0
  0
LINE
  5
1D69184BCD
330
1D69183399
100
AcDbEntity
  8
JISSEN
100
AcDbLine
 10
286.1560302670195
 20
25.20075400370387
 30
0.0
 11
289.993518930547
 21
25.20075400370387
 31
0.0
  0
LINE
  5
1D69184BCE
330
1D69183399
100
AcDbEntity
  8
JISSEN
100
AcDbLine
 10
282.4265973175713
 20
23.70075400370387
 30
0.0
 11
282.5512096803073
 21
23.87871890116071
 31
0.0
  0
LINE
  5
1D69184BCF
330
1D69183399
100
AcDbEntity
  8
JISSEN
100
AcDbLine
 10
282.6983177137636
 20
24.86352665417303
 30
0.0
 11
281.9052462696387
 21
26.0548946347136
 31
0.0
  0
LINE
  5
1D69184BD0
330
1D69183399
100
AcDbEntity
  8
JISSEN
100
AcDbLine
 10
291.9060302670195
 20
24.86352665417314
 30
0.0
 11
289.9935189305456
 21
25.2007540037041
 31
0.0
  0
LINE
  5
1D69184BD1
330
1D69183399
100
AcDbEntity
  8
JISSEN
100
AcDbLine
 10
285.120862498996
 20
24.86352665417297
 30
0.0
 11
283.3272223247852
 21
26.50076240319765
 31
0.0
  0
ARC
  5
1D69184BD2
330
1D69183399
100
AcDbEntity
  8
JISSEN
100
AcDbCircle
 10
283.8720383542088
 20
25.14526240319765
 30
0.0
 40
1.355499999999999
100
AcDbArc
 50
55.00000000000294
 51
109.7312025061712
  0
ARC
  5
1D69184BD3
330
1D69183399
100
AcDbEntity
  8
JISSEN
100
AcDbCircle
 10
281.0728176120381
 20
25.5007624031972
 30
0.0
 40
1.0
100
AcDbArc
 50
33.65096582460195
 51
132.0810525119083
  0
LINE
  5
1D69184BD4
330
1D69183399
100
AcDbEntity
  8
JISSEN
100
AcDbLine
 10
281.3569238281353
 20
24.86352665417303
 30
0.0
 11
280.2242894746142
 21
26.50076240319765
 31
0.0
  0
LINE
  5
1D69184BD5
330
1D69183399
100
AcDbEntity
  8
JISSEN
100
AcDbLine
 10
275.3376844717901
 20
37.50075400370389
 30
0.0
 11
274.2285453335409
 21
38.60989314195313
 31
0.0
  0
LINE
  5
1D69184BD6
330
1D69183399
100
AcDbEntity
  8
SAISEN
100
AcDbLine
 10
274.9060302670196
 20
37.50075400370389
 30
0.0
 11
274.9060302670196
 21
37.93240820847447
 31
0.0
  0
LINE
  5
1D69184BD7
330
1D69183399
100
AcDbEntity
  8
JISSEN
100
AcDbLine
 10
276.5779622379581
 20
42.93111592049806
 30
0.0
 11
276.6915696787579
 21
41.37848089623358
 31
0.0
  0
ARC
  5
1D69184BD8
330
1D69183399
100
AcDbEntity
  8
JISSEN
100
AcDbCircle
 10
277.1769575453167
 20
41.41399708159153
 30
0.0
 40
0.4866855046380603
100
AcDbArc
 50
184.1849161251174
 51
241.8292597702474
  0
LINE
  5
1D69184BD9
330
1D69183399
100
AcDbEntity
  8
JISSEN
100
AcDbLine
 10
276.9471930071889
 20
40.98496207434417
 30
0.0
 11
276.9471930071889
 21
38.60989314195311
 31
0.0
  0
LINE
  5
1D69184BDA
330
1D69183399
100
AcDbEntity
  8
JISSEN
100
AcDbLine
 10
270.474376062249
 20
37.50075400370389
 30
0.0
 11
271.5835152004983
 21
38.60989314195313
 31
0.0
  0
LINE
  5
1D69184BDB
330
1D69183399
100
AcDbEntity
  8
SAISEN
100
AcDbLine
 10
270.9060302670196
 20
37.50075400370389
 30
0.0
 11
270.9060302670196
 21
37.93240820847447
 31
0.0
  0
LINE
  5
1D69184BDC
330
1D69183399
100
AcDbEntity
  8
JISSEN
100
AcDbLine
 10
270.1100363578055
 20
37.50075400370389
 30
0.0
 11
272.9060302670195
 21
37.50075400370389
 31
0.0
  0
LINE
  5
1D69184BDD
330
1D69183399
100
AcDbEntity
  8
JISSEN
100
AcDbLine
 10
275.7020241762336
 20
37.50075400370389
 30
0.0
 11
272.9060302670195
 21
37.50075400370389
 31
0.0
  0
ARC
  5
1D69184BDE
330
1D69183399
100
AcDbEntity
  8
JISSEN
100
AcDbCircle
 10
276.9471930071889
 20
44.3849620743442
 30
0.0
 40
1.5
100
AcDbArc
 50
180.0
 51
255.7499673021964
  0
LINE
  5
1D69184BDF
330
1D69183399
100
AcDbEntity
  8
JISSEN
100
AcDbLine
 10
267.8764593873402
 20
42.11248413855154
 30
0.0
 11
269.2565238899358
 21
42.11248413855154
 31
0.0
  0
LINE
  5
1D69184BE0
330
1D69183399
100
AcDbEntity
  8
JISSEN
100
AcDbLine
 10
269.2028163356198
 20
41.37848089623358
 30
0.0
 11
269.3164237764197
 21
42.93111592049811
 31
0.0
  0
ARC
  5
1D69184BE1
330
1D69183399
100
AcDbEntity
  8
JISSEN
100
AcDbCircle
 10
268.7174284690611
 20
41.41399708159153
 30
0.0
 40
0.4866855046380603
100
AcDbArc
 50
298.1707402297525
 51
355.8150838748825
  0
LINE
  5
1D69184BE2
330
1D69183399
100
AcDbEntity
  8
JISSEN
100
AcDbLine
 10
268.9471930071889
 20
38.60989314195311
 30
0.0
 11
268.9471930071889
 21
40.98496207434417
 31
0.0
  0
LINE
  5
1D69184BE3
330
1D69183399
100
AcDbEntity
  8
JISSEN
100
AcDbLine
 10
276.9471930071889
 20
38.60989314195311
 30
0.0
 11
268.9471930071889
 21
38.60989314195311
 31
0.0
  0
ARC
  5
1D69184BE4
330
1D69183399
100
AcDbEntity
  8
JISSEN
100
AcDbCircle
 10
268.9471930071889
 20
44.3849620743442
 30
0.0
 40
1.5
100
AcDbArc
 50
284.2500326978035
 51
0.0
  0
LINE
  5
1D69184BE5
330
1D69183399
100
AcDbEntity
  8
JISSEN
100
AcDbLine
 10
270.6516255542724
 20
26.50076240319776
 30
0.0
 11
275.1604349797667
 21
26.50076240319771
 31
0.0
  0
ARC
  5
1D69184BE6
330
1D69183399
100
AcDbEntity
  8
JISSEN
100
AcDbCircle
 10
268.6560302670195
 20
38.03443694063315
 30
0.0
 40
1.0
100
AcDbArc
 50
237.8181160795957
 51
305.5633285759496
  0
ARC
  5
1D69184BE7
330
1D69183399
100
AcDbEntity
  8
JISSEN
100
AcDbCircle
 10
266.9060302670195
 20
26.0473190215647
 30
0.0
 40
1.0
100
AcDbArc
 50
26.96482331252925
 51
40.21909874455654
  0
LINE
  5
1D69184BE8
330
1D69183399
100
AcDbEntity
  8
JISSEN
100
AcDbLine
 10
269.4925145627255
 20
26.50076240319771
 30
0.0
 11
265.5877710594249
 21
26.50076240319771
 31
0.0
  0
ARC
  5
1D69184BE9
330
1D69183399
100
AcDbEntity
  8
JISSEN
100
AcDbCircle
 10
256.1560302670195
 20
31.50075400370389
 30
0.0
 40
12.49999999999999
100
AcDbArc
 50
343.7397952916872
 51
16.26020470831272
  0
ARC
  5
1D69184BEA
330
1D69183399
100
AcDbEntity
  8
JISSEN
100
AcDbCircle
 10
275.7020241762336
 20
36.00075400370389
 30
0.0
 40
1.5
100
AcDbArc
 50
54.43667142405045
 51
90.0
  0
ARC
  5
1D69184BEB
330
1D69183399
100
AcDbEntity
  8
JISSEN
100
AcDbCircle
 10
270.1100363578055
 20
36.00075400370389
 30
0.0
 40
1.5
100
AcDbArc
 50
90.0
 51
125.5633285759495
  0
LINE
  5
1D69184BEC
330
1D69183399
100
AcDbEntity
  8
JISSEN
100
AcDbLine
 10
262.4848382092539
 20
26.50076240319771
 30
0.0
 11
264.739242922001
 21
26.50076240319771
 31
0.0
  0
LINE
  5
1D69184BED
330
1D69183399
100
AcDbEntity
  8
JISSEN
100
AcDbLine
 10
257.9986053089137
 20
38.1293864270782
 30
0.0
 11
267.8322007823874
 21
26.50076240319771
 31
0.0
  0
ARC
  5
1D69184BEE
330
1D69183399
100
AcDbEntity
  8
JISSEN
100
AcDbCircle
 10
276.1198578477853
 20
25.20197216810931
 30
0.0
 40
0.1
100
AcDbArc
 50
15.79871507350683
 51
166.7098700100913
  0
LINE
  5
1D69184BEF
330
1D69183399
100
AcDbEntity
  8
JISSEN
100
AcDbLine
 10
276.3195459713135
 20
24.86352665417303
 30
0.0
 11
276.2160802577352
 21
25.22919803491743
 31
0.0
  0
LINE
  5
1D69184BF0
330
1D69183399
100
AcDbEntity
  8
JISSEN
100
AcDbLine
 10
275.9371624260259
 20
24.86352665417303
 30
0.0
 11
276.0225359990189
 21
25.22496037710152
 31
0.0
  0
LINE
  5
1D69184BF1
330
1D69183399
100
AcDbEntity
  8
JISSEN
100
AcDbLine
 10
275.5371624260258
 20
24.86352665417303
 30
0.0
 11
275.8329367274809
 21
26.11570344815755
 31
0.0
  0
LINE
  5
1D69184BF3
330
1D69183399
100
AcDbEntity
  8
JISSEN
100
AcDbLine
 10
268.6511073575377
 20
24.86352665417303
 30
0.0
 11
269.0114025129765
 21
26.13689173723719
 31
0.0
  0
ARC
  5
1D69184BF4
330
1D69183399
100
AcDbEntity
  8
JISSEN
100
AcDbCircle
 10
269.6922026862537
 20
25.20197216810931
 30
0.0
 40
0.1
100
AcDbArc
 50
13.29012998990868
 51
164.2012849264931
  0
LINE
  5
1D69184BF5
330
1D69183399
100
AcDbEntity
  8
JISSEN
100
AcDbLine
 10
269.8748981080132
 20
24.86352665417303
 30
0.0
 11
269.7895245350202
 21
25.22496037710152
 31
0.0
  0
LINE
  5
1D69184BF6
330
1D69183399
100
AcDbEntity
  8
JISSEN
100
AcDbLine
 10
269.4925145627255
 20
24.86352665417303
 30
0.0
 11
269.5959802763038
 21
25.22919803491743
 31
0.0
  0
LINE
  5
1D69184BF7
330
1D69183399
100
AcDbEntity
  8
JISSEN
100
AcDbLine
 10
263.3854632164677
 20
23.70075400370387
 30
0.0
 11
263.2608508537318
 21
23.87871890116071
 31
0.0
  0
LINE
  5
1D69184BF8
330
1D69183399
100
AcDbEntity
  8
JISSEN
100
AcDbLine
 10
263.1137428202755
 20
24.86352665417303
 30
0.0
 11
263.9068142644005
 21
26.05489463471366
 31
0.0
  0
LINE
  5
1D69184BF9
330
1D69183399
100
AcDbEntity
  8
JISSEN
100
AcDbLine
 10
270.2748981080133
 20
24.86352665417303
 30
0.0
 11
269.9791238065581
 21
26.11570344815755
 31
0.0
  0
LINE
  5
1D69184BFA
330
1D69183399
100
AcDbEntity
  8
JISSEN
100
AcDbLine
 10
263.3854632164677
 20
23.70075400370387
 30
0.0
 11
272.9060302670195
 21
23.70075400370387
 31
0.0
  0
LINE
  5
1D69184BFB
330
1D69183399
100
AcDbEntity
  8
JISSEN
100
AcDbLine
 10
259.6560302670195
 20
25.20075400370387
 30
0.0
 11
261.1625393203564
 21
26.25562299923149
 31
0.0
  0
LINE
  5
1D69184BFC
330
1D69183399
100
AcDbEntity
  8
JISSEN
100
AcDbLine
 10
253.9060302670195
 20
24.86352665417291
 30
0.0
 11
254.9060302670191
 21
25.03985363488118
 31
0.0
  0
LINE
  5
1D69184BFD
330
1D69183399
100
AcDbEntity
  8
JISSEN
100
AcDbLine
 10
254.0796784446865
 20
23.87871890116048
 30
0.0
 11
253.9060302670195
 21
24.86352665417291
 31
0.0
  0
LINE
  5
1D69184BFE
330
1D69183399
100
AcDbEntity
  8
JISSEN
100
AcDbLine
 10
254.9060302670191
 20
25.03985363488118
 30
0.0
 11
255.8185416034934
 21
25.20075400370387
 31
0.0
  0
LINE
  5
1D69184BFF
330
1D69183399
100
AcDbEntity
  8
JISSEN
100
AcDbLine
 10
255.8185416034936
 20
25.20075400370387
 30
0.0
 11
259.6560302670195
 21
25.20075400370387
 31
0.0
  0
ARC
  5
1D69184C00
330
1D69183399
100
AcDbEntity
  8
JISSEN
100
AcDbCircle
 10
276.3195459713135
 20
26.00076240319674
 30
0.0
 40
0.5
100
AcDbArc
 50
15.79871507350328
 51
166.7098700100966
  0
LINE
  5
1D69184C01
330
1D69183399
100
AcDbEntity
  8
JISSEN
100
AcDbLine
 10
275.1604349797667
 20
26.50076240319771
 30
0.0
 11
275.3285750522521
 21
24.86352665417303
 31
0.0
  0
LINE
  5
1D69184C02
330
1D69183399
100
AcDbEntity
  8
JISSEN
100
AcDbLine
 10
270.4834854817872
 20
24.86352665417303
 30
0.0
 11
270.6516255542724
 21
26.50076240319771
 31
0.0
  0
ARC
  5
1D69184C03
330
1D69183399
100
AcDbEntity
  8
JISSEN
100
AcDbCircle
 10
269.4925145627255
 20
26.00076240319674
 30
0.0
 40
0.5
100
AcDbArc
 50
13.29012998990337
 51
164.2012849264967
  0
ARC
  5
1D69184C04
330
1D69183399
100
AcDbEntity
  8
JISSEN
100
AcDbCircle
 10
264.739242922001
 20
25.5007624031972
 30
0.0
 40
1.0
100
AcDbArc
 50
47.91894748809164
 51
146.349034175398
  0
LINE
  5
1D69184C05
330
1D69183399
100
AcDbEntity
  8
JISSEN
100
AcDbLine
 10
264.4551367059037
 20
24.86352665417303
 30
0.0
 11
265.5877710594249
 21
26.50076240319771
 31
0.0
  0
ARC
  5
1D69184C06
330
1D69183399
100
AcDbEntity
  8
JISSEN
100
AcDbCircle
 10
261.9400221798303
 20
25.14526240319765
 30
0.0
 40
1.355499999999999
100
AcDbArc
 50
70.26879749382185
 51
124.999999999997
  0
LINE
  5
1D69184C07
330
1D69183399
100
AcDbEntity
  8
JISSEN
100
AcDbLine
 10
260.691198035043
 20
24.86352665417297
 30
0.0
 11
262.4848382092539
 21
26.50076240319771
 31
0.0
  0
LINE
  5
1D69184C08
330
1D69183399
100
AcDbEntity
  8
JISSEN
100
AcDbLine
 10
276.637862124442
 20
42.11248413855154
 30
0.0
 11
278.0179266270374
 21
42.11248413855154
 31
0.0
  0
ARC
  5
1D69184C09
330
1D69183399
100
AcDbEntity
  8
JISSEN
100
AcDbCircle
 10
277.1560302670195
 20
38.03443694063315
 30
0.0
 40
1.0
100
AcDbArc
 50
234.4366714240503
 51
302.1818839204042
  0
LINE
  5
1D69184C0A
330
1D69183399
100
AcDbEntity
  8
JISSEN
100
AcDbLine
 10
276.3195459713135
 20
26.50076240319765
 30
0.0
 11
280.2242894746142
 21
26.50076240319771
 31
0.0
  0
LINE
  5
1D69184C0B
330
1D69183399
100
AcDbEntity
  8
JISSEN
100
AcDbLine
 10
277.1609531765014
 20
24.86352665417303
 30
0.0
 11
276.8006580210626
 21
26.13689173723719
 31
0.0
  0
LINE
  5
1D69184C0C
330
1D69183399
100
AcDbEntity
  8
JISSEN
100
AcDbLine
 10
291.7323820893525
 20
23.87871890116071
 30
0.0
 11
254.0796784446864
 21
23.87871890116071
 31
0.0
  0
LINE
  5
1D69184C0D
330
1D69183399
100
AcDbEntity
  8
JISSEN
100
AcDbLine
 10
253.9060302670195
 20
24.86352665417291
 30
0.0
 11
291.9060302670195
 21
24.86352665417314
 31
0.0
  0
LINE
  5
1D69184C0E
330
1D69183399
100
AcDbEntity
  8
JISSEN
100
AcDbLine
 10
282.4265973175713
 20
23.70075400370387
 30
0.0
 11
272.9060302670195
 21
23.70075400370387
 31
0.0
  0
LINE
  5
1D69184C0F
330
1D69183399
100
AcDbEntity
  8
JISSEN
100
AcDbLine
 10
275.5721930071888
 20
49.58834053887077
 30
0.0
 11
275.5721930071888
 21
45.08834053887077
 31
0.0
  0
LINE
  5
1D69184C10
330
1D69183399
100
AcDbEntity
  8
JISSEN
100
AcDbLine
 10
270.3221930071888
 20
49.58834053887077
 30
0.0
 11
270.3221930071888
 21
45.08834053887077
 31
0.0
  0
LINE
  5
1D69184C11
330
1D69183399
100
AcDbEntity
  8
JISSEN
100
AcDbLine
 10
275.4471930071888
 20
44.3849620743442
 30
0.0
 11
274.487831462506
 21
57.81602369990506
 31
0.0
  0
LINE
  5
1D69184C12
330
1D69183399
100
AcDbEntity
  8
JISSEN
100
AcDbLine
 10
271.4065545518717
 20
57.81602369990506
 30
0.0
 11
270.4471930071889
 21
44.3849620743442
 31
0.0
  0
ARC
  5
1D69184C13
330
1D69183399
100
AcDbEntity
  8
JISSEN
100
AcDbCircle
 10
278.9471930071888
 20
49.83834053887076
 30
0.0
 40
13.5
100
AcDbArc
 50
180.0
 51
222.2054464037312
  0
ARC
  5
1D69184C14
330
1D69183399
100
AcDbEntity
  8
JISSEN
100
AcDbCircle
 10
266.9471930071888
 20
49.83834053887076
 30
0.0
 40
13.5
100
AcDbArc
 50
317.7945535962691
 51
0.0
  0
ARC
  5
1D69184C15
330
1D69183399
100
AcDbEntity
  8
JISSEN
100
AcDbCircle
 10
280.9060302670195
 20
57.50075400370389
 30
0.0
 40
24.0
100
AcDbArc
 50
180.0
 51
237.8181160795957
  0
ARC
  5
1D69184C16
330
1D69183399
100
AcDbEntity
  8
JISSEN
100
AcDbCircle
 10
280.9060302670195
 20
57.50075400370389
 30
0.0
 40
30.0
100
AcDbArc
 50
180.0
 51
220.2190987445565
  0
ARC
  5
1D69184C17
330
1D69183399
100
AcDbEntity
  8
JISSEN
100
AcDbCircle
 10
264.9060302670195
 20
57.50075400370389
 30
0.0
 40
30.0
100
AcDbArc
 50
319.7809012554434
 51
0.0
  0
ARC
  5
1D69184C18
330
1D69183399
100
AcDbEntity
  8
JISSEN
100
AcDbCircle
 10
264.9060302670195
 20
57.50075400370389
 30
0.0
 40
24.0
100
AcDbArc
 50
302.1818839204042
 51
0.0
  0
ARC
  5
1D69184C19
330
1D69183399
100
AcDbEntity
  8
JISSEN
100
AcDbCircle
 10
264.9060302670195
 20
57.50075400370389
 30
0.0
 40
26.0
100
AcDbArc
 50
336.181158606544
 51
0.0
  0
ARC
  5
1D69184C1A
330
1D69183399
100
AcDbEntity
  8
JISSEN
100
AcDbCircle
 10
264.9060302670195
 20
57.50075400370389
 30
0.0
 40
28.0
100
AcDbArc
 50
337.975687162958
 51
0.0
  0
ARC
  5
1D69184C1B
330
1D69183399
100
AcDbEntity
  8
JISSEN
100
AcDbCircle
 10
280.9060302670195
 20
57.50075400370389
 30
0.0
 40
26.0
100
AcDbArc
 50
180.0
 51
203.8188413934558
  0
ARC
  5
1D69184C1C
330
1D69183399
100
AcDbEntity
  8
JISSEN
100
AcDbCircle
 10
280.9060302670195
 20
57.50075400370389
 30
0.0
 40
28.0
100
AcDbArc
 50
180.0
 51
202.0243128370418
  0
LINE
  5
1D69184C1D
330
1D69183399
100
AcDbEntity
  8
JISSEN
100
AcDbLine
 10
310.4746135449507
 20
82.05773967292646
 30
0.0
 11
235.4746135449513
 21
82.05773967292646
 31
0.0
  0
LINE
  5
1D69184C20
330
1D69183399
100
AcDbEntity
  8
JISSEN
100
AcDbLine
 10
285.9580972670203
 20
73.05773967292615
 30
0.0
 11
259.8539632670202
 21
73.05773967292615
 31
0.0
  0
TEXT
  5
1D69184C21
330
1D69183399
100
AcDbEntity
  8
TEXT
100
AcDbText
 10
164.9571418571428
 20
262.5
 30
0.0
 40
3.0
  1
Crメッキ
  7
K
 72
     4
 11
172.499999
 21
264.0
 31
0.0
100
AcDbText
  0
LINE
  5
1D69184C6F
330
1D69183399
100
AcDbEntity
  8
JISSEN
100
AcDbLine
 10
76.59896555178318
 20
173.9331099279986
 30
0.0
 11
102.4010324482168
 21
173.9331099279989
 31
0.0
  0
ENDSEC
  0
SECTION
  2
OBJECTS
  0
DICTIONARY
  5
1D6918338D
330
0
100
AcDbDictionary
  3
ACAD_GROUP
350
1D6918338E
  3
ACAD_LAYOUT
350
1D691837E6
  3
ACAD_MLINESTYLE
350
1D6918338F
  3
ACAD_PLOTSETTINGS
350
1D691837E7
  3
ACAD_PLOTSTYLENAME
350
1D691837E4
  3
ACDBHEADERROUNDTRIPXREC
350
1D69184CB4
  3
ACDBVARIABLEDICTIONARY
350
1D69184A6F
  0
DICTIONARY
  5
1D69183A5C
330
1D69183399
100
AcDbDictionary
280
     1
  3
ACAD_LAYOUTSELFREF
360
1D69184CD6
  0
DICTIONARY
  5
1D69183A5A
330
1D69183396
100
AcDbDictionary
280
     1
  3
ACAD_LAYOUTSELFREF
360
1D69184CD5
  0
DICTIONARY
  5
1D6918338E
102
{ACAD_REACTORS
330
1D6918338D
102
}
330
0
100
AcDbDictionary
  0
DICTIONARY
  5
1D691837E6
102
{ACAD_REACTORS
330
1D6918338D
102
}
330
1D6918338D
100
AcDbDictionary
  0
DICTIONARY
  5
1D6918338F
102
{ACAD_REACTORS
330
1D6918338D
102
}
330
0
100
AcDbDictionary
  3
STANDARD
350
1D6918339C
  0
DICTIONARY
  5
1D691837E7
102
{ACAD_REACTORS
330
1D6918338D
102
}
330
1D6918338D
100
AcDbDictionary
  0
ACDBDICTIONARYWDFLT
  5
1D691837E4
102
{ACAD_REACTORS
330
1D6918338D
102
}
330
1D6918338D
100
AcDbDictionary
281
     1
  3
Normal
350
1D691837E5
100
AcDbDictionaryWithDefault
340
1D691837E5
  0
DICTIONARY
  5
1D69184CB4
102
{ACAD_REACTORS
330
1D6918338D
102
}
330
1D6918338D
100
AcDbDictionary
  3
CEPSNTYPE
350
1D69184CBE
  3
DIMSTYLEDATA
350
1D69184CC2
  3
FINGERPRINTGUID
350
1D69184CBF
  3
HYPERLINKBASE
350
1D69184CB7
  3
INSUNITS
350
1D69184CBD
  3
LAYOUTDICT
350
1D69184CB9
  3
LWETCUNION
350
1D69184CBC
  3
PLOTSETDICT
350
1D69184CBA
  3
PLOTSTYLNAMDICT
350
1D69184CBB
  3
PSVPSCALE
350
1D69184CC1
  3
PUCSBASE
350
1D69184CC5
  3
PUCSORGBACK
350
1D69184CCB
  3
PUCSORGBOTTOM
350
1D69184CC7
  3
PUCSORGFRONT
350
1D69184CCA
  3
PUCSORGLEFT
350
1D69184CC8
  3
PUCSORGRIGHT
350
1D69184CC9
  3
PUCSORGTOP
350
1D69184CC6
  3
PUCSORTHOREF
350
1D69184CC3
  3
PUCSORTHOVIEW
350
1D69184CC4
  3
STYLESHEET
350
1D69184CB8
  3
TSTACKALIGN
350
1D69184CB5
  3
TSTACKSIZE
350
1D69184CB6
  3
UCSBASE
350
1D69184CCE
  3
UCSORGBACK
350
1D69184CD4
  3
UCSORGBOTTOM
350
1D69184CD0
  3
UCSORGFRONT
350
1D69184CD3
  3
UCSORGLEFT
350
1D69184CD1
  3
UCSORGRIGHT
350
1D69184CD2
  3
UCSORGTOP
350
1D69184CCF
  3
UCSORTHOREF
350
1D69184CCC
  3
UCSORTHOVIEW
350
1D69184CCD
  3
VERSIONGUID
350
1D69184CC0
  0
DICTIONARY
  5
1D69184A6F
102
{ACAD_REACTORS
330
1D6918338D
102
}
330
1D6918338D
100
AcDbDictionary
  3
DIMASSOC
350
1D69184CB2
  3
SORTENTS
350
1D69184A70
  0
XRECORD
  5
1D69184CD6
102
{ACAD_REACTORS
330
1D69183A5C
102
}
330
1D69183A5C
100
AcDbXrecord
340
1D69183399
  0
XRECORD
  5
1D69184CD5
102
{ACAD_REACTORS
330
1D69183A5A
102
}
330
1D69183A5A
100
AcDbXrecord
340
1D69183396
  0
MLINESTYLE
  5
1D6918339C
102
{ACAD_REACTORS
330
1D6918338F
102
}
330
0
100
AcDbMlineStyle
  2
STANDARD
 70
     0
  3

 62
     0
 51
90.0
 52
90.0
 71
     2
 49
0.5
 62
   256
  6
BYLAYER
 49
-0.5
 62
   256
  6
BYLAYER
  0
ACDBPLACEHOLDER
  5
1D691837E5
102
{ACAD_REACTORS
330
1D691837E4
102
}
330
1D691837E4
100
AcDbPlaceHolder
280
     0
  0
XRECORD
  5
1D69184CBE
102
{ACAD_REACTORS
330
1D69184CB4
102
}
330
1D69184CB4
100
AcDbXrecord
 90
        0
  0
XRECORD
  5
1D69184CC2
102
{ACAD_REACTORS
330
1D69184CB4
102
}
330
1D69184CB4
100
AcDbXrecord
1000
DSTYLE
1002
{
1070
   341
340
1D691833A3
1070
   342
340
1D691833A3
1070
   343
340
1D691833A3
1070
   344
340
1D691833A3
1002
}
  0
XRECORD
  5
1D69184CBF
102
{ACAD_REACTORS
330
1D69184CB4
102
}
330
1D69184CB4
100
AcDbXrecord
  1
{9E4523D2-8DA8-438B-B789-0D080F5E267A}
  0
XRECORD
  5
1D69184CB7
102
{ACAD_REACTORS
330
1D69184CB4
102
}
330
1D69184CB4
100
AcDbXrecord
  1

  0
XRECORD
  5
1D69184CBD
102
{ACAD_REACTORS
330
1D69184CB4
102
}
330
1D69184CB4
100
AcDbXrecord
 90
        0
  0
XRECORD
  5
1D69184CB9
102
{ACAD_REACTORS
330
1D69184CB4
102
}
330
1D69184CB4
100
AcDbXrecord
340
1D691837E6
  0
XRECORD
  5
1D69184CBC
102
{ACAD_REACTORS
330
1D69184CB4
102
}
330
1D69184CB4
100
AcDbXrecord
 90
    14877
  0
XRECORD
  5
1D69184CBA
102
{ACAD_REACTORS
330
1D69184CB4
102
}
330
1D69184CB4
100
AcDbXrecord
340
1D691837E7
  0
XRECORD
  5
1D69184CBB
102
{ACAD_REACTORS
330
1D69184CB4
102
}
330
1D69184CB4
100
AcDbXrecord
340
1D691837E4
  0
XRECORD
  5
1D69184CC1
102
{ACAD_REACTORS
330
1D69184CB4
102
}
330
1D69184CB4
100
AcDbXrecord
 40
0.0
  0
XRECORD
  5
1D69184CC5
102
{ACAD_REACTORS
330
1D69184CB4
102
}
330
1D69184CB4
100
AcDbXrecord
340
0
  0
XRECORD
  5
1D69184CCB
102
{ACAD_REACTORS
330
1D69184CB4
102
}
330
1D69184CB4
100
AcDbXrecord
 10
0.0
 20
0.0
 30
0.0
  0
XRECORD
  5
1D69184CC7
102
{ACAD_REACTORS
330
1D69184CB4
102
}
330
1D69184CB4
100
AcDbXrecord
 10
0.0
 20
0.0
 30
0.0
  0
XRECORD
  5
1D69184CCA
102
{ACAD_REACTORS
330
1D69184CB4
102
}
330
1D69184CB4
100
AcDbXrecord
 10
0.0
 20
0.0
 30
0.0
  0
XRECORD
  5
1D69184CC8
102
{ACAD_REACTORS
330
1D69184CB4
102
}
330
1D69184CB4
100
AcDbXrecord
 10
0.0
 20
0.0
 30
0.0
  0
XRECORD
  5
1D69184CC9
102
{ACAD_REACTORS
330
1D69184CB4
102
}
330
1D69184CB4
100
AcDbXrecord
 10
0.0
 20
0.0
 30
0.0
  0
XRECORD
  5
1D69184CC6
102
{ACAD_REACTORS
330
1D69184CB4
102
}
330
1D69184CB4
100
AcDbXrecord
 10
0.0
 20
0.0
 30
0.0
  0
XRECORD
  5
1D69184CC3
102
{ACAD_REACTORS
330
1D69184CB4
102
}
330
1D69184CB4
100
AcDbXrecord
340
0
  0
XRECORD
  5
1D69184CC4
102
{ACAD_REACTORS
330
1D69184CB4
102
}
330
1D69184CB4
100
AcDbXrecord
 70
     0
  0
XRECORD
  5
1D69184CB8
102
{ACAD_REACTORS
330
1D69184CB4
102
}
330
1D69184CB4
100
AcDbXrecord
  1

  0
XRECORD
  5
1D69184CB5
102
{ACAD_REACTORS
330
1D69184CB4
102
}
330
1D69184CB4
100
AcDbXrecord
 90
        1
  0
XRECORD
  5
1D69184CB6
102
{ACAD_REACTORS
330
1D69184CB4
102
}
330
1D69184CB4
100
AcDbXrecord
 90
       70
  0
XRECORD
  5
1D69184CCE
102
{ACAD_REACTORS
330
1D69184CB4
102
}
330
1D69184CB4
100
AcDbXrecord
340
0
  0
XRECORD
  5
1D69184CD4
102
{ACAD_REACTORS
330
1D69184CB4
102
}
330
1D69184CB4
100
AcDbXrecord
 10
0.0
 20
0.0
 30
0.0
  0
XRECORD
  5
1D69184CD0
102
{ACAD_REACTORS
330
1D69184CB4
102
}
330
1D69184CB4
100
AcDbXrecord
 10
0.0
 20
0.0
 30
0.0
  0
XRECORD
  5
1D69184CD3
102
{ACAD_REACTORS
330
1D69184CB4
102
}
330
1D69184CB4
100
AcDbXrecord
 10
0.0
 20
0.0
 30
0.0
  0
XRECORD
  5
1D69184CD1
102
{ACAD_REACTORS
330
1D69184CB4
102
}
330
1D69184CB4
100
AcDbXrecord
 10
0.0
 20
0.0
 30
0.0
  0
XRECORD
  5
1D69184CD2
102
{ACAD_REACTORS
330
1D69184CB4
102
}
330
1D69184CB4
100
AcDbXrecord
 10
0.0
 20
0.0
 30
0.0
  0
XRECORD
  5
1D69184CCF
102
{ACAD_REACTORS
330
1D69184CB4
102
}
330
1D69184CB4
100
AcDbXrecord
 10
0.0
 20
0.0
 30
0.0
  0
XRECORD
  5
1D69184CCC
102
{ACAD_REACTORS
330
1D69184CB4
102
}
330
1D69184CB4
100
AcDbXrecord
340
0
  0
XRECORD
  5
1D69184CCD
102
{ACAD_REACTORS
330
1D69184CB4
102
}
330
1D69184CB4
100
AcDbXrecord
 70
     0
  0
XRECORD
  5
1D69184CC0
102
{ACAD_REACTORS
330
1D69184CB4
102
}
330
1D69184CB4
100
AcDbXrecord
  1
{73BA9873-8EEF-45A5-B042-BDE1BE3CB907}
  0
DICTIONARYVAR
  5
1D69184CB2
102
{ACAD_REACTORS
330
1D69184A6F
102
}
330
1D69184A6F
100
DictionaryVariables
280
     0
  1
0
  0
DICTIONARYVAR
  5
1D69184A70
102
{ACAD_REACTORS
330
1D69184A6F
102
}
330
1D69184A6F
100
DictionaryVariables
280
     0
  1
96
  0
ENDSEC
  0
EOF
