  0
SECTION
  2
HEADER
  9
$ACADVER
  1
AC1014
  9
$ACADMAINTVER
 70
     9
  9
$DWGCODEPAGE
  3
ANSI_932
  9
$INSBASE
 10
0.0
 20
0.0
 30
0.0
  9
$EXTMIN
 10
-0.0110465203861168
 20
-0.0083306632102449
 30
-0.0015258207003583
  9
$EXTMAX
 10
362.0110462060799
 20
273.0083319344654
 30
0.0000000349246037
  9
$LIMMIN
 10
0.0
 20
0.0
  9
$LIMMAX
 10
180.999999
 20
273.0
  9
$ORTHOMODE
 70
     1
  9
$REGENMODE
 70
     1
  9
$FILLMODE
 70
     1
  9
$QTEXTMODE
 70
     0
  9
$MIRRTEXT
 70
     0
  9
$DRAGMODE
 70
     2
  9
$LTSCALE
 40
5.0
  9
$OSMODE
 70
   167
  9
$ATTMODE
 70
     1
  9
$TEXTSIZE
 40
1.5
  9
$TRACEWID
 40
0.05
  9
$TEXTSTYLE
  7
K
  9
$CLAYER
  8
SUNPOU
  9
$CELTYPE
  6
BYLAYER
  9
$CECOLOR
 62
   256
  9
$CELTSCALE
 40
1.0
  9
$DELOBJ
 70
     1
  9
$DISPSILH
 70
     0
  9
$DIMSCALE
 40
1.0
  9
$DIMASZ
 40
1.5
  9
$DIMEXO
 40
1.0
  9
$DIMDLI
 40
6.0
  9
$DIMRND
 40
0.0
  9
$DIMDLE
 40
0.0
  9
$DIMEXE
 40
1.0
  9
$DIMTP
 40
495.0
  9
$DIMTM
 40
0.0
  9
$DIMTXT
 40
3.0
  9
$DIMCEN
 40
0.0
  9
$DIMTSZ
 40
0.0
  9
$DIMTOL
 70
     0
  9
$DIMLIM
 70
     0
  9
$DIMTIH
 70
     0
  9
$DIMTOH
 70
     0
  9
$DIMSE1
 70
     0
  9
$DIMSE2
 70
     0
  9
$DIMTAD
 70
     1
  9
$DIMZIN
 70
     8
  9
$DIMBLK
  1
ARROWANG
  9
$DIMASO
 70
     0
  9
$DIMSHO
 70
     0
  9
$DIMPOST
  1

  9
$DIMAPOST
  1

  9
$DIMALT
 70
     0
  9
$DIMALTD
 70
     2
  9
$DIMALTF
 40
25.4
  9
$DIMLFAC
 40
1.0
  9
$DIMTOFL
 70
     1
  9
$DIMTVP
 40
0.0
  9
$DIMTIX
 70
     1
  9
$DIMSOXD
 70
     0
  9
$DIMSAH
 70
     0
  9
$DIMBLK1
  1
ARROWANG
  9
$DIMBLK2
  1
ARROWANG
  9
$DIMSTYLE
  2
IMAO
  9
$DIMCLRD
 70
     0
  9
$DIMCLRE
 70
     0
  9
$DIMCLRT
 70
     0
  9
$DIMTFAC
 40
1.0
  9
$DIMGAP
 40
0.09
  9
$DIMJUST
 70
     0
  9
$DIMSD1
 70
     0
  9
$DIMSD2
 70
     0
  9
$DIMTOLJ
 70
     1
  9
$DIMTZIN
 70
     0
  9
$DIMALTZ
 70
     0
  9
$DIMALTTZ
 70
     0
  9
$DIMFIT
 70
     3
  9
$DIMUPT
 70
     0
  9
$DIMUNIT
 70
     2
  9
$DIMDEC
 70
     4
  9
$DIMTDEC
 70
     4
  9
$DIMALTU
 70
     2
  9
$DIMALTTD
 70
     2
  9
$DIMTXSTY
  7
STANDARD
  9
$DIMAUNIT
 70
     0
  9
$LUNITS
 70
     2
  9
$LUPREC
 70
     2
  9
$SKETCHINC
 40
0.1
  9
$FILLETRAD
 40
0.5
  9
$AUNITS
 70
     0
  9
$AUPREC
 70
     2
  9
$MENU
  1
STDR12J
  9
$ELEVATION
 40
0.0
  9
$PELEVATION
 40
0.0
  9
$THICKNESS
 40
0.0
  9
$LIMCHECK
 70
     0
  9
$BLIPMODE
 70
     0
  9
$CHAMFERA
 40
0.5
  9
$CHAMFERB
 40
0.5
  9
$CHAMFERC
 40
0.0
  9
$CHAMFERD
 40
0.0
  9
$SKPOLY
 70
     0
  9
$TDCREATE
 40
2450354.415456018
  9
$TDUPDATE
 40
2453620.668307025
  9
$TDINDWG
 40
0.0643613194
  9
$TDUSRTIMER
 40
0.0643612037
  9
$USRTIMER
 70
     1
  9
$ANGBASE
 50
0.0
  9
$ANGDIR
 70
     0
  9
$PDMODE
 70
     0
  9
$PDSIZE
 40
0.0
  9
$PLINEWID
 40
0.0
  9
$COORDS
 70
     2
  9
$SPLFRAME
 70
     0
  9
$SPLINETYPE
 70
     6
  9
$SPLINESEGS
 70
     8
  9
$ATTDIA
 70
     0
  9
$ATTREQ
 70
     1
  9
$HANDLING
 70
 22529
  9
$HANDSEED
  5
1D69184708
  9
$SURFTAB1
 70
     6
  9
$SURFTAB2
 70
     6
  9
$SURFTYPE
 70
     6
  9
$SURFU
 70
     6
  9
$SURFV
 70
     6
  9
$UCSNAME
  2

  9
$UCSORG
 10
0.0
 20
0.0
 30
0.0
  9
$UCSXDIR
 10
1.0
 20
0.0
 30
0.0
  9
$UCSYDIR
 10
0.0
 20
1.0
 30
0.0
  9
$PUCSNAME
  2

  9
$PUCSORG
 10
0.0
 20
0.0
 30
0.0
  9
$PUCSXDIR
 10
1.0
 20
0.0
 30
0.0
  9
$PUCSYDIR
 10
0.0
 20
1.0
 30
0.0
  9
$USERI1
 70
     4
  9
$USERI2
 70
     1
  9
$USERI3
 70
     1
  9
$USERI4
 70
     2
  9
$USERI5
 70
     1
  9
$USERR1
 40
1.0
  9
$USERR2
 40
3.0
  9
$USERR3
 40
3.0
  9
$USERR4
 40
1.5
  9
$USERR5
 40
8.0
  9
$WORLDVIEW
 70
     1
  9
$SHADEDGE
 70
     3
  9
$SHADEDIF
 70
    70
  9
$TILEMODE
 70
     1
  9
$MAXACTVP
 70
    16
  9
$PINSBASE
 10
0.0
 20
0.0
 30
0.0
  9
$PLIMCHECK
 70
     0
  9
$PEXTMIN
 10
1.000000000000000E+20
 20
1.000000000000000E+20
 30
1.000000000000000E+20
  9
$PEXTMAX
 10
-1.000000000000000E+20
 20
-1.000000000000000E+20
 30
-1.000000000000000E+20
  9
$PLIMMIN
 10
0.0
 20
0.0
  9
$PLIMMAX
 10
12.0
 20
9.0
  9
$UNITMODE
 70
     0
  9
$VISRETAIN
 70
     0
  9
$PLINEGEN
 70
     0
  9
$PSLTSCALE
 70
     0
  9
$TREEDEPTH
 70
     0
  9
$PICKSTYLE
 70
     1
  9
$CMLSTYLE
  2
STANDARD
  9
$CMLJUST
 70
     0
  9
$CMLSCALE
 40
1.0
  9
$PROXYGRAPHICS
 70
     1
  9
$MEASUREMENT
 70
     0
  0
ENDSEC
  0
SECTION
  2
CLASSES
  0
CLASS
  1
LWPOLYLINE
  2
AcDbPolyline
  3
AutoCAD 2000
 90
        0
280
     0
281
     1
  0
CLASS
  1
ACDBDICTIONARYWDFLT
  2
AcDbDictionaryWithDefault
  3
AutoCAD 2000
 90
        0
280
     0
281
     0
  0
CLASS
  1
ACDBPLACEHOLDER
  2
AcDbPlaceHolder
  3
AutoCAD 2000
 90
        0
280
     0
281
     0
  0
CLASS
  1
LAYOUT
  2
AcDbLayout
  3
AutoCAD 2000
 90
        0
280
     0
281
     0
  0
CLASS
  1
LONG_TRANSACTION
  2
AcDbLongTransaction
  3
AutoCAD 2000
 90
        0
280
     0
281
     0
  0
CLASS
  1
LWPOLYLINE
  2
AcDbPolyline
  3
AutoCAD 2000
 90
        0
280
     0
281
     1
  0
CLASS
  1
HATCH
  2
AcDbHatch
  3
AutoCAD 2000
 90
        0
280
     0
281
     1
  0
CLASS
  1
XRECORD
  2
AcDbXrecord
  3
AutoCAD 2000
 90
        0
280
     0
281
     0
  0
CLASS
  1
LONG_TRANSACTION
  2
AcDbLongTransaction
  3
AutoCAD 2000
 90
        0
280
     0
281
     0
  0
CLASS
  1
LWPOLYLINE
  2
AcDbPolyline
  3
AutoCAD 2000
 90
        0
280
     0
281
     1
  0
CLASS
  1
HATCH
  2
AcDbHatch
  3
AutoCAD 2000
 90
        0
280
     0
281
     1
  0
CLASS
  1
XRECORD
  2
AcDbXrecord
  3
AutoCAD 2000
 90
        0
280
     0
281
     0
  0
CLASS
  1
LONG_TRANSACTION
  2
AcDbLongTransaction
  3
AutoCAD 2000
 90
        0
280
     0
281
     0
  0
CLASS
  1
LWPOLYLINE
  2
AcDbPolyline
  3
AutoCAD 2000
 90
        0
280
     0
281
     1
  0
CLASS
  1
HATCH
  2
AcDbHatch
  3
AutoCAD 2000
 90
        0
280
     0
281
     1
  0
CLASS
  1
XRECORD
  2
AcDbXrecord
  3
AutoCAD 2000
 90
        0
280
     0
281
     0
  0
CLASS
  1
LONG_TRANSACTION
  2
AcDbLongTransaction
  3
AutoCAD 2000
 90
        0
280
     0
281
     0
  0
CLASS
  1
LWPOLYLINE
  2
AcDbPolyline
  3
AutoCAD 2000
 90
        0
280
     0
281
     1
  0
CLASS
  1
HATCH
  2
AcDbHatch
  3
AutoCAD 2000
 90
        0
280
     0
281
     1
  0
CLASS
  1
XRECORD
  2
AcDbXrecord
  3
AutoCAD 2000
 90
        0
280
     0
281
     0
  0
CLASS
  1
LONG_TRANSACTION
  2
AcDbLongTransaction
  3
AutoCAD 2000
 90
        0
280
     0
281
     0
  0
CLASS
  1
LWPOLYLINE
  2
AcDbPolyline
  3
AutoCAD 2000
 90
        0
280
     0
281
     1
  0
CLASS
  1
HATCH
  2
AcDbHatch
  3
AutoCAD 2000
 90
        0
280
     0
281
     1
  0
CLASS
  1
XRECORD
  2
AcDbXrecord
  3
AutoCAD 2000
 90
        0
280
     0
281
     0
  0
CLASS
  1
LONG_TRANSACTION
  2
AcDbLongTransaction
  3
AutoCAD 2000
 90
        0
280
     0
281
     0
  0
CLASS
  1
LWPOLYLINE
  2
AcDbPolyline
  3
AutoCAD 2000
 90
        0
280
     0
281
     1
  0
CLASS
  1
HATCH
  2
AcDbHatch
  3
AutoCAD 2000
 90
        0
280
     0
281
     1
  0
CLASS
  1
XRECORD
  2
AcDbXrecord
  3
AutoCAD 2000
 90
        0
280
     0
281
     0
  0
CLASS
  1
DICTIONARYVAR
  2
AcDbDictionaryVar
  3
AutoCAD 2000
 90
        0
280
     0
281
     0
  0
CLASS
  1
LONG_TRANSACTION
  2
AcDbLongTransaction
  3
AutoCAD 2000
 90
        0
280
     0
281
     0
  0
CLASS
  1
LWPOLYLINE
  2
AcDbPolyline
  3
AutoCAD 2000
 90
        0
280
     0
281
     1
  0
CLASS
  1
HATCH
  2
AcDbHatch
  3
AutoCAD 2000
 90
        0
280
     0
281
     1
  0
CLASS
  1
XRECORD
  2
AcDbXrecord
  3
AutoCAD 2000
 90
        0
280
     0
281
     0
  0
CLASS
  1
LONG_TRANSACTION
  2
AcDbLongTransaction
  3
AutoCAD 2000
 90
        0
280
     0
281
     0
  0
CLASS
  1
LWPOLYLINE
  2
AcDbPolyline
  3
AutoCAD 2000
 90
        0
280
     0
281
     1
  0
CLASS
  1
HATCH
  2
AcDbHatch
  3
AutoCAD 2000
 90
        0
280
     0
281
     1
  0
CLASS
  1
XRECORD
  2
AcDbXrecord
  3
AutoCAD 2000
 90
        0
280
     0
281
     0
  0
ENDSEC
  0
SECTION
  2
TABLES
  0
TABLE
  2
VPORT
  5
1D69183389
330
0
100
AcDbSymbolTable
 70
    11
  0
VPORT
  5
1D691833BC
330
1D69183389
100
AcDbSymbolTableRecord
100
AcDbViewportTableRecord
  2
2
 70
     0
 10
0.5
 20
0.0
 11
1.0
 21
1.0
 12
0.924031
 22
1.052651
 13
0.0
 23
0.0
 14
1.0
 24
1.0
 15
10.0
 25
10.0
 16
0.0
 26
0.0
 36
1.0
 17
0.0
 27
0.0
 37
0.0
 40
2.105302
 41
0.877814
 42
50.0
 43
0.0
 44
0.0
 50
0.0
 51
0.0
 71
     0
 72
   500
 73
     1
 74
     1
 75
     0
 76
     0
 77
     0
 78
     0
  0
VPORT
  5
1D691833BD
330
1D69183389
100
AcDbSymbolTableRecord
100
AcDbViewportTableRecord
  2
2
 70
     0
 10
0.0
 20
0.0
 11
0.5
 21
1.0
 12
0.924031
 22
1.052651
 13
0.0
 23
0.0
 14
1.0
 24
1.0
 15
10.0
 25
10.0
 16
0.0
 26
0.0
 36
1.0
 17
0.0
 27
0.0
 37
0.0
 40
2.105302
 41
0.877814
 42
50.0
 43
0.0
 44
0.0
 50
0.0
 51
0.0
 71
     0
 72
   500
 73
     1
 74
     1
 75
     0
 76
     0
 77
     0
 78
     0
  0
VPORT
  5
1D691833BE
330
1D69183389
100
AcDbSymbolTableRecord
100
AcDbViewportTableRecord
  2
3
 70
     0
 10
0.0
 20
0.5
 11
1.0
 21
1.0
 12
2.832169999999998
 22
1.052651
 13
0.0
 23
0.0
 14
1.0
 24
1.0
 15
10.0
 25
10.0
 16
0.0
 26
0.0
 36
1.0
 17
0.0
 27
0.0
 37
0.0
 40
2.105302
 41
3.571429
 42
50.0
 43
0.0
 44
0.0
 50
0.0
 51
0.0
 71
     0
 72
   500
 73
     1
 74
     1
 75
     0
 76
     0
 77
     0
 78
     0
  0
VPORT
  5
1D691833BF
330
1D69183389
100
AcDbSymbolTableRecord
100
AcDbViewportTableRecord
  2
3
 70
     0
 10
0.0
 20
0.0
 11
1.0
 21
0.5
 12
2.856741999999998
 22
1.052651
 13
0.0
 23
0.0
 14
1.0
 24
1.0
 15
10.0
 25
10.0
 16
0.0
 26
0.0
 36
1.0
 17
0.0
 27
0.0
 37
0.0
 40
2.105302
 41
3.594770999999998
 42
50.0
 43
0.0
 44
0.0
 50
0.0
 51
0.0
 71
     0
 72
   500
 73
     1
 74
     1
 75
     0
 76
     0
 77
     0
 78
     0
  0
VPORT
  5
1D691833C0
330
1D69183389
100
AcDbSymbolTableRecord
100
AcDbViewportTableRecord
  2
4
 70
     0
 10
0.5
 20
0.0
 11
1.0
 21
0.5
 12
2.886858
 22
1.052651
 13
0.0
 23
0.0
 14
1.0
 24
1.0
 15
10.0
 25
10.0
 16
0.0
 26
0.0
 36
1.0
 17
0.0
 27
0.0
 37
0.0
 40
4.275206999999999
 41
1.784314
 42
50.0
 43
0.0
 44
0.0
 50
0.0
 51
0.0
 71
     0
 72
   500
 73
     1
 74
     1
 75
     0
 76
     0
 77
     0
 78
     0
  0
VPORT
  5
1D691833C1
330
1D69183389
100
AcDbSymbolTableRecord
100
AcDbViewportTableRecord
  2
4
 70
     0
 10
0.5
 20
0.5
 11
1.0
 21
1.0
 12
2.86209
 22
1.052651
 13
0.0
 23
0.0
 14
1.0
 24
1.0
 15
10.0
 25
10.0
 16
0.0
 26
0.0
 36
1.0
 17
0.0
 27
0.0
 37
0.0
 40
4.275206999999999
 41
1.772726999999999
 42
50.0
 43
0.0
 44
0.0
 50
0.0
 51
0.0
 71
     0
 72
   500
 73
     1
 74
     1
 75
     0
 76
     0
 77
     0
 78
     0
  0
VPORT
  5
1D691833C2
330
1D69183389
100
AcDbSymbolTableRecord
100
AcDbViewportTableRecord
  2
4
 70
     0
 10
0.0
 20
0.5
 11
0.5
 21
1.0
 12
2.86209
 22
1.052651
 13
0.0
 23
0.0
 14
1.0
 24
1.0
 15
10.0
 25
10.0
 16
0.0
 26
0.0
 36
1.0
 17
0.0
 27
0.0
 37
0.0
 40
4.275206999999999
 41
1.772726999999999
 42
50.0
 43
0.0
 44
0.0
 50
0.0
 51
0.0
 71
     0
 72
   500
 73
     1
 74
     1
 75
     0
 76
     0
 77
     0
 78
     0
  0
VPORT
  5
1D691833C3
330
1D69183389
100
AcDbSymbolTableRecord
100
AcDbViewportTableRecord
  2
4
 70
     0
 10
0.0
 20
0.0
 11
0.5
 21
0.5
 12
2.886858
 22
1.052651
 13
0.0
 23
0.0
 14
1.0
 24
1.0
 15
10.0
 25
10.0
 16
0.0
 26
0.0
 36
1.0
 17
0.0
 27
0.0
 37
0.0
 40
4.275206999999999
 41
1.784314
 42
50.0
 43
0.0
 44
0.0
 50
0.0
 51
0.0
 71
     0
 72
   500
 73
     1
 74
     1
 75
     0
 76
     0
 77
     0
 78
     0
  0
VPORT
  5
1D691846E4
330
1D69183389
100
AcDbSymbolTableRecord
100
AcDbViewportTableRecord
  2
*ACTIVE
 70
     0
 10
0.0
 20
0.0
 11
1.0
 21
1.0
 12
180.9999998428469
 22
136.5000006356275
 13
0.0
 23
0.0
 14
1.0
 24
1.0
 15
10.0
 25
10.0
 16
0.0
 26
0.0
 36
1.0
 17
0.0
 27
0.0
 37
0.0
 40
274.801085229033
 41
1.731733914940021
 42
50.0
 43
0.0
 44
0.0
 50
0.0
 51
0.0
 71
     0
 72
   500
 73
     1
 74
     0
 75
     0
 76
     0
 77
     0
 78
     0
  0
ENDTAB
  0
TABLE
  2
LTYPE
  5
1D69183386
330
0
100
AcDbSymbolTable
 70
     2
  0
LTYPE
  5
1D69183393
330
1D69183386
100
AcDbSymbolTableRecord
100
AcDbLinetypeTableRecord
  2
BYBLOCK
 70
     0
  3

 72
    65
 73
     0
 40
0.0
  0
LTYPE
  5
1D69183394
330
1D69183386
100
AcDbSymbolTableRecord
100
AcDbLinetypeTableRecord
  2
BYLAYER
 70
     0
  3

 72
    65
 73
     0
 40
0.0
  0
LTYPE
  5
1D69183395
330
1D69183386
100
AcDbSymbolTableRecord
100
AcDbLinetypeTableRecord
  2
CONTINUOUS
 70
     0
  3
実線
 72
    65
 73
     0
 40
0.0
  0
LTYPE
  5
1D691833BA
330
1D69183386
100
AcDbSymbolTableRecord
100
AcDbLinetypeTableRecord
  2
PHANTOM
 70
     0
  3
_____ _ _ _____ _ _ _____ _ _ _____ _ _ ____
 72
    65
 73
     6
 40
2.5
 49
1.25
 74
     0
 49
-0.25
 74
     0
 49
0.25
 74
     0
 49
-0.25
 74
     0
 49
0.25
 74
     0
 49
-0.25
 74
     0
  0
ENDTAB
  0
TABLE
  2
LAYER
  5
1D69183383
330
0
100
AcDbSymbolTable
 70
     8
  0
LAYER
  5
1D69183390
330
1D69183383
100
AcDbSymbolTableRecord
100
AcDbLayerTableRecord
  2
0
 70
     0
 62
     7
  6
CONTINUOUS
  0
LAYER
  5
1D691833C9
330
1D69183383
100
AcDbSymbolTableRecord
100
AcDbLayerTableRecord
  2
NITEN
 70
     0
 62
     2
  6
PHANTOM
  0
LAYER
  5
1D691833CA
330
1D69183383
100
AcDbSymbolTableRecord
100
AcDbLayerTableRecord
  2
HATCH
 70
     0
 62
     4
  6
CONTINUOUS
  0
LAYER
  5
1D691833CB
330
1D69183383
100
AcDbSymbolTableRecord
100
AcDbLayerTableRecord
  2
SUNPOU
 70
     0
 62
     3
  6
CONTINUOUS
  0
LAYER
  5
1D691833CC
330
1D69183383
100
AcDbSymbolTableRecord
100
AcDbLayerTableRecord
  2
TEXT
 70
     0
 62
     3
  6
CONTINUOUS
  0
LAYER
  5
1D691833CD
330
1D69183383
100
AcDbSymbolTableRecord
100
AcDbLayerTableRecord
  2
SAISEN
 70
     0
 62
     4
  6
CONTINUOUS
  0
LAYER
  5
1D691833CE
330
1D69183383
100
AcDbSymbolTableRecord
100
AcDbLayerTableRecord
  2
JISSEN
 70
     0
 62
     7
  6
CONTINUOUS
  0
LAYER
  5
1D691833D2
330
1D69183383
100
AcDbSymbolTableRecord
100
AcDbLayerTableRecord
  2
WAKU
 70
     0
 62
     5
  6
CONTINUOUS
  0
ENDTAB
  0
TABLE
  2
STYLE
  5
1D69183384
330
0
100
AcDbSymbolTable
 70
     3
  0
STYLE
  5
1D69183391
330
1D69183384
100
AcDbSymbolTableRecord
100
AcDbTextStyleTableRecord
  2
STANDARD
 70
     0
 40
0.0
 41
1.0
 50
0.0
 71
     0
 42
0.2
  3
ROMANS
  4
EXTFONT
  0
STYLE
  5
1D691833B3
330
1D69183384
100
AcDbSymbolTableRecord
100
AcDbTextStyleTableRecord
  2
K
 70
     0
 40
0.0
 41
1.0
 50
0.0
 71
     0
 42
1.5
  3
ROMANS.shx
  4
bigfont.shx
  0
STYLE
  5
1D691833B5
330
1D69183384
100
AcDbSymbolTableRecord
100
AcDbTextStyleTableRecord
  2
BIGFONT
 70
     0
 40
0.0
 41
1.0
 50
0.0
 71
     0
 42
1.5
  3
txt.shx
  4
bigfont
  0
ENDTAB
  0
TABLE
  2
VIEW
  5
1D69183387
330
0
100
AcDbSymbolTable
 70
     0
  0
ENDTAB
  0
TABLE
  2
UCS
  5
1D69183388
330
0
100
AcDbSymbolTable
 70
     0
  0
ENDTAB
  0
TABLE
  2
APPID
  5
1D6918338A
330
0
100
AcDbSymbolTable
 70
     1
  0
APPID
  5
1D69183392
330
1D6918338A
100
AcDbSymbolTableRecord
100
AcDbRegAppTableRecord
  2
ACAD
 70
     0
  0
ENDTAB
  0
TABLE
  2
DIMSTYLE
  5
1D6918338B
330
0
100
AcDbSymbolTable
 70
     1
  0
DIMSTYLE
105
1D691833C6
330
1D6918338B
100
AcDbSymbolTableRecord
100
AcDbDimStyleTableRecord
  2
IMAO
 70
     0
  3

  4

  5
ARROWANG
  6
ARROWANG
  7
ARROWANG
 40
1.0
 41
1.5
 42
1.0
 43
6.0
 44
1.0
 45
0.0
 46
0.0
 47
495.0
 48
0.0
140
3.0
141
0.0
142
0.0
143
25.4
144
1.0
145
0.0
146
1.0
147
0.09
 71
     0
 72
     0
 73
     0
 74
     0
 75
     0
 76
     0
 77
     1
 78
     8
170
     0
171
     2
172
     1
173
     0
174
     1
175
     0
176
     0
177
     0
178
     0
270
     2
271
     2
272
     2
273
     2
274
     2
340
1D691833B5
275
     0
280
     0
281
     0
282
     0
283
     1
284
     8
285
     8
286
     8
287
     3
288
     0
  0
ENDTAB
  0
TABLE
  2
BLOCK_RECORD
  5
1D69183382
330
0
100
AcDbSymbolTable
 70
     1
  0
BLOCK_RECORD
  5
1D69183399
102
{ACAD_XDICTIONARY
360
1D69183A5C
102
}
330
1D69183382
100
AcDbSymbolTableRecord
100
AcDbBlockTableRecord
  2
*MODEL_SPACE
  0
BLOCK_RECORD
  5
1D69183396
102
{ACAD_XDICTIONARY
360
1D69183A5A
102
}
330
1D69183382
100
AcDbSymbolTableRecord
100
AcDbBlockTableRecord
  2
*PAPER_SPACE
  0
BLOCK_RECORD
  5
1D691833A3
330
1D69183382
100
AcDbSymbolTableRecord
100
AcDbBlockTableRecord
  2
ARROWANG
  0
ENDTAB
  0
ENDSEC
  0
SECTION
  2
BLOCKS
  0
BLOCK
  5
1D691833D6
330
1D69183399
100
AcDbEntity
  8
0
100
AcDbBlockBegin
  2
*MODEL_SPACE
 70
     0
 10
0.0
 20
0.0
 30
0.0
  3
*MODEL_SPACE
  1

  0
ENDBLK
  5
1D691833D7
330
1D69183399
100
AcDbEntity
  8
0
100
AcDbBlockEnd
  0
BLOCK
  5
1D691833D4
330
1D69183396
100
AcDbEntity
 67
     1
  8
0
100
AcDbBlockBegin
  2
*PAPER_SPACE
 70
     0
 10
0.0
 20
0.0
 30
0.0
  3
*PAPER_SPACE
  1

  0
ENDBLK
  5
1D691833D5
330
1D69183396
100
AcDbEntity
 67
     1
  8
0
100
AcDbBlockEnd
  0
BLOCK
  5
1D
330
1D691833A3
100
AcDbEntity
  8
0
100
AcDbBlockBegin
  2
ARROWANG
 70
     0
 10
0.0
 20
0.0
 30
0.0
  3
ARROWANG
  1

  0
LINE
  5
1E
330
1D691833A3
100
AcDbEntity
  8
SUNPOU
100
AcDbLine
 10
0.0
 20
0.0
 30
0.0
 11
-1.5
 21
0.401924
 31
0.0
  0
LINE
  5
1F
330
1D691833A3
100
AcDbEntity
  8
SUNPOU
100
AcDbLine
 10
0.0
 20
0.0
 30
0.0
 11
-1.5
 21
-0.401924
 31
0.0
  0
ENDBLK
  5
20
330
1D691833A3
100
AcDbEntity
  8
0
100
AcDbBlockEnd
  0
ENDSEC
  0
SECTION
  2
ENTITIES
  0
TEXT
  5
9255532
330
1D69183399
100
AcDbEntity
  8
TEXT
100
AcDbText
 10
138.9999989999999
 20
262.5
 30
0.0
 40
3.0
  1
PE
  7
K
 72
     4
 11
141.9999989999999
 21
264.0
 31
0.0
100
AcDbText
  0
TEXT
  5
9255533
330
1D69183399
100
AcDbEntity
  8
TEXT
100
AcDbText
 10
156.7857132857142
 20
262.5
 30
0.0
 40
3.0
  1
1
  7
K
 72
     4
 11
157.999999
 21
264.0
 31
0.0
100
AcDbText
  0
LINE
  5
9255535
330
1D69183399
100
AcDbEntity
  8
JISSEN
100
AcDbLine
 10
91.499999
 20
267.0
 30
0.0
 11
180.999999
 21
267.0
 31
0.0
  0
LINE
  5
9255536
330
1D69183399
100
AcDbEntity
  8
JISSEN
100
AcDbLine
 10
91.499999
 20
261.0
 30
0.0
 11
180.999999
 21
261.0
 31
0.0
  0
TEXT
  5
9255537
330
1D69183399
100
AcDbEntity
  8
TEXT
100
AcDbText
 10
107.899999
 20
268.5
 30
0.0
 40
3.0
  1
名      称
  7
K
 72
     4
 11
116.499999
 21
270.0
 31
0.0
100
AcDbText
  0
TEXT
  5
9255538
330
1D69183399
100
AcDbEntity
  8
TEXT
100
AcDbText
 10
93.299999
 20
268.5
 30
0.0
 40
3.0
  1
番号
  7
K
 72
     4
 11
96.499999
 21
270.0
 31
0.0
100
AcDbText
  0
LINE
  5
9255539
330
1D69183399
100
AcDbEntity
  8
JISSEN
100
AcDbLine
 10
91.499999
 20
261.0
 30
0.0
 11
91.499999
 21
273.0
 31
0.0
  0
LINE
  5
925553A
330
1D69183399
100
AcDbEntity
  8
JISSEN
100
AcDbLine
 10
101.4999989999999
 20
273.0
 30
0.0
 11
101.4999989999999
 21
261.0
 31
0.0
  0
TEXT
  5
925553B
330
1D69183399
100
AcDbEntity
  8
TEXT
100
AcDbText
 10
135.1999989999999
 20
268.5
 30
0.0
 40
3.0
  1
材    質
  7
K
 72
     4
 11
141.9999989999999
 21
270.0
 31
0.0
100
AcDbText
  0
LINE
  5
925553C
330
1D69183399
100
AcDbEntity
  8
JISSEN
100
AcDbLine
 10
131.499999
 20
273.0
 30
0.0
 11
131.499999
 21
261.0
 31
0.0
  0
LINE
  5
925553D
330
1D69183399
100
AcDbEntity
  8
JISSEN
100
AcDbLine
 10
152.4999989999999
 20
261.0
 30
0.0
 11
152.4999989999999
 21
273.0
 31
0.0
  0
TEXT
  5
925553E
330
1D69183399
100
AcDbEntity
  8
TEXT
100
AcDbText
 10
165.6999989999999
 20
268.5
 30
0.0
 40
3.0
  1
備    考
  7
K
 72
     4
 11
172.499999
 21
270.0
 31
0.0
100
AcDbText
  0
TEXT
  5
925553F
330
1D69183399
100
AcDbEntity
  8
TEXT
100
AcDbText
 10
154.799999
 20
268.5
 30
0.0
 40
3.0
  1
個数
  7
K
 72
     4
 11
157.999999
 21
270.0
 31
0.0
100
AcDbText
  0
LINE
  5
9255540
330
1D69183399
100
AcDbEntity
  8
JISSEN
100
AcDbLine
 10
163.499999
 20
273.0
 30
0.0
 11
163.499999
 21
261.0
 31
0.0
  0
LWPOLYLINE
  5
1D691837CF
330
1D69183399
100
AcDbEntity
  8
WAKU
100
AcDbPolyline
 90
        4
 70
     1
 43
0.0
 10
0.0
 20
0.0
 10
180.999999
 20
0.0
 10
180.999999
 20
273.0
 10
0.0
 20
273.0
  0
TEXT
  5
1D691838CA
330
1D69183399
100
AcDbEntity
  8
SUNPOU
100
AcDbText
 10
266.6567619682367
 20
2.849423943005376
 30
0.0
 40
3.0
  1
尺度　1/1
  7
K
100
AcDbText
  0
TEXT
  5
1D691838CB
330
1D69183399
100
AcDbEntity
  8
SUNPOU
100
AcDbText
 10
266.6567619682367
 20
7.849423943005375
 30
0.0
 40
3.0
  1
シーリングプレートMFJ、取付状態図（ヘッドはMFJ  ）
  7
K
100
AcDbText
  0
LINE
  5
1D691838E3
330
1D69183399
100
AcDbEntity
  8
TEXT
100
AcDbLine
 10
356.6368677585665
 20
10.84292506372548
 30
0.0
 11
356.6368677585665
 21
7.842925063725487
 31
0.0
  0
LINE
  5
1D691838E4
330
1D69183399
100
AcDbEntity
  8
TEXT
100
AcDbLine
 10
357.5368677585665
 20
10.84292506372548
 30
0.0
 11
357.5368677585665
 21
7.842925063725487
 31
0.0
  0
LINE
  5
1D691838E5
330
1D69183399
100
AcDbEntity
  8
TEXT
100
AcDbLine
 10
356.1868677585664
 20
7.842925063725487
 30
0.0
 11
357.9868677585665
 21
7.842925063725487
 31
0.0
  0
LINE
  5
1D691838E6
330
1D69183399
100
AcDbEntity
  8
TEXT
100
AcDbLine
 10
356.1868677585664
 20
10.84292506372548
 30
0.0
 11
357.9868677585665
 21
10.84292506372548
 31
0.0
  0
LWPOLYLINE
  5
1D69183952
330
1D69183399
100
AcDbEntity
  8
WAKU
100
AcDbPolyline
 90
        4
 70
     1
 43
0.0
 10
180.999999
 20
0.0
 10
361.999998
 20
0.0
 10
361.999998
 20
273.0
 10
180.999999
 20
273.0
  0
TEXT
  5
1D69183A33
330
1D69183399
100
AcDbEntity
  8
SUNPOU
100
AcDbText
 10
137.2654795647162
 20
7.849423943005375
 30
0.0
 40
3.0
  1
シーリングプレートMFJ
  7
K
100
AcDbText
  0
TEXT
  5
1D69183A34
330
1D69183399
100
AcDbEntity
  8
SUNPOU
100
AcDbText
 10
137.2654795647162
 20
2.849423943005376
 30
0.0
 40
3.0
  1
尺度　1/1
  7
K
100
AcDbText
  0
TEXT
  5
1D69183A35
330
1D69183399
100
AcDbEntity
  8
TEXT
100
AcDbText
 10
102.7478561428571
 20
262.5
 30
0.0
 40
3.0
  1
シーリングプレート MFJ
 41
0.65
  7
K
 72
     4
 11
116.499999
 21
264.0
 31
0.0
100
AcDbText
  0
ARC
  5
1D69184324
330
1D69183399
100
AcDbEntity
  8
JISSEN
100
AcDbCircle
 10
89.49999899999998
 20
109.7185569341093
 30
0.0
 40
26.55
100
AcDbArc
 50
188.665126
 51
171.3348739999998
  0
CIRCLE
  5
1D6918432C
330
1D69183399
100
AcDbEntity
  8
JISSEN
100
AcDbCircle
 10
89.49999899999998
 20
109.7185569341093
 30
0.0
 40
27.5
  0
CIRCLE
  5
1D6918432D
330
1D69183399
100
AcDbEntity
  8
JISSEN
100
AcDbCircle
 10
89.49999899999998
 20
109.7185569341093
 30
0.0
 40
36.5
  0
LINE
  5
1D6918432F
330
1D69183399
100
AcDbEntity
  8
JISSEN
100
AcDbLine
 10
63.25304599999999
 20
113.7185569341093
 30
0.0
 11
63.25304599999999
 21
105.7185569341092
 31
0.0
  0
LINE
  5
1D69184330
330
1D69183399
100
AcDbEntity
  8
JISSEN
100
AcDbLine
 10
61.999999
 20
208.3188909341092
 30
0.0
 11
89.49999899999998
 21
208.3188909341092
 31
0.0
  0
LINE
  5
1D69184333
330
1D69183399
100
AcDbEntity
  8
JISSEN
100
AcDbLine
 10
61.999999
 20
204.3188909341092
 30
0.0
 11
61.999999
 21
208.3188909341092
 31
0.0
  0
LINE
  5
1D69184335
330
1D69183399
100
AcDbEntity
  8
JISSEN
100
AcDbLine
 10
61.999999
 20
208.3188909341092
 30
0.0
 11
53.74117999999999
 21
210.5318349341092
 31
0.0
  0
ARC
  5
1D69184337
330
1D69183399
100
AcDbEntity
  8
JISSEN
100
AcDbCircle
 10
53.999999
 20
211.4977609341092
 30
0.0
 40
1.0
100
AcDbArc
 50
180.0
 51
254.9999999999989
  0
LINE
  5
1D69184338
330
1D69183399
100
AcDbEntity
  8
JISSEN
100
AcDbLine
 10
52.999999
 20
211.4977609341092
 30
0.0
 11
52.999999
 21
211.8188909341093
 31
0.0
  0
LINE
  5
1D69184395
330
1D69183399
100
AcDbEntity
  8
JISSEN
100
AcDbLine
 10
125.999999
 20
211.4977609341092
 30
0.0
 11
125.999999
 21
211.8188909341093
 31
0.0
  0
ARC
  5
1D69184396
330
1D69183399
100
AcDbEntity
  8
JISSEN
100
AcDbCircle
 10
124.999999
 20
211.4977609341092
 30
0.0
 40
1.0
100
AcDbArc
 50
285.0000000000009
 51
0.000000000000007
  0
LINE
  5
1D69184397
330
1D69183399
100
AcDbEntity
  8
JISSEN
100
AcDbLine
 10
116.9999989999999
 20
208.3188909341092
 30
0.0
 11
125.2588179999999
 21
210.5318349341092
 31
0.0
  0
LINE
  5
1D69184398
330
1D69183399
100
AcDbEntity
  8
JISSEN
100
AcDbLine
 10
116.9999989999999
 20
204.3188909341092
 30
0.0
 11
116.9999989999999
 21
208.3188909341092
 31
0.0
  0
LINE
  5
1D69184399
330
1D69183399
100
AcDbEntity
  8
JISSEN
100
AcDbLine
 10
116.9999989999999
 20
208.3188909341092
 30
0.0
 11
89.49999899999998
 21
208.3188909341092
 31
0.0
  0
LINE
  5
1D6918439A
330
1D69183399
100
AcDbEntity
  8
JISSEN
100
AcDbLine
 10
125.999999
 20
211.8188909341093
 30
0.0
 11
52.999999
 21
211.8188909341093
 31
0.0
  0
LINE
  5
1D6918439B
330
1D69183399
100
AcDbEntity
  8
JISSEN
100
AcDbLine
 10
61.999999
 20
204.3188909341092
 30
0.0
 11
116.9999989999999
 21
204.3188909341092
 31
0.0
  0
LINE
  5
1D6918449A
330
1D69183399
100
AcDbEntity
  8
JISSEN
100
AcDbLine
 10
278.0000825329128
 20
139.2744450173349
 30
0.0
 11
275.0000825329128
 21
139.2744450173355
 31
0.0
  0
LINE
  5
1D6918449B
330
1D69183399
100
AcDbEntity
  8
JISSEN
100
AcDbLine
 10
288.2500825329131
 20
140.7744450173328
 30
0.0
 11
275.0000825329164
 21
140.7744450173326
 31
0.0
  0
LINE
  5
1D6918449C
330
1D69183399
100
AcDbEntity
  8
JISSEN
100
AcDbLine
 10
275.0000825329164
 20
144.888562694997
 30
0.0
 11
287.5500825329138
 21
144.8885626949951
 31
0.0
1001
ACAD
1000
ASC_BOUNDS
1002
{
1070
    19
1002
}
  0
LINE
  5
1D6918449D
330
1D69183399
100
AcDbEntity
  8
JISSEN
100
AcDbLine
 10
288.2500825329133
 20
142.2744450173331
 30
0.0
 11
275.0000825329164
 21
142.2744450173355
 31
0.0
  0
LINE
  5
1D6918449E
330
1D69183399
100
AcDbEntity
  8
JISSEN
100
AcDbLine
 10
275.0000825329184
 20
157.9744450173364
 30
0.0
 11
276.0000825329183
 21
157.9744450173364
 31
0.0
  0
ARC
  5
1D6918449F
330
1D69183399
100
AcDbEntity
  8
JISSEN
100
AcDbCircle
 10
275.0000825329184
 20
160.4744450173363
 30
0.0
 40
1.0
100
AcDbArc
 50
270.0
 51
0.000000000000007
  0
LINE
  5
1D691844A0
330
1D69183399
100
AcDbEntity
  8
JISSEN
100
AcDbLine
 10
300.5000825329183
 20
159.4744450173363
 30
0.0
 11
275.0000825329184
 21
159.4744450173363
 31
0.0
  0
LINE
  5
1D691844A1
330
1D69183399
100
AcDbEntity
  8
JISSEN
100
AcDbLine
 10
301.3500825329182
 20
167.9744450173364
 30
0.0
 11
275.0000825329184
 21
167.9744450173364
 31
0.0
  0
LINE
  5
1D691844A2
330
1D69183399
100
AcDbEntity
  8
JISSEN
100
AcDbLine
 10
302.5000825329184
 20
160.4744450173363
 30
0.0
 11
247.5000825329183
 21
160.4744450173363
 31
0.0
  0
LINE
  5
1D691844A3
330
1D69183399
100
AcDbEntity
  8
JISSEN
100
AcDbLine
 10
247.5000825329183
 20
164.4744450173363
 30
0.0
 11
302.5000825329184
 21
164.4744450173365
 31
0.0
  0
LINE
  5
1D691844A4
330
1D69183399
100
AcDbEntity
  8
JISSEN
100
AcDbLine
 10
275.0000825329184
 20
150.1775660173364
 30
0.0
 11
276.0000825329183
 21
150.1775660173364
 31
0.0
  0
LINE
  5
1D691844A5
330
1D69183399
100
AcDbEntity
  8
JISSEN
100
AcDbLine
 10
276.0000825329183
 20
151.2813440173365
 30
0.0
 11
275.0000825329184
 21
151.2813440173365
 31
0.0
  0
LINE
  5
1D691844A6
330
1D69183399
100
AcDbEntity
  8
JISSEN
100
AcDbLine
 10
275.0000825329184
 20
146.638562694997
 30
0.0
 11
289.5292855495201
 21
146.6385626949969
 31
0.0
1001
ACAD
1000
ASC_BOUNDS
1002
{
1070
    19
1002
}
  0
LINE
  5
1D691844A7
330
1D69183399
100
AcDbEntity
  8
JISSEN
100
AcDbLine
 10
238.5000825329183
 20
167.9744450173364
 30
0.0
 11
311.5000825329183
 21
167.9744450173364
 31
0.0
  0
LWPOLYLINE
  5
1D691844A8
330
1D69183399
100
AcDbEntity
  8
NITEN
100
AcDbPolyline
 90
        2
 70
     0
 43
0.0
 10
291.9999990949023
 20
236.9227115742096
 42
0.5882352941176295
 10
274.9999990949023
 20
236.92271157421
 42
0.5882352941176295
  0
LINE
  5
1D691844A9
330
1D69183399
100
AcDbEntity
  8
JISSEN
100
AcDbLine
 10
284.0000825329184
 20
185.97444501734
 30
0.0
 11
275.0000825329184
 21
185.97444501734
 31
0.0
  0
LINE
  5
1D691844AA
330
1D69183399
100
AcDbEntity
  8
JISSEN
100
AcDbLine
 10
285.2620065329182
 20
184.7125200173401
 30
0.0
 11
275.0000825329184
 21
184.7125200173401
 31
0.0
  0
LWPOLYLINE
  5
1D691844AB
330
1D69183399
100
AcDbEntity
  8
NITEN
100
AcDbPolyline
 90
       15
 70
     1
 43
0.0
 10
260.9999990949023
 20
175.5849939230638
 42
0.4142135623730927
 10
262.4999990949021
 20
174.0849939230638
 10
285.5940502658988
 20
174.0849939230638
 10
287.4999990949023
 20
174.0849939230638
 42
0.4142135623730925
 10
288.9999990949023
 20
175.5849939230638
 10
288.9999990949023
 20
186.6310099492818
 42
-0.4142135623730943
 10
293.9999990949023
 20
191.6310099492818
 42
0.4142135623730951
 10
295.9999990949023
 20
193.6310099492818
 10
295.9999990949021
 20
214.0849939230638
 42
0.4142135623730949
 10
293.9999990949023
 20
216.0849939230638
 10
255.9999990949023
 20
216.0849939230638
 42
0.4142135623730951
 10
253.9999990949023
 20
214.0849939230638
 10
253.9999990949023
 20
193.6310099492818
 42
0.4142135623730951
 10
255.9999990949023
 20
191.6310099492818
 42
-0.4142135623730961
 10
260.9999990949023
 20
186.6310099492818
  0
LINE
  5
1D691844AC
330
1D69183399
100
AcDbEntity
  8
JISSEN
100
AcDbLine
 10
275.0000825329184
 20
170.2152120173364
 30
0.0
 11
285.6213155329183
 21
170.2152120173364
 31
0.0
  0
LINE
  5
1D691844AD
102
{ACAD_REACTORS
330
1D691844AF
102
}
330
1D69183399
100
AcDbEntity
  8
JISSEN
100
AcDbLine
 10
301.3500825329182
 20
167.9744450173364
 30
0.0
 11
275.0000825329184
 21
167.9744450173364
 31
0.0
  0
LWPOLYLINE
  5
1D691844AE
330
1D69183399
100
AcDbEntity
  8
NITEN
100
AcDbPolyline
 90
        5
 70
     0
 43
0.0
 10
291.9999990949023
 20
216.0849939230638
 10
291.9999990949023
 20
236.9227115742096
 42
-0.5882352941176476
 10
274.9999990949023
 20
236.9227115742096
 42
0.5882352941176477
 10
257.9999990949023
 20
236.9227115742094
 10
257.9999990949023
 20
216.0849939230638
  0
HATCH
  5
1D691844AF
330
1D69183399
100
AcDbEntity
  8
HATCH
100
AcDbHatch
 10
0.0
 20
0.0
 30
0.0
210
0.0
220
0.0
230
1.0
  2
_U
 70
     0
 71
     1
 91
        2
 92
        7
 72
     0
 73
     1
 93
       15
 10
292.5000825329183
 20
172.9744450173364
 10
292.5000825329183
 20
167.9744450173363
 10
301.3500825329182
 20
167.9744450173364
 10
340.2741457908179
 20
167.9744450173363
 10
340.5837093082972
 20
168.7226135611911
 10
340.9139659010118
 20
169.2601845588198
 10
341.2951019273614
 20
169.6834049474441
 10
341.7052743401551
 20
170.0247180390686
 10
342.1226400922005
 20
170.3165671456963
 10
342.5253561363108
 20
170.5913955793354
 10
342.8915794252906
 20
170.8816466519854
 10
343.1994669119495
 20
171.2197636756523
 10
343.4271755490974
 20
171.6381899623401
 10
343.5690809057778
 20
172.1548079391046
 10
343.7336680840276
 20
172.9744450173363
 97
        5
330
1D69184593
330
1D6918458A
330
1D69184590
330
1D691844AD
330
1D69184589
 92
        7
 72
     0
 73
     1
 93
       14
 10
206.2663301057769
 20
172.9744450173363
 10
206.4309172840269
 20
172.1548079391041
 10
206.5728226407071
 20
171.63818996234
 10
206.8005312778549
 20
171.2197636756523
 10
207.1084187645142
 20
170.8816466519854
 10
207.4746420534939
 20
170.5913955793351
 10
207.8773580976029
 20
170.3165671456947
 10
208.2947238496497
 20
170.0247180390685
 10
208.7048962624431
 20
169.6834049474439
 10
209.0860322887928
 20
169.2601845588198
 10
209.4162888815073
 20
168.7226135611915
 10
209.7258523989867
 20
167.9744450173364
 10
257.5000825329183
 20
167.9744450173364
 10
257.5000825329183
 20
172.9744450173364
 97
        4
330
1D69184514
330
1D69184515
330
1D69184513
330
1D6918451D
 75
     0
 76
     0
 52
45.0
 41
2.0
 77
     0
 78
     1
 53
45.0
 43
184.9999990949022
 44
-12.35414914321606
 45
-1.414213562373094
 46
1.414213562373094
 79
     0
 47
0.2346837798524018
 98
        2
 10
302.2263865847468
 20
170.8300768529921
 10
251.2585812910908
 20
171.534127906763
  0
ARC
  5
1D691844B1
330
1D69183399
100
AcDbEntity
  8
JISSEN
100
AcDbCircle
 10
239.5000825329183
 20
167.6533147371924
 30
0.0
 40
1.0
100
AcDbArc
 50
180.0
 51
255.0000000000189
  0
LINE
  5
1D691844B2
330
1D69183399
100
AcDbEntity
  8
JISSEN
100
AcDbLine
 10
262.2500825329186
 20
146.638562694997
 30
0.0
 11
262.2500825329189
 21
145.0885626949937
 31
0.0
1001
ACAD
1000
ASC_BOUNDS
1002
{
1070
    19
1002
}
  0
LINE
  5
1D691844B3
330
1D69183399
100
AcDbEntity
  8
JISSEN
100
AcDbLine
 10
261.7500825329195
 20
142.2744450173331
 30
0.0
 11
275.0000825329164
 21
142.2744450173355
 31
0.0
  0
LINE
  5
1D691844B4
330
1D69183399
100
AcDbEntity
  8
JISSEN
100
AcDbLine
 10
272.00008253292
 20
139.2744450173349
 30
0.0
 11
263.2500825329195
 21
139.2744450173335
 31
0.0
  0
LINE
  5
1D691844B5
330
1D69183399
100
AcDbEntity
  8
JISSEN
100
AcDbLine
 10
275.0000825329165
 20
144.888562694997
 30
0.0
 11
262.450082532919
 21
144.8885626949951
 31
0.0
1001
ACAD
1000
ASC_BOUNDS
1002
{
1070
    19
1002
}
  0
LINE
  5
1D691844B6
330
1D69183399
100
AcDbEntity
  8
JISSEN
100
AcDbLine
 10
261.7500825329198
 20
140.7744450173328
 30
0.0
 11
275.0000825329165
 21
140.7744450173326
 31
0.0
  0
LINE
  5
1D691844B7
330
1D69183399
100
AcDbEntity
  8
JISSEN
100
AcDbLine
 10
263.2500825329195
 20
139.2744450173335
 30
0.0
 11
261.7500825329198
 21
140.7744450173328
 31
0.0
  0
ARC
  5
1D691844B8
330
1D69183399
100
AcDbEntity
  8
JISSEN
100
AcDbCircle
 10
262.450082532919
 20
145.0885626949949
 30
0.0
 40
0.2
100
AcDbArc
 50
180.0000000000114
 51
270.0000000000065
1001
ACAD
1000
ASC_BOUNDS
1002
{
1070
    19
1002
}
  0
LINE
  5
1D691844B9
330
1D69183399
100
AcDbEntity
  8
JISSEN
100
AcDbLine
 10
261.7500825329195
 20
142.2744450173326
 30
0.0
 11
261.7500825329198
 21
140.7744450173328
 31
0.0
  0
LINE
  5
1D691844BA
330
1D69183399
100
AcDbEntity
  8
JISSEN
100
AcDbLine
 10
272.00008253292
 20
139.2744450173349
 30
0.0
 11
275.00008253292
 21
139.2744450173355
 31
0.0
  0
LINE
  5
1D691844BB
330
1D69183399
100
AcDbEntity
  8
JISSEN
100
AcDbLine
 10
268.7500825329191
 20
143.4207846905966
 30
0.0
 11
272.5000825329165
 21
143.6929808866404
 31
0.0
  0
LINE
  5
1D691844BC
330
1D69183399
100
AcDbEntity
  8
JISSEN
100
AcDbLine
 10
268.7500825329194
 20
142.2744450173344
 30
0.0
 11
268.7500825329188
 21
144.8885626949961
 31
0.0
  0
LINE
  5
1D691844BD
330
1D69183399
100
AcDbEntity
  8
JISSEN
100
AcDbLine
 10
266.0545437061479
 20
144.4199231719962
 30
0.0
 11
265.4043516866463
 21
143.3329539983361
 31
0.0
  0
ARC
  5
1D691844BE
330
1D69183399
100
AcDbEntity
  8
JISSEN
100
AcDbCircle
 10
265.5759887109502
 20
143.2302859317914
 30
0.0
 40
0.2
100
AcDbArc
 50
149.1134150964271
 51
240.0000000000111
  0
ARC
  5
1D691844BF
330
1D69183399
100
AcDbEntity
  8
JISSEN
100
AcDbCircle
 10
266.9127288276655
 20
143.9065828392734
 30
0.0
 40
1.0
100
AcDbArc
 50
100.8935918178659
 51
149.1134150964166
  0
ARC
  5
1D691844C0
330
1D69183399
100
AcDbEntity
  8
JISSEN
100
AcDbCircle
 10
266.4119384964718
 20
142.7476500980918
 30
0.0
 40
0.2
100
AcDbArc
 50
240.0000000000111
 51
330.0000000000101
  0
LINE
  5
1D691844C1
330
1D69183399
100
AcDbEntity
  8
JISSEN
100
AcDbLine
 10
266.8775647171036
 20
144.8885626949958
 30
0.0
 11
266.8775647171041
 21
142.2744450173341
 31
0.0
  0
LINE
  5
1D691844C2
330
1D69183399
100
AcDbEntity
  8
JISSEN
100
AcDbLine
 10
266.5851435772288
 20
142.6476500980918
 30
0.0
 11
266.8775647171039
 21
143.154138369563
 31
0.0
  0
LINE
  5
1D691844C3
330
1D69183399
100
AcDbEntity
  8
JISSEN
100
AcDbLine
 10
265.4759887109503
 20
143.0570808510345
 30
0.0
 11
266.3119384964719
 21
142.5744450173349
 31
0.0
  0
LINE
  5
1D691844C4
330
1D69183399
100
AcDbEntity
  8
JISSEN
100
AcDbLine
 10
272.5000825329165
 20
142.2744450173351
 30
0.0
 11
272.5000825329165
 21
144.8885626949965
 31
0.0
  0
LINE
  5
1D691844C5
330
1D69183399
100
AcDbEntity
  8
JISSEN
100
AcDbLine
 10
254.3269885329184
 20
157.9744450173364
 30
0.0
 11
253.4251415329183
 21
157.9744450173364
 31
0.0
  0
LINE
  5
1D691844C6
330
1D69183399
100
AcDbEntity
  8
JISSEN
100
AcDbLine
 10
249.5000825329183
 20
159.4744450173363
 30
0.0
 11
275.0000825329184
 21
159.4744450173363
 31
0.0
  0
LINE
  5
1D691844C7
330
1D69183399
100
AcDbEntity
  8
JISSEN
100
AcDbLine
 10
248.5000825329183
 20
160.4744450173363
 30
0.0
 11
274.0000825329183
 21
160.4744450173363
 31
0.0
  0
LINE
  5
1D691844C8
330
1D69183399
100
AcDbEntity
  8
JISSEN
100
AcDbLine
 10
254.2416065329184
 20
150.9537740173364
 30
0.0
 11
255.6297055329184
 21
150.2235610173364
 31
0.0
  0
LINE
  5
1D691844C9
330
1D69183399
100
AcDbEntity
  8
JISSEN
100
AcDbLine
 10
260.4708795163166
 20
146.6385626949969
 30
0.0
 11
251.9200572134745
 21
150.6590105342685
 31
0.0
1001
ACAD
1000
ASC_BOUNDS
1002
{
1070
    19
1002
}
  0
LINE
  5
1D691844CA
330
1D69183399
100
AcDbEntity
  8
JISSEN
100
AcDbLine
 10
254.0893415329184
 20
157.7568780173365
 30
0.0
 11
254.6200955329184
 21
151.7374280173364
 31
0.0
  0
LINE
  5
1D691844CB
330
1D69183399
100
AcDbEntity
  8
JISSEN
100
AcDbLine
 10
253.0269205329183
 20
157.5367580173365
 30
0.0
 11
253.5526225329184
 21
151.9818120173364
 31
0.0
  0
LINE
  5
1D691844CC
330
1D69183399
100
AcDbEntity
  8
JISSEN
100
AcDbLine
 10
250.5313155329183
 20
157.9744450173364
 30
0.0
 11
251.0640098803009
 21
151.8857171167975
 31
0.0
  0
LINE
  5
1D691844CD
330
1D69183399
100
AcDbEntity
  8
JISSEN
100
AcDbLine
 10
250.7617585329183
 20
157.5538810173364
 30
0.0
 11
251.3495885329183
 21
152.0916320173363
 31
0.0
  0
LINE
  5
1D691844CE
330
1D69183399
100
AcDbEntity
  8
JISSEN
100
AcDbLine
 10
251.8765915329183
 20
152.0353430173364
 30
0.0
 11
251.2446605329184
 21
157.9073810173364
 31
0.0
  0
ARC
  5
1D691844CF
330
1D69183399
100
AcDbEntity
  8
JISSEN
100
AcDbCircle
 10
252.5583019342402
 20
152.0164506531741
 30
0.0
 40
1.5
100
AcDbArc
 50
184.9999970190193
 51
244.8179069454195
  0
LINE
  5
1D691844D0
330
1D69183399
100
AcDbEntity
  8
JISSEN
100
AcDbLine
 10
254.1351755329184
 20
150.2951820173364
 30
0.0
 11
252.6233165329184
 21
150.9945730173363
 31
0.0
  0
LINE
  5
1D691844D1
330
1D69183399
100
AcDbEntity
  8
JISSEN
100
AcDbLine
 10
252.1537555329184
 20
150.9708030173364
 30
0.0
 11
253.6206535329184
 21
150.2922110173364
 31
0.0
  0
ARC
  5
1D691844D2
330
1D69183399
100
AcDbEntity
  8
JISSEN
100
AcDbCircle
 10
254.0405085329183
 20
151.1998030173365
 30
0.0
 40
1.0
100
AcDbArc
 50
245.1745949999999
 51
270.0
  0
LINE
  5
1D691844D3
330
1D69183399
100
AcDbEntity
  8
JISSEN
100
AcDbLine
 10
254.0405085329183
 20
150.1998030173365
 30
0.0
 11
254.1141835329184
 21
150.1998030173365
 31
0.0
  0
ARC
  5
1D691844D4
330
1D69183399
100
AcDbEntity
  8
JISSEN
100
AcDbCircle
 10
254.1141835329184
 20
150.2498030173364
 30
0.0
 40
0.05
100
AcDbArc
 50
270.0
 51
65.17459500000001
  0
ARC
  5
1D691844D5
330
1D69183399
100
AcDbEntity
  8
JISSEN
100
AcDbCircle
 10
254.8468395329184
 20
152.1042930173365
 30
0.0
 40
1.3
100
AcDbArc
 50
185.4061850000004
 51
242.2532619999987
  0
ARC
  5
1D691844D6
330
1D69183399
100
AcDbEntity
  8
JISSEN
100
AcDbCircle
 10
252.7415515329183
 20
152.2414310173365
 30
0.0
 40
1.399999999999999
100
AcDbArc
 50
186.1423569999999
 51
245.1745949999999
  0
ARC
  5
1D691844D7
330
1D69183399
100
AcDbEntity
  8
JISSEN
100
AcDbCircle
 10
253.1691275329183
 20
152.1744420173364
 30
0.0
 40
1.3
100
AcDbArc
 50
186.1423569999999
 51
245.1745949999999
  0
LINE
  5
1D691844D8
330
1D69183399
100
AcDbEntity
  8
JISSEN
100
AcDbLine
 10
247.5000825329183
 20
164.4744450173363
 30
0.0
 11
239.2412634878162
 21
166.6873889109034
 31
0.0
  0
LINE
  5
1D691844D9
330
1D69183399
100
AcDbEntity
  8
JISSEN
100
AcDbLine
 10
247.5000825329183
 20
160.4744450173363
 30
0.0
 11
247.5000825329183
 21
164.4744450173363
 31
0.0
  0
LINE
  5
1D691844DA
330
1D69183399
100
AcDbEntity
  8
JISSEN
100
AcDbLine
 10
248.5000825329183
 20
160.4744450173363
 30
0.0
 11
249.5000825329183
 21
159.4744450173363
 31
0.0
  0
LINE
  5
1D691844DB
330
1D69183399
100
AcDbEntity
  8
JISSEN
100
AcDbLine
 10
249.5000825329183
 20
159.4744450173363
 30
0.0
 11
250.4000825329184
 21
159.4744450173363
 31
0.0
  0
ARC
  5
1D691844DC
330
1D69183399
100
AcDbEntity
  8
JISSEN
100
AcDbCircle
 10
253.4251415329183
 20
157.5744450173365
 30
0.0
 40
0.4
100
AcDbArc
 50
90.0
 51
185.4061850000004
  0
ARC
  5
1D691844DD
330
1D69183399
100
AcDbEntity
  8
JISSEN
100
AcDbCircle
 10
254.2885685329184
 20
157.7744450173364
 30
0.0
 40
0.2
100
AcDbArc
 50
90.0
 51
185.0389269999999
  0
ARC
  5
1D691844DE
330
1D69183399
100
AcDbEntity
  8
JISSEN
100
AcDbCircle
 10
251.1452345329183
 20
157.8966810173364
 30
0.0
 40
0.1
100
AcDbArc
 50
6.142356999999977
 51
87.28209800000021
  0
ARC
  5
1D691844DF
330
1D69183399
100
AcDbEntity
  8
JISSEN
100
AcDbCircle
 10
251.1594615329183
 20
157.5966810173364
 30
0.0
 40
0.4
100
AcDbArc
 50
91.35885499999742
 51
186.1423569999999
  0
LINE
  5
1D691844E0
330
1D69183399
100
AcDbEntity
  8
JISSEN
100
AcDbLine
 10
250.4000825329184
 20
159.4744450173363
 30
0.0
 11
250.5313155329183
 21
157.9744450173364
 31
0.0
  0
LINE
  5
1D691844E1
330
1D69183399
100
AcDbEntity
  8
JISSEN
100
AcDbLine
 10
273.5000825329183
 20
157.4744450173364
 30
0.0
 11
273.5000825329183
 21
150.6775660173364
 31
0.0
  0
LINE
  5
1D691844E2
330
1D69183399
100
AcDbEntity
  8
JISSEN
100
AcDbLine
 10
268.2582295329183
 20
151.3751690173364
 30
0.0
 11
268.0187775329184
 21
157.7819150173365
 31
0.0
  0
LINE
  5
1D691844E3
330
1D69183399
100
AcDbEntity
  8
JISSEN
100
AcDbLine
 10
260.3790615329184
 20
157.7884590173364
 30
0.0
 11
260.8228685329184
 21
151.4701930173364
 31
0.0
  0
LINE
  5
1D691844E4
330
1D69183399
100
AcDbEntity
  8
JISSEN
100
AcDbLine
 10
265.6298775329184
 20
157.7157440173365
 30
0.0
 11
265.8438555329183
 21
151.5709040173364
 31
0.0
  0
LINE
  5
1D691844E5
330
1D69183399
100
AcDbEntity
  8
JISSEN
100
AcDbLine
 10
265.2041355329183
 20
157.6632400173365
 30
0.0
 11
265.4309695329183
 21
151.5940920173364
 31
0.0
  0
LINE
  5
1D691844E6
330
1D69183399
100
AcDbEntity
  8
JISSEN
100
AcDbLine
 10
258.8938425329183
 20
157.6548530173363
 30
0.0
 11
259.2864855329183
 21
151.6552220173364
 31
0.0
  0
LINE
  5
1D691844E7
330
1D69183399
100
AcDbEntity
  8
JISSEN
100
AcDbLine
 10
258.4982055329184
 20
151.8478900173364
 30
0.0
 11
258.0941715329184
 21
157.5999200173364
 31
0.0
  0
LINE
  5
1D691844E8
330
1D69183399
100
AcDbEntity
  8
JISSEN
100
AcDbLine
 10
255.0942735329184
 20
151.5519950173364
 30
0.0
 11
254.5261655329183
 21
157.7925770173364
 31
0.0
  0
LINE
  5
1D691844E9
330
1D69183399
100
AcDbEntity
  8
JISSEN
100
AcDbLine
 10
275.0000825329184
 20
146.638562694997
 30
0.0
 11
260.4708795163166
 21
146.6385626949969
 31
0.0
1001
ACAD
1000
ASC_BOUNDS
1002
{
1070
    19
1002
}
  0
LINE
  5
1D691844EA
330
1D69183399
100
AcDbEntity
  8
JISSEN
100
AcDbLine
 10
256.8588075329183
 20
150.3660680173364
 30
0.0
 11
255.3594325329183
 21
151.1548180173365
 31
0.0
  0
LINE
  5
1D691844EB
330
1D69183399
100
AcDbEntity
  8
JISSEN
100
AcDbLine
 10
260.0044295329183
 20
150.2420140173365
 30
0.0
 11
259.0013635329183
 21
150.9529360173365
 31
0.0
  0
LINE
  5
1D691844EC
330
1D69183399
100
AcDbEntity
  8
JISSEN
100
AcDbLine
 10
260.9905885329184
 20
151.1718750173364
 30
0.0
 11
262.0091835329183
 21
150.4499460173365
 31
0.0
  0
ARC
  5
1D691844ED
330
1D69183399
100
AcDbEntity
  8
JISSEN
100
AcDbCircle
 10
256.8122505329183
 20
150.2775660173365
 30
0.0
 40
0.1
100
AcDbArc
 50
270.0
 51
62.25326199999885
  0
ARC
  5
1D691844EE
330
1D69183399
100
AcDbEntity
  8
JISSEN
100
AcDbCircle
 10
255.8159315329183
 20
150.5775660173364
 30
0.0
 40
0.4
100
AcDbArc
 50
242.2532619999987
 51
270.0
  0
LINE
  5
1D691844EF
330
1D69183399
100
AcDbEntity
  8
JISSEN
100
AcDbLine
 10
255.8159315329183
 20
150.1775660173364
 30
0.0
 11
256.8122505329183
 21
150.1775660173364
 31
0.0
  0
ARC
  5
1D691844F0
330
1D69183399
100
AcDbEntity
  8
JISSEN
100
AcDbCircle
 10
261.9224475329184
 20
150.3275660173364
 30
0.0
 40
0.15
100
AcDbArc
 50
270.0
 51
54.67293199999931
  0
ARC
  5
1D691844F1
330
1D69183399
100
AcDbEntity
  8
JISSEN
100
AcDbCircle
 10
260.2068145329183
 20
150.5275660173365
 30
0.0
 40
0.35
100
AcDbArc
 50
234.6729319999993
 51
270.0
  0
LINE
  5
1D691844F2
330
1D69183399
100
AcDbEntity
  8
JISSEN
100
AcDbLine
 10
261.9224475329184
 20
150.1775660173364
 30
0.0
 11
260.2068145329183
 21
150.1775660173364
 31
0.0
  0
ARC
  5
1D691844F3
330
1D69183399
100
AcDbEntity
  8
JISSEN
100
AcDbCircle
 10
259.6856315329184
 20
151.6813440173365
 30
0.0
 40
0.4
100
AcDbArc
 50
183.7443620000001
 51
270.0
  0
ARC
  5
1D691844F4
330
1D69183399
100
AcDbEntity
  8
JISSEN
100
AcDbCircle
 10
259.6952555329183
 20
151.9319730173364
 30
0.0
 40
1.199999999999999
100
AcDbArc
 50
184.0179690000003
 51
234.6729319999993
  0
ARC
  5
1D691844F5
330
1D69183399
100
AcDbEntity
  8
JISSEN
100
AcDbCircle
 10
255.5922145329184
 20
151.5973250173364
 30
0.0
 40
0.5
100
AcDbArc
 50
185.2015590000002
 51
242.2532619999987
  0
ARC
  5
1D691844F6
330
1D69183399
100
AcDbEntity
  8
JISSEN
100
AcDbCircle
 10
255.1181635329184
 20
151.7813440173364
 30
0.0
 40
0.5
100
AcDbArc
 50
185.0389269999999
 51
279.3495549999982
  0
LINE
  5
1D691844F7
330
1D69183399
100
AcDbEntity
  8
JISSEN
100
AcDbLine
 10
259.6856315329184
 20
151.2813440173365
 30
0.0
 11
260.8857835329184
 21
151.2813440173365
 31
0.0
  0
ARC
  5
1D691844F8
330
1D69183399
100
AcDbEntity
  8
JISSEN
100
AcDbCircle
 10
261.2218855329184
 20
151.4982210173364
 30
0.0
 40
0.4
100
AcDbArc
 50
184.0179690000003
 51
234.6729319999993
  0
ARC
  5
1D691844F9
330
1D69183399
100
AcDbEntity
  8
JISSEN
100
AcDbCircle
 10
274.0000825329183
 20
150.6775660173364
 30
0.0
 40
0.5
100
AcDbArc
 50
180.0
 51
270.0
  0
LINE
  5
1D691844FA
330
1D69183399
100
AcDbEntity
  8
JISSEN
100
AcDbLine
 10
265.6305575329183
 20
151.0310600173365
 30
0.0
 11
266.1813085329184
 21
150.2974520173365
 31
0.0
  0
LINE
  5
1D691844FB
330
1D69183399
100
AcDbEntity
  8
JISSEN
100
AcDbLine
 10
268.8500955329183
 20
150.4976430173365
 30
0.0
 11
268.3181055329184
 21
151.2062590173364
 31
0.0
  0
ARC
  5
1D691844FC
330
1D69183399
100
AcDbEntity
  8
JISSEN
100
AcDbCircle
 10
266.4212235329184
 20
150.4775660173365
 30
0.0
 40
0.3
100
AcDbArc
 50
216.8971619999989
 51
270.0
  0
LINE
  5
1D691844FD
330
1D69183399
100
AcDbEntity
  8
JISSEN
100
AcDbLine
 10
266.4212235329184
 20
150.1775660173364
 30
0.0
 11
268.6901525329183
 21
150.1775660173364
 31
0.0
  0
ARC
  5
1D691844FE
330
1D69183399
100
AcDbEntity
  8
JISSEN
100
AcDbCircle
 10
268.6901525329183
 20
150.3775660173364
 30
0.0
 40
0.2
100
AcDbArc
 50
270.0
 51
36.89716199999899
  0
LINE
  5
1D691844FF
330
1D69183399
100
AcDbEntity
  8
JISSEN
100
AcDbLine
 10
275.0000825329184
 20
150.1775660173364
 30
0.0
 11
274.0000825329183
 21
150.1775660173364
 31
0.0
  0
ARC
  5
1D69184500
330
1D69183399
100
AcDbEntity
  8
JISSEN
100
AcDbCircle
 10
268.5580205329184
 20
151.3863730173364
 30
0.0
 40
0.3
100
AcDbArc
 50
182.1404319999997
 51
216.8971619999989
  0
ARC
  5
1D69184501
330
1D69183399
100
AcDbEntity
  8
JISSEN
100
AcDbCircle
 10
266.1436735329183
 20
151.5813440173364
 30
0.0
 40
0.3
100
AcDbArc
 50
181.994368
 51
270.0
  0
ARC
  5
1D69184502
330
1D69183399
100
AcDbEntity
  8
JISSEN
100
AcDbCircle
 10
266.4302715329183
 20
151.6314410173364
 30
0.0
 40
1.0
100
AcDbArc
 50
182.1404319999997
 51
216.8971619999989
  0
LINE
  5
1D69184503
330
1D69183399
100
AcDbEntity
  8
JISSEN
100
AcDbLine
 10
266.1436735329183
 20
151.2813440173365
 30
0.0
 11
268.2770065329183
 21
151.2813440173365
 31
0.0
  0
LINE
  5
1D69184504
330
1D69183399
100
AcDbEntity
  8
JISSEN
100
AcDbLine
 10
274.0000825329183
 20
151.2813440173365
 30
0.0
 11
275.0000825329184
 21
151.2813440173365
 31
0.0
  0
ARC
  5
1D69184505
330
1D69183399
100
AcDbEntity
  8
JISSEN
100
AcDbCircle
 10
274.0000825329183
 20
151.7813440173364
 30
0.0
 40
0.5
100
AcDbArc
 50
180.0
 51
270.0
  0
LINE
  5
1D69184506
330
1D69183399
100
AcDbEntity
  8
JISSEN
100
AcDbLine
 10
259.1932015329184
 20
157.9744450173364
 30
0.0
 11
260.1795525329184
 21
157.9744450173364
 31
0.0
  0
ARC
  5
1D69184507
330
1D69183399
100
AcDbEntity
  8
JISSEN
100
AcDbCircle
 10
259.1932015329184
 20
157.6744450173364
 30
0.0
 40
0.3
100
AcDbArc
 50
90.0
 51
183.7443620000001
  0
ARC
  5
1D69184508
330
1D69183399
100
AcDbEntity
  8
JISSEN
100
AcDbCircle
 10
258.4433105329184
 20
157.6244450173364
 30
0.0
 40
0.35
100
AcDbArc
 50
90.0
 51
184.0179690000003
  0
LINE
  5
1D69184509
330
1D69183399
100
AcDbEntity
  8
JISSEN
100
AcDbLine
 10
258.4433105329184
 20
157.9744450173364
 30
0.0
 11
259.1932015329184
 21
157.9744450173364
 31
0.0
  0
ARC
  5
1D6918450A
330
1D69183399
100
AcDbEntity
  8
JISSEN
100
AcDbCircle
 10
254.3269885329184
 20
157.7744450173364
 30
0.0
 40
0.2
100
AcDbArc
 50
5.201559000000219
 51
90.0
  0
ARC
  5
1D6918450B
330
1D69183399
100
AcDbEntity
  8
JISSEN
100
AcDbCircle
 10
260.1795525329184
 20
157.7744450173364
 30
0.0
 40
0.2
100
AcDbArc
 50
4.017969000000365
 51
90.0
  0
ARC
  5
1D6918450C
330
1D69183399
100
AcDbEntity
  8
JISSEN
100
AcDbCircle
 10
267.8189165329184
 20
157.7744450173364
 30
0.0
 40
0.2
100
AcDbArc
 50
2.140431999999691
 51
90.0
  0
ARC
  5
1D6918450D
330
1D69183399
100
AcDbEntity
  8
JISSEN
100
AcDbCircle
 10
265.8797255329183
 20
157.7244450173363
 30
0.0
 40
0.25
100
AcDbArc
 50
90.0
 51
181.994368
  0
ARC
  5
1D6918450E
330
1D69183399
100
AcDbEntity
  8
JISSEN
100
AcDbCircle
 10
265.5039255329183
 20
157.6744450173364
 30
0.0
 40
0.3
100
AcDbArc
 50
90.0
 51
182.1404319999997
  0
LINE
  5
1D6918450F
330
1D69183399
100
AcDbEntity
  8
JISSEN
100
AcDbLine
 10
267.8189165329184
 20
157.9744450173364
 30
0.0
 11
265.5039255329183
 21
157.9744450173364
 31
0.0
  0
LINE
  5
1D69184510
330
1D69183399
100
AcDbEntity
  8
JISSEN
100
AcDbLine
 10
275.0000825329184
 20
157.9744450173364
 30
0.0
 11
274.0000825329183
 21
157.9744450173364
 31
0.0
  0
ARC
  5
1D69184511
330
1D69183399
100
AcDbEntity
  8
JISSEN
100
AcDbCircle
 10
274.0000825329183
 20
157.4744450173364
 30
0.0
 40
0.5
100
AcDbArc
 50
90.0
 51
180.0
  0
ARC
  5
1D69184512
330
1D69183399
100
AcDbEntity
  8
JISSEN
100
AcDbCircle
 10
275.0000825329184
 20
160.4744450173363
 30
0.0
 40
1.0
100
AcDbArc
 50
180.0
 51
270.0
  0
LINE
  5
1D69184513
102
{ACAD_REACTORS
330
1D691844AF
102
}
330
1D69183399
100
AcDbEntity
  8
JISSEN
100
AcDbLine
 10
264.4025766159695
 20
167.9744450173364
 30
0.0
 11
209.7240931392068
 21
167.9744450173364
 31
0.0
  0
LINE
  5
1D69184514
102
{ACAD_REACTORS
330
1D691844AF
102
}
330
1D69183399
100
AcDbEntity
  8
JISSEN
100
AcDbLine
 10
206.2663301057769
 20
172.9744450173363
 30
0.0
 11
264.465079795906
 21
172.9744450173365
 31
0.0
  0
LWPOLYLINE
  5
1D69184515
102
{ACAD_REACTORS
330
1D691844AF
102
}
330
1D69183399
100
AcDbEntity
  8
HATCH
100
AcDbPolyline
 90
       13
 70
     0
 43
0.0
 10
206.2663301057769
 20
172.9744450173363
 10
206.4309172840269
 20
172.1548079391044
 10
206.5728226407071
 20
171.63818996234
 10
206.800531277855
 20
171.2197636756522
 10
207.1084187645143
 20
170.8816466519853
 10
207.4746420534938
 20
170.5913955793351
 10
207.8773580976025
 20
170.3165671456978
 10
208.2947238496493
 20
170.0247180390688
 10
208.7048962624431
 20
169.6834049474439
 10
209.0860322887929
 20
169.2601845588197
 10
209.4162888815074
 20
168.7226135611914
 10
209.6908689447102
 20
168.0589947739038
 10
209.7240931392068
 20
167.9744450173364
  0
LINE
  5
1D69184516
330
1D69183399
100
AcDbEntity
  8
JISSEN
100
AcDbLine
 10
248.6500825329184
 20
167.9744450173364
 30
0.0
 11
275.0000825329184
 21
167.9744450173364
 31
0.0
  0
LINE
  5
1D69184517
330
1D69183399
100
AcDbEntity
  8
JISSEN
100
AcDbLine
 10
248.6500825329184
 20
167.9744450173364
 30
0.0
 11
275.0000825329184
 21
167.9744450173364
 31
0.0
  0
LINE
  5
1D69184518
330
1D69183399
100
AcDbEntity
  8
JISSEN
100
AcDbLine
 10
238.5000825329183
 20
167.6533147371924
 30
0.0
 11
238.5000825329183
 21
167.9744450173364
 31
0.0
  0
LINE
  5
1D69184519
330
1D69183399
100
AcDbEntity
  8
SAISEN
100
AcDbLine
 10
265.5408495329183
 20
170.2152120173364
 30
0.0
 11
266.0333493796516
 21
185.97444501734
 31
0.0
  0
LINE
  5
1D6918451A
330
1D69183399
100
AcDbEntity
  8
JISSEN
100
AcDbLine
 10
264.8349378115535
 20
184.809299372667
 30
0.0
 11
264.3413635329184
 21
169.0157260173364
 31
0.0
  0
LINE
  5
1D6918451B
330
1D69183399
100
AcDbEntity
  8
SAISEN
100
AcDbLine
 10
264.3413635329184
 20
169.0157260173364
 30
0.0
 11
265.5408495329183
 21
170.2152120173364
 31
0.0
  0
LINE
  5
1D6918451C
330
1D69183399
100
AcDbEntity
  8
JISSEN
100
AcDbLine
 10
275.0000825329184
 20
170.2152120173364
 30
0.0
 11
264.3788495329185
 21
170.2152120173364
 31
0.0
  0
LINE
  5
1D6918451D
102
{ACAD_REACTORS
330
1D691844AF
102
}
330
1D69183399
100
AcDbEntity
  8
JISSEN
100
AcDbLine
 10
257.5000825329183
 20
172.9744450173365
 30
0.0
 11
257.5000825329183
 21
167.9744450173364
 31
0.0
  0
LINE
  5
1D6918451E
330
1D69183399
100
AcDbEntity
  8
JISSEN
100
AcDbLine
 10
263.3000825329184
 20
167.9744450173364
 30
0.0
 11
264.3413635329184
 21
169.0157260173364
 31
0.0
  0
LINE
  5
1D6918451F
330
1D69183399
100
AcDbEntity
  8
JISSEN
100
AcDbLine
 10
263.3000825329184
 20
167.9744450173364
 30
0.0
 11
264.3413635329184
 21
169.0157260173364
 31
0.0
  0
LINE
  5
1D69184520
330
1D69183399
100
AcDbEntity
  8
JISSEN
100
AcDbLine
 10
264.7381585329184
 20
184.7125200173401
 30
0.0
 11
266.0000825329183
 21
185.97444501734
 31
0.0
  0
LINE
  5
1D69184521
330
1D69183399
100
AcDbEntity
  8
JISSEN
100
AcDbLine
 10
264.7381585329184
 20
184.7125200173401
 30
0.0
 11
275.0000825329184
 21
184.7125200173401
 31
0.0
  0
LINE
  5
1D69184522
330
1D69183399
100
AcDbEntity
  8
JISSEN
100
AcDbLine
 10
266.0000825329183
 20
185.97444501734
 30
0.0
 11
275.0000825329184
 21
185.97444501734
 31
0.0
  0
ARC
  5
1D69184523
330
1D69183399
100
AcDbEntity
  8
JISSEN
100
AcDbCircle
 10
310.5000825329184
 20
167.6533147371924
 30
0.0
 40
1.0
100
AcDbArc
 50
284.9999999999809
 51
0.000000000000007
  0
LINE
  5
1D6918452B
330
1D69183399
100
AcDbEntity
  8
JISSEN
100
AcDbLine
 10
287.7500825329141
 20
146.638562694997
 30
0.0
 11
287.7500825329138
 21
145.0885626949937
 31
0.0
1001
ACAD
1000
ASC_BOUNDS
1002
{
1070
    19
1002
}
  0
LINE
  5
1D6918452D
330
1D69183399
100
AcDbEntity
  8
JISSEN
100
AcDbLine
 10
278.0000825329128
 20
139.2744450173349
 30
0.0
 11
286.7500825329131
 21
139.2744450173335
 31
0.0
  0
LINE
  5
1D6918452E
330
1D69183399
100
AcDbEntity
  8
JISSEN
100
AcDbLine
 10
281.2500825329136
 20
143.4207846905966
 30
0.0
 11
277.5000825329164
 21
143.6929808866404
 31
0.0
  0
LINE
  5
1D6918452F
330
1D69183399
100
AcDbEntity
  8
JISSEN
100
AcDbLine
 10
277.5000825329164
 20
142.2744450173351
 30
0.0
 11
277.5000825329162
 21
144.8885626949965
 31
0.0
  0
LINE
  5
1D69184530
330
1D69183399
100
AcDbEntity
  8
JISSEN
100
AcDbLine
 10
283.9456213596848
 20
144.4199231719962
 30
0.0
 11
284.5958133791865
 21
143.3329539983361
 31
0.0
  0
ARC
  5
1D69184531
330
1D69183399
100
AcDbEntity
  8
JISSEN
100
AcDbCircle
 10
284.4241763548824
 20
143.2302859317914
 30
0.0
 40
0.2
100
AcDbArc
 50
299.9999999999887
 51
30.8865849035729
  0
ARC
  5
1D69184532
330
1D69183399
100
AcDbEntity
  8
JISSEN
100
AcDbCircle
 10
283.0874362381671
 20
143.9065828392734
 30
0.0
 40
1.0
100
AcDbArc
 50
30.88658490358338
 51
79.10640818213394
  0
ARC
  5
1D69184533
330
1D69183399
100
AcDbEntity
  8
JISSEN
100
AcDbCircle
 10
283.588226569361
 20
142.7476500980918
 30
0.0
 40
0.2
100
AcDbArc
 50
209.9999999999897
 51
299.9999999999887
  0
LINE
  5
1D69184534
330
1D69183399
100
AcDbEntity
  8
JISSEN
100
AcDbLine
 10
283.1226003487291
 20
144.8885626949958
 30
0.0
 11
283.1226003487286
 21
142.2744450173341
 31
0.0
  0
LINE
  5
1D69184535
330
1D69183399
100
AcDbEntity
  8
JISSEN
100
AcDbLine
 10
281.2500825329133
 20
142.2744450173344
 30
0.0
 11
281.2500825329138
 21
144.8885626949961
 31
0.0
  0
LINE
  5
1D69184536
330
1D69183399
100
AcDbEntity
  8
JISSEN
100
AcDbLine
 10
284.5241763548825
 20
143.0570808510345
 30
0.0
 11
283.6882265693608
 21
142.5744450173349
 31
0.0
  0
LINE
  5
1D69184537
330
1D69183399
100
AcDbEntity
  8
JISSEN
100
AcDbLine
 10
283.415021488604
 20
142.6476500980918
 30
0.0
 11
283.1226003487289
 21
143.154138369563
 31
0.0
  0
LINE
  5
1D69184538
330
1D69183399
100
AcDbEntity
  8
JISSEN
100
AcDbLine
 10
286.7500825329131
 20
139.2744450173335
 30
0.0
 11
288.2500825329131
 21
140.7744450173328
 31
0.0
  0
LINE
  5
1D69184539
330
1D69183399
100
AcDbEntity
  8
JISSEN
100
AcDbLine
 10
288.2500825329133
 20
142.2744450173326
 30
0.0
 11
288.2500825329131
 21
140.7744450173328
 31
0.0
  0
ARC
  5
1D6918453A
330
1D69183399
100
AcDbEntity
  8
JISSEN
100
AcDbCircle
 10
287.5500825329138
 20
145.0885626949949
 30
0.0
 40
0.2
100
AcDbArc
 50
269.9999999999902
 51
359.9999999999884
1001
ACAD
1000
ASC_BOUNDS
1002
{
1070
    19
1002
}
  0
ARC
  5
1D6918453D
330
1D69183399
100
AcDbEntity
  8
JISSEN
100
AcDbCircle
 10
296.5750235329183
 20
157.5744450173365
 30
0.0
 40
0.4
100
AcDbArc
 50
354.5938149999994
 51
90.0
  0
LINE
  5
1D6918453E
330
1D69183399
100
AcDbEntity
  8
JISSEN
100
AcDbLine
 10
301.5000825329183
 20
160.4744450173363
 30
0.0
 11
276.0000825329183
 21
160.4744450173363
 31
0.0
  0
LINE
  5
1D6918453F
330
1D69183399
100
AcDbEntity
  8
JISSEN
100
AcDbLine
 10
289.5292855495201
 20
146.6385626949969
 30
0.0
 11
298.0801078523621
 21
150.6590105342685
 31
0.0
1001
ACAD
1000
ASC_BOUNDS
1002
{
1070
    19
1002
}
  0
LINE
  5
1D69184540
330
1D69183399
100
AcDbEntity
  8
JISSEN
100
AcDbLine
 10
297.8464095329183
 20
150.9708030173364
 30
0.0
 11
296.3795115329183
 21
150.2922110173364
 31
0.0
  0
LINE
  5
1D69184541
330
1D69183399
100
AcDbEntity
  8
JISSEN
100
AcDbLine
 10
295.8649895329183
 20
150.2951820173364
 30
0.0
 11
297.3768485329183
 21
150.9945730173363
 31
0.0
  0
LINE
  5
1D69184542
330
1D69183399
100
AcDbEntity
  8
JISSEN
100
AcDbLine
 10
296.9732445329183
 20
157.5367580173365
 30
0.0
 11
296.4475425329183
 21
151.9818120173364
 31
0.0
  0
LINE
  5
1D69184543
330
1D69183399
100
AcDbEntity
  8
JISSEN
100
AcDbLine
 10
295.9108235329182
 20
157.7568780173365
 30
0.0
 11
295.3800695329182
 21
151.7374280173364
 31
0.0
  0
LINE
  5
1D69184544
330
1D69183399
100
AcDbEntity
  8
JISSEN
100
AcDbLine
 10
294.9058915329183
 20
151.5519950173364
 30
0.0
 11
295.4739995329182
 21
157.7925770173364
 31
0.0
  0
LINE
  5
1D69184545
330
1D69183399
100
AcDbEntity
  8
JISSEN
100
AcDbLine
 10
291.5019595329183
 20
151.8478900173364
 30
0.0
 11
291.9059935329183
 21
157.5999200173364
 31
0.0
  0
LINE
  5
1D69184546
330
1D69183399
100
AcDbEntity
  8
JISSEN
100
AcDbLine
 10
291.1063225329183
 20
157.6548530173363
 30
0.0
 11
290.7136795329183
 21
151.6552220173364
 31
0.0
  0
LINE
  5
1D69184547
330
1D69183399
100
AcDbEntity
  8
JISSEN
100
AcDbLine
 10
284.7960295329183
 20
157.6632400173365
 30
0.0
 11
284.5691955329183
 21
151.5940920173364
 31
0.0
  0
LINE
  5
1D69184548
330
1D69183399
100
AcDbEntity
  8
JISSEN
100
AcDbLine
 10
284.3702875329183
 20
157.7157440173365
 30
0.0
 11
284.1563095329183
 21
151.5709040173364
 31
0.0
  0
LINE
  5
1D69184549
330
1D69183399
100
AcDbEntity
  8
JISSEN
100
AcDbLine
 10
289.6211035329183
 20
157.7884590173364
 30
0.0
 11
289.1772965329183
 21
151.4701930173364
 31
0.0
  0
LINE
  5
1D6918454A
330
1D69183399
100
AcDbEntity
  8
JISSEN
100
AcDbLine
 10
281.7419355329183
 20
151.3751690173364
 30
0.0
 11
281.9813875329183
 21
157.7819150173365
 31
0.0
  0
LINE
  5
1D6918454B
330
1D69183399
100
AcDbEntity
  8
JISSEN
100
AcDbLine
 10
276.5000825329183
 20
157.4744450173364
 30
0.0
 11
276.5000825329183
 21
150.6775660173364
 31
0.0
  0
LINE
  5
1D6918454C
330
1D69183399
100
AcDbEntity
  8
JISSEN
100
AcDbLine
 10
284.3696075329183
 20
151.0310600173365
 30
0.0
 11
283.8188565329183
 21
150.2974520173365
 31
0.0
  0
LINE
  5
1D6918454D
330
1D69183399
100
AcDbEntity
  8
JISSEN
100
AcDbLine
 10
281.1500695329184
 20
150.4976430173365
 30
0.0
 11
281.6820595329183
 21
151.2062590173364
 31
0.0
  0
ARC
  5
1D6918454E
330
1D69183399
100
AcDbEntity
  8
JISSEN
100
AcDbCircle
 10
276.0000825329183
 20
150.6775660173364
 30
0.0
 40
0.5
100
AcDbArc
 50
270.0
 51
0.000000000000007
  0
ARC
  5
1D6918454F
330
1D69183399
100
AcDbEntity
  8
JISSEN
100
AcDbCircle
 10
283.5789415329183
 20
150.4775660173365
 30
0.0
 40
0.3
100
AcDbArc
 50
270.0
 51
323.1028380000008
  0
ARC
  5
1D69184550
330
1D69183399
100
AcDbEntity
  8
JISSEN
100
AcDbCircle
 10
281.3100125329183
 20
150.3775660173364
 30
0.0
 40
0.2
100
AcDbArc
 50
143.1028380000009
 51
270.0
  0
LINE
  5
1D69184551
330
1D69183399
100
AcDbEntity
  8
JISSEN
100
AcDbLine
 10
283.5789415329183
 20
150.1775660173364
 30
0.0
 11
281.3100125329183
 21
150.1775660173364
 31
0.0
  0
ARC
  5
1D69184552
330
1D69183399
100
AcDbEntity
  8
JISSEN
100
AcDbCircle
 10
276.0000825329183
 20
151.7813440173364
 30
0.0
 40
0.5
100
AcDbArc
 50
270.0
 51
0.000000000000007
  0
ARC
  5
1D69184553
330
1D69183399
100
AcDbEntity
  8
JISSEN
100
AcDbCircle
 10
283.5698935329183
 20
151.6314410173364
 30
0.0
 40
1.0
100
AcDbArc
 50
323.1028380000008
 51
357.8595680000001
  0
ARC
  5
1D69184554
330
1D69183399
100
AcDbEntity
  8
JISSEN
100
AcDbCircle
 10
283.8564915329183
 20
151.5813440173364
 30
0.0
 40
0.3
100
AcDbArc
 50
270.0
 51
358.0056319999998
  0
ARC
  5
1D69184555
330
1D69183399
100
AcDbEntity
  8
JISSEN
100
AcDbCircle
 10
281.4421445329184
 20
151.3863730173364
 30
0.0
 40
0.3
100
AcDbArc
 50
323.1028380000008
 51
357.8595680000001
  0
LINE
  5
1D69184556
330
1D69183399
100
AcDbEntity
  8
JISSEN
100
AcDbLine
 10
283.8564915329183
 20
151.2813440173365
 30
0.0
 11
281.7231585329183
 21
151.2813440173365
 31
0.0
  0
LINE
  5
1D69184557
330
1D69183399
100
AcDbEntity
  8
JISSEN
100
AcDbLine
 10
295.7585585329183
 20
150.9537740173364
 30
0.0
 11
294.3704595329183
 21
150.2235610173364
 31
0.0
  0
LINE
  5
1D69184558
330
1D69183399
100
AcDbEntity
  8
JISSEN
100
AcDbLine
 10
293.1413575329183
 20
150.3660680173364
 30
0.0
 11
294.6407325329183
 21
151.1548180173365
 31
0.0
  0
LINE
  5
1D69184559
330
1D69183399
100
AcDbEntity
  8
JISSEN
100
AcDbLine
 10
289.0095765329183
 20
151.1718750173364
 30
0.0
 11
287.9909815329183
 21
150.4499460173365
 31
0.0
  0
LINE
  5
1D6918455A
330
1D69183399
100
AcDbEntity
  8
JISSEN
100
AcDbLine
 10
289.9957355329183
 20
150.2420140173365
 30
0.0
 11
290.9988015329183
 21
150.9529360173365
 31
0.0
  0
LINE
  5
1D6918455B
330
1D69183399
100
AcDbEntity
  8
JISSEN
100
AcDbLine
 10
288.0777175329183
 20
150.1775660173364
 30
0.0
 11
289.7933505329183
 21
150.1775660173364
 31
0.0
  0
ARC
  5
1D6918455C
330
1D69183399
100
AcDbEntity
  8
JISSEN
100
AcDbCircle
 10
289.7933505329183
 20
150.5275660173365
 30
0.0
 40
0.35
100
AcDbArc
 50
270.0
 51
305.3270680000006
  0
ARC
  5
1D6918455D
330
1D69183399
100
AcDbEntity
  8
JISSEN
100
AcDbCircle
 10
288.0777175329183
 20
150.3275660173364
 30
0.0
 40
0.15
100
AcDbArc
 50
125.3270680000005
 51
270.0
  0
ARC
  5
1D6918455F
330
1D69183399
100
AcDbEntity
  8
JISSEN
100
AcDbCircle
 10
295.8859815329183
 20
150.2498030173364
 30
0.0
 40
0.05
100
AcDbArc
 50
114.8254049999999
 51
270.0
  0
LINE
  5
1D69184560
330
1D69183399
100
AcDbEntity
  8
JISSEN
100
AcDbLine
 10
295.9596565329183
 20
150.1998030173365
 30
0.0
 11
295.8859815329183
 21
150.1998030173365
 31
0.0
  0
ARC
  5
1D69184561
330
1D69183399
100
AcDbEntity
  8
JISSEN
100
AcDbCircle
 10
295.9596565329183
 20
151.1998030173365
 30
0.0
 40
1.0
100
AcDbArc
 50
270.0
 51
294.825405
  0
LINE
  5
1D69184562
330
1D69183399
100
AcDbEntity
  8
JISSEN
100
AcDbLine
 10
294.1842335329183
 20
150.1775660173364
 30
0.0
 11
293.1879145329183
 21
150.1775660173364
 31
0.0
  0
ARC
  5
1D69184563
330
1D69183399
100
AcDbEntity
  8
JISSEN
100
AcDbCircle
 10
294.1842335329183
 20
150.5775660173364
 30
0.0
 40
0.4
100
AcDbArc
 50
270.0
 51
297.7467379999982
  0
ARC
  5
1D69184564
330
1D69183399
100
AcDbEntity
  8
JISSEN
100
AcDbCircle
 10
293.1879145329183
 20
150.2775660173365
 30
0.0
 40
0.1
100
AcDbArc
 50
117.7467380000011
 51
270.0
  0
ARC
  5
1D69184565
330
1D69183399
100
AcDbEntity
  8
JISSEN
100
AcDbCircle
 10
290.3049095329183
 20
151.9319730173364
 30
0.0
 40
1.199999999999999
100
AcDbArc
 50
305.3270680000006
 51
355.9820309999996
  0
ARC
  5
1D69184566
330
1D69183399
100
AcDbEntity
  8
JISSEN
100
AcDbCircle
 10
290.3145335329183
 20
151.6813440173365
 30
0.0
 40
0.4
100
AcDbArc
 50
270.0
 51
356.2556379999997
  0
ARC
  5
1D69184567
330
1D69183399
100
AcDbEntity
  8
JISSEN
100
AcDbCircle
 10
288.7782795329183
 20
151.4982210173364
 30
0.0
 40
0.4
100
AcDbArc
 50
305.3270680000006
 51
355.9820309999996
  0
LINE
  5
1D69184568
330
1D69183399
100
AcDbEntity
  8
JISSEN
100
AcDbLine
 10
290.3145335329183
 20
151.2813440173365
 30
0.0
 11
289.1143815329183
 21
151.2813440173365
 31
0.0
  0
ARC
  5
1D69184569
330
1D69183399
100
AcDbEntity
  8
JISSEN
100
AcDbCircle
 10
294.8820015329183
 20
151.7813440173364
 30
0.0
 40
0.5
100
AcDbArc
 50
260.6504449999984
 51
354.9610729999998
  0
ARC
  5
1D6918456A
330
1D69183399
100
AcDbEntity
  8
JISSEN
100
AcDbCircle
 10
295.1533255329183
 20
152.1042930173365
 30
0.0
 40
1.3
100
AcDbArc
 50
297.7467379999982
 51
354.5938149999994
  0
ARC
  5
1D6918456B
330
1D69183399
100
AcDbEntity
  8
JISSEN
100
AcDbCircle
 10
294.4079505329183
 20
151.5973250173364
 30
0.0
 40
0.5
100
AcDbArc
 50
297.7467379999982
 51
354.7984409999997
  0
ARC
  5
1D6918456C
330
1D69183399
100
AcDbEntity
  8
JISSEN
100
AcDbCircle
 10
276.0000825329183
 20
157.4744450173364
 30
0.0
 40
0.5
100
AcDbArc
 50
0.000000000000007
 51
90.0
  0
ARC
  5
1D6918456D
330
1D69183399
100
AcDbEntity
  8
JISSEN
100
AcDbCircle
 10
284.4962395329183
 20
157.6744450173364
 30
0.0
 40
0.3
100
AcDbArc
 50
357.8595680000001
 51
90.0
  0
ARC
  5
1D6918456E
330
1D69183399
100
AcDbEntity
  8
JISSEN
100
AcDbCircle
 10
284.1204395329183
 20
157.7244450173363
 30
0.0
 40
0.25
100
AcDbArc
 50
358.0056319999998
 51
90.0
  0
ARC
  5
1D6918456F
330
1D69183399
100
AcDbEntity
  8
JISSEN
100
AcDbCircle
 10
282.1812485329183
 20
157.7744450173364
 30
0.0
 40
0.2
100
AcDbArc
 50
90.0
 51
177.8595680000002
  0
LINE
  5
1D69184570
330
1D69183399
100
AcDbEntity
  8
JISSEN
100
AcDbLine
 10
282.1812485329183
 20
157.9744450173364
 30
0.0
 11
284.4962395329183
 21
157.9744450173364
 31
0.0
  0
LINE
  5
1D69184571
330
1D69183399
100
AcDbEntity
  8
JISSEN
100
AcDbLine
 10
291.5568545329183
 20
157.9744450173364
 30
0.0
 11
290.8069635329183
 21
157.9744450173364
 31
0.0
  0
ARC
  5
1D69184572
330
1D69183399
100
AcDbEntity
  8
JISSEN
100
AcDbCircle
 10
290.8069635329183
 20
157.6744450173364
 30
0.0
 40
0.3
100
AcDbArc
 50
356.2556379999997
 51
90.0
  0
ARC
  5
1D69184573
330
1D69183399
100
AcDbEntity
  8
JISSEN
100
AcDbCircle
 10
289.8206125329183
 20
157.7744450173364
 30
0.0
 40
0.2
100
AcDbArc
 50
90.0
 51
175.9820309999995
  0
LINE
  5
1D69184574
330
1D69183399
100
AcDbEntity
  8
JISSEN
100
AcDbLine
 10
290.8069635329183
 20
157.9744450173364
 30
0.0
 11
289.8206125329183
 21
157.9744450173364
 31
0.0
  0
ARC
  5
1D69184575
330
1D69183399
100
AcDbEntity
  8
JISSEN
100
AcDbCircle
 10
295.7115965329183
 20
157.7744450173364
 30
0.0
 40
0.2
100
AcDbArc
 50
354.9610729999998
 51
90.0
  0
LINE
  5
1D69184576
330
1D69183399
100
AcDbEntity
  8
JISSEN
100
AcDbLine
 10
295.6731765329184
 20
157.9744450173364
 30
0.0
 11
296.5750235329183
 21
157.9744450173364
 31
0.0
  0
ARC
  5
1D69184577
330
1D69183399
100
AcDbEntity
  8
JISSEN
100
AcDbCircle
 10
295.6731765329184
 20
157.7744450173364
 30
0.0
 40
0.2
100
AcDbArc
 50
90.0
 51
174.7984409999996
  0
ARC
  5
1D69184578
330
1D69183399
100
AcDbEntity
  8
JISSEN
100
AcDbCircle
 10
291.5568545329183
 20
157.6244450173364
 30
0.0
 40
0.35
100
AcDbArc
 50
355.9820309999996
 51
90.0
  0
LINE
  5
1D69184579
330
1D69183399
100
AcDbEntity
  8
JISSEN
100
AcDbLine
 10
298.1235735329184
 20
152.0353430173364
 30
0.0
 11
298.7555045329183
 21
157.9073810173364
 31
0.0
  0
LINE
  5
1D6918457A
330
1D69183399
100
AcDbEntity
  8
JISSEN
100
AcDbLine
 10
299.2384065329183
 20
157.5538810173364
 30
0.0
 11
298.6505765329183
 21
152.0916320173363
 31
0.0
  0
LINE
  5
1D6918457B
330
1D69183399
100
AcDbEntity
  8
JISSEN
100
AcDbLine
 10
299.4688495329183
 20
157.9744450173364
 30
0.0
 11
298.9361551855358
 21
151.8857171167975
 31
0.0
  0
ARC
  5
1D6918457C
330
1D69183399
100
AcDbEntity
  8
JISSEN
100
AcDbCircle
 10
297.4418631315965
 20
152.0164506531741
 30
0.0
 40
1.5
100
AcDbArc
 50
295.1820930545803
 51
355.0000029809805
  0
ARC
  5
1D6918457D
330
1D69183399
100
AcDbEntity
  8
JISSEN
100
AcDbCircle
 10
296.8310375329183
 20
152.1744420173364
 30
0.0
 40
1.3
100
AcDbArc
 50
294.825405
 51
353.8576429999999
  0
ARC
  5
1D6918457E
330
1D69183399
100
AcDbEntity
  8
JISSEN
100
AcDbCircle
 10
297.2586135329183
 20
152.2414310173365
 30
0.0
 40
1.399999999999999
100
AcDbArc
 50
294.825405
 51
353.8576429999999
  0
LINE
  5
1D69184580
330
1D69183399
100
AcDbEntity
  8
JISSEN
100
AcDbLine
 10
302.5000825329184
 20
164.4744450173363
 30
0.0
 11
310.7589015780206
 21
166.6873889109034
 31
0.0
  0
LINE
  5
1D69184581
330
1D69183399
100
AcDbEntity
  8
JISSEN
100
AcDbLine
 10
302.5000825329184
 20
160.4744450173363
 30
0.0
 11
302.5000825329184
 21
164.4744450173363
 31
0.0
  0
LINE
  5
1D69184582
330
1D69183399
100
AcDbEntity
  8
JISSEN
100
AcDbLine
 10
299.6000825329183
 20
159.4744450173363
 30
0.0
 11
299.4688495329183
 21
157.9744450173364
 31
0.0
  0
ARC
  5
1D69184583
330
1D69183399
100
AcDbEntity
  8
JISSEN
100
AcDbCircle
 10
298.8407035329183
 20
157.5966810173364
 30
0.0
 40
0.4
100
AcDbArc
 50
353.8576429999999
 51
88.6411450000026
  0
ARC
  5
1D69184584
330
1D69183399
100
AcDbEntity
  8
JISSEN
100
AcDbCircle
 10
298.8549305329183
 20
157.8966810173364
 30
0.0
 40
0.1
100
AcDbArc
 50
92.7179019999998
 51
173.8576429999999
  0
LINE
  5
1D69184585
330
1D69183399
100
AcDbEntity
  8
JISSEN
100
AcDbLine
 10
300.5000825329183
 20
159.4744450173363
 30
0.0
 11
299.6000825329183
 21
159.4744450173363
 31
0.0
  0
LINE
  5
1D69184586
330
1D69183399
100
AcDbEntity
  8
JISSEN
100
AcDbLine
 10
301.5000825329183
 20
160.4744450173363
 30
0.0
 11
300.5000825329183
 21
159.4744450173363
 31
0.0
  0
LINE
  5
1D69184589
102
{ACAD_REACTORS
330
1D691844AF
102
}
330
1D69183399
100
AcDbEntity
  8
JISSEN
100
AcDbLine
 10
285.5975884498671
 20
167.9744450173365
 30
0.0
 11
340.2759050505979
 21
167.9744450173364
 31
0.0
  0
LINE
  5
1D6918458A
102
{ACAD_REACTORS
330
1D691844AF
102
}
330
1D69183399
100
AcDbEntity
  8
JISSEN
100
AcDbLine
 10
343.7336680840278
 20
172.9744450173363
 30
0.0
 11
285.5350852699306
 21
172.9744450173363
 31
0.0
  0
LINE
  5
1D6918458B
330
1D69183399
100
AcDbEntity
  8
JISSEN
100
AcDbLine
 10
285.1652272542833
 20
184.809299372667
 30
0.0
 11
285.6588015329183
 21
169.0157260173364
 31
0.0
  0
LINE
  5
1D6918458C
330
1D69183399
100
AcDbEntity
  8
SAISEN
100
AcDbLine
 10
284.4593155329182
 20
170.2152120173364
 30
0.0
 11
283.9668156861851
 21
185.97444501734
 31
0.0
  0
LINE
  5
1D6918458D
330
1D69183399
100
AcDbEntity
  8
JISSEN
100
AcDbLine
 10
286.7000825329183
 20
167.9744450173364
 30
0.0
 11
285.6588015329183
 21
169.0157260173364
 31
0.0
  0
LINE
  5
1D6918458E
330
1D69183399
100
AcDbEntity
  8
JISSEN
100
AcDbLine
 10
286.7000825329183
 20
167.9744450173364
 30
0.0
 11
285.6588015329183
 21
169.0157260173364
 31
0.0
  0
LINE
  5
1D6918458F
330
1D69183399
100
AcDbEntity
  8
SAISEN
100
AcDbLine
 10
285.6588015329183
 20
169.0157260173364
 30
0.0
 11
284.4593155329182
 21
170.2152120173364
 31
0.0
  0
LINE
  5
1D69184590
102
{ACAD_REACTORS
330
1D691844AF
102
}
330
1D69183399
100
AcDbEntity
  8
JISSEN
100
AcDbLine
 10
292.5000825329183
 20
172.9744450173363
 30
0.0
 11
292.5000825329183
 21
167.9744450173365
 31
0.0
  0
LINE
  5
1D69184591
330
1D69183399
100
AcDbEntity
  8
JISSEN
100
AcDbLine
 10
285.2620065329182
 20
184.7125200173401
 30
0.0
 11
284.0000825329184
 21
185.97444501734
 31
0.0
  0
LINE
  5
1D69184592
330
1D69183399
100
AcDbEntity
  8
JISSEN
100
AcDbLine
 10
311.5000825329183
 20
167.6533147371924
 30
0.0
 11
311.5000825329183
 21
167.9744450173364
 31
0.0
  0
LWPOLYLINE
  5
1D69184593
102
{ACAD_REACTORS
330
1D691844AF
102
}
330
1D69183399
100
AcDbEntity
  8
HATCH
100
AcDbPolyline
 90
       13
 70
     0
 43
0.0
 10
343.7336680840278
 20
172.9744450173365
 10
343.5690809057778
 20
172.1548079391044
 10
343.4271755490975
 20
171.63818996234
 10
343.1994669119497
 20
171.2197636756522
 10
342.8915794252905
 20
170.8816466519853
 10
342.5253561363108
 20
170.5913955793353
 10
342.1226400922021
 20
170.3165671456978
 10
341.7052743401553
 20
170.0247180390688
 10
341.2951019273614
 20
169.6834049474441
 10
340.9139659010118
 20
169.2601845588197
 10
340.5837093082973
 20
168.7226135611914
 10
340.3091292450945
 20
168.0589947739038
 10
340.2759050505979
 20
167.9744450173365
  0
LINE
  5
1D69184596
330
1D69183399
100
AcDbEntity
  8
JISSEN
100
AcDbLine
 10
311.5000825329183
 20
82.65331473719255
 30
0.0
 11
311.5000825329183
 21
82.97444501733648
 31
0.0
  0
LINE
  5
1D6918459C
330
1D69183399
100
AcDbEntity
  8
JISSEN
100
AcDbLine
 10
285.5975884498671
 20
82.9744450173365
 30
0.0
 11
340.2759050505979
 21
82.97444501733648
 31
0.0
  0
LINE
  5
1D6918459D
330
1D69183399
100
AcDbEntity
  8
JISSEN
100
AcDbLine
 10
301.5000825329183
 20
75.47444501733648
 30
0.0
 11
300.5000825329183
 21
74.47444501733648
 31
0.0
  0
LINE
  5
1D6918459E
330
1D69183399
100
AcDbEntity
  8
JISSEN
100
AcDbLine
 10
300.5000825329183
 20
74.47444501733648
 30
0.0
 11
299.6000825329183
 21
74.47444501733648
 31
0.0
  0
ARC
  5
1D6918459F
330
1D69183399
100
AcDbEntity
  8
JISSEN
100
AcDbCircle
 10
298.8549305329183
 20
72.89668101733647
 30
0.0
 40
0.1
100
AcDbArc
 50
92.7179019999998
 51
173.8576429999999
  0
ARC
  5
1D691845A0
330
1D69183399
100
AcDbEntity
  8
JISSEN
100
AcDbCircle
 10
298.8407035329183
 20
72.59668101733645
 30
0.0
 40
0.4
100
AcDbArc
 50
353.8576429999999
 51
88.6411450000026
  0
LINE
  5
1D691845A1
330
1D69183399
100
AcDbEntity
  8
JISSEN
100
AcDbLine
 10
299.6000825329183
 20
74.47444501733648
 30
0.0
 11
299.4688495329183
 21
72.97444501733648
 31
0.0
  0
LINE
  5
1D691845A2
330
1D69183399
100
AcDbEntity
  8
JISSEN
100
AcDbLine
 10
302.5000825329184
 20
75.47444501733648
 30
0.0
 11
302.5000825329184
 21
79.47444501733648
 31
0.0
  0
LINE
  5
1D691845A3
330
1D69183399
100
AcDbEntity
  8
JISSEN
100
AcDbLine
 10
302.5000825329184
 20
79.47444501733648
 30
0.0
 11
310.7589015780206
 21
81.68738891090342
 31
0.0
  0
ARC
  5
1D691845A4
330
1D69183399
100
AcDbEntity
  8
JISSEN
100
AcDbCircle
 10
297.2586135329183
 20
67.24143101733651
 30
0.0
 40
1.399999999999999
100
AcDbArc
 50
294.825405
 51
353.8576429999999
  0
ARC
  5
1D691845A5
330
1D69183399
100
AcDbEntity
  8
JISSEN
100
AcDbCircle
 10
296.8310375329183
 20
67.17444201733647
 30
0.0
 40
1.3
100
AcDbArc
 50
294.825405
 51
353.8576429999999
  0
ARC
  5
1D691845A6
330
1D69183399
100
AcDbEntity
  8
JISSEN
100
AcDbCircle
 10
297.4418631315965
 20
67.0164506531742
 30
0.0
 40
1.5
100
AcDbArc
 50
295.1820930545803
 51
355.0000029809805
  0
LINE
  5
1D691845A7
330
1D69183399
100
AcDbEntity
  8
JISSEN
100
AcDbLine
 10
299.4688495329183
 20
72.97444501733648
 30
0.0
 11
298.9361551855358
 21
66.88571711679765
 31
0.0
  0
LINE
  5
1D691845A8
330
1D69183399
100
AcDbEntity
  8
JISSEN
100
AcDbLine
 10
299.2384065329183
 20
72.55388101733648
 30
0.0
 11
298.6505765329183
 21
67.09163201733648
 31
0.0
  0
LINE
  5
1D691845A9
330
1D69183399
100
AcDbEntity
  8
JISSEN
100
AcDbLine
 10
298.1235735329184
 20
67.03534301733649
 30
0.0
 11
298.7555045329183
 21
72.90738101733644
 31
0.0
  0
ARC
  5
1D691845AA
330
1D69183399
100
AcDbEntity
  8
JISSEN
100
AcDbCircle
 10
291.5568545329183
 20
72.62444501733646
 30
0.0
 40
0.35
100
AcDbArc
 50
355.9820309999996
 51
90.0
  0
ARC
  5
1D691845AB
330
1D69183399
100
AcDbEntity
  8
JISSEN
100
AcDbCircle
 10
295.6731765329184
 20
72.77444501733649
 30
0.0
 40
0.2
100
AcDbArc
 50
90.0
 51
174.7984409999996
  0
LINE
  5
1D691845AC
330
1D69183399
100
AcDbEntity
  8
JISSEN
100
AcDbLine
 10
295.6731765329184
 20
72.97444501733648
 30
0.0
 11
296.5750235329183
 21
72.97444501733648
 31
0.0
  0
ARC
  5
1D691845AD
330
1D69183399
100
AcDbEntity
  8
JISSEN
100
AcDbCircle
 10
295.7115965329183
 20
72.77444501733649
 30
0.0
 40
0.2
100
AcDbArc
 50
354.9610729999998
 51
90.0
  0
LINE
  5
1D691845AE
330
1D69183399
100
AcDbEntity
  8
JISSEN
100
AcDbLine
 10
290.8069635329183
 20
72.97444501733648
 30
0.0
 11
289.8206125329183
 21
72.97444501733648
 31
0.0
  0
ARC
  5
1D691845AF
330
1D69183399
100
AcDbEntity
  8
JISSEN
100
AcDbCircle
 10
289.8206125329183
 20
72.77444501733649
 30
0.0
 40
0.2
100
AcDbArc
 50
90.0
 51
175.9820309999995
  0
ARC
  5
1D691845B0
330
1D69183399
100
AcDbEntity
  8
JISSEN
100
AcDbCircle
 10
290.8069635329183
 20
72.67444501733645
 30
0.0
 40
0.3
100
AcDbArc
 50
356.2556379999997
 51
90.0
  0
LINE
  5
1D691845B1
330
1D69183399
100
AcDbEntity
  8
JISSEN
100
AcDbLine
 10
291.5568545329183
 20
72.97444501733648
 30
0.0
 11
290.8069635329183
 21
72.97444501733648
 31
0.0
  0
LINE
  5
1D691845B2
330
1D69183399
100
AcDbEntity
  8
JISSEN
100
AcDbLine
 10
282.1812485329183
 20
72.97444501733648
 30
0.0
 11
284.4962395329183
 21
72.97444501733648
 31
0.0
  0
ARC
  5
1D691845B3
330
1D69183399
100
AcDbEntity
  8
JISSEN
100
AcDbCircle
 10
282.1812485329183
 20
72.77444501733649
 30
0.0
 40
0.2
100
AcDbArc
 50
90.0
 51
177.8595680000002
  0
ARC
  5
1D691845B4
330
1D69183399
100
AcDbEntity
  8
JISSEN
100
AcDbCircle
 10
284.1204395329183
 20
72.72444501733648
 30
0.0
 40
0.25
100
AcDbArc
 50
358.0056319999998
 51
90.0
  0
ARC
  5
1D691845B5
330
1D69183399
100
AcDbEntity
  8
JISSEN
100
AcDbCircle
 10
284.4962395329183
 20
72.67444501733645
 30
0.0
 40
0.3
100
AcDbArc
 50
357.8595680000001
 51
90.0
  0
ARC
  5
1D691845B6
330
1D69183399
100
AcDbEntity
  8
JISSEN
100
AcDbCircle
 10
276.0000825329183
 20
72.47444501733648
 30
0.0
 40
0.5
100
AcDbArc
 50
0.000000000000007
 51
90.0
  0
ARC
  5
1D691845B7
330
1D69183399
100
AcDbEntity
  8
JISSEN
100
AcDbCircle
 10
294.4079505329183
 20
66.59732501733649
 30
0.0
 40
0.5
100
AcDbArc
 50
297.7467379999982
 51
354.7984409999997
  0
ARC
  5
1D691845B8
330
1D69183399
100
AcDbEntity
  8
JISSEN
100
AcDbCircle
 10
295.1533255329183
 20
67.10429301733651
 30
0.0
 40
1.3
100
AcDbArc
 50
297.7467379999982
 51
354.5938149999994
  0
ARC
  5
1D691845B9
330
1D69183399
100
AcDbEntity
  8
JISSEN
100
AcDbCircle
 10
294.8820015329183
 20
66.78134401733652
 30
0.0
 40
0.5
100
AcDbArc
 50
260.6504449999984
 51
354.9610729999998
  0
LINE
  5
1D691845BA
330
1D69183399
100
AcDbEntity
  8
JISSEN
100
AcDbLine
 10
290.3145335329183
 20
66.28134401733652
 30
0.0
 11
289.1143815329183
 21
66.28134401733652
 31
0.0
  0
ARC
  5
1D691845BB
330
1D69183399
100
AcDbEntity
  8
JISSEN
100
AcDbCircle
 10
288.7782795329183
 20
66.49822101733647
 30
0.0
 40
0.4
100
AcDbArc
 50
305.3270680000006
 51
355.9820309999996
  0
ARC
  5
1D691845BC
330
1D69183399
100
AcDbEntity
  8
JISSEN
100
AcDbCircle
 10
290.3145335329183
 20
66.6813440173365
 30
0.0
 40
0.4
100
AcDbArc
 50
270.0
 51
356.2556379999997
  0
ARC
  5
1D691845BD
330
1D69183399
100
AcDbEntity
  8
JISSEN
100
AcDbCircle
 10
290.3049095329183
 20
66.93197301733651
 30
0.0
 40
1.199999999999999
100
AcDbArc
 50
305.3270680000006
 51
355.9820309999996
  0
ARC
  5
1D691845BE
330
1D69183399
100
AcDbEntity
  8
JISSEN
100
AcDbCircle
 10
293.1879145329183
 20
65.27756601733651
 30
0.0
 40
0.1
100
AcDbArc
 50
117.7467380000011
 51
270.0
  0
ARC
  5
1D691845BF
330
1D69183399
100
AcDbEntity
  8
JISSEN
100
AcDbCircle
 10
294.1842335329183
 20
65.57756601733648
 30
0.0
 40
0.4
100
AcDbArc
 50
270.0
 51
297.7467379999982
  0
LINE
  5
1D691845C0
330
1D69183399
100
AcDbEntity
  8
JISSEN
100
AcDbLine
 10
294.1842335329183
 20
65.17756601733649
 30
0.0
 11
293.1879145329183
 21
65.17756601733649
 31
0.0
  0
ARC
  5
1D691845C1
330
1D69183399
100
AcDbEntity
  8
JISSEN
100
AcDbCircle
 10
295.9596565329183
 20
66.19980301733651
 30
0.0
 40
1.0
100
AcDbArc
 50
270.0
 51
294.825405
  0
LINE
  5
1D691845C2
330
1D69183399
100
AcDbEntity
  8
JISSEN
100
AcDbLine
 10
295.9596565329183
 20
65.1998030173365
 30
0.0
 11
295.8859815329183
 21
65.1998030173365
 31
0.0
  0
ARC
  5
1D691845C3
330
1D69183399
100
AcDbEntity
  8
JISSEN
100
AcDbCircle
 10
295.8859815329183
 20
65.24980301733646
 30
0.0
 40
0.05
100
AcDbArc
 50
114.8254049999999
 51
270.0
  0
ARC
  5
1D691845C4
330
1D69183399
100
AcDbEntity
  8
JISSEN
100
AcDbCircle
 10
288.0777175329183
 20
65.32756601733646
 30
0.0
 40
0.15
100
AcDbArc
 50
125.3270680000005
 51
270.0
  0
ARC
  5
1D691845C5
330
1D69183399
100
AcDbEntity
  8
JISSEN
100
AcDbCircle
 10
289.7933505329183
 20
65.52756601733651
 30
0.0
 40
0.35
100
AcDbArc
 50
270.0
 51
305.3270680000006
  0
LINE
  5
1D691845C6
330
1D69183399
100
AcDbEntity
  8
JISSEN
100
AcDbLine
 10
288.0777175329183
 20
65.17756601733649
 30
0.0
 11
289.7933505329183
 21
65.17756601733649
 31
0.0
  0
LINE
  5
1D691845C7
330
1D69183399
100
AcDbEntity
  8
JISSEN
100
AcDbLine
 10
289.9957355329183
 20
65.24201401733652
 30
0.0
 11
290.9988015329183
 21
65.9529360173365
 31
0.0
  0
LINE
  5
1D691845C8
330
1D69183399
100
AcDbEntity
  8
JISSEN
100
AcDbLine
 10
289.0095765329183
 20
66.17187501733647
 30
0.0
 11
287.9909815329183
 21
65.44994601733647
 31
0.0
  0
LINE
  5
1D691845C9
330
1D69183399
100
AcDbEntity
  8
JISSEN
100
AcDbLine
 10
293.1413575329183
 20
65.36606801733651
 30
0.0
 11
294.6407325329183
 21
66.1548180173365
 31
0.0
  0
LINE
  5
1D691845CA
330
1D69183399
100
AcDbEntity
  8
JISSEN
100
AcDbLine
 10
295.7585585329183
 20
65.95377401733649
 30
0.0
 11
294.3704595329183
 21
65.22356101733649
 31
0.0
  0
LINE
  5
1D691845CB
330
1D69183399
100
AcDbEntity
  8
JISSEN
100
AcDbLine
 10
283.8564915329183
 20
66.28134401733652
 30
0.0
 11
281.7231585329183
 21
66.28134401733652
 31
0.0
  0
ARC
  5
1D691845CC
330
1D69183399
100
AcDbEntity
  8
JISSEN
100
AcDbCircle
 10
281.4421445329184
 20
66.38637301733647
 30
0.0
 40
0.3
100
AcDbArc
 50
323.1028380000008
 51
357.8595680000001
  0
ARC
  5
1D691845CD
330
1D69183399
100
AcDbEntity
  8
JISSEN
100
AcDbCircle
 10
283.8564915329183
 20
66.58134401733647
 30
0.0
 40
0.3
100
AcDbArc
 50
270.0
 51
358.0056319999998
  0
ARC
  5
1D691845CE
330
1D69183399
100
AcDbEntity
  8
JISSEN
100
AcDbCircle
 10
283.5698935329183
 20
66.63144101733647
 30
0.0
 40
1.0
100
AcDbArc
 50
323.1028380000008
 51
357.8595680000001
  0
ARC
  5
1D691845CF
330
1D69183399
100
AcDbEntity
  8
JISSEN
100
AcDbCircle
 10
276.0000825329183
 20
66.78134401733652
 30
0.0
 40
0.5
100
AcDbArc
 50
270.0
 51
0.000000000000007
  0
LINE
  5
1D691845D0
330
1D69183399
100
AcDbEntity
  8
JISSEN
100
AcDbLine
 10
283.5789415329183
 20
65.17756601733649
 30
0.0
 11
281.3100125329183
 21
65.17756601733649
 31
0.0
  0
ARC
  5
1D691845D1
330
1D69183399
100
AcDbEntity
  8
JISSEN
100
AcDbCircle
 10
281.3100125329183
 20
65.37756601733647
 30
0.0
 40
0.2
100
AcDbArc
 50
143.1028380000009
 51
270.0
  0
ARC
  5
1D691845D2
330
1D69183399
100
AcDbEntity
  8
JISSEN
100
AcDbCircle
 10
283.5789415329183
 20
65.4775660173365
 30
0.0
 40
0.3
100
AcDbArc
 50
270.0
 51
323.1028380000008
  0
ARC
  5
1D691845D3
330
1D69183399
100
AcDbEntity
  8
JISSEN
100
AcDbCircle
 10
276.0000825329183
 20
65.67756601733647
 30
0.0
 40
0.5
100
AcDbArc
 50
270.0
 51
0.000000000000007
  0
LINE
  5
1D691845D4
330
1D69183399
100
AcDbEntity
  8
JISSEN
100
AcDbLine
 10
281.1500695329184
 20
65.49764301733651
 30
0.0
 11
281.6820595329183
 21
66.20625901733646
 31
0.0
  0
LINE
  5
1D691845D5
330
1D69183399
100
AcDbEntity
  8
JISSEN
100
AcDbLine
 10
284.3696075329183
 20
66.0310600173365
 30
0.0
 11
283.8188565329183
 21
65.2974520173365
 31
0.0
  0
LINE
  5
1D691845D6
330
1D69183399
100
AcDbEntity
  8
JISSEN
100
AcDbLine
 10
276.5000825329183
 20
72.47444501733648
 30
0.0
 11
276.5000825329183
 21
65.67756601733647
 31
0.0
  0
LINE
  5
1D691845D7
330
1D69183399
100
AcDbEntity
  8
JISSEN
100
AcDbLine
 10
281.7419355329183
 20
66.37516901733651
 30
0.0
 11
281.9813875329183
 21
72.7819150173365
 31
0.0
  0
LINE
  5
1D691845D8
330
1D69183399
100
AcDbEntity
  8
JISSEN
100
AcDbLine
 10
289.6211035329183
 20
72.78845901733645
 30
0.0
 11
289.1772965329183
 21
66.47019301733647
 31
0.0
  0
LINE
  5
1D691845D9
330
1D69183399
100
AcDbEntity
  8
JISSEN
100
AcDbLine
 10
284.3702875329183
 20
72.7157440173365
 30
0.0
 11
284.1563095329183
 21
66.57090401733646
 31
0.0
  0
LINE
  5
1D691845DA
330
1D69183399
100
AcDbEntity
  8
JISSEN
100
AcDbLine
 10
284.7960295329183
 20
72.6632400173365
 30
0.0
 11
284.5691955329183
 21
66.59409201733652
 31
0.0
  0
LINE
  5
1D691845DB
330
1D69183399
100
AcDbEntity
  8
JISSEN
100
AcDbLine
 10
291.1063225329183
 20
72.65485301733647
 30
0.0
 11
290.7136795329183
 21
66.65522201733645
 31
0.0
  0
LINE
  5
1D691845DC
330
1D69183399
100
AcDbEntity
  8
JISSEN
100
AcDbLine
 10
291.5019595329183
 20
66.84789001733647
 30
0.0
 11
291.9059935329183
 21
72.59992001733647
 31
0.0
  0
LINE
  5
1D691845DD
330
1D69183399
100
AcDbEntity
  8
JISSEN
100
AcDbLine
 10
294.9058915329183
 20
66.55199501733645
 30
0.0
 11
295.4739995329182
 21
72.79257701733647
 31
0.0
  0
LINE
  5
1D691845DE
330
1D69183399
100
AcDbEntity
  8
JISSEN
100
AcDbLine
 10
295.9108235329182
 20
72.7568780173365
 30
0.0
 11
295.3800695329182
 21
66.73742801733649
 31
0.0
  0
LINE
  5
1D691845DF
330
1D69183399
100
AcDbEntity
  8
JISSEN
100
AcDbLine
 10
296.9732445329183
 20
72.53675801733648
 30
0.0
 11
296.4475425329183
 21
66.98181201733646
 31
0.0
  0
LINE
  5
1D691845E0
330
1D69183399
100
AcDbEntity
  8
JISSEN
100
AcDbLine
 10
295.8649895329183
 20
65.29518201733647
 30
0.0
 11
297.3768485329183
 21
65.99457301733647
 31
0.0
  0
LINE
  5
1D691845E1
330
1D69183399
100
AcDbEntity
  8
JISSEN
100
AcDbLine
 10
297.8464095329183
 20
65.97080301733647
 30
0.0
 11
296.3795115329183
 21
65.29221101733647
 31
0.0
  0
LINE
  5
1D691845E2
330
1D69183399
100
AcDbEntity
  8
JISSEN
100
AcDbLine
 10
289.5292855495201
 20
61.63856269499698
 30
0.0
 11
298.0801078523621
 21
65.65901053426856
 31
0.0
1001
ACAD
1000
ASC_BOUNDS
1002
{
1070
    19
1002
}
  0
LINE
  5
1D691845E3
330
1D69183399
100
AcDbEntity
  8
JISSEN
100
AcDbLine
 10
301.5000825329183
 20
75.47444501733648
 30
0.0
 11
276.0000825329183
 21
75.47444501733648
 31
0.0
  0
ARC
  5
1D691845E4
330
1D69183399
100
AcDbEntity
  8
JISSEN
100
AcDbCircle
 10
296.5750235329183
 20
72.5744450173365
 30
0.0
 40
0.4
100
AcDbArc
 50
354.5938149999994
 51
90.0
  0
ARC
  5
1D691845E5
330
1D69183399
100
AcDbEntity
  8
JISSEN
100
AcDbCircle
 10
287.5500825329138
 20
60.08856269499496
 30
0.0
 40
0.2
100
AcDbArc
 50
269.9999999999902
 51
359.9999999999884
1001
ACAD
1000
ASC_BOUNDS
1002
{
1070
    19
1002
}
  0
LINE
  5
1D691845E6
330
1D69183399
100
AcDbEntity
  8
JISSEN
100
AcDbLine
 10
288.2500825329133
 20
57.27444501733277
 30
0.0
 11
288.2500825329131
 21
55.77444501733279
 31
0.0
  0
LINE
  5
1D691845E7
330
1D69183399
100
AcDbEntity
  8
JISSEN
100
AcDbLine
 10
286.7500825329131
 20
54.27444501733353
 30
0.0
 11
288.2500825329131
 21
55.77444501733279
 31
0.0
  0
LINE
  5
1D691845E8
330
1D69183399
100
AcDbEntity
  8
JISSEN
100
AcDbLine
 10
283.415021488604
 20
57.64765009809181
 30
0.0
 11
283.1226003487289
 21
58.15413836956303
 31
0.0
  0
LINE
  5
1D691845E9
330
1D69183399
100
AcDbEntity
  8
JISSEN
100
AcDbLine
 10
284.5241763548825
 20
58.05708085103453
 30
0.0
 11
283.6882265693608
 21
57.57444501733494
 31
0.0
  0
LINE
  5
1D691845EA
330
1D69183399
100
AcDbEntity
  8
JISSEN
100
AcDbLine
 10
281.2500825329133
 20
57.27444501733447
 30
0.0
 11
281.2500825329138
 21
59.8885626949961
 31
0.0
  0
LINE
  5
1D691845EB
330
1D69183399
100
AcDbEntity
  8
JISSEN
100
AcDbLine
 10
283.1226003487291
 20
59.88856269499581
 30
0.0
 11
283.1226003487286
 21
57.27444501733415
 31
0.0
  0
ARC
  5
1D691845EC
330
1D69183399
100
AcDbEntity
  8
JISSEN
100
AcDbCircle
 10
283.588226569361
 20
57.74765009809181
 30
0.0
 40
0.2
100
AcDbArc
 50
209.9999999999897
 51
299.9999999999887
  0
ARC
  5
1D691845ED
330
1D69183399
100
AcDbEntity
  8
JISSEN
100
AcDbCircle
 10
283.0874362381671
 20
58.90658283927354
 30
0.0
 40
1.0
100
AcDbArc
 50
30.88658490358338
 51
79.10640818213394
  0
ARC
  5
1D691845EE
330
1D69183399
100
AcDbEntity
  8
JISSEN
100
AcDbCircle
 10
284.4241763548824
 20
58.23028593179143
 30
0.0
 40
0.2
100
AcDbArc
 50
299.9999999999887
 51
30.8865849035729
  0
LINE
  5
1D691845EF
330
1D69183399
100
AcDbEntity
  8
JISSEN
100
AcDbLine
 10
283.9456213596848
 20
59.41992317199623
 30
0.0
 11
284.5958133791865
 21
58.33295399833628
 31
0.0
  0
LINE
  5
1D691845F0
330
1D69183399
100
AcDbEntity
  8
JISSEN
100
AcDbLine
 10
277.5000825329164
 20
57.27444501733511
 30
0.0
 11
277.5000825329162
 21
59.88856269499663
 31
0.0
  0
LINE
  5
1D691845F1
330
1D69183399
100
AcDbEntity
  8
JISSEN
100
AcDbLine
 10
281.2500825329136
 20
58.42078469059665
 30
0.0
 11
277.5000825329164
 21
58.69298088664038
 31
0.0
  0
LINE
  5
1D691845F2
330
1D69183399
100
AcDbEntity
  8
JISSEN
100
AcDbLine
 10
278.0000825329128
 20
54.27444501733504
 30
0.0
 11
286.7500825329131
 21
54.27444501733353
 31
0.0
  0
LINE
  5
1D691845F3
330
1D69183399
100
AcDbEntity
  8
JISSEN
100
AcDbLine
 10
287.7500825329141
 20
61.63856269499721
 30
0.0
 11
287.7500825329138
 21
60.08856269499375
 31
0.0
1001
ACAD
1000
ASC_BOUNDS
1002
{
1070
    19
1002
}
  0
ARC
  5
1D691845F4
330
1D69183399
100
AcDbEntity
  8
JISSEN
100
AcDbCircle
 10
310.5000825329184
 20
82.65331473719255
 30
0.0
 40
1.0
100
AcDbArc
 50
284.9999999999809
 51
0.000000000000007
  0
LINE
  5
1D691845FA
330
1D69183399
100
AcDbEntity
  8
JISSEN
100
AcDbLine
 10
238.5000825329183
 20
82.65331473719255
 30
0.0
 11
238.5000825329183
 21
82.97444501733648
 31
0.0
  0
LINE
  5
1D691845FB
330
1D69183399
100
AcDbEntity
  8
JISSEN
100
AcDbLine
 10
248.6500825329184
 20
82.97444501733648
 30
0.0
 11
275.0000825329184
 21
82.97444501733648
 31
0.0
  0
LINE
  5
1D691845FC
330
1D69183399
100
AcDbEntity
  8
JISSEN
100
AcDbLine
 10
248.6500825329184
 20
82.97444501733648
 30
0.0
 11
275.0000825329184
 21
82.97444501733648
 31
0.0
  0
LINE
  5
1D691845FF
330
1D69183399
100
AcDbEntity
  8
JISSEN
100
AcDbLine
 10
264.4025766159695
 20
82.97444501733648
 30
0.0
 11
209.7240931392068
 21
82.97444501733648
 31
0.0
  0
ARC
  5
1D69184600
330
1D69183399
100
AcDbEntity
  8
JISSEN
100
AcDbCircle
 10
275.0000825329184
 20
75.47444501733648
 30
0.0
 40
1.0
100
AcDbArc
 50
180.0
 51
270.0
  0
ARC
  5
1D69184601
330
1D69183399
100
AcDbEntity
  8
JISSEN
100
AcDbCircle
 10
274.0000825329183
 20
72.47444501733648
 30
0.0
 40
0.5
100
AcDbArc
 50
90.0
 51
180.0
  0
LINE
  5
1D69184602
330
1D69183399
100
AcDbEntity
  8
JISSEN
100
AcDbLine
 10
275.0000825329184
 20
72.97444501733648
 30
0.0
 11
274.0000825329183
 21
72.97444501733648
 31
0.0
  0
LINE
  5
1D69184603
330
1D69183399
100
AcDbEntity
  8
JISSEN
100
AcDbLine
 10
267.8189165329184
 20
72.97444501733648
 30
0.0
 11
265.5039255329183
 21
72.97444501733648
 31
0.0
  0
ARC
  5
1D69184604
330
1D69183399
100
AcDbEntity
  8
JISSEN
100
AcDbCircle
 10
265.5039255329183
 20
72.67444501733645
 30
0.0
 40
0.3
100
AcDbArc
 50
90.0
 51
182.1404319999997
  0
ARC
  5
1D69184605
330
1D69183399
100
AcDbEntity
  8
JISSEN
100
AcDbCircle
 10
265.8797255329183
 20
72.72444501733648
 30
0.0
 40
0.25
100
AcDbArc
 50
90.0
 51
181.994368
  0
ARC
  5
1D69184606
330
1D69183399
100
AcDbEntity
  8
JISSEN
100
AcDbCircle
 10
267.8189165329184
 20
72.77444501733649
 30
0.0
 40
0.2
100
AcDbArc
 50
2.140431999999691
 51
90.0
  0
ARC
  5
1D69184607
330
1D69183399
100
AcDbEntity
  8
JISSEN
100
AcDbCircle
 10
260.1795525329184
 20
72.77444501733649
 30
0.0
 40
0.2
100
AcDbArc
 50
4.017969000000365
 51
90.0
  0
ARC
  5
1D69184608
330
1D69183399
100
AcDbEntity
  8
JISSEN
100
AcDbCircle
 10
254.3269885329184
 20
72.77444501733649
 30
0.0
 40
0.2
100
AcDbArc
 50
5.201559000000219
 51
90.0
  0
LINE
  5
1D69184609
330
1D69183399
100
AcDbEntity
  8
JISSEN
100
AcDbLine
 10
258.4433105329184
 20
72.97444501733648
 30
0.0
 11
259.1932015329184
 21
72.97444501733648
 31
0.0
  0
ARC
  5
1D6918460A
330
1D69183399
100
AcDbEntity
  8
JISSEN
100
AcDbCircle
 10
258.4433105329184
 20
72.62444501733646
 30
0.0
 40
0.35
100
AcDbArc
 50
90.0
 51
184.0179690000003
  0
ARC
  5
1D6918460B
330
1D69183399
100
AcDbEntity
  8
JISSEN
100
AcDbCircle
 10
259.1932015329184
 20
72.67444501733645
 30
0.0
 40
0.3
100
AcDbArc
 50
90.0
 51
183.7443620000001
  0
LINE
  5
1D6918460C
330
1D69183399
100
AcDbEntity
  8
JISSEN
100
AcDbLine
 10
259.1932015329184
 20
72.97444501733648
 30
0.0
 11
260.1795525329184
 21
72.97444501733648
 31
0.0
  0
ARC
  5
1D6918460D
330
1D69183399
100
AcDbEntity
  8
JISSEN
100
AcDbCircle
 10
274.0000825329183
 20
66.78134401733652
 30
0.0
 40
0.5
100
AcDbArc
 50
180.0
 51
270.0
  0
LINE
  5
1D6918460E
330
1D69183399
100
AcDbEntity
  8
JISSEN
100
AcDbLine
 10
274.0000825329183
 20
66.28134401733652
 30
0.0
 11
275.0000825329184
 21
66.28134401733652
 31
0.0
  0
LINE
  5
1D6918460F
330
1D69183399
100
AcDbEntity
  8
JISSEN
100
AcDbLine
 10
266.1436735329183
 20
66.28134401733652
 30
0.0
 11
268.2770065329183
 21
66.28134401733652
 31
0.0
  0
ARC
  5
1D69184610
330
1D69183399
100
AcDbEntity
  8
JISSEN
100
AcDbCircle
 10
266.4302715329183
 20
66.63144101733647
 30
0.0
 40
1.0
100
AcDbArc
 50
182.1404319999997
 51
216.8971619999989
  0
ARC
  5
1D69184611
330
1D69183399
100
AcDbEntity
  8
JISSEN
100
AcDbCircle
 10
266.1436735329183
 20
66.58134401733647
 30
0.0
 40
0.3
100
AcDbArc
 50
181.994368
 51
270.0
  0
ARC
  5
1D69184612
330
1D69183399
100
AcDbEntity
  8
JISSEN
100
AcDbCircle
 10
268.5580205329184
 20
66.38637301733647
 30
0.0
 40
0.3
100
AcDbArc
 50
182.1404319999997
 51
216.8971619999989
  0
LINE
  5
1D69184613
330
1D69183399
100
AcDbEntity
  8
JISSEN
100
AcDbLine
 10
275.0000825329184
 20
65.17756601733649
 30
0.0
 11
274.0000825329183
 21
65.17756601733649
 31
0.0
  0
ARC
  5
1D69184614
330
1D69183399
100
AcDbEntity
  8
JISSEN
100
AcDbCircle
 10
268.6901525329183
 20
65.37756601733647
 30
0.0
 40
0.2
100
AcDbArc
 50
270.0
 51
36.89716199999899
  0
LINE
  5
1D69184615
330
1D69183399
100
AcDbEntity
  8
JISSEN
100
AcDbLine
 10
266.4212235329184
 20
65.17756601733649
 30
0.0
 11
268.6901525329183
 21
65.17756601733649
 31
0.0
  0
ARC
  5
1D69184616
330
1D69183399
100
AcDbEntity
  8
JISSEN
100
AcDbCircle
 10
266.4212235329184
 20
65.4775660173365
 30
0.0
 40
0.3
100
AcDbArc
 50
216.8971619999989
 51
270.0
  0
LINE
  5
1D69184617
330
1D69183399
100
AcDbEntity
  8
JISSEN
100
AcDbLine
 10
268.8500955329183
 20
65.49764301733651
 30
0.0
 11
268.3181055329184
 21
66.20625901733646
 31
0.0
  0
LINE
  5
1D69184618
330
1D69183399
100
AcDbEntity
  8
JISSEN
100
AcDbLine
 10
265.6305575329183
 20
66.0310600173365
 30
0.0
 11
266.1813085329184
 21
65.2974520173365
 31
0.0
  0
ARC
  5
1D69184619
330
1D69183399
100
AcDbEntity
  8
JISSEN
100
AcDbCircle
 10
274.0000825329183
 20
65.67756601733647
 30
0.0
 40
0.5
100
AcDbArc
 50
180.0
 51
270.0
  0
ARC
  5
1D6918461A
330
1D69183399
100
AcDbEntity
  8
JISSEN
100
AcDbCircle
 10
261.2218855329184
 20
66.49822101733647
 30
0.0
 40
0.4
100
AcDbArc
 50
184.0179690000003
 51
234.6729319999993
  0
LINE
  5
1D6918461B
330
1D69183399
100
AcDbEntity
  8
JISSEN
100
AcDbLine
 10
259.6856315329184
 20
66.28134401733652
 30
0.0
 11
260.8857835329184
 21
66.28134401733652
 31
0.0
  0
ARC
  5
1D6918461C
330
1D69183399
100
AcDbEntity
  8
JISSEN
100
AcDbCircle
 10
255.1181635329184
 20
66.78134401733652
 30
0.0
 40
0.5
100
AcDbArc
 50
185.0389269999999
 51
279.3495549999982
  0
ARC
  5
1D6918461D
330
1D69183399
100
AcDbEntity
  8
JISSEN
100
AcDbCircle
 10
255.5922145329184
 20
66.59732501733649
 30
0.0
 40
0.5
100
AcDbArc
 50
185.2015590000002
 51
242.2532619999987
  0
ARC
  5
1D6918461E
330
1D69183399
100
AcDbEntity
  8
JISSEN
100
AcDbCircle
 10
259.6952555329183
 20
66.93197301733651
 30
0.0
 40
1.199999999999999
100
AcDbArc
 50
184.0179690000003
 51
234.6729319999993
  0
ARC
  5
1D6918461F
330
1D69183399
100
AcDbEntity
  8
JISSEN
100
AcDbCircle
 10
259.6856315329184
 20
66.6813440173365
 30
0.0
 40
0.4
100
AcDbArc
 50
183.7443620000001
 51
270.0
  0
LINE
  5
1D69184620
330
1D69183399
100
AcDbEntity
  8
JISSEN
100
AcDbLine
 10
261.9224475329184
 20
65.17756601733649
 30
0.0
 11
260.2068145329183
 21
65.17756601733649
 31
0.0
  0
ARC
  5
1D69184621
330
1D69183399
100
AcDbEntity
  8
JISSEN
100
AcDbCircle
 10
260.2068145329183
 20
65.52756601733651
 30
0.0
 40
0.35
100
AcDbArc
 50
234.6729319999993
 51
270.0
  0
ARC
  5
1D69184622
330
1D69183399
100
AcDbEntity
  8
JISSEN
100
AcDbCircle
 10
261.9224475329184
 20
65.32756601733646
 30
0.0
 40
0.15
100
AcDbArc
 50
270.0
 51
54.67293199999931
  0
LINE
  5
1D69184623
330
1D69183399
100
AcDbEntity
  8
JISSEN
100
AcDbLine
 10
255.8159315329183
 20
65.17756601733649
 30
0.0
 11
256.8122505329183
 21
65.17756601733649
 31
0.0
  0
ARC
  5
1D69184624
330
1D69183399
100
AcDbEntity
  8
JISSEN
100
AcDbCircle
 10
255.8159315329183
 20
65.57756601733648
 30
0.0
 40
0.4
100
AcDbArc
 50
242.2532619999987
 51
270.0
  0
ARC
  5
1D69184625
330
1D69183399
100
AcDbEntity
  8
JISSEN
100
AcDbCircle
 10
256.8122505329183
 20
65.27756601733651
 30
0.0
 40
0.1
100
AcDbArc
 50
270.0
 51
62.25326199999885
  0
LINE
  5
1D69184626
330
1D69183399
100
AcDbEntity
  8
JISSEN
100
AcDbLine
 10
260.9905885329184
 20
66.17187501733647
 30
0.0
 11
262.0091835329183
 21
65.44994601733647
 31
0.0
  0
LINE
  5
1D69184627
330
1D69183399
100
AcDbEntity
  8
JISSEN
100
AcDbLine
 10
260.0044295329183
 20
65.24201401733652
 30
0.0
 11
259.0013635329183
 21
65.9529360173365
 31
0.0
  0
LINE
  5
1D69184628
330
1D69183399
100
AcDbEntity
  8
JISSEN
100
AcDbLine
 10
256.8588075329183
 20
65.36606801733651
 30
0.0
 11
255.3594325329183
 21
66.1548180173365
 31
0.0
  0
LINE
  5
1D69184629
330
1D69183399
100
AcDbEntity
  8
JISSEN
100
AcDbLine
 10
275.0000825329184
 20
61.63856269499721
 30
0.0
 11
260.4708795163166
 21
61.63856269499698
 31
0.0
1001
ACAD
1000
ASC_BOUNDS
1002
{
1070
    19
1002
}
  0
LINE
  5
1D6918462A
330
1D69183399
100
AcDbEntity
  8
JISSEN
100
AcDbLine
 10
255.0942735329184
 20
66.55199501733645
 30
0.0
 11
254.5261655329183
 21
72.79257701733647
 31
0.0
  0
LINE
  5
1D6918462B
330
1D69183399
100
AcDbEntity
  8
JISSEN
100
AcDbLine
 10
258.4982055329184
 20
66.84789001733647
 30
0.0
 11
258.0941715329184
 21
72.59992001733647
 31
0.0
  0
LINE
  5
1D6918462C
330
1D69183399
100
AcDbEntity
  8
JISSEN
100
AcDbLine
 10
258.8938425329183
 20
72.65485301733647
 30
0.0
 11
259.2864855329183
 21
66.65522201733645
 31
0.0
  0
LINE
  5
1D6918462D
330
1D69183399
100
AcDbEntity
  8
JISSEN
100
AcDbLine
 10
265.2041355329183
 20
72.6632400173365
 30
0.0
 11
265.4309695329183
 21
66.59409201733652
 31
0.0
  0
LINE
  5
1D6918462E
330
1D69183399
100
AcDbEntity
  8
JISSEN
100
AcDbLine
 10
265.6298775329184
 20
72.7157440173365
 30
0.0
 11
265.8438555329183
 21
66.57090401733646
 31
0.0
  0
LINE
  5
1D6918462F
330
1D69183399
100
AcDbEntity
  8
JISSEN
100
AcDbLine
 10
260.3790615329184
 20
72.78845901733645
 30
0.0
 11
260.8228685329184
 21
66.47019301733647
 31
0.0
  0
LINE
  5
1D69184630
330
1D69183399
100
AcDbEntity
  8
JISSEN
100
AcDbLine
 10
268.2582295329183
 20
66.37516901733651
 30
0.0
 11
268.0187775329184
 21
72.7819150173365
 31
0.0
  0
LINE
  5
1D69184631
330
1D69183399
100
AcDbEntity
  8
JISSEN
100
AcDbLine
 10
273.5000825329183
 20
72.47444501733648
 30
0.0
 11
273.5000825329183
 21
65.67756601733647
 31
0.0
  0
LINE
  5
1D69184632
330
1D69183399
100
AcDbEntity
  8
JISSEN
100
AcDbLine
 10
250.4000825329184
 20
74.47444501733648
 30
0.0
 11
250.5313155329183
 21
72.97444501733648
 31
0.0
  0
ARC
  5
1D69184633
330
1D69183399
100
AcDbEntity
  8
JISSEN
100
AcDbCircle
 10
251.1594615329183
 20
72.59668101733645
 30
0.0
 40
0.4
100
AcDbArc
 50
91.35885499999742
 51
186.1423569999999
  0
ARC
  5
1D69184634
330
1D69183399
100
AcDbEntity
  8
JISSEN
100
AcDbCircle
 10
251.1452345329183
 20
72.89668101733647
 30
0.0
 40
0.1
100
AcDbArc
 50
6.142356999999977
 51
87.28209800000021
  0
ARC
  5
1D69184635
330
1D69183399
100
AcDbEntity
  8
JISSEN
100
AcDbCircle
 10
254.2885685329184
 20
72.77444501733649
 30
0.0
 40
0.2
100
AcDbArc
 50
90.0
 51
185.0389269999999
  0
ARC
  5
1D69184636
330
1D69183399
100
AcDbEntity
  8
JISSEN
100
AcDbCircle
 10
253.4251415329183
 20
72.5744450173365
 30
0.0
 40
0.4
100
AcDbArc
 50
90.0
 51
185.4061850000004
  0
LINE
  5
1D69184637
330
1D69183399
100
AcDbEntity
  8
JISSEN
100
AcDbLine
 10
249.5000825329183
 20
74.47444501733648
 30
0.0
 11
250.4000825329184
 21
74.47444501733648
 31
0.0
  0
LINE
  5
1D69184638
330
1D69183399
100
AcDbEntity
  8
JISSEN
100
AcDbLine
 10
248.5000825329183
 20
75.47444501733648
 30
0.0
 11
249.5000825329183
 21
74.47444501733648
 31
0.0
  0
LINE
  5
1D69184639
330
1D69183399
100
AcDbEntity
  8
JISSEN
100
AcDbLine
 10
247.5000825329183
 20
75.47444501733648
 30
0.0
 11
247.5000825329183
 21
79.47444501733648
 31
0.0
  0
LINE
  5
1D6918463A
330
1D69183399
100
AcDbEntity
  8
JISSEN
100
AcDbLine
 10
247.5000825329183
 20
79.47444501733648
 30
0.0
 11
239.2412634878162
 21
81.68738891090342
 31
0.0
  0
ARC
  5
1D6918463B
330
1D69183399
100
AcDbEntity
  8
JISSEN
100
AcDbCircle
 10
253.1691275329183
 20
67.17444201733647
 30
0.0
 40
1.3
100
AcDbArc
 50
186.1423569999999
 51
245.1745949999999
  0
ARC
  5
1D6918463C
330
1D69183399
100
AcDbEntity
  8
JISSEN
100
AcDbCircle
 10
252.7415515329183
 20
67.24143101733651
 30
0.0
 40
1.399999999999999
100
AcDbArc
 50
186.1423569999999
 51
245.1745949999999
  0
ARC
  5
1D6918463D
330
1D69183399
100
AcDbEntity
  8
JISSEN
100
AcDbCircle
 10
254.8468395329184
 20
67.10429301733651
 30
0.0
 40
1.3
100
AcDbArc
 50
185.4061850000004
 51
242.2532619999987
  0
ARC
  5
1D6918463E
330
1D69183399
100
AcDbEntity
  8
JISSEN
100
AcDbCircle
 10
254.1141835329184
 20
65.24980301733646
 30
0.0
 40
0.05
100
AcDbArc
 50
270.0
 51
65.17459500000001
  0
LINE
  5
1D6918463F
330
1D69183399
100
AcDbEntity
  8
JISSEN
100
AcDbLine
 10
254.0405085329183
 20
65.1998030173365
 30
0.0
 11
254.1141835329184
 21
65.1998030173365
 31
0.0
  0
ARC
  5
1D69184640
330
1D69183399
100
AcDbEntity
  8
JISSEN
100
AcDbCircle
 10
254.0405085329183
 20
66.19980301733651
 30
0.0
 40
1.0
100
AcDbArc
 50
245.1745949999999
 51
270.0
  0
LINE
  5
1D69184641
330
1D69183399
100
AcDbEntity
  8
JISSEN
100
AcDbLine
 10
252.1537555329184
 20
65.97080301733647
 30
0.0
 11
253.6206535329184
 21
65.29221101733647
 31
0.0
  0
LINE
  5
1D69184642
330
1D69183399
100
AcDbEntity
  8
JISSEN
100
AcDbLine
 10
254.1351755329184
 20
65.29518201733647
 30
0.0
 11
252.6233165329184
 21
65.99457301733647
 31
0.0
  0
ARC
  5
1D69184643
330
1D69183399
100
AcDbEntity
  8
JISSEN
100
AcDbCircle
 10
252.5583019342402
 20
67.01645065317425
 30
0.0
 40
1.5
100
AcDbArc
 50
184.9999970190193
 51
244.8179069454195
  0
LINE
  5
1D69184644
330
1D69183399
100
AcDbEntity
  8
JISSEN
100
AcDbLine
 10
251.8765915329183
 20
67.03534301733649
 30
0.0
 11
251.2446605329184
 21
72.90738101733644
 31
0.0
  0
LINE
  5
1D69184645
330
1D69183399
100
AcDbEntity
  8
JISSEN
100
AcDbLine
 10
250.7617585329183
 20
72.55388101733648
 30
0.0
 11
251.3495885329183
 21
67.09163201733648
 31
0.0
  0
LINE
  5
1D69184646
330
1D69183399
100
AcDbEntity
  8
JISSEN
100
AcDbLine
 10
250.5313155329183
 20
72.97444501733648
 30
0.0
 11
251.0640098803009
 21
66.88571711679768
 31
0.0
  0
LINE
  5
1D69184647
330
1D69183399
100
AcDbEntity
  8
JISSEN
100
AcDbLine
 10
253.0269205329183
 20
72.53675801733648
 30
0.0
 11
253.5526225329184
 21
66.98181201733646
 31
0.0
  0
LINE
  5
1D69184648
330
1D69183399
100
AcDbEntity
  8
JISSEN
100
AcDbLine
 10
254.0893415329184
 20
72.7568780173365
 30
0.0
 11
254.6200955329184
 21
66.73742801733649
 31
0.0
  0
LINE
  5
1D69184649
330
1D69183399
100
AcDbEntity
  8
JISSEN
100
AcDbLine
 10
260.4708795163166
 20
61.63856269499698
 30
0.0
 11
251.9200572134745
 21
65.65901053426856
 31
0.0
1001
ACAD
1000
ASC_BOUNDS
1002
{
1070
    19
1002
}
  0
LINE
  5
1D6918464A
330
1D69183399
100
AcDbEntity
  8
JISSEN
100
AcDbLine
 10
254.2416065329184
 20
65.95377401733649
 30
0.0
 11
255.6297055329184
 21
65.22356101733649
 31
0.0
  0
LINE
  5
1D6918464B
330
1D69183399
100
AcDbEntity
  8
JISSEN
100
AcDbLine
 10
248.5000825329183
 20
75.47444501733648
 30
0.0
 11
274.0000825329183
 21
75.47444501733648
 31
0.0
  0
LINE
  5
1D6918464C
330
1D69183399
100
AcDbEntity
  8
JISSEN
100
AcDbLine
 10
249.5000825329183
 20
74.47444501733648
 30
0.0
 11
275.0000825329184
 21
74.47444501733648
 31
0.0
  0
LINE
  5
1D6918464D
330
1D69183399
100
AcDbEntity
  8
JISSEN
100
AcDbLine
 10
254.3269885329184
 20
72.97444501733648
 30
0.0
 11
253.4251415329183
 21
72.97444501733648
 31
0.0
  0
LINE
  5
1D6918464E
330
1D69183399
100
AcDbEntity
  8
JISSEN
100
AcDbLine
 10
272.5000825329165
 20
57.27444501733511
 30
0.0
 11
272.5000825329165
 21
59.88856269499663
 31
0.0
  0
LINE
  5
1D6918464F
330
1D69183399
100
AcDbEntity
  8
JISSEN
100
AcDbLine
 10
265.4759887109503
 20
58.05708085103453
 30
0.0
 11
266.3119384964719
 21
57.57444501733494
 31
0.0
  0
LINE
  5
1D69184650
330
1D69183399
100
AcDbEntity
  8
JISSEN
100
AcDbLine
 10
266.5851435772288
 20
57.64765009809181
 30
0.0
 11
266.8775647171039
 21
58.15413836956303
 31
0.0
  0
LINE
  5
1D69184651
330
1D69183399
100
AcDbEntity
  8
JISSEN
100
AcDbLine
 10
266.8775647171036
 20
59.88856269499581
 30
0.0
 11
266.8775647171041
 21
57.27444501733415
 31
0.0
  0
ARC
  5
1D69184652
330
1D69183399
100
AcDbEntity
  8
JISSEN
100
AcDbCircle
 10
266.4119384964718
 20
57.74765009809181
 30
0.0
 40
0.2
100
AcDbArc
 50
240.0000000000111
 51
330.0000000000101
  0
ARC
  5
1D69184653
330
1D69183399
100
AcDbEntity
  8
JISSEN
100
AcDbCircle
 10
266.9127288276655
 20
58.90658283927354
 30
0.0
 40
1.0
100
AcDbArc
 50
100.8935918178659
 51
149.1134150964166
  0
ARC
  5
1D69184654
330
1D69183399
100
AcDbEntity
  8
JISSEN
100
AcDbCircle
 10
265.5759887109502
 20
58.23028593179143
 30
0.0
 40
0.2
100
AcDbArc
 50
149.1134150964271
 51
240.0000000000111
  0
LINE
  5
1D69184655
330
1D69183399
100
AcDbEntity
  8
JISSEN
100
AcDbLine
 10
266.0545437061479
 20
59.41992317199623
 30
0.0
 11
265.4043516866463
 21
58.33295399833628
 31
0.0
  0
LINE
  5
1D69184656
330
1D69183399
100
AcDbEntity
  8
JISSEN
100
AcDbLine
 10
268.7500825329194
 20
57.27444501733447
 30
0.0
 11
268.7500825329188
 21
59.8885626949961
 31
0.0
  0
LINE
  5
1D69184657
330
1D69183399
100
AcDbEntity
  8
JISSEN
100
AcDbLine
 10
268.7500825329191
 20
58.42078469059665
 30
0.0
 11
272.5000825329165
 21
58.69298088664038
 31
0.0
  0
LINE
  5
1D69184658
330
1D69183399
100
AcDbEntity
  8
JISSEN
100
AcDbLine
 10
272.00008253292
 20
54.27444501733497
 30
0.0
 11
275.00008253292
 21
54.27444501733555
 31
0.0
  0
LINE
  5
1D69184659
330
1D69183399
100
AcDbEntity
  8
JISSEN
100
AcDbLine
 10
261.7500825329195
 20
57.27444501733277
 30
0.0
 11
261.7500825329198
 21
55.77444501733279
 31
0.0
  0
ARC
  5
1D6918465A
330
1D69183399
100
AcDbEntity
  8
JISSEN
100
AcDbCircle
 10
262.450082532919
 20
60.08856269499496
 30
0.0
 40
0.2
100
AcDbArc
 50
180.0000000000114
 51
270.0000000000065
1001
ACAD
1000
ASC_BOUNDS
1002
{
1070
    19
1002
}
  0
LINE
  5
1D6918465B
330
1D69183399
100
AcDbEntity
  8
JISSEN
100
AcDbLine
 10
263.2500825329195
 20
54.27444501733353
 30
0.0
 11
261.7500825329198
 21
55.77444501733279
 31
0.0
  0
LINE
  5
1D6918465C
330
1D69183399
100
AcDbEntity
  8
JISSEN
100
AcDbLine
 10
261.7500825329198
 20
55.77444501733279
 30
0.0
 11
275.0000825329165
 21
55.77444501733275
 31
0.0
  0
LINE
  5
1D6918465D
330
1D69183399
100
AcDbEntity
  8
JISSEN
100
AcDbLine
 10
275.0000825329165
 20
59.888562694997
 30
0.0
 11
262.450082532919
 21
59.88856269499516
 31
0.0
1001
ACAD
1000
ASC_BOUNDS
1002
{
1070
    19
1002
}
  0
LINE
  5
1D6918465E
330
1D69183399
100
AcDbEntity
  8
JISSEN
100
AcDbLine
 10
272.00008253292
 20
54.27444501733504
 30
0.0
 11
263.2500825329195
 21
54.27444501733353
 31
0.0
  0
LINE
  5
1D6918465F
330
1D69183399
100
AcDbEntity
  8
JISSEN
100
AcDbLine
 10
261.7500825329195
 20
57.27444501733327
 30
0.0
 11
275.0000825329164
 21
57.27444501733555
 31
0.0
  0
LINE
  5
1D69184660
330
1D69183399
100
AcDbEntity
  8
JISSEN
100
AcDbLine
 10
262.2500825329186
 20
61.63856269499721
 30
0.0
 11
262.2500825329189
 21
60.08856269499375
 31
0.0
1001
ACAD
1000
ASC_BOUNDS
1002
{
1070
    19
1002
}
  0
ARC
  5
1D69184661
330
1D69183399
100
AcDbEntity
  8
JISSEN
100
AcDbCircle
 10
239.5000825329183
 20
82.65331473719255
 30
0.0
 40
1.0
100
AcDbArc
 50
180.0
 51
255.0000000000189
  0
LINE
  5
1D69184663
330
1D69183399
100
AcDbEntity
  8
JISSEN
100
AcDbLine
 10
301.3500825329182
 20
82.97444501733648
 30
0.0
 11
275.0000825329184
 21
82.97444501733648
 31
0.0
  0
LINE
  5
1D69184665
330
1D69183399
100
AcDbEntity
  8
JISSEN
100
AcDbLine
 10
238.5000825329183
 20
82.97444501733648
 30
0.0
 11
311.5000825329183
 21
82.97444501733648
 31
0.0
  0
LINE
  5
1D69184666
330
1D69183399
100
AcDbEntity
  8
JISSEN
100
AcDbLine
 10
275.0000825329184
 20
61.63856269499721
 30
0.0
 11
289.5292855495201
 21
61.63856269499698
 31
0.0
1001
ACAD
1000
ASC_BOUNDS
1002
{
1070
    19
1002
}
  0
LINE
  5
1D69184667
330
1D69183399
100
AcDbEntity
  8
JISSEN
100
AcDbLine
 10
276.0000825329183
 20
66.28134401733652
 30
0.0
 11
275.0000825329184
 21
66.28134401733652
 31
0.0
  0
LINE
  5
1D69184668
330
1D69183399
100
AcDbEntity
  8
JISSEN
100
AcDbLine
 10
275.0000825329184
 20
65.17756601733649
 30
0.0
 11
276.0000825329183
 21
65.17756601733649
 31
0.0
  0
LINE
  5
1D69184669
330
1D69183399
100
AcDbEntity
  8
JISSEN
100
AcDbLine
 10
247.5000825329183
 20
79.47444501733648
 30
0.0
 11
302.5000825329184
 21
79.47444501733653
 31
0.0
  0
LINE
  5
1D6918466A
330
1D69183399
100
AcDbEntity
  8
JISSEN
100
AcDbLine
 10
302.5000825329184
 20
75.47444501733648
 30
0.0
 11
247.5000825329183
 21
75.47444501733648
 31
0.0
  0
LINE
  5
1D6918466B
330
1D69183399
100
AcDbEntity
  8
JISSEN
100
AcDbLine
 10
301.3500825329182
 20
82.97444501733648
 30
0.0
 11
275.0000825329184
 21
82.97444501733648
 31
0.0
  0
LINE
  5
1D6918466C
330
1D69183399
100
AcDbEntity
  8
JISSEN
100
AcDbLine
 10
300.5000825329183
 20
74.47444501733648
 30
0.0
 11
275.0000825329184
 21
74.47444501733648
 31
0.0
  0
ARC
  5
1D6918466D
330
1D69183399
100
AcDbEntity
  8
JISSEN
100
AcDbCircle
 10
275.0000825329184
 20
75.47444501733648
 30
0.0
 40
1.0
100
AcDbArc
 50
270.0
 51
0.000000000000007
  0
LINE
  5
1D6918466E
330
1D69183399
100
AcDbEntity
  8
JISSEN
100
AcDbLine
 10
275.0000825329184
 20
72.97444501733648
 30
0.0
 11
276.0000825329183
 21
72.97444501733648
 31
0.0
  0
LINE
  5
1D6918466F
330
1D69183399
100
AcDbEntity
  8
JISSEN
100
AcDbLine
 10
288.2500825329133
 20
57.27444501733327
 30
0.0
 11
275.0000825329164
 21
57.27444501733555
 31
0.0
  0
LINE
  5
1D69184670
330
1D69183399
100
AcDbEntity
  8
JISSEN
100
AcDbLine
 10
275.0000825329164
 20
59.888562694997
 30
0.0
 11
287.5500825329138
 21
59.88856269499516
 31
0.0
1001
ACAD
1000
ASC_BOUNDS
1002
{
1070
    19
1002
}
  0
LINE
  5
1D69184671
330
1D69183399
100
AcDbEntity
  8
JISSEN
100
AcDbLine
 10
288.2500825329131
 20
55.77444501733279
 30
0.0
 11
275.0000825329164
 21
55.77444501733275
 31
0.0
  0
LINE
  5
1D69184672
330
1D69183399
100
AcDbEntity
  8
JISSEN
100
AcDbLine
 10
278.0000825329128
 20
54.27444501733497
 30
0.0
 11
275.0000825329128
 21
54.27444501733555
 31
0.0
  0
LINE
  5
1D691846E2
330
1D69183399
100
AcDbEntity
  8
SUNPOU
100
AcDbLine
 10
357.0868677585665
 20
10.84292506372548
 30
0.0
 11
357.0868677585665
 21
7.842925063725487
 31
0.0
  0
ENDSEC
  0
SECTION
  2
OBJECTS
  0
DICTIONARY
  5
1D6918338D
330
0
100
AcDbDictionary
  3
ACAD_GROUP
350
1D6918338E
  3
ACAD_LAYOUT
350
1D691837E6
  3
ACAD_MLINESTYLE
350
1D6918338F
  3
ACAD_PLOTSETTINGS
350
1D691837E7
  3
ACAD_PLOTSTYLENAME
350
1D691837E4
  3
ACDBHEADERROUNDTRIPXREC
350
1D691846E5
  3
ACDBVARIABLEDICTIONARY
350
1D691846B3
  0
DICTIONARY
  5
1D69183A5C
330
1D69183399
100
AcDbDictionary
280
     1
  3
ACAD_LAYOUTSELFREF
360
1D69184707
  0
DICTIONARY
  5
1D69183A5A
330
1D69183396
100
AcDbDictionary
280
     1
  3
ACAD_LAYOUTSELFREF
360
1D69184706
  0
DICTIONARY
  5
1D6918338E
102
{ACAD_REACTORS
330
1D6918338D
102
}
330
1D6918338D
100
AcDbDictionary
  0
DICTIONARY
  5
1D691837E6
102
{ACAD_REACTORS
330
1D6918338D
102
}
330
1D6918338D
100
AcDbDictionary
  0
DICTIONARY
  5
1D6918338F
102
{ACAD_REACTORS
330
1D6918338D
102
}
330
1D6918338D
100
AcDbDictionary
  3
STANDARD
350
1D6918339C
  0
DICTIONARY
  5
1D691837E7
102
{ACAD_REACTORS
330
1D6918338D
102
}
330
1D6918338D
100
AcDbDictionary
  0
ACDBDICTIONARYWDFLT
  5
1D691837E4
102
{ACAD_REACTORS
330
1D6918338D
102
}
330
1D6918338D
100
AcDbDictionary
281
     1
  3
Normal
350
1D691837E5
100
AcDbDictionaryWithDefault
340
1D691837E5
  0
DICTIONARY
  5
1D691846E5
102
{ACAD_REACTORS
330
1D6918338D
102
}
330
1D6918338D
100
AcDbDictionary
  3
CEPSNTYPE
350
1D691846EF
  3
DIMSTYLEDATA
350
1D691846F3
  3
FINGERPRINTGUID
350
1D691846F0
  3
HYPERLINKBASE
350
1D691846E8
  3
INSUNITS
350
1D691846EE
  3
LAYOUTDICT
350
1D691846EA
  3
LWETCUNION
350
1D691846ED
  3
PLOTSETDICT
350
1D691846EB
  3
PLOTSTYLNAMDICT
350
1D691846EC
  3
PSVPSCALE
350
1D691846F2
  3
PUCSBASE
350
1D691846F6
  3
PUCSORGBACK
350
1D691846FC
  3
PUCSORGBOTTOM
350
1D691846F8
  3
PUCSORGFRONT
350
1D691846FB
  3
PUCSORGLEFT
350
1D691846F9
  3
PUCSORGRIGHT
350
1D691846FA
  3
PUCSORGTOP
350
1D691846F7
  3
PUCSORTHOREF
350
1D691846F4
  3
PUCSORTHOVIEW
350
1D691846F5
  3
STYLESHEET
350
1D691846E9
  3
TSTACKALIGN
350
1D691846E6
  3
TSTACKSIZE
350
1D691846E7
  3
UCSBASE
350
1D691846FF
  3
UCSORGBACK
350
1D69184705
  3
UCSORGBOTTOM
350
1D69184701
  3
UCSORGFRONT
350
1D69184704
  3
UCSORGLEFT
350
1D69184702
  3
UCSORGRIGHT
350
1D69184703
  3
UCSORGTOP
350
1D69184700
  3
UCSORTHOREF
350
1D691846FD
  3
UCSORTHOVIEW
350
1D691846FE
  3
VERSIONGUID
350
1D691846F1
  0
DICTIONARY
  5
1D691846B3
102
{ACAD_REACTORS
330
1D6918338D
102
}
330
1D6918338D
100
AcDbDictionary
  3
DIMASSOC
350
1D691846B4
  0
XRECORD
  5
1D69184707
102
{ACAD_REACTORS
330
1D69183A5C
102
}
330
1D69183A5C
100
AcDbXrecord
340
1D69183399
  0
XRECORD
  5
1D69184706
102
{ACAD_REACTORS
330
1D69183A5A
102
}
330
1D69183A5A
100
AcDbXrecord
340
1D69183396
  0
MLINESTYLE
  5
1D6918339C
102
{ACAD_REACTORS
330
1D6918338F
102
}
330
1D6918338F
100
AcDbMlineStyle
  2
STANDARD
 70
     0
  3

 62
     0
 51
90.0
 52
90.0
 71
     2
 49
0.5
 62
   256
  6
BYLAYER
 49
-0.5
 62
   256
  6
BYLAYER
  0
ACDBPLACEHOLDER
  5
1D691837E5
102
{ACAD_REACTORS
330
1D691837E4
102
}
330
1D691837E4
100
AcDbPlaceHolder
280
     0
  0
XRECORD
  5
1D691846EF
102
{ACAD_REACTORS
330
1D691846E5
102
}
330
1D691846E5
100
AcDbXrecord
 90
        0
  0
XRECORD
  5
1D691846F3
102
{ACAD_REACTORS
330
1D691846E5
102
}
330
1D691846E5
100
AcDbXrecord
1000
DSTYLE
1002
{
1070
   341
340
1D691833A3
1070
   342
340
1D691833A3
1070
   343
340
1D691833A3
1070
   344
340
1D691833A3
1002
}
  0
XRECORD
  5
1D691846F0
102
{ACAD_REACTORS
330
1D691846E5
102
}
330
1D691846E5
100
AcDbXrecord
  1
{9E4523D2-8DA8-438B-B789-0D080F5E267A}
  0
XRECORD
  5
1D691846E8
102
{ACAD_REACTORS
330
1D691846E5
102
}
330
1D691846E5
100
AcDbXrecord
  1

  0
XRECORD
  5
1D691846EE
102
{ACAD_REACTORS
330
1D691846E5
102
}
330
1D691846E5
100
AcDbXrecord
 90
        0
  0
XRECORD
  5
1D691846EA
102
{ACAD_REACTORS
330
1D691846E5
102
}
330
1D691846E5
100
AcDbXrecord
340
1D691837E6
  0
XRECORD
  5
1D691846ED
102
{ACAD_REACTORS
330
1D691846E5
102
}
330
1D691846E5
100
AcDbXrecord
 90
    14877
  0
XRECORD
  5
1D691846EB
102
{ACAD_REACTORS
330
1D691846E5
102
}
330
1D691846E5
100
AcDbXrecord
340
1D691837E7
  0
XRECORD
  5
1D691846EC
102
{ACAD_REACTORS
330
1D691846E5
102
}
330
1D691846E5
100
AcDbXrecord
340
1D691837E4
  0
XRECORD
  5
1D691846F2
102
{ACAD_REACTORS
330
1D691846E5
102
}
330
1D691846E5
100
AcDbXrecord
 40
0.0
  0
XRECORD
  5
1D691846F6
102
{ACAD_REACTORS
330
1D691846E5
102
}
330
1D691846E5
100
AcDbXrecord
340
0
  0
XRECORD
  5
1D691846FC
102
{ACAD_REACTORS
330
1D691846E5
102
}
330
1D691846E5
100
AcDbXrecord
 10
0.0
 20
0.0
 30
0.0
  0
XRECORD
  5
1D691846F8
102
{ACAD_REACTORS
330
1D691846E5
102
}
330
1D691846E5
100
AcDbXrecord
 10
0.0
 20
0.0
 30
0.0
  0
XRECORD
  5
1D691846FB
102
{ACAD_REACTORS
330
1D691846E5
102
}
330
1D691846E5
100
AcDbXrecord
 10
0.0
 20
0.0
 30
0.0
  0
XRECORD
  5
1D691846F9
102
{ACAD_REACTORS
330
1D691846E5
102
}
330
1D691846E5
100
AcDbXrecord
 10
0.0
 20
0.0
 30
0.0
  0
XRECORD
  5
1D691846FA
102
{ACAD_REACTORS
330
1D691846E5
102
}
330
1D691846E5
100
AcDbXrecord
 10
0.0
 20
0.0
 30
0.0
  0
XRECORD
  5
1D691846F7
102
{ACAD_REACTORS
330
1D691846E5
102
}
330
1D691846E5
100
AcDbXrecord
 10
0.0
 20
0.0
 30
0.0
  0
XRECORD
  5
1D691846F4
102
{ACAD_REACTORS
330
1D691846E5
102
}
330
1D691846E5
100
AcDbXrecord
340
0
  0
XRECORD
  5
1D691846F5
102
{ACAD_REACTORS
330
1D691846E5
102
}
330
1D691846E5
100
AcDbXrecord
 70
     0
  0
XRECORD
  5
1D691846E9
102
{ACAD_REACTORS
330
1D691846E5
102
}
330
1D691846E5
100
AcDbXrecord
  1

  0
XRECORD
  5
1D691846E6
102
{ACAD_REACTORS
330
1D691846E5
102
}
330
1D691846E5
100
AcDbXrecord
 90
        1
  0
XRECORD
  5
1D691846E7
102
{ACAD_REACTORS
330
1D691846E5
102
}
330
1D691846E5
100
AcDbXrecord
 90
       70
  0
XRECORD
  5
1D691846FF
102
{ACAD_REACTORS
330
1D691846E5
102
}
330
1D691846E5
100
AcDbXrecord
340
0
  0
XRECORD
  5
1D69184705
102
{ACAD_REACTORS
330
1D691846E5
102
}
330
1D691846E5
100
AcDbXrecord
 10
0.0
 20
0.0
 30
0.0
  0
XRECORD
  5
1D69184701
102
{ACAD_REACTORS
330
1D691846E5
102
}
330
1D691846E5
100
AcDbXrecord
 10
0.0
 20
0.0
 30
0.0
  0
XRECORD
  5
1D69184704
102
{ACAD_REACTORS
330
1D691846E5
102
}
330
1D691846E5
100
AcDbXrecord
 10
0.0
 20
0.0
 30
0.0
  0
XRECORD
  5
1D69184702
102
{ACAD_REACTORS
330
1D691846E5
102
}
330
1D691846E5
100
AcDbXrecord
 10
0.0
 20
0.0
 30
0.0
  0
XRECORD
  5
1D69184703
102
{ACAD_REACTORS
330
1D691846E5
102
}
330
1D691846E5
100
AcDbXrecord
 10
0.0
 20
0.0
 30
0.0
  0
XRECORD
  5
1D69184700
102
{ACAD_REACTORS
330
1D691846E5
102
}
330
1D691846E5
100
AcDbXrecord
 10
0.0
 20
0.0
 30
0.0
  0
XRECORD
  5
1D691846FD
102
{ACAD_REACTORS
330
1D691846E5
102
}
330
1D691846E5
100
AcDbXrecord
340
0
  0
XRECORD
  5
1D691846FE
102
{ACAD_REACTORS
330
1D691846E5
102
}
330
1D691846E5
100
AcDbXrecord
 70
     0
  0
XRECORD
  5
1D691846F1
102
{ACAD_REACTORS
330
1D691846E5
102
}
330
1D691846E5
100
AcDbXrecord
  1
{9B5D46FE-442F-4DA3-A4A7-AD3617D2BC7D}
  0
DICTIONARYVAR
  5
1D691846B4
102
{ACAD_REACTORS
330
1D691846B3
102
}
330
1D691846B3
100
DictionaryVariables
280
     0
  1
0
  0
ENDSEC
  0
EOF
