  0
SECTION
  2
HEADER
  9
$ACADVER
  1
AC1014
  9
$ACADMAINTVER
 70
     9
  9
$DWGCODEPAGE
  3
ANSI_932
  9
$INSBASE
 10
0.0
 20
0.0
 30
0.0
  9
$EXTMIN
 10
-0.0110465203861168
 20
-0.0083306632196809
 30
-0.0015258207003583
  9
$EXTMAX
 10
362.0110462060799
 20
273.00833224776
 30
0.0000000349246037
  9
$LIMMIN
 10
0.0
 20
0.0
  9
$LIMMAX
 10
180.999999
 20
273.0
  9
$ORTHOMODE
 70
     0
  9
$REGENMODE
 70
     1
  9
$FILLMODE
 70
     1
  9
$QTEXTMODE
 70
     0
  9
$MIRRTEXT
 70
     0
  9
$DRAGMODE
 70
     2
  9
$LTSCALE
 40
5.0
  9
$OSMODE
 70
   167
  9
$ATTMODE
 70
     1
  9
$TEXTSIZE
 40
5.0
  9
$TRACEWID
 40
0.05
  9
$TEXTSTYLE
  7
ROMANS
  9
$CLAYER
  8
JISSEN
  9
$CELTYPE
  6
BYLAYER
  9
$CECOLOR
 62
   256
  9
$CELTSCALE
 40
1.0
  9
$DELOBJ
 70
     1
  9
$DISPSILH
 70
     0
  9
$DIMSCALE
 40
1.0
  9
$DIMASZ
 40
1.5
  9
$DIMEXO
 40
1.0
  9
$DIMDLI
 40
6.0
  9
$DIMRND
 40
0.0
  9
$DIMDLE
 40
0.0
  9
$DIMEXE
 40
1.0
  9
$DIMTP
 40
0.0
  9
$DIMTM
 40
0.0
  9
$DIMTXT
 40
3.0
  9
$DIMCEN
 40
1.0
  9
$DIMTSZ
 40
0.0
  9
$DIMTOL
 70
     0
  9
$DIMLIM
 70
     0
  9
$DIMTIH
 70
     0
  9
$DIMTOH
 70
     0
  9
$DIMSE1
 70
     0
  9
$DIMSE2
 70
     0
  9
$DIMTAD
 70
     0
  9
$DIMZIN
 70
     8
  9
$DIMBLK
  1
ARROW
  9
$DIMASO
 70
     0
  9
$DIMSHO
 70
     0
  9
$DIMPOST
  1

  9
$DIMAPOST
  1

  9
$DIMALT
 70
     0
  9
$DIMALTD
 70
     2
  9
$DIMALTF
 40
25.4
  9
$DIMLFAC
 40
1.0
  9
$DIMTOFL
 70
     1
  9
$DIMTVP
 40
1.0
  9
$DIMTIX
 70
     0
  9
$DIMSOXD
 70
     0
  9
$DIMSAH
 70
     0
  9
$DIMBLK1
  1

  9
$DIMBLK2
  1

  9
$DIMSTYLE
  2
IMAO
  9
$DIMCLRD
 70
     0
  9
$DIMCLRE
 70
     0
  9
$DIMCLRT
 70
     0
  9
$DIMTFAC
 40
1.0
  9
$DIMGAP
 40
0.09
  9
$DIMJUST
 70
     0
  9
$DIMSD1
 70
     0
  9
$DIMSD2
 70
     0
  9
$DIMTOLJ
 70
     1
  9
$DIMTZIN
 70
     0
  9
$DIMALTZ
 70
     0
  9
$DIMALTTZ
 70
     0
  9
$DIMFIT
 70
     3
  9
$DIMUPT
 70
     0
  9
$DIMUNIT
 70
     2
  9
$DIMDEC
 70
     4
  9
$DIMTDEC
 70
     4
  9
$DIMALTU
 70
     2
  9
$DIMALTTD
 70
     2
  9
$DIMTXSTY
  7
STANDARD
  9
$DIMAUNIT
 70
     0
  9
$LUNITS
 70
     2
  9
$LUPREC
 70
     2
  9
$SKETCHINC
 40
0.1
  9
$FILLETRAD
 40
1.5
  9
$AUNITS
 70
     0
  9
$AUPREC
 70
     2
  9
$MENU
  1
stdr12j
  9
$ELEVATION
 40
0.0
  9
$PELEVATION
 40
0.0
  9
$THICKNESS
 40
0.0
  9
$LIMCHECK
 70
     0
  9
$BLIPMODE
 70
     0
  9
$CHAMFERA
 40
0.0
  9
$CHAMFERB
 40
0.0
  9
$CHAMFERC
 40
0.0
  9
$CHAMFERD
 40
0.0
  9
$SKPOLY
 70
     0
  9
$TDCREATE
 40
2449955.466837384
  9
$TDUPDATE
 40
2453620.667297338
  9
$TDINDWG
 40
0.0830028588
  9
$TDUSRTIMER
 40
0.0830028588
  9
$USRTIMER
 70
     1
  9
$ANGBASE
 50
0.0
  9
$ANGDIR
 70
     0
  9
$PDMODE
 70
     0
  9
$PDSIZE
 40
0.0
  9
$PLINEWID
 40
0.0
  9
$COORDS
 70
     2
  9
$SPLFRAME
 70
     0
  9
$SPLINETYPE
 70
     6
  9
$SPLINESEGS
 70
     8
  9
$ATTDIA
 70
     0
  9
$ATTREQ
 70
     1
  9
$HANDLING
 70
 22529
  9
$HANDSEED
  5
1BC42D08745E4
  9
$SURFTAB1
 70
     6
  9
$SURFTAB2
 70
     6
  9
$SURFTYPE
 70
     6
  9
$SURFU
 70
     6
  9
$SURFV
 70
     6
  9
$UCSNAME
  2

  9
$UCSORG
 10
0.0
 20
0.0
 30
0.0
  9
$UCSXDIR
 10
1.0
 20
0.0
 30
0.0
  9
$UCSYDIR
 10
0.0
 20
1.0
 30
0.0
  9
$PUCSNAME
  2

  9
$PUCSORG
 10
0.0
 20
0.0
 30
0.0
  9
$PUCSXDIR
 10
1.0
 20
0.0
 30
0.0
  9
$PUCSYDIR
 10
0.0
 20
1.0
 30
0.0
  9
$USERI1
 70
     4
  9
$USERI2
 70
     1
  9
$USERI3
 70
     1
  9
$USERI4
 70
     0
  9
$USERI5
 70
     0
  9
$USERR1
 40
1.0
  9
$USERR2
 40
3.0
  9
$USERR3
 40
3.0
  9
$USERR4
 40
1.5
  9
$USERR5
 40
10.0
  9
$WORLDVIEW
 70
     1
  9
$SHADEDGE
 70
     3
  9
$SHADEDIF
 70
    70
  9
$TILEMODE
 70
     1
  9
$MAXACTVP
 70
    16
  9
$PINSBASE
 10
0.0
 20
0.0
 30
0.0
  9
$PLIMCHECK
 70
     0
  9
$PEXTMIN
 10
1.000000000000000E+20
 20
1.000000000000000E+20
 30
1.000000000000000E+20
  9
$PEXTMAX
 10
-1.000000000000000E+20
 20
-1.000000000000000E+20
 30
-1.000000000000000E+20
  9
$PLIMMIN
 10
0.0
 20
0.0
  9
$PLIMMAX
 10
12.0
 20
9.0
  9
$UNITMODE
 70
     0
  9
$VISRETAIN
 70
     0
  9
$PLINEGEN
 70
     0
  9
$PSLTSCALE
 70
     0
  9
$TREEDEPTH
 70
  3020
  9
$PICKSTYLE
 70
     1
  9
$CMLSTYLE
  2
STANDARD
  9
$CMLJUST
 70
     0
  9
$CMLSCALE
 40
1.0
  9
$PROXYGRAPHICS
 70
     1
  9
$MEASUREMENT
 70
     0
  0
ENDSEC
  0
SECTION
  2
CLASSES
  0
CLASS
  1
LWPOLYLINE
  2
AcDbPolyline
  3
AutoCAD 2000
 90
        0
280
     0
281
     1
  0
CLASS
  1
ACDBDICTIONARYWDFLT
  2
AcDbDictionaryWithDefault
  3
AutoCAD 2000
 90
        0
280
     0
281
     0
  0
CLASS
  1
ACDBPLACEHOLDER
  2
AcDbPlaceHolder
  3
AutoCAD 2000
 90
        0
280
     0
281
     0
  0
CLASS
  1
LAYOUT
  2
AcDbLayout
  3
AutoCAD 2000
 90
        0
280
     0
281
     0
  0
CLASS
  1
LONG_TRANSACTION
  2
AcDbLongTransaction
  3
AutoCAD 2000
 90
        0
280
     0
281
     0
  0
CLASS
  1
LWPOLYLINE
  2
AcDbPolyline
  3
AutoCAD 2000
 90
        0
280
     0
281
     1
  0
CLASS
  1
HATCH
  2
AcDbHatch
  3
AutoCAD 2000
 90
        0
280
     0
281
     1
  0
CLASS
  1
XRECORD
  2
AcDbXrecord
  3
AutoCAD 2000
 90
        0
280
     0
281
     0
  0
CLASS
  1
LONG_TRANSACTION
  2
AcDbLongTransaction
  3
AutoCAD 2000
 90
        0
280
     0
281
     0
  0
CLASS
  1
LWPOLYLINE
  2
AcDbPolyline
  3
AutoCAD 2000
 90
        0
280
     0
281
     1
  0
CLASS
  1
HATCH
  2
AcDbHatch
  3
AutoCAD 2000
 90
        0
280
     0
281
     1
  0
CLASS
  1
XRECORD
  2
AcDbXrecord
  3
AutoCAD 2000
 90
        0
280
     0
281
     0
  0
CLASS
  1
LONG_TRANSACTION
  2
AcDbLongTransaction
  3
AutoCAD 2000
 90
        0
280
     0
281
     0
  0
CLASS
  1
LWPOLYLINE
  2
AcDbPolyline
  3
AutoCAD 2000
 90
        0
280
     0
281
     1
  0
CLASS
  1
HATCH
  2
AcDbHatch
  3
AutoCAD 2000
 90
        0
280
     0
281
     1
  0
CLASS
  1
XRECORD
  2
AcDbXrecord
  3
AutoCAD 2000
 90
        0
280
     0
281
     0
  0
CLASS
  1
LONG_TRANSACTION
  2
AcDbLongTransaction
  3
AutoCAD 2000
 90
        0
280
     0
281
     0
  0
CLASS
  1
LWPOLYLINE
  2
AcDbPolyline
  3
AutoCAD 2000
 90
        0
280
     0
281
     1
  0
CLASS
  1
HATCH
  2
AcDbHatch
  3
AutoCAD 2000
 90
        0
280
     0
281
     1
  0
CLASS
  1
XRECORD
  2
AcDbXrecord
  3
AutoCAD 2000
 90
        0
280
     0
281
     0
  0
CLASS
  1
DICTIONARYVAR
  2
AcDbDictionaryVar
  3
AutoCAD 2000
 90
        0
280
     0
281
     0
  0
CLASS
  1
LONG_TRANSACTION
  2
AcDbLongTransaction
  3
AutoCAD 2000
 90
        0
280
     0
281
     0
  0
CLASS
  1
LWPOLYLINE
  2
AcDbPolyline
  3
AutoCAD 2000
 90
        0
280
     0
281
     1
  0
CLASS
  1
HATCH
  2
AcDbHatch
  3
AutoCAD 2000
 90
        0
280
     0
281
     1
  0
CLASS
  1
XRECORD
  2
AcDbXrecord
  3
AutoCAD 2000
 90
        0
280
     0
281
     0
  0
CLASS
  1
LONG_TRANSACTION
  2
AcDbLongTransaction
  3
AutoCAD 2000
 90
        0
280
     0
281
     0
  0
CLASS
  1
LWPOLYLINE
  2
AcDbPolyline
  3
AutoCAD 2000
 90
        0
280
     0
281
     1
  0
CLASS
  1
HATCH
  2
AcDbHatch
  3
AutoCAD 2000
 90
        0
280
     0
281
     1
  0
CLASS
  1
XRECORD
  2
AcDbXrecord
  3
AutoCAD 2000
 90
        0
280
     0
281
     0
  0
ENDSEC
  0
SECTION
  2
TABLES
  0
TABLE
  2
VPORT
  5
1BC42D08739A1
330
0
100
AcDbSymbolTable
 70
    11
  0
VPORT
  5
1BC42D08739D4
330
1BC42D08739A1
100
AcDbSymbolTableRecord
100
AcDbViewportTableRecord
  2
2
 70
     0
 10
0.5
 20
0.0
 11
1.0
 21
1.0
 12
0.924031
 22
1.052651
 13
0.0
 23
0.0
 14
1.0
 24
1.0
 15
10.0
 25
10.0
 16
0.0
 26
0.0
 36
1.0
 17
0.0
 27
0.0
 37
0.0
 40
2.105302
 41
0.877814
 42
50.0
 43
0.0
 44
0.0
 50
0.0
 51
0.0
 71
     0
 72
   500
 73
     1
 74
     1
 75
     0
 76
     0
 77
     0
 78
     0
  0
VPORT
  5
1BC42D08739D5
330
1BC42D08739A1
100
AcDbSymbolTableRecord
100
AcDbViewportTableRecord
  2
2
 70
     0
 10
0.0
 20
0.0
 11
0.5
 21
1.0
 12
0.924031
 22
1.052651
 13
0.0
 23
0.0
 14
1.0
 24
1.0
 15
10.0
 25
10.0
 16
0.0
 26
0.0
 36
1.0
 17
0.0
 27
0.0
 37
0.0
 40
2.105302
 41
0.877814
 42
50.0
 43
0.0
 44
0.0
 50
0.0
 51
0.0
 71
     0
 72
   500
 73
     1
 74
     1
 75
     0
 76
     0
 77
     0
 78
     0
  0
VPORT
  5
1BC42D08739D6
330
1BC42D08739A1
100
AcDbSymbolTableRecord
100
AcDbViewportTableRecord
  2
3
 70
     0
 10
0.0
 20
0.5
 11
1.0
 21
1.0
 12
2.832169999999998
 22
1.052651
 13
0.0
 23
0.0
 14
1.0
 24
1.0
 15
10.0
 25
10.0
 16
0.0
 26
0.0
 36
1.0
 17
0.0
 27
0.0
 37
0.0
 40
2.105302
 41
3.571429
 42
50.0
 43
0.0
 44
0.0
 50
0.0
 51
0.0
 71
     0
 72
   500
 73
     1
 74
     1
 75
     0
 76
     0
 77
     0
 78
     0
  0
VPORT
  5
1BC42D08739D7
330
1BC42D08739A1
100
AcDbSymbolTableRecord
100
AcDbViewportTableRecord
  2
3
 70
     0
 10
0.0
 20
0.0
 11
1.0
 21
0.5
 12
2.856741999999998
 22
1.052651
 13
0.0
 23
0.0
 14
1.0
 24
1.0
 15
10.0
 25
10.0
 16
0.0
 26
0.0
 36
1.0
 17
0.0
 27
0.0
 37
0.0
 40
2.105302
 41
3.594770999999998
 42
50.0
 43
0.0
 44
0.0
 50
0.0
 51
0.0
 71
     0
 72
   500
 73
     1
 74
     1
 75
     0
 76
     0
 77
     0
 78
     0
  0
VPORT
  5
1BC42D08739D8
330
1BC42D08739A1
100
AcDbSymbolTableRecord
100
AcDbViewportTableRecord
  2
4
 70
     0
 10
0.5
 20
0.0
 11
1.0
 21
0.5
 12
2.886858
 22
1.052651
 13
0.0
 23
0.0
 14
1.0
 24
1.0
 15
10.0
 25
10.0
 16
0.0
 26
0.0
 36
1.0
 17
0.0
 27
0.0
 37
0.0
 40
4.275206999999999
 41
1.784314
 42
50.0
 43
0.0
 44
0.0
 50
0.0
 51
0.0
 71
     0
 72
   500
 73
     1
 74
     1
 75
     0
 76
     0
 77
     0
 78
     0
  0
VPORT
  5
1BC42D08739D9
330
1BC42D08739A1
100
AcDbSymbolTableRecord
100
AcDbViewportTableRecord
  2
4
 70
     0
 10
0.5
 20
0.5
 11
1.0
 21
1.0
 12
2.86209
 22
1.052651
 13
0.0
 23
0.0
 14
1.0
 24
1.0
 15
10.0
 25
10.0
 16
0.0
 26
0.0
 36
1.0
 17
0.0
 27
0.0
 37
0.0
 40
4.275206999999999
 41
1.772726999999999
 42
50.0
 43
0.0
 44
0.0
 50
0.0
 51
0.0
 71
     0
 72
   500
 73
     1
 74
     1
 75
     0
 76
     0
 77
     0
 78
     0
  0
VPORT
  5
1BC42D08739DA
330
1BC42D08739A1
100
AcDbSymbolTableRecord
100
AcDbViewportTableRecord
  2
4
 70
     0
 10
0.0
 20
0.5
 11
0.5
 21
1.0
 12
2.86209
 22
1.052651
 13
0.0
 23
0.0
 14
1.0
 24
1.0
 15
10.0
 25
10.0
 16
0.0
 26
0.0
 36
1.0
 17
0.0
 27
0.0
 37
0.0
 40
4.275206999999999
 41
1.772726999999999
 42
50.0
 43
0.0
 44
0.0
 50
0.0
 51
0.0
 71
     0
 72
   500
 73
     1
 74
     1
 75
     0
 76
     0
 77
     0
 78
     0
  0
VPORT
  5
1BC42D08739DB
330
1BC42D08739A1
100
AcDbSymbolTableRecord
100
AcDbViewportTableRecord
  2
4
 70
     0
 10
0.0
 20
0.0
 11
0.5
 21
0.5
 12
2.886858
 22
1.052651
 13
0.0
 23
0.0
 14
1.0
 24
1.0
 15
10.0
 25
10.0
 16
0.0
 26
0.0
 36
1.0
 17
0.0
 27
0.0
 37
0.0
 40
4.275206999999999
 41
1.784314
 42
50.0
 43
0.0
 44
0.0
 50
0.0
 51
0.0
 71
     0
 72
   500
 73
     1
 74
     1
 75
     0
 76
     0
 77
     0
 78
     0
  0
VPORT
  5
1BC42D08745C0
330
1BC42D08739A1
100
AcDbSymbolTableRecord
100
AcDbViewportTableRecord
  2
*ACTIVE
 70
     0
 10
0.0
 20
0.0
 11
1.0
 21
1.0
 12
180.9999998428469
 22
136.5000007922701
 13
0.0
 23
0.0
 14
1.0
 24
1.0
 15
10.0
 25
10.0
 16
0.0
 26
0.0
 36
1.0
 17
0.0
 27
0.0
 37
0.0
 40
274.8010855443848
 41
1.731733914940021
 42
50.0
 43
0.0
 44
0.0
 50
0.0
 51
0.0
 71
     0
 72
   500
 73
     1
 74
     0
 75
     0
 76
     0
 77
     0
 78
     0
  0
ENDTAB
  0
TABLE
  2
LTYPE
  5
1BC42D087399E
330
0
100
AcDbSymbolTable
 70
     2
  0
LTYPE
  5
1BC42D08739AB
330
1BC42D087399E
100
AcDbSymbolTableRecord
100
AcDbLinetypeTableRecord
  2
BYBLOCK
 70
     0
  3

 72
    65
 73
     0
 40
0.0
  0
LTYPE
  5
1BC42D08739AC
330
1BC42D087399E
100
AcDbSymbolTableRecord
100
AcDbLinetypeTableRecord
  2
BYLAYER
 70
     0
  3

 72
    65
 73
     0
 40
0.0
  0
LTYPE
  5
1BC42D08739AD
330
1BC42D087399E
100
AcDbSymbolTableRecord
100
AcDbLinetypeTableRecord
  2
CONTINUOUS
 70
     0
  3
実線
 72
    65
 73
     0
 40
0.0
  0
LTYPE
  5
1BC42D0873D5F
330
1BC42D087399E
100
AcDbSymbolTableRecord
100
AcDbLinetypeTableRecord
  2
HIDDEN
 70
     0
  3
_ _ _ _ _ _ _ _ _ _ _ _ _ _ _ _ _ _ _ _ _ _ _
 72
    65
 73
     2
 40
0.375
 49
0.25
 74
     0
 49
-0.125
 74
     0
  0
ENDTAB
  0
TABLE
  2
LAYER
  5
1BC42D087399B
330
0
100
AcDbSymbolTable
 70
     8
  0
LAYER
  5
1BC42D08739A8
330
1BC42D087399B
100
AcDbSymbolTableRecord
100
AcDbLayerTableRecord
  2
0
 70
     0
 62
     6
  6
CONTINUOUS
  0
LAYER
  5
1BC42D08739E1
330
1BC42D087399B
100
AcDbSymbolTableRecord
100
AcDbLayerTableRecord
  2
SUNPOU
 70
     0
 62
     3
  6
CONTINUOUS
  0
LAYER
  5
1BC42D08739E2
330
1BC42D087399B
100
AcDbSymbolTableRecord
100
AcDbLayerTableRecord
  2
TEXT
 70
     0
 62
     3
  6
CONTINUOUS
  0
LAYER
  5
1BC42D08739E3
330
1BC42D087399B
100
AcDbSymbolTableRecord
100
AcDbLayerTableRecord
  2
SAISEN
 70
     0
 62
     4
  6
CONTINUOUS
  0
LAYER
  5
1BC42D08739E4
330
1BC42D087399B
100
AcDbSymbolTableRecord
100
AcDbLayerTableRecord
  2
JISSEN
 70
     0
 62
     7
  6
CONTINUOUS
  0
LAYER
  5
1BC42D08739E7
330
1BC42D087399B
100
AcDbSymbolTableRecord
100
AcDbLayerTableRecord
  2
WAKU
 70
     0
 62
     5
  6
CONTINUOUS
  0
LAYER
  5
1BC42D0873D60
330
1BC42D087399B
100
AcDbSymbolTableRecord
100
AcDbLayerTableRecord
  2
HATCH
 70
     0
 62
     4
  6
CONTINUOUS
  0
LAYER
  5
1BC42D0873D61
330
1BC42D087399B
100
AcDbSymbolTableRecord
100
AcDbLayerTableRecord
  2
TENSEN
 70
     0
 62
     2
  6
HIDDEN
  0
ENDTAB
  0
TABLE
  2
STYLE
  5
1BC42D087399C
330
0
100
AcDbSymbolTable
 70
     3
  0
STYLE
  5
1BC42D08739A9
330
1BC42D087399C
100
AcDbSymbolTableRecord
100
AcDbTextStyleTableRecord
  2
STANDARD
 70
     0
 40
0.0
 41
1.0
 50
0.0
 71
     0
 42
0.2
  3
SIMPLEX
  4

  0
STYLE
  5
1BC42D08739CD
330
1BC42D087399C
100
AcDbSymbolTableRecord
100
AcDbTextStyleTableRecord
  2
K
 70
     0
 40
0.0
 41
1.0
 50
0.0
 71
     0
 42
3.0
  3
ROMANS
  4
BIGFONT
  0
STYLE
  5
1BC42D08739CE
330
1BC42D087399C
100
AcDbSymbolTableRecord
100
AcDbTextStyleTableRecord
  2
ROMANS
 70
     0
 40
0.0
 41
0.8
 50
0.0
 71
     0
 42
5.0
  3
romans
  4

  0
ENDTAB
  0
TABLE
  2
VIEW
  5
1BC42D087399F
330
0
100
AcDbSymbolTable
 70
     0
  0
ENDTAB
  0
TABLE
  2
UCS
  5
1BC42D08739A0
330
0
100
AcDbSymbolTable
 70
     0
  0
ENDTAB
  0
TABLE
  2
APPID
  5
1BC42D08739A2
330
0
100
AcDbSymbolTable
 70
     1
  0
APPID
  5
1BC42D08739AA
330
1BC42D08739A2
100
AcDbSymbolTableRecord
100
AcDbRegAppTableRecord
  2
ACAD
 70
     0
  0
ENDTAB
  0
TABLE
  2
DIMSTYLE
  5
1BC42D08739A3
330
0
100
AcDbSymbolTable
 70
     1
  0
DIMSTYLE
105
1BC42D08739DE
330
1BC42D08739A3
100
AcDbSymbolTableRecord
100
AcDbDimStyleTableRecord
  2
IMAO
 70
     0
  3

  4

  5
ARROWANG
  6
ARROWANG
  7
ARROWANG
 40
1.0
 41
1.5
 42
1.0
 43
6.0
 44
1.0
 45
0.0
 46
0.0
 47
495.0
 48
0.0
140
3.0
141
0.0
142
0.0
143
25.4
144
1.0
145
0.0
146
1.0
147
0.09
 71
     0
 72
     0
 73
     0
 74
     0
 75
     0
 76
     0
 77
     1
 78
     8
170
     0
171
     2
172
     1
173
     0
174
     1
175
     0
176
     0
177
     0
178
     0
270
     2
271
     2
272
     2
273
     2
274
     2
340
1BC42D08739CE
275
     0
280
     0
281
     0
282
     0
283
     1
284
     8
285
     8
286
     8
287
     3
288
     0
  0
ENDTAB
  0
TABLE
  2
BLOCK_RECORD
  5
1BC42D087399A
330
0
100
AcDbSymbolTable
 70
     4
  0
BLOCK_RECORD
  5
1BC42D08739B1
102
{ACAD_XDICTIONARY
360
1BC42D0873D3E
102
}
330
1BC42D087399A
100
AcDbSymbolTableRecord
100
AcDbBlockTableRecord
  2
*MODEL_SPACE
  0
BLOCK_RECORD
  5
1BC42D08739AE
102
{ACAD_XDICTIONARY
360
1BC42D0873D3C
102
}
330
1BC42D087399A
100
AcDbSymbolTableRecord
100
AcDbBlockTableRecord
  2
*PAPER_SPACE
  0
BLOCK_RECORD
  5
1BC42D08739B5
330
1BC42D087399A
100
AcDbSymbolTableRecord
100
AcDbBlockTableRecord
  2
ARROW
  0
BLOCK_RECORD
  5
1BC42D08739BB
330
1BC42D087399A
100
AcDbSymbolTableRecord
100
AcDbBlockTableRecord
  2
STDGX5
  0
BLOCK_RECORD
  5
1BC42D08739BC
330
1BC42D087399A
100
AcDbSymbolTableRecord
100
AcDbBlockTableRecord
  2
STDR12J
  0
BLOCK_RECORD
  5
1BC42D08739BD
330
1BC42D087399A
100
AcDbSymbolTableRecord
100
AcDbBlockTableRecord
  2
ARROWANG
  0
ENDTAB
  0
ENDSEC
  0
SECTION
  2
BLOCKS
  0
BLOCK
  5
1BC42D08739EA
330
1BC42D08739B1
100
AcDbEntity
  8
0
100
AcDbBlockBegin
  2
*MODEL_SPACE
 70
     0
 10
0.0
 20
0.0
 30
0.0
  3
*MODEL_SPACE
  1

  0
ENDBLK
  5
1BC42D08739EB
330
1BC42D08739B1
100
AcDbEntity
  8
0
100
AcDbBlockEnd
  0
BLOCK
  5
1BC42D08739E8
330
1BC42D08739AE
100
AcDbEntity
 67
     1
  8
0
100
AcDbBlockBegin
  2
*PAPER_SPACE
 70
     0
 10
0.0
 20
0.0
 30
0.0
  3
*PAPER_SPACE
  1

  0
ENDBLK
  5
1BC42D08739E9
330
1BC42D08739AE
100
AcDbEntity
 67
     1
  8
0
100
AcDbBlockEnd
  0
BLOCK
  5
1C1
330
1BC42D08739B5
100
AcDbEntity
  8
0
100
AcDbBlockBegin
  2
ARROW
 70
     0
 10
1.0
 20
0.5
 30
0.0
  3
ARROW
  1

  0
LINE
  5
1C2
330
1BC42D08739B5
100
AcDbEntity
  8
0
100
AcDbLine
 10
1.0
 20
0.5
 30
0.0
 11
-0.5
 21
0.098076
 31
0.0
  0
LINE
  5
1C3
330
1BC42D08739B5
100
AcDbEntity
  8
0
100
AcDbLine
 10
0.0
 20
0.5
 30
0.0
 11
1.0
 21
0.5
 31
0.0
  0
LINE
  5
1C4
330
1BC42D08739B5
100
AcDbEntity
  8
0
100
AcDbLine
 10
1.0
 20
0.5
 30
0.0
 11
-0.5
 21
0.9019239999999999
 31
0.0
  0
ENDBLK
  5
1C5
330
1BC42D08739B5
100
AcDbEntity
  8
0
100
AcDbBlockEnd
  0
BLOCK
  5
1EA
330
1BC42D08739BB
100
AcDbEntity
  8
0
100
AcDbBlockBegin
  2
STDGX5
 70
     0
 10
0.0
 20
0.0
 30
0.0
  3
STDGX5
  1

  0
ENDBLK
  5
1EB
330
1BC42D08739BB
100
AcDbEntity
  8
0
100
AcDbBlockEnd
  0
BLOCK
  5
2D2
330
1BC42D08739BC
100
AcDbEntity
  8
0
100
AcDbBlockBegin
  2
STDR12J
 70
     0
 10
0.0
 20
0.0
 30
0.0
  3
STDR12J
  1

  0
ENDBLK
  5
2F7
330
1BC42D08739BC
100
AcDbEntity
  8
0
100
AcDbBlockEnd
  0
BLOCK
  5
2F0
330
1BC42D08739BD
100
AcDbEntity
  8
0
100
AcDbBlockBegin
  2
ARROWANG
 70
     0
 10
0.0
 20
0.0
 30
0.0
  3
ARROWANG
  1

  0
LINE
  5
2F1
330
1BC42D08739BD
100
AcDbEntity
  8
SUNPOU
100
AcDbLine
 10
0.0
 20
0.0
 30
0.0
 11
-1.5
 21
0.401924
 31
0.0
  0
LINE
  5
2F2
330
1BC42D08739BD
100
AcDbEntity
  8
SUNPOU
100
AcDbLine
 10
0.0
 20
0.0
 30
0.0
 11
-1.5
 21
-0.401924
 31
0.0
  0
ENDBLK
  5
2F3
330
1BC42D08739BD
100
AcDbEntity
  8
0
100
AcDbBlockEnd
  0
ENDSEC
  0
SECTION
  2
ENTITIES
  0
INSERT
  5
6D
330
1BC42D08739B1
100
AcDbEntity
  8
SUNPOU
100
AcDbBlockReference
  2
STDGX5
 10
0.0
 20
0.0
 30
0.0
  0
INSERT
  5
2F8
330
1BC42D08739B1
100
AcDbEntity
  8
JISSEN
100
AcDbBlockReference
  2
STDR12J
 10
0.0
 20
0.0
 30
0.0
  0
LWPOLYLINE
  5
1BC42D0873CA7
330
1BC42D08739B1
100
AcDbEntity
  8
WAKU
100
AcDbPolyline
 90
        4
 70
     1
 43
0.0
 10
0.0
 20
0.0
 10
180.999999
 20
0.0
 10
180.999999
 20
273.0
 10
0.0
 20
273.0
  0
LINE
  5
1BC42D0873F71
330
1BC42D08739B1
100
AcDbEntity
  8
JISSEN
100
AcDbLine
 10
91.49999874157764
 20
261.0000003132848
 30
0.0
 11
180.9999987415775
 21
261.0000003132848
 31
0.0
  0
LINE
  5
1BC42D0873F72
330
1BC42D08739B1
100
AcDbEntity
  8
JISSEN
100
AcDbLine
 10
91.49999874157764
 20
267.0000003132849
 30
0.0
 11
180.9999987415775
 21
267.0000003132849
 31
0.0
  0
CIRCLE
  5
1BC42D0873F74
330
1BC42D08739B1
100
AcDbEntity
  8
SUNPOU
100
AcDbCircle
 10
327.5194969312266
 20
137.3731030160286
 30
0.0
 40
6.0
  0
CIRCLE
  5
1BC42D0873F75
330
1BC42D08739B1
100
AcDbEntity
  8
SUNPOU
100
AcDbCircle
 10
297.5194969312266
 20
137.3731030160286
 30
0.0
 40
6.0
  0
CIRCLE
  5
1BC42D0874018
330
1BC42D08739B1
100
AcDbEntity
  8
JISSEN
100
AcDbCircle
 10
303.5634350568565
 20
67.88285340835222
 30
0.0
 40
37.5
  0
TEXT
  5
1BC42D087401D
330
1BC42D08739B1
100
AcDbEntity
  8
SUNPOU
100
AcDbText
 10
297.1285877596711
 20
7.849424012312852
 30
0.0
 40
3.0
  1
シーリングプレート HFQR 取付状態
  7
K
100
AcDbText
  0
TEXT
  5
1BC42D087401E
330
1BC42D08739B1
100
AcDbEntity
  8
SUNPOU
100
AcDbText
 10
297.1285877596711
 20
2.849424012312852
 30
0.0
 40
3.0
  1
尺度　1/1
  7
K
100
AcDbText
  0
CIRCLE
  5
1BC42D0874024
330
1BC42D08739B1
100
AcDbEntity
  8
JISSEN
100
AcDbCircle
 10
303.5919005204342
 20
67.88285340835222
 30
0.0
 40
7.200000000000129
  0
CIRCLE
  5
1BC42D0874025
330
1BC42D08739B1
100
AcDbEntity
  8
JISSEN
100
AcDbCircle
 10
303.5919005204342
 20
67.88285340835222
 30
0.0
 40
7.79999999999987
  0
CIRCLE
  5
1BC42D0874026
330
1BC42D08739B1
100
AcDbEntity
  8
JISSEN
100
AcDbCircle
 10
303.5919005204342
 20
67.88285340835222
 30
0.0
 40
9.25
  0
CIRCLE
  5
1BC42D0874027
330
1BC42D08739B1
100
AcDbEntity
  8
JISSEN
100
AcDbCircle
 10
303.5919005204342
 20
67.88285340835222
 30
0.0
 40
14.0
  0
CIRCLE
  5
1BC42D0874028
330
1BC42D08739B1
100
AcDbEntity
  8
JISSEN
100
AcDbCircle
 10
303.5919005204342
 20
67.88285340835222
 30
0.0
 40
11.06801488286691
  0
LINE
  5
1BC42D0874029
330
1BC42D08739B1
100
AcDbEntity
  8
JISSEN
100
AcDbLine
 10
318.0915604999908
 20
84.70548578368866
 30
0.0
 11
289.0915604999907
 21
84.70548578368861
 31
0.0
  0
LINE
  5
1BC42D087402A
330
1BC42D08739B1
100
AcDbEntity
  8
JISSEN
100
AcDbLine
 10
318.0915604999908
 20
83.53024377635637
 30
0.0
 11
289.0915604999907
 21
83.53024377635637
 31
0.0
  0
LINE
  5
1BC42D087402B
330
1BC42D08739B1
100
AcDbEntity
  8
JISSEN
100
AcDbLine
 10
318.0915604999908
 20
82.68809469232932
 30
0.0
 11
289.0915604999907
 21
82.68809469232932
 31
0.0
  0
LINE
  5
1BC42D087402D
330
1BC42D08739B1
100
AcDbEntity
  8
JISSEN
100
AcDbLine
 10
289.0915604999907
 20
75.15551257332461
 30
0.0
 11
289.0915604999907
 21
84.70548578368861
 31
0.0
  0
LINE
  5
1BC42D0874034
330
1BC42D08739B1
100
AcDbEntity
  8
JISSEN
100
AcDbLine
 10
291.7397746953998
 20
75.15551257332461
 30
0.0
 11
289.0915604999907
 21
75.15551257332461
 31
0.0
  0
ARC
  5
1BC42D0874035
330
1BC42D08739B1
100
AcDbEntity
  8
JISSEN
100
AcDbCircle
 10
303.5919005204342
 20
67.88285340835227
 30
0.0
 40
15.14999999999998
100
AcDbArc
 50
171.45913016713
 51
188.5408698328697
  0
LINE
  5
1BC42D0874036
330
1BC42D08739B1
100
AcDbEntity
  8
JISSEN
100
AcDbLine
 10
286.8057765414557
 20
66.4170629177421
 30
0.0
 11
288.5129762140508
 21
66.4170629177421
 31
0.0
  0
LINE
  5
1BC42D0874037
330
1BC42D08739B1
100
AcDbEntity
  8
JISSEN
100
AcDbLine
 10
286.8118915460236
 20
69.4170629177421
 30
0.0
 11
288.4410608655696
 21
69.4170629177421
 31
0.0
  0
LINE
  5
1BC42D0874038
330
1BC42D08739B1
100
AcDbEntity
  8
JISSEN
100
AcDbLine
 10
286.8927987481831
 20
65.63285340835221
 30
0.0
 11
289.7738869149987
 21
65.63285340835221
 31
0.0
  0
ARC
  5
1BC42D0874039
330
1BC42D08739B1
100
AcDbEntity
  8
JISSEN
100
AcDbCircle
 10
303.5634350568565
 20
67.88285340835222
 30
0.0
 40
15.2
100
AcDbArc
 50
174.206994971063
 51
185.5338370535995
  0
LINE
  5
1BC42D087403A
330
1BC42D08739B1
100
AcDbEntity
  8
JISSEN
100
AcDbLine
 10
286.8927987481831
 20
70.13285340835222
 30
0.0
 11
289.7738869149987
 21
70.13285340835222
 31
0.0
  0
ARC
  5
1BC42D087403C
330
1BC42D08739B1
100
AcDbEntity
  8
JISSEN
100
AcDbCircle
 10
293.4420264559711
 20
78.03111835878024
 30
0.0
 40
1.3
100
AcDbArc
 50
25.73629933861201
 51
244.2637006613761
  0
ARC
  5
1BC42D087403D
330
1BC42D08739B1
100
AcDbEntity
  8
JISSEN
100
AcDbCircle
 10
293.4420264559711
 20
78.03111835878024
 30
0.0
 40
2.000340020443331
100
AcDbArc
 50
30.25011920584529
 51
239.7498807941539
  0
ARC
  5
1BC42D087403E
330
1BC42D08739B1
100
AcDbEntity
  8
JISSEN
100
AcDbCircle
 10
293.4420264559711
 20
78.03111835878024
 30
0.0
 40
1.0
100
AcDbArc
 50
21.11568410771182
 51
248.8843158922871
  0
LINE
  5
1BC42D0874046
330
1BC42D08739B1
100
AcDbEntity
  8
JISSEN
100
AcDbLine
 10
318.0915604999908
 20
75.15551257332461
 30
0.0
 11
318.0915604999908
 21
84.70548578368868
 31
0.0
  0
TEXT
  5
1BC42D0874047
330
1BC42D08739B1
100
AcDbEntity
  8
SUNPOU
100
AcDbText
 10
306.4047384699826
 20
62.26228072026714
 30
0.0
 40
1.49810485709211
  1
U
 50
34.06333076616034
  7
K
 72
     4
 11
306.6352657770668
 21
63.32233952903781
 31
0.0
100
AcDbText
  0
CIRCLE
  5
1BC42D0874048
330
1BC42D08739B1
100
AcDbEntity
  8
TENSEN
100
AcDbCircle
 10
303.5634350568565
 20
67.88285340835222
 30
0.0
 40
3.940825366356023
  0
TEXT
  5
1BC42D0874049
330
1BC42D08739B1
100
AcDbEntity
  8
SUNPOU
100
AcDbText
 10
304.8486097233218
 20
61.74768771651347
 30
0.0
 40
1.49810485709211
  1
J
 50
16.48862427305016
  7
K
 72
     4
 11
305.1148422562723
 21
62.60766938135861
 31
0.0
100
AcDbText
  0
TEXT
  5
1BC42D087404A
330
1BC42D08739B1
100
AcDbEntity
  8
SUNPOU
100
AcDbText
 10
301.1400163358667
 20
62.07462740542676
 30
0.0
 40
1.49810485709211
  1
E
 50
344.2759483656816
  7
K
 72
     4
 11
302.0640343856711
 21
62.59265223596788
 31
0.0
100
AcDbText
  0
TEXT
  5
1BC42D087404B
330
1BC42D08739B1
100
AcDbEntity
  8
SUNPOU
100
AcDbText
 10
299.6213952661988
 20
62.98224940104819
 30
0.0
 40
1.49810485709211
  1
S
 50
327.7880173682737
  7
K
 72
     4
 11
300.6242606143711
 21
63.23573769926034
 31
0.0
100
AcDbText
  0
TEXT
  5
1BC42D087404C
330
1BC42D08739B1
100
AcDbEntity
  8
SUNPOU
100
AcDbText
 10
302.7690918033357
 20
61.63522496044675
 30
0.0
 40
1.49810485709211
  1
N
  7
K
 72
     4
 11
303.5538133951458
 21
62.38427738899281
 31
0.0
100
AcDbText
  0
TEXT
  5
1BC42D087404D
330
1BC42D08739B1
100
AcDbEntity
  8
SUNPOU
100
AcDbText
 10
307.5161587614303
 20
72.79008003559356
 30
0.0
 40
1.49810485709211
  1
H
 50
148.3741349587321
  7
K
 72
     4
 11
306.4551950519462
 21
72.56375388924354
 31
0.0
100
AcDbText
  0
CIRCLE
  5
1BC42D087404E
330
1BC42D08739B1
100
AcDbEntity
  8
JISSEN
100
AcDbCircle
 10
303.5919005204342
 20
67.88285340835222
 30
0.0
 40
1.950000000000003
  0
CIRCLE
  5
1BC42D087404F
330
1BC42D08739B1
100
AcDbEntity
  8
JISSEN
100
AcDbCircle
 10
303.5919005204342
 20
67.88285340835222
 30
0.0
 40
2.849999999999993
  0
POINT
  5
1BC42D0874050
330
1BC42D08739B1
100
AcDbEntity
  8
JISSEN
100
AcDbPoint
 10
304.5919005204341
 20
67.88285340835222
 30
0.0
  0
CIRCLE
  5
1BC42D0874051
330
1BC42D08739B1
100
AcDbEntity
  8
SAISEN
100
AcDbCircle
 10
303.5919005204342
 20
67.88285340835222
 30
0.0
 40
1.034999999999982
  0
CIRCLE
  5
1BC42D0874052
330
1BC42D08739B1
100
AcDbEntity
  8
JISSEN
100
AcDbCircle
 10
303.5919005204342
 20
67.88285340835222
 30
0.0
 40
1.25
  0
CIRCLE
  5
1BC42D0874053
330
1BC42D08739B1
100
AcDbEntity
  8
JISSEN
100
AcDbCircle
 10
303.5919005204342
 20
67.88285340835222
 30
0.0
 40
1.449999999999989
  0
TEXT
  5
1BC42D0874054
330
1BC42D08739B1
100
AcDbEntity
  8
SUNPOU
100
AcDbText
 10
302.5941250550274
 20
74.10965549810909
 30
0.0
 40
1.49810485709211
  1
R
 50
196.1019938246619
  7
K
 72
     4
 11
302.0479367391857
 21
73.17234773595095
 31
0.0
100
AcDbText
  0
TEXT
  5
1BC42D0874055
330
1BC42D08739B1
100
AcDbEntity
  8
SUNPOU
100
AcDbText
 10
305.9562027412025
 20
73.70784896724472
 30
0.0
 40
1.49810485709211
  1
F
 50
164.5807043298169
  7
K
 72
     4
 11
305.0349531208772
 21
73.18491664038785
 31
0.0
100
AcDbText
  0
TEXT
  5
1BC42D0874056
330
1BC42D08739B1
100
AcDbEntity
  8
SUNPOU
100
AcDbText
 10
304.2865274840277
 20
74.09373435907797
 30
0.0
 40
1.49810485709211
  1
Q
 50
180.5223479554868
  7
K
 72
     4
 11
303.5080169276113
 21
73.40889445495796
 31
0.0
100
AcDbText
  0
LINE
  5
1BC42D0874058
330
1BC42D08739B1
100
AcDbEntity
  8
JISSEN
100
AcDbLine
 10
320.2910022926853
 20
70.13285340835222
 30
0.0
 11
317.4099141258696
 21
70.13285340835222
 31
0.0
  0
LINE
  5
1BC42D0874059
330
1BC42D08739B1
100
AcDbEntity
  8
JISSEN
100
AcDbLine
 10
320.2910022926853
 20
65.63285340835221
 30
0.0
 11
317.4099141258696
 21
65.63285340835221
 31
0.0
  0
LINE
  5
1BC42D087405A
330
1BC42D08739B1
100
AcDbEntity
  8
JISSEN
100
AcDbLine
 10
318.6925942614401
 20
66.4170629177421
 30
0.0
 11
320.3780244994126
 21
66.4170629177421
 31
0.0
  0
LINE
  5
1BC42D087405B
330
1BC42D08739B1
100
AcDbEntity
  8
JISSEN
100
AcDbLine
 10
320.3719094948447
 20
69.4170629177421
 30
0.0
 11
318.6858092481433
 21
69.4170629177421
 31
0.0
  0
ARC
  5
1BC42D087405C
330
1BC42D08739B1
100
AcDbEntity
  8
JISSEN
100
AcDbCircle
 10
303.5919005204342
 20
67.88285340835227
 30
0.0
 40
15.14999999999998
100
AcDbArc
 50
351.4591301671299
 51
8.540869832869901
  0
ARC
  5
1BC42D087405D
330
1BC42D08739B1
100
AcDbEntity
  8
JISSEN
100
AcDbCircle
 10
303.5634350568565
 20
67.88285340835222
 30
0.0
 40
15.2
100
AcDbArc
 50
354.4661629464004
 51
5.793005028936861
  0
LINE
  5
1BC42D087405E
330
1BC42D08739B1
100
AcDbEntity
  8
JISSEN
100
AcDbLine
 10
315.4440263454684
 20
75.15551257332461
 30
0.0
 11
318.0915604999908
 21
75.15551257332461
 31
0.0
  0
ARC
  5
1BC42D0874060
330
1BC42D08739B1
100
AcDbEntity
  8
JISSEN
100
AcDbCircle
 10
313.7713464150844
 20
78.03111835878024
 30
0.0
 40
2.000340020443331
100
AcDbArc
 50
300.2501192058459
 51
149.7498807941545
  0
ARC
  5
1BC42D0874062
330
1BC42D08739B1
100
AcDbEntity
  8
JISSEN
100
AcDbCircle
 10
313.7713464150844
 20
78.03111835878024
 30
0.0
 40
1.3
100
AcDbArc
 50
295.7362993386237
 51
154.2637006613821
  0
ARC
  5
1BC42D0874063
330
1BC42D08739B1
100
AcDbEntity
  8
JISSEN
100
AcDbCircle
 10
313.7713464150844
 20
78.03111835878024
 30
0.0
 40
1.0
100
AcDbArc
 50
291.1156841077127
 51
158.8843158922881
  0
LINE
  5
1BC42D0874067
330
1BC42D08739B1
100
AcDbEntity
  8
TENSEN
100
AcDbLine
 10
252.6281877536181
 20
196.9553296952308
 30
0.0
 11
243.7990481922005
 21
196.9553296952308
 31
0.0
  0
LINE
  5
1BC42D0874068
330
1BC42D08739B1
100
AcDbEntity
  8
TENSEN
100
AcDbLine
 10
243.7990481922005
 20
173.955329695253
 30
0.0
 11
252.6281877536073
 21
173.9553296952417
 31
0.0
  0
ARC
  5
1BC42D0874069
330
1BC42D08739B1
100
AcDbEntity
  8
TENSEN
100
AcDbCircle
 10
234.6747905773455
 20
176.7053296952505
 30
0.0
 40
15.68880208330581
100
AcDbArc
 50
146.1015515323269
 51
213.8984484676739
  0
ARC
  5
1BC42D087406A
330
1BC42D08739B1
100
AcDbEntity
  8
TENSEN
100
AcDbCircle
 10
233.1760469976483
 20
172.9553296952589
 30
0.0
 40
5.000000000000004
100
AcDbArc
 50
270.0
 51
311.1261073924086
  0
LINE
  5
1BC42D087406B
330
1BC42D08739B1
100
AcDbEntity
  8
TENSEN
100
AcDbLine
 10
221.6526551607065
 20
167.9553296952589
 30
0.0
 11
229.988658853045
 21
167.9553296952589
 31
0.0
  0
LINE
  5
1BC42D087406C
330
1BC42D08739B1
100
AcDbEntity
  8
TENSEN
100
AcDbLine
 10
229.988658853045
 20
167.9553296952589
 30
0.0
 11
233.176046997648
 21
167.9553296952589
 31
0.0
  0
ARC
  5
1BC42D087406D
330
1BC42D08739B1
100
AcDbEntity
  8
TENSEN
100
AcDbCircle
 10
243.7990481922005
 20
168.955329695253
 30
0.0
 40
4.999999999999952
100
AcDbArc
 50
90.0
 51
131.1261073924086
  0
LINE
  5
1BC42D087406E
330
1BC42D08739B1
100
AcDbEntity
  8
TENSEN
100
AcDbLine
 10
236.4646397286521
 20
169.189010822727
 30
0.0
 11
240.5104554611965
 21
172.7216485677845
 31
0.0
  0
ARC
  5
1BC42D087406F
330
1BC42D08739B1
100
AcDbEntity
  8
TENSEN
100
AcDbCircle
 10
234.6747905773455
 20
194.2053296952338
 30
0.0
 40
15.68880208330581
100
AcDbArc
 50
146.1015515323269
 51
213.8984484676739
  0
ARC
  5
1BC42D0874070
330
1BC42D08739B1
100
AcDbEntity
  8
TENSEN
100
AcDbCircle
 10
243.7990481922005
 20
201.9553296952308
 30
0.0
 40
5.000000000000004
100
AcDbArc
 50
228.8738926075871
 51
270.0
  0
ARC
  5
1BC42D0874071
330
1BC42D08739B1
100
AcDbEntity
  8
TENSEN
100
AcDbCircle
 10
208.630519744067
 20
194.2053296952338
 30
0.0
 40
15.68880208330581
100
AcDbArc
 50
326.101551532326
 51
33.89844846767304
  0
ARC
  5
1BC42D0874072
330
1BC42D08739B1
100
AcDbEntity
  8
TENSEN
100
AcDbCircle
 10
233.176046997648
 20
197.9553296952251
 30
0.0
 40
4.99999999999996
100
AcDbArc
 50
48.87389260758713
 51
90.0
  0
LINE
  5
1BC42D0874073
330
1BC42D08739B1
100
AcDbEntity
  8
TENSEN
100
AcDbLine
 10
229.988658853045
 20
202.9553296952251
 30
0.0
 11
221.6526551607064
 21
202.9553296952252
 31
0.0
  0
LINE
  5
1BC42D0874074
330
1BC42D08739B1
100
AcDbEntity
  8
TENSEN
100
AcDbLine
 10
233.176046997648
 20
202.9553296952251
 30
0.0
 11
229.988658853045
 21
202.9553296952251
 31
0.0
  0
LINE
  5
1BC42D0874075
330
1BC42D08739B1
100
AcDbEntity
  8
TENSEN
100
AcDbLine
 10
240.5104554611964
 20
198.1890108226993
 30
0.0
 11
236.4646397286521
 21
201.7216485677566
 31
0.0
  0
HATCH
  5
1BC42D0874076
330
1BC42D08739B1
100
AcDbEntity
  8
HATCH
100
AcDbHatch
 10
0.0
 20
0.0
 30
0.0
210
0.0
220
0.0
230
1.0
  2
ANSI31
 70
     0
 71
     0
 91
        2
 92
        7
 72
     0
 73
     1
 93
       34
 10
273.4474976474024
 20
222.92477695375
 10
273.4474976474024
 20
231.0978109998615
 10
272.9439216500159
 20
233.2131206498448
 10
272.5484900339137
 20
234.2108546135512
 10
272.240703523756
 20
234.3180031299358
 10
272.0000628442026
 20
233.761556437955
 10
271.8060687199139
 20
232.7685047765644
 10
271.6382218755494
 20
231.5658383847182
 10
271.4760230357699
 20
230.3805475013779
 10
271.2989729252345
 20
229.4396223654937
 10
271.0912740263413
 20
228.9176649275971
 10
270.8559358524373
 20
228.7797239845141
 10
270.6006696746066
 20
228.9384600446448
 10
270.3331867639344
 20
229.3065336163886
 10
270.0611983915046
 20
229.7966052081456
 10
269.7924158284025
 20
230.321335328314
 10
269.5345503457122
 20
230.7933844852968
 10
269.2953132145179
 20
231.1254131874913
 10
269.0794265053157
 20
231.2577004581269
 10
268.8796554862455
 20
231.240999379748
 10
268.5077342168245
 20
231.0734963783871
 10
268.1472947240968
 20
231.0846152254137
 10
267.7646981071487
 20
231.6656746607058
 10
267.4469186474361
 20
232.4008470330817
 10
267.0754410443358
 20
233.480644560009
 10
266.6488098335224
 20
234.7085004485494
 10
266.167323244294
 20
235.8328602277611
 10
265.6312795059506
 20
236.6021694266668
 10
265.0409768477906
 20
236.7648735742981
 10
264.3967134991133
 20
236.0694181996866
 10
263.6987876892177
 20
234.2642488318636
 10
262.9474976474026
 20
231.0978109998609
 10
262.9474976474026
 20
214.4311443331941
 10
273.4474976474024
 20
214.4311443331941
 97
        0
 92
        7
 72
     0
 73
     1
 93
       31
 10
273.4474976474024
 20
155.3554921101048
 10
262.9474976474026
 20
155.3554921101048
 10
262.9474976474026
 20
135.3554921101047
 10
263.6828791084592
 20
134.4756216004354
 10
264.3096407485653
 20
134.129356563303
 10
264.8399332581865
 20
134.2060065164689
 10
265.285907327789
 20
134.5948809776944
 10
265.6597136478386
 20
135.1852894647411
 10
265.9735029088008
 20
135.8665414953701
 10
266.2394258011417
 20
136.5279465873425
 10
266.4696330153272
 20
137.05881425842
 10
266.763972143265
 20
137.5115817470486
 10
267.0915835662914
 20
137.4539534571294
 10
267.3339937213564
 20
137.1383456381072
 10
267.4767873131344
 20
136.9328913021074
 10
267.6181703246633
 20
136.7602034797732
 10
267.7618351571835
 20
136.6659479072368
 10
267.9119305761328
 20
136.6791582042018
 10
268.0744308037431
 20
136.7623395246511
 10
268.3856640420264
 20
136.9323005598507
 10
268.8420296455931
 20
136.8716542503177
 10
269.298074596731
 20
136.333367793537
 10
269.6700459913219
 20
135.6997090435149
 10
270.0959097963512
 20
134.7958922051208
 10
270.5644640821089
 20
133.7615884422518
 10
271.0609804156563
 20
132.775228544076
 10
271.5707303640551
 20
132.0152432997595
 10
272.0789854943678
 20
131.6600634984701
 10
272.5710173736552
 20
131.8881199293749
 10
273.0320975689795
 20
132.877843381641
 10
273.4474976474024
 20
134.8076646444354
 97
        0
 75
     0
 76
     1
 52
90.0
 41
20.0
 77
     0
 78
     1
 53
135.0
 43
207.947497773953
 44
0.0000001136276069
 45
-1.767766952966368
 46
-1.767766952966368
 79
     0
 47
0.4241607345094815
 98
        2
 10
266.7573229276579
 20
222.0260540310905
 10
271.8513930199605
 20
146.5254431516518
  0
LINE
  5
1BC42D0874077
330
1BC42D08739B1
100
AcDbEntity
  8
JISSEN
100
AcDbLine
 10
262.9474976474026
 20
231.0978109998609
 30
0.0
 11
262.9474976474026
 21
206.1747769537499
 31
0.0
  0
LINE
  5
1BC42D0874078
330
1BC42D08739B1
100
AcDbEntity
  8
SUNPOU
 62
     0
100
AcDbLine
 10
273.4474976474024
 20
222.92477695375
 30
0.0
 11
273.4474976474024
 21
147.92477695375
 31
0.0
  0
LINE
  5
1BC42D0874079
330
1BC42D08739B1
100
AcDbEntity
  8
SUNPOU
 62
     0
100
AcDbLine
 10
278.4474976474024
 20
207.92477695375
 30
0.0
 11
275.2528760026951
 21
221.7622035352658
 31
0.0
  0
LINE
  5
1BC42D087407A
330
1BC42D08739B1
100
AcDbEntity
  8
SUNPOU
 62
     0
100
AcDbLine
 10
273.4474976474024
 20
214.4311443331941
 30
0.0
 11
273.4474976474024
 21
231.0978109998615
 31
0.0
  0
LINE
  5
1BC42D087407B
330
1BC42D08739B1
100
AcDbEntity
  8
SUNPOU
100
AcDbLine
 10
301.4105663803866
 20
179.9213590885974
 30
0.0
 11
324.3814193960896
 21
142.4870515280366
 31
0.0
  0
LINE
  5
1BC42D0874082
330
1BC42D08739B1
100
AcDbEntity
  8
SUNPOU
 62
     0
100
AcDbLine
 10
258.4474976474024
 20
164.671246816359
 30
0.0
 11
258.4474976474024
 21
206.1747769537499
 31
0.0
  0
LINE
  5
1BC42D0874083
330
1BC42D08739B1
100
AcDbEntity
  8
SUNPOU
 62
     0
100
AcDbLine
 10
285.2105663803931
 20
171.4547114687543
 30
0.0
 11
285.2105663803913
 21
177.3101902983411
 31
0.0
  0
LINE
  5
1BC42D0874084
330
1BC42D08739B1
100
AcDbEntity
  8
SUNPOU
 62
     0
100
AcDbLine
 10
278.4474976474024
 20
207.92477695375
 30
0.0
 11
278.4474976474024
 21
162.9247769537498
 31
0.0
  0
LINE
  5
1BC42D0874085
330
1BC42D08739B1
100
AcDbEntity
  8
SUNPOU
 62
     0
100
AcDbLine
 10
292.6105663803866
 20
183.3965101874446
 30
0.0
 11
292.6105663803866
 21
174.3660432070486
 31
0.0
  0
LINE
  5
1BC42D0874086
330
1BC42D08739B1
100
AcDbEntity
  8
SUNPOU
 62
     0
100
AcDbLine
 10
290.0698885655716
 20
171.4547114687543
 30
0.0
 11
290.0698885655716
 21
185.4247769537499
 31
0.0
  0
LINE
  5
1BC42D0874087
330
1BC42D08739B1
100
AcDbEntity
  8
SUNPOU
 62
     0
100
AcDbLine
 10
292.6105663803866
 20
185.4247769537499
 30
0.0
 11
292.6105663803866
 21
174.3866965858871
 31
0.0
  0
LINE
  5
1BC42D0874088
330
1BC42D08739B1
100
AcDbEntity
  8
SUNPOU
 62
     0
100
AcDbLine
 10
292.6105663803866
 20
180.6340580899157
 30
0.0
 11
292.6105663803866
 21
174.3660432070488
 31
0.0
  0
LINE
  5
1BC42D0874089
330
1BC42D08739B1
100
AcDbEntity
  8
SUNPOU
 62
     0
100
AcDbLine
 10
279.946384232526
 20
183.1827081141566
 30
0.0
 11
279.946384232526
 21
168.6085849027655
 31
0.0
  0
LINE
  5
1BC42D087408A
330
1BC42D08739B1
100
AcDbEntity
  8
SUNPOU
 62
     0
100
AcDbLine
 10
280.2105663803871
 20
183.1827081141566
 30
0.0
 11
280.2105663803871
 21
168.8827081141564
 31
0.0
  0
LINE
  5
1BC42D087408B
330
1BC42D08739B1
100
AcDbEntity
  8
TENSEN
100
AcDbLine
 10
253.5505663803895
 20
174.8777083220238
 30
0.0
 11
253.5505663803895
 21
196.0329510684595
 31
0.0
  0
LINE
  5
1BC42D087408C
330
1BC42D08739B1
100
AcDbEntity
  8
SUNPOU
 62
     0
100
AcDbLine
 10
278.4474976474024
 20
162.9212468163589
 30
0.0
 11
275.2528760026951
 21
149.0838202348433
 31
0.0
  0
LINE
  5
1BC42D087408D
330
1BC42D08739B1
100
AcDbEntity
  8
JISSEN
100
AcDbLine
 10
262.9474976474026
 20
164.6712468163589
 30
0.0
 11
262.9474976474026
 21
135.3554921101047
 31
0.0
  0
LINE
  5
1BC42D087408E
330
1BC42D08739B1
100
AcDbEntity
  8
SUNPOU
 62
     0
100
AcDbLine
 10
273.4474976474024
 20
155.3554921101048
 30
0.0
 11
273.4474976474024
 21
134.8076646444354
 31
0.0
  0
LINE
  5
1BC42D087408F
330
1BC42D08739B1
100
AcDbEntity
  8
SUNPOU
 62
     0
100
AcDbLine
 10
262.9474976474026
 20
135.3554921101047
 30
0.0
 11
263.6828791084592
 21
134.4756216004354
 31
0.0
  0
LINE
  5
1BC42D0874090
330
1BC42D08739B1
100
AcDbEntity
  8
SUNPOU
 62
     0
100
AcDbLine
 10
269.6700459913219
 20
135.6997090435152
 30
0.0
 11
270.0959097963514
 21
134.795892205121
 31
0.0
  0
LINE
  5
1BC42D0874091
330
1BC42D08739B1
100
AcDbEntity
  8
SUNPOU
 62
     0
100
AcDbLine
 10
266.2394258011417
 20
136.5279465873427
 30
0.0
 11
266.4696330153272
 21
137.05881425842
 31
0.0
  0
LINE
  5
1BC42D0874092
330
1BC42D08739B1
100
AcDbEntity
  8
SUNPOU
 62
     0
100
AcDbLine
 10
267.3339937213563
 20
137.138345638107
 30
0.0
 11
267.4767873131346
 21
136.9328913021076
 31
0.0
  0
LINE
  5
1BC42D0874093
330
1BC42D08739B1
100
AcDbEntity
  8
SUNPOU
 62
     0
100
AcDbLine
 10
265.9735029088008
 20
135.8665414953701
 30
0.0
 11
266.2394258011417
 21
136.5279465873427
 31
0.0
  0
LINE
  5
1BC42D0874094
330
1BC42D08739B1
100
AcDbEntity
  8
SUNPOU
 62
     0
100
AcDbLine
 10
264.3096407485653
 20
134.129356563303
 30
0.0
 11
264.8399332581865
 21
134.2060065164689
 31
0.0
  0
LINE
  5
1BC42D0874095
330
1BC42D08739B1
100
AcDbEntity
  8
SUNPOU
 62
     0
100
AcDbLine
 10
263.6828791084592
 20
134.4756216004354
 30
0.0
 11
264.3096407485653
 21
134.129356563303
 31
0.0
  0
LINE
  5
1BC42D0874096
330
1BC42D08739B1
100
AcDbEntity
  8
SUNPOU
 62
     0
100
AcDbLine
 10
264.8399332581865
 20
134.2060065164689
 30
0.0
 11
265.285907327789
 21
134.5948809776946
 31
0.0
  0
LINE
  5
1BC42D0874097
330
1BC42D08739B1
100
AcDbEntity
  8
SUNPOU
 62
     0
100
AcDbLine
 10
265.285907327789
 20
134.5948809776946
 30
0.0
 11
265.6597136478386
 21
135.1852894647411
 31
0.0
  0
LINE
  5
1BC42D0874098
330
1BC42D08739B1
100
AcDbEntity
  8
SUNPOU
 62
     0
100
AcDbLine
 10
265.6597136478386
 20
135.1852894647411
 30
0.0
 11
265.9735029088008
 21
135.8665414953701
 31
0.0
  0
LINE
  5
1BC42D0874099
330
1BC42D08739B1
100
AcDbEntity
  8
SUNPOU
 62
     0
100
AcDbLine
 10
267.4767873131346
 20
136.9328913021076
 30
0.0
 11
267.6181703246633
 21
136.7602034797732
 31
0.0
  0
LINE
  5
1BC42D087409A
330
1BC42D08739B1
100
AcDbEntity
  8
SUNPOU
 62
     0
100
AcDbLine
 10
267.6181703246633
 20
136.7602034797732
 30
0.0
 11
267.7618351571835
 21
136.6659479072368
 31
0.0
  0
LINE
  5
1BC42D087409B
330
1BC42D08739B1
100
AcDbEntity
  8
SUNPOU
 62
     0
100
AcDbLine
 10
267.7618351571835
 20
136.6659479072368
 30
0.0
 11
267.9119305761328
 21
136.6791582042016
 31
0.0
  0
LINE
  5
1BC42D087409C
330
1BC42D08739B1
100
AcDbEntity
  8
SUNPOU
 62
     0
100
AcDbLine
 10
267.9119305761328
 20
136.6791582042016
 30
0.0
 11
268.074430803743
 21
136.7623395246513
 31
0.0
  0
LINE
  5
1BC42D087409D
330
1BC42D08739B1
100
AcDbEntity
  8
SUNPOU
 62
     0
100
AcDbLine
 10
268.074430803743
 20
136.7623395246513
 30
0.0
 11
268.2557664264429
 21
136.8613649061389
 31
0.0
  0
LINE
  5
1BC42D087409E
330
1BC42D08739B1
100
AcDbEntity
  8
SUNPOU
 62
     0
100
AcDbLine
 10
268.2557664264429
 20
136.8613649061389
 30
0.0
 11
268.4623680306624
 21
136.9221073862179
 31
0.0
  0
LINE
  5
1BC42D087409F
330
1BC42D08739B1
100
AcDbEntity
  8
SUNPOU
 62
     0
100
AcDbLine
 10
268.4623680306624
 20
136.9221073862179
 30
0.0
 11
268.7006662028305
 21
136.8904400024416
 31
0.0
  0
LINE
  5
1BC42D08740A0
330
1BC42D08739B1
100
AcDbEntity
  8
SUNPOU
 62
     0
100
AcDbLine
 10
268.7006662028305
 20
136.8904400024416
 30
0.0
 11
268.9770915293771
 21
136.7122357923634
 31
0.0
  0
LINE
  5
1BC42D08740A1
330
1BC42D08739B1
100
AcDbEntity
  8
SUNPOU
 62
     0
100
AcDbLine
 10
268.9770915293771
 20
136.7122357923634
 30
0.0
 11
269.298074596731
 21
136.333367793537
 31
0.0
  0
LINE
  5
1BC42D08740A2
330
1BC42D08739B1
100
AcDbEntity
  8
SUNPOU
 62
     0
100
AcDbLine
 10
269.298074596731
 20
136.333367793537
 30
0.0
 11
269.6700459913219
 21
135.6997090435152
 31
0.0
  0
LINE
  5
1BC42D08740A3
330
1BC42D08739B1
100
AcDbEntity
  8
SUNPOU
 62
     0
100
AcDbLine
 10
266.4696330153272
 20
137.05881425842
 30
0.0
 11
266.6748655269519
 21
137.3745133960924
 31
0.0
  0
LINE
  5
1BC42D08740A4
330
1BC42D08739B1
100
AcDbEntity
  8
SUNPOU
 62
     0
100
AcDbLine
 10
266.8602254521271
 20
137.4946503667642
 30
0.0
 11
267.0294051920929
 21
137.4648909065685
 31
0.0
  0
LINE
  5
1BC42D08740A5
330
1BC42D08739B1
100
AcDbEntity
  8
SUNPOU
 62
     0
100
AcDbLine
 10
266.6748655269519
 20
137.3745133960924
 30
0.0
 11
266.8602254521271
 21
137.4946503667642
 31
0.0
  0
LINE
  5
1BC42D08740A6
330
1BC42D08739B1
100
AcDbEntity
  8
SUNPOU
 62
     0
100
AcDbLine
 10
267.0294051920929
 20
137.4648909065685
 30
0.0
 11
267.1860971480894
 21
137.3309007516384
 31
0.0
  0
LINE
  5
1BC42D08740A7
330
1BC42D08739B1
100
AcDbEntity
  8
SUNPOU
 62
     0
100
AcDbLine
 10
267.1860971480894
 20
137.3309007516384
 30
0.0
 11
267.3339937213563
 21
137.138345638107
 31
0.0
  0
LINE
  5
1BC42D08740A8
330
1BC42D08739B1
100
AcDbEntity
  8
SUNPOU
 62
     0
100
AcDbLine
 10
270.0959097963514
 20
134.795892205121
 30
0.0
 11
270.5644640821088
 21
133.761588442252
 31
0.0
  0
LINE
  5
1BC42D08740A9
330
1BC42D08739B1
100
AcDbEntity
  8
SUNPOU
 62
     0
100
AcDbLine
 10
271.0609804156563
 20
132.7752285440759
 30
0.0
 11
271.5707303640551
 21
132.0152432997595
 31
0.0
  0
LINE
  5
1BC42D08740AA
330
1BC42D08739B1
100
AcDbEntity
  8
SUNPOU
 62
     0
100
AcDbLine
 10
272.5710173736552
 20
131.8881199293749
 30
0.0
 11
273.0320975689795
 21
132.877843381641
 31
0.0
  0
LINE
  5
1BC42D08740AB
330
1BC42D08739B1
100
AcDbEntity
  8
SUNPOU
 62
     0
100
AcDbLine
 10
271.5707303640551
 20
132.0152432997595
 30
0.0
 11
272.0789854943678
 21
131.6600634984701
 31
0.0
  0
LINE
  5
1BC42D08740AC
330
1BC42D08739B1
100
AcDbEntity
  8
SUNPOU
 62
     0
100
AcDbLine
 10
272.0789854943678
 20
131.6600634984701
 30
0.0
 11
272.5710173736552
 21
131.8881199293749
 31
0.0
  0
LINE
  5
1BC42D08740AD
330
1BC42D08739B1
100
AcDbEntity
  8
SUNPOU
 62
     0
100
AcDbLine
 10
270.5644640821088
 20
133.761588442252
 30
0.0
 11
271.0609804156563
 21
132.7752285440759
 31
0.0
  0
LINE
  5
1BC42D08740AE
330
1BC42D08739B1
100
AcDbEntity
  8
SUNPOU
 62
     0
100
AcDbLine
 10
273.0320975689795
 20
132.877843381641
 30
0.0
 11
273.4474976474024
 21
134.8076646444354
 31
0.0
  0
ARC
  5
1BC42D08740AF
330
1BC42D08739B1
100
AcDbEntity
  8
SUNPOU
 62
     0
100
AcDbCircle
 10
273.7913209055172
 20
149.4212468163589
 30
0.0
 40
1.5
100
AcDbArc
 50
270.0
 51
346.9999999999997
  0
ARC
  5
1BC42D08740B0
330
1BC42D08739B1
100
AcDbEntity
  8
SUNPOU
 62
     0
100
AcDbCircle
 10
273.7913209055172
 20
149.4247769537498
 30
0.0
 40
1.5
100
AcDbArc
 50
270.0
 51
346.9999999999997
  0
LINE
  5
1BC42D08740B1
330
1BC42D08739B1
100
AcDbEntity
  8
SUNPOU
 62
     0
100
AcDbLine
 10
273.7913209055172
 20
147.921246816359
 30
0.0
 11
273.4474976474024
 21
147.921246816359
 31
0.0
  0
LINE
  5
1BC42D08740B2
330
1BC42D08739B1
100
AcDbEntity
  8
SUNPOU
 62
     0
100
AcDbLine
 10
273.7913209055172
 20
147.92477695375
 30
0.0
 11
273.4474976474024
 21
147.92477695375
 31
0.0
  0
LINE
  5
1BC42D08740B3
330
1BC42D08739B1
100
AcDbEntity
  8
SUNPOU
 62
     0
100
AcDbLine
 10
273.4474976474024
 20
164.6712468163589
 30
0.0
 11
258.4474976474024
 21
164.671246816359
 31
0.0
  0
LINE
  5
1BC42D08740B4
330
1BC42D08739B1
100
AcDbEntity
  8
SUNPOU
 62
     0
100
AcDbLine
 10
273.4474976474024
 20
155.3554921101048
 30
0.0
 11
262.9474976474026
 21
155.3554921101048
 31
0.0
  0
LINE
  5
1BC42D08740B5
330
1BC42D08739B1
100
AcDbEntity
  8
SUNPOU
 62
     0
100
AcDbLine
 10
258.4474976474024
 20
174.7222878231996
 30
0.0
 11
253.5505663803894
 21
174.8753245728516
 31
0.0
  0
LINE
  5
1BC42D08740B6
330
1BC42D08739B1
100
AcDbEntity
  8
TENSEN
100
AcDbLine
 10
252.6281877536073
 20
173.9553296952417
 30
0.0
 11
253.5505663803895
 21
174.8777083220238
 31
0.0
  0
LINE
  5
1BC42D08740B7
330
1BC42D08739B1
100
AcDbEntity
  8
SUNPOU
100
AcDbLine
 10
287.6402274729823
 20
171.4547114687543
 30
0.0
 11
295.8490360422718
 21
143.1358766900915
 31
0.0
  0
TEXT
  5
1BC42D08740B8
330
1BC42D08739B1
100
AcDbEntity
  8
SUNPOU
100
AcDbText
 10
295.3766397883694
 20
135.1231030160286
 30
0.0
 40
4.5
  1
2
  7
K
 72
     4
 11
297.5194969312266
 21
137.3731030160286
 31
0.0
100
AcDbText
  0
LINE
  5
1BC42D08740B9
330
1BC42D08739B1
100
AcDbEntity
  8
SUNPOU
 62
     0
100
AcDbLine
 10
278.4474976474024
 20
162.9212468163589
 30
0.0
 11
278.4474976474024
 21
166.921246816359
 31
0.0
  0
LINE
  5
1BC42D08740BA
330
1BC42D08739B1
100
AcDbEntity
  8
SUNPOU
 62
     0
100
AcDbLine
 10
279.910566380387
 20
168.5840580899156
 30
0.0
 11
280.2105663803869
 21
168.8840580899156
 31
0.0
  0
LINE
  5
1BC42D08740BB
330
1BC42D08739B1
100
AcDbEntity
  8
SUNPOU
 62
     0
100
AcDbLine
 10
278.4474976474024
 20
168.5840580899156
 30
0.0
 11
279.910566380387
 21
168.5840580899156
 31
0.0
  0
INSERT
  5
1BC42D08740BC
330
1BC42D08739B1
100
AcDbEntity
  8
SUNPOU
100
AcDbBlockReference
  2
ARROW
 10
287.6402274729823
 20
171.4547114687543
 30
0.0
 41
1.499999999999998
 42
1.5
 43
1.5
 50
106.1653402783035
  0
LINE
  5
1BC42D08740C0
330
1BC42D08739B1
100
AcDbEntity
  8
SUNPOU
 62
     0
100
AcDbLine
 10
253.5505663803894
 20
196.0353348176314
 30
0.0
 11
258.4474976474024
 21
196.1883715672834
 31
0.0
  0
LINE
  5
1BC42D08740C1
330
1BC42D08739B1
100
AcDbEntity
  8
TENSEN
100
AcDbLine
 10
253.5505663803895
 20
196.0329510684595
 30
0.0
 11
252.6281877536181
 21
196.9553296952308
 31
0.0
  0
LINE
  5
1BC42D08740C2
330
1BC42D08739B1
100
AcDbEntity
  8
SUNPOU
 62
     0
100
AcDbLine
 10
273.4474976474024
 20
206.1747769537499
 30
0.0
 11
258.4474976474024
 21
206.1747769537499
 31
0.0
  0
LINE
  5
1BC42D08740C3
330
1BC42D08739B1
100
AcDbEntity
  8
SUNPOU
 62
     0
100
AcDbLine
 10
273.4474976474024
 20
214.4311443331941
 30
0.0
 11
262.9474976474026
 21
214.4311443331941
 31
0.0
  0
LINE
  5
1BC42D08740C4
330
1BC42D08739B1
100
AcDbEntity
  8
SUNPOU
 62
     0
100
AcDbLine
 10
292.4935886019461
 20
196.7842511264559
 30
0.0
 11
290.4529107871312
 21
199.2162362435889
 31
0.0
  0
LINE
  5
1BC42D08740C5
330
1BC42D08739B1
100
AcDbEntity
  8
SUNPOU
 62
     0
100
AcDbLine
 10
290.0698885655716
 20
199.3948424387456
 30
0.0
 11
290.0698885655716
 21
185.4247769537499
 31
0.0
  0
LINE
  5
1BC42D08740C6
330
1BC42D08739B1
100
AcDbEntity
  8
SUNPOU
 62
     0
100
AcDbLine
 10
285.2105663803931
 20
199.3948424387456
 30
0.0
 11
285.2105663803913
 21
193.5187102303201
 31
0.0
  0
LINE
  5
1BC42D08740C7
330
1BC42D08739B1
100
AcDbEntity
  8
SUNPOU
 62
     0
100
AcDbLine
 10
280.2105663803871
 20
187.6461924145048
 30
0.0
 11
280.2105663803871
 21
201.9461924145048
 31
0.0
  0
LINE
  5
1BC42D08740C8
330
1BC42D08739B1
100
AcDbEntity
  8
SUNPOU
 62
     0
100
AcDbLine
 10
279.946384232526
 20
187.6461924145048
 30
0.0
 11
279.946384232526
 21
202.2203156258957
 31
0.0
  0
LINE
  5
1BC42D08740C9
330
1BC42D08739B1
100
AcDbEntity
  8
SUNPOU
 62
     0
100
AcDbLine
 10
281.2562581246689
 20
192.799563076682
 30
0.0
 11
281.2562581246691
 21
201.2621172280598
 31
0.0
  0
LINE
  5
1BC42D08740CA
330
1BC42D08739B1
100
AcDbEntity
  8
SUNPOU
 62
     0
100
AcDbLine
 10
280.2105663803871
 20
179.1677587461034
 30
0.0
 11
285.210566380391
 21
179.1677587461034
 31
0.0
  0
LINE
  5
1BC42D08740CB
330
1BC42D08739B1
100
AcDbEntity
  8
SUNPOU
 62
     0
100
AcDbLine
 10
285.2105663803915
 20
177.295240930288
 30
0.0
 11
280.2105663803871
 21
177.295240930288
 31
0.0
  0
LINE
  5
1BC42D08740CC
330
1BC42D08739B1
100
AcDbEntity
  8
SUNPOU
 62
     0
100
AcDbLine
 10
280.2105663803869
 20
183.1827081141566
 30
0.0
 11
280.2105663803871
 21
179.1827081141564
 31
0.0
  0
LINE
  5
1BC42D08740CD
330
1BC42D08739B1
100
AcDbEntity
  8
SUNPOU
 62
     0
100
AcDbLine
 10
280.2105663803867
 20
177.3101902983411
 30
0.0
 11
280.2105663803867
 21
175.9553079731058
 31
0.0
  0
LINE
  5
1BC42D08740CE
330
1BC42D08739B1
100
AcDbEntity
  8
SUNPOU
 62
     0
100
AcDbLine
 10
284.2105663803867
 20
177.3101902983411
 30
0.0
 11
284.2105663803867
 21
179.1827081141566
 31
0.0
  0
LINE
  5
1BC42D08740CF
330
1BC42D08739B1
100
AcDbEntity
  8
SUNPOU
 62
     0
100
AcDbLine
 10
279.5306332700187
 20
185.4247769537499
 30
0.0
 11
279.5306332700187
 21
183.1827081141566
 31
0.0
  0
LINE
  5
1BC42D08740D0
330
1BC42D08739B1
100
AcDbEntity
  8
SUNPOU
 62
     0
100
AcDbLine
 10
278.4474976474024
 20
183.1827081141566
 30
0.0
 11
280.2105663803871
 21
183.1827081141566
 31
0.0
  0
LINE
  5
1BC42D08740D1
330
1BC42D08739B1
100
AcDbEntity
  8
SUNPOU
 62
     0
100
AcDbLine
 10
285.2105663803913
 20
177.295240930288
 30
0.0
 11
285.2105663803892
 21
185.42477695375
 31
0.0
  0
LINE
  5
1BC42D08740D2
330
1BC42D08739B1
100
AcDbEntity
  8
SUNPOU
 62
     0
100
AcDbLine
 10
280.2105663803871
 20
191.6611417825581
 30
0.0
 11
285.210566380391
 21
191.6611417825581
 31
0.0
  0
LINE
  5
1BC42D08740D3
330
1BC42D08739B1
100
AcDbEntity
  8
SUNPOU
 62
     0
100
AcDbLine
 10
285.2105663803915
 20
193.5336595983733
 30
0.0
 11
281.2562581246689
 21
193.5336595983733
 31
0.0
  0
LINE
  5
1BC42D08740D4
330
1BC42D08739B1
100
AcDbEntity
  8
SUNPOU
 62
     0
100
AcDbLine
 10
284.2105663803867
 20
193.5187102303201
 30
0.0
 11
284.2105663803867
 21
191.6461924145048
 31
0.0
  0
LINE
  5
1BC42D08740D5
330
1BC42D08739B1
100
AcDbEntity
  8
SUNPOU
 62
     0
100
AcDbLine
 10
280.2105663803869
 20
187.6461924145048
 30
0.0
 11
280.2105663803871
 21
191.6461924145048
 31
0.0
  0
LINE
  5
1BC42D08740D6
330
1BC42D08739B1
100
AcDbEntity
  8
SUNPOU
 62
     0
100
AcDbLine
 10
279.5306332700187
 20
185.42477695375
 30
0.0
 11
279.5306332700187
 21
187.6461924145048
 31
0.0
  0
LINE
  5
1BC42D08740D7
330
1BC42D08739B1
100
AcDbEntity
  8
SUNPOU
 62
     0
100
AcDbLine
 10
278.4474976474024
 20
187.6461924145048
 30
0.0
 11
280.2105663803871
 21
187.6461924145048
 31
0.0
  0
LINE
  5
1BC42D08740D8
330
1BC42D08739B1
100
AcDbEntity
  8
SUNPOU
 62
     0
100
AcDbLine
 10
280.2071042375454
 20
192.799563076682
 30
0.0
 11
281.2562581246689
 21
192.799563076682
 31
0.0
  0
LINE
  5
1BC42D08740D9
330
1BC42D08739B1
100
AcDbEntity
  8
SUNPOU
 62
     0
100
AcDbLine
 10
282.7631119075166
 20
194.1200235509372
 30
0.0
 11
282.7631119075156
 21
197.173160377298
 31
0.0
  0
LINE
  5
1BC42D08740DA
330
1BC42D08739B1
100
AcDbEntity
  8
SUNPOU
 62
     0
100
AcDbLine
 10
281.9129791495067
 20
197.6465919641166
 30
0.0
 11
281.2631119075168
 21
197.6465919641166
 31
0.0
  0
ARC
  5
1BC42D08740DB
330
1BC42D08739B1
100
AcDbEntity
  8
SUNPOU
 62
     0
100
AcDbCircle
 10
281.9129791495067
 20
196.6465919641166
 30
0.0
 40
1.0
100
AcDbArc
 50
31.77388818931894
 51
90.0
  0
LINE
  5
1BC42D08740DC
330
1BC42D08739B1
100
AcDbEntity
  8
SUNPOU
 62
     0
100
AcDbLine
 10
281.9129791495067
 20
193.6465919641169
 30
0.0
 11
281.2631119075168
 21
193.6465919641166
 31
0.0
  0
ARC
  5
1BC42D08740DD
330
1BC42D08739B1
100
AcDbEntity
  8
SUNPOU
 62
     0
100
AcDbCircle
 10
281.9129791495067
 20
194.6465919641169
 30
0.0
 40
1.0
100
AcDbArc
 50
270.0
 51
328.2261118107317
  0
LINE
  5
1BC42D08740DE
330
1BC42D08739B1
100
AcDbEntity
  8
SUNPOU
 62
     0
100
AcDbLine
 10
285.2105663803913
 20
193.5336595983733
 30
0.0
 11
285.2105663803892
 21
185.42477695375
 31
0.0
  0
LINE
  5
1BC42D08740DF
330
1BC42D08739B1
100
AcDbEntity
  8
SUNPOU
 62
     0
100
AcDbLine
 10
296.8605663803866
 20
183.2840580899155
 30
0.0
 11
298.8105663803868
 21
183.2840580899155
 31
0.0
  0
LINE
  5
1BC42D08740E0
330
1BC42D08739B1
100
AcDbEntity
  8
SUNPOU
 62
     0
100
AcDbLine
 10
295.1105663803866
 20
185.4247769537499
 30
0.0
 11
295.1105663803866
 21
181.1340580899155
 31
0.0
  0
LINE
  5
1BC42D08740E1
330
1BC42D08739B1
100
AcDbEntity
  8
SUNPOU
 62
     0
100
AcDbLine
 10
295.1105663803866
 20
181.6840580899157
 30
0.0
 11
295.1105663803866
 21
181.1340580899155
 31
0.0
  0
LINE
  5
1BC42D08740E2
330
1BC42D08739B1
100
AcDbEntity
  8
SUNPOU
 62
     0
100
AcDbLine
 10
296.7105663803867
 20
183.3965101874446
 30
0.0
 11
296.7105663803867
 21
176.1840580899155
 31
0.0
  0
LINE
  5
1BC42D08740E3
330
1BC42D08739B1
100
AcDbEntity
  8
SUNPOU
 62
     0
100
AcDbLine
 10
296.5105663803868
 20
177.9340580899155
 30
0.0
 11
296.5105663803868
 21
185.4247769537499
 31
0.0
  0
LINE
  5
1BC42D08740E4
330
1BC42D08739B1
100
AcDbEntity
  8
SUNPOU
 62
     0
100
AcDbLine
 10
296.7105663803867
 20
178.2169008023901
 30
0.0
 11
296.7105663803867
 21
185.4247769537499
 31
0.0
  0
LINE
  5
1BC42D08740E5
330
1BC42D08739B1
100
AcDbEntity
  8
SUNPOU
 62
     0
100
AcDbLine
 10
296.8605663803866
 20
185.42477695375
 30
0.0
 11
296.8605663803866
 21
177.6891091156375
 31
0.0
  0
LINE
  5
1BC42D08740E6
330
1BC42D08739B1
100
AcDbEntity
  8
SUNPOU
 62
     0
100
AcDbLine
 10
295.1105663803866
 20
181.1340580899155
 30
0.0
 11
293.1105663803866
 21
181.1340580899155
 31
0.0
  0
LINE
  5
1BC42D08740E7
330
1BC42D08739B1
100
AcDbEntity
  8
SUNPOU
 62
     0
100
AcDbLine
 10
295.1105663803866
 20
181.1340580899155
 30
0.0
 11
293.1105663803866
 21
181.1340580899155
 31
0.0
  0
ARC
  5
1BC42D08740E8
330
1BC42D08739B1
100
AcDbEntity
  8
SUNPOU
 62
     0
100
AcDbCircle
 10
293.1105663803866
 20
180.6340580899155
 30
0.0
 40
0.5000000000000006
100
AcDbArc
 50
90.0
 51
180.0
  0
ARC
  5
1BC42D08740E9
330
1BC42D08739B1
100
AcDbEntity
  8
SUNPOU
 62
     0
100
AcDbCircle
 10
293.1105663803866
 20
180.6340580899155
 30
0.0
 40
0.5000000000000006
100
AcDbArc
 50
90.0
 51
180.0
  0
LINE
  5
1BC42D08740EA
330
1BC42D08739B1
100
AcDbEntity
  8
SUNPOU
 62
     0
100
AcDbLine
 10
296.8605663803866
 20
177.6891091156375
 30
0.0
 11
296.8605663803866
 21
176.1840580899155
 31
0.0
  0
LINE
  5
1BC42D08740EB
330
1BC42D08739B1
100
AcDbEntity
  8
SUNPOU
 62
     0
100
AcDbLine
 10
296.7105663803867
 20
176.1840580899155
 30
0.0
 11
296.8605663803866
 21
176.1840580899155
 31
0.0
  0
ARC
  5
1BC42D08740EC
330
1BC42D08739B1
100
AcDbEntity
  8
SUNPOU
 62
     0
100
AcDbCircle
 10
296.8105663803868
 20
177.9340580899155
 30
0.0
 40
0.2999999999998695
100
AcDbArc
 50
180.0
 51
250.5287793655174
  0
LINE
  5
1BC42D08740ED
330
1BC42D08739B1
100
AcDbEntity
  8
SUNPOU
 62
     0
100
AcDbLine
 10
295.2105663803866
 20
181.6840580899155
 30
0.0
 11
295.2105663803866
 21
183.3965101874446
 31
0.0
  0
LINE
  5
1BC42D08740EE
330
1BC42D08739B1
100
AcDbEntity
  8
SUNPOU
 62
     0
100
AcDbLine
 10
295.2105663803866
 20
185.42477695375
 30
0.0
 11
295.2105663803866
 21
181.6840580899157
 31
0.0
  0
LINE
  5
1BC42D08740EF
330
1BC42D08739B1
100
AcDbEntity
  8
SUNPOU
 62
     0
100
AcDbLine
 10
296.7105663803867
 20
182.5340580899155
 30
0.0
 11
296.7105663803867
 21
183.3965101874446
 31
0.0
  0
LINE
  5
1BC42D08740F0
330
1BC42D08739B1
100
AcDbEntity
  8
SUNPOU
 62
     0
100
AcDbLine
 10
295.2105663803866
 20
181.6840580899155
 30
0.0
 11
295.1105663803866
 21
181.5840580899155
 31
0.0
  0
LINE
  5
1BC42D08740F1
330
1BC42D08739B1
100
AcDbEntity
  8
SUNPOU
 62
     0
100
AcDbLine
 10
295.1105663803866
 20
181.6840580899157
 30
0.0
 11
295.2105663803866
 21
181.6840580899157
 31
0.0
  0
LINE
  5
1BC42D08740F2
330
1BC42D08739B1
100
AcDbEntity
  8
SUNPOU
 62
     0
100
AcDbLine
 10
295.2105663803866
 20
182.5340580899155
 30
0.0
 11
296.5105663803868
 21
182.5340580899155
 31
0.0
  0
LINE
  5
1BC42D08740F3
330
1BC42D08739B1
100
AcDbEntity
  8
SUNPOU
 62
     0
100
AcDbLine
 10
300.9605663803867
 20
185.4247769537499
 30
0.0
 11
300.9605663803869
 21
176.1840580899155
 31
0.0
  0
LINE
  5
1BC42D08740F4
330
1BC42D08739B1
100
AcDbEntity
  8
SUNPOU
 62
     0
100
AcDbLine
 10
299.2605663803868
 20
185.4247769537499
 30
0.0
 11
299.2605663803865
 21
176.1840580899155
 31
0.0
  0
LINE
  5
1BC42D08740F5
330
1BC42D08739B1
100
AcDbEntity
  8
SUNPOU
 62
     0
100
AcDbLine
 10
301.4105663803865
 20
177.9340580899155
 30
0.0
 11
301.4105663803868
 21
185.4247769537499
 31
0.0
  0
LINE
  5
1BC42D08740F6
330
1BC42D08739B1
100
AcDbEntity
  8
SUNPOU
 62
     0
100
AcDbLine
 10
299.110566380387
 20
185.4247769537499
 30
0.0
 11
299.110566380387
 21
177.6340580899151
 31
0.0
  0
LINE
  5
1BC42D08740F7
330
1BC42D08739B1
100
AcDbEntity
  8
SUNPOU
 62
     0
100
AcDbLine
 10
298.8105663803868
 20
185.42477695375
 30
0.0
 11
298.8105663803868
 21
177.9340580899155
 31
0.0
  0
INSERT
  5
1BC42D08740F8
330
1BC42D08739B1
100
AcDbEntity
  8
SUNPOU
100
AcDbBlockReference
  2
ARROW
 10
301.4105663803873
 20
179.9213590885968
 30
0.0
 41
1.499999999999992
 42
1.5
 43
1.5
 50
121.5345702487097
  0
ARC
  5
1BC42D08740F9
330
1BC42D08739B1
100
AcDbEntity
  8
SUNPOU
 62
     0
100
AcDbCircle
 10
299.1105663803866
 20
177.9340580899155
 30
0.0
 40
0.2999999999998695
100
AcDbArc
 50
180.0
 51
270.0
  0
LINE
  5
1BC42D08740FA
330
1BC42D08739B1
100
AcDbEntity
  8
SUNPOU
 62
     0
100
AcDbLine
 10
301.110566380387
 20
177.6340580899153
 30
0.0
 11
301.110566380387
 21
176.1840580899155
 31
0.0
  0
LINE
  5
1BC42D08740FB
330
1BC42D08739B1
100
AcDbEntity
  8
SUNPOU
 62
     0
100
AcDbLine
 10
301.110566380387
 20
176.1840580899155
 30
0.0
 11
300.9605663803869
 21
176.1840580899155
 31
0.0
  0
ARC
  5
1BC42D08740FC
330
1BC42D08739B1
100
AcDbEntity
  8
SUNPOU
 62
     0
100
AcDbCircle
 10
301.110566380387
 20
177.9340580899155
 30
0.0
 40
0.2999999999998695
100
AcDbArc
 50
270.0
 51
0.0
  0
LINE
  5
1BC42D08740FD
330
1BC42D08739B1
100
AcDbEntity
  8
SUNPOU
 62
     0
100
AcDbLine
 10
299.1105663803866
 20
177.6340580899158
 30
0.0
 11
299.1105663803866
 21
176.1840580899155
 31
0.0
  0
LINE
  5
1BC42D08740FE
330
1BC42D08739B1
100
AcDbEntity
  8
SUNPOU
 62
     0
100
AcDbLine
 10
299.1105663803866
 20
176.1840580899155
 30
0.0
 11
299.2605663803865
 21
176.1840580899155
 31
0.0
  0
LINE
  5
1BC42D08740FF
330
1BC42D08739B1
100
AcDbEntity
  8
SUNPOU
 62
     0
100
AcDbLine
 10
300.1105663803866
 20
182.7840580899156
 30
0.0
 11
300.1105663803866
 21
183.3965101874446
 31
0.0
  0
ARC
  5
1BC42D0874100
330
1BC42D08739B1
100
AcDbEntity
  8
SUNPOU
 62
     0
100
AcDbCircle
 10
300.7605663803868
 20
182.2340580899155
 30
0.0
 40
0.2000000000000002
100
AcDbArc
 50
0.0
 51
90.0
  0
LINE
  5
1BC42D0874101
330
1BC42D08739B1
100
AcDbEntity
  8
SUNPOU
 62
     0
100
AcDbLine
 10
300.7605663803868
 20
182.4340580899155
 30
0.0
 11
300.4605663803867
 21
182.4340580899155
 31
0.0
  0
ARC
  5
1BC42D0874102
330
1BC42D08739B1
100
AcDbEntity
  8
SUNPOU
 62
     0
100
AcDbCircle
 10
299.7605663803868
 20
182.7840580899156
 30
0.0
 40
0.3500000000000003
100
AcDbArc
 50
270.0
 51
0.0
  0
LINE
  5
1BC42D0874103
330
1BC42D08739B1
100
AcDbEntity
  8
SUNPOU
 62
     0
100
AcDbLine
 10
299.4605663803866
 20
182.4340580899155
 30
0.0
 11
299.7605663803868
 21
182.4340580899155
 31
0.0
  0
ARC
  5
1BC42D0874104
330
1BC42D08739B1
100
AcDbEntity
  8
SUNPOU
 62
     0
100
AcDbCircle
 10
299.4605663803866
 20
182.2340580899155
 30
0.0
 40
0.2000000000000002
100
AcDbArc
 50
90.0
 51
180.0
  0
LINE
  5
1BC42D0874105
330
1BC42D08739B1
100
AcDbEntity
  8
SUNPOU
 62
     0
100
AcDbLine
 10
300.1105663803866
 20
185.42477695375
 30
0.0
 11
300.1105663803866
 21
182.7840580899156
 31
0.0
  0
ARC
  5
1BC42D0874106
330
1BC42D08739B1
100
AcDbEntity
  8
SUNPOU
 62
     0
100
AcDbCircle
 10
300.4605663803867
 20
182.7840580899156
 30
0.0
 40
0.3500000000000003
100
AcDbArc
 50
180.0
 51
270.0
  0
LINE
  5
1BC42D0874107
330
1BC42D08739B1
100
AcDbEntity
  8
SUNPOU
 62
     0
100
AcDbLine
 10
296.8605663803866
 20
187.5448424387458
 30
0.0
 11
298.8105663803868
 21
187.5448424387458
 31
0.0
  0
LINE
  5
1BC42D0874108
330
1BC42D08739B1
100
AcDbEntity
  8
SUNPOU
 62
     0
100
AcDbLine
 10
296.8605663803866
 20
185.4247769537499
 30
0.0
 11
296.8605663803866
 21
193.1397914130236
 31
0.0
  0
LINE
  5
1BC42D0874109
330
1BC42D08739B1
100
AcDbEntity
  8
SUNPOU
 62
     0
100
AcDbLine
 10
296.7105663803867
 20
192.6119997262713
 30
0.0
 11
296.7105663803867
 21
187.4459834452733
 31
0.0
  0
LINE
  5
1BC42D087410A
330
1BC42D08739B1
100
AcDbEntity
  8
SUNPOU
 62
     0
100
AcDbLine
 10
296.5105663803868
 20
192.8948424387456
 30
0.0
 11
296.5105663803868
 21
185.4247769537499
 31
0.0
  0
LINE
  5
1BC42D087410B
330
1BC42D08739B1
100
AcDbEntity
  8
SUNPOU
 62
     0
100
AcDbLine
 10
292.6105663803866
 20
187.4459834452733
 30
0.0
 11
292.6105663803866
 21
196.4628573216125
 31
0.0
  0
LINE
  5
1BC42D087410C
330
1BC42D08739B1
100
AcDbEntity
  8
SUNPOU
 62
     0
100
AcDbLine
 10
292.6105663803866
 20
185.42477695375
 30
0.0
 11
292.6105663803866
 21
196.4628573216125
 31
0.0
  0
LINE
  5
1BC42D087410D
330
1BC42D08739B1
100
AcDbEntity
  8
SUNPOU
 62
     0
100
AcDbLine
 10
292.6105663803866
 20
190.1948424387455
 30
0.0
 11
292.6105663803866
 21
196.4628573216125
 31
0.0
  0
LINE
  5
1BC42D087410E
330
1BC42D08739B1
100
AcDbEntity
  8
SUNPOU
 62
     0
100
AcDbLine
 10
296.7105663803867
 20
185.42477695375
 30
0.0
 11
296.7105663803867
 21
194.6448424387456
 31
0.0
  0
LINE
  5
1BC42D087410F
330
1BC42D08739B1
100
AcDbEntity
  8
SUNPOU
 62
     0
100
AcDbLine
 10
295.1105663803866
 20
189.6948424387458
 30
0.0
 11
293.1105663803866
 21
189.6948424387458
 31
0.0
  0
LINE
  5
1BC42D0874110
330
1BC42D08739B1
100
AcDbEntity
  8
SUNPOU
 62
     0
100
AcDbLine
 10
295.1105663803866
 20
189.6948424387458
 30
0.0
 11
293.1105663803866
 21
189.6948424387458
 31
0.0
  0
ARC
  5
1BC42D0874111
330
1BC42D08739B1
100
AcDbEntity
  8
SUNPOU
 62
     0
100
AcDbCircle
 10
293.1105663803866
 20
190.1948424387456
 30
0.0
 40
0.5000000000000006
100
AcDbArc
 50
180.0
 51
270.0
  0
ARC
  5
1BC42D0874112
330
1BC42D08739B1
100
AcDbEntity
  8
SUNPOU
 62
     0
100
AcDbCircle
 10
293.1105663803866
 20
190.1948424387456
 30
0.0
 40
0.5000000000000006
100
AcDbArc
 50
180.0
 51
270.0
  0
LINE
  5
1BC42D0874113
330
1BC42D08739B1
100
AcDbEntity
  8
SUNPOU
 62
     0
100
AcDbLine
 10
295.1105663803866
 20
189.1448424387457
 30
0.0
 11
295.1105663803866
 21
189.6948424387458
 31
0.0
  0
LINE
  5
1BC42D0874114
330
1BC42D08739B1
100
AcDbEntity
  8
SUNPOU
 62
     0
100
AcDbLine
 10
295.1105663803866
 20
189.1448424387457
 30
0.0
 11
295.2105663803866
 21
189.1448424387457
 31
0.0
  0
LINE
  5
1BC42D0874115
330
1BC42D08739B1
100
AcDbEntity
  8
SUNPOU
 62
     0
100
AcDbLine
 10
295.2105663803866
 20
189.1448424387457
 30
0.0
 11
295.1105663803866
 21
189.2448424387458
 31
0.0
  0
LINE
  5
1BC42D0874116
330
1BC42D08739B1
100
AcDbEntity
  8
SUNPOU
 62
     0
100
AcDbLine
 10
295.2105663803866
 20
188.2948424387458
 30
0.0
 11
296.5105663803868
 21
188.2948424387458
 31
0.0
  0
LINE
  5
1BC42D0874117
330
1BC42D08739B1
100
AcDbEntity
  8
SUNPOU
 62
     0
100
AcDbLine
 10
295.1105663803866
 20
185.4247769537499
 30
0.0
 11
295.1105663803866
 21
189.6948424387458
 31
0.0
  0
LINE
  5
1BC42D0874118
330
1BC42D08739B1
100
AcDbEntity
  8
SUNPOU
 62
     0
100
AcDbLine
 10
296.7105663803867
 20
188.2948424387458
 30
0.0
 11
296.7105663803867
 21
187.4459834452733
 31
0.0
  0
LINE
  5
1BC42D0874119
330
1BC42D08739B1
100
AcDbEntity
  8
SUNPOU
 62
     0
100
AcDbLine
 10
295.2105663803866
 20
187.4459834452733
 30
0.0
 11
295.2105663803866
 21
189.1448424387457
 31
0.0
  0
LINE
  5
1BC42D087411A
330
1BC42D08739B1
100
AcDbEntity
  8
SUNPOU
 62
     0
100
AcDbLine
 10
295.2105663803866
 20
189.1448424387457
 30
0.0
 11
295.2105663803866
 21
185.4247769537499
 31
0.0
  0
ARC
  5
1BC42D087411B
330
1BC42D08739B1
100
AcDbEntity
  8
SUNPOU
 62
     0
100
AcDbCircle
 10
292.1105663803866
 20
196.4628573216125
 30
0.0
 40
0.5000000000000006
100
AcDbArc
 50
0.0
 51
40.00000000000029
  0
ARC
  5
1BC42D087411C
330
1BC42D08739B1
100
AcDbEntity
  8
SUNPOU
 62
     0
100
AcDbCircle
 10
292.1105663803866
 20
196.4628573216125
 30
0.0
 40
0.5000000000000006
100
AcDbArc
 50
0.0
 51
40.00000000000029
  0
LINE
  5
1BC42D087411D
330
1BC42D08739B1
100
AcDbEntity
  8
SUNPOU
 62
     0
100
AcDbLine
 10
296.7105663803867
 20
194.6448424387456
 30
0.0
 11
296.8605663803866
 21
194.6448424387456
 31
0.0
  0
ARC
  5
1BC42D087411E
330
1BC42D08739B1
100
AcDbEntity
  8
SUNPOU
 62
     0
100
AcDbCircle
 10
296.8105663803868
 20
192.8948424387456
 30
0.0
 40
0.2999999999998695
100
AcDbArc
 50
109.4712206344826
 51
180.0
  0
LINE
  5
1BC42D087411F
330
1BC42D08739B1
100
AcDbEntity
  8
SUNPOU
 62
     0
100
AcDbLine
 10
296.8605663803866
 20
193.1397914130236
 30
0.0
 11
296.8605663803866
 21
194.6448424387456
 31
0.0
  0
LINE
  5
1BC42D0874120
330
1BC42D08739B1
100
AcDbEntity
  8
SUNPOU
 62
     0
100
AcDbLine
 10
298.8105663803868
 20
185.42477695375
 30
0.0
 11
298.8105663803868
 21
192.8948424387457
 31
0.0
  0
LINE
  5
1BC42D0874121
330
1BC42D08739B1
100
AcDbEntity
  8
SUNPOU
 62
     0
100
AcDbLine
 10
301.4105663803865
 20
192.8948424387456
 30
0.0
 11
301.4105663803868
 21
185.42477695375
 31
0.0
  0
LINE
  5
1BC42D0874122
330
1BC42D08739B1
100
AcDbEntity
  8
SUNPOU
 62
     0
100
AcDbLine
 10
299.110566380387
 20
185.4247769537499
 30
0.0
 11
299.110566380387
 21
193.194842438746
 31
0.0
  0
LINE
  5
1BC42D0874123
330
1BC42D08739B1
100
AcDbEntity
  8
SUNPOU
 62
     0
100
AcDbLine
 10
300.9605663803867
 20
185.42477695375
 30
0.0
 11
300.9605663803869
 21
194.6448424387456
 31
0.0
  0
LINE
  5
1BC42D0874124
330
1BC42D08739B1
100
AcDbEntity
  8
SUNPOU
 62
     0
100
AcDbLine
 10
299.2605663803868
 20
185.42477695375
 30
0.0
 11
299.2605663803865
 21
194.6448424387456
 31
0.0
  0
LINE
  5
1BC42D0874125
330
1BC42D08739B1
100
AcDbEntity
  8
SUNPOU
 62
     0
100
AcDbLine
 10
300.7605663803868
 20
188.3948424387457
 30
0.0
 11
300.4605663803867
 21
188.3948424387457
 31
0.0
  0
ARC
  5
1BC42D0874126
330
1BC42D08739B1
100
AcDbEntity
  8
SUNPOU
 62
     0
100
AcDbCircle
 10
300.7605663803868
 20
188.5948424387458
 30
0.0
 40
0.2000000000000002
100
AcDbArc
 50
270.0
 51
0.0
  0
LINE
  5
1BC42D0874127
330
1BC42D08739B1
100
AcDbEntity
  8
SUNPOU
 62
     0
100
AcDbLine
 10
300.1105663803866
 20
187.4459834452733
 30
0.0
 11
300.1105663803866
 21
188.0448424387457
 31
0.0
  0
ARC
  5
1BC42D0874128
330
1BC42D08739B1
100
AcDbEntity
  8
SUNPOU
 62
     0
100
AcDbCircle
 10
299.4605663803866
 20
188.5948424387458
 30
0.0
 40
0.2000000000000002
100
AcDbArc
 50
180.0
 51
270.0
  0
LINE
  5
1BC42D0874129
330
1BC42D08739B1
100
AcDbEntity
  8
SUNPOU
 62
     0
100
AcDbLine
 10
299.4605663803866
 20
188.3948424387457
 30
0.0
 11
299.7605663803868
 21
188.3948424387457
 31
0.0
  0
ARC
  5
1BC42D087412A
330
1BC42D08739B1
100
AcDbEntity
  8
SUNPOU
 62
     0
100
AcDbCircle
 10
299.7605663803868
 20
188.0448424387457
 30
0.0
 40
0.3500000000000003
100
AcDbArc
 50
0.0
 51
90.0
  0
ARC
  5
1BC42D087412B
330
1BC42D08739B1
100
AcDbEntity
  8
SUNPOU
 62
     0
100
AcDbCircle
 10
300.4605663803867
 20
188.0448424387457
 30
0.0
 40
0.3500000000000003
100
AcDbArc
 50
90.0
 51
180.0
  0
LINE
  5
1BC42D087412C
330
1BC42D08739B1
100
AcDbEntity
  8
SUNPOU
 62
     0
100
AcDbLine
 10
300.1105663803866
 20
188.0448424387457
 30
0.0
 11
300.1105663803866
 21
185.42477695375
 31
0.0
  0
LINE
  5
1BC42D087412D
330
1BC42D08739B1
100
AcDbEntity
  8
SUNPOU
 62
     0
100
AcDbLine
 10
301.110566380387
 20
194.6448424387456
 30
0.0
 11
300.9605663803869
 21
194.6448424387456
 31
0.0
  0
LINE
  5
1BC42D087412E
330
1BC42D08739B1
100
AcDbEntity
  8
SUNPOU
 62
     0
100
AcDbLine
 10
299.1105663803866
 20
194.6448424387456
 30
0.0
 11
299.2605663803865
 21
194.6448424387456
 31
0.0
  0
ARC
  5
1BC42D087412F
330
1BC42D08739B1
100
AcDbEntity
  8
SUNPOU
 62
     0
100
AcDbCircle
 10
299.1105663803866
 20
192.8948424387457
 30
0.0
 40
0.2999999999998695
100
AcDbArc
 50
90.0
 51
180.0
  0
ARC
  5
1BC42D0874130
330
1BC42D08739B1
100
AcDbEntity
  8
SUNPOU
 62
     0
100
AcDbCircle
 10
301.110566380387
 20
192.8948424387456
 30
0.0
 40
0.2999999999998695
100
AcDbArc
 50
0.0
 51
90.0
  0
LINE
  5
1BC42D0874131
330
1BC42D08739B1
100
AcDbEntity
  8
SUNPOU
 62
     0
100
AcDbLine
 10
301.110566380387
 20
193.1948424387459
 30
0.0
 11
301.110566380387
 21
194.6448424387457
 31
0.0
  0
LINE
  5
1BC42D0874132
330
1BC42D08739B1
100
AcDbEntity
  8
SUNPOU
 62
     0
100
AcDbLine
 10
299.1105663803866
 20
193.1948424387454
 30
0.0
 11
299.1105663803866
 21
194.6448424387457
 31
0.0
  0
LINE
  5
1BC42D0874133
330
1BC42D08739B1
100
AcDbEntity
  8
SUNPOU
 62
     0
100
AcDbLine
 10
281.2562581246691
 20
201.2621172280598
 30
0.0
 11
292.6517296614016
 21
200.0644049066996
 31
0.0
  0
LINE
  5
1BC42D0874134
330
1BC42D08739B1
100
AcDbEntity
  8
SUNPOU
 62
     0
100
AcDbLine
 10
281.3607865879367
 20
202.256639123428
 30
0.0
 11
292.7562581246688
 21
201.0589268020679
 31
0.0
  0
ARC
  5
1BC42D0874135
330
1BC42D08739B1
100
AcDbEntity
  8
SUNPOU
 62
     0
100
AcDbCircle
 10
281.2562581246691
 20
201.2621172280598
 30
0.0
 40
1.0
100
AcDbArc
 50
83.99999999999828
 51
180.0
  0
LINE
  5
1BC42D0874136
330
1BC42D08739B1
100
AcDbEntity
  8
SUNPOU
 62
     0
100
AcDbLine
 10
279.910566380387
 20
202.2448424387456
 30
0.0
 11
280.2105663803869
 21
201.9448424387455
 31
0.0
  0
LINE
  5
1BC42D0874137
330
1BC42D08739B1
100
AcDbEntity
  8
SUNPOU
 62
     0
100
AcDbLine
 10
278.4474976474024
 20
202.2448424387455
 30
0.0
 11
279.910566380387
 21
202.2448424387456
 31
0.0
  0
LINE
  5
1BC42D0874138
330
1BC42D08739B1
100
AcDbEntity
  8
SUNPOU
 62
     0
100
AcDbLine
 10
290.0698885655716
 20
199.3948424387456
 30
0.0
 11
285.2105663803931
 21
199.3948424387456
 31
0.0
  0
ARC
  5
1BC42D0874139
330
1BC42D08739B1
100
AcDbEntity
  8
SUNPOU
 62
     0
100
AcDbCircle
 10
290.0698885655716
 20
198.8948424387456
 30
0.0
 40
0.5000000000000006
100
AcDbArc
 50
40.00000000000029
 51
90.0
  0
LINE
  5
1BC42D087413A
330
1BC42D08739B1
100
AcDbEntity
  8
SUNPOU
 62
     0
100
AcDbLine
 10
292.6517296614016
 20
200.0644049066996
 30
0.0
 11
292.7562581246688
 21
201.0589268020679
 31
0.0
  0
TEXT
  5
1BC42D087413D
330
1BC42D08739B1
100
AcDbEntity
  8
SUNPOU
100
AcDbText
 10
325.698068359798
 20
135.1231030160286
 30
0.0
 40
4.5
  1
1
  7
K
 72
     4
 11
327.5194969312266
 21
137.3731030160286
 31
0.0
100
AcDbText
  0
TEXT
  5
1BC42D0874144
330
1BC42D08739B1
100
AcDbEntity
  8
TEXT
100
AcDbText
 10
107.8999987415775
 20
268.5000003132848
 30
0.0
 40
3.0
  1
名      称
  7
K
 72
     4
 11
116.4999987415775
 21
270.0000003132848
 31
0.0
100
AcDbText
  0
TEXT
  5
1BC42D0874145
330
1BC42D08739B1
100
AcDbEntity
  8
TEXT
100
AcDbText
 10
102.6914273130061
 20
262.642857456142
 30
0.0
 40
3.0
  1
シーリングプレート HFQR
 41
0.6
  7
K
 72
     4
 11
116.4999987415775
 21
264.0000003132848
 31
0.0
100
AcDbText
  0
LINE
  5
1BC42D0874148
330
1BC42D08739B1
100
AcDbEntity
  8
JISSEN
100
AcDbLine
 10
101.4999987415775
 20
273.0000003132849
 30
0.0
 11
101.4999987415775
 21
261.0000003132848
 31
0.0
  0
LINE
  5
1BC42D0874149
330
1BC42D08739B1
100
AcDbEntity
  8
JISSEN
100
AcDbLine
 10
91.49999874157764
 20
261.0000003132848
 30
0.0
 11
91.49999874157764
 21
273.0000003132849
 31
0.0
  0
LINE
  5
1BC42D087414B
330
1BC42D08739B1
100
AcDbEntity
  8
SUNPOU
 62
     0
100
AcDbLine
 10
262.9474976474026
 20
231.0978109998609
 30
0.0
 11
263.6987876892177
 21
234.2642488318634
 31
0.0
  0
LINE
  5
1BC42D087414C
330
1BC42D08739B1
100
AcDbEntity
  8
SUNPOU
 62
     0
100
AcDbLine
 10
271.4760230357699
 20
230.3805475013779
 30
0.0
 11
271.6382218755495
 21
231.5658383847202
 31
0.0
  0
LINE
  5
1BC42D087414D
330
1BC42D08739B1
100
AcDbEntity
  8
SUNPOU
 62
     0
100
AcDbLine
 10
269.2953132145181
 20
231.1254131874914
 30
0.0
 11
269.5345503457122
 21
230.7933844852968
 31
0.0
  0
LINE
  5
1BC42D087414E
330
1BC42D08739B1
100
AcDbEntity
  8
SUNPOU
 62
     0
100
AcDbLine
 10
270.0611983915048
 20
229.7966052081452
 30
0.0
 11
270.3331867639345
 21
229.3065336163885
 31
0.0
  0
LINE
  5
1BC42D087414F
330
1BC42D08739B1
100
AcDbEntity
  8
SUNPOU
 62
     0
100
AcDbLine
 10
269.5345503457122
 20
230.7933844852968
 30
0.0
 11
269.7924158284024
 21
230.3213353283148
 31
0.0
  0
LINE
  5
1BC42D0874150
330
1BC42D08739B1
100
AcDbEntity
  8
SUNPOU
 62
     0
100
AcDbLine
 10
269.7924158284024
 20
230.3213353283148
 30
0.0
 11
270.0611983915048
 21
229.7966052081452
 31
0.0
  0
LINE
  5
1BC42D0874151
330
1BC42D08739B1
100
AcDbEntity
  8
SUNPOU
 62
     0
100
AcDbLine
 10
273.7913209055172
 20
222.92477695375
 30
0.0
 11
273.4474976474024
 21
222.92477695375
 31
0.0
  0
ARC
  5
1BC42D0874152
330
1BC42D08739B1
100
AcDbEntity
  8
SUNPOU
 62
     0
100
AcDbCircle
 10
273.7913209055172
 20
221.42477695375
 30
0.0
 40
1.5
100
AcDbArc
 50
13.00000000000027
 51
90.0
  0
LINE
  5
1BC42D0874153
330
1BC42D08739B1
100
AcDbEntity
  8
SUNPOU
 62
     0
100
AcDbLine
 10
270.8559358524373
 20
228.7797239845141
 30
0.0
 11
271.0912740263413
 21
228.9176649275971
 31
0.0
  0
LINE
  5
1BC42D0874154
330
1BC42D08739B1
100
AcDbEntity
  8
SUNPOU
 62
     0
100
AcDbLine
 10
271.2989729252345
 20
229.4396223654935
 30
0.0
 11
271.4760230357699
 21
230.3805475013779
 31
0.0
  0
LINE
  5
1BC42D0874155
330
1BC42D08739B1
100
AcDbEntity
  8
SUNPOU
 62
     0
100
AcDbLine
 10
271.0912740263413
 20
228.9176649275971
 30
0.0
 11
271.2989729252345
 21
229.4396223654935
 31
0.0
  0
LINE
  5
1BC42D0874156
330
1BC42D08739B1
100
AcDbEntity
  8
SUNPOU
 62
     0
100
AcDbLine
 10
270.3331867639345
 20
229.3065336163885
 30
0.0
 11
270.6006696746066
 21
228.9384600446448
 31
0.0
  0
LINE
  5
1BC42D0874157
330
1BC42D08739B1
100
AcDbEntity
  8
SUNPOU
 62
     0
100
AcDbLine
 10
270.6006696746066
 20
228.9384600446448
 30
0.0
 11
270.8559358524373
 21
228.7797239845141
 31
0.0
  0
LINE
  5
1BC42D0874158
330
1BC42D08739B1
100
AcDbEntity
  8
SUNPOU
 62
     0
100
AcDbLine
 10
264.3967134991133
 20
236.0694181996866
 30
0.0
 11
265.0409768477906
 21
236.7648735742981
 31
0.0
  0
LINE
  5
1BC42D0874159
330
1BC42D08739B1
100
AcDbEntity
  8
SUNPOU
 62
     0
100
AcDbLine
 10
265.6312795059506
 20
236.6021694266668
 30
0.0
 11
266.167323244294
 21
235.832860227761
 31
0.0
  0
LINE
  5
1BC42D087415A
330
1BC42D08739B1
100
AcDbEntity
  8
SUNPOU
 62
     0
100
AcDbLine
 10
266.167323244294
 20
235.832860227761
 30
0.0
 11
266.6488098335223
 21
234.7085004485493
 31
0.0
  0
LINE
  5
1BC42D087415B
330
1BC42D08739B1
100
AcDbEntity
  8
SUNPOU
 62
     0
100
AcDbLine
 10
263.6987876892177
 20
234.2642488318634
 30
0.0
 11
264.3967134991133
 21
236.0694181996866
 31
0.0
  0
LINE
  5
1BC42D087415C
330
1BC42D08739B1
100
AcDbEntity
  8
SUNPOU
 62
     0
100
AcDbLine
 10
267.7646981071487
 20
231.6656746607059
 30
0.0
 11
268.0372496622978
 21
231.2517435235559
 31
0.0
  0
LINE
  5
1BC42D087415D
330
1BC42D08739B1
100
AcDbEntity
  8
SUNPOU
 62
     0
100
AcDbLine
 10
268.0372496622978
 20
231.2517435235559
 30
0.0
 11
268.2747972453331
 21
231.0806820242587
 31
0.0
  0
LINE
  5
1BC42D087415E
330
1BC42D08739B1
100
AcDbEntity
  8
SUNPOU
 62
     0
100
AcDbLine
 10
268.2747972453331
 20
231.0806820242587
 30
0.0
 11
268.4875647887031
 21
231.0741185654404
 31
0.0
  0
LINE
  5
1BC42D087415F
330
1BC42D08739B1
100
AcDbEntity
  8
SUNPOU
 62
     0
100
AcDbLine
 10
268.4875647887031
 20
231.0741185654404
 30
0.0
 11
268.6857762248576
 21
231.153681549728
 31
0.0
  0
LINE
  5
1BC42D0874160
330
1BC42D08739B1
100
AcDbEntity
  8
SUNPOU
 62
     0
100
AcDbLine
 10
268.6857762248576
 20
231.153681549728
 30
0.0
 11
268.8796554862455
 21
231.240999379748
 31
0.0
  0
LINE
  5
1BC42D0874161
330
1BC42D08739B1
100
AcDbEntity
  8
SUNPOU
 62
     0
100
AcDbLine
 10
268.8796554862455
 20
231.240999379748
 30
0.0
 11
269.0794265053158
 21
231.2577004581269
 31
0.0
  0
LINE
  5
1BC42D0874162
330
1BC42D08739B1
100
AcDbEntity
  8
SUNPOU
 62
     0
100
AcDbLine
 10
269.0794265053158
 20
231.2577004581269
 30
0.0
 11
269.2953132145181
 21
231.1254131874914
 31
0.0
  0
LINE
  5
1BC42D0874163
330
1BC42D08739B1
100
AcDbEntity
  8
SUNPOU
 62
     0
100
AcDbLine
 10
267.075441044336
 20
233.48064456
 30
0.0
 11
267.4469186474361
 21
232.4008470330817
 31
0.0
  0
LINE
  5
1BC42D0874164
330
1BC42D08739B1
100
AcDbEntity
  8
SUNPOU
 62
     0
100
AcDbLine
 10
267.4469186474361
 20
232.4008470330817
 30
0.0
 11
267.7646981071487
 21
231.6656746607059
 31
0.0
  0
LINE
  5
1BC42D0874165
330
1BC42D08739B1
100
AcDbEntity
  8
SUNPOU
 62
     0
100
AcDbLine
 10
266.6488098335223
 20
234.7085004485493
 30
0.0
 11
267.075441044336
 21
233.48064456
 31
0.0
  0
LINE
  5
1BC42D0874166
330
1BC42D08739B1
100
AcDbEntity
  8
SUNPOU
 62
     0
100
AcDbLine
 10
265.0409768477906
 20
236.7648735742981
 30
0.0
 11
265.6312795059506
 21
236.6021694266668
 31
0.0
  0
LINE
  5
1BC42D0874167
330
1BC42D08739B1
100
AcDbEntity
  8
SUNPOU
 62
     0
100
AcDbLine
 10
272.9439216500159
 20
233.2131206498447
 30
0.0
 11
273.4474976474026
 21
231.0978109998609
 31
0.0
  0
LINE
  5
1BC42D0874168
330
1BC42D08739B1
100
AcDbEntity
  8
SUNPOU
 62
     0
100
AcDbLine
 10
272.5484900339137
 20
234.2108546135511
 30
0.0
 11
272.9439216500159
 21
233.2131206498447
 31
0.0
  0
LINE
  5
1BC42D0874169
330
1BC42D08739B1
100
AcDbEntity
  8
SUNPOU
 62
     0
100
AcDbLine
 10
271.6382218755495
 20
231.5658383847202
 30
0.0
 11
271.8060687199139
 21
232.7685047765646
 31
0.0
  0
LINE
  5
1BC42D087416A
330
1BC42D08739B1
100
AcDbEntity
  8
SUNPOU
 62
     0
100
AcDbLine
 10
271.8060687199139
 20
232.7685047765646
 30
0.0
 11
272.0000628442026
 21
233.761556437955
 31
0.0
  0
LINE
  5
1BC42D087416B
330
1BC42D08739B1
100
AcDbEntity
  8
SUNPOU
 62
     0
100
AcDbLine
 10
272.0000628442026
 20
233.761556437955
 30
0.0
 11
272.240703523756
 21
234.3180031299358
 31
0.0
  0
LINE
  5
1BC42D087416C
330
1BC42D08739B1
100
AcDbEntity
  8
SUNPOU
 62
     0
100
AcDbLine
 10
272.240703523756
 20
234.3180031299358
 30
0.0
 11
272.5484900339137
 21
234.2108546135511
 31
0.0
  0
TEXT
  5
1BC42D087416D
330
1BC42D08739B1
100
AcDbEntity
  8
TEXT
100
AcDbText
 10
93.29999874157763
 20
268.5000003132848
 30
0.0
 40
3.0
  1
番号
  7
K
 72
     4
 11
96.49999874157764
 21
270.0000003132848
 31
0.0
100
AcDbText
  0
LINE
  5
1BC42D087416E
330
1BC42D08739B1
100
AcDbEntity
  8
JISSEN
100
AcDbLine
 10
131.4999987415776
 20
273.0000003132849
 30
0.0
 11
131.4999987415776
 21
261.0000003132848
 31
0.0
  0
TEXT
  5
1BC42D087416F
330
1BC42D08739B1
100
AcDbEntity
  8
TEXT
100
AcDbText
 10
156.6795472279868
 20
262.5000003132849
 30
0.0
 40
3.0
  1
1
  7
K
 72
     4
 11
157.8938329422725
 21
264.0000003132848
 31
0.0
100
AcDbText
  0
LINE
  5
1BC42D0874170
330
1BC42D08739B1
100
AcDbEntity
  8
JISSEN
100
AcDbLine
 10
163.4999987415776
 20
273.0000003132849
 30
0.0
 11
163.4999987415776
 21
261.0000003132848
 31
0.0
  0
LINE
  5
1BC42D0874171
330
1BC42D08739B1
100
AcDbEntity
  8
JISSEN
100
AcDbLine
 10
152.4999987415776
 20
261.0000003132848
 30
0.0
 11
152.4999987415776
 21
273.0000003132849
 31
0.0
  0
TEXT
  5
1BC42D0874173
330
1BC42D08739B1
100
AcDbEntity
  8
TEXT
100
AcDbText
 10
137.6428558844347
 20
262.5000003132849
 30
0.0
 40
3.0
  1
PBT
  7
K
 72
     4
 11
141.9999987415776
 21
264.0000003132848
 31
0.0
100
AcDbText
  0
TEXT
  5
1BC42D0874175
330
1BC42D08739B1
100
AcDbEntity
  8
TEXT
100
AcDbText
 10
135.1999987415775
 20
268.5000003132848
 30
0.0
 40
3.0
  1
材    質
  7
K
 72
     4
 11
141.9999987415776
 21
270.0000003132848
 31
0.0
100
AcDbText
  0
TEXT
  5
1BC42D0874176
330
1BC42D08739B1
100
AcDbEntity
  8
TEXT
100
AcDbText
 10
165.6999987415775
 20
268.5000003132848
 30
0.0
 40
3.0
  1
備    考
  7
K
 72
     4
 11
172.4999987415776
 21
270.0000003132848
 31
0.0
100
AcDbText
  0
TEXT
  5
1BC42D0874177
330
1BC42D08739B1
100
AcDbEntity
  8
TEXT
100
AcDbText
 10
154.7999987415776
 20
268.5000003132848
 30
0.0
 40
3.0
  1
個数
  7
K
 72
     4
 11
157.9999987415775
 21
270.0000003132848
 31
0.0
100
AcDbText
  0
LWPOLYLINE
  5
1BC42D0874178
330
1BC42D08739B1
100
AcDbEntity
  8
WAKU
100
AcDbPolyline
 90
        4
 70
     1
 43
0.0
 10
180.999999
 20
0.0
 10
361.999998
 20
0.0
 10
361.999998
 20
273.0
 10
180.999999
 20
273.0
  0
TEXT
  5
1BC42D08741B7
330
1BC42D08739B1
100
AcDbEntity
  8
SUNPOU
100
AcDbText
 10
132.9704392660608
 20
7.849424012312852
 30
0.0
 40
3.0
  1
シーリングプレート HFQR
  7
K
100
AcDbText
  0
TEXT
  5
1BC42D08741B8
330
1BC42D08739B1
100
AcDbEntity
  8
SUNPOU
100
AcDbText
 10
132.9704392660608
 20
2.849424012312852
 30
0.0
 40
3.0
  1
尺度　1/1
  7
K
100
AcDbText
  0
CIRCLE
  5
1BC42D087432C
330
1BC42D08739B1
100
AcDbEntity
  8
JISSEN
100
AcDbCircle
 10
124.9935679999999
 20
93.98938300000001
 30
0.0
 40
37.5
  0
LINE
  5
1BC42D087432F
330
1BC42D08739B1
100
AcDbEntity
  8
JISSEN
100
AcDbLine
 10
53.61515500000002
 20
116.489383
 30
0.0
 11
50.42053299999998
 21
130.3268099999999
 31
0.0
  0
LINE
  5
1BC42D0874338
330
1BC42D08739B1
100
AcDbEntity
  8
JISSEN
100
AcDbLine
 10
48.61515500000002
 20
93.48938299999998
 30
0.0
 11
33.61515500000001
 21
93.239383
 31
0.0
  0
LINE
  5
1BC42D0874339
330
1BC42D08739B1
100
AcDbEntity
  8
JISSEN
100
AcDbLine
 10
48.61515500000002
 20
73.23938299999999
 30
0.0
 11
33.61515500000001
 21
73.23938299999999
 31
0.0
  0
LINE
  5
1BC42D087433D
330
1BC42D08739B1
100
AcDbEntity
  8
JISSEN
100
AcDbLine
 10
33.61515500000001
 20
77.124853
 30
0.0
 11
34.35446799999999
 21
77.49477299999998
 31
0.0
  0
LINE
  5
1BC42D0874343
330
1BC42D08739B1
100
AcDbEntity
  8
JISSEN
100
AcDbLine
 10
33.61515500000001
 20
77.50189299999998
 30
0.0
 11
37.52917999999999
 21
77.46419999999997
 31
0.0
  0
LINE
  5
1BC42D0874344
330
1BC42D08739B1
100
AcDbEntity
  8
JISSEN
100
AcDbLine
 10
33.61515500000001
 20
76.69523000000002
 30
0.0
 11
37.53982300000001
 21
76.73295099999998
 31
0.0
  0
LINE
  5
1BC42D087434F
330
1BC42D08739B1
100
AcDbEntity
  8
JISSEN
100
AcDbLine
 10
54.11515500000001
 20
111.9893829999998
 30
0.0
 11
64.61515500000001
 21
111.9893829999998
 31
0.0
  0
LINE
  5
1BC42D0874350
330
1BC42D08739B1
100
AcDbEntity
  8
JISSEN
100
AcDbLine
 10
64.61515500000001
 20
110.9893829999998
 30
0.0
 11
53.61515500000002
 21
110.9893829999998
 31
0.0
  0
LINE
  5
1BC42D0874352
330
1BC42D08739B1
100
AcDbEntity
  8
JISSEN
100
AcDbLine
 10
48.61515500000002
 20
56.48938300000001
 30
0.0
 11
48.61515500000006
 21
131.489383
 31
0.0
  0
LINE
  5
1BC42D0874353
330
1BC42D08739B1
100
AcDbEntity
  8
JISSEN
100
AcDbLine
 10
53.61515500000002
 20
110.9893829999998
 30
0.0
 11
53.61515500000002
 21
71.48938300000001
 31
0.0
  0
LINE
  5
1BC42D0874354
330
1BC42D08739B1
100
AcDbEntity
  8
JISSEN
100
AcDbLine
 10
42.03757799999999
 20
77.420784
 30
0.0
 11
48.61515500000002
 21
77.35744
 31
0.0
  0
LINE
  5
1BC42D0874355
330
1BC42D08739B1
100
AcDbEntity
  8
JISSEN
100
AcDbLine
 10
42.03757799999999
 20
76.77618099999998
 30
0.0
 11
48.61515500000002
 21
76.83940099999998
 31
0.0
  0
LINE
  5
1BC42D0874356
330
1BC42D08739B1
100
AcDbEntity
  8
JISSEN
100
AcDbLine
 10
37.46907900000002
 20
77.46477899999998
 30
0.0
 11
42.04139399999997
 21
77.42074699999998
 31
0.0
  0
LINE
  5
1BC42D0874357
330
1BC42D08739B1
100
AcDbEntity
  8
JISSEN
100
AcDbLine
 10
37.46907900000002
 20
76.73227199999998
 30
0.0
 11
42.09313300000002
 21
76.77671499999998
 31
0.0
  0
LINE
  5
1BC42D0874358
330
1BC42D08739B1
100
AcDbEntity
  8
JISSEN
100
AcDbLine
 10
53.61515500000002
 20
71.48938300000001
 30
0.0
 11
50.42053299999998
 21
57.65195700000001
 31
0.0
  0
ARC
  5
1BC42D0874359
330
1BC42D08739B1
100
AcDbEntity
  8
JISSEN
100
AcDbCircle
 10
48.958978
 20
57.98938299999999
 30
0.0
 40
1.5
100
AcDbArc
 50
270.0
 51
347.0000000000002
  0
LINE
  5
1BC42D087435A
330
1BC42D08739B1
100
AcDbEntity
  8
JISSEN
100
AcDbLine
 10
48.958978
 20
56.48938300000001
 30
0.0
 11
48.61515500000002
 21
56.48938300000001
 31
0.0
  0
LINE
  5
1BC42D087435B
330
1BC42D08739B1
100
AcDbEntity
  8
JISSEN
100
AcDbLine
 10
48.61515500000002
 20
77.35744
 30
0.0
 11
48.61515500000002
 21
76.83940099999998
 31
0.0
  0
LINE
  5
1BC42D0874392
330
1BC42D08739B1
100
AcDbEntity
  8
JISSEN
100
AcDbLine
 10
48.61515500000002
 20
94.489383
 30
0.0
 11
48.61515500000002
 21
93.48938299999998
 31
0.0
  0
LINE
  5
1BC42D0874395
330
1BC42D08739B1
100
AcDbEntity
  8
JISSEN
100
AcDbLine
 10
53.61515500000002
 20
116.489383
 30
0.0
 11
53.61515500000002
 21
110.9893829999998
 31
0.0
  0
ARC
  5
1BC42D087439A
330
1BC42D08739B1
100
AcDbEntity
  8
JISSEN
100
AcDbCircle
 10
54.11515500000001
 20
112.4893829999999
 30
0.0
 40
0.5
100
AcDbArc
 50
180.0
 51
270.0
  0
LINE
  5
1BC42D08743A1
330
1BC42D08739B1
100
AcDbEntity
  8
JISSEN
100
AcDbLine
 10
64.61515500000001
 20
111.9893829999998
 30
0.0
 11
64.61515500000001
 21
110.9893829999998
 31
0.0
  0
LINE
  5
1BC42D08743A9
330
1BC42D08739B1
100
AcDbEntity
  8
JISSEN
100
AcDbLine
 10
48.61515500000002
 20
229.3076019999999
 30
0.0
 11
33.61515500000001
 21
229.3076019999999
 31
0.0
  0
LINE
  5
1BC42D08743AB
330
1BC42D08739B1
100
AcDbEntity
  8
JISSEN
100
AcDbLine
 10
48.61515500000002
 20
187.8076019999999
 30
0.0
 11
33.61515500000001
 21
187.8076019999999
 31
0.0
  0
LINE
  5
1BC42D08743AC
330
1BC42D08739B1
100
AcDbEntity
  8
JISSEN
100
AcDbLine
 10
48.61515500000002
 20
199.3376659999999
 30
0.0
 11
33.61515500000001
 21
199.1142729999999
 31
0.0
  0
LINE
  5
1BC42D08743AD
330
1BC42D08739B1
100
AcDbEntity
  8
JISSEN
100
AcDbLine
 10
33.61515500000001
 20
200.473734
 30
0.0
 11
48.61515500000002
 21
200.2439729999999
 31
0.0
  0
LINE
  5
1BC42D08743AE
330
1BC42D08739B1
100
AcDbEntity
  8
JISSEN
100
AcDbLine
 10
33.61515500000001
 20
192.5576019999999
 30
0.0
 11
48.61515500000002
 21
192.5576019999999
 31
0.0
  0
LINE
  5
1BC42D08743AF
330
1BC42D08739B1
100
AcDbEntity
  8
JISSEN
100
AcDbLine
 10
33.61515500000001
 20
224.5576019999999
 30
0.0
 11
48.61515500000002
 21
224.5576019999999
 31
0.0
  0
LINE
  5
1BC42D08743B0
330
1BC42D08739B1
100
AcDbEntity
  8
JISSEN
100
AcDbLine
 10
33.61515500000001
 20
199.325723
 30
0.0
 11
34.91419300000001
 21
199.6429129999999
 31
0.0
  0
LINE
  5
1BC42D08743B1
330
1BC42D08739B1
100
AcDbEntity
  8
JISSEN
100
AcDbLine
 10
33.61515500000001
 20
198.234691
 30
0.0
 11
48.61515500000002
 21
198.234691
 31
0.0
  0
LINE
  5
1BC42D08743B2
330
1BC42D08739B1
100
AcDbEntity
  8
JISSEN
100
AcDbLine
 10
33.61515500000001
 20
218.8805139999999
 30
0.0
 11
48.61515500000002
 21
218.8805139999999
 31
0.0
  0
LINE
  5
1BC42D08743B3
330
1BC42D08739B1
100
AcDbEntity
  8
JISSEN
100
AcDbLine
 10
33.61515500000001
 20
217.789481
 30
0.0
 11
34.91419300000001
 21
217.4722909999999
 31
0.0
  0
LINE
  5
1BC42D08743B4
330
1BC42D08739B1
100
AcDbEntity
  8
JISSEN
100
AcDbLine
 10
33.61515500000001
 20
216.64147
 30
0.0
 11
48.61515500000002
 21
216.871231
 31
0.0
  0
LINE
  5
1BC42D08743B5
330
1BC42D08739B1
100
AcDbEntity
  8
JISSEN
100
AcDbLine
 10
48.61515500000002
 20
217.7775389999999
 30
0.0
 11
33.61515500000001
 21
218.0009319999999
 31
0.0
  0
LINE
  5
1BC42D08743B6
330
1BC42D08739B1
100
AcDbEntity
  8
JISSEN
100
AcDbLine
 10
33.61515500000001
 20
200.473734
 30
0.0
 11
33.61515500000001
 21
216.64147
 31
0.0
  0
LINE
  5
1BC42D08743B7
330
1BC42D08739B1
100
AcDbEntity
  8
JISSEN
100
AcDbLine
 10
33.61515500000001
 20
187.8076019999999
 30
0.0
 11
33.61515500000001
 21
199.325723
 31
0.0
  0
LINE
  5
1BC42D08743B8
330
1BC42D08739B1
100
AcDbEntity
  8
JISSEN
100
AcDbLine
 10
33.61515500000001
 20
217.789481
 30
0.0
 11
33.61515500000001
 21
229.3076019999999
 31
0.0
  0
LINE
  5
1BC42D08743B9
330
1BC42D08739B1
100
AcDbEntity
  8
JISSEN
100
AcDbLine
 10
48.61515500000002
 20
246.0576019999999
 30
0.0
 11
48.61515500000002
 21
208.5576019999999
 31
0.0
  0
LINE
  5
1BC42D08743BA
330
1BC42D08739B1
100
AcDbEntity
  8
JISSEN
100
AcDbLine
 10
53.61515500000002
 20
231.0576019999999
 30
0.0
 11
53.61515500000002
 21
208.5576019999999
 31
0.0
  0
LINE
  5
1BC42D08743BE
330
1BC42D08739B1
100
AcDbEntity
  8
JISSEN
100
AcDbLine
 10
55.86572899999999
 20
200.4769809999999
 30
0.0
 11
63.48986700000001
 21
198.510045
 31
0.0
  0
LINE
  5
1BC42D08743BF
330
1BC42D08739B1
100
AcDbEntity
  8
JISSEN
100
AcDbLine
 10
53.61515500000002
 20
195.5576019999999
 30
0.0
 11
63.11515500000002
 21
195.5576019999999
 31
0.0
  0
ARC
  5
1BC42D08743C5
330
1BC42D08739B1
100
AcDbEntity
  8
JISSEN
100
AcDbCircle
 10
48.958978
 20
129.989383
 30
0.0
 40
1.5
100
AcDbArc
 50
12.99999999999965
 51
90.0
  0
LINE
  5
1BC42D08743C6
330
1BC42D08739B1
100
AcDbEntity
  8
JISSEN
100
AcDbLine
 10
48.958978
 20
131.489383
 30
0.0
 11
48.61515500000002
 21
131.489383
 31
0.0
  0
LINE
  5
1BC42D08743CC
330
1BC42D08739B1
100
AcDbEntity
  8
JISSEN
100
AcDbLine
 10
43.281003
 20
199.7792079999999
 30
0.0
 11
48.61515500000002
 21
199.8661019999999
 31
0.0
  0
LINE
  5
1BC42D08743CD
330
1BC42D08739B1
100
AcDbEntity
  8
JISSEN
100
AcDbLine
 10
38.92381799999997
 20
199.70823
 30
0.0
 11
42.38607200000001
 21
199.76463
 31
0.0
  0
LINE
  5
1BC42D08743CE
330
1BC42D08739B1
100
AcDbEntity
  8
JISSEN
100
AcDbLine
 10
34.91419300000001
 20
199.6429129999999
 30
0.0
 11
37.70570399999996
 21
199.6883869999999
 31
0.0
  0
ARC
  5
1BC42D08743CF
330
1BC42D08739B1
100
AcDbEntity
  8
JISSEN
100
AcDbCircle
 10
38.115155
 20
199.554383
 30
0.0
 40
0.3
100
AcDbArc
 50
124.0871270000008
 51
133.6745709999997
  0
LINE
  5
1BC42D08743D0
330
1BC42D08739B1
100
AcDbEntity
  8
JISSEN
100
AcDbLine
 10
37.94701900000001
 20
199.8028389999999
 30
0.0
 11
38.41836599999999
 21
199.8028389999999
 31
0.0
  0
LINE
  5
1BC42D08743D1
330
1BC42D08739B1
100
AcDbEntity
  8
JISSEN
100
AcDbLine
 10
38.92381799999997
 20
199.70823
 30
0.0
 11
38.41836599999999
 21
199.8028389999999
 31
0.0
  0
ARC
  5
1BC42D08743D2
330
1BC42D08739B1
100
AcDbEntity
  8
JISSEN
100
AcDbCircle
 10
37.70081800000002
 20
199.988347
 30
0.0
 40
0.3
100
AcDbArc
 50
270.933265999999
 51
313.6745709999997
  0
LINE
  5
1BC42D08743D3
330
1BC42D08739B1
100
AcDbEntity
  8
JISSEN
100
AcDbLine
 10
42.54123500000003
 20
199.8028389999999
 30
0.0
 11
42.80784699999997
 21
199.8028389999999
 31
0.0
  0
ARC
  5
1BC42D08743D4
330
1BC42D08739B1
100
AcDbEntity
  8
JISSEN
100
AcDbCircle
 10
42.615155
 20
199.5120879999999
 30
0.0
 40
0.3
100
AcDbArc
 50
104.2645569999995
 51
112.9512779999992
  0
ARC
  5
1BC42D08743D5
330
1BC42D08739B1
100
AcDbEntity
  8
JISSEN
100
AcDbCircle
 10
42.615155
 20
199.5120879999999
 30
0.0
 40
0.3
100
AcDbArc
 50
74.8778319999999
 51
75.73544300000033
  0
ARC
  5
1BC42D08743D6
330
1BC42D08739B1
100
AcDbEntity
  8
JISSEN
100
AcDbCircle
 10
42.381186
 20
200.0645899999999
 30
0.0
 40
0.3
100
AcDbArc
 50
270.933265999999
 51
292.9512779999992
  0
LINE
  5
1BC42D08743D7
330
1BC42D08739B1
100
AcDbEntity
  8
JISSEN
100
AcDbLine
 10
43.281003
 20
199.7792079999999
 30
0.0
 11
42.80784699999997
 21
199.8028389999999
 31
0.0
  0
LINE
  5
1BC42D08743D8
330
1BC42D08739B1
100
AcDbEntity
  8
JISSEN
100
AcDbLine
 10
48.61515500000002
 20
171.0576019999999
 30
0.0
 11
48.61515500000002
 21
208.5576019999999
 31
0.0
  0
LINE
  5
1BC42D08743D9
330
1BC42D08739B1
100
AcDbEntity
  8
JISSEN
100
AcDbLine
 10
53.61515500000002
 20
208.5576019999999
 30
0.0
 11
53.61515500000002
 21
186.0576019999999
 31
0.0
  0
LINE
  5
1BC42D08743DA
330
1BC42D08739B1
100
AcDbEntity
  8
JISSEN
100
AcDbLine
 10
53.61515500000002
 20
186.0576019999999
 30
0.0
 11
50.42053299999998
 21
172.220176
 31
0.0
  0
ARC
  5
1BC42D08743DB
330
1BC42D08739B1
100
AcDbEntity
  8
JISSEN
100
AcDbCircle
 10
48.958978
 20
172.5576019999999
 30
0.0
 40
1.5
100
AcDbArc
 50
270.0
 51
347.0000000000002
  0
LINE
  5
1BC42D08743DC
330
1BC42D08739B1
100
AcDbEntity
  8
JISSEN
100
AcDbLine
 10
48.958978
 20
171.0576019999999
 30
0.0
 11
48.61515500000002
 21
171.0576019999999
 31
0.0
  0
ARC
  5
1BC42D08743DD
330
1BC42D08739B1
100
AcDbEntity
  8
JISSEN
100
AcDbCircle
 10
56.61515500000001
 20
203.3818669999999
 30
0.0
 40
3.0
100
AcDbArc
 50
180.0
 51
255.5338180000009
  0
LINE
  5
1BC42D08743DE
330
1BC42D08739B1
100
AcDbEntity
  8
JISSEN
100
AcDbLine
 10
48.61515500000002
 20
200.2439729999999
 30
0.0
 11
48.61515500000002
 21
199.3376659999999
 31
0.0
  0
ARC
  5
1BC42D08743E3
330
1BC42D08739B1
100
AcDbEntity
  8
JISSEN
100
AcDbCircle
 10
63.11515500000002
 20
197.0576019999999
 30
0.0
 40
1.5
100
AcDbArc
 50
270.0
 51
75.53381800000095
  0
LINE
  5
1BC42D08743E5
330
1BC42D08739B1
100
AcDbEntity
  8
JISSEN
100
AcDbLine
 10
53.61515500000002
 20
221.5576019999999
 30
0.0
 11
63.11515500000002
 21
221.5576019999999
 31
0.0
  0
LINE
  5
1BC42D08743E6
330
1BC42D08739B1
100
AcDbEntity
  8
JISSEN
100
AcDbLine
 10
55.86572899999999
 20
216.6382229999999
 30
0.0
 11
63.48986700000001
 21
218.6051589999999
 31
0.0
  0
LINE
  5
1BC42D08743E7
330
1BC42D08739B1
100
AcDbEntity
  8
JISSEN
100
AcDbLine
 10
43.281003
 20
217.3359959999999
 30
0.0
 11
48.61515500000002
 21
217.2491029999999
 31
0.0
  0
LINE
  5
1BC42D08743E8
330
1BC42D08739B1
100
AcDbEntity
  8
JISSEN
100
AcDbLine
 10
38.92381799999997
 20
217.406975
 30
0.0
 11
42.38607200000001
 21
217.3505739999999
 31
0.0
  0
LINE
  5
1BC42D08743E9
330
1BC42D08739B1
100
AcDbEntity
  8
JISSEN
100
AcDbLine
 10
34.91419300000001
 20
217.4722909999999
 30
0.0
 11
37.70570399999996
 21
217.4268179999998
 31
0.0
  0
ARC
  5
1BC42D08743EA
330
1BC42D08739B1
100
AcDbEntity
  8
JISSEN
100
AcDbCircle
 10
37.70081800000002
 20
217.126858
 30
0.0
 40
0.3
100
AcDbArc
 50
46.32542900000014
 51
89.06673400000087
  0
LINE
  5
1BC42D08743EB
330
1BC42D08739B1
100
AcDbEntity
  8
JISSEN
100
AcDbLine
 10
38.92381799999997
 20
217.406975
 30
0.0
 11
38.41836599999999
 21
217.3123659999999
 31
0.0
  0
LINE
  5
1BC42D08743EC
330
1BC42D08739B1
100
AcDbEntity
  8
JISSEN
100
AcDbLine
 10
37.94701900000001
 20
217.3123659999999
 30
0.0
 11
38.41836599999999
 21
217.3123659999999
 31
0.0
  0
ARC
  5
1BC42D08743ED
330
1BC42D08739B1
100
AcDbEntity
  8
JISSEN
100
AcDbCircle
 10
38.115155
 20
217.5608219999999
 30
0.0
 40
0.3
100
AcDbArc
 50
226.3254290000001
 51
235.9128729999991
  0
LINE
  5
1BC42D08743EE
330
1BC42D08739B1
100
AcDbEntity
  8
JISSEN
100
AcDbLine
 10
42.54123500000003
 20
217.3123659999999
 30
0.0
 11
42.80784699999997
 21
217.3123659999999
 31
0.0
  0
ARC
  5
1BC42D08743EF
330
1BC42D08739B1
100
AcDbEntity
  8
JISSEN
100
AcDbCircle
 10
42.381186
 20
217.050614
 30
0.0
 40
0.3
100
AcDbArc
 50
67.04872200000075
 51
89.06673400000087
  0
ARC
  5
1BC42D08743F0
330
1BC42D08739B1
100
AcDbEntity
  8
JISSEN
100
AcDbCircle
 10
42.615155
 20
217.6031159999999
 30
0.0
 40
0.3
100
AcDbArc
 50
284.2645569999996
 51
285.122168
  0
ARC
  5
1BC42D08743F1
330
1BC42D08739B1
100
AcDbEntity
  8
JISSEN
100
AcDbCircle
 10
42.615155
 20
217.6031159999999
 30
0.0
 40
0.3
100
AcDbArc
 50
247.0487220000006
 51
255.7354430000002
  0
LINE
  5
1BC42D08743F2
330
1BC42D08739B1
100
AcDbEntity
  8
JISSEN
100
AcDbLine
 10
43.281003
 20
217.3359959999999
 30
0.0
 11
42.80784699999997
 21
217.3123659999999
 31
0.0
  0
LINE
  5
1BC42D08743F3
330
1BC42D08739B1
100
AcDbEntity
  8
JISSEN
100
AcDbLine
 10
53.61515500000002
 20
231.0576019999999
 30
0.0
 11
50.42053299999998
 21
244.8950289999999
 31
0.0
  0
ARC
  5
1BC42D08743F4
330
1BC42D08739B1
100
AcDbEntity
  8
JISSEN
100
AcDbCircle
 10
56.61515500000001
 20
213.7333379999999
 30
0.0
 40
3.0
100
AcDbArc
 50
104.466181999999
 51
180.0
  0
LINE
  5
1BC42D08743F5
330
1BC42D08739B1
100
AcDbEntity
  8
JISSEN
100
AcDbLine
 10
48.61515500000002
 20
216.871231
 30
0.0
 11
48.61515500000002
 21
217.7775389999999
 31
0.0
  0
ARC
  5
1BC42D08743F6
330
1BC42D08739B1
100
AcDbEntity
  8
JISSEN
100
AcDbCircle
 10
48.958978
 20
244.5576019999999
 30
0.0
 40
1.5
100
AcDbArc
 50
12.99999999999965
 51
90.0
  0
LINE
  5
1BC42D08743F7
330
1BC42D08739B1
100
AcDbEntity
  8
JISSEN
100
AcDbLine
 10
48.958978
 20
246.0576019999999
 30
0.0
 11
48.61515500000002
 21
246.0576019999999
 31
0.0
  0
ARC
  5
1BC42D08743FA
330
1BC42D08739B1
100
AcDbEntity
  8
JISSEN
100
AcDbCircle
 10
63.11515500000002
 20
220.0576019999999
 30
0.0
 40
1.5
100
AcDbArc
 50
284.466181999999
 51
90.0
  0
ARC
  5
1BC42D08743FD
330
1BC42D08739B1
100
AcDbEntity
  8
SAISEN
100
AcDbCircle
 10
124.9935679999999
 20
93.98938300000001
 30
0.0
 40
22.5
100
AcDbArc
 50
131.8103149999992
 51
48.18968500000068
  0
LINE
  5
1BC42D08743FE
330
1BC42D08739B1
100
AcDbEntity
  8
JISSEN
100
AcDbLine
 10
109.9935679999999
 20
110.9893829999998
 30
0.0
 11
139.9935679999998
 21
110.9893829999998
 31
0.0
  0
ARC
  5
1BC42D08743FF
330
1BC42D08739B1
100
AcDbEntity
  8
JISSEN
100
AcDbCircle
 10
124.9935679999999
 20
93.98938300000001
 30
0.0
 40
17.0
100
AcDbArc
 50
151.9275129999991
 51
28.07248699999923
  0
LINE
  5
1BC42D0874400
330
1BC42D08739B1
100
AcDbEntity
  8
JISSEN
100
AcDbLine
 10
111.8219349999999
 20
111.9941769999999
 30
0.0
 11
119.6776559999999
 21
111.9941769999999
 31
0.0
  0
ARC
  5
1BC42D0874401
330
1BC42D08739B1
100
AcDbEntity
  8
SAISEN
100
AcDbCircle
 10
124.9935679999999
 20
93.98938300000001
 30
0.0
 40
22.5
100
AcDbArc
 50
49.07393699999942
 51
130.9260630000006
  0
LINE
  5
1BC42D0874402
330
1BC42D08739B1
100
AcDbEntity
  8
JISSEN
100
AcDbLine
 10
109.9935679999999
 20
101.989383
 30
0.0
 11
109.9935679999999
 21
110.9893829999998
 31
0.0
  0
LINE
  5
1BC42D0874403
330
1BC42D08739B1
100
AcDbEntity
  8
JISSEN
100
AcDbLine
 10
111.8219349999999
 20
111.9941769999999
 30
0.0
 11
111.8219349999999
 21
110.9893829999998
 31
0.0
  0
LINE
  5
1BC42D0874404
330
1BC42D08739B1
100
AcDbEntity
  8
JISSEN
100
AcDbLine
 10
130.3448419999999
 20
111.9941769999999
 30
0.0
 11
137.8498129999998
 21
111.9941769999999
 31
0.0
  0
LINE
  5
1BC42D0874405
330
1BC42D08739B1
100
AcDbEntity
  8
JISSEN
100
AcDbLine
 10
119.6776559999999
 20
111.9941769999999
 30
0.0
 11
119.6776559999999
 21
110.9893829999998
 31
0.0
  0
LINE
  5
1BC42D0874406
330
1BC42D08739B1
100
AcDbEntity
  8
JISSEN
100
AcDbLine
 10
130.3448419999999
 20
111.9941769999999
 30
0.0
 11
130.3448419999999
 21
110.9893829999998
 31
0.0
  0
LINE
  5
1BC42D0874407
330
1BC42D08739B1
100
AcDbEntity
  8
JISSEN
100
AcDbLine
 10
139.9935679999998
 20
110.9893829999998
 30
0.0
 11
139.9935679999998
 21
101.989383
 31
0.0
  0
LINE
  5
1BC42D0874408
330
1BC42D08739B1
100
AcDbEntity
  8
JISSEN
100
AcDbLine
 10
137.8498129999998
 20
111.9941769999999
 30
0.0
 11
137.8498129999998
 21
110.9893829999998
 31
0.0
  0
LINE
  5
1BC42D0874415
330
1BC42D08739B1
100
AcDbEntity
  8
JISSEN
100
AcDbLine
 10
33.61515500000001
 20
114.7393829999999
 30
0.0
 11
48.61515500000002
 21
114.739383
 31
0.0
  0
LINE
  5
1BC42D0874416
330
1BC42D08739B1
100
AcDbEntity
  8
JISSEN
100
AcDbLine
 10
42.03757799999999
 20
111.2025849999999
 30
0.0
 11
48.61515500000002
 21
111.1393649999999
 31
0.0
  0
LINE
  5
1BC42D0874417
330
1BC42D08739B1
100
AcDbEntity
  8
JISSEN
100
AcDbLine
 10
42.03757799999999
 20
110.5579819999999
 30
0.0
 11
48.61515500000002
 21
110.6213259999999
 31
0.0
  0
LINE
  5
1BC42D0874418
330
1BC42D08739B1
100
AcDbEntity
  8
JISSEN
100
AcDbLine
 10
48.61515500000002
 20
94.489383
 30
0.0
 11
33.61515500000001
 21
94.73938299999998
 31
0.0
  0
LINE
  5
1BC42D0874419
330
1BC42D08739B1
100
AcDbEntity
  8
JISSEN
100
AcDbLine
 10
37.46907900000002
 20
111.2464939999999
 30
0.0
 11
42.09313300000002
 21
111.2020509999998
 31
0.0
  0
LINE
  5
1BC42D087441A
330
1BC42D08739B1
100
AcDbEntity
  8
JISSEN
100
AcDbLine
 10
37.46907900000002
 20
110.5139869999999
 30
0.0
 11
42.04139399999997
 21
110.5580189999999
 31
0.0
  0
LINE
  5
1BC42D087441B
330
1BC42D08739B1
100
AcDbEntity
  8
JISSEN
100
AcDbLine
 10
33.61515500000001
 20
111.2835359999998
 30
0.0
 11
37.53982300000001
 21
111.2458149999999
 31
0.0
  0
LINE
  5
1BC42D087441C
330
1BC42D08739B1
100
AcDbEntity
  8
JISSEN
100
AcDbLine
 10
33.61515500000001
 20
110.4768729999999
 30
0.0
 11
37.52917999999999
 21
110.5145659999999
 31
0.0
  0
LINE
  5
1BC42D087441D
330
1BC42D08739B1
100
AcDbEntity
  8
JISSEN
100
AcDbLine
 10
33.61515500000001
 20
110.8539129999999
 30
0.0
 11
34.35446799999999
 21
110.4839929999998
 31
0.0
  0
LINE
  5
1BC42D087441E
330
1BC42D08739B1
100
AcDbEntity
  8
JISSEN
100
AcDbLine
 10
48.61515500000002
 20
110.6213259999999
 30
0.0
 11
48.61515500000002
 21
111.1393649999999
 31
0.0
  0
LINE
  5
1BC42D087441F
330
1BC42D08739B1
100
AcDbEntity
  8
JISSEN
100
AcDbLine
 10
48.61515500000002
 20
93.48938299999998
 30
0.0
 11
48.61515500000002
 21
94.489383
 31
0.0
  0
LINE
  5
1BC42D0874420
330
1BC42D08739B1
100
AcDbEntity
  8
JISSEN
100
AcDbLine
 10
33.61515500000001
 20
114.7393829999999
 30
0.0
 11
33.61515500000001
 21
73.23938299999999
 31
0.0
  0
LINE
  5
1BC42D0874422
330
1BC42D08739B1
100
AcDbEntity
  8
JISSEN
100
AcDbLine
 10
272.4999977415776
 20
255.0000003132849
 30
0.0
 11
361.9999977415776
 21
255.0000003132849
 31
0.0
  0
LINE
  5
1BC42D0874423
330
1BC42D08739B1
100
AcDbEntity
  8
JISSEN
100
AcDbLine
 10
272.4999977415776
 20
261.0000003132848
 30
0.0
 11
361.9999977415776
 21
261.0000003132848
 31
0.0
  0
LINE
  5
1BC42D0874424
330
1BC42D08739B1
100
AcDbEntity
  8
JISSEN
100
AcDbLine
 10
272.4999977415776
 20
267.0000003132849
 30
0.0
 11
361.9999977415776
 21
267.0000003132849
 31
0.0
  0
TEXT
  5
1BC42D0874425
330
1BC42D08739B1
100
AcDbEntity
  8
TEXT
100
AcDbText
 10
288.8999977415775
 20
268.5000003132848
 30
0.0
 40
3.0
  1
名      称
  7
K
 72
     4
 11
297.4999977415776
 21
270.0000003132848
 31
0.0
100
AcDbText
  0
TEXT
  5
1BC42D0874426
330
1BC42D08739B1
100
AcDbEntity
  8
TEXT
100
AcDbText
 10
284.3471405987204
 20
262.642857456142
 30
0.0
 40
3.0
  1
HFQR  型ヘッド
 41
0.9
  7
K
 72
     4
 11
297.4999977415776
 21
264.0000003132848
 31
0.0
100
AcDbText
  0
TEXT
  5
1BC42D0874428
330
1BC42D08739B1
100
AcDbEntity
  8
TEXT
100
AcDbText
 10
276.2857120272918
 20
262.5000003132849
 30
0.0
 40
3.0
  1
1
  7
K
 72
     4
 11
277.4999977415776
 21
264.0000003132848
 31
0.0
100
AcDbText
  0
LINE
  5
1BC42D0874429
330
1BC42D08739B1
100
AcDbEntity
  8
JISSEN
100
AcDbLine
 10
282.4999977415775
 20
273.0000003132849
 30
0.0
 11
282.4999977415775
 21
255.0000003132849
 31
0.0
  0
LINE
  5
1BC42D087442A
330
1BC42D08739B1
100
AcDbEntity
  8
JISSEN
100
AcDbLine
 10
272.4999977415776
 20
255.0000003132849
 30
0.0
 11
272.4999977415776
 21
273.0000003132849
 31
0.0
  0
TEXT
  5
1BC42D087442B
330
1BC42D08739B1
100
AcDbEntity
  8
TEXT
100
AcDbText
 10
276.3830701471119
 20
256.5000003132849
 30
0.0
 40
3.0
  1
2
  7
K
 72
     4
 11
277.8116415756833
 21
258.0000003132848
 31
0.0
100
AcDbText
  0
TEXT
  5
1BC42D087442C
330
1BC42D08739B1
100
AcDbEntity
  8
TEXT
100
AcDbText
 10
274.2999977415776
 20
268.5000003132848
 30
0.0
 40
3.0
  1
番号
  7
K
 72
     4
 11
277.4999977415776
 21
270.0000003132848
 31
0.0
100
AcDbText
  0
LINE
  5
1BC42D087442D
330
1BC42D08739B1
100
AcDbEntity
  8
JISSEN
100
AcDbLine
 10
312.4999977415776
 20
273.0000003132849
 30
0.0
 11
312.4999977415776
 21
255.0000003132849
 31
0.0
  0
TEXT
  5
1BC42D087442E
330
1BC42D08739B1
100
AcDbEntity
  8
TEXT
100
AcDbText
 10
337.6795462279869
 20
262.5000003132849
 30
0.0
 40
3.0
  1
1
  7
K
 72
     4
 11
338.8938319422726
 21
264.0000003132848
 31
0.0
100
AcDbText
  0
LINE
  5
1BC42D087442F
330
1BC42D08739B1
100
AcDbEntity
  8
JISSEN
100
AcDbLine
 10
344.4999977415776
 20
273.0000003132849
 30
0.0
 11
344.4999977415776
 21
255.0000003132849
 31
0.0
  0
LINE
  5
1BC42D0874430
330
1BC42D08739B1
100
AcDbEntity
  8
JISSEN
100
AcDbLine
 10
333.4999977415776
 20
255.0000003132849
 30
0.0
 11
333.4999977415776
 21
273.0000003132849
 31
0.0
  0
TEXT
  5
1BC42D0874431
330
1BC42D08739B1
100
AcDbEntity
  8
TEXT
100
AcDbText
 10
317.8249977415775
 20
264.3000003132848
 30
0.0
 40
3.0
  1
%%u      
  7
K
 72
     4
 11
322.9999977415776
 21
264.0000003132848
 31
0.0
100
AcDbText
  0
TEXT
  5
1BC42D0874432
330
1BC42D08739B1
100
AcDbEntity
  8
TEXT
100
AcDbText
 10
318.6428548844347
 20
256.5000003132849
 30
0.0
 40
3.0
  1
PBT
  7
K
 72
     4
 11
322.9999977415776
 21
258.0000003132848
 31
0.0
100
AcDbText
  0
TEXT
  5
1BC42D0874433
330
1BC42D08739B1
100
AcDbEntity
  8
TEXT
100
AcDbText
 10
337.6795462279869
 20
256.580835489626
 30
0.0
 40
3.0
  1
1
  7
K
 72
     4
 11
338.8938319422726
 21
258.080835489626
 31
0.0
100
AcDbText
  0
TEXT
  5
1BC42D0874434
330
1BC42D08739B1
100
AcDbEntity
  8
TEXT
100
AcDbText
 10
316.1999977415776
 20
268.5000003132848
 30
0.0
 40
3.0
  1
材    質
  7
K
 72
     4
 11
322.9999977415776
 21
270.0000003132848
 31
0.0
100
AcDbText
  0
TEXT
  5
1BC42D0874435
330
1BC42D08739B1
100
AcDbEntity
  8
TEXT
100
AcDbText
 10
346.6999977415775
 20
268.5000003132848
 30
0.0
 40
3.0
  1
備    考
  7
K
 72
     4
 11
353.4999977415775
 21
270.0000003132848
 31
0.0
100
AcDbText
  0
TEXT
  5
1BC42D0874436
330
1BC42D08739B1
100
AcDbEntity
  8
TEXT
100
AcDbText
 10
335.7999977415776
 20
268.5000003132848
 30
0.0
 40
3.0
  1
個数
  7
K
 72
     4
 11
338.9999977415776
 21
270.0000003132848
 31
0.0
100
AcDbText
  0
ARC
  5
1BC42D087443B
330
1BC42D08739B1
100
AcDbEntity
  8
JISSEN
100
AcDbCircle
 10
278.9474976474024
 20
203.9247769537499
 30
0.0
 40
0.5
100
AcDbArc
 50
180.0
 51
270.0
  0
LINE
  5
1BC42D087443C
330
1BC42D08739B1
100
AcDbEntity
  8
JISSEN
100
AcDbLine
 10
289.4474976474023
 20
202.42477695375
 30
0.0
 11
278.4474976474024
 21
202.42477695375
 31
0.0
  0
LINE
  5
1BC42D087443D
330
1BC42D08739B1
100
AcDbEntity
  8
JISSEN
100
AcDbLine
 10
278.9474976474024
 20
203.42477695375
 30
0.0
 11
289.4474976474023
 21
203.42477695375
 31
0.0
  0
LINE
  5
1BC42D087443E
330
1BC42D08739B1
100
AcDbEntity
  8
JISSEN
100
AcDbLine
 10
289.4474976474023
 20
203.42477695375
 30
0.0
 11
289.4474976474023
 21
202.42477695375
 31
0.0
  0
LINE
  5
1BC42D087443F
330
1BC42D08739B1
100
AcDbEntity
  8
SUNPOU
 62
     0
100
AcDbLine
 10
292.4935886019461
 20
174.0653027810441
 30
0.0
 11
290.4529107871312
 21
171.6333176639109
 31
0.0
  0
LINE
  5
1BC42D0874440
330
1BC42D08739B1
100
AcDbEntity
  8
SUNPOU
 62
     0
100
AcDbLine
 10
290.0698885655716
 20
171.4547114687543
 30
0.0
 11
285.2105663803931
 21
171.4547114687543
 31
0.0
  0
ARC
  5
1BC42D0874441
330
1BC42D08739B1
100
AcDbEntity
  8
SUNPOU
 62
     0
100
AcDbCircle
 10
290.0698885655716
 20
171.9547114687543
 30
0.0
 40
0.5000000000000006
100
AcDbArc
 50
270.0
 51
319.9999999999997
  0
ARC
  5
1BC42D0874442
330
1BC42D08739B1
100
AcDbEntity
  8
SUNPOU
 62
     0
100
AcDbCircle
 10
292.1105663803866
 20
174.3866965858871
 30
0.0
 40
0.5000000000000006
100
AcDbArc
 50
319.9999999999997
 51
0.0
  0
ARC
  5
1BC42D0874443
330
1BC42D08739B1
100
AcDbEntity
  8
SUNPOU
 62
     0
100
AcDbCircle
 10
292.1105663803866
 20
174.3866965858871
 30
0.0
 40
0.5000000000000006
100
AcDbArc
 50
319.9999999999997
 51
0.0
  0
LINE
  5
1BC42D0874448
330
1BC42D08739B1
100
AcDbEntity
  8
SUNPOU
 62
     0
100
AcDbLine
 10
213.4474976474024
 20
35.35549211010482
 30
0.0
 11
213.4474976474024
 21
14.80766464443557
 31
0.0
  0
LINE
  5
1BC42D087445D
330
1BC42D08739B1
100
AcDbEntity
  8
SUNPOU
 62
     0
100
AcDbLine
 10
235.1105663803866
 20
69.69484243874582
 30
0.0
 11
233.1105663803866
 21
69.69484243874582
 31
0.0
  0
LINE
  5
1BC42D087445E
330
1BC42D08739B1
100
AcDbEntity
  8
SUNPOU
 62
     0
100
AcDbLine
 10
235.1105663803866
 20
69.69484243874582
 30
0.0
 11
233.1105663803866
 21
69.69484243874582
 31
0.0
  0
LINE
  5
1BC42D087445F
330
1BC42D08739B1
100
AcDbEntity
  8
SUNPOU
 62
     0
100
AcDbLine
 10
235.1105663803866
 20
61.13405808991569
 30
0.0
 11
233.1105663803866
 21
61.13405808991569
 31
0.0
  0
LINE
  5
1BC42D0874460
330
1BC42D08739B1
100
AcDbEntity
  8
SUNPOU
 62
     0
100
AcDbLine
 10
235.1105663803866
 20
61.13405808991569
 30
0.0
 11
233.1105663803866
 21
61.13405808991569
 31
0.0
  0
ARC
  5
1BC42D0874461
330
1BC42D08739B1
100
AcDbEntity
  8
SUNPOU
 62
     0
100
AcDbCircle
 10
213.7913209055173
 20
101.42477695375
 30
0.0
 40
1.5
100
AcDbArc
 50
13.00000000000027
 51
90.0
  0
LINE
  5
1BC42D0874462
330
1BC42D08739B1
100
AcDbEntity
  8
SUNPOU
 62
     0
100
AcDbLine
 10
213.4474976474024
 20
94.43114433319431
 30
0.0
 11
213.4474976474024
 21
111.0978109998616
 31
0.0
  0
LINE
  5
1BC42D0874463
330
1BC42D08739B1
100
AcDbEntity
  8
SUNPOU
 62
     0
100
AcDbLine
 10
213.4474976474024
 20
102.9247769537499
 30
0.0
 11
213.4474976474024
 21
27.92477695375005
 31
0.0
  0
LINE
  5
1BC42D0874465
330
1BC42D08739B1
100
AcDbEntity
  8
SUNPOU
 62
     0
100
AcDbLine
 10
232.6105663803865
 20
65.42477695375
 30
0.0
 11
232.6105663803867
 21
54.38669658588729
 31
0.0
  0
LINE
  5
1BC42D0874466
330
1BC42D08739B1
100
AcDbEntity
  8
SUNPOU
 62
     0
100
AcDbLine
 10
230.0698885655716
 20
51.45471146875433
 30
0.0
 11
230.0698885655716
 21
65.42477695375
 31
0.0
  0
LINE
  5
1BC42D0874467
330
1BC42D08739B1
100
AcDbEntity
  8
SUNPOU
 62
     0
100
AcDbLine
 10
225.2105663803912
 20
57.29524093028807
 30
0.0
 11
225.2105663803891
 21
65.42477695375002
 31
0.0
  0
LINE
  5
1BC42D0874468
330
1BC42D08739B1
100
AcDbEntity
  8
SUNPOU
 62
     0
100
AcDbLine
 10
224.2105663803866
 20
57.31019029834122
 30
0.0
 11
224.2105663803866
 21
59.18270811415664
 31
0.0
  0
LINE
  5
1BC42D087446A
330
1BC42D08739B1
100
AcDbEntity
  8
SUNPOU
 62
     0
100
AcDbLine
 10
220.210566380387
 20
63.18270811415661
 30
0.0
 11
220.210566380387
 21
48.88270811415658
 31
0.0
  0
LINE
  5
1BC42D087446B
330
1BC42D08739B1
100
AcDbEntity
  8
SUNPOU
 62
     0
100
AcDbLine
 10
219.9463842325261
 20
63.18270811415661
 30
0.0
 11
219.9463842325261
 21
48.60858490276561
 31
0.0
  0
LINE
  5
1BC42D087446C
330
1BC42D08739B1
100
AcDbEntity
  8
SUNPOU
 62
     0
100
AcDbLine
 10
232.6105663803865
 20
60.63405808991577
 30
0.0
 11
232.6105663803865
 21
54.3660432070488
 31
0.0
  0
LINE
  5
1BC42D087446D
330
1BC42D08739B1
100
AcDbEntity
  8
SUNPOU
 62
     0
100
AcDbLine
 10
232.6105663803865
 20
63.39651018744472
 30
0.0
 11
232.6105663803865
 21
54.36604320704872
 31
0.0
  0
LINE
  5
1BC42D087446E
330
1BC42D08739B1
100
AcDbEntity
  8
SUNPOU
 62
     0
100
AcDbLine
 10
218.4474976474024
 20
87.92477695375
 30
0.0
 11
218.4474976474024
 21
42.92477695375
 31
0.0
  0
LINE
  5
1BC42D0874475
330
1BC42D08739B1
100
AcDbEntity
  8
SUNPOU
 62
     0
100
AcDbLine
 10
218.4474976474024
 20
42.9212468163591
 30
0.0
 11
215.252876002695
 21
29.0838202348433
 31
0.0
  0
LINE
  5
1BC42D0874485
330
1BC42D08739B1
100
AcDbEntity
  8
SUNPOU
 62
     0
100
AcDbLine
 10
213.7913209055173
 20
27.92477695375005
 30
0.0
 11
213.4474976474024
 21
27.92477695375005
 31
0.0
  0
LINE
  5
1BC42D0874486
330
1BC42D08739B1
100
AcDbEntity
  8
SUNPOU
 62
     0
100
AcDbLine
 10
213.7913209055173
 20
27.9212468163591
 30
0.0
 11
213.4474976474024
 21
27.9212468163591
 31
0.0
  0
ARC
  5
1BC42D0874487
330
1BC42D08739B1
100
AcDbEntity
  8
SUNPOU
 62
     0
100
AcDbCircle
 10
213.7913209055173
 20
29.42477695375
 30
0.0
 40
1.5
100
AcDbArc
 50
270.0
 51
346.9999999999997
  0
ARC
  5
1BC42D0874488
330
1BC42D08739B1
100
AcDbEntity
  8
SUNPOU
 62
     0
100
AcDbCircle
 10
213.7913209055173
 20
29.4212468163591
 30
0.0
 40
1.5
100
AcDbArc
 50
270.0
 51
346.9999999999997
  0
LINE
  5
1BC42D0874489
330
1BC42D08739B1
100
AcDbEntity
  8
SUNPOU
 62
     0
100
AcDbLine
 10
219.910566380387
 20
48.58405808991563
 30
0.0
 11
220.210566380387
 21
48.88405808991567
 31
0.0
  0
LINE
  5
1BC42D087448A
330
1BC42D08739B1
100
AcDbEntity
  8
SUNPOU
 62
     0
100
AcDbLine
 10
218.4474976474024
 20
42.92124681635903
 30
0.0
 11
218.4474976474024
 21
46.92124681635904
 31
0.0
  0
LINE
  5
1BC42D087448B
330
1BC42D08739B1
100
AcDbEntity
  8
SUNPOU
 62
     0
100
AcDbLine
 10
218.4474976474024
 20
48.58405808991563
 30
0.0
 11
219.910566380387
 21
48.58405808991563
 31
0.0
  0
LINE
  5
1BC42D087448C
330
1BC42D08739B1
100
AcDbEntity
  8
SUNPOU
 62
     0
100
AcDbLine
 10
230.0698885655716
 20
51.45471146875433
 30
0.0
 11
225.2105663803931
 21
51.45471146875433
 31
0.0
  0
LINE
  5
1BC42D087448D
330
1BC42D08739B1
100
AcDbEntity
  8
SUNPOU
 62
     0
100
AcDbLine
 10
225.2105663803931
 20
51.45471146875433
 30
0.0
 11
225.2105663803912
 21
57.31019029834131
 31
0.0
  0
LINE
  5
1BC42D087448E
330
1BC42D08739B1
100
AcDbEntity
  8
SUNPOU
 62
     0
100
AcDbLine
 10
225.2105663803916
 20
57.29524093028807
 30
0.0
 11
220.210566380387
 21
57.29524093028807
 31
0.0
  0
LINE
  5
1BC42D087448F
330
1BC42D08739B1
100
AcDbEntity
  8
SUNPOU
 62
     0
100
AcDbLine
 10
220.2105663803866
 20
57.31019029834131
 30
0.0
 11
220.2105663803866
 21
55.95530797310598
 31
0.0
  0
LINE
  5
1BC42D0874490
330
1BC42D08739B1
100
AcDbEntity
  8
SUNPOU
 62
     0
100
AcDbLine
 10
232.4935886019461
 20
54.06530278104414
 30
0.0
 11
230.4529107871311
 21
51.63331766391106
 31
0.0
  0
ARC
  5
1BC42D0874492
330
1BC42D08739B1
100
AcDbEntity
  8
SUNPOU
 62
     0
100
AcDbCircle
 10
230.0698885655716
 20
51.95471146875433
 30
0.0
 40
0.5000000000000006
100
AcDbArc
 50
270.0
 51
319.9999999999997
  0
ARC
  5
1BC42D0874493
330
1BC42D08739B1
100
AcDbEntity
  8
SUNPOU
 62
     0
100
AcDbCircle
 10
232.1105663803865
 20
54.38669658588729
 30
0.0
 40
0.5000000000000006
100
AcDbArc
 50
319.9999999999997
 51
0.0
  0
ARC
  5
1BC42D0874494
330
1BC42D08739B1
100
AcDbEntity
  8
SUNPOU
 62
     0
100
AcDbCircle
 10
232.1105663803865
 20
54.38669658588729
 30
0.0
 40
0.5000000000000006
100
AcDbArc
 50
319.9999999999997
 51
0.0
  0
LINE
  5
1BC42D087449A
330
1BC42D08739B1
100
AcDbEntity
  8
SUNPOU
 62
     0
100
AcDbLine
 10
232.6517296614015
 20
80.0644049066998
 30
0.0
 11
232.7562581246689
 21
81.05892680206808
 31
0.0
  0
LINE
  5
1BC42D087449B
330
1BC42D08739B1
100
AcDbEntity
  8
SUNPOU
 62
     0
100
AcDbLine
 10
221.256258124669
 20
81.26211722805988
 30
0.0
 11
232.6517296614015
 21
80.0644049066998
 31
0.0
  0
LINE
  5
1BC42D087449C
330
1BC42D08739B1
100
AcDbEntity
  8
SUNPOU
 62
     0
100
AcDbLine
 10
221.2562581246689
 20
72.79956307668211
 30
0.0
 11
221.256258124669
 21
81.26211722805988
 31
0.0
  0
LINE
  5
1BC42D087449D
330
1BC42D08739B1
100
AcDbEntity
  8
SUNPOU
 62
     0
100
AcDbLine
 10
219.9463842325261
 20
67.64619241450485
 30
0.0
 11
219.9463842325261
 21
82.22031562589588
 31
0.0
  0
LINE
  5
1BC42D087449E
330
1BC42D08739B1
100
AcDbEntity
  8
SUNPOU
 62
     0
100
AcDbLine
 10
220.210566380387
 20
67.64619241450485
 30
0.0
 11
220.210566380387
 21
81.94619241450482
 31
0.0
  0
LINE
  5
1BC42D087449F
330
1BC42D08739B1
100
AcDbEntity
  8
SUNPOU
 62
     0
100
AcDbLine
 10
218.4474976474024
 20
67.64619241450485
 30
0.0
 11
220.210566380387
 21
67.64619241450485
 31
0.0
  0
LINE
  5
1BC42D08744A0
330
1BC42D08739B1
100
AcDbEntity
  8
SUNPOU
 62
     0
100
AcDbLine
 10
218.4474976474024
 20
63.18270811415661
 30
0.0
 11
220.210566380387
 21
63.18270811415661
 31
0.0
  0
LINE
  5
1BC42D08744A1
330
1BC42D08739B1
100
AcDbEntity
  8
SUNPOU
 62
     0
100
AcDbLine
 10
219.5306332700186
 20
65.42477695375
 30
0.0
 11
219.5306332700186
 21
63.18270811415661
 31
0.0
  0
LINE
  5
1BC42D08744A2
330
1BC42D08739B1
100
AcDbEntity
  8
SUNPOU
 62
     0
100
AcDbLine
 10
219.5306332700186
 20
65.42477695375002
 30
0.0
 11
219.5306332700186
 21
67.64619241450485
 31
0.0
  0
LINE
  5
1BC42D08744A3
330
1BC42D08739B1
100
AcDbEntity
  8
SUNPOU
 62
     0
100
AcDbLine
 10
232.6105663803867
 20
65.42477695375002
 30
0.0
 11
232.6105663803865
 21
76.4628573216127
 31
0.0
  0
LINE
  5
1BC42D08744A4
330
1BC42D08739B1
100
AcDbEntity
  8
SUNPOU
 62
     0
100
AcDbLine
 10
230.0698885655716
 20
79.39484243874578
 30
0.0
 11
230.0698885655716
 21
65.42477695375
 31
0.0
  0
LINE
  5
1BC42D08744A5
330
1BC42D08739B1
100
AcDbEntity
  8
SUNPOU
 62
     0
100
AcDbLine
 10
225.2105663803912
 20
73.53365959837335
 30
0.0
 11
225.2105663803891
 21
65.42477695375002
 31
0.0
  0
ARC
  5
1BC42D08744A6
330
1BC42D08739B1
100
AcDbEntity
  8
SUNPOU
 62
     0
100
AcDbCircle
 10
233.1105663803866
 20
70.19484243874583
 30
0.0
 40
0.5000000000000006
100
AcDbArc
 50
180.0
 51
270.0
  0
ARC
  5
1BC42D08744A7
330
1BC42D08739B1
100
AcDbEntity
  8
SUNPOU
 62
     0
100
AcDbCircle
 10
233.1105663803866
 20
70.19484243874583
 30
0.0
 40
0.5000000000000006
100
AcDbArc
 50
180.0
 51
270.0
  0
LINE
  5
1BC42D08744A8
330
1BC42D08739B1
100
AcDbEntity
  8
SUNPOU
 62
     0
100
AcDbLine
 10
232.6105663803865
 20
67.44598344527337
 30
0.0
 11
232.6105663803865
 21
76.4628573216127
 31
0.0
  0
LINE
  5
1BC42D08744A9
330
1BC42D08739B1
100
AcDbEntity
  8
SUNPOU
 62
     0
100
AcDbLine
 10
220.210566380387
 20
67.64619241450485
 30
0.0
 11
220.210566380387
 21
71.64619241450494
 31
0.0
  0
LINE
  5
1BC42D08744AA
330
1BC42D08739B1
100
AcDbEntity
  8
SUNPOU
 62
     0
100
AcDbLine
 10
220.210566380387
 20
59.1677587461034
 30
0.0
 11
225.210566380391
 21
59.1677587461034
 31
0.0
  0
LINE
  5
1BC42D08744AB
330
1BC42D08739B1
100
AcDbEntity
  8
SUNPOU
 62
     0
100
AcDbLine
 10
220.210566380387
 20
63.18270811415661
 30
0.0
 11
220.210566380387
 21
59.18270811415649
 31
0.0
  0
ARC
  5
1BC42D08744AC
330
1BC42D08739B1
100
AcDbEntity
  8
SUNPOU
 62
     0
100
AcDbCircle
 10
233.1105663803866
 20
60.63405808991568
 30
0.0
 40
0.5000000000000006
100
AcDbArc
 50
90.0
 51
180.0
  0
ARC
  5
1BC42D08744AD
330
1BC42D08739B1
100
AcDbEntity
  8
SUNPOU
 62
     0
100
AcDbCircle
 10
233.1105663803866
 20
60.63405808991568
 30
0.0
 40
0.5000000000000006
100
AcDbArc
 50
90.0
 51
180.0
  0
LINE
  5
1BC42D08744AE
330
1BC42D08739B1
100
AcDbEntity
  8
SUNPOU
 62
     0
100
AcDbLine
 10
230.0698885655716
 20
79.39484243874578
 30
0.0
 11
225.2105663803931
 21
79.39484243874578
 31
0.0
  0
LINE
  5
1BC42D08744AF
330
1BC42D08739B1
100
AcDbEntity
  8
SUNPOU
 62
     0
100
AcDbLine
 10
222.7631119075166
 20
74.1200235509372
 30
0.0
 11
222.7631119075156
 21
77.17316037729803
 31
0.0
  0
LINE
  5
1BC42D08744B0
330
1BC42D08739B1
100
AcDbEntity
  8
SUNPOU
 62
     0
100
AcDbLine
 10
225.2105663803931
 20
79.39484243874578
 30
0.0
 11
225.2105663803912
 21
73.51871023032018
 31
0.0
  0
LINE
  5
1BC42D08744B1
330
1BC42D08739B1
100
AcDbEntity
  8
SUNPOU
 62
     0
100
AcDbLine
 10
225.2105663803916
 20
73.5336595983734
 30
0.0
 11
221.2562581246689
 21
73.53365959837335
 31
0.0
  0
LINE
  5
1BC42D08744B2
330
1BC42D08739B1
100
AcDbEntity
  8
SUNPOU
 62
     0
100
AcDbLine
 10
220.210566380387
 20
71.66114178255817
 30
0.0
 11
225.210566380391
 21
71.66114178255817
 31
0.0
  0
ARC
  5
1BC42D08744B3
330
1BC42D08739B1
100
AcDbEntity
  8
SUNPOU
 62
     0
100
AcDbCircle
 10
221.9129791495069
 20
74.64659196411692
 30
0.0
 40
1.0
100
AcDbArc
 50
270.0
 51
328.2261118107317
  0
LINE
  5
1BC42D08744B4
330
1BC42D08739B1
100
AcDbEntity
  8
SUNPOU
 62
     0
100
AcDbLine
 10
221.9129791495069
 20
73.64659196411692
 30
0.0
 11
221.2631119075168
 21
73.64659196411678
 31
0.0
  0
LINE
  5
1BC42D08744B5
330
1BC42D08739B1
100
AcDbEntity
  8
SUNPOU
 62
     0
100
AcDbLine
 10
220.2071042375453
 20
72.79956307668211
 30
0.0
 11
221.2562581246689
 21
72.79956307668211
 31
0.0
  0
LINE
  5
1BC42D08744B6
330
1BC42D08739B1
100
AcDbEntity
  8
SUNPOU
 62
     0
100
AcDbLine
 10
224.2105663803866
 20
73.51871023032018
 30
0.0
 11
224.2105663803866
 21
71.64619241450487
 31
0.0
  0
ARC
  5
1BC42D08744B7
330
1BC42D08739B1
100
AcDbEntity
  8
SUNPOU
 62
     0
100
AcDbCircle
 10
221.9129791495069
 20
76.64659196411678
 30
0.0
 40
1.0
100
AcDbArc
 50
31.77388818931894
 51
90.0
  0
LINE
  5
1BC42D08744B8
330
1BC42D08739B1
100
AcDbEntity
  8
SUNPOU
 62
     0
100
AcDbLine
 10
221.9129791495069
 20
77.64659196411678
 30
0.0
 11
221.2631119075168
 21
77.6465919641167
 31
0.0
  0
LINE
  5
1BC42D08744B9
330
1BC42D08739B1
100
AcDbEntity
  8
SUNPOU
 62
     0
100
AcDbLine
 10
232.6105663803865
 20
70.19484243874565
 30
0.0
 11
232.6105663803865
 21
76.4628573216127
 31
0.0
  0
LINE
  5
1BC42D08744BA
330
1BC42D08739B1
100
AcDbEntity
  8
SUNPOU
 62
     0
100
AcDbLine
 10
232.4935886019461
 20
76.78425112645597
 30
0.0
 11
230.4529107871311
 21
79.21623624358905
 31
0.0
  0
ARC
  5
1BC42D08744BB
330
1BC42D08739B1
100
AcDbEntity
  8
SUNPOU
 62
     0
100
AcDbCircle
 10
230.0698885655716
 20
78.89484243874578
 30
0.0
 40
0.5000000000000006
100
AcDbArc
 50
40.00000000000029
 51
90.0
  0
ARC
  5
1BC42D08744BC
330
1BC42D08739B1
100
AcDbEntity
  8
SUNPOU
 62
     0
100
AcDbCircle
 10
232.1105663803865
 20
76.4628573216127
 30
0.0
 40
0.5000000000000006
100
AcDbArc
 50
0.0
 51
40.00000000000029
  0
ARC
  5
1BC42D08744BD
330
1BC42D08739B1
100
AcDbEntity
  8
SUNPOU
 62
     0
100
AcDbCircle
 10
232.1105663803865
 20
76.4628573216127
 30
0.0
 40
0.5000000000000006
100
AcDbArc
 50
0.0
 51
40.00000000000029
  0
LINE
  5
1BC42D08744BE
330
1BC42D08739B1
100
AcDbEntity
  8
JISSEN
100
AcDbLine
 10
218.9474976474024
 20
83.42477695375007
 30
0.0
 11
229.4474976474024
 21
83.42477695375007
 31
0.0
  0
LINE
  5
1BC42D08744BF
330
1BC42D08739B1
100
AcDbEntity
  8
JISSEN
100
AcDbLine
 10
229.4474976474024
 20
82.42477695375006
 30
0.0
 11
218.4474976474024
 21
82.42477695375006
 31
0.0
  0
LINE
  5
1BC42D08744C0
330
1BC42D08739B1
100
AcDbEntity
  8
SUNPOU
 62
     0
100
AcDbLine
 10
219.910566380387
 20
82.24484243874575
 30
0.0
 11
220.210566380387
 21
81.94484243874567
 31
0.0
  0
LINE
  5
1BC42D08744C1
330
1BC42D08739B1
100
AcDbEntity
  8
SUNPOU
 62
     0
100
AcDbLine
 10
218.4474976474024
 20
87.92477695375003
 30
0.0
 11
215.252876002695
 21
101.7622035352657
 31
0.0
  0
ARC
  5
1BC42D08744C2
330
1BC42D08739B1
100
AcDbEntity
  8
JISSEN
100
AcDbCircle
 10
218.9474976474024
 20
83.92477695375005
 30
0.0
 40
0.5
100
AcDbArc
 50
180.0
 51
270.0
  0
LINE
  5
1BC42D08744C3
330
1BC42D08739B1
100
AcDbEntity
  8
SUNPOU
 62
     0
100
AcDbLine
 10
218.4474976474024
 20
82.24484243874572
 30
0.0
 11
219.910566380387
 21
82.24484243874575
 31
0.0
  0
LINE
  5
1BC42D08744C4
330
1BC42D08739B1
100
AcDbEntity
  8
SUNPOU
 62
     0
100
AcDbLine
 10
221.3607865879366
 20
82.25663912342817
 30
0.0
 11
232.7562581246689
 21
81.05892680206808
 31
0.0
  0
ARC
  5
1BC42D08744C5
330
1BC42D08739B1
100
AcDbEntity
  8
SUNPOU
 62
     0
100
AcDbCircle
 10
221.256258124669
 20
81.26211722805988
 30
0.0
 40
1.0
100
AcDbArc
 50
83.99999999999828
 51
180.0
  0
LINE
  5
1BC42D08744C6
330
1BC42D08739B1
100
AcDbEntity
  8
JISSEN
100
AcDbLine
 10
229.4474976474024
 20
83.42477695375007
 30
0.0
 11
229.4474976474024
 21
82.42477695375006
 31
0.0
  0
LINE
  5
1BC42D08744E1
330
1BC42D08739B1
100
AcDbEntity
  8
SUNPOU
 62
     0
100
AcDbLine
 10
213.7913209055173
 20
102.9247769537499
 30
0.0
 11
213.4474976474024
 21
102.9247769537499
 31
0.0
  0
LINE
  5
1BC42D08744E8
330
1BC42D08739B1
100
AcDbEntity
  8
SUNPOU
 62
     0
100
AcDbLine
 10
239.110566380387
 20
65.42477695375
 30
0.0
 11
239.110566380387
 21
57.63405808991523
 31
0.0
  0
LINE
  5
1BC42D08744E9
330
1BC42D08739B1
100
AcDbEntity
  8
SUNPOU
 62
     0
100
AcDbLine
 10
239.2605663803869
 20
65.42477695375
 30
0.0
 11
239.2605663803866
 21
56.18405808991564
 31
0.0
  0
LINE
  5
1BC42D08744EA
330
1BC42D08739B1
100
AcDbEntity
  8
SUNPOU
 62
     0
100
AcDbLine
 10
240.9605663803866
 20
65.42477695375
 30
0.0
 11
240.960566380387
 21
56.18405808991564
 31
0.0
  0
LINE
  5
1BC42D08744EB
330
1BC42D08739B1
100
AcDbEntity
  8
SUNPOU
 62
     0
100
AcDbLine
 10
241.4105663803865
 20
57.93405808991564
 30
0.0
 11
241.4105663803868
 21
65.42477695375
 31
0.0
  0
LINE
  5
1BC42D08744EC
330
1BC42D08739B1
100
AcDbEntity
  8
SUNPOU
 62
     0
100
AcDbLine
 10
238.8105663803868
 20
65.42477695375002
 30
0.0
 11
238.8105663803868
 21
57.93405808991554
 31
0.0
  0
LINE
  5
1BC42D08744ED
330
1BC42D08739B1
100
AcDbEntity
  8
SUNPOU
 62
     0
100
AcDbLine
 10
236.7105663803866
 20
58.21690080239013
 30
0.0
 11
236.7105663803866
 21
65.42477695375
 31
0.0
  0
LINE
  5
1BC42D08744EE
330
1BC42D08739B1
100
AcDbEntity
  8
SUNPOU
 62
     0
100
AcDbLine
 10
236.8605663803865
 20
65.42477695375002
 30
0.0
 11
236.8605663803865
 21
57.68910911563768
 31
0.0
  0
LINE
  5
1BC42D08744EF
330
1BC42D08739B1
100
AcDbEntity
  8
SUNPOU
 62
     0
100
AcDbLine
 10
236.5105663803869
 20
57.93405808991564
 30
0.0
 11
236.5105663803869
 21
65.42477695375
 31
0.0
  0
LINE
  5
1BC42D08744F1
330
1BC42D08739B1
100
AcDbEntity
  8
SUNPOU
 62
     0
100
AcDbLine
 10
236.7105663803866
 20
63.39651018744476
 30
0.0
 11
236.7105663803866
 21
56.18405808991564
 31
0.0
  0
ARC
  5
1BC42D08744F3
330
1BC42D08739B1
100
AcDbEntity
  8
SUNPOU
 62
     0
100
AcDbCircle
 10
241.110566380387
 20
57.93405808991564
 30
0.0
 40
0.2999999999998695
100
AcDbArc
 50
270.0
 51
0.0
  0
ARC
  5
1BC42D08744F4
330
1BC42D08739B1
100
AcDbEntity
  8
SUNPOU
 62
     0
100
AcDbCircle
 10
236.8105663803868
 20
57.93405808991564
 30
0.0
 40
0.2999999999998695
100
AcDbArc
 50
180.0
 51
250.5287793655174
  0
LINE
  5
1BC42D08744F5
330
1BC42D08739B1
100
AcDbEntity
  8
SUNPOU
 62
     0
100
AcDbLine
 10
236.7105663803866
 20
56.18405808991564
 30
0.0
 11
236.8605663803865
 21
56.18405808991564
 31
0.0
  0
LINE
  5
1BC42D08744F6
330
1BC42D08739B1
100
AcDbEntity
  8
SUNPOU
 62
     0
100
AcDbLine
 10
236.8605663803865
 20
57.68910911563768
 30
0.0
 11
236.8605663803865
 21
56.18405808991564
 31
0.0
  0
LINE
  5
1BC42D08744F7
330
1BC42D08739B1
100
AcDbEntity
  8
SUNPOU
 62
     0
100
AcDbLine
 10
239.1105663803866
 20
56.18405808991564
 30
0.0
 11
239.2605663803866
 21
56.18405808991564
 31
0.0
  0
LINE
  5
1BC42D08744F8
330
1BC42D08739B1
100
AcDbEntity
  8
SUNPOU
 62
     0
100
AcDbLine
 10
239.1105663803866
 20
57.63405808991581
 30
0.0
 11
239.1105663803866
 21
56.18405808991554
 31
0.0
  0
LINE
  5
1BC42D08744F9
330
1BC42D08739B1
100
AcDbEntity
  8
SUNPOU
 62
     0
100
AcDbLine
 10
241.110566380387
 20
56.18405808991564
 30
0.0
 11
240.960566380387
 21
56.18405808991564
 31
0.0
  0
LINE
  5
1BC42D08744FA
330
1BC42D08739B1
100
AcDbEntity
  8
SUNPOU
 62
     0
100
AcDbLine
 10
241.110566380387
 20
57.63405808991546
 30
0.0
 11
241.110566380387
 21
56.18405808991554
 31
0.0
  0
ARC
  5
1BC42D08744FB
330
1BC42D08739B1
100
AcDbEntity
  8
SUNPOU
 62
     0
100
AcDbCircle
 10
239.1105663803866
 20
57.93405808991554
 30
0.0
 40
0.2999999999998695
100
AcDbArc
 50
180.0
 51
270.0
  0
LINE
  5
1BC42D08744FC
330
1BC42D08739B1
100
AcDbEntity
  8
SUNPOU
 62
     0
100
AcDbLine
 10
241.4105663803865
 20
72.89484243874579
 30
0.0
 11
241.4105663803868
 21
65.42477695375002
 31
0.0
  0
LINE
  5
1BC42D08744FD
330
1BC42D08739B1
100
AcDbEntity
  8
SUNPOU
 62
     0
100
AcDbLine
 10
240.9605663803866
 20
65.42477695375002
 30
0.0
 11
240.960566380387
 21
74.64484243874578
 31
0.0
  0
LINE
  5
1BC42D08744FE
330
1BC42D08739B1
100
AcDbEntity
  8
SUNPOU
 62
     0
100
AcDbLine
 10
239.2605663803869
 20
65.42477695375002
 30
0.0
 11
239.2605663803866
 21
74.64484243874578
 31
0.0
  0
LINE
  5
1BC42D08744FF
330
1BC42D08739B1
100
AcDbEntity
  8
SUNPOU
 62
     0
100
AcDbLine
 10
239.110566380387
 20
65.42477695375
 30
0.0
 11
239.110566380387
 21
73.19484243874611
 31
0.0
  0
LINE
  5
1BC42D0874500
330
1BC42D08739B1
100
AcDbEntity
  8
SUNPOU
 62
     0
100
AcDbLine
 10
238.8105663803868
 20
65.42477695375002
 30
0.0
 11
238.8105663803868
 21
72.89484243874587
 31
0.0
  0
LINE
  5
1BC42D0874501
330
1BC42D08739B1
100
AcDbEntity
  8
SUNPOU
 62
     0
100
AcDbLine
 10
236.8605663803865
 20
65.42477695375
 30
0.0
 11
236.8605663803865
 21
73.13979141302374
 31
0.0
  0
LINE
  5
1BC42D0874502
330
1BC42D08739B1
100
AcDbEntity
  8
SUNPOU
 62
     0
100
AcDbLine
 10
236.7105663803868
 20
65.42477695375002
 30
0.0
 11
236.7105663803866
 21
74.64484243874578
 31
0.0
  0
LINE
  5
1BC42D0874503
330
1BC42D08739B1
100
AcDbEntity
  8
SUNPOU
 62
     0
100
AcDbLine
 10
236.5105663803869
 20
72.89484243874579
 30
0.0
 11
236.5105663803869
 21
65.42477695375
 31
0.0
  0
LINE
  5
1BC42D0874504
330
1BC42D08739B1
100
AcDbEntity
  8
SUNPOU
 62
     0
100
AcDbLine
 10
236.7105663803866
 20
72.61199972627135
 30
0.0
 11
236.7105663803866
 21
67.44598344527337
 31
0.0
  0
LINE
  5
1BC42D0874505
330
1BC42D08739B1
100
AcDbEntity
  8
SUNPOU
 62
     0
100
AcDbLine
 10
240.1105663803865
 20
65.42477695375002
 30
0.0
 11
240.1105663803865
 21
62.78405808991562
 31
0.0
  0
LINE
  5
1BC42D0874506
330
1BC42D08739B1
100
AcDbEntity
  8
SUNPOU
 62
     0
100
AcDbLine
 10
235.2105663803866
 20
65.42477695375002
 30
0.0
 11
235.2105663803866
 21
61.68405808991572
 31
0.0
  0
LINE
  5
1BC42D0874507
330
1BC42D08739B1
100
AcDbEntity
  8
SUNPOU
 62
     0
100
AcDbLine
 10
235.1105663803866
 20
65.42477695375
 30
0.0
 11
235.1105663803866
 21
61.13405808991569
 31
0.0
  0
LINE
  5
1BC42D0874508
330
1BC42D08739B1
100
AcDbEntity
  8
SUNPOU
 62
     0
100
AcDbLine
 10
236.8605663803865
 20
63.28405808991562
 30
0.0
 11
238.8105663803868
 21
63.28405808991562
 31
0.0
  0
LINE
  5
1BC42D0874509
330
1BC42D08739B1
100
AcDbEntity
  8
SUNPOU
 62
     0
100
AcDbLine
 10
235.2105663803866
 20
62.53405808991562
 30
0.0
 11
236.5105663803869
 21
62.53405808991562
 31
0.0
  0
LINE
  5
1BC42D087450A
330
1BC42D08739B1
100
AcDbEntity
  8
SUNPOU
 62
     0
100
AcDbLine
 10
235.1105663803866
 20
61.68405808991572
 30
0.0
 11
235.2105663803866
 21
61.68405808991572
 31
0.0
  0
LINE
  5
1BC42D087450B
330
1BC42D08739B1
100
AcDbEntity
  8
SUNPOU
 62
     0
100
AcDbLine
 10
235.2105663803866
 20
61.68405808991564
 30
0.0
 11
235.1105663803866
 21
61.58405808991563
 31
0.0
  0
LINE
  5
1BC42D087450C
330
1BC42D08739B1
100
AcDbEntity
  8
SUNPOU
 62
     0
100
AcDbLine
 10
236.7105663803866
 20
62.53405808991562
 30
0.0
 11
236.7105663803866
 21
63.39651018744476
 31
0.0
  0
LINE
  5
1BC42D087450D
330
1BC42D08739B1
100
AcDbEntity
  8
SUNPOU
 62
     0
100
AcDbLine
 10
235.2105663803866
 20
61.68405808991564
 30
0.0
 11
235.2105663803866
 21
63.39651018744472
 31
0.0
  0
LINE
  5
1BC42D087450E
330
1BC42D08739B1
100
AcDbEntity
  8
SUNPOU
 62
     0
100
AcDbLine
 10
235.1105663803866
 20
61.68405808991572
 30
0.0
 11
235.1105663803866
 21
61.13405808991569
 31
0.0
  0
ARC
  5
1BC42D087450F
330
1BC42D08739B1
100
AcDbEntity
  8
SUNPOU
 62
     0
100
AcDbCircle
 10
240.4605663803867
 20
62.78405808991562
 30
0.0
 40
0.3500000000000003
100
AcDbArc
 50
180.0
 51
270.0
  0
ARC
  5
1BC42D0874510
330
1BC42D08739B1
100
AcDbEntity
  8
SUNPOU
 62
     0
100
AcDbCircle
 10
239.4605663803866
 20
62.23405808991559
 30
0.0
 40
0.2000000000000002
100
AcDbArc
 50
90.0
 51
180.0
  0
LINE
  5
1BC42D0874511
330
1BC42D08739B1
100
AcDbEntity
  8
SUNPOU
 62
     0
100
AcDbLine
 10
239.4605663803866
 20
62.43405808991554
 30
0.0
 11
239.7605663803869
 21
62.43405808991554
 31
0.0
  0
ARC
  5
1BC42D0874512
330
1BC42D08739B1
100
AcDbEntity
  8
SUNPOU
 62
     0
100
AcDbCircle
 10
239.7605663803869
 20
62.78405808991562
 30
0.0
 40
0.3500000000000003
100
AcDbArc
 50
270.0
 51
0.0
  0
LINE
  5
1BC42D0874513
330
1BC42D08739B1
100
AcDbEntity
  8
SUNPOU
 62
     0
100
AcDbLine
 10
240.7605663803869
 20
62.43405808991554
 30
0.0
 11
240.4605663803867
 21
62.43405808991554
 31
0.0
  0
ARC
  5
1BC42D0874514
330
1BC42D08739B1
100
AcDbEntity
  8
SUNPOU
 62
     0
100
AcDbCircle
 10
240.7605663803869
 20
62.23405808991559
 30
0.0
 40
0.2000000000000002
100
AcDbArc
 50
0.0
 51
90.0
  0
LINE
  5
1BC42D0874515
330
1BC42D08739B1
100
AcDbEntity
  8
SUNPOU
 62
     0
100
AcDbLine
 10
240.1105663803865
 20
62.78405808991562
 30
0.0
 11
240.1105663803865
 21
63.39651018744476
 31
0.0
  0
LINE
  5
1BC42D0874516
330
1BC42D08739B1
100
AcDbEntity
  8
SUNPOU
 62
     0
100
AcDbLine
 10
236.8605663803865
 20
67.54484243874587
 30
0.0
 11
238.8105663803868
 21
67.54484243874587
 31
0.0
  0
LINE
  5
1BC42D0874517
330
1BC42D08739B1
100
AcDbEntity
  8
SUNPOU
 62
     0
100
AcDbLine
 10
235.1105663803866
 20
65.42477695375
 30
0.0
 11
235.1105663803866
 21
69.69484243874582
 31
0.0
  0
LINE
  5
1BC42D0874518
330
1BC42D08739B1
100
AcDbEntity
  8
SUNPOU
 62
     0
100
AcDbLine
 10
235.2105663803866
 20
69.14484243874579
 30
0.0
 11
235.2105663803866
 21
65.42477695375
 31
0.0
  0
LINE
  5
1BC42D0874519
330
1BC42D08739B1
100
AcDbEntity
  8
SUNPOU
 62
     0
100
AcDbLine
 10
235.2105663803866
 20
67.44598344527337
 30
0.0
 11
235.2105663803866
 21
69.14484243874579
 31
0.0
  0
LINE
  5
1BC42D087451A
330
1BC42D08739B1
100
AcDbEntity
  8
SUNPOU
 62
     0
100
AcDbLine
 10
236.7105663803866
 20
68.29484243874587
 30
0.0
 11
236.7105663803866
 21
67.44598344527338
 31
0.0
  0
LINE
  5
1BC42D087451B
330
1BC42D08739B1
100
AcDbEntity
  8
SUNPOU
 62
     0
100
AcDbLine
 10
235.2105663803866
 20
68.29484243874587
 30
0.0
 11
236.5105663803869
 21
68.29484243874587
 31
0.0
  0
LINE
  5
1BC42D087451C
330
1BC42D08739B1
100
AcDbEntity
  8
SUNPOU
 62
     0
100
AcDbLine
 10
235.2105663803866
 20
69.14484243874579
 30
0.0
 11
235.1105663803866
 21
69.24484243874585
 31
0.0
  0
LINE
  5
1BC42D087451D
330
1BC42D08739B1
100
AcDbEntity
  8
SUNPOU
 62
     0
100
AcDbLine
 10
235.1105663803866
 20
69.14484243874579
 30
0.0
 11
235.2105663803866
 21
69.14484243874579
 31
0.0
  0
LINE
  5
1BC42D087451E
330
1BC42D08739B1
100
AcDbEntity
  8
SUNPOU
 62
     0
100
AcDbLine
 10
235.1105663803866
 20
69.14484243874579
 30
0.0
 11
235.1105663803866
 21
69.69484243874582
 31
0.0
  0
LINE
  5
1BC42D087451F
330
1BC42D08739B1
100
AcDbEntity
  8
SUNPOU
 62
     0
100
AcDbLine
 10
240.1105663803865
 20
68.04484243874587
 30
0.0
 11
240.1105663803865
 21
65.42477695375002
 31
0.0
  0
ARC
  5
1BC42D0874520
330
1BC42D08739B1
100
AcDbEntity
  8
SUNPOU
 62
     0
100
AcDbCircle
 10
240.4605663803867
 20
68.04484243874587
 30
0.0
 40
0.3500000000000003
100
AcDbArc
 50
90.0
 51
180.0
  0
ARC
  5
1BC42D0874521
330
1BC42D08739B1
100
AcDbEntity
  8
SUNPOU
 62
     0
100
AcDbCircle
 10
239.7605663803869
 20
68.04484243874587
 30
0.0
 40
0.3500000000000003
100
AcDbArc
 50
0.0
 51
90.0
  0
LINE
  5
1BC42D0874522
330
1BC42D08739B1
100
AcDbEntity
  8
SUNPOU
 62
     0
100
AcDbLine
 10
239.4605663803866
 20
68.39484243874584
 30
0.0
 11
239.7605663803869
 21
68.39484243874584
 31
0.0
  0
ARC
  5
1BC42D0874523
330
1BC42D08739B1
100
AcDbEntity
  8
SUNPOU
 62
     0
100
AcDbCircle
 10
239.4605663803866
 20
68.59484243874589
 30
0.0
 40
0.2000000000000002
100
AcDbArc
 50
180.0
 51
270.0
  0
LINE
  5
1BC42D0874524
330
1BC42D08739B1
100
AcDbEntity
  8
SUNPOU
 62
     0
100
AcDbLine
 10
240.1105663803865
 20
67.44598344527338
 30
0.0
 11
240.1105663803865
 21
68.04484243874587
 31
0.0
  0
ARC
  5
1BC42D0874525
330
1BC42D08739B1
100
AcDbEntity
  8
SUNPOU
 62
     0
100
AcDbCircle
 10
240.7605663803869
 20
68.59484243874589
 30
0.0
 40
0.2000000000000002
100
AcDbArc
 50
270.0
 51
0.0
  0
LINE
  5
1BC42D0874526
330
1BC42D08739B1
100
AcDbEntity
  8
SUNPOU
 62
     0
100
AcDbLine
 10
240.7605663803869
 20
68.39484243874584
 30
0.0
 11
240.4605663803867
 21
68.39484243874584
 31
0.0
  0
ARC
  5
1BC42D0874527
330
1BC42D08739B1
100
AcDbEntity
  8
SUNPOU
 62
     0
100
AcDbCircle
 10
241.110566380387
 20
72.89484243874579
 30
0.0
 40
0.2999999999998695
100
AcDbArc
 50
0.0
 51
90.0
  0
LINE
  5
1BC42D0874528
330
1BC42D08739B1
100
AcDbEntity
  8
SUNPOU
 62
     0
100
AcDbLine
 10
236.8605663803865
 20
73.13979141302374
 30
0.0
 11
236.8605663803865
 21
74.64484243874578
 31
0.0
  0
ARC
  5
1BC42D0874529
330
1BC42D08739B1
100
AcDbEntity
  8
SUNPOU
 62
     0
100
AcDbCircle
 10
236.8105663803868
 20
72.89484243874579
 30
0.0
 40
0.2999999999998695
100
AcDbArc
 50
109.4712206344826
 51
180.0
  0
LINE
  5
1BC42D087452A
330
1BC42D08739B1
100
AcDbEntity
  8
SUNPOU
 62
     0
100
AcDbLine
 10
236.7105663803866
 20
74.64484243874578
 30
0.0
 11
236.8605663803865
 21
74.64484243874578
 31
0.0
  0
LINE
  5
1BC42D087452B
330
1BC42D08739B1
100
AcDbEntity
  8
SUNPOU
 62
     0
100
AcDbLine
 10
239.1105663803866
 20
73.19484243874559
 30
0.0
 11
239.1105663803866
 21
74.64484243874585
 31
0.0
  0
LINE
  5
1BC42D087452C
330
1BC42D08739B1
100
AcDbEntity
  8
SUNPOU
 62
     0
100
AcDbLine
 10
241.110566380387
 20
73.19484243874597
 30
0.0
 11
241.110566380387
 21
74.64484243874585
 31
0.0
  0
ARC
  5
1BC42D087452D
330
1BC42D08739B1
100
AcDbEntity
  8
SUNPOU
 62
     0
100
AcDbCircle
 10
239.1105663803866
 20
72.89484243874587
 30
0.0
 40
0.2999999999998695
100
AcDbArc
 50
90.0
 51
180.0
  0
LINE
  5
1BC42D087452E
330
1BC42D08739B1
100
AcDbEntity
  8
SUNPOU
 62
     0
100
AcDbLine
 10
239.1105663803866
 20
74.64484243874578
 30
0.0
 11
239.2605663803866
 21
74.64484243874578
 31
0.0
  0
LINE
  5
1BC42D087452F
330
1BC42D08739B1
100
AcDbEntity
  8
SUNPOU
 62
     0
100
AcDbLine
 10
241.110566380387
 20
74.64484243874578
 30
0.0
 11
240.960566380387
 21
74.64484243874578
 31
0.0
  0
ARC
  5
1BC42D0874530
330
1BC42D08739B1
100
AcDbEntity
  8
SAISEN
100
AcDbCircle
 10
303.5634350568565
 20
67.88285340835222
 30
0.0
 40
22.5
100
AcDbArc
 50
49.07393699999942
 51
130.9260630000006
  0
LINE
  5
1BC42D0874531
330
1BC42D08739B1
100
AcDbEntity
  8
JISSEN
100
AcDbLine
 10
288.5634350568565
 20
84.88285340835222
 30
0.0
 11
318.5634350568565
 21
84.88285340835222
 31
0.0
  0
ARC
  5
1BC42D0874532
330
1BC42D08739B1
100
AcDbEntity
  8
JISSEN
100
AcDbCircle
 10
303.5634350568565
 20
67.88285340835222
 30
0.0
 40
17.0
100
AcDbArc
 50
151.9275129999991
 51
28.07248699999923
  0
ARC
  5
1BC42D0874533
330
1BC42D08739B1
100
AcDbEntity
  8
SAISEN
100
AcDbCircle
 10
303.5634350568565
 20
67.88285340835222
 30
0.0
 40
22.5
100
AcDbArc
 50
131.8103149999992
 51
48.18968500000068
  0
LINE
  5
1BC42D0874534
330
1BC42D08739B1
100
AcDbEntity
  8
JISSEN
100
AcDbLine
 10
288.5634350568565
 20
75.88285340835222
 30
0.0
 11
288.5634350568565
 21
84.88285340835222
 31
0.0
  0
LINE
  5
1BC42D0874535
330
1BC42D08739B1
100
AcDbEntity
  8
JISSEN
100
AcDbLine
 10
290.3918020568564
 20
85.88764740835221
 30
0.0
 11
298.2475230568565
 21
85.88764740835221
 31
0.0
  0
LINE
  5
1BC42D0874536
330
1BC42D08739B1
100
AcDbEntity
  8
JISSEN
100
AcDbLine
 10
290.3918020568564
 20
85.88764740835221
 30
0.0
 11
290.3918020568564
 21
84.88285340835222
 31
0.0
  0
LINE
  5
1BC42D0874537
330
1BC42D08739B1
100
AcDbEntity
  8
JISSEN
100
AcDbLine
 10
298.2475230568565
 20
85.88764740835221
 30
0.0
 11
298.2475230568565
 21
84.88285340835222
 31
0.0
  0
LINE
  5
1BC42D0874538
330
1BC42D08739B1
100
AcDbEntity
  8
JISSEN
100
AcDbLine
 10
308.9147090568565
 20
85.88764740835221
 30
0.0
 11
316.4196800568565
 21
85.88764740835221
 31
0.0
  0
LINE
  5
1BC42D0874539
330
1BC42D08739B1
100
AcDbEntity
  8
JISSEN
100
AcDbLine
 10
308.9147090568565
 20
85.88764740835221
 30
0.0
 11
308.9147090568565
 21
84.88285340835222
 31
0.0
  0
LINE
  5
1BC42D087453A
330
1BC42D08739B1
100
AcDbEntity
  8
JISSEN
100
AcDbLine
 10
316.4196800568565
 20
85.88764740835221
 30
0.0
 11
316.4196800568565
 21
84.88285340835222
 31
0.0
  0
LINE
  5
1BC42D087453B
330
1BC42D08739B1
100
AcDbEntity
  8
JISSEN
100
AcDbLine
 10
318.5634350568565
 20
84.88285340835222
 30
0.0
 11
318.5634350568565
 21
75.88285340835222
 31
0.0
  0
TEXT
  5
1BC42D087453C
330
1BC42D08739B1
100
AcDbEntity
  8
TEXT
100
AcDbText
 10
283.6914263130061
 20
256.642857456142
 30
0.0
 40
3.0
  1
シーリングプレート HFQR
 41
0.6
  7
K
 72
     4
 11
297.4999977415776
 21
258.0000003132848
 31
0.0
100
AcDbText
  0
LINE
  5
1BC42D08745A8
330
1BC42D08739B1
100
AcDbEntity
  8
TEXT
100
AcDbLine
 10
295.3313427030118
 20
265.6425285651813
 30
0.0
 11
297.3313427030118
 21
265.6425285651813
 31
0.0
  0
LINE
  5
1BC42D08745A9
330
1BC42D08739B1
100
AcDbEntity
  8
TEXT
100
AcDbLine
 10
295.3313427030118
 20
262.6425285651813
 30
0.0
 11
297.3313427030118
 21
262.6425285651813
 31
0.0
  0
LINE
  5
1BC42D08745AA
330
1BC42D08739B1
100
AcDbEntity
  8
TEXT
100
AcDbLine
 10
295.8813427030118
 20
265.6425285651813
 30
0.0
 11
295.8813427030118
 21
262.6425285651813
 31
0.0
  0
LINE
  5
1BC42D08745AB
330
1BC42D08739B1
100
AcDbEntity
  8
TEXT
100
AcDbLine
 10
296.7813427030118
 20
265.6425285651813
 30
0.0
 11
296.7813427030118
 21
262.6425285651813
 31
0.0
  0
LINE
  5
1BC42D08745B7
330
1BC42D08739B1
100
AcDbEntity
  8
SUNPOU
100
AcDbLine
 10
300.7633699116195
 20
71.63644030557449
 30
0.0
 11
301.6055946902528
 21
72.14250000742445
 31
0.0
  0
LINE
  5
1BC42D08745BA
330
1BC42D08739B1
100
AcDbEntity
  8
SUNPOU
100
AcDbLine
 10
299.9908127992544
 20
72.92219125662765
 30
0.0
 11
300.8330375778877
 21
73.42825095847762
 31
0.0
  0
LINE
  5
1BC42D08745BD
330
1BC42D08739B1
100
AcDbEntity
  8
SUNPOU
100
AcDbLine
 10
300.1976333633955
 20
73.04646158882511
 30
0.0
 11
300.9701904757607
 21
71.76071063777195
 31
0.0
  0
LINE
  5
1BC42D08745BE
330
1BC42D08739B1
100
AcDbEntity
  8
SUNPOU
100
AcDbLine
 10
300.6262170137466
 20
73.30398062628015
 30
0.0
 11
301.3987741261117
 21
72.01822967522699
 31
0.0
  0
ENDSEC
  0
SECTION
  2
OBJECTS
  0
DICTIONARY
  5
1BC42D08739A5
330
0
100
AcDbDictionary
  3
ACAD_GROUP
350
1BC42D08739A6
  3
ACAD_LAYOUT
350
1BC42D0873CB5
  3
ACAD_MLINESTYLE
350
1BC42D08739A7
  3
ACAD_PLOTSETTINGS
350
1BC42D0873CB6
  3
ACAD_PLOTSTYLENAME
350
1BC42D0873CB3
  3
ACDBHEADERROUNDTRIPXREC
350
1BC42D08745C1
  3
ACDBVARIABLEDICTIONARY
350
1BC42D087457B
  0
DICTIONARY
  5
1BC42D0873D3E
330
1BC42D08739B1
100
AcDbDictionary
280
     1
  3
ACAD_LAYOUTSELFREF
360
1BC42D08745E3
  0
DICTIONARY
  5
1BC42D0873D3C
330
1BC42D08739AE
100
AcDbDictionary
280
     1
  3
ACAD_LAYOUTSELFREF
360
1BC42D08745E2
  0
DICTIONARY
  5
1BC42D08739A6
102
{ACAD_REACTORS
330
1BC42D08739A5
102
}
330
1BC42D08739A5
100
AcDbDictionary
  0
DICTIONARY
  5
1BC42D0873CB5
102
{ACAD_REACTORS
330
1BC42D08739A5
102
}
330
1BC42D08739A5
100
AcDbDictionary
  0
DICTIONARY
  5
1BC42D08739A7
102
{ACAD_REACTORS
330
1BC42D08739A5
102
}
330
1BC42D08739A5
100
AcDbDictionary
  3
STANDARD
350
1BC42D08739B4
  0
DICTIONARY
  5
1BC42D0873CB6
102
{ACAD_REACTORS
330
1BC42D08739A5
102
}
330
1BC42D08739A5
100
AcDbDictionary
  0
ACDBDICTIONARYWDFLT
  5
1BC42D0873CB3
102
{ACAD_REACTORS
330
1BC42D08739A5
102
}
330
1BC42D08739A5
100
AcDbDictionary
281
     1
  3
Normal
350
1BC42D0873CB4
100
AcDbDictionaryWithDefault
340
1BC42D0873CB4
  0
DICTIONARY
  5
1BC42D08745C1
102
{ACAD_REACTORS
330
1BC42D08739A5
102
}
330
1BC42D08739A5
100
AcDbDictionary
  3
CEPSNTYPE
350
1BC42D08745CB
  3
DIMSTYLEDATA
350
1BC42D08745CF
  3
FINGERPRINTGUID
350
1BC42D08745CC
  3
HYPERLINKBASE
350
1BC42D08745C4
  3
INSUNITS
350
1BC42D08745CA
  3
LAYOUTDICT
350
1BC42D08745C6
  3
LWETCUNION
350
1BC42D08745C9
  3
PLOTSETDICT
350
1BC42D08745C7
  3
PLOTSTYLNAMDICT
350
1BC42D08745C8
  3
PSVPSCALE
350
1BC42D08745CE
  3
PUCSBASE
350
1BC42D08745D2
  3
PUCSORGBACK
350
1BC42D08745D8
  3
PUCSORGBOTTOM
350
1BC42D08745D4
  3
PUCSORGFRONT
350
1BC42D08745D7
  3
PUCSORGLEFT
350
1BC42D08745D5
  3
PUCSORGRIGHT
350
1BC42D08745D6
  3
PUCSORGTOP
350
1BC42D08745D3
  3
PUCSORTHOREF
350
1BC42D08745D0
  3
PUCSORTHOVIEW
350
1BC42D08745D1
  3
STYLESHEET
350
1BC42D08745C5
  3
TSTACKALIGN
350
1BC42D08745C2
  3
TSTACKSIZE
350
1BC42D08745C3
  3
UCSBASE
350
1BC42D08745DB
  3
UCSORGBACK
350
1BC42D08745E1
  3
UCSORGBOTTOM
350
1BC42D08745DD
  3
UCSORGFRONT
350
1BC42D08745E0
  3
UCSORGLEFT
350
1BC42D08745DE
  3
UCSORGRIGHT
350
1BC42D08745DF
  3
UCSORGTOP
350
1BC42D08745DC
  3
UCSORTHOREF
350
1BC42D08745D9
  3
UCSORTHOVIEW
350
1BC42D08745DA
  3
VERSIONGUID
350
1BC42D08745CD
  0
DICTIONARY
  5
1BC42D087457B
102
{ACAD_REACTORS
330
1BC42D08739A5
102
}
330
1BC42D08739A5
100
AcDbDictionary
  3
DIMASSOC
350
1BC42D087457C
  0
XRECORD
  5
1BC42D08745E3
102
{ACAD_REACTORS
330
1BC42D0873D3E
102
}
330
1BC42D0873D3E
100
AcDbXrecord
340
1BC42D08739B1
  0
XRECORD
  5
1BC42D08745E2
102
{ACAD_REACTORS
330
1BC42D0873D3C
102
}
330
1BC42D0873D3C
100
AcDbXrecord
340
1BC42D08739AE
  0
MLINESTYLE
  5
1BC42D08739B4
102
{ACAD_REACTORS
330
1BC42D08739A7
102
}
330
1BC42D08739A7
100
AcDbMlineStyle
  2
STANDARD
 70
     0
  3

 62
     0
 51
90.0
 52
90.0
 71
     2
 49
0.5
 62
   256
  6
BYLAYER
 49
-0.5
 62
   256
  6
BYLAYER
  0
ACDBPLACEHOLDER
  5
1BC42D0873CB4
102
{ACAD_REACTORS
330
1BC42D0873CB3
102
}
330
1BC42D0873CB3
100
AcDbPlaceHolder
280
     0
  0
XRECORD
  5
1BC42D08745CB
102
{ACAD_REACTORS
330
1BC42D08745C1
102
}
330
1BC42D08745C1
100
AcDbXrecord
 90
        0
  0
XRECORD
  5
1BC42D08745CF
102
{ACAD_REACTORS
330
1BC42D08745C1
102
}
330
1BC42D08745C1
100
AcDbXrecord
1000
DSTYLE
1002
{
1070
   341
340
1BC42D08739B5
1070
   342
340
1BC42D08739B5
1002
}
  0
XRECORD
  5
1BC42D08745CC
102
{ACAD_REACTORS
330
1BC42D08745C1
102
}
330
1BC42D08745C1
100
AcDbXrecord
  1
{96587908-1B88-4DA2-BEE1-0339C124502C}
  0
XRECORD
  5
1BC42D08745C4
102
{ACAD_REACTORS
330
1BC42D08745C1
102
}
330
1BC42D08745C1
100
AcDbXrecord
  1

  0
XRECORD
  5
1BC42D08745CA
102
{ACAD_REACTORS
330
1BC42D08745C1
102
}
330
1BC42D08745C1
100
AcDbXrecord
 90
        0
  0
XRECORD
  5
1BC42D08745C6
102
{ACAD_REACTORS
330
1BC42D08745C1
102
}
330
1BC42D08745C1
100
AcDbXrecord
340
1BC42D0873CB5
  0
XRECORD
  5
1BC42D08745C9
102
{ACAD_REACTORS
330
1BC42D08745C1
102
}
330
1BC42D08745C1
100
AcDbXrecord
 90
    14877
  0
XRECORD
  5
1BC42D08745C7
102
{ACAD_REACTORS
330
1BC42D08745C1
102
}
330
1BC42D08745C1
100
AcDbXrecord
340
1BC42D0873CB6
  0
XRECORD
  5
1BC42D08745C8
102
{ACAD_REACTORS
330
1BC42D08745C1
102
}
330
1BC42D08745C1
100
AcDbXrecord
340
1BC42D0873CB3
  0
XRECORD
  5
1BC42D08745CE
102
{ACAD_REACTORS
330
1BC42D08745C1
102
}
330
1BC42D08745C1
100
AcDbXrecord
 40
0.0
  0
XRECORD
  5
1BC42D08745D2
102
{ACAD_REACTORS
330
1BC42D08745C1
102
}
330
1BC42D08745C1
100
AcDbXrecord
340
0
  0
XRECORD
  5
1BC42D08745D8
102
{ACAD_REACTORS
330
1BC42D08745C1
102
}
330
1BC42D08745C1
100
AcDbXrecord
 10
0.0
 20
0.0
 30
0.0
  0
XRECORD
  5
1BC42D08745D4
102
{ACAD_REACTORS
330
1BC42D08745C1
102
}
330
1BC42D08745C1
100
AcDbXrecord
 10
0.0
 20
0.0
 30
0.0
  0
XRECORD
  5
1BC42D08745D7
102
{ACAD_REACTORS
330
1BC42D08745C1
102
}
330
1BC42D08745C1
100
AcDbXrecord
 10
0.0
 20
0.0
 30
0.0
  0
XRECORD
  5
1BC42D08745D5
102
{ACAD_REACTORS
330
1BC42D08745C1
102
}
330
1BC42D08745C1
100
AcDbXrecord
 10
0.0
 20
0.0
 30
0.0
  0
XRECORD
  5
1BC42D08745D6
102
{ACAD_REACTORS
330
1BC42D08745C1
102
}
330
1BC42D08745C1
100
AcDbXrecord
 10
0.0
 20
0.0
 30
0.0
  0
XRECORD
  5
1BC42D08745D3
102
{ACAD_REACTORS
330
1BC42D08745C1
102
}
330
1BC42D08745C1
100
AcDbXrecord
 10
0.0
 20
0.0
 30
0.0
  0
XRECORD
  5
1BC42D08745D0
102
{ACAD_REACTORS
330
1BC42D08745C1
102
}
330
1BC42D08745C1
100
AcDbXrecord
340
0
  0
XRECORD
  5
1BC42D08745D1
102
{ACAD_REACTORS
330
1BC42D08745C1
102
}
330
1BC42D08745C1
100
AcDbXrecord
 70
     0
  0
XRECORD
  5
1BC42D08745C5
102
{ACAD_REACTORS
330
1BC42D08745C1
102
}
330
1BC42D08745C1
100
AcDbXrecord
  1

  0
XRECORD
  5
1BC42D08745C2
102
{ACAD_REACTORS
330
1BC42D08745C1
102
}
330
1BC42D08745C1
100
AcDbXrecord
 90
        1
  0
XRECORD
  5
1BC42D08745C3
102
{ACAD_REACTORS
330
1BC42D08745C1
102
}
330
1BC42D08745C1
100
AcDbXrecord
 90
       70
  0
XRECORD
  5
1BC42D08745DB
102
{ACAD_REACTORS
330
1BC42D08745C1
102
}
330
1BC42D08745C1
100
AcDbXrecord
340
0
  0
XRECORD
  5
1BC42D08745E1
102
{ACAD_REACTORS
330
1BC42D08745C1
102
}
330
1BC42D08745C1
100
AcDbXrecord
 10
0.0
 20
0.0
 30
0.0
  0
XRECORD
  5
1BC42D08745DD
102
{ACAD_REACTORS
330
1BC42D08745C1
102
}
330
1BC42D08745C1
100
AcDbXrecord
 10
0.0
 20
0.0
 30
0.0
  0
XRECORD
  5
1BC42D08745E0
102
{ACAD_REACTORS
330
1BC42D08745C1
102
}
330
1BC42D08745C1
100
AcDbXrecord
 10
0.0
 20
0.0
 30
0.0
  0
XRECORD
  5
1BC42D08745DE
102
{ACAD_REACTORS
330
1BC42D08745C1
102
}
330
1BC42D08745C1
100
AcDbXrecord
 10
0.0
 20
0.0
 30
0.0
  0
XRECORD
  5
1BC42D08745DF
102
{ACAD_REACTORS
330
1BC42D08745C1
102
}
330
1BC42D08745C1
100
AcDbXrecord
 10
0.0
 20
0.0
 30
0.0
  0
XRECORD
  5
1BC42D08745DC
102
{ACAD_REACTORS
330
1BC42D08745C1
102
}
330
1BC42D08745C1
100
AcDbXrecord
 10
0.0
 20
0.0
 30
0.0
  0
XRECORD
  5
1BC42D08745D9
102
{ACAD_REACTORS
330
1BC42D08745C1
102
}
330
1BC42D08745C1
100
AcDbXrecord
340
0
  0
XRECORD
  5
1BC42D08745DA
102
{ACAD_REACTORS
330
1BC42D08745C1
102
}
330
1BC42D08745C1
100
AcDbXrecord
 70
     0
  0
XRECORD
  5
1BC42D08745CD
102
{ACAD_REACTORS
330
1BC42D08745C1
102
}
330
1BC42D08745C1
100
AcDbXrecord
  1
{8474292F-D329-4BCC-A403-5A2A67544DEE}
  0
DICTIONARYVAR
  5
1BC42D087457C
102
{ACAD_REACTORS
330
1BC42D087457B
102
}
330
1BC42D087457B
100
DictionaryVariables
280
     0
  1
0
  0
ENDSEC
  0
EOF
