  0
SECTION
  2
HEADER
  9
$ACADVER
  1
AC1014
  9
$ACADMAINTVER
 70
     9
  9
$DWGCODEPAGE
  3
ANSI_932
  9
$INSBASE
 10
0.0
 20
0.0
 30
0.0
  9
$EXTMIN
 10
-0.0110465203861168
 20
-0.0083306632102449
 30
-0.0015258207003583
  9
$EXTMAX
 10
362.0110462060799
 20
273.0083319344654
 30
0.0000000349246037
  9
$LIMMIN
 10
0.0
 20
0.0
  9
$LIMMAX
 10
180.999999
 20
273.0
  9
$ORTHOMODE
 70
     1
  9
$REGENMODE
 70
     1
  9
$FILLMODE
 70
     1
  9
$QTEXTMODE
 70
     0
  9
$MIRRTEXT
 70
     0
  9
$DRAGMODE
 70
     2
  9
$LTSCALE
 40
5.0
  9
$OSMODE
 70
   167
  9
$ATTMODE
 70
     1
  9
$TEXTSIZE
 40
1.5
  9
$TRACEWID
 40
0.05
  9
$TEXTSTYLE
  7
K
  9
$CLAYER
  8
SUNPOU
  9
$CELTYPE
  6
BYLAYER
  9
$CECOLOR
 62
   256
  9
$CELTSCALE
 40
1.0
  9
$DELOBJ
 70
     1
  9
$DISPSILH
 70
     0
  9
$DIMSCALE
 40
1.0
  9
$DIMASZ
 40
1.5
  9
$DIMEXO
 40
1.0
  9
$DIMDLI
 40
6.0
  9
$DIMRND
 40
0.0
  9
$DIMDLE
 40
0.0
  9
$DIMEXE
 40
1.0
  9
$DIMTP
 40
495.0
  9
$DIMTM
 40
0.0
  9
$DIMTXT
 40
3.0
  9
$DIMCEN
 40
0.0
  9
$DIMTSZ
 40
0.0
  9
$DIMTOL
 70
     0
  9
$DIMLIM
 70
     0
  9
$DIMTIH
 70
     0
  9
$DIMTOH
 70
     0
  9
$DIMSE1
 70
     0
  9
$DIMSE2
 70
     0
  9
$DIMTAD
 70
     1
  9
$DIMZIN
 70
     8
  9
$DIMBLK
  1
ARROWANG
  9
$DIMASO
 70
     0
  9
$DIMSHO
 70
     0
  9
$DIMPOST
  1

  9
$DIMAPOST
  1

  9
$DIMALT
 70
     0
  9
$DIMALTD
 70
     2
  9
$DIMALTF
 40
25.4
  9
$DIMLFAC
 40
1.0
  9
$DIMTOFL
 70
     1
  9
$DIMTVP
 40
0.0
  9
$DIMTIX
 70
     1
  9
$DIMSOXD
 70
     0
  9
$DIMSAH
 70
     0
  9
$DIMBLK1
  1
ARROWANG
  9
$DIMBLK2
  1
ARROWANG
  9
$DIMSTYLE
  2
IMAO
  9
$DIMCLRD
 70
     0
  9
$DIMCLRE
 70
     0
  9
$DIMCLRT
 70
     0
  9
$DIMTFAC
 40
1.0
  9
$DIMGAP
 40
0.09
  9
$DIMJUST
 70
     0
  9
$DIMSD1
 70
     0
  9
$DIMSD2
 70
     0
  9
$DIMTOLJ
 70
     1
  9
$DIMTZIN
 70
     0
  9
$DIMALTZ
 70
     0
  9
$DIMALTTZ
 70
     0
  9
$DIMFIT
 70
     3
  9
$DIMUPT
 70
     0
  9
$DIMUNIT
 70
     2
  9
$DIMDEC
 70
     4
  9
$DIMTDEC
 70
     4
  9
$DIMALTU
 70
     2
  9
$DIMALTTD
 70
     2
  9
$DIMTXSTY
  7
STANDARD
  9
$DIMAUNIT
 70
     0
  9
$LUNITS
 70
     2
  9
$LUPREC
 70
     2
  9
$SKETCHINC
 40
0.1
  9
$FILLETRAD
 40
0.75
  9
$AUNITS
 70
     0
  9
$AUPREC
 70
     2
  9
$MENU
  1
STDR12J
  9
$ELEVATION
 40
0.0
  9
$PELEVATION
 40
0.0
  9
$THICKNESS
 40
0.0
  9
$LIMCHECK
 70
     0
  9
$BLIPMODE
 70
     0
  9
$CHAMFERA
 40
0.5
  9
$CHAMFERB
 40
0.5
  9
$CHAMFERC
 40
0.0
  9
$CHAMFERD
 40
0.0
  9
$SKPOLY
 70
     0
  9
$TDCREATE
 40
2450354.415456018
  9
$TDUPDATE
 40
2453620.661741157
  9
$TDINDWG
 40
0.0781307639
  9
$TDUSRTIMER
 40
0.0781307639
  9
$USRTIMER
 70
     1
  9
$ANGBASE
 50
0.0
  9
$ANGDIR
 70
     0
  9
$PDMODE
 70
     0
  9
$PDSIZE
 40
0.0
  9
$PLINEWID
 40
0.0
  9
$COORDS
 70
     2
  9
$SPLFRAME
 70
     0
  9
$SPLINETYPE
 70
     6
  9
$SPLINESEGS
 70
     8
  9
$ATTDIA
 70
     0
  9
$ATTREQ
 70
     1
  9
$HANDLING
 70
 22529
  9
$HANDSEED
  5
1D69184600
  9
$SURFTAB1
 70
     6
  9
$SURFTAB2
 70
     6
  9
$SURFTYPE
 70
     6
  9
$SURFU
 70
     6
  9
$SURFV
 70
     6
  9
$UCSNAME
  2

  9
$UCSORG
 10
0.0
 20
0.0
 30
0.0
  9
$UCSXDIR
 10
1.0
 20
0.0
 30
0.0
  9
$UCSYDIR
 10
0.0
 20
1.0
 30
0.0
  9
$PUCSNAME
  2

  9
$PUCSORG
 10
0.0
 20
0.0
 30
0.0
  9
$PUCSXDIR
 10
1.0
 20
0.0
 30
0.0
  9
$PUCSYDIR
 10
0.0
 20
1.0
 30
0.0
  9
$USERI1
 70
     4
  9
$USERI2
 70
     1
  9
$USERI3
 70
     1
  9
$USERI4
 70
     2
  9
$USERI5
 70
     1
  9
$USERR1
 40
1.0
  9
$USERR2
 40
3.0
  9
$USERR3
 40
3.0
  9
$USERR4
 40
1.5
  9
$USERR5
 40
8.0
  9
$WORLDVIEW
 70
     1
  9
$SHADEDGE
 70
     3
  9
$SHADEDIF
 70
    70
  9
$TILEMODE
 70
     1
  9
$MAXACTVP
 70
    16
  9
$PINSBASE
 10
0.0
 20
0.0
 30
0.0
  9
$PLIMCHECK
 70
     0
  9
$PEXTMIN
 10
1.000000000000000E+20
 20
1.000000000000000E+20
 30
1.000000000000000E+20
  9
$PEXTMAX
 10
-1.000000000000000E+20
 20
-1.000000000000000E+20
 30
-1.000000000000000E+20
  9
$PLIMMIN
 10
0.0
 20
0.0
  9
$PLIMMAX
 10
12.0
 20
9.0
  9
$UNITMODE
 70
     0
  9
$VISRETAIN
 70
     0
  9
$PLINEGEN
 70
     0
  9
$PSLTSCALE
 70
     0
  9
$TREEDEPTH
 70
     0
  9
$PICKSTYLE
 70
     1
  9
$CMLSTYLE
  2
STANDARD
  9
$CMLJUST
 70
     0
  9
$CMLSCALE
 40
1.0
  9
$PROXYGRAPHICS
 70
     1
  9
$MEASUREMENT
 70
     0
  0
ENDSEC
  0
SECTION
  2
CLASSES
  0
CLASS
  1
LWPOLYLINE
  2
AcDbPolyline
  3
AutoCAD 2000
 90
        0
280
     0
281
     1
  0
CLASS
  1
ACDBDICTIONARYWDFLT
  2
AcDbDictionaryWithDefault
  3
AutoCAD 2000
 90
        0
280
     0
281
     0
  0
CLASS
  1
ACDBPLACEHOLDER
  2
AcDbPlaceHolder
  3
AutoCAD 2000
 90
        0
280
     0
281
     0
  0
CLASS
  1
LAYOUT
  2
AcDbLayout
  3
AutoCAD 2000
 90
        0
280
     0
281
     0
  0
CLASS
  1
LONG_TRANSACTION
  2
AcDbLongTransaction
  3
AutoCAD 2000
 90
        0
280
     0
281
     0
  0
CLASS
  1
LWPOLYLINE
  2
AcDbPolyline
  3
AutoCAD 2000
 90
        0
280
     0
281
     1
  0
CLASS
  1
HATCH
  2
AcDbHatch
  3
AutoCAD 2000
 90
        0
280
     0
281
     1
  0
CLASS
  1
XRECORD
  2
AcDbXrecord
  3
AutoCAD 2000
 90
        0
280
     0
281
     0
  0
CLASS
  1
LONG_TRANSACTION
  2
AcDbLongTransaction
  3
AutoCAD 2000
 90
        0
280
     0
281
     0
  0
CLASS
  1
LWPOLYLINE
  2
AcDbPolyline
  3
AutoCAD 2000
 90
        0
280
     0
281
     1
  0
CLASS
  1
HATCH
  2
AcDbHatch
  3
AutoCAD 2000
 90
        0
280
     0
281
     1
  0
CLASS
  1
XRECORD
  2
AcDbXrecord
  3
AutoCAD 2000
 90
        0
280
     0
281
     0
  0
CLASS
  1
LONG_TRANSACTION
  2
AcDbLongTransaction
  3
AutoCAD 2000
 90
        0
280
     0
281
     0
  0
CLASS
  1
LWPOLYLINE
  2
AcDbPolyline
  3
AutoCAD 2000
 90
        0
280
     0
281
     1
  0
CLASS
  1
HATCH
  2
AcDbHatch
  3
AutoCAD 2000
 90
        0
280
     0
281
     1
  0
CLASS
  1
XRECORD
  2
AcDbXrecord
  3
AutoCAD 2000
 90
        0
280
     0
281
     0
  0
CLASS
  1
LONG_TRANSACTION
  2
AcDbLongTransaction
  3
AutoCAD 2000
 90
        0
280
     0
281
     0
  0
CLASS
  1
LWPOLYLINE
  2
AcDbPolyline
  3
AutoCAD 2000
 90
        0
280
     0
281
     1
  0
CLASS
  1
HATCH
  2
AcDbHatch
  3
AutoCAD 2000
 90
        0
280
     0
281
     1
  0
CLASS
  1
XRECORD
  2
AcDbXrecord
  3
AutoCAD 2000
 90
        0
280
     0
281
     0
  0
CLASS
  1
LONG_TRANSACTION
  2
AcDbLongTransaction
  3
AutoCAD 2000
 90
        0
280
     0
281
     0
  0
CLASS
  1
LWPOLYLINE
  2
AcDbPolyline
  3
AutoCAD 2000
 90
        0
280
     0
281
     1
  0
CLASS
  1
HATCH
  2
AcDbHatch
  3
AutoCAD 2000
 90
        0
280
     0
281
     1
  0
CLASS
  1
XRECORD
  2
AcDbXrecord
  3
AutoCAD 2000
 90
        0
280
     0
281
     0
  0
CLASS
  1
LONG_TRANSACTION
  2
AcDbLongTransaction
  3
AutoCAD 2000
 90
        0
280
     0
281
     0
  0
CLASS
  1
LWPOLYLINE
  2
AcDbPolyline
  3
AutoCAD 2000
 90
        0
280
     0
281
     1
  0
CLASS
  1
HATCH
  2
AcDbHatch
  3
AutoCAD 2000
 90
        0
280
     0
281
     1
  0
CLASS
  1
XRECORD
  2
AcDbXrecord
  3
AutoCAD 2000
 90
        0
280
     0
281
     0
  0
CLASS
  1
DICTIONARYVAR
  2
AcDbDictionaryVar
  3
AutoCAD 2000
 90
        0
280
     0
281
     0
  0
CLASS
  1
LONG_TRANSACTION
  2
AcDbLongTransaction
  3
AutoCAD 2000
 90
        0
280
     0
281
     0
  0
CLASS
  1
LWPOLYLINE
  2
AcDbPolyline
  3
AutoCAD 2000
 90
        0
280
     0
281
     1
  0
CLASS
  1
HATCH
  2
AcDbHatch
  3
AutoCAD 2000
 90
        0
280
     0
281
     1
  0
CLASS
  1
XRECORD
  2
AcDbXrecord
  3
AutoCAD 2000
 90
        0
280
     0
281
     0
  0
CLASS
  1
LONG_TRANSACTION
  2
AcDbLongTransaction
  3
AutoCAD 2000
 90
        0
280
     0
281
     0
  0
CLASS
  1
LWPOLYLINE
  2
AcDbPolyline
  3
AutoCAD 2000
 90
        0
280
     0
281
     1
  0
CLASS
  1
HATCH
  2
AcDbHatch
  3
AutoCAD 2000
 90
        0
280
     0
281
     1
  0
CLASS
  1
XRECORD
  2
AcDbXrecord
  3
AutoCAD 2000
 90
        0
280
     0
281
     0
  0
ENDSEC
  0
SECTION
  2
TABLES
  0
TABLE
  2
VPORT
  5
1D69183389
330
0
100
AcDbSymbolTable
 70
    11
  0
VPORT
  5
1D691833BC
330
1D69183389
100
AcDbSymbolTableRecord
100
AcDbViewportTableRecord
  2
2
 70
     0
 10
0.5
 20
0.0
 11
1.0
 21
1.0
 12
0.924031
 22
1.052651
 13
0.0
 23
0.0
 14
1.0
 24
1.0
 15
10.0
 25
10.0
 16
0.0
 26
0.0
 36
1.0
 17
0.0
 27
0.0
 37
0.0
 40
2.105302
 41
0.877814
 42
50.0
 43
0.0
 44
0.0
 50
0.0
 51
0.0
 71
     0
 72
   500
 73
     1
 74
     1
 75
     0
 76
     0
 77
     0
 78
     0
  0
VPORT
  5
1D691833BD
330
1D69183389
100
AcDbSymbolTableRecord
100
AcDbViewportTableRecord
  2
2
 70
     0
 10
0.0
 20
0.0
 11
0.5
 21
1.0
 12
0.924031
 22
1.052651
 13
0.0
 23
0.0
 14
1.0
 24
1.0
 15
10.0
 25
10.0
 16
0.0
 26
0.0
 36
1.0
 17
0.0
 27
0.0
 37
0.0
 40
2.105302
 41
0.877814
 42
50.0
 43
0.0
 44
0.0
 50
0.0
 51
0.0
 71
     0
 72
   500
 73
     1
 74
     1
 75
     0
 76
     0
 77
     0
 78
     0
  0
VPORT
  5
1D691833BE
330
1D69183389
100
AcDbSymbolTableRecord
100
AcDbViewportTableRecord
  2
3
 70
     0
 10
0.0
 20
0.5
 11
1.0
 21
1.0
 12
2.832169999999998
 22
1.052651
 13
0.0
 23
0.0
 14
1.0
 24
1.0
 15
10.0
 25
10.0
 16
0.0
 26
0.0
 36
1.0
 17
0.0
 27
0.0
 37
0.0
 40
2.105302
 41
3.571429
 42
50.0
 43
0.0
 44
0.0
 50
0.0
 51
0.0
 71
     0
 72
   500
 73
     1
 74
     1
 75
     0
 76
     0
 77
     0
 78
     0
  0
VPORT
  5
1D691833BF
330
1D69183389
100
AcDbSymbolTableRecord
100
AcDbViewportTableRecord
  2
3
 70
     0
 10
0.0
 20
0.0
 11
1.0
 21
0.5
 12
2.856741999999998
 22
1.052651
 13
0.0
 23
0.0
 14
1.0
 24
1.0
 15
10.0
 25
10.0
 16
0.0
 26
0.0
 36
1.0
 17
0.0
 27
0.0
 37
0.0
 40
2.105302
 41
3.594770999999998
 42
50.0
 43
0.0
 44
0.0
 50
0.0
 51
0.0
 71
     0
 72
   500
 73
     1
 74
     1
 75
     0
 76
     0
 77
     0
 78
     0
  0
VPORT
  5
1D691833C0
330
1D69183389
100
AcDbSymbolTableRecord
100
AcDbViewportTableRecord
  2
4
 70
     0
 10
0.5
 20
0.0
 11
1.0
 21
0.5
 12
2.886858
 22
1.052651
 13
0.0
 23
0.0
 14
1.0
 24
1.0
 15
10.0
 25
10.0
 16
0.0
 26
0.0
 36
1.0
 17
0.0
 27
0.0
 37
0.0
 40
4.275206999999999
 41
1.784314
 42
50.0
 43
0.0
 44
0.0
 50
0.0
 51
0.0
 71
     0
 72
   500
 73
     1
 74
     1
 75
     0
 76
     0
 77
     0
 78
     0
  0
VPORT
  5
1D691833C1
330
1D69183389
100
AcDbSymbolTableRecord
100
AcDbViewportTableRecord
  2
4
 70
     0
 10
0.5
 20
0.5
 11
1.0
 21
1.0
 12
2.86209
 22
1.052651
 13
0.0
 23
0.0
 14
1.0
 24
1.0
 15
10.0
 25
10.0
 16
0.0
 26
0.0
 36
1.0
 17
0.0
 27
0.0
 37
0.0
 40
4.275206999999999
 41
1.772726999999999
 42
50.0
 43
0.0
 44
0.0
 50
0.0
 51
0.0
 71
     0
 72
   500
 73
     1
 74
     1
 75
     0
 76
     0
 77
     0
 78
     0
  0
VPORT
  5
1D691833C2
330
1D69183389
100
AcDbSymbolTableRecord
100
AcDbViewportTableRecord
  2
4
 70
     0
 10
0.0
 20
0.5
 11
0.5
 21
1.0
 12
2.86209
 22
1.052651
 13
0.0
 23
0.0
 14
1.0
 24
1.0
 15
10.0
 25
10.0
 16
0.0
 26
0.0
 36
1.0
 17
0.0
 27
0.0
 37
0.0
 40
4.275206999999999
 41
1.772726999999999
 42
50.0
 43
0.0
 44
0.0
 50
0.0
 51
0.0
 71
     0
 72
   500
 73
     1
 74
     1
 75
     0
 76
     0
 77
     0
 78
     0
  0
VPORT
  5
1D691833C3
330
1D69183389
100
AcDbSymbolTableRecord
100
AcDbViewportTableRecord
  2
4
 70
     0
 10
0.0
 20
0.0
 11
0.5
 21
0.5
 12
2.886858
 22
1.052651
 13
0.0
 23
0.0
 14
1.0
 24
1.0
 15
10.0
 25
10.0
 16
0.0
 26
0.0
 36
1.0
 17
0.0
 27
0.0
 37
0.0
 40
4.275206999999999
 41
1.784314
 42
50.0
 43
0.0
 44
0.0
 50
0.0
 51
0.0
 71
     0
 72
   500
 73
     1
 74
     1
 75
     0
 76
     0
 77
     0
 78
     0
  0
VPORT
  5
1D691845DC
330
1D69183389
100
AcDbSymbolTableRecord
100
AcDbViewportTableRecord
  2
*ACTIVE
 70
     0
 10
0.0
 20
0.0
 11
1.0
 21
1.0
 12
180.9999998428469
 22
136.5000006356275
 13
0.0
 23
0.0
 14
1.0
 24
1.0
 15
10.0
 25
10.0
 16
0.0
 26
0.0
 36
1.0
 17
0.0
 27
0.0
 37
0.0
 40
274.801085229033
 41
1.731733914940021
 42
50.0
 43
0.0
 44
0.0
 50
0.0
 51
0.0
 71
     0
 72
   500
 73
     1
 74
     0
 75
     0
 76
     0
 77
     0
 78
     0
  0
ENDTAB
  0
TABLE
  2
LTYPE
  5
1D69183386
330
0
100
AcDbSymbolTable
 70
     2
  0
LTYPE
  5
1D69183393
330
1D69183386
100
AcDbSymbolTableRecord
100
AcDbLinetypeTableRecord
  2
BYBLOCK
 70
     0
  3

 72
    65
 73
     0
 40
0.0
  0
LTYPE
  5
1D69183394
330
1D69183386
100
AcDbSymbolTableRecord
100
AcDbLinetypeTableRecord
  2
BYLAYER
 70
     0
  3

 72
    65
 73
     0
 40
0.0
  0
LTYPE
  5
1D69183395
330
1D69183386
100
AcDbSymbolTableRecord
100
AcDbLinetypeTableRecord
  2
CONTINUOUS
 70
     0
  3
実線
 72
    65
 73
     0
 40
0.0
  0
LTYPE
  5
1D691833BA
330
1D69183386
100
AcDbSymbolTableRecord
100
AcDbLinetypeTableRecord
  2
PHANTOM
 70
     0
  3
_____ _ _ _____ _ _ _____ _ _ _____ _ _ ____
 72
    65
 73
     6
 40
2.5
 49
1.25
 74
     0
 49
-0.25
 74
     0
 49
0.25
 74
     0
 49
-0.25
 74
     0
 49
0.25
 74
     0
 49
-0.25
 74
     0
  0
ENDTAB
  0
TABLE
  2
LAYER
  5
1D69183383
330
0
100
AcDbSymbolTable
 70
     8
  0
LAYER
  5
1D69183390
330
1D69183383
100
AcDbSymbolTableRecord
100
AcDbLayerTableRecord
  2
0
 70
     0
 62
     7
  6
CONTINUOUS
  0
LAYER
  5
1D691833C9
330
1D69183383
100
AcDbSymbolTableRecord
100
AcDbLayerTableRecord
  2
NITEN
 70
     0
 62
     2
  6
PHANTOM
  0
LAYER
  5
1D691833CA
330
1D69183383
100
AcDbSymbolTableRecord
100
AcDbLayerTableRecord
  2
HATCH
 70
     0
 62
     4
  6
CONTINUOUS
  0
LAYER
  5
1D691833CB
330
1D69183383
100
AcDbSymbolTableRecord
100
AcDbLayerTableRecord
  2
SUNPOU
 70
     0
 62
     3
  6
CONTINUOUS
  0
LAYER
  5
1D691833CC
330
1D69183383
100
AcDbSymbolTableRecord
100
AcDbLayerTableRecord
  2
TEXT
 70
     0
 62
     3
  6
CONTINUOUS
  0
LAYER
  5
1D691833CD
330
1D69183383
100
AcDbSymbolTableRecord
100
AcDbLayerTableRecord
  2
SAISEN
 70
     0
 62
     4
  6
CONTINUOUS
  0
LAYER
  5
1D691833CE
330
1D69183383
100
AcDbSymbolTableRecord
100
AcDbLayerTableRecord
  2
JISSEN
 70
     0
 62
     7
  6
CONTINUOUS
  0
LAYER
  5
1D691833D2
330
1D69183383
100
AcDbSymbolTableRecord
100
AcDbLayerTableRecord
  2
WAKU
 70
     0
 62
     5
  6
CONTINUOUS
  0
ENDTAB
  0
TABLE
  2
STYLE
  5
1D69183384
330
0
100
AcDbSymbolTable
 70
     3
  0
STYLE
  5
1D69183391
330
1D69183384
100
AcDbSymbolTableRecord
100
AcDbTextStyleTableRecord
  2
STANDARD
 70
     0
 40
0.0
 41
1.0
 50
0.0
 71
     0
 42
0.2
  3
ROMANS
  4
EXTFONT
  0
STYLE
  5
1D691833B3
330
1D69183384
100
AcDbSymbolTableRecord
100
AcDbTextStyleTableRecord
  2
K
 70
     0
 40
0.0
 41
1.0
 50
0.0
 71
     0
 42
1.5
  3
ROMANS.shx
  4
bigfont.shx
  0
STYLE
  5
1D691833B5
330
1D69183384
100
AcDbSymbolTableRecord
100
AcDbTextStyleTableRecord
  2
BIGFONT
 70
     0
 40
0.0
 41
1.0
 50
0.0
 71
     0
 42
1.5
  3
txt.shx
  4
bigfont
  0
ENDTAB
  0
TABLE
  2
VIEW
  5
1D69183387
330
0
100
AcDbSymbolTable
 70
     0
  0
ENDTAB
  0
TABLE
  2
UCS
  5
1D69183388
330
0
100
AcDbSymbolTable
 70
     0
  0
ENDTAB
  0
TABLE
  2
APPID
  5
1D6918338A
330
0
100
AcDbSymbolTable
 70
     1
  0
APPID
  5
1D69183392
330
1D6918338A
100
AcDbSymbolTableRecord
100
AcDbRegAppTableRecord
  2
ACAD
 70
     0
  0
ENDTAB
  0
TABLE
  2
DIMSTYLE
  5
1D6918338B
330
0
100
AcDbSymbolTable
 70
     1
  0
DIMSTYLE
105
1D691833C6
330
1D6918338B
100
AcDbSymbolTableRecord
100
AcDbDimStyleTableRecord
  2
IMAO
 70
     0
  3

  4

  5
ARROWANG
  6
ARROWANG
  7
ARROWANG
 40
1.0
 41
1.5
 42
1.0
 43
6.0
 44
1.0
 45
0.0
 46
0.0
 47
495.0
 48
0.0
140
3.0
141
0.0
142
0.0
143
25.4
144
1.0
145
0.0
146
1.0
147
0.09
 71
     0
 72
     0
 73
     0
 74
     0
 75
     0
 76
     0
 77
     1
 78
     8
170
     0
171
     2
172
     1
173
     0
174
     1
175
     0
176
     0
177
     0
178
     0
270
     2
271
     2
272
     2
273
     2
274
     2
340
1D691833B5
275
     0
280
     0
281
     0
282
     0
283
     1
284
     8
285
     8
286
     8
287
     3
288
     0
  0
ENDTAB
  0
TABLE
  2
BLOCK_RECORD
  5
1D69183382
330
0
100
AcDbSymbolTable
 70
     2
  0
BLOCK_RECORD
  5
1D69183399
102
{ACAD_XDICTIONARY
360
1D69183A5C
102
}
330
1D69183382
100
AcDbSymbolTableRecord
100
AcDbBlockTableRecord
  2
*MODEL_SPACE
  0
BLOCK_RECORD
  5
1D69183396
102
{ACAD_XDICTIONARY
360
1D69183A5A
102
}
330
1D69183382
100
AcDbSymbolTableRecord
100
AcDbBlockTableRecord
  2
*PAPER_SPACE
  0
BLOCK_RECORD
  5
1D691833A3
330
1D69183382
100
AcDbSymbolTableRecord
100
AcDbBlockTableRecord
  2
ARROWANG
  0
BLOCK_RECORD
  5
1D691842D8
330
1D69183382
100
AcDbSymbolTableRecord
100
AcDbBlockTableRecord
  2
ARROW
  0
ENDTAB
  0
ENDSEC
  0
SECTION
  2
BLOCKS
  0
BLOCK
  5
1D691833D6
330
1D69183399
100
AcDbEntity
  8
0
100
AcDbBlockBegin
  2
*MODEL_SPACE
 70
     0
 10
0.0
 20
0.0
 30
0.0
  3
*MODEL_SPACE
  1

  0
ENDBLK
  5
1D691833D7
330
1D69183399
100
AcDbEntity
  8
0
100
AcDbBlockEnd
  0
BLOCK
  5
1D691833D4
330
1D69183396
100
AcDbEntity
 67
     1
  8
0
100
AcDbBlockBegin
  2
*PAPER_SPACE
 70
     0
 10
0.0
 20
0.0
 30
0.0
  3
*PAPER_SPACE
  1

  0
ENDBLK
  5
1D691833D5
330
1D69183396
100
AcDbEntity
 67
     1
  8
0
100
AcDbBlockEnd
  0
BLOCK
  5
1D
330
1D691833A3
100
AcDbEntity
  8
0
100
AcDbBlockBegin
  2
ARROWANG
 70
     0
 10
0.0
 20
0.0
 30
0.0
  3
ARROWANG
  1

  0
LINE
  5
1E
330
1D691833A3
100
AcDbEntity
  8
SUNPOU
100
AcDbLine
 10
0.0
 20
0.0
 30
0.0
 11
-1.5
 21
0.401924
 31
0.0
  0
LINE
  5
1F
330
1D691833A3
100
AcDbEntity
  8
SUNPOU
100
AcDbLine
 10
0.0
 20
0.0
 30
0.0
 11
-1.5
 21
-0.401924
 31
0.0
  0
ENDBLK
  5
20
330
1D691833A3
100
AcDbEntity
  8
0
100
AcDbBlockEnd
  0
BLOCK
  5
1D691842DC
330
1D691842D8
100
AcDbEntity
  8
0
100
AcDbBlockBegin
  2
ARROW
 70
     0
 10
1.0
 20
0.5
 30
0.0
  3
ARROW
  1

  0
LINE
  5
1D691842D9
330
1D691842D8
100
AcDbEntity
  8
0
100
AcDbLine
 10
1.0
 20
0.5
 30
0.0
 11
-0.5
 21
0.098076
 31
0.0
  0
LINE
  5
1D691842DA
330
1D691842D8
100
AcDbEntity
  8
0
100
AcDbLine
 10
0.0
 20
0.5
 30
0.0
 11
1.0
 21
0.5
 31
0.0
  0
LINE
  5
1D691842DB
330
1D691842D8
100
AcDbEntity
  8
0
100
AcDbLine
 10
1.0
 20
0.5
 30
0.0
 11
-0.5
 21
0.9019239999999999
 31
0.0
  0
ENDBLK
  5
1D691842DD
330
1D691842D8
100
AcDbEntity
  8
0
100
AcDbBlockEnd
  0
ENDSEC
  0
SECTION
  2
ENTITIES
  0
TEXT
  5
9255532
330
1D69183399
100
AcDbEntity
  8
TEXT
100
AcDbText
 10
132.3314275714284
 20
262.5
 30
0.0
 40
3.0
  1
66 ナイロン
 41
0.9
  7
K
 72
     4
 11
141.9999989999999
 21
264.0
 31
0.0
100
AcDbText
  0
TEXT
  5
9255533
330
1D69183399
100
AcDbEntity
  8
TEXT
100
AcDbText
 10
156.7857132857142
 20
262.5
 30
0.0
 40
3.0
  1
1
  7
K
 72
     4
 11
157.999999
 21
264.0
 31
0.0
100
AcDbText
  0
LINE
  5
9255535
330
1D69183399
100
AcDbEntity
  8
JISSEN
100
AcDbLine
 10
91.499999
 20
267.0
 30
0.0
 11
180.999999
 21
267.0
 31
0.0
  0
LINE
  5
9255536
330
1D69183399
100
AcDbEntity
  8
JISSEN
100
AcDbLine
 10
91.499999
 20
261.0
 30
0.0
 11
180.999999
 21
261.0
 31
0.0
  0
TEXT
  5
9255537
330
1D69183399
100
AcDbEntity
  8
TEXT
100
AcDbText
 10
107.899999
 20
268.5
 30
0.0
 40
3.0
  1
名      称
  7
K
 72
     4
 11
116.499999
 21
270.0
 31
0.0
100
AcDbText
  0
TEXT
  5
9255538
330
1D69183399
100
AcDbEntity
  8
TEXT
100
AcDbText
 10
93.299999
 20
268.5
 30
0.0
 40
3.0
  1
番号
  7
K
 72
     4
 11
96.499999
 21
270.0
 31
0.0
100
AcDbText
  0
LINE
  5
9255539
330
1D69183399
100
AcDbEntity
  8
JISSEN
100
AcDbLine
 10
91.499999
 20
261.0
 30
0.0
 11
91.499999
 21
273.0
 31
0.0
  0
LINE
  5
925553A
330
1D69183399
100
AcDbEntity
  8
JISSEN
100
AcDbLine
 10
101.4999989999999
 20
273.0
 30
0.0
 11
101.4999989999999
 21
261.0
 31
0.0
  0
TEXT
  5
925553B
330
1D69183399
100
AcDbEntity
  8
TEXT
100
AcDbText
 10
135.1999989999999
 20
268.5
 30
0.0
 40
3.0
  1
材    質
  7
K
 72
     4
 11
141.9999989999999
 21
270.0
 31
0.0
100
AcDbText
  0
LINE
  5
925553C
330
1D69183399
100
AcDbEntity
  8
JISSEN
100
AcDbLine
 10
131.499999
 20
273.0
 30
0.0
 11
131.499999
 21
261.0
 31
0.0
  0
LINE
  5
925553D
330
1D69183399
100
AcDbEntity
  8
JISSEN
100
AcDbLine
 10
152.4999989999999
 20
261.0
 30
0.0
 11
152.4999989999999
 21
273.0
 31
0.0
  0
TEXT
  5
925553E
330
1D69183399
100
AcDbEntity
  8
TEXT
100
AcDbText
 10
165.6999989999999
 20
268.5
 30
0.0
 40
3.0
  1
備    考
  7
K
 72
     4
 11
172.499999
 21
270.0
 31
0.0
100
AcDbText
  0
TEXT
  5
925553F
330
1D69183399
100
AcDbEntity
  8
TEXT
100
AcDbText
 10
154.799999
 20
268.5
 30
0.0
 40
3.0
  1
個数
  7
K
 72
     4
 11
157.999999
 21
270.0
 31
0.0
100
AcDbText
  0
LINE
  5
9255540
330
1D69183399
100
AcDbEntity
  8
JISSEN
100
AcDbLine
 10
163.499999
 20
273.0
 30
0.0
 11
163.499999
 21
261.0
 31
0.0
  0
LWPOLYLINE
  5
1D691837CF
330
1D69183399
100
AcDbEntity
  8
WAKU
100
AcDbPolyline
 90
        4
 70
     1
 43
0.0
 10
0.0
 20
0.0
 10
180.999999
 20
0.0
 10
180.999999
 20
273.0
 10
0.0
 20
273.0
  0
TEXT
  5
1D691838CA
330
1D69183399
100
AcDbEntity
  8
SUNPOU
100
AcDbText
 10
279.4550078837497
 20
2.849423943005376
 30
0.0
 40
3.0
  1
尺度　1/1
  7
K
100
AcDbText
  0
TEXT
  5
1D691838CB
330
1D69183399
100
AcDbEntity
  8
SUNPOU
100
AcDbText
 10
279.4550078837497
 20
7.849423943005375
 30
0.0
 40
3.0
  1
シーリングプレートX、取付状態図（ヘッドはX  ）
  7
K
100
AcDbText
  0
LWPOLYLINE
  5
1D69183952
330
1D69183399
100
AcDbEntity
  8
WAKU
100
AcDbPolyline
 90
        4
 70
     1
 43
0.0
 10
180.999999
 20
0.0
 10
361.999998
 20
0.0
 10
361.999998
 20
273.0
 10
180.999999
 20
273.0
  0
TEXT
  5
1D69183A33
330
1D69183399
100
AcDbEntity
  8
SUNPOU
100
AcDbText
 10
140.5620934383529
 20
7.849423943005375
 30
0.0
 40
3.0
  1
シーリングプレートX
  7
K
100
AcDbText
  0
TEXT
  5
1D69183A34
330
1D69183399
100
AcDbEntity
  8
SUNPOU
100
AcDbText
 10
140.5620934383529
 20
2.849423943005376
 30
0.0
 40
3.0
  1
尺度　1/1
  7
K
100
AcDbText
  0
TEXT
  5
1D69183A35
330
1D69183399
100
AcDbEntity
  8
TEXT
100
AcDbText
 10
104.4657132857142
 20
262.5
 30
0.0
 40
3.0
  1
シーリングプレート X
 41
0.65
  7
K
 72
     4
 11
116.499999
 21
264.0
 31
0.0
100
AcDbText
  0
CIRCLE
  5
1D69184340
330
1D69183399
100
AcDbEntity
  8
JISSEN
100
AcDbCircle
 10
89.83333300000003
 20
93.01805685599287
 30
0.0
 40
14.0
  0
CIRCLE
  5
1D69184341
330
1D69183399
100
AcDbEntity
  8
JISSEN
100
AcDbCircle
 10
89.83333300000003
 20
93.01805685599287
 30
0.0
 40
13.0
  0
ARC
  5
1D69184342
330
1D69183399
100
AcDbEntity
  8
JISSEN
100
AcDbCircle
 10
89.83333300000003
 20
93.01805685599287
 30
0.0
 40
11.75
100
AcDbArc
 50
82.66563100000098
 51
97.33436899999901
  0
ARC
  5
1D69184343
330
1D69183399
100
AcDbEntity
  8
JISSEN
100
AcDbCircle
 10
89.83333300000003
 20
93.01805685599287
 30
0.0
 40
11.75
100
AcDbArc
 50
262.6656310000009
 51
277.334368999999
  0
LINE
  5
1D69184351
330
1D69183399
100
AcDbEntity
  8
JISSEN
100
AcDbLine
 10
75.83333300000005
 20
181.3967348559928
 30
0.0
 11
103.8333329999999
 21
181.3967348559928
 31
0.0
  0
CIRCLE
  5
1D69184352
330
1D69183399
100
AcDbEntity
  8
JISSEN
100
AcDbCircle
 10
89.83333300000003
 20
93.01805685599287
 30
0.0
 40
25.0
  0
LWPOLYLINE
  5
1D69184355
330
1D69183399
100
AcDbEntity
  8
JISSEN
100
AcDbPolyline
 90
        4
 70
     0
 43
0.0
 10
77.474448
 20
88.98594085599285
 10
78.86222200000003
 20
89.57063485599285
 42
0.110011
 10
81.36222200000004
 20
85.24050785599284
 10
80.16197500000004
 20
84.33100685599287
  0
LWPOLYLINE
  5
1D69184356
330
1D69183399
100
AcDbEntity
  8
JISSEN
100
AcDbPolyline
 90
        4
 70
     0
 43
0.0
 10
81.14628200000003
 20
83.34669985599283
 10
82.05578300000002
 20
84.54694585599288
 42
0.110011
 10
86.38591000000003
 20
82.04694585599288
 10
85.80121600000003
 20
80.65917185599287
  0
LINE
  5
1D69184357
330
1D69183399
100
AcDbEntity
  8
JISSEN
100
AcDbLine
 10
88.15476100000003
 20
80.12688185599285
 30
0.0
 11
88.33333300000004
 21
81.36419485599287
 31
0.0
  0
LWPOLYLINE
  5
1D69184358
330
1D69183399
100
AcDbEntity
  8
JISSEN
100
AcDbPolyline
 90
        4
 70
     0
 43
0.0
 10
80.16197500000004
 20
101.7051068559927
 10
81.36222200000004
 20
100.7956068559927
 42
0.110011
 10
78.86222200000003
 20
96.46547985599287
 10
77.474448
 20
97.05017285599286
  0
ARC
  5
1D69184359
330
1D69183399
100
AcDbEntity
  8
JISSEN
100
AcDbCircle
 10
89.83333300000003
 20
93.01805685599287
 30
0.0
 40
11.75
100
AcDbArc
 50
172.665631
 51
187.3343689999998
  0
LINE
  5
1D6918435A
330
1D69183399
100
AcDbEntity
  8
JISSEN
100
AcDbLine
 10
78.17947100000004
 20
91.51805685599287
 30
0.0
 11
76.94215800000002
 21
91.33948485599285
 31
0.0
  0
LINE
  5
1D6918435B
330
1D69183399
100
AcDbEntity
  8
JISSEN
100
AcDbLine
 10
76.94215800000002
 20
94.69662885599285
 30
0.0
 11
78.17947100000004
 21
94.51805685599287
 31
0.0
  0
LWPOLYLINE
  5
1D6918435C
330
1D69183399
100
AcDbEntity
  8
JISSEN
100
AcDbPolyline
 90
        4
 70
     0
 43
0.0
 10
85.80121600000003
 20
105.3769418559928
 10
86.38591000000003
 20
103.9891678559927
 42
0.110011
 10
82.05578300000002
 20
101.4891678559928
 10
81.14628200000003
 20
102.6894148559927
  0
LINE
  5
1D6918435D
330
1D69183399
100
AcDbEntity
  8
JISSEN
100
AcDbLine
 10
88.33333300000004
 20
104.6719188559928
 30
0.0
 11
88.15476100000003
 21
105.9092318559927
 31
0.0
  0
LINE
  5
1D6918435F
330
1D69183399
100
AcDbEntity
  8
JISSEN
100
AcDbLine
 10
75.33333300000006
 20
180.8967348559928
 30
0.0
 11
75.33333300000006
 21
162.8967348559928
 31
0.0
  0
LINE
  5
1D69184366
330
1D69183399
100
AcDbEntity
  8
JISSEN
100
AcDbLine
 10
75.33333300000006
 20
180.8967348559928
 30
0.0
 11
75.83333300000005
 21
181.3967348559928
 31
0.0
  0
LWPOLYLINE
  5
1D6918436B
330
1D69183399
100
AcDbEntity
  8
JISSEN
100
AcDbPolyline
 90
        4
 70
     0
 43
0.0
 10
102.192218
 20
88.98594085599285
 10
100.8044439999999
 20
89.57063485599285
 42
-0.110011
 10
98.30444400000004
 20
85.24050785599284
 10
99.50469000000005
 20
84.33100685599287
  0
LWPOLYLINE
  5
1D6918436C
330
1D69183399
100
AcDbEntity
  8
JISSEN
100
AcDbPolyline
 90
        4
 70
     0
 43
0.0
 10
98.52038300000003
 20
83.34669985599283
 10
97.61088200000001
 20
84.54694585599288
 42
-0.110011
 10
93.280755
 20
82.04694585599288
 10
93.86544900000002
 20
80.65917185599287
  0
LINE
  5
1D6918436D
330
1D69183399
100
AcDbEntity
  8
JISSEN
100
AcDbLine
 10
91.33333300000003
 20
81.36419485599287
 30
0.0
 11
91.51190500000002
 21
80.12688185599285
 31
0.0
  0
LWPOLYLINE
  5
1D6918436E
330
1D69183399
100
AcDbEntity
  8
JISSEN
100
AcDbPolyline
 90
        4
 70
     0
 43
0.0
 10
99.50469000000005
 20
101.7051068559927
 10
98.30444400000004
 20
100.7956068559927
 42
-0.110011
 10
100.8044439999999
 20
96.46547985599287
 10
102.192218
 20
97.05017285599286
  0
LWPOLYLINE
  5
1D6918436F
330
1D69183399
100
AcDbEntity
  8
JISSEN
100
AcDbPolyline
 90
        4
 70
     0
 43
0.0
 10
93.86544900000002
 20
105.3769418559928
 10
93.280755
 20
103.9891678559927
 42
-0.110011
 10
97.61088200000001
 20
101.4891678559928
 10
98.52038300000003
 20
102.6894148559927
  0
LINE
  5
1D69184370
330
1D69183399
100
AcDbEntity
  8
JISSEN
100
AcDbLine
 10
91.51190500000002
 20
105.9092318559927
 30
0.0
 11
91.33333300000003
 21
104.6719188559928
 31
0.0
  0
LINE
  5
1D69184371
330
1D69183399
100
AcDbEntity
  8
JISSEN
100
AcDbLine
 10
101.487195
 20
94.51805685599287
 30
0.0
 11
102.7245079999999
 21
94.69662885599285
 31
0.0
  0
LINE
  5
1D69184372
330
1D69183399
100
AcDbEntity
  8
JISSEN
100
AcDbLine
 10
102.7245079999999
 20
91.33948485599285
 30
0.0
 11
101.487195
 21
91.51805685599287
 31
0.0
  0
ARC
  5
1D69184373
330
1D69183399
100
AcDbEntity
  8
JISSEN
100
AcDbCircle
 10
89.83333300000003
 20
93.01805685599287
 30
0.0
 40
11.75
100
AcDbArc
 50
352.665631
 51
7.334368999999957
  0
LINE
  5
1D6918437A
330
1D69183399
100
AcDbEntity
  8
JISSEN
100
AcDbLine
 10
114.833333
 20
162.8967348559928
 30
0.0
 11
104.409085675048
 21
162.8967348559928
 31
0.0
  0
LINE
  5
1D6918437B
330
1D69183399
100
AcDbEntity
  8
JISSEN
100
AcDbLine
 10
104.803628
 20
159.6386568559928
 30
0.0
 11
114.2647743910631
 21
161.9975851672144
 31
0.0
  0
LINE
  5
1D69184388
330
1D69183399
100
AcDbEntity
  8
JISSEN
100
AcDbLine
 10
104.803628
 20
159.6386568559928
 30
0.0
 11
103.8333329999999
 21
159.3967348559928
 31
0.0
  0
LINE
  5
1D6918439D
330
1D69183399
100
AcDbEntity
  8
JISSEN
100
AcDbLine
 10
114.833333
 20
162.8967348559928
 30
0.0
 11
114.833333
 21
162.72530696956
 31
0.0
  0
LINE
  5
1D6918439E
330
1D69183399
100
AcDbEntity
  8
JISSEN
100
AcDbLine
 10
104.333333
 20
180.8967348559928
 30
0.0
 11
103.8333329999999
 21
181.3967348559928
 31
0.0
  0
LINE
  5
1D6918439F
330
1D69183399
100
AcDbEntity
  8
JISSEN
100
AcDbLine
 10
104.333333
 20
180.8967348559928
 30
0.0
 11
104.333333
 21
162.8967348559928
 31
0.0
  0
ARC
  5
1D691843A0
330
1D69183399
100
AcDbEntity
  8
JISSEN
100
AcDbCircle
 10
114.083333
 20
162.72530696956
 30
0.0
 40
0.75
100
AcDbArc
 50
283.9999975878825
 51
0.0
  0
ARC
  5
1D691843A6
330
1D69183399
100
AcDbEntity
  8
JISSEN
100
AcDbCircle
 10
65.58333300000004
 20
162.72530696956
 30
0.0
 40
0.75
100
AcDbArc
 50
180.0
 51
256.0000024121172
  0
LINE
  5
1D691843A7
330
1D69183399
100
AcDbEntity
  8
JISSEN
100
AcDbLine
 10
64.83333300000004
 20
162.8967348559928
 30
0.0
 11
64.83333300000004
 21
162.72530696956
 31
0.0
  0
LINE
  5
1D691843A8
330
1D69183399
100
AcDbEntity
  8
JISSEN
100
AcDbLine
 10
74.86303800000006
 20
159.6386568559928
 30
0.0
 11
65.40189160893693
 21
161.9975851672144
 31
0.0
  0
LINE
  5
1D691843A9
330
1D69183399
100
AcDbEntity
  8
JISSEN
100
AcDbLine
 10
64.83333300000004
 20
162.8967348559928
 30
0.0
 11
75.25758032495196
 21
162.8967348559928
 31
0.0
  0
LINE
  5
1D691843AA
330
1D69183399
100
AcDbEntity
  8
JISSEN
100
AcDbLine
 10
74.86303800000006
 20
159.6386568559928
 30
0.0
 11
75.83333300000005
 21
159.3967348559928
 31
0.0
  0
LINE
  5
1D691843AB
330
1D69183399
100
AcDbEntity
  8
JISSEN
100
AcDbLine
 10
103.8333329999999
 20
159.3967348559928
 30
0.0
 11
75.83333300000005
 21
159.3967348559928
 31
0.0
  0
LINE
  5
1D691843AC
330
1D69183399
100
AcDbEntity
  8
JISSEN
100
AcDbLine
 10
104.409085675048
 20
162.8967348559928
 30
0.0
 11
75.33333300000006
 21
162.8967348559928
 31
0.0
  0
HATCH
  5
1D691844D7
330
1D69183399
100
AcDbEntity
  8
HATCH
100
AcDbHatch
 10
0.0
 20
0.0
 30
0.0
210
0.0
220
0.0
230
1.0
  2
ANSI31
 70
     0
 71
     1
 91
        2
 92
        7
 72
     0
 73
     1
 93
       13
 10
253.5000818292031
 20
129.0785941605558
 10
253.5000818292032
 20
134.0785941605558
 10
192.8248722338498
 20
134.0785941605558
 10
193.0029331304398
 20
133.7856339354781
 10
193.4903905937826
 20
133.3280584764698
 10
194.0667963696182
 20
132.9485919981503
 10
194.6855994729823
 20
132.6038488272914
 10
195.3002489189093
 20
132.2504432906637
 10
195.8641937224379
 20
131.8449897150383
 10
196.330882898604
 20
131.3441024271858
 10
196.6537654624436
 20
130.7043957538767
 10
196.8197227729716
 20
129.9017512591075
 10
196.9366553456045
 20
129.0785941605558
 97
        4
330
1D69184521
330
1D691844DD
330
1D691844E4
330
1D691844DC
 92
        7
 72
     0
 73
     1
 93
       13
 10
345.0635075888021
 20
129.0785941605558
 10
345.180440161435
 20
129.9017512591081
 10
345.3463974719629
 20
130.7043957538768
 10
345.6692800358026
 20
131.3441024271859
 10
346.1359692119684
 20
131.8449897150383
 10
346.6999140154975
 20
132.250443290664
 10
347.3145634614258
 20
132.6038488272917
 10
347.9333665647891
 20
132.9485919981507
 10
348.5097723406238
 20
133.3280584764697
 10
348.9972298039669
 20
133.7856339354781
 10
349.1752907005567
 20
134.0785941605558
 10
288.5000811052033
 20
134.0785941605558
 10
288.5000811052032
 20
129.0785941605558
 97
        4
330
1D691844D9
330
1D69184523
330
1D691844D8
330
1D69184502
 75
     0
 76
     1
 52
90.0
 41
15.0
 77
     0
 78
     1
 53
135.0
 43
180.9999980291872
 44
10.0
 45
-1.325825214724775
 46
-1.325825214724775
 79
     0
 47
0.2009669510095255
 98
        2
 10
246.2201195279251
 20
130.884668455734
 10
306.7603784355898
 20
130.6837018851512
  0
LINE
  5
1D691844D8
102
{ACAD_REACTORS
330
1D691844D7
102
}
330
1D69183399
100
AcDbEntity
  8
JISSEN
100
AcDbLine
 10
288.5000811052033
 20
134.0785941605558
 30
0.0
 11
288.5000811052033
 21
129.0785941605558
 31
0.0
  0
LWPOLYLINE
  5
1D691844D9
102
{ACAD_REACTORS
330
1D691844D7
102
}
330
1D69183399
100
AcDbEntity
  8
SAISEN
100
AcDbPolyline
 90
       11
 70
     0
 43
0.0
 10
349.1752907005567
 20
134.0785941605558
 10
348.997229803967
 20
133.7856339354783
 10
348.5097723406238
 20
133.3280584764697
 10
347.9333665647887
 20
132.9485919981505
 10
347.3145634614254
 20
132.6038488272917
 10
346.6999140154976
 20
132.250443290664
 10
346.1359692119687
 20
131.8449897150385
 10
345.6692800358026
 20
131.3441024271857
 10
345.3463974719629
 20
130.7043957538768
 10
345.1804401614349
 20
129.9017512591075
 10
345.0635075888021
 20
129.0785941605558
  0
LINE
  5
1D691844DA
330
1D69183399
100
AcDbEntity
  8
JISSEN
100
AcDbLine
 10
256.0000814672033
 20
146.0785941605558
 30
0.0
 11
256.0000814672033
 21
129.0785941605558
 31
0.0
  0
LINE
  5
1D691844DB
330
1D69183399
100
AcDbEntity
  8
JISSEN
100
AcDbLine
 10
286.0000814672032
 20
146.0785941605558
 30
0.0
 11
286.0000814672032
 21
129.0785941605558
 31
0.0
  0
LINE
  5
1D691844DC
102
{ACAD_REACTORS
330
1D691844D7
102
}
330
1D69183399
100
AcDbEntity
  8
JISSEN
100
AcDbLine
 10
253.5000818292032
 20
134.0785941605558
 30
0.0
 11
253.5000818292032
 21
129.0785941605558
 31
0.0
  0
LWPOLYLINE
  5
1D691844DD
102
{ACAD_REACTORS
330
1D691844D7
102
}
330
1D69183399
100
AcDbEntity
  8
SAISEN
100
AcDbPolyline
 90
       11
 70
     0
 43
0.0
 10
192.8248722338498
 20
134.0785941605558
 10
193.0029331304398
 20
133.7856339354783
 10
193.4903905937828
 20
133.3280584764697
 10
194.0667963696179
 20
132.9485919981505
 10
194.6855994729811
 20
132.6038488272917
 10
195.3002489189091
 20
132.250443290664
 10
195.864193722438
 20
131.8449897150385
 10
196.330882898604
 20
131.3441024271857
 10
196.6537654624435
 20
130.7043957538768
 10
196.8197227729716
 20
129.9017512591075
 10
196.9366553456045
 20
129.0785941605558
  0
LINE
  5
1D691844DF
330
1D69183399
100
AcDbEntity
  8
JISSEN
100
AcDbLine
 10
246.5560471599988
 20
68.18258437599689
 30
0.0
 11
257.0000814672033
 21
65.57859416055588
 31
0.0
  0
LINE
  5
1D691844E0
330
1D69183399
100
AcDbEntity
  8
JISSEN
100
AcDbLine
 10
256.0000814672033
 20
69.0785941605559
 30
0.0
 11
246.0000814672033
 21
69.0785941605559
 31
0.0
  0
LINE
  5
1D691844E1
330
1D69183399
100
AcDbEntity
  8
JISSEN
100
AcDbLine
 10
256.0000814672033
 20
69.07859416055583
 30
0.0
 11
196.9366553456045
 21
69.0785941605559
 31
0.0
  0
LINE
  5
1D691844E2
330
1D69183399
100
AcDbEntity
  8
JISSEN
100
AcDbLine
 10
256.0000814672033
 20
129.0785941605558
 30
0.0
 11
246.0000814672033
 21
129.0785941605558
 31
0.0
  0
LINE
  5
1D691844E3
330
1D69183399
100
AcDbEntity
  8
JISSEN
100
AcDbLine
 10
246.5560471599988
 20
128.1825843759968
 30
0.0
 11
257.0000814672033
 21
125.5785941605559
 31
0.0
  0
LINE
  5
1D691844E4
102
{ACAD_REACTORS
330
1D691844D7
102
}
330
1D69183399
100
AcDbEntity
  8
JISSEN
100
AcDbLine
 10
256.0000814672033
 20
129.0785941605558
 30
0.0
 11
196.9366553456045
 21
129.0785941605558
 31
0.0
  0
ARC
  5
1D691844E5
330
1D69183399
100
AcDbEntity
  8
JISSEN
100
AcDbCircle
 10
247.0000814672033
 20
69.0785941605559
 30
0.0
 40
1.0
100
AcDbArc
 50
180.0
 51
243.6384294393531
  0
ARC
  5
1D691844E6
330
1D69183399
100
AcDbEntity
  8
JISSEN
100
AcDbCircle
 10
247.0000814672033
 20
129.0785941605558
 30
0.0
 40
1.0
100
AcDbArc
 50
180.0
 51
243.6384294393531
  0
LINE
  5
1D69184501
330
1D69183399
100
AcDbEntity
  8
JISSEN
100
AcDbLine
 10
286.0000814672033
 20
69.07859416055583
 30
0.0
 11
345.0635075888021
 21
69.0785941605559
 31
0.0
  0
LINE
  5
1D69184502
102
{ACAD_REACTORS
330
1D691844D7
102
}
330
1D69183399
100
AcDbEntity
  8
JISSEN
100
AcDbLine
 10
286.0000814672033
 20
129.0785941605558
 30
0.0
 11
345.0635075888021
 21
129.0785941605558
 31
0.0
  0
CIRCLE
  5
1D69184503
330
1D69183399
100
AcDbEntity
  8
SUNPOU
100
AcDbCircle
 10
308.7167596845611
 20
86.17769283331288
 30
0.0
 40
6.0
  0
LINE
  5
1D69184504
330
1D69183399
100
AcDbEntity
  8
SUNPOU
100
AcDbLine
 10
290.2220986208053
 20
126.8805892682763
 30
0.0
 11
306.23468229764
 21
91.64022812796636
 31
0.0
  0
TEXT
  5
1D69184505
330
1D69183399
100
AcDbEntity
  8
SUNPOU
100
AcDbText
 10
256.8953311131339
 20
83.92769283331288
 30
0.0
 40
4.5
  1
1
  7
K
 72
     4
 11
258.7167596845624
 21
86.17769283331288
 31
0.0
100
AcDbText
  0
CIRCLE
  5
1D69184506
330
1D69183399
100
AcDbEntity
  8
SUNPOU
100
AcDbCircle
 10
258.7167596845624
 20
86.17769283331288
 30
0.0
 40
6.0
  0
LINE
  5
1D69184507
330
1D69183399
100
AcDbEntity
  8
JISSEN
100
AcDbLine
 10
280.5000814654734
 20
57.40009175231381
 30
0.0
 11
271.0000814654735
 21
57.40009175231381
 31
0.0
  0
LINE
  5
1D69184508
330
1D69183399
100
AcDbEntity
  8
JISSEN
100
AcDbLine
 10
257.0000814672033
 20
65.57859416055588
 30
0.0
 11
285.0000814672032
 21
65.57859416055588
 31
0.0
  0
LINE
  5
1D69184509
330
1D69183399
100
AcDbEntity
  8
JISSEN
100
AcDbLine
 10
286.0000814672032
 20
69.07859416055583
 30
0.0
 11
256.0000814672033
 21
69.07859416055583
 31
0.0
  0
LINE
  5
1D6918450A
330
1D69183399
100
AcDbEntity
  8
JISSEN
100
AcDbLine
 10
260.0000814654736
 20
65.57859416055588
 30
0.0
 11
260.0000814654736
 21
58.90009175231381
 31
0.0
  0
LINE
  5
1D6918450B
330
1D69183399
100
AcDbEntity
  8
JISSEN
100
AcDbLine
 10
261.5000814654736
 20
57.40009175231381
 30
0.0
 11
271.0000814654735
 21
57.40009175231381
 31
0.0
  0
ARC
  5
1D6918450C
330
1D69183399
100
AcDbEntity
  8
JISSEN
100
AcDbCircle
 10
261.5000814654736
 20
58.90009175231381
 30
0.0
 40
1.5
100
AcDbArc
 50
180.0
 51
270.0
  0
LINE
  5
1D6918450D
330
1D69183399
100
AcDbEntity
  8
JISSEN
100
AcDbLine
 10
282.0000814654735
 20
65.57859416055588
 30
0.0
 11
282.0000814654735
 21
58.90009175231381
 31
0.0
  0
ARC
  5
1D6918450E
330
1D69183399
100
AcDbEntity
  8
JISSEN
100
AcDbCircle
 10
280.5000814654734
 20
58.90009175231381
 30
0.0
 40
1.5
100
AcDbArc
 50
270.0
 51
0.0
  0
LINE
  5
1D6918450F
330
1D69183399
100
AcDbEntity
  8
JISSEN
100
AcDbLine
 10
286.0000814672032
 20
69.0785941605559
 30
0.0
 11
296.0000814672032
 21
69.0785941605559
 31
0.0
  0
LINE
  5
1D69184510
330
1D69183399
100
AcDbEntity
  8
JISSEN
100
AcDbLine
 10
295.4441157744076
 20
68.18258437599689
 30
0.0
 11
285.0000814672032
 21
65.57859416055588
 31
0.0
  0
ARC
  5
1D69184511
330
1D69183399
100
AcDbEntity
  8
JISSEN
100
AcDbCircle
 10
295.0000814672031
 20
69.0785941605559
 30
0.0
 40
1.0
100
AcDbArc
 50
296.3615705606468
 51
0.0
  0
LINE
  5
1D69184512
330
1D69183399
100
AcDbEntity
  8
JISSEN
100
AcDbLine
 10
280.5000814654734
 20
117.4000917523138
 30
0.0
 11
271.0000814654735
 21
117.4000917523138
 31
0.0
  0
LINE
  5
1D69184513
330
1D69183399
100
AcDbEntity
  8
JISSEN
100
AcDbLine
 10
286.0000814672032
 20
129.0785941605558
 30
0.0
 11
256.0000814672033
 21
129.0785941605558
 31
0.0
  0
LINE
  5
1D69184514
330
1D69183399
100
AcDbEntity
  8
JISSEN
100
AcDbLine
 10
257.0000814672033
 20
125.5785941605559
 30
0.0
 11
285.0000814672032
 21
125.5785941605559
 31
0.0
  0
LINE
  5
1D69184515
330
1D69183399
100
AcDbEntity
  8
SUNPOU
100
AcDbLine
 10
271.0000814654735
 20
117.4000917523138
 30
0.0
 11
260.9133660504955
 21
91.76114342171631
 31
0.0
  0
LINE
  5
1D69184516
330
1D69183399
100
AcDbEntity
  8
JISSEN
100
AcDbLine
 10
261.5000814654734
 20
117.4000917523138
 30
0.0
 11
271.0000814654735
 21
117.4000917523138
 31
0.0
  0
LINE
  5
1D69184517
330
1D69183399
100
AcDbEntity
  8
JISSEN
100
AcDbLine
 10
260.0000814654734
 20
125.5785941605559
 30
0.0
 11
260.0000814654734
 21
118.9000917523137
 31
0.0
  0
ARC
  5
1D69184518
330
1D69183399
100
AcDbEntity
  8
JISSEN
100
AcDbCircle
 10
261.5000814654734
 20
118.9000917523137
 30
0.0
 40
1.5
100
AcDbArc
 50
180.0
 51
270.0
  0
INSERT
  5
1D69184519
330
1D69183399
100
AcDbEntity
  8
SUNPOU
100
AcDbBlockReference
  2
ARROW
 10
271.0000814654736
 20
117.400091752314
 30
0.0
 41
1.499999999999991
 42
1.5
 43
1.5
 50
68.52464040596571
  0
LINE
  5
1D6918451A
330
1D69183399
100
AcDbEntity
  8
JISSEN
100
AcDbLine
 10
295.4441157744076
 20
128.1825843759968
 30
0.0
 11
285.0000814672032
 21
125.5785941605559
 31
0.0
  0
LINE
  5
1D6918451B
330
1D69183399
100
AcDbEntity
  8
JISSEN
100
AcDbLine
 10
286.0000814672032
 20
129.0785941605558
 30
0.0
 11
296.0000814672032
 21
129.0785941605558
 31
0.0
  0
INSERT
  5
1D6918451C
330
1D69183399
100
AcDbEntity
  8
SUNPOU
100
AcDbBlockReference
  2
ARROW
 10
290.2220986208056
 20
126.8805892682761
 30
0.0
 41
1.500000000000001
 42
1.5
 43
1.5
 50
114.436189858151
  0
LINE
  5
1D6918451D
330
1D69183399
100
AcDbEntity
  8
JISSEN
100
AcDbLine
 10
282.0000814654735
 20
125.5785941605559
 30
0.0
 11
282.0000814654735
 21
118.9000917523137
 31
0.0
  0
ARC
  5
1D6918451E
330
1D69183399
100
AcDbEntity
  8
JISSEN
100
AcDbCircle
 10
280.5000814654734
 20
118.9000917523137
 30
0.0
 40
1.5
100
AcDbArc
 50
270.0
 51
0.0
  0
ARC
  5
1D6918451F
330
1D69183399
100
AcDbEntity
  8
JISSEN
100
AcDbCircle
 10
295.0000814672031
 20
129.0785941605558
 30
0.0
 40
1.0
100
AcDbArc
 50
296.3615705606468
 51
0.0
  0
TEXT
  5
1D69184520
330
1D69183399
100
AcDbEntity
  8
SUNPOU
100
AcDbText
 10
306.573902541704
 20
83.92769283331288
 30
0.0
 40
4.5
  1
2
  7
K
 72
     4
 11
308.7167596845611
 21
86.17769283331288
 31
0.0
100
AcDbText
  0
LINE
  5
1D69184521
102
{ACAD_REACTORS
330
1D691844D7
102
}
330
1D69183399
100
AcDbEntity
  8
JISSEN
100
AcDbLine
 10
256.0000814672033
 20
134.0785941605558
 30
0.0
 11
192.8248722338498
 21
134.0785941605558
 31
0.0
  0
LWPOLYLINE
  5
1D69184522
330
1D69183399
100
AcDbEntity
  8
NITEN
100
AcDbPolyline
 90
        5
 70
     0
 43
0.0
 10
287.9999980291872
 20
218.0891430662788
 10
287.9999980291872
 20
238.9268607174245
 42
-0.5882352941176476
 10
270.9999980291872
 20
238.9268607174245
 42
0.5882352941176477
 10
253.9999980291872
 20
238.9268607174243
 10
253.9999980291872
 20
218.0891430662788
  0
LINE
  5
1D69184523
102
{ACAD_REACTORS
330
1D691844D7
102
}
330
1D69183399
100
AcDbEntity
  8
JISSEN
100
AcDbLine
 10
286.0000814672033
 20
134.0785941605558
 30
0.0
 11
349.1752907005567
 21
134.0785941605558
 31
0.0
  0
LINE
  5
1D69184524
330
1D69183399
100
AcDbEntity
  8
JISSEN
100
AcDbLine
 10
281.2620058308133
 20
186.7166697969438
 30
0.0
 11
281.7071900855363
 21
172.4714855422217
 31
0.0
  0
LINE
  5
1D69184525
330
1D69183399
100
AcDbEntity
  8
SAISEN
100
AcDbLine
 10
280.5077042808995
 20
173.6709713468586
 30
0.0
 11
280.0625200261766
 21
187.9161556015808
 31
0.0
  0
LINE
  5
1D69184526
330
1D69183399
100
AcDbEntity
  8
JISSEN
100
AcDbLine
 10
260.7381571035931
 20
186.7166697969438
 30
0.0
 11
260.29297284887
 21
172.4714855422217
 31
0.0
  0
LINE
  5
1D69184527
330
1D69183399
100
AcDbEntity
  8
SAISEN
100
AcDbLine
 10
261.492458653507
 20
173.6709713468586
 30
0.0
 11
261.9376429082299
 21
187.9161556015808
 31
0.0
  0
LINE
  5
1D69184528
330
1D69183399
100
AcDbEntity
  8
JISSEN
100
AcDbLine
 10
256.0000814672033
 20
146.0785941605558
 30
0.0
 11
286.0000814672032
 21
146.0785941605558
 31
0.0
  0
LINE
  5
1D69184529
330
1D69183399
100
AcDbEntity
  8
JISSEN
100
AcDbLine
 10
284.8564879277541
 20
168.4785941605556
 30
0.0
 11
271.0000814672032
 21
168.4785941605558
 31
0.0
  0
LINE
  5
1D6918452A
330
1D69183399
100
AcDbEntity
  8
JISSEN
100
AcDbLine
 10
271.0000814672032
 20
171.4785941605507
 30
0.0
 11
284.8564879277541
 21
171.4785941605556
 31
0.0
  0
LINE
  5
1D6918452B
330
1D69183399
100
AcDbEntity
  8
JISSEN
100
AcDbLine
 10
271.0000814672032
 20
173.6709713468586
 30
0.0
 11
281.6697042808996
 21
173.6709713468586
 31
0.0
  0
LINE
  5
1D6918452C
330
1D69183399
100
AcDbEntity
  8
JISSEN
100
AcDbLine
 10
271.0000814672032
 20
166.3785941605558
 30
0.0
 11
282.7000814672032
 21
166.3785941605558
 31
0.0
  0
LINE
  5
1D6918452D
330
1D69183399
100
AcDbEntity
  8
JISSEN
100
AcDbLine
 10
271.0000814672032
 20
166.9785941605558
 30
0.0
 11
281.2500814672036
 21
166.9785941605558
 31
0.0
  0
LINE
  5
1D6918452E
330
1D69183399
100
AcDbEntity
  8
JISSEN
100
AcDbLine
 10
259.3000814672034
 20
166.3785941605558
 30
0.0
 11
259.3000814672034
 21
146.0785941605558
 31
0.0
  0
LINE
  5
1D6918452F
330
1D69183399
100
AcDbEntity
  8
JISSEN
100
AcDbLine
 10
271.0000814672033
 20
166.9785941605558
 30
0.0
 11
260.7500814672027
 21
166.9785941605558
 31
0.0
  0
LINE
  5
1D69184530
330
1D69183399
100
AcDbEntity
  8
JISSEN
100
AcDbLine
 10
271.0000814672033
 20
166.3785941605558
 30
0.0
 11
259.3000814672034
 21
166.3785941605558
 31
0.0
  0
LINE
  5
1D69184531
330
1D69183399
100
AcDbEntity
  8
JISSEN
100
AcDbLine
 10
257.1436750066522
 20
171.4785941605458
 30
0.0
 11
271.0000814672032
 21
171.4785941605507
 31
0.0
  0
LINE
  5
1D69184532
330
1D69183399
100
AcDbEntity
  8
JISSEN
100
AcDbLine
 10
257.1436750066522
 20
168.4785941605556
 30
0.0
 11
271.0000814672032
 21
168.4785941605558
 31
0.0
  0
LINE
  5
1D69184533
330
1D69183399
100
AcDbEntity
  8
JISSEN
100
AcDbLine
 10
258.6500814672033
 20
168.4785941605558
 30
0.0
 11
271.0000814672032
 21
168.4785941605558
 31
0.0
  0
LINE
  5
1D69184534
330
1D69183399
100
AcDbEntity
  8
JISSEN
100
AcDbLine
 10
271.0000814672033
 20
173.6709713468586
 30
0.0
 11
260.3304586535068
 21
173.6709713468586
 31
0.0
  0
LINE
  5
1D69184535
330
1D69183399
100
AcDbEntity
  8
JISSEN
100
AcDbLine
 10
257.1436750066522
 20
171.4785941605556
 30
0.0
 11
257.1436750066522
 21
168.4785941605556
 31
0.0
  0
ARC
  5
1D69184536
330
1D69183399
100
AcDbEntity
  8
JISSEN
100
AcDbCircle
 10
259.9000814672033
 20
167.4785941605558
 30
0.0
 40
1.0
100
AcDbArc
 50
0.000000000000007
 51
90.0
  0
LINE
  5
1D69184537
330
1D69183399
100
AcDbEntity
  8
JISSEN
100
AcDbLine
 10
260.2500814672028
 20
166.4785941605558
 30
0.0
 11
260.2500814672028
 21
166.3785941605558
 31
0.0
  0
LINE
  5
1D69184538
330
1D69183399
100
AcDbEntity
  8
JISSEN
100
AcDbLine
 10
260.9000814672029
 20
166.9785941605558
 30
0.0
 11
260.9000814672033
 21
167.4785941605558
 31
0.0
  0
LINE
  5
1D69184539
330
1D69183399
100
AcDbEntity
  8
SAISEN
100
AcDbLine
 10
260.7500814672027
 20
166.9785941605558
 30
0.0
 11
260.7500814672027
 21
166.3785941605558
 31
0.0
  0
LINE
  5
1D6918453A
330
1D69183399
100
AcDbEntity
  8
JISSEN
100
AcDbLine
 10
260.7500814672027
 20
166.9785941605558
 30
0.0
 11
260.2500814672028
 21
166.4785941605558
 31
0.0
  0
LINE
  5
1D6918453B
330
1D69183399
100
AcDbEntity
  8
JISSEN
100
AcDbLine
 10
261.4924586535069
 20
173.6709713468586
 30
0.0
 11
259.3000814672033
 21
171.4785941605549
 31
0.0
  0
LINE
  5
1D6918453C
330
1D69183399
100
AcDbEntity
  8
JISSEN
100
AcDbLine
 10
264.0718782369276
 20
168.4785941605556
 30
0.0
 11
264.0718782369276
 21
171.4785941605532
 31
0.0
  0
LINE
  5
1D6918453D
330
1D69183399
100
AcDbEntity
  8
JISSEN
100
AcDbLine
 10
282.7000814672032
 20
166.3785941605558
 30
0.0
 11
282.7000814672032
 21
146.0785941605558
 31
0.0
  0
LINE
  5
1D6918453E
330
1D69183399
100
AcDbEntity
  8
JISSEN
100
AcDbLine
 10
277.9282846974788
 20
168.4785941605556
 30
0.0
 11
277.9282846974788
 21
171.4785941605532
 31
0.0
  0
LINE
  5
1D6918453F
330
1D69183399
100
AcDbEntity
  8
JISSEN
100
AcDbLine
 10
281.2500814672036
 20
166.9785941605558
 30
0.0
 11
281.7500814672036
 21
166.4785941605558
 31
0.0
  0
LINE
  5
1D69184540
330
1D69183399
100
AcDbEntity
  8
SAISEN
100
AcDbLine
 10
281.2500814672036
 20
166.9785941605558
 30
0.0
 11
281.2500814672036
 21
166.3785941605558
 31
0.0
  0
LINE
  5
1D69184541
330
1D69183399
100
AcDbEntity
  8
JISSEN
100
AcDbLine
 10
281.7500814672036
 20
166.4785941605558
 30
0.0
 11
281.7500814672036
 21
166.3785941605558
 31
0.0
  0
LINE
  5
1D69184542
330
1D69183399
100
AcDbEntity
  8
JISSEN
100
AcDbLine
 10
281.1000814672036
 20
166.9785941605558
 30
0.0
 11
281.1000814672031
 21
167.4785941605558
 31
0.0
  0
ARC
  5
1D69184543
330
1D69183399
100
AcDbEntity
  8
JISSEN
100
AcDbCircle
 10
282.1000814672031
 20
167.4785941605558
 30
0.0
 40
1.0
100
AcDbArc
 50
90.0
 51
180.0
  0
LINE
  5
1D69184544
330
1D69183399
100
AcDbEntity
  8
JISSEN
100
AcDbLine
 10
280.5077042808995
 20
173.6709713468586
 30
0.0
 11
282.7000814672032
 21
171.4785941605549
 31
0.0
  0
LINE
  5
1D69184545
330
1D69183399
100
AcDbEntity
  8
JISSEN
100
AcDbLine
 10
284.8564879277541
 20
171.4785941605556
 30
0.0
 11
284.8564879277541
 21
168.4785941605556
 31
0.0
  0
LINE
  5
1D69184546
330
1D69183399
100
AcDbEntity
  8
JISSEN
100
AcDbLine
 10
280.0000814672023
 20
187.978594160555
 30
0.0
 11
271.0000814672032
 21
187.978594160555
 31
0.0
  0
LINE
  5
1D69184547
330
1D69183399
100
AcDbEntity
  8
JISSEN
100
AcDbLine
 10
281.2620058308133
 20
186.7166697969438
 30
0.0
 11
271.0000814672032
 21
186.7166697969438
 31
0.0
  0
LWPOLYLINE
  5
1D69184548
330
1D69183399
100
AcDbEntity
  8
NITEN
100
AcDbPolyline
 90
       15
 70
     1
 43
0.0
 10
256.9999980291872
 20
177.5891430662788
 42
0.4142135623730927
 10
258.4999980291871
 20
176.0891430662788
 10
281.5940492001836
 20
176.0891430662788
 10
283.4999980291872
 20
176.0891430662788
 42
0.4142135623730925
 10
284.9999980291872
 20
177.5891430662788
 10
284.9999980291872
 20
188.6351590924966
 42
-0.4142135623730943
 10
289.9999980291871
 20
193.6351590924966
 42
0.4142135623730951
 10
291.9999980291872
 20
195.6351590924966
 10
291.9999980291871
 20
216.0891430662787
 42
0.4142135623730949
 10
289.9999980291872
 20
218.0891430662788
 10
251.9999980291871
 20
218.0891430662788
 42
0.4142135623730951
 10
249.9999980291871
 20
216.0891430662787
 10
249.9999980291871
 20
195.6351590924966
 42
0.4142135623730951
 10
251.9999980291871
 20
193.6351590924966
 42
-0.4142135623730961
 10
256.9999980291872
 20
188.6351590924966
  0
LINE
  5
1D69184549
330
1D69183399
100
AcDbEntity
  8
JISSEN
100
AcDbLine
 10
260.7381571035931
 20
186.7166697969438
 30
0.0
 11
271.0000814672033
 21
186.7166697969438
 31
0.0
  0
LINE
  5
1D6918454A
330
1D69183399
100
AcDbEntity
  8
JISSEN
100
AcDbLine
 10
262.0000814672041
 20
187.978594160555
 30
0.0
 11
271.0000814672033
 21
187.978594160555
 31
0.0
  0
LINE
  5
1D6918454B
330
1D69183399
100
AcDbEntity
  8
JISSEN
100
AcDbLine
 10
260.7381571035931
 20
186.7166697969438
 30
0.0
 11
262.0000814672041
 21
187.978594160555
 31
0.0
  0
LINE
  5
1D6918454C
330
1D69183399
100
AcDbEntity
  8
JISSEN
100
AcDbLine
 10
281.2620058308133
 20
186.7166697969438
 30
0.0
 11
280.0000814672023
 21
187.978594160555
 31
0.0
  0
TEXT
  5
1D6918454D
330
1D69183399
100
AcDbEntity
  8
TEXT
100
AcDbText
 10
287.45714016233
 20
262.4999999999999
 30
0.0
 40
3.0
  1
X  型ヘッド
  7
K
 72
     4
 11
297.4999973051872
 21
263.9999999999999
 31
0.0
100
AcDbText
  0
TEXT
  5
1D6918454E
330
1D69183399
100
AcDbEntity
  8
TEXT
100
AcDbText
 10
284.5399973051872
 20
256.4999999999999
 30
0.0
 40
3.0
  1
シーリングプレート X
 41
0.7
  7
K
 72
     4
 11
297.4999973051872
 21
257.9999999999999
 31
0.0
100
AcDbText
  0
LINE
  5
1D6918454F
330
1D69183399
100
AcDbEntity
  8
JISSEN
100
AcDbLine
 10
272.4999973051871
 20
254.9999999999999
 30
0.0
 11
361.9999973051873
 21
254.9999999999999
 31
0.0
  0
TEXT
  5
1D69184550
330
1D69183399
100
AcDbEntity
  8
TEXT
100
AcDbText
 10
288.8999973051872
 20
268.4999999999999
 30
0.0
 40
3.0
  1
名      称
  7
K
 72
     4
 11
297.4999973051872
 21
269.9999999999999
 31
0.0
100
AcDbText
  0
LINE
  5
1D69184551
330
1D69183399
100
AcDbEntity
  8
JISSEN
100
AcDbLine
 10
272.4999973051871
 20
260.9999999999999
 30
0.0
 11
361.9999973051873
 21
260.9999999999999
 31
0.0
  0
LINE
  5
1D69184552
330
1D69183399
100
AcDbEntity
  8
JISSEN
100
AcDbLine
 10
272.4999973051871
 20
266.9999999999999
 30
0.0
 11
361.9999973051873
 21
266.9999999999999
 31
0.0
  0
TEXT
  5
1D69184553
330
1D69183399
100
AcDbEntity
  8
TEXT
100
AcDbText
 10
276.2857115909014
 20
262.4999999999999
 30
0.0
 40
3.0
  1
1
  7
K
 72
     4
 11
277.4999973051872
 21
263.9999999999999
 31
0.0
100
AcDbText
  0
LINE
  5
1D69184554
330
1D69183399
100
AcDbEntity
  8
JISSEN
100
AcDbLine
 10
282.4999973051872
 20
272.9999999999999
 30
0.0
 11
282.4999973051872
 21
254.9999999999999
 31
0.0
  0
LINE
  5
1D69184555
330
1D69183399
100
AcDbEntity
  8
JISSEN
100
AcDbLine
 10
272.4999973051871
 20
254.9999999999999
 30
0.0
 11
272.4999973051871
 21
272.9999999999999
 31
0.0
  0
LWPOLYLINE
  5
1D69184556
330
1D69183399
100
AcDbEntity
  8
NITEN
100
AcDbPolyline
 90
        2
 70
     0
 43
0.0
 10
287.9999980291872
 20
238.9268607174245
 42
0.5882352941176295
 10
270.9999980291871
 20
238.9268607174249
 42
0.5882352941176295
  0
TEXT
  5
1D69184557
330
1D69183399
100
AcDbEntity
  8
TEXT
100
AcDbText
 10
276.3830697107215
 20
256.4999999999999
 30
0.0
 40
3.0
  1
2
  7
K
 72
     4
 11
277.8116411392929
 21
257.9999999999999
 31
0.0
100
AcDbText
  0
TEXT
  5
1D69184558
330
1D69183399
100
AcDbEntity
  8
TEXT
100
AcDbText
 10
274.2999973051872
 20
268.4999999999999
 30
0.0
 40
3.0
  1
番号
  7
K
 72
     4
 11
277.4999973051872
 21
269.9999999999999
 31
0.0
100
AcDbText
  0
TEXT
  5
1D69184559
330
1D69183399
100
AcDbEntity
  8
TEXT
100
AcDbText
 10
337.6795457915964
 20
262.4999999999999
 30
0.0
 40
3.0
  1
1
  7
K
 72
     4
 11
338.8938315058822
 21
263.9999999999999
 31
0.0
100
AcDbText
  0
LINE
  5
1D6918455A
330
1D69183399
100
AcDbEntity
  8
JISSEN
100
AcDbLine
 10
344.4999973051872
 20
272.9999999999999
 30
0.0
 11
344.4999973051872
 21
254.9999999999999
 31
0.0
  0
LINE
  5
1D6918455B
330
1D69183399
100
AcDbEntity
  8
JISSEN
100
AcDbLine
 10
333.4999973051872
 20
254.9999999999999
 30
0.0
 11
333.4999973051872
 21
272.9999999999999
 31
0.0
  0
LINE
  5
1D6918455C
330
1D69183399
100
AcDbEntity
  8
JISSEN
100
AcDbLine
 10
312.4999973051872
 20
272.9999999999999
 30
0.0
 11
312.4999973051872
 21
254.9999999999999
 31
0.0
  0
TEXT
  5
1D6918455E
330
1D69183399
100
AcDbEntity
  8
TEXT
100
AcDbText
 10
317.8249973051872
 20
264.2999999999999
 30
0.0
 40
3.0
  1
%%u      
  7
K
 72
     4
 11
322.9999973051872
 21
263.9999999999999
 31
0.0
100
AcDbText
  0
TEXT
  5
1D6918455F
330
1D69183399
100
AcDbEntity
  8
TEXT
100
AcDbText
 10
337.6795457915964
 20
256.580835176341
 30
0.0
 40
3.0
  1
1
  7
K
 72
     4
 11
338.8938315058822
 21
258.080835176341
 31
0.0
100
AcDbText
  0
TEXT
  5
1D69184560
330
1D69183399
100
AcDbEntity
  8
TEXT
100
AcDbText
 10
316.1999973051872
 20
268.4999999999999
 30
0.0
 40
3.0
  1
材    質
  7
K
 72
     4
 11
322.9999973051872
 21
269.9999999999999
 31
0.0
100
AcDbText
  0
TEXT
  5
1D69184561
330
1D69183399
100
AcDbEntity
  8
TEXT
100
AcDbText
 10
346.6999973051871
 20
268.4999999999999
 30
0.0
 40
3.0
  1
備    考
  7
K
 72
     4
 11
353.4999973051871
 21
269.9999999999999
 31
0.0
100
AcDbText
  0
TEXT
  5
1D69184562
330
1D69183399
100
AcDbEntity
  8
TEXT
100
AcDbText
 10
335.7999973051871
 20
268.4999999999999
 30
0.0
 40
3.0
  1
個数
  7
K
 72
     4
 11
338.9999973051871
 21
269.9999999999999
 31
0.0
100
AcDbText
  0
TEXT
  5
1D69184563
330
1D69183399
100
AcDbEntity
  8
TEXT
100
AcDbText
 10
313.3314258766157
 20
256.4999999999999
 30
0.0
 40
3.0
  1
66 ナイロン
 41
0.9
  7
K
 72
     4
 11
322.9999973051872
 21
257.9999999999999
 31
0.0
100
AcDbText
  0
LINE
  5
1D691845D3
330
1D69183399
100
AcDbEntity
  8
SUNPOU
100
AcDbLine
 10
290.650212260316
 20
265.4969611357784
 30
0.0
 11
292.850212260316
 21
265.4969611357784
 31
0.0
  0
LINE
  5
1D691845D4
330
1D69183399
100
AcDbEntity
  8
SUNPOU
100
AcDbLine
 10
290.650212260316
 20
262.4969611357784
 30
0.0
 11
292.850212260316
 21
262.4969611357784
 31
0.0
  0
LINE
  5
1D691845D5
330
1D69183399
100
AcDbEntity
  8
SUNPOU
100
AcDbLine
 10
291.250212260316
 20
265.4969611357784
 30
0.0
 11
291.250212260316
 21
262.4969611357784
 31
0.0
  0
LINE
  5
1D691845D6
330
1D69183399
100
AcDbEntity
  8
SUNPOU
100
AcDbLine
 10
292.250212260316
 20
265.4969611357784
 30
0.0
 11
292.250212260316
 21
262.4969611357784
 31
0.0
  0
LINE
  5
1D691845D7
330
1D69183399
100
AcDbEntity
  8
SUNPOU
100
AcDbLine
 10
359.4705230338687
 20
10.84215772290065
 30
0.0
 11
359.4705230338687
 21
7.842157722900651
 31
0.0
  0
LINE
  5
1D691845D8
330
1D69183399
100
AcDbEntity
  8
SUNPOU
100
AcDbLine
 10
358.4705230338687
 20
10.84215772290065
 30
0.0
 11
358.4705230338687
 21
7.842157722900651
 31
0.0
  0
LINE
  5
1D691845D9
330
1D69183399
100
AcDbEntity
  8
SUNPOU
100
AcDbLine
 10
357.8705230338687
 20
7.842157722900651
 30
0.0
 11
360.0705230338687
 21
7.842157722900651
 31
0.0
  0
LINE
  5
1D691845DA
330
1D69183399
100
AcDbEntity
  8
SUNPOU
100
AcDbLine
 10
357.8705230338687
 20
10.84215772290065
 30
0.0
 11
360.0705230338687
 21
10.84215772290065
 31
0.0
  0
ENDSEC
  0
SECTION
  2
OBJECTS
  0
DICTIONARY
  5
1D6918338D
330
0
100
AcDbDictionary
  3
ACAD_GROUP
350
1D6918338E
  3
ACAD_LAYOUT
350
1D691837E6
  3
ACAD_MLINESTYLE
350
1D6918338F
  3
ACAD_PLOTSETTINGS
350
1D691837E7
  3
ACAD_PLOTSTYLENAME
350
1D691837E4
  3
ACDBHEADERROUNDTRIPXREC
350
1D691845DD
  3
ACDBVARIABLEDICTIONARY
350
1D691845A4
  0
DICTIONARY
  5
1D69183A5C
330
1D69183399
100
AcDbDictionary
280
     1
  3
ACAD_LAYOUTSELFREF
360
1D691845FF
  0
DICTIONARY
  5
1D69183A5A
330
1D69183396
100
AcDbDictionary
280
     1
  3
ACAD_LAYOUTSELFREF
360
1D691845FE
  0
DICTIONARY
  5
1D6918338E
102
{ACAD_REACTORS
330
1D6918338D
102
}
330
1D6918338D
100
AcDbDictionary
  0
DICTIONARY
  5
1D691837E6
102
{ACAD_REACTORS
330
1D6918338D
102
}
330
1D6918338D
100
AcDbDictionary
  0
DICTIONARY
  5
1D6918338F
102
{ACAD_REACTORS
330
1D6918338D
102
}
330
1D6918338D
100
AcDbDictionary
  3
STANDARD
350
1D6918339C
  0
DICTIONARY
  5
1D691837E7
102
{ACAD_REACTORS
330
1D6918338D
102
}
330
1D6918338D
100
AcDbDictionary
  0
ACDBDICTIONARYWDFLT
  5
1D691837E4
102
{ACAD_REACTORS
330
1D6918338D
102
}
330
1D6918338D
100
AcDbDictionary
281
     1
  3
Normal
350
1D691837E5
100
AcDbDictionaryWithDefault
340
1D691837E5
  0
DICTIONARY
  5
1D691845DD
102
{ACAD_REACTORS
330
1D6918338D
102
}
330
1D6918338D
100
AcDbDictionary
  3
CEPSNTYPE
350
1D691845E7
  3
DIMSTYLEDATA
350
1D691845EB
  3
FINGERPRINTGUID
350
1D691845E8
  3
HYPERLINKBASE
350
1D691845E0
  3
INSUNITS
350
1D691845E6
  3
LAYOUTDICT
350
1D691845E2
  3
LWETCUNION
350
1D691845E5
  3
PLOTSETDICT
350
1D691845E3
  3
PLOTSTYLNAMDICT
350
1D691845E4
  3
PSVPSCALE
350
1D691845EA
  3
PUCSBASE
350
1D691845EE
  3
PUCSORGBACK
350
1D691845F4
  3
PUCSORGBOTTOM
350
1D691845F0
  3
PUCSORGFRONT
350
1D691845F3
  3
PUCSORGLEFT
350
1D691845F1
  3
PUCSORGRIGHT
350
1D691845F2
  3
PUCSORGTOP
350
1D691845EF
  3
PUCSORTHOREF
350
1D691845EC
  3
PUCSORTHOVIEW
350
1D691845ED
  3
STYLESHEET
350
1D691845E1
  3
TSTACKALIGN
350
1D691845DE
  3
TSTACKSIZE
350
1D691845DF
  3
UCSBASE
350
1D691845F7
  3
UCSORGBACK
350
1D691845FD
  3
UCSORGBOTTOM
350
1D691845F9
  3
UCSORGFRONT
350
1D691845FC
  3
UCSORGLEFT
350
1D691845FA
  3
UCSORGRIGHT
350
1D691845FB
  3
UCSORGTOP
350
1D691845F8
  3
UCSORTHOREF
350
1D691845F5
  3
UCSORTHOVIEW
350
1D691845F6
  3
VERSIONGUID
350
1D691845E9
  0
DICTIONARY
  5
1D691845A4
102
{ACAD_REACTORS
330
1D6918338D
102
}
330
1D6918338D
100
AcDbDictionary
  3
DIMASSOC
350
1D691845A5
  0
XRECORD
  5
1D691845FF
102
{ACAD_REACTORS
330
1D69183A5C
102
}
330
1D69183A5C
100
AcDbXrecord
340
1D69183399
  0
XRECORD
  5
1D691845FE
102
{ACAD_REACTORS
330
1D69183A5A
102
}
330
1D69183A5A
100
AcDbXrecord
340
1D69183396
  0
MLINESTYLE
  5
1D6918339C
102
{ACAD_REACTORS
330
1D6918338F
102
}
330
1D6918338F
100
AcDbMlineStyle
  2
STANDARD
 70
     0
  3

 62
     0
 51
90.0
 52
90.0
 71
     2
 49
0.5
 62
   256
  6
BYLAYER
 49
-0.5
 62
   256
  6
BYLAYER
  0
ACDBPLACEHOLDER
  5
1D691837E5
102
{ACAD_REACTORS
330
1D691837E4
102
}
330
1D691837E4
100
AcDbPlaceHolder
280
     0
  0
XRECORD
  5
1D691845E7
102
{ACAD_REACTORS
330
1D691845DD
102
}
330
1D691845DD
100
AcDbXrecord
 90
        0
  0
XRECORD
  5
1D691845EB
102
{ACAD_REACTORS
330
1D691845DD
102
}
330
1D691845DD
100
AcDbXrecord
1000
DSTYLE
1002
{
1070
   341
340
1D691833A3
1070
   342
340
1D691833A3
1070
   343
340
1D691833A3
1070
   344
340
1D691833A3
1002
}
  0
XRECORD
  5
1D691845E8
102
{ACAD_REACTORS
330
1D691845DD
102
}
330
1D691845DD
100
AcDbXrecord
  1
{9E4523D2-8DA8-438B-B789-0D080F5E267A}
  0
XRECORD
  5
1D691845E0
102
{ACAD_REACTORS
330
1D691845DD
102
}
330
1D691845DD
100
AcDbXrecord
  1

  0
XRECORD
  5
1D691845E6
102
{ACAD_REACTORS
330
1D691845DD
102
}
330
1D691845DD
100
AcDbXrecord
 90
        0
  0
XRECORD
  5
1D691845E2
102
{ACAD_REACTORS
330
1D691845DD
102
}
330
1D691845DD
100
AcDbXrecord
340
1D691837E6
  0
XRECORD
  5
1D691845E5
102
{ACAD_REACTORS
330
1D691845DD
102
}
330
1D691845DD
100
AcDbXrecord
 90
    14877
  0
XRECORD
  5
1D691845E3
102
{ACAD_REACTORS
330
1D691845DD
102
}
330
1D691845DD
100
AcDbXrecord
340
1D691837E7
  0
XRECORD
  5
1D691845E4
102
{ACAD_REACTORS
330
1D691845DD
102
}
330
1D691845DD
100
AcDbXrecord
340
1D691837E4
  0
XRECORD
  5
1D691845EA
102
{ACAD_REACTORS
330
1D691845DD
102
}
330
1D691845DD
100
AcDbXrecord
 40
0.0
  0
XRECORD
  5
1D691845EE
102
{ACAD_REACTORS
330
1D691845DD
102
}
330
1D691845DD
100
AcDbXrecord
340
0
  0
XRECORD
  5
1D691845F4
102
{ACAD_REACTORS
330
1D691845DD
102
}
330
1D691845DD
100
AcDbXrecord
 10
0.0
 20
0.0
 30
0.0
  0
XRECORD
  5
1D691845F0
102
{ACAD_REACTORS
330
1D691845DD
102
}
330
1D691845DD
100
AcDbXrecord
 10
0.0
 20
0.0
 30
0.0
  0
XRECORD
  5
1D691845F3
102
{ACAD_REACTORS
330
1D691845DD
102
}
330
1D691845DD
100
AcDbXrecord
 10
0.0
 20
0.0
 30
0.0
  0
XRECORD
  5
1D691845F1
102
{ACAD_REACTORS
330
1D691845DD
102
}
330
1D691845DD
100
AcDbXrecord
 10
0.0
 20
0.0
 30
0.0
  0
XRECORD
  5
1D691845F2
102
{ACAD_REACTORS
330
1D691845DD
102
}
330
1D691845DD
100
AcDbXrecord
 10
0.0
 20
0.0
 30
0.0
  0
XRECORD
  5
1D691845EF
102
{ACAD_REACTORS
330
1D691845DD
102
}
330
1D691845DD
100
AcDbXrecord
 10
0.0
 20
0.0
 30
0.0
  0
XRECORD
  5
1D691845EC
102
{ACAD_REACTORS
330
1D691845DD
102
}
330
1D691845DD
100
AcDbXrecord
340
0
  0
XRECORD
  5
1D691845ED
102
{ACAD_REACTORS
330
1D691845DD
102
}
330
1D691845DD
100
AcDbXrecord
 70
     0
  0
XRECORD
  5
1D691845E1
102
{ACAD_REACTORS
330
1D691845DD
102
}
330
1D691845DD
100
AcDbXrecord
  1

  0
XRECORD
  5
1D691845DE
102
{ACAD_REACTORS
330
1D691845DD
102
}
330
1D691845DD
100
AcDbXrecord
 90
        1
  0
XRECORD
  5
1D691845DF
102
{ACAD_REACTORS
330
1D691845DD
102
}
330
1D691845DD
100
AcDbXrecord
 90
       70
  0
XRECORD
  5
1D691845F7
102
{ACAD_REACTORS
330
1D691845DD
102
}
330
1D691845DD
100
AcDbXrecord
340
0
  0
XRECORD
  5
1D691845FD
102
{ACAD_REACTORS
330
1D691845DD
102
}
330
1D691845DD
100
AcDbXrecord
 10
0.0
 20
0.0
 30
0.0
  0
XRECORD
  5
1D691845F9
102
{ACAD_REACTORS
330
1D691845DD
102
}
330
1D691845DD
100
AcDbXrecord
 10
0.0
 20
0.0
 30
0.0
  0
XRECORD
  5
1D691845FC
102
{ACAD_REACTORS
330
1D691845DD
102
}
330
1D691845DD
100
AcDbXrecord
 10
0.0
 20
0.0
 30
0.0
  0
XRECORD
  5
1D691845FA
102
{ACAD_REACTORS
330
1D691845DD
102
}
330
1D691845DD
100
AcDbXrecord
 10
0.0
 20
0.0
 30
0.0
  0
XRECORD
  5
1D691845FB
102
{ACAD_REACTORS
330
1D691845DD
102
}
330
1D691845DD
100
AcDbXrecord
 10
0.0
 20
0.0
 30
0.0
  0
XRECORD
  5
1D691845F8
102
{ACAD_REACTORS
330
1D691845DD
102
}
330
1D691845DD
100
AcDbXrecord
 10
0.0
 20
0.0
 30
0.0
  0
XRECORD
  5
1D691845F5
102
{ACAD_REACTORS
330
1D691845DD
102
}
330
1D691845DD
100
AcDbXrecord
340
0
  0
XRECORD
  5
1D691845F6
102
{ACAD_REACTORS
330
1D691845DD
102
}
330
1D691845DD
100
AcDbXrecord
 70
     0
  0
XRECORD
  5
1D691845E9
102
{ACAD_REACTORS
330
1D691845DD
102
}
330
1D691845DD
100
AcDbXrecord
  1
{D1BF598D-E793-458B-82F9-FF735EF62457}
  0
DICTIONARYVAR
  5
1D691845A5
102
{ACAD_REACTORS
330
1D691845A4
102
}
330
1D691845A4
100
DictionaryVariables
280
     0
  1
0
  0
ENDSEC
  0
EOF
