  0
SECTION
  2
HEADER
  9
$ACADVER
  1
AC1015
  9
$ACADMAINTVER
 70
    10
  9
$DWGCODEPAGE
  3
ANSI_932
  9
$INSBASE
 10
0.0
 20
0.0
 30
0.0
  9
$EXTMIN
 10
0.0
 20
0.0
 30
0.0
  9
$EXTMAX
 10
361.9999983709023
 20
273.0000000443201
 30
0.0
  9
$LIMMIN
 10
0.0
 20
0.0
  9
$LIMMAX
 10
180.999999
 20
273.0
  9
$ORTHOMODE
 70
     1
  9
$REGENMODE
 70
     1
  9
$FILLMODE
 70
     1
  9
$QTEXTMODE
 70
     0
  9
$MIRRTEXT
 70
     0
  9
$LTSCALE
 40
5.0
  9
$ATTMODE
 70
     1
  9
$TEXTSIZE
 40
1.5
  9
$TRACEWID
 40
0.05
  9
$TEXTSTYLE
  7
K
  9
$CLAYER
  8
SUNPOU
  9
$CELTYPE
  6
BYLAYER
  9
$CECOLOR
 62
   256
  9
$CELTSCALE
 40
1.0
  9
$DISPSILH
 70
     0
  9
$DIMSCALE
 40
1.0
  9
$DIMASZ
 40
1.5
  9
$DIMEXO
 40
1.0
  9
$DIMDLI
 40
6.0
  9
$DIMRND
 40
0.0
  9
$DIMDLE
 40
0.0
  9
$DIMEXE
 40
1.0
  9
$DIMTP
 40
495.0
  9
$DIMTM
 40
0.0
  9
$DIMTXT
 40
3.0
  9
$DIMCEN
 40
0.0
  9
$DIMTSZ
 40
0.0
  9
$DIMTOL
 70
     0
  9
$DIMLIM
 70
     0
  9
$DIMTIH
 70
     0
  9
$DIMTOH
 70
     0
  9
$DIMSE1
 70
     0
  9
$DIMSE2
 70
     0
  9
$DIMTAD
 70
     1
  9
$DIMZIN
 70
     8
  9
$DIMBLK
  1
ARROWANG
  9
$DIMASO
 70
     0
  9
$DIMSHO
 70
     0
  9
$DIMPOST
  1

  9
$DIMAPOST
  1

  9
$DIMALT
 70
     0
  9
$DIMALTD
 70
     2
  9
$DIMALTF
 40
25.4
  9
$DIMLFAC
 40
1.0
  9
$DIMTOFL
 70
     1
  9
$DIMTVP
 40
0.0
  9
$DIMTIX
 70
     1
  9
$DIMSOXD
 70
     0
  9
$DIMSAH
 70
     0
  9
$DIMBLK1
  1
ARROWANG
  9
$DIMBLK2
  1
ARROWANG
  9
$DIMSTYLE
  2
IMAO
  9
$DIMCLRD
 70
     0
  9
$DIMCLRE
 70
     0
  9
$DIMCLRT
 70
     0
  9
$DIMTFAC
 40
1.0
  9
$DIMGAP
 40
0.09
  9
$DIMJUST
 70
     0
  9
$DIMSD1
 70
     0
  9
$DIMSD2
 70
     0
  9
$DIMTOLJ
 70
     1
  9
$DIMTZIN
 70
     0
  9
$DIMALTZ
 70
     0
  9
$DIMALTTZ
 70
     0
  9
$DIMUPT
 70
     0
  9
$DIMDEC
 70
     4
  9
$DIMTDEC
 70
     4
  9
$DIMALTU
 70
     2
  9
$DIMALTTD
 70
     2
  9
$DIMTXSTY
  7
STANDARD
  9
$DIMAUNIT
 70
     0
  9
$DIMADEC
 70
     0
  9
$DIMALTRND
 40
0.0
  9
$DIMAZIN
 70
     0
  9
$DIMDSEP
 70
    46
  9
$DIMATFIT
 70
     3
  9
$DIMFRAC
 70
     0
  9
$DIMLDRBLK
  1
ARROWANG
  9
$DIMLUNIT
 70
     2
  9
$DIMLWD
 70
    -2
  9
$DIMLWE
 70
    -2
  9
$DIMTMOVE
 70
     0
  9
$LUNITS
 70
     2
  9
$LUPREC
 70
     2
  9
$SKETCHINC
 40
0.1
  9
$FILLETRAD
 40
0.5
  9
$AUNITS
 70
     0
  9
$AUPREC
 70
     2
  9
$MENU
  1
STDR12J
  9
$ELEVATION
 40
0.0
  9
$PELEVATION
 40
0.0
  9
$THICKNESS
 40
0.0
  9
$LIMCHECK
 70
     0
  9
$CHAMFERA
 40
0.5
  9
$CHAMFERB
 40
0.5
  9
$CHAMFERC
 40
0.0
  9
$CHAMFERD
 40
0.0
  9
$SKPOLY
 70
     0
  9
$TDCREATE
 40
2450354.415456018
  9
$TDUCREATE
 40
2450354.040456018
  9
$TDUPDATE
 40
2454757.691536527
  9
$TDUUPDATE
 40
2454757.316536527
  9
$TDINDWG
 40
0.0742904977
  9
$TDUSRTIMER
 40
0.0742904977
  9
$USRTIMER
 70
     1
  9
$ANGBASE
 50
0.0
  9
$ANGDIR
 70
     0
  9
$PDMODE
 70
     0
  9
$PDSIZE
 40
0.0
  9
$PLINEWID
 40
0.0
  9
$SPLFRAME
 70
     0
  9
$SPLINETYPE
 70
     6
  9
$SPLINESEGS
 70
     8
  9
$HANDSEED
  5
1D691840B3
  9
$SURFTAB1
 70
     6
  9
$SURFTAB2
 70
     6
  9
$SURFTYPE
 70
     6
  9
$SURFU
 70
     6
  9
$SURFV
 70
     6
  9
$UCSBASE
  2

  9
$UCSNAME
  2

  9
$UCSORG
 10
0.0
 20
0.0
 30
0.0
  9
$UCSXDIR
 10
1.0
 20
0.0
 30
0.0
  9
$UCSYDIR
 10
0.0
 20
1.0
 30
0.0
  9
$UCSORTHOREF
  2

  9
$UCSORTHOVIEW
 70
     0
  9
$UCSORGTOP
 10
0.0
 20
0.0
 30
0.0
  9
$UCSORGBOTTOM
 10
0.0
 20
0.0
 30
0.0
  9
$UCSORGLEFT
 10
0.0
 20
0.0
 30
0.0
  9
$UCSORGRIGHT
 10
0.0
 20
0.0
 30
0.0
  9
$UCSORGFRONT
 10
0.0
 20
0.0
 30
0.0
  9
$UCSORGBACK
 10
0.0
 20
0.0
 30
0.0
  9
$PUCSBASE
  2

  9
$PUCSNAME
  2

  9
$PUCSORG
 10
0.0
 20
0.0
 30
0.0
  9
$PUCSXDIR
 10
1.0
 20
0.0
 30
0.0
  9
$PUCSYDIR
 10
0.0
 20
1.0
 30
0.0
  9
$PUCSORTHOREF
  2

  9
$PUCSORTHOVIEW
 70
     0
  9
$PUCSORGTOP
 10
0.0
 20
0.0
 30
0.0
  9
$PUCSORGBOTTOM
 10
0.0
 20
0.0
 30
0.0
  9
$PUCSORGLEFT
 10
0.0
 20
0.0
 30
0.0
  9
$PUCSORGRIGHT
 10
0.0
 20
0.0
 30
0.0
  9
$PUCSORGFRONT
 10
0.0
 20
0.0
 30
0.0
  9
$PUCSORGBACK
 10
0.0
 20
0.0
 30
0.0
  9
$USERI1
 70
     4
  9
$USERI2
 70
     1
  9
$USERI3
 70
     1
  9
$USERI4
 70
     2
  9
$USERI5
 70
     1
  9
$USERR1
 40
1.0
  9
$USERR2
 40
3.0
  9
$USERR3
 40
3.0
  9
$USERR4
 40
1.5
  9
$USERR5
 40
8.0
  9
$WORLDVIEW
 70
     1
  9
$SHADEDGE
 70
     3
  9
$SHADEDIF
 70
    70
  9
$TILEMODE
 70
     1
  9
$MAXACTVP
 70
    16
  9
$PINSBASE
 10
0.0
 20
0.0
 30
0.0
  9
$PLIMCHECK
 70
     0
  9
$PEXTMIN
 10
1.000000000000000E+20
 20
1.000000000000000E+20
 30
1.000000000000000E+20
  9
$PEXTMAX
 10
-1.000000000000000E+20
 20
-1.000000000000000E+20
 30
-1.000000000000000E+20
  9
$PLIMMIN
 10
0.0
 20
0.0
  9
$PLIMMAX
 10
12.0
 20
9.0
  9
$UNITMODE
 70
     0
  9
$VISRETAIN
 70
     0
  9
$PLINEGEN
 70
     0
  9
$PSLTSCALE
 70
     0
  9
$TREEDEPTH
 70
     0
  9
$CMLSTYLE
  2
STANDARD
  9
$CMLJUST
 70
     0
  9
$CMLSCALE
 40
1.0
  9
$PROXYGRAPHICS
 70
     1
  9
$MEASUREMENT
 70
     0
  9
$CELWEIGHT
370
    -1
  9
$ENDCAPS
280
     0
  9
$JOINSTYLE
280
     0
  9
$LWDISPLAY
290
     0
  9
$INSUNITS
 70
     0
  9
$HYPERLINKBASE
  1

  9
$STYLESHEET
  1

  9
$XEDIT
290
     1
  9
$CEPSNTYPE
380
     0
  9
$PSTYLEMODE
290
     1
  9
$FINGERPRINTGUID
  2
{9E4523D2-8DA8-438B-B789-0D080F5E267A}
  9
$VERSIONGUID
  2
{9F30E72A-DE36-4752-A09E-523B533D7C94}
  9
$EXTNAMES
290
     1
  9
$PSVPSCALE
 40
0.0
  9
$OLESTARTUP
290
     0
  0
ENDSEC
  0
SECTION
  2
CLASSES
  0
CLASS
  1
LWPOLYLINE
  2
AcDbPolyline
  3
AutoCAD 2000
 90
    32768
280
     0
281
     1
  0
CLASS
  1
ACDBDICTIONARYWDFLT
  2
AcDbDictionaryWithDefault
  3
AutoCAD 2000
 90
        0
280
     0
281
     0
  0
CLASS
  1
ACDBPLACEHOLDER
  2
AcDbPlaceHolder
  3
AutoCAD 2000
 90
        0
280
     0
281
     0
  0
CLASS
  1
LAYOUT
  2
AcDbLayout
  3
AutoCAD 2000
 90
        0
280
     0
281
     0
  0
CLASS
  1
LONG_TRANSACTION
  2
AcDbLongTransaction
  3
AutoCAD 2000
 90
    32768
280
     0
281
     0
  0
CLASS
  1
LWPOLYLINE
  2
AcDbPolyline
  3
AutoCAD 2000
 90
    32768
280
     0
281
     1
  0
CLASS
  1
HATCH
  2
AcDbHatch
  3
AutoCAD 2000
 90
    32768
280
     0
281
     1
  0
CLASS
  1
XRECORD
  2
AcDbXrecord
  3
AutoCAD 2000
 90
    32768
280
     0
281
     0
  0
CLASS
  1
LONG_TRANSACTION
  2
AcDbLongTransaction
  3
AutoCAD 2000
 90
    32768
280
     0
281
     0
  0
CLASS
  1
LWPOLYLINE
  2
AcDbPolyline
  3
AutoCAD 2000
 90
    32768
280
     0
281
     1
  0
CLASS
  1
HATCH
  2
AcDbHatch
  3
AutoCAD 2000
 90
    32768
280
     0
281
     1
  0
CLASS
  1
XRECORD
  2
AcDbXrecord
  3
AutoCAD 2000
 90
    32768
280
     0
281
     0
  0
CLASS
  1
LONG_TRANSACTION
  2
AcDbLongTransaction
  3
AutoCAD 2000
 90
    32768
280
     0
281
     0
  0
CLASS
  1
LWPOLYLINE
  2
AcDbPolyline
  3
AutoCAD 2000
 90
    32768
280
     0
281
     1
  0
CLASS
  1
HATCH
  2
AcDbHatch
  3
AutoCAD 2000
 90
    32768
280
     0
281
     1
  0
CLASS
  1
XRECORD
  2
AcDbXrecord
  3
AutoCAD 2000
 90
    32768
280
     0
281
     0
  0
CLASS
  1
DICTIONARYVAR
  2
AcDbDictionaryVar
  3
AutoCAD 2000
 90
        0
280
     0
281
     0
  0
CLASS
  1
LONG_TRANSACTION
  2
AcDbLongTransaction
  3
AutoCAD 2000
 90
    32768
280
     0
281
     0
  0
CLASS
  1
LWPOLYLINE
  2
AcDbPolyline
  3
AutoCAD 2000
 90
    32768
280
     0
281
     1
  0
CLASS
  1
HATCH
  2
AcDbHatch
  3
AutoCAD 2000
 90
    32768
280
     0
281
     1
  0
CLASS
  1
XRECORD
  2
AcDbXrecord
  3
AutoCAD 2000
 90
    32768
280
     0
281
     0
  0
CLASS
  1
LONG_TRANSACTION
  2
AcDbLongTransaction
  3
AutoCAD 2000
 90
    32768
280
     0
281
     0
  0
CLASS
  1
LWPOLYLINE
  2
AcDbPolyline
  3
AutoCAD 2000
 90
    32768
280
     0
281
     1
  0
CLASS
  1
HATCH
  2
AcDbHatch
  3
AutoCAD 2000
 90
    32768
280
     0
281
     1
  0
CLASS
  1
XRECORD
  2
AcDbXrecord
  3
AutoCAD 2000
 90
    32768
280
     0
281
     0
  0
ENDSEC
  0
SECTION
  2
TABLES
  0
TABLE
  2
VPORT
  5
1D69183389
330
0
100
AcDbSymbolTable
 70
    10
  0
VPORT
  5
1D691833BC
330
1D69183389
100
AcDbSymbolTableRecord
100
AcDbViewportTableRecord
  2
2
 70
     0
 10
0.5
 20
0.0
 11
1.0
 21
1.0
 12
0.9240309999999999
 22
1.052651
 13
0.0
 23
0.0
 14
1.0
 24
1.0
 15
10.0
 25
10.0
 16
0.0
 26
0.0
 36
1.0
 17
0.0
 27
0.0
 37
0.0
 40
2.105302
 41
0.877814
 42
50.0
 43
0.0
 44
0.0
 50
0.0
 51
0.0
 71
     0
 72
   500
 73
     1
 74
     1
 75
     0
 76
     0
 77
     0
 78
     0
281
     0
 65
     1
110
0.0
120
0.0
130
0.0
111
1.0
121
0.0
131
0.0
112
0.0
122
1.0
132
0.0
 79
     0
146
0.0
  0
VPORT
  5
1D691833BD
330
1D69183389
100
AcDbSymbolTableRecord
100
AcDbViewportTableRecord
  2
2
 70
     0
 10
0.0
 20
0.0
 11
0.5
 21
1.0
 12
0.9240309999999999
 22
1.052651
 13
0.0
 23
0.0
 14
1.0
 24
1.0
 15
10.0
 25
10.0
 16
0.0
 26
0.0
 36
1.0
 17
0.0
 27
0.0
 37
0.0
 40
2.105302
 41
0.877814
 42
50.0
 43
0.0
 44
0.0
 50
0.0
 51
0.0
 71
     0
 72
   500
 73
     1
 74
     1
 75
     0
 76
     0
 77
     0
 78
     0
281
     0
 65
     1
110
0.0
120
0.0
130
0.0
111
1.0
121
0.0
131
0.0
112
0.0
122
1.0
132
0.0
 79
     0
146
0.0
  0
VPORT
  5
1D691833BE
330
1D69183389
100
AcDbSymbolTableRecord
100
AcDbViewportTableRecord
  2
3
 70
     0
 10
0.0
 20
0.5
 11
1.0
 21
1.0
 12
2.832169999999998
 22
1.052651
 13
0.0
 23
0.0
 14
1.0
 24
1.0
 15
10.0
 25
10.0
 16
0.0
 26
0.0
 36
1.0
 17
0.0
 27
0.0
 37
0.0
 40
2.105302
 41
3.571429
 42
50.0
 43
0.0
 44
0.0
 50
0.0
 51
0.0
 71
     0
 72
   500
 73
     1
 74
     1
 75
     0
 76
     0
 77
     0
 78
     0
281
     0
 65
     1
110
0.0
120
0.0
130
0.0
111
1.0
121
0.0
131
0.0
112
0.0
122
1.0
132
0.0
 79
     0
146
0.0
  0
VPORT
  5
1D691833BF
330
1D69183389
100
AcDbSymbolTableRecord
100
AcDbViewportTableRecord
  2
3
 70
     0
 10
0.0
 20
0.0
 11
1.0
 21
0.5
 12
2.856741999999998
 22
1.052651
 13
0.0
 23
0.0
 14
1.0
 24
1.0
 15
10.0
 25
10.0
 16
0.0
 26
0.0
 36
1.0
 17
0.0
 27
0.0
 37
0.0
 40
2.105302
 41
3.594770999999998
 42
50.0
 43
0.0
 44
0.0
 50
0.0
 51
0.0
 71
     0
 72
   500
 73
     1
 74
     1
 75
     0
 76
     0
 77
     0
 78
     0
281
     0
 65
     1
110
0.0
120
0.0
130
0.0
111
1.0
121
0.0
131
0.0
112
0.0
122
1.0
132
0.0
 79
     0
146
0.0
  0
VPORT
  5
1D691833C0
330
1D69183389
100
AcDbSymbolTableRecord
100
AcDbViewportTableRecord
  2
4
 70
     0
 10
0.5
 20
0.0
 11
1.0
 21
0.5
 12
2.886858
 22
1.052651
 13
0.0
 23
0.0
 14
1.0
 24
1.0
 15
10.0
 25
10.0
 16
0.0
 26
0.0
 36
1.0
 17
0.0
 27
0.0
 37
0.0
 40
4.275206999999999
 41
1.784314
 42
50.0
 43
0.0
 44
0.0
 50
0.0
 51
0.0
 71
     0
 72
   500
 73
     1
 74
     1
 75
     0
 76
     0
 77
     0
 78
     0
281
     0
 65
     1
110
0.0
120
0.0
130
0.0
111
1.0
121
0.0
131
0.0
112
0.0
122
1.0
132
0.0
 79
     0
146
0.0
  0
VPORT
  5
1D691833C1
330
1D69183389
100
AcDbSymbolTableRecord
100
AcDbViewportTableRecord
  2
4
 70
     0
 10
0.5
 20
0.5
 11
1.0
 21
1.0
 12
2.86209
 22
1.052651
 13
0.0
 23
0.0
 14
1.0
 24
1.0
 15
10.0
 25
10.0
 16
0.0
 26
0.0
 36
1.0
 17
0.0
 27
0.0
 37
0.0
 40
4.275206999999999
 41
1.772726999999999
 42
50.0
 43
0.0
 44
0.0
 50
0.0
 51
0.0
 71
     0
 72
   500
 73
     1
 74
     1
 75
     0
 76
     0
 77
     0
 78
     0
281
     0
 65
     1
110
0.0
120
0.0
130
0.0
111
1.0
121
0.0
131
0.0
112
0.0
122
1.0
132
0.0
 79
     0
146
0.0
  0
VPORT
  5
1D691833C2
330
1D69183389
100
AcDbSymbolTableRecord
100
AcDbViewportTableRecord
  2
4
 70
     0
 10
0.0
 20
0.5
 11
0.5
 21
1.0
 12
2.86209
 22
1.052651
 13
0.0
 23
0.0
 14
1.0
 24
1.0
 15
10.0
 25
10.0
 16
0.0
 26
0.0
 36
1.0
 17
0.0
 27
0.0
 37
0.0
 40
4.275206999999999
 41
1.772726999999999
 42
50.0
 43
0.0
 44
0.0
 50
0.0
 51
0.0
 71
     0
 72
   500
 73
     1
 74
     1
 75
     0
 76
     0
 77
     0
 78
     0
281
     0
 65
     1
110
0.0
120
0.0
130
0.0
111
1.0
121
0.0
131
0.0
112
0.0
122
1.0
132
0.0
 79
     0
146
0.0
  0
VPORT
  5
1D691833C3
330
1D69183389
100
AcDbSymbolTableRecord
100
AcDbViewportTableRecord
  2
4
 70
     0
 10
0.0
 20
0.0
 11
0.5
 21
0.5
 12
2.886858
 22
1.052651
 13
0.0
 23
0.0
 14
1.0
 24
1.0
 15
10.0
 25
10.0
 16
0.0
 26
0.0
 36
1.0
 17
0.0
 27
0.0
 37
0.0
 40
4.275206999999999
 41
1.784314
 42
50.0
 43
0.0
 44
0.0
 50
0.0
 51
0.0
 71
     0
 72
   500
 73
     1
 74
     1
 75
     0
 76
     0
 77
     0
 78
     0
281
     0
 65
     1
110
0.0
120
0.0
130
0.0
111
1.0
121
0.0
131
0.0
112
0.0
122
1.0
132
0.0
 79
     0
146
0.0
  0
VPORT
  5
1D691840B2
330
1D69183389
100
AcDbSymbolTableRecord
100
AcDbViewportTableRecord
  2
*Active
 70
     0
 10
0.0
 20
0.0
 11
1.0
 21
1.0
 12
181.0000000282982
 22
136.5000006577876
 13
0.0
 23
0.0
 14
1.0
 24
1.0
 15
10.0
 25
10.0
 16
0.0
 26
0.0
 36
1.0
 17
0.0
 27
0.0
 37
0.0
 40
275.0412833614372
 41
1.537897310513447
 42
50.0
 43
0.0
 44
0.0
 50
0.0
 51
0.0
 71
     0
 72
   500
 73
     1
 74
     0
 75
     0
 76
     0
 77
     0
 78
     0
281
     0
 65
     1
110
0.0
120
0.0
130
0.0
111
1.0
121
0.0
131
0.0
112
0.0
122
1.0
132
0.0
 79
     0
146
0.0
  0
ENDTAB
  0
TABLE
  2
LTYPE
  5
1D69183386
330
0
100
AcDbSymbolTable
 70
     2
  0
LTYPE
  5
1D69183393
330
1D69183386
100
AcDbSymbolTableRecord
100
AcDbLinetypeTableRecord
  2
BYBLOCK
 70
     0
  3

 72
    65
 73
     0
 40
0.0
  0
LTYPE
  5
1D69183394
330
1D69183386
100
AcDbSymbolTableRecord
100
AcDbLinetypeTableRecord
  2
BYLAYER
 70
     0
  3

 72
    65
 73
     0
 40
0.0
  0
LTYPE
  5
1D69183395
330
1D69183386
100
AcDbSymbolTableRecord
100
AcDbLinetypeTableRecord
  2
CONTINUOUS
 70
     0
  3
実線
 72
    65
 73
     0
 40
0.0
  0
LTYPE
  5
1D691833BA
330
1D69183386
100
AcDbSymbolTableRecord
100
AcDbLinetypeTableRecord
  2
PHANTOM
 70
     0
  3
_____ _ _ _____ _ _ _____ _ _ _____ _ _ ____
 72
    65
 73
     6
 40
2.5
 49
1.25
 74
     0
 49
-0.25
 74
     0
 49
0.25
 74
     0
 49
-0.25
 74
     0
 49
0.25
 74
     0
 49
-0.25
 74
     0
  0
ENDTAB
  0
TABLE
  2
LAYER
  5
1D69183383
330
0
100
AcDbSymbolTable
 70
     8
  0
LAYER
  5
1D69183390
330
1D69183383
100
AcDbSymbolTableRecord
100
AcDbLayerTableRecord
  2
0
 70
     0
 62
     7
  6
CONTINUOUS
370
    -3
390
1D691837E5
  0
LAYER
  5
1D691833C9
330
1D69183383
100
AcDbSymbolTableRecord
100
AcDbLayerTableRecord
  2
NITEN
 70
     0
 62
     2
  6
PHANTOM
370
    -3
390
1D691837E5
  0
LAYER
  5
1D691833CA
330
1D69183383
100
AcDbSymbolTableRecord
100
AcDbLayerTableRecord
  2
HATCH
 70
     0
 62
     4
  6
CONTINUOUS
370
    -3
390
1D691837E5
  0
LAYER
  5
1D691833CB
330
1D69183383
100
AcDbSymbolTableRecord
100
AcDbLayerTableRecord
  2
SUNPOU
 70
     0
 62
     3
  6
CONTINUOUS
370
    -3
390
1D691837E5
  0
LAYER
  5
1D691833CC
330
1D69183383
100
AcDbSymbolTableRecord
100
AcDbLayerTableRecord
  2
TEXT
 70
     0
 62
     3
  6
CONTINUOUS
370
    -3
390
1D691837E5
  0
LAYER
  5
1D691833CD
330
1D69183383
100
AcDbSymbolTableRecord
100
AcDbLayerTableRecord
  2
SAISEN
 70
     0
 62
     4
  6
CONTINUOUS
370
    -3
390
1D691837E5
  0
LAYER
  5
1D691833CE
330
1D69183383
100
AcDbSymbolTableRecord
100
AcDbLayerTableRecord
  2
JISSEN
 70
     0
 62
     7
  6
CONTINUOUS
370
    -3
390
1D691837E5
  0
LAYER
  5
1D691833D2
330
1D69183383
100
AcDbSymbolTableRecord
100
AcDbLayerTableRecord
  2
WAKU
 70
     0
 62
     5
  6
CONTINUOUS
370
    -3
390
1D691837E5
  0
ENDTAB
  0
TABLE
  2
STYLE
  5
1D69183384
330
0
100
AcDbSymbolTable
 70
     3
  0
STYLE
  5
1D69183391
330
1D69183384
100
AcDbSymbolTableRecord
100
AcDbTextStyleTableRecord
  2
STANDARD
 70
     0
 40
0.0
 41
1.0
 50
0.0
 71
     0
 42
0.2
  3
ROMANS
  4
EXTFONT
  0
STYLE
  5
1D691833B3
330
1D69183384
100
AcDbSymbolTableRecord
100
AcDbTextStyleTableRecord
  2
K
 70
     0
 40
0.0
 41
1.0
 50
0.0
 71
     0
 42
1.5
  3
ROMANS.shx
  4
bigfont.shx
  0
STYLE
  5
1D691833B5
330
1D69183384
100
AcDbSymbolTableRecord
100
AcDbTextStyleTableRecord
  2
BIGFONT
 70
     0
 40
0.0
 41
1.0
 50
0.0
 71
     0
 42
1.5
  3
txt.shx
  4
bigfont
  0
ENDTAB
  0
TABLE
  2
VIEW
  5
1D69183387
330
0
100
AcDbSymbolTable
 70
     0
  0
ENDTAB
  0
TABLE
  2
UCS
  5
1D69183388
330
0
100
AcDbSymbolTable
 70
     0
  0
ENDTAB
  0
TABLE
  2
APPID
  5
1D6918338A
330
0
100
AcDbSymbolTable
 70
     1
  0
APPID
  5
1D69183392
330
1D6918338A
100
AcDbSymbolTableRecord
100
AcDbRegAppTableRecord
  2
ACAD
 70
     0
  0
ENDTAB
  0
TABLE
  2
DIMSTYLE
  5
1D6918338B
330
0
100
AcDbSymbolTable
 70
     1
100
AcDbDimStyleTable
 71
     0
  0
DIMSTYLE
105
1D691833C6
330
1D6918338B
100
AcDbSymbolTableRecord
100
AcDbDimStyleTableRecord
  2
IMAO
 70
     0
 41
1.5
 42
1.0
 43
6.0
 44
1.0
 47
495.0
 73
     0
 74
     0
 77
     1
 78
     8
140
3.0
141
0.0
172
     1
174
     1
271
     2
272
     2
284
     8
285
     8
286
     8
340
1D691833B5
341
1D691833A3
342
1D691833A3
343
1D691833A3
344
1D691833A3
  0
ENDTAB
  0
TABLE
  2
BLOCK_RECORD
  5
1D69183382
330
0
100
AcDbSymbolTable
 70
     3
  0
BLOCK_RECORD
  5
1D69183399
102
{ACAD_XDICTIONARY
360
1D69183A5C
102
}
330
1D69183382
100
AcDbSymbolTableRecord
100
AcDbBlockTableRecord
  2
*MODEL_SPACE
340
1D691840A6
  0
BLOCK_RECORD
  5
1D69183396
102
{ACAD_XDICTIONARY
360
1D69183A5A
102
}
330
1D69183382
100
AcDbSymbolTableRecord
100
AcDbBlockTableRecord
  2
*PAPER_SPACE
340
1D691840A7
  0
BLOCK_RECORD
  5
1D691833A3
330
1D69183382
100
AcDbSymbolTableRecord
100
AcDbBlockTableRecord
  2
ARROWANG
340
0
  0
BLOCK_RECORD
  5
1D691837EF
330
1D69183382
100
AcDbSymbolTableRecord
100
AcDbBlockTableRecord
  2
ARROW
340
0
102
{BLKREFS
331
1D6918391D
331
1D6918392A
102
}
  0
BLOCK_RECORD
  5
1D691837FC
330
1D69183382
100
AcDbSymbolTableRecord
100
AcDbBlockTableRecord
  2
*X2
340
0
102
{BLKREFS
331
1D69183908
331
1D69183911
102
}
  0
ENDTAB
  0
ENDSEC
  0
SECTION
  2
BLOCKS
  0
BLOCK
  5
1D691833D6
330
1D69183399
100
AcDbEntity
  8
0
100
AcDbBlockBegin
  2
*MODEL_SPACE
 70
     0
 10
0.0
 20
0.0
 30
0.0
  3
*MODEL_SPACE
  1

  0
ENDBLK
  5
1D691833D7
330
1D69183399
100
AcDbEntity
  8
0
100
AcDbBlockEnd
  0
BLOCK
  5
1D691833D4
330
1D69183396
100
AcDbEntity
 67
     1
  8
0
100
AcDbBlockBegin
  2
*PAPER_SPACE
 70
     0
 10
0.0
 20
0.0
 30
0.0
  3
*PAPER_SPACE
  1

  0
ENDBLK
  5
1D691833D5
330
1D69183396
100
AcDbEntity
 67
     1
  8
0
100
AcDbBlockEnd
  0
BLOCK
  5
1D
330
1D691833A3
100
AcDbEntity
  8
0
100
AcDbBlockBegin
  2
ARROWANG
 70
     0
 10
0.0
 20
0.0
 30
0.0
  3
ARROWANG
  1

  0
LINE
  5
1E
330
1D691833A3
100
AcDbEntity
  8
SUNPOU
100
AcDbLine
 10
0.0
 20
0.0
 30
0.0
 11
-1.5
 21
0.401924
 31
0.0
  0
LINE
  5
1F
330
1D691833A3
100
AcDbEntity
  8
SUNPOU
100
AcDbLine
 10
0.0
 20
0.0
 30
0.0
 11
-1.5
 21
-0.401924
 31
0.0
  0
ENDBLK
  5
20
330
1D691833A3
100
AcDbEntity
  8
0
100
AcDbBlockEnd
  0
BLOCK
  5
1D691837F3
330
1D691837EF
100
AcDbEntity
  8
0
100
AcDbBlockBegin
  2
ARROW
 70
     0
 10
1.0
 20
0.5
 30
0.0
  3
ARROW
  1

  0
LINE
  5
1D691837F0
330
1D691837EF
100
AcDbEntity
  8
0
100
AcDbLine
 10
1.0
 20
0.5
 30
0.0
 11
-0.5000000000000214
 21
0.0980762113533018
 31
0.0
  0
LINE
  5
1D691837F1
330
1D691837EF
100
AcDbEntity
  8
0
100
AcDbLine
 10
0.0
 20
0.5
 30
0.0
 11
1.0
 21
0.5
 31
0.0
  0
LINE
  5
1D691837F2
330
1D691837EF
100
AcDbEntity
  8
0
100
AcDbLine
 10
1.0
 20
0.5
 30
0.0
 11
-0.4999999999999575
 21
0.9019237886467408
 31
0.0
  0
ENDBLK
  5
1D691837F4
330
1D691837EF
100
AcDbEntity
  8
0
100
AcDbBlockEnd
  0
BLOCK
  5
1D6918380E
330
1D691837FC
100
AcDbEntity
  8
0
100
AcDbBlockBegin
  2
*X2
 70
     1
 10
0.0
 20
0.0
 30
0.0
  3
*X2
  1

  0
LINE
  5
1D691837FD
330
1D691837FC
100
AcDbEntity
  8
0
 62
     0
100
AcDbLine
 10
42.91207191918546
 20
139.0785941605559
 30
0.0
 11
47.91207191918545
 21
144.0785941605559
 31
0.0
  0
LINE
  5
1D691837FE
330
1D691837FC
100
AcDbEntity
  8
0
 62
     0
100
AcDbLine
 10
40.08364479443928
 20
139.0785941605559
 30
0.0
 11
45.08364479443929
 21
144.0785941605559
 31
0.0
  0
LINE
  5
1D691837FF
330
1D691837FC
100
AcDbEntity
  8
0
 62
     0
100
AcDbLine
 10
37.25521766969309
 20
139.0785941605559
 30
0.0
 11
42.25521766969309
 21
144.0785941605559
 31
0.0
  0
LINE
  5
1D69183800
330
1D691837FC
100
AcDbEntity
  8
0
 62
     0
100
AcDbLine
 10
34.42679054494689
 20
139.0785941605559
 30
0.0
 11
39.42679054494689
 21
144.0785941605559
 31
0.0
  0
LINE
  5
1D69183801
330
1D691837FC
100
AcDbEntity
  8
0
 62
     0
100
AcDbLine
 10
31.59836342020071
 20
139.0785941605559
 30
0.0
 11
36.59836342020072
 21
144.0785941605559
 31
0.0
  0
LINE
  5
1D69183802
330
1D691837FC
100
AcDbEntity
  8
0
 62
     0
100
AcDbLine
 10
28.76993629545451
 20
139.0785941605559
 30
0.0
 11
33.76993629545452
 21
144.0785941605559
 31
0.0
  0
LINE
  5
1D69183803
330
1D691837FC
100
AcDbEntity
  8
0
 62
     0
100
AcDbLine
 10
25.94150917070832
 20
139.0785941605559
 30
0.0
 11
30.94150917070832
 21
144.0785941605559
 31
0.0
  0
LINE
  5
1D69183804
330
1D691837FC
100
AcDbEntity
  8
0
 62
     0
100
AcDbLine
 10
24.20506654826371
 20
140.1705786628574
 30
0.0
 11
28.11308204596214
 21
144.0785941605559
 31
0.0
  0
LINE
  5
1D69183805
330
1D691837FC
100
AcDbEntity
  8
0
 62
     0
100
AcDbLine
 10
22.72841915269601
 20
141.522358392036
 30
0.0
 11
25.28465492121595
 21
144.0785941605559
 31
0.0
  0
LINE
  5
1D69183806
330
1D691837FC
100
AcDbEntity
  8
0
 62
     0
100
AcDbLine
 10
21.47523861350567
 20
143.0976049775918
 30
0.0
 11
22.45622779646976
 21
144.0785941605559
 31
0.0
  0
LINE
  5
1D69183807
330
1D691837FC
100
AcDbEntity
  8
0
 62
     0
100
AcDbLine
 10
45.74049904393166
 20
139.0785941605559
 30
0.0
 11
50.74049904393167
 21
144.0785941605559
 31
0.0
  0
LINE
  5
1D69183808
330
1D691837FC
100
AcDbEntity
  8
0
 62
     0
100
AcDbLine
 10
48.56892616867785
 20
139.0785941605559
 30
0.0
 11
53.56892616867786
 21
144.0785941605559
 31
0.0
  0
LINE
  5
1D69183809
330
1D691837FC
100
AcDbEntity
  8
0
 62
     0
100
AcDbLine
 10
51.39735329342403
 20
139.0785941605559
 30
0.0
 11
56.39735329342404
 21
144.0785941605559
 31
0.0
  0
LINE
  5
1D6918380A
330
1D691837FC
100
AcDbEntity
  8
0
 62
     0
100
AcDbLine
 10
54.22578041817022
 20
139.0785941605559
 30
0.0
 11
59.22578041817022
 21
144.0785941605559
 31
0.0
  0
LINE
  5
1D6918380B
330
1D691837FC
100
AcDbEntity
  8
0
 62
     0
100
AcDbLine
 10
57.0542075429164
 20
139.0785941605559
 30
0.0
 11
62.05420754291642
 21
144.0785941605559
 31
0.0
  0
LINE
  5
1D6918380C
330
1D691837FC
100
AcDbEntity
  8
0
 62
     0
100
AcDbLine
 10
59.8826346676626
 20
139.0785941605559
 30
0.0
 11
64.88263466766261
 21
144.0785941605559
 31
0.0
  0
LINE
  5
1D6918380D
330
1D691837FC
100
AcDbEntity
  8
0
 62
     0
100
AcDbLine
 10
62.71106179240879
 20
139.0785941605559
 30
0.0
 11
65.0
 21
141.3675323681469
 31
0.0
  0
ENDBLK
  5
1D6918380F
330
1D691837FC
100
AcDbEntity
  8
0
100
AcDbBlockEnd
  0
ENDSEC
  0
SECTION
  2
ENTITIES
  0
TEXT
  5
9255532
330
1D69183399
100
AcDbEntity
  8
TEXT
100
AcDbText
 10
137.642856142857
 20
262.5
 30
0.0
 40
3.0
  1
PBT
  7
K
 72
     4
 11
141.9999989999999
 21
264.0
 31
0.0
100
AcDbText
  0
TEXT
  5
9255533
330
1D69183399
100
AcDbEntity
  8
TEXT
100
AcDbText
 10
156.7857132857142
 20
262.5
 30
0.0
 40
3.0
  1
1
  7
K
 72
     4
 11
157.999999
 21
264.0
 31
0.0
100
AcDbText
  0
LINE
  5
9255535
330
1D69183399
100
AcDbEntity
  8
JISSEN
100
AcDbLine
 10
91.499999
 20
267.0
 30
0.0
 11
180.999999
 21
267.0
 31
0.0
  0
LINE
  5
9255536
330
1D69183399
100
AcDbEntity
  8
JISSEN
100
AcDbLine
 10
91.499999
 20
261.0
 30
0.0
 11
180.999999
 21
261.0
 31
0.0
  0
TEXT
  5
9255537
330
1D69183399
100
AcDbEntity
  8
TEXT
100
AcDbText
 10
107.899999
 20
268.5
 30
0.0
 40
3.0
  1
名      称
  7
K
 72
     4
 11
116.499999
 21
270.0
 31
0.0
100
AcDbText
  0
TEXT
  5
9255538
330
1D69183399
100
AcDbEntity
  8
TEXT
100
AcDbText
 10
93.299999
 20
268.5
 30
0.0
 40
3.0
  1
番号
  7
K
 72
     4
 11
96.499999
 21
270.0
 31
0.0
100
AcDbText
  0
LINE
  5
9255539
330
1D69183399
100
AcDbEntity
  8
JISSEN
100
AcDbLine
 10
91.499999
 20
261.0
 30
0.0
 11
91.499999
 21
273.0
 31
0.0
  0
LINE
  5
925553A
330
1D69183399
100
AcDbEntity
  8
JISSEN
100
AcDbLine
 10
101.4999989999999
 20
273.0
 30
0.0
 11
101.4999989999999
 21
261.0
 31
0.0
  0
TEXT
  5
925553B
330
1D69183399
100
AcDbEntity
  8
TEXT
100
AcDbText
 10
135.1999989999999
 20
268.5
 30
0.0
 40
3.0
  1
材    質
  7
K
 72
     4
 11
141.9999989999999
 21
270.0
 31
0.0
100
AcDbText
  0
LINE
  5
925553C
330
1D69183399
100
AcDbEntity
  8
JISSEN
100
AcDbLine
 10
131.499999
 20
273.0
 30
0.0
 11
131.499999
 21
261.0
 31
0.0
  0
LINE
  5
925553D
330
1D69183399
100
AcDbEntity
  8
JISSEN
100
AcDbLine
 10
152.4999989999999
 20
261.0
 30
0.0
 11
152.4999989999999
 21
273.0
 31
0.0
  0
TEXT
  5
925553E
330
1D69183399
100
AcDbEntity
  8
TEXT
100
AcDbText
 10
165.6999989999999
 20
268.5
 30
0.0
 40
3.0
  1
備    考
  7
K
 72
     4
 11
172.499999
 21
270.0
 31
0.0
100
AcDbText
  0
TEXT
  5
925553F
330
1D69183399
100
AcDbEntity
  8
TEXT
100
AcDbText
 10
154.799999
 20
268.5
 30
0.0
 40
3.0
  1
個数
  7
K
 72
     4
 11
157.999999
 21
270.0
 31
0.0
100
AcDbText
  0
LINE
  5
9255540
330
1D69183399
100
AcDbEntity
  8
JISSEN
100
AcDbLine
 10
163.499999
 20
273.0
 30
0.0
 11
163.499999
 21
261.0
 31
0.0
  0
ARC
  5
1D6918371B
330
1D69183399
100
AcDbEntity
  8
JISSEN
100
AcDbCircle
 10
58.0
 20
164.713154
 30
0.0
 40
1.0
100
AcDbArc
 50
180.0
 51
256.92291
  0
LINE
  5
1D6918371C
330
1D69183399
100
AcDbEntity
  8
JISSEN
100
AcDbLine
 10
57.0
 20
165.2188149999998
 30
0.0
 11
57.0
 21
164.713154
 31
0.0
  0
LINE
  5
1D6918371F
330
1D69183399
100
AcDbEntity
  8
JISSEN
100
AcDbLine
 10
72.963037
 20
160.2188149999999
 30
0.0
 11
89.50000000000001
 21
160.2188149999999
 31
0.0
  0
LINE
  5
1D69183720
330
1D69183399
100
AcDbEntity
  8
JISSEN
100
AcDbLine
 10
57.77373800000001
 20
163.739087
 30
0.0
 11
72.89515899999997
 21
160.226595
 31
0.0
  0
LINE
  5
1D69183756
330
1D69183399
100
AcDbEntity
  8
JISSEN
100
AcDbLine
 10
56.99999999999999
 20
180.2188149999999
 30
0.0
 11
57.0
 21
164.713154
 31
0.0
  0
LINE
  5
1D6918375C
330
1D69183399
100
AcDbEntity
  8
JISSEN
100
AcDbLine
 10
57.0
 20
180.2188149999999
 30
0.0
 11
89.50000000000001
 21
180.2188149999999
 31
0.0
  0
LINE
  5
1D69183766
330
1D69183399
100
AcDbEntity
  8
JISSEN
100
AcDbLine
 10
71.25
 20
191.2188149999999
 30
0.0
 11
89.50000000000001
 21
191.2188149999999
 31
0.0
  0
LINE
  5
1D69183768
330
1D69183399
100
AcDbEntity
  8
JISSEN
100
AcDbLine
 10
71.25
 20
191.2188149999999
 30
0.0
 11
71.0
 21
190.9688149999999
 31
0.0
  0
LINE
  5
1D69183769
330
1D69183399
100
AcDbEntity
  8
JISSEN
100
AcDbLine
 10
73.001953
 20
191.2188149999999
 30
0.0
 11
73.001953
 21
180.2188149999999
 31
0.0
  0
LINE
  5
1D6918376A
330
1D69183399
100
AcDbEntity
  8
JISSEN
100
AcDbLine
 10
74.001953
 20
191.2188149999999
 30
0.0
 11
74.001953
 21
180.2188149999999
 31
0.0
  0
LINE
  5
1D6918376F
330
1D69183399
100
AcDbEntity
  8
JISSEN
100
AcDbLine
 10
71.0
 20
180.2188149999999
 30
0.0
 11
71.0
 21
190.9688149999999
 31
0.0
  0
LWPOLYLINE
  5
1D691837CF
330
1D69183399
100
AcDbEntity
  8
WAKU
100
AcDbPolyline
 90
        4
 70
     1
 43
0.0
 10
0.0
 20
0.0
 10
180.999999
 20
0.0
 10
180.999999
 20
273.0
 10
0.0
 20
273.0
  0
LINE
  5
1D691838B4
330
1D69183399
100
AcDbEntity
  8
JISSEN
100
AcDbLine
 10
272.4999983709023
 20
255.00000004432
 30
0.0
 11
361.9999983709023
 21
255.00000004432
 31
0.0
  0
LINE
  5
1D691838B5
330
1D69183399
100
AcDbEntity
  8
JISSEN
100
AcDbLine
 10
272.4999983709023
 20
261.00000004432
 30
0.0
 11
361.9999983709023
 21
261.00000004432
 31
0.0
  0
LINE
  5
1D691838B6
330
1D69183399
100
AcDbEntity
  8
JISSEN
100
AcDbLine
 10
272.4999983709023
 20
267.00000004432
 30
0.0
 11
361.9999983709023
 21
267.00000004432
 31
0.0
  0
LINE
  5
1D691838B7
330
1D69183399
100
AcDbEntity
  8
SUNPOU
100
AcDbLine
 10
292.7950040700229
 20
130.2919758107902
 30
0.0
 11
306.0629153093253
 21
103.3876897066166
 31
0.0
  0
TEXT
  5
1D691838CA
330
1D69183399
100
AcDbEntity
  8
SUNPOU
100
AcDbText
 10
254.593999539713
 20
2.849423943005376
 30
0.0
 40
3.0
  1
尺度　1/1
  7
K
100
AcDbText
  0
TEXT
  5
1D691838CB
330
1D69183399
100
AcDbEntity
  8
SUNPOU
100
AcDbText
 10
254.593999539713
 20
7.849423943005374
 30
0.0
 40
3.0
  1
シーリングプレートZN-15mm、取付状態図（ヘッドはVZF）
  7
K
100
AcDbText
  0
CIRCLE
  5
1D691838E8
330
1D69183399
100
AcDbEntity
  8
SUNPOU
100
AcDbCircle
 10
308.7166773122616
 20
98.00646798364596
 30
0.0
 40
6.0
  0
TEXT
  5
1D691838FF
330
1D69183399
100
AcDbEntity
  8
SUNPOU
100
AcDbText
 10
251.895248740833
 20
95.75646798364594
 30
0.0
 40
4.5
  1
1
  7
K
 72
     4
 11
253.7166773122616
 21
98.00646798364596
 31
0.0
100
AcDbText
  0
CIRCLE
  5
1D69183900
330
1D69183399
100
AcDbEntity
  8
SUNPOU
100
AcDbCircle
 10
253.7166773122616
 20
98.00646798364596
 30
0.0
 40
6.0
  0
TEXT
  5
1D69183903
330
1D69183399
100
AcDbEntity
  8
SUNPOU
100
AcDbText
 10
306.5738201694044
 20
95.75646798364594
 30
0.0
 40
4.5
  1
2
  7
K
 72
     4
 11
308.7166773122616
 21
98.00646798364596
 31
0.0
100
AcDbText
  0
LINE
  5
1D69183906
330
1D69183399
100
AcDbEntity
  8
JISSEN
100
AcDbLine
 10
202.2663301057769
 20
154.0785942048759
 30
0.0
 11
252.4999990949026
 21
154.0785942048759
 31
0.0
  0
LINE
  5
1D69183907
330
1D69183399
100
AcDbEntity
  8
JISSEN
100
AcDbLine
 10
252.4999990949026
 20
149.0785942048759
 30
0.0
 11
205.7240931392068
 21
149.0785942048759
 31
0.0
  0
INSERT
  5
1D69183908
330
1D69183399
100
AcDbEntity
  8
HATCH
100
AcDbBlockReference
  2
*X2
 10
180.9999990949023
 20
10.00000004432011
 30
0.0
1001
ACAD
1000
HATCH
1002
{
1070
    16
1000
_U
1040
2.0
1040
0.7853981633974483
1070
     0
1002
}
  0
LWPOLYLINE
  5
1D69183909
330
1D69183399
100
AcDbEntity
  8
HATCH
100
AcDbPolyline
 90
       13
 70
     0
 43
0.0
 10
202.2663301057769
 20
154.0785942048759
 10
202.4309172840269
 20
153.2589571266439
 10
202.572822640707
 20
152.7423391498795
 10
202.800531277855
 20
152.3239128631919
 10
203.1084187645143
 20
151.9857958395249
 10
203.4746420534939
 20
151.6955447668748
 10
203.8773580976025
 20
151.4207163332373
 10
204.2947238496493
 20
151.1288672266083
 10
204.704896262443
 20
150.7875541349835
 10
205.0860322887929
 20
150.3643337463592
 10
205.4162888815074
 20
149.826762748731
 10
205.6908689447102
 20
149.1631439614435
 10
205.7240931392068
 20
149.0785942048759
  0
LINE
  5
1D6918390A
330
1D69183399
100
AcDbEntity
  8
JISSEN
100
AcDbLine
 10
245.9999990949023
 20
149.0785942048759
 30
0.0
 11
245.9999990949023
 21
154.0785942048759
 31
0.0
  0
LINE
  5
1D6918390B
330
1D69183399
100
AcDbEntity
  8
SUNPOU
100
AcDbLine
 10
226.1411645055624
 20
149.0785942048759
 30
0.0
 11
226.1411645055624
 21
149.0785942048759
 31
0.0
  0
LWPOLYLINE
  5
1D6918390F
330
1D69183399
100
AcDbEntity
  8
NITEN
100
AcDbPolyline
 90
        5
 70
     0
 43
0.0
 10
287.9999990949023
 20
203.4391431106
 10
287.9999990949023
 20
224.2768607617459
 42
-0.5882352941176477
 10
270.9999990949023
 20
224.2768607617459
 42
0.5882352941176478
 10
253.9999990949023
 20
224.2768607617456
 10
253.9999990949023
 20
203.4391431106
  0
LINE
  5
1D69183910
330
1D69183399
100
AcDbEntity
  8
JISSEN
100
AcDbLine
 10
339.7336680840278
 20
154.0785942048759
 30
0.0
 11
289.4999990949019
 21
154.0785942048759
 31
0.0
  0
INSERT
  5
1D69183911
330
1D69183399
100
AcDbEntity
  8
HATCH
100
AcDbBlockReference
  2
*X2
 10
360.9999990949023
 20
10.00000004432011
 30
0.0
 41
-1.0
1001
ACAD
1000
HATCH
1002
{
1070
    16
1000
_U
1040
2.0
1040
0.7853981633974483
1070
     0
1002
}
  0
LINE
  5
1D69183912
330
1D69183399
100
AcDbEntity
  8
JISSEN
100
AcDbLine
 10
289.4999990949019
 20
149.0785942048759
 30
0.0
 11
336.2759050505979
 21
149.0785942048759
 31
0.0
  0
LINE
  5
1D69183913
330
1D69183399
100
AcDbEntity
  8
JISSEN
100
AcDbLine
 10
281.2619234585131
 20
172.0666698412675
 30
0.0
 11
281.6365695439774
 21
160.078594204876
 31
0.0
  0
LINE
  5
1D69183914
330
1D69183399
100
AcDbEntity
  8
SAISEN
100
AcDbLine
 10
280.0624376538765
 20
173.2661556459043
 30
0.0
 11
280.4745695439775
 21
160.078594204876
 31
0.0
  0
LINE
  5
1D69183915
330
1D69183399
100
AcDbEntity
  8
JISSEN
100
AcDbLine
 10
260.738074731293
 20
172.0666698412656
 30
0.0
 11
260.3634286458287
 21
160.078594204876
 31
0.0
  0
LINE
  5
1D69183916
330
1D69183399
100
AcDbEntity
  8
SAISEN
100
AcDbLine
 10
261.9375605359298
 20
173.2661556459024
 30
0.0
 11
261.5254286458287
 21
160.078594204876
 31
0.0
  0
LINE
  5
1D69183918
330
1D69183399
100
AcDbEntity
  8
JISSEN
100
AcDbLine
 10
289.2499990949008
 20
160.078594204876
 30
0.0
 11
271.4999990949
 21
160.0785942048765
 31
0.0
  0
LINE
  5
1D6918391B
330
1D69183399
100
AcDbEntity
  8
JISSEN
100
AcDbLine
 10
252.4999990949036
 20
159.828594204876
 30
0.0
 11
252.4999990949038
 21
149.0785942048759
 31
0.0
  0
INSERT
  5
1D6918391D
330
1D69183399
100
AcDbEntity
  8
SUNPOU
100
AcDbBlockReference
  2
ARROW
 10
266.0372302649843
 20
122.9036618003527
 30
0.0
 41
1.499999999999995
 42
1.5
 43
1.5
 50
63.67116692485383
  0
LINE
  5
1D6918391E
330
1D69183399
100
AcDbEntity
  8
JISSEN
100
AcDbLine
 10
252.7499990949008
 20
160.078594204876
 30
0.0
 11
270.4999990949016
 21
160.0785942048765
 31
0.0
  0
LINE
  5
1D69183922
330
1D69183399
100
AcDbEntity
  8
JISSEN
100
AcDbLine
 10
252.7499990949008
 20
160.078594204876
 30
0.0
 11
252.4999990949008
 21
159.828594204876
 31
0.0
  0
LINE
  5
1D69183927
330
1D69183399
100
AcDbEntity
  8
JISSEN
100
AcDbLine
 10
295.9999990949023
 20
149.0785942048759
 30
0.0
 11
295.9999990949023
 21
154.0785942048759
 31
0.0
  0
LINE
  5
1D69183928
330
1D69183399
100
AcDbEntity
  8
JISSEN
100
AcDbLine
 10
289.4999990949008
 20
159.828594204876
 30
0.0
 11
289.4999990949008
 21
149.0785942048759
 31
0.0
  0
INSERT
  5
1D6918392A
330
1D69183399
100
AcDbEntity
  8
SUNPOU
100
AcDbBlockReference
  2
ARROW
 10
292.7950040700233
 20
130.2919758107898
 30
0.0
 41
1.499999999999998
 42
1.5
 43
1.5
 50
116.2503179468657
  0
LINE
  5
1D69183932
330
1D69183399
100
AcDbEntity
  8
JISSEN
100
AcDbLine
 10
289.2499990949008
 20
160.078594204876
 30
0.0
 11
289.4999990949008
 21
159.828594204876
 31
0.0
  0
LINE
  5
1D69183933
330
1D69183399
100
AcDbEntity
  8
JISSEN
100
AcDbLine
 10
260.738074731293
 20
172.0666698412656
 30
0.0
 11
281.2619234585131
 21
172.0666698412675
 31
0.0
  0
LINE
  5
1D69183934
330
1D69183399
100
AcDbEntity
  8
JISSEN
100
AcDbLine
 10
262.923260510345
 20
173.3285942048759
 30
0.0
 11
279.0769045554918
 21
173.3285942048766
 31
0.0
  0
LWPOLYLINE
  5
1D69183935
330
1D69183399
100
AcDbEntity
  8
NITEN
100
AcDbPolyline
 90
       15
 70
     1
 43
0.0
 10
256.9999990949022
 20
162.9391431105998
 42
0.4142135623730927
 10
258.4999990949023
 20
161.4391431106001
 10
281.5940502658988
 20
161.4391431106001
 10
283.4999990949023
 20
161.4391431106001
 42
0.4142135623730925
 10
284.9999990949023
 20
162.9391431105998
 10
284.9999990949023
 20
173.985159136818
 42
-0.4142135623730943
 10
289.9999990949023
 20
178.985159136818
 42
0.4142135623730951
 10
291.9999990949023
 20
180.985159136818
 10
291.9999990949023
 20
201.4391431106
 42
0.414213562373095
 10
289.9999990949023
 20
203.4391431106
 10
251.9999990949023
 20
203.4391431106
 42
0.4142135623730951
 10
249.9999990949023
 20
201.4391431106
 10
249.9999990949023
 20
180.985159136818
 42
0.4142135623730951
 10
251.9999990949023
 20
178.985159136818
 42
-0.4142135623730961
 10
256.9999990949022
 20
173.985159136818
  0
LINE
  5
1D69183936
330
1D69183399
100
AcDbEntity
  8
JISSEN
100
AcDbLine
 10
261.9999990949031
 20
173.3285942048758
 30
0.0
 11
262.923260510345
 21
173.3285942048759
 31
0.0
  0
LINE
  5
1D69183937
330
1D69183399
100
AcDbEntity
  8
JISSEN
100
AcDbLine
 10
261.9999990949031
 20
173.3285942048758
 30
0.0
 11
260.738074731293
 21
172.0666698412656
 31
0.0
  0
LINE
  5
1D69183938
330
1D69183399
100
AcDbEntity
  8
JISSEN
100
AcDbLine
 10
279.999999094903
 20
173.3285942048775
 30
0.0
 11
281.2619234585131
 21
172.0666698412675
 31
0.0
  0
LINE
  5
1D69183939
330
1D69183399
100
AcDbEntity
  8
JISSEN
100
AcDbLine
 10
279.0769045554915
 20
173.3285942048775
 30
0.0
 11
279.999999094903
 21
173.3285942048775
 31
0.0
  0
LWPOLYLINE
  5
1D6918393A
330
1D69183399
100
AcDbEntity
  8
HATCH
100
AcDbPolyline
 90
       13
 70
     0
 43
0.0
 10
339.7336680840278
 20
154.0785942048759
 10
339.5690809057778
 20
153.2589571266439
 10
339.4271755490976
 20
152.7423391498795
 10
339.1994669119497
 20
152.3239128631919
 10
338.8915794252905
 20
151.9857958395249
 10
338.5253561363108
 20
151.6955447668748
 10
338.1226400922021
 20
151.4207163332373
 10
337.7052743401553
 20
151.1288672266083
 10
337.2951019273613
 20
150.7875541349835
 10
336.9139659010118
 20
150.3643337463592
 10
336.5837093082973
 20
149.826762748731
 10
336.3091292450945
 20
149.1631439614435
 10
336.2759050505979
 20
149.0785942048759
  0
TEXT
  5
1D6918393C
330
1D69183399
100
AcDbEntity
  8
TEXT
100
AcDbText
 10
286.8285697994737
 20
262.50000004432
 30
0.0
 40
3.0
  1
VZF型ヘッド
  7
K
 72
     4
 11
297.4999983709023
 21
264.00000004432
 31
0.0
100
AcDbText
  0
TEXT
  5
1D6918393D
330
1D69183399
100
AcDbEntity
  8
TEXT
100
AcDbText
 10
288.8999983709023
 20
268.50000004432
 30
0.0
 40
3.0
  1
名      称
  7
K
 72
     4
 11
297.4999983709023
 21
270.00000004432
 31
0.0
100
AcDbText
  0
TEXT
  5
1D69183940
330
1D69183399
100
AcDbEntity
  8
TEXT
100
AcDbText
 10
276.2857126566166
 20
262.50000004432
 30
0.0
 40
3.0
  1
1
  7
K
 72
     4
 11
277.4999983709023
 21
264.00000004432
 31
0.0
100
AcDbText
  0
LINE
  5
1D69183941
330
1D69183399
100
AcDbEntity
  8
JISSEN
100
AcDbLine
 10
282.4999983709023
 20
273.0000000443201
 30
0.0
 11
282.4999983709023
 21
255.00000004432
 31
0.0
  0
LINE
  5
1D69183942
330
1D69183399
100
AcDbEntity
  8
JISSEN
100
AcDbLine
 10
272.4999983709023
 20
255.00000004432
 30
0.0
 11
272.4999983709023
 21
273.0000000443201
 31
0.0
  0
TEXT
  5
1D69183943
330
1D69183399
100
AcDbEntity
  8
TEXT
100
AcDbText
 10
276.3830707764365
 20
256.50000004432
 30
0.0
 40
3.0
  1
2
  7
K
 72
     4
 11
277.811642205008
 21
258.00000004432
 31
0.0
100
AcDbText
  0
LWPOLYLINE
  5
1D69183944
330
1D69183399
100
AcDbEntity
  8
NITEN
100
AcDbPolyline
 90
        2
 70
     0
 43
0.0
 10
287.9999990949023
 20
224.2768607617459
 42
0.5882352941176296
 10
270.9999990949023
 20
224.2768607617461
 42
0.5882352941176296
  0
TEXT
  5
1D69183946
330
1D69183399
100
AcDbEntity
  8
TEXT
100
AcDbText
 10
274.2999983709023
 20
268.50000004432
 30
0.0
 40
3.0
  1
番号
  7
K
 72
     4
 11
277.4999983709023
 21
270.00000004432
 31
0.0
100
AcDbText
  0
TEXT
  5
1D69183948
330
1D69183399
100
AcDbEntity
  8
TEXT
100
AcDbText
 10
337.6795468573116
 20
262.50000004432
 30
0.0
 40
3.0
  1
1
  7
K
 72
     4
 11
338.8938325715973
 21
264.00000004432
 31
0.0
100
AcDbText
  0
LINE
  5
1D69183949
330
1D69183399
100
AcDbEntity
  8
JISSEN
100
AcDbLine
 10
344.4999983709023
 20
273.0000000443201
 30
0.0
 11
344.4999983709021
 21
255.00000004432
 31
0.0
  0
LINE
  5
1D6918394A
330
1D69183399
100
AcDbEntity
  8
JISSEN
100
AcDbLine
 10
333.4999983709021
 20
255.00000004432
 30
0.0
 11
333.4999983709023
 21
273.0000000443201
 31
0.0
  0
LINE
  5
1D6918394B
330
1D69183399
100
AcDbEntity
  8
JISSEN
100
AcDbLine
 10
312.4999983709023
 20
273.0000000443201
 30
0.0
 11
312.4999983709021
 21
255.00000004432
 31
0.0
  0
TEXT
  5
1D6918394C
330
1D69183399
100
AcDbEntity
  8
TEXT
100
AcDbText
 10
318.6428555137593
 20
256.50000004432
 30
0.0
 40
3.0
  1
PBT
  7
K
 72
     4
 11
322.9999983709021
 21
258.00000004432
 31
0.0
100
AcDbText
  0
TEXT
  5
1D6918394D
330
1D69183399
100
AcDbEntity
  8
TEXT
100
AcDbText
 10
317.8249983709021
 20
264.30000004432
 30
0.0
 40
3.0
  1
%%u      
  7
K
 72
     4
 11
322.9999983709021
 21
264.00000004432
 31
0.0
100
AcDbText
  0
TEXT
  5
1D6918394E
330
1D69183399
100
AcDbEntity
  8
TEXT
100
AcDbText
 10
337.6795468573116
 20
256.5808352206611
 30
0.0
 40
3.0
  1
1
  7
K
 72
     4
 11
338.8938325715973
 21
258.0808352206612
 31
0.0
100
AcDbText
  0
TEXT
  5
1D6918394F
330
1D69183399
100
AcDbEntity
  8
TEXT
100
AcDbText
 10
316.1999983709023
 20
268.50000004432
 30
0.0
 40
3.0
  1
材    質
  7
K
 72
     4
 11
322.9999983709023
 21
270.00000004432
 31
0.0
100
AcDbText
  0
TEXT
  5
1D69183950
330
1D69183399
100
AcDbEntity
  8
TEXT
100
AcDbText
 10
346.6999983709023
 20
268.50000004432
 30
0.0
 40
3.0
  1
備    考
  7
K
 72
     4
 11
353.4999983709023
 21
270.00000004432
 31
0.0
100
AcDbText
  0
TEXT
  5
1D69183951
330
1D69183399
100
AcDbEntity
  8
TEXT
100
AcDbText
 10
335.7999983709023
 20
268.50000004432
 30
0.0
 40
3.0
  1
個数
  7
K
 72
     4
 11
338.9999983709023
 21
270.00000004432
 31
0.0
100
AcDbText
  0
LWPOLYLINE
  5
1D69183952
330
1D69183399
100
AcDbEntity
  8
WAKU
100
AcDbPolyline
 90
        4
 70
     1
 43
0.0
 10
180.999999
 20
0.0
 10
361.999998
 20
0.0
 10
361.999998
 20
273.0
 10
180.999999
 20
273.0
  0
LINE
  5
1D691839A5
330
1D69183399
100
AcDbEntity
  8
JISSEN
100
AcDbLine
 10
107.9999999999997
 20
180.2188149999999
 30
0.0
 11
108.0
 21
190.9688149999999
 31
0.0
  0
LINE
  5
1D691839A7
330
1D69183399
100
AcDbEntity
  8
JISSEN
100
AcDbLine
 10
104.9980469999999
 20
191.2188149999999
 30
0.0
 11
104.9980469999999
 21
180.2188149999999
 31
0.0
  0
LINE
  5
1D691839A8
330
1D69183399
100
AcDbEntity
  8
JISSEN
100
AcDbLine
 10
105.9980469999999
 20
191.2188149999999
 30
0.0
 11
105.9980469999999
 21
180.2188149999999
 31
0.0
  0
LINE
  5
1D691839A9
330
1D69183399
100
AcDbEntity
  8
JISSEN
100
AcDbLine
 10
107.75
 20
191.2188149999999
 30
0.0
 11
108.0
 21
190.9688149999999
 31
0.0
  0
LINE
  5
1D691839AA
330
1D69183399
100
AcDbEntity
  8
JISSEN
100
AcDbLine
 10
107.75
 20
191.2188149999999
 30
0.0
 11
89.50000000000001
 21
191.2188149999999
 31
0.0
  0
LINE
  5
1D691839AB
330
1D69183399
100
AcDbEntity
  8
JISSEN
100
AcDbLine
 10
122.0
 20
180.2188149999999
 30
0.0
 11
89.50000000000001
 21
180.2188149999999
 31
0.0
  0
LINE
  5
1D691839AC
330
1D69183399
100
AcDbEntity
  8
JISSEN
100
AcDbLine
 10
122.0
 20
180.2188149999999
 30
0.0
 11
122.0
 21
164.713154
 31
0.0
  0
LINE
  5
1D691839B3
330
1D69183399
100
AcDbEntity
  8
JISSEN
100
AcDbLine
 10
121.2262619999999
 20
163.739087
 30
0.0
 11
106.1048409999999
 21
160.226595
 31
0.0
  0
LINE
  5
1D691839B4
330
1D69183399
100
AcDbEntity
  8
JISSEN
100
AcDbLine
 10
106.0369629999998
 20
160.2188149999999
 30
0.0
 11
89.50000000000001
 21
160.2188149999999
 31
0.0
  0
LINE
  5
1D691839B5
330
1D69183399
100
AcDbEntity
  8
JISSEN
100
AcDbLine
 10
122.0
 20
165.2188149999998
 30
0.0
 11
122.0
 21
164.713154
 31
0.0
  0
ARC
  5
1D691839B6
330
1D69183399
100
AcDbEntity
  8
JISSEN
100
AcDbCircle
 10
121.0
 20
164.713154
 30
0.0
 40
1.0
100
AcDbArc
 50
283.07709
 51
0.000000000000007
  0
LINE
  5
1D691839BA
330
1D69183399
100
AcDbEntity
  8
JISSEN
100
AcDbLine
 10
90.0
 20
191.2188149999999
 30
0.0
 11
90.0
 21
180.2188149999999
 31
0.0
  0
LINE
  5
1D691839BB
330
1D69183399
100
AcDbEntity
  8
JISSEN
100
AcDbLine
 10
89.0
 20
191.2188149999999
 30
0.0
 11
89.0
 21
180.2188149999999
 31
0.0
  0
ARC
  5
1D691839E0
330
1D69183399
100
AcDbEntity
  8
JISSEN
100
AcDbCircle
 10
302.4999990949008
 20
133.5729332048759
 30
0.0
 40
1.0
100
AcDbArc
 50
283.07709
 51
0.000000000000007
  0
LINE
  5
1D691839E1
330
1D69183399
100
AcDbEntity
  8
JISSEN
100
AcDbLine
 10
303.4999990949008
 20
134.078594204876
 30
0.0
 11
303.4999990949008
 21
133.5729332048759
 31
0.0
  0
LINE
  5
1D691839E2
330
1D69183399
100
AcDbEntity
  8
JISSEN
100
AcDbLine
 10
287.5369620949008
 20
129.0785942048759
 30
0.0
 11
270.9999990949008
 21
129.0785942048759
 31
0.0
  0
LINE
  5
1D691839E3
330
1D69183399
100
AcDbEntity
  8
JISSEN
100
AcDbLine
 10
302.7262610949008
 20
132.5988662048759
 30
0.0
 11
287.6048400949008
 21
129.0863742048759
 31
0.0
  0
LINE
  5
1D691839EA
330
1D69183399
100
AcDbEntity
  8
JISSEN
100
AcDbLine
 10
303.4999990949008
 20
149.0785942048759
 30
0.0
 11
303.4999990949008
 21
133.5729332048759
 31
0.0
  0
LINE
  5
1D691839EB
330
1D69183399
100
AcDbEntity
  8
JISSEN
100
AcDbLine
 10
303.4999990949008
 20
149.0785942048759
 30
0.0
 11
270.9999990949008
 21
149.0785942048759
 31
0.0
  0
LINE
  5
1D691839EC
330
1D69183399
100
AcDbEntity
  8
JISSEN
100
AcDbLine
 10
238.4999990949008
 20
149.0785942048759
 30
0.0
 11
270.9999990949008
 21
149.0785942048759
 31
0.0
  0
LINE
  5
1D691839ED
330
1D69183399
100
AcDbEntity
  8
JISSEN
100
AcDbLine
 10
238.4999990949008
 20
149.0785942048759
 30
0.0
 11
238.4999990949008
 21
133.5729332048759
 31
0.0
  0
LINE
  5
1D691839F4
330
1D69183399
100
AcDbEntity
  8
JISSEN
100
AcDbLine
 10
239.2737370949009
 20
132.5988662048759
 30
0.0
 11
254.3951580949009
 21
129.0863742048759
 31
0.0
  0
LINE
  5
1D691839F5
330
1D69183399
100
AcDbEntity
  8
JISSEN
100
AcDbLine
 10
254.4630360949009
 20
129.0785942048759
 30
0.0
 11
270.9999990949008
 21
129.0785942048759
 31
0.0
  0
LINE
  5
1D691839F6
330
1D69183399
100
AcDbEntity
  8
JISSEN
100
AcDbLine
 10
238.4999990949008
 20
134.078594204876
 30
0.0
 11
238.4999990949008
 21
133.5729332048759
 31
0.0
  0
ARC
  5
1D691839F7
330
1D69183399
100
AcDbEntity
  8
JISSEN
100
AcDbCircle
 10
239.4999990949008
 20
133.5729332048759
 30
0.0
 40
1.0
100
AcDbArc
 50
180.0
 51
256.92291
  0
LINE
  5
1D691839FB
330
1D69183399
100
AcDbEntity
  8
SUNPOU
100
AcDbLine
 10
266.0372302649843
 20
122.9036618003527
 30
0.0
 11
256.3778109649446
 21
103.3840480790565
 31
0.0
  0
TEXT
  5
1D69183A33
330
1D69183399
100
AcDbEntity
  8
SUNPOU
100
AcDbText
 10
122.1452895988084
 20
7.849423943005374
 30
0.0
 40
3.0
  1
シーリングプレートZN-15mm
  7
K
100
AcDbText
  0
TEXT
  5
1D69183A34
330
1D69183399
100
AcDbEntity
  8
SUNPOU
100
AcDbText
 10
122.1452895988084
 20
2.849423943005376
 30
0.0
 40
3.0
  1
尺度　1/1
  7
K
100
AcDbText
  0
TEXT
  5
1D69183A35
330
1D69183399
100
AcDbEntity
  8
TEXT
100
AcDbText
 10
102.4428561428571
 20
262.5
 30
0.0
 40
3.0
  1
シーリングプレートZN-15mm
 41
0.5
  7
K
 72
     4
 11
116.499999
 21
264.0
 31
0.0
100
AcDbText
  0
CIRCLE
  5
1D69183E7D
330
1D69183399
100
AcDbEntity
  8
JISSEN
100
AcDbCircle
 10
89.50000000000001
 20
100.8828659999999
 30
0.0
 40
32.5
  0
CIRCLE
  5
1D69183E7E
330
1D69183399
100
AcDbEntity
  8
JISSEN
100
AcDbCircle
 10
89.50000000000001
 20
100.8828659999999
 30
0.0
 40
15.25
  0
CIRCLE
  5
1D69183E7F
330
1D69183399
100
AcDbEntity
  8
JISSEN
100
AcDbCircle
 10
89.50000000000001
 20
100.8828659999999
 30
0.0
 40
17.29
  0
ARC
  5
1D69183ED0
330
1D69183399
100
AcDbEntity
  8
JISSEN
 62
     0
100
AcDbCircle
 10
270.9999990949006
 20
222.7804363646459
 30
0.0
 40
100.0
100
AcDbArc
 50
271.7782325739839
 51
276.5114669976861
  0
ARC
  5
1D69183ED1
330
1D69183399
100
AcDbEntity
  8
JISSEN
 62
     0
100
AcDbCircle
 10
270.999999094902
 20
222.7804363646459
 30
0.0
 40
100.0
100
AcDbArc
 50
263.4885330023136
 51
268.221767426016
  0
ARC
  5
1D69183ED2
330
1D69183399
100
AcDbEntity
  8
JISSEN
 62
     0
100
AcDbCircle
 10
259.9999990949021
 20
126.4061659393918
 30
0.0
 40
3.0
100
AcDbArc
 50
180.0
 51
263.4885330023136
  0
LINE
  5
1D69183ED3
330
1D69183399
100
AcDbEntity
  8
JISSEN
 62
     0
100
AcDbLine
 10
256.9999990949022
 20
129.0785942048748
 30
0.0
 11
256.9999990949022
 21
126.4061659393918
 31
0.0
  0
ARC
  5
1D69183ED6
330
1D69183399
100
AcDbEntity
  8
JISSEN
 62
     0
100
AcDbCircle
 10
281.9999990949006
 20
126.4061659393918
 30
0.0
 40
3.0
100
AcDbArc
 50
276.5114669976861
 51
0.0
  0
LINE
  5
1D69183ED7
330
1D69183399
100
AcDbEntity
  8
JISSEN
 62
     0
100
AcDbLine
 10
284.9999990949005
 20
129.0785942048748
 30
0.0
 11
284.9999990949005
 21
126.4061659393918
 31
0.0
  0
LINE
  5
1D69183EDA
330
1D69183399
100
AcDbEntity
  8
JISSEN
 62
     0
100
AcDbLine
 10
267.8968959917988
 20
122.8285942048761
 30
0.0
 11
274.103102198004
 21
122.8285942048761
 31
0.0
  0
TEXT
  5
1D69183EE4
330
1D69183399
100
AcDbEntity
  8
TEXT
100
AcDbText
 10
283.4428555137595
 20
256.50000004432
 30
0.0
 40
3.0
  1
シーリングプレートZN-15mm
 41
0.5
  7
K
 72
     4
 11
297.4999983709023
 21
258.00000004432
 31
0.0
100
AcDbText
  0
LINE
  5
1D69183F5A
330
1D69183399
100
AcDbEntity
  8
JISSEN
100
AcDbLine
 10
270.4999990949015
 20
160.0785942048761
 30
0.0
 11
270.4999990949015
 21
149.0785942048759
 31
0.0
  0
LINE
  5
1D69183F5B
330
1D69183399
100
AcDbEntity
  8
JISSEN
100
AcDbLine
 10
271.4999990949015
 20
160.0785942048761
 30
0.0
 11
271.4999990949015
 21
149.0785942048759
 31
0.0
  0
LINE
  5
1D69183F5C
330
1D69183399
100
AcDbEntity
  8
JISSEN
100
AcDbLine
 10
287.4980460949013
 20
160.0785942048761
 30
0.0
 11
287.4980460949013
 21
149.0785942048759
 31
0.0
  0
LINE
  5
1D69183F5D
330
1D69183399
100
AcDbEntity
  8
JISSEN
100
AcDbLine
 10
286.4980460949015
 20
160.0785942048761
 30
0.0
 11
286.4980460949013
 21
149.0785942048759
 31
0.0
  0
LINE
  5
1D69183F60
330
1D69183399
100
AcDbEntity
  8
JISSEN
100
AcDbLine
 10
255.5019520949015
 20
160.0785942048761
 30
0.0
 11
255.5019520949015
 21
149.0785942048759
 31
0.0
  0
LINE
  5
1D69183F61
330
1D69183399
100
AcDbEntity
  8
JISSEN
100
AcDbLine
 10
254.5019520949014
 20
160.0785942048761
 30
0.0
 11
254.5019520949014
 21
149.0785942048759
 31
0.0
  0
LINE
  5
1D69183F65
330
1D69183399
100
AcDbEntity
  8
JISSEN
 62
     0
100
AcDbLine
 10
267.8968959917988
 20
47.82859420487625
 30
0.0
 11
274.103102198004
 21
47.82859420487625
 31
0.0
  0
LINE
  5
1D69183F66
330
1D69183399
100
AcDbEntity
  8
JISSEN
 62
     0
100
AcDbLine
 10
284.9999990949005
 20
54.07859420487503
 30
0.0
 11
284.9999990949005
 21
51.40616593939191
 31
0.0
  0
ARC
  5
1D69183F67
330
1D69183399
100
AcDbEntity
  8
JISSEN
 62
     0
100
AcDbCircle
 10
281.9999990949006
 20
51.40616593939191
 30
0.0
 40
3.0
100
AcDbArc
 50
276.5114669976861
 51
0.0
  0
LINE
  5
1D69183F68
330
1D69183399
100
AcDbEntity
  8
JISSEN
 62
     0
100
AcDbLine
 10
256.9999990949022
 20
54.07859420487503
 30
0.0
 11
256.9999990949022
 21
51.40616593939191
 31
0.0
  0
ARC
  5
1D69183F69
330
1D69183399
100
AcDbEntity
  8
JISSEN
 62
     0
100
AcDbCircle
 10
259.9999990949021
 20
51.40616593939191
 30
0.0
 40
3.0
100
AcDbArc
 50
180.0
 51
263.4885330023136
  0
ARC
  5
1D69183F6A
330
1D69183399
100
AcDbEntity
  8
JISSEN
 62
     0
100
AcDbCircle
 10
270.999999094902
 20
147.7804363646459
 30
0.0
 40
100.0
100
AcDbArc
 50
263.4885330023136
 51
268.221767426016
  0
ARC
  5
1D69183F6B
330
1D69183399
100
AcDbEntity
  8
JISSEN
 62
     0
100
AcDbCircle
 10
270.9999990949006
 20
147.7804363646459
 30
0.0
 40
100.0
100
AcDbArc
 50
271.7782325739839
 51
276.5114669976861
  0
ARC
  5
1D69183F6D
330
1D69183399
100
AcDbEntity
  8
JISSEN
100
AcDbCircle
 10
239.4999990949008
 20
58.57293320487608
 30
0.0
 40
1.0
100
AcDbArc
 50
180.0
 51
256.92291
  0
LINE
  5
1D69183F6E
330
1D69183399
100
AcDbEntity
  8
JISSEN
100
AcDbLine
 10
238.4999990949008
 20
59.07859420487604
 30
0.0
 11
238.4999990949008
 21
58.57293320487608
 31
0.0
  0
LINE
  5
1D69183F6F
330
1D69183399
100
AcDbEntity
  8
JISSEN
100
AcDbLine
 10
254.4630360949009
 20
54.07859420487604
 30
0.0
 11
270.9999990949008
 21
54.07859420487604
 31
0.0
  0
LINE
  5
1D69183F70
330
1D69183399
100
AcDbEntity
  8
JISSEN
100
AcDbLine
 10
239.2737370949009
 20
57.59886620487609
 30
0.0
 11
254.3951580949009
 21
54.08637420487607
 31
0.0
  0
LINE
  5
1D69183F71
330
1D69183399
100
AcDbEntity
  8
JISSEN
100
AcDbLine
 10
238.499999094901
 20
74.07859420487605
 30
0.0
 11
238.4999990949008
 21
58.57293320487608
 31
0.0
  0
LINE
  5
1D69183F72
330
1D69183399
100
AcDbEntity
  8
JISSEN
100
AcDbLine
 10
238.4999990949008
 20
74.07859420487605
 30
0.0
 11
270.9999990949008
 21
74.07859420487605
 31
0.0
  0
LINE
  5
1D69183F73
330
1D69183399
100
AcDbEntity
  8
JISSEN
100
AcDbLine
 10
303.4999990949008
 20
74.07859420487605
 30
0.0
 11
270.9999990949008
 21
74.07859420487605
 31
0.0
  0
LINE
  5
1D69183F74
330
1D69183399
100
AcDbEntity
  8
JISSEN
100
AcDbLine
 10
303.4999990949008
 20
74.07859420487605
 30
0.0
 11
303.4999990949008
 21
58.57293320487608
 31
0.0
  0
LINE
  5
1D69183F75
330
1D69183399
100
AcDbEntity
  8
JISSEN
100
AcDbLine
 10
302.7262610949008
 20
57.59886620487609
 30
0.0
 11
287.6048400949008
 21
54.08637420487607
 31
0.0
  0
LINE
  5
1D69183F76
330
1D69183399
100
AcDbEntity
  8
JISSEN
100
AcDbLine
 10
287.5369620949008
 20
54.07859420487604
 30
0.0
 11
270.9999990949008
 21
54.07859420487604
 31
0.0
  0
LINE
  5
1D69183F77
330
1D69183399
100
AcDbEntity
  8
JISSEN
100
AcDbLine
 10
303.4999990949008
 20
59.07859420487604
 30
0.0
 11
303.4999990949008
 21
58.57293320487608
 31
0.0
  0
ARC
  5
1D69183F78
330
1D69183399
100
AcDbEntity
  8
JISSEN
100
AcDbCircle
 10
302.4999990949008
 20
58.57293320487608
 30
0.0
 40
1.0
100
AcDbArc
 50
283.07709
 51
0.000000000000007
  0
LINE
  5
1D69183F7D
330
1D69183399
100
AcDbEntity
  8
JISSEN
100
AcDbLine
 10
289.4999990949019
 20
74.07859420487605
 30
0.0
 11
336.2759050505979
 21
74.07859420487605
 31
0.0
  0
LINE
  5
1D69183F80
330
1D69183399
100
AcDbEntity
  8
SUNPOU
100
AcDbLine
 10
226.1411645055624
 20
74.07859420487605
 30
0.0
 11
226.1411645055624
 21
74.07859420487605
 31
0.0
  0
LINE
  5
1D69183F84
330
1D69183399
100
AcDbEntity
  8
JISSEN
100
AcDbLine
 10
252.4999990949026
 20
74.07859420487605
 30
0.0
 11
205.7240931392068
 21
74.07859420487605
 31
0.0
  0
ENDSEC
  0
SECTION
  2
OBJECTS
  0
DICTIONARY
  5
1D6918338D
330
0
100
AcDbDictionary
281
     1
  3
ACAD_GROUP
350
1D6918338E
  3
ACAD_LAYOUT
350
1D691837E6
  3
ACAD_MLINESTYLE
350
1D6918338F
  3
ACAD_PLOTSETTINGS
350
1D691837E7
  3
ACAD_PLOTSTYLENAME
350
1D691837E4
  3
ACDBVARIABLEDICTIONARY
350
1D6918403F
  0
DICTIONARY
  5
1D69183A5C
330
1D69183399
100
AcDbDictionary
280
     1
281
     1
  3
ACAD_LAYOUTSELFREF
360
1D691840A1
  0
DICTIONARY
  5
1D69183A5A
330
1D69183396
100
AcDbDictionary
280
     1
281
     1
  3
ACAD_LAYOUTSELFREF
360
1D691840A0
  0
DICTIONARY
  5
1D6918338E
102
{ACAD_REACTORS
330
1D6918338D
102
}
330
1D6918338D
100
AcDbDictionary
281
     1
  0
DICTIONARY
  5
1D691837E6
102
{ACAD_REACTORS
330
1D6918338D
102
}
330
1D6918338D
100
AcDbDictionary
281
     1
  3
Model
350
1D691840A6
  3
ﾚｲｱｳﾄ1
350
1D691840A7
  0
DICTIONARY
  5
1D6918338F
102
{ACAD_REACTORS
330
1D6918338D
102
}
330
1D6918338D
100
AcDbDictionary
281
     1
  3
STANDARD
350
1D6918339C
  0
DICTIONARY
  5
1D691837E7
102
{ACAD_REACTORS
330
1D6918338D
102
}
330
1D6918338D
100
AcDbDictionary
281
     1
  0
ACDBDICTIONARYWDFLT
  5
1D691837E4
102
{ACAD_REACTORS
330
1D6918338D
102
}
330
1D6918338D
100
AcDbDictionary
281
     1
  3
Normal
350
1D691837E5
100
AcDbDictionaryWithDefault
340
1D691837E5
  0
DICTIONARY
  5
1D6918403F
102
{ACAD_REACTORS
330
1D6918338D
102
}
330
1D6918338D
100
AcDbDictionary
281
     1
  3
DIMASSOC
350
1D69184040
  0
XRECORD
  5
1D691840A1
102
{ACAD_REACTORS
330
1D69183A5C
102
}
330
1D69183A5C
100
AcDbXrecord
280
     1
340
1D69183399
  0
XRECORD
  5
1D691840A0
102
{ACAD_REACTORS
330
1D69183A5A
102
}
330
1D69183A5A
100
AcDbXrecord
280
     1
340
1D69183396
  0
LAYOUT
  5
1D691840A6
102
{ACAD_REACTORS
330
1D691837E6
102
}
330
1D691837E6
100
AcDbPlotSettings
  1

  2
\\Nt_honsya\GL-8300A
  4

  6

 40
0.0
 41
0.0
 42
0.0
 43
0.0
 44
0.0
 45
0.0
 46
0.0
 47
0.0
 48
0.0
 49
0.0
140
0.0
141
0.0
142
1.0
143
1.0
 70
  1712
 72
     0
 73
     0
 74
     0
  7

 75
     0
147
1.0
148
0.0
149
0.0
100
AcDbLayout
  1
Model
 70
     1
 71
     0
 10
0.0
 20
0.0
 11
12.0
 21
9.0
 12
0.0
 22
0.0
 32
0.0
 14
0.0
 24
0.0
 34
0.0
 15
0.0
 25
0.0
 35
0.0
146
0.0
 13
0.0
 23
0.0
 33
0.0
 16
1.0
 26
0.0
 36
0.0
 17
0.0
 27
1.0
 37
0.0
 76
     0
330
1D69183399
  0
LAYOUT
  5
1D691840A7
102
{ACAD_REACTORS
330
1D691837E6
102
}
330
1D691837E6
100
AcDbPlotSettings
  1

  2
\\Nt_honsya\GL-8300A
  4

  6

 40
0.0
 41
0.0
 42
0.0
 43
0.0
 44
0.0
 45
0.0
 46
0.0
 47
0.0
 48
0.0
 49
0.0
140
0.0
141
0.0
142
1.0
143
1.0
 70
   688
 72
     0
 73
     0
 74
     5
  7

 75
    16
147
1.0
148
0.0
149
0.0
100
AcDbLayout
  1
ﾚｲｱｳﾄ1
 70
     0
 71
     1
 10
0.0
 20
0.0
 11
12.0
 21
9.0
 12
0.0
 22
0.0
 32
0.0
 14
1.000000000000000E+20
 24
1.000000000000000E+20
 34
1.000000000000000E+20
 15
-1.000000000000000E+20
 25
-1.000000000000000E+20
 35
-1.000000000000000E+20
146
0.0
 13
0.0
 23
0.0
 33
0.0
 16
1.0
 26
0.0
 36
0.0
 17
0.0
 27
1.0
 37
0.0
 76
     0
330
1D69183396
  0
MLINESTYLE
  5
1D6918339C
102
{ACAD_REACTORS
330
1D6918338F
102
}
330
1D6918338F
100
AcDbMlineStyle
  2
STANDARD
 70
     0
  3

 62
     0
 51
90.0
 52
90.0
 71
     2
 49
0.5
 62
   256
  6
BYLAYER
 49
-0.5
 62
   256
  6
BYLAYER
  0
ACDBPLACEHOLDER
  5
1D691837E5
102
{ACAD_REACTORS
330
1D691837E4
102
}
330
1D691837E4
  0
DICTIONARYVAR
  5
1D69184040
102
{ACAD_REACTORS
330
1D6918403F
102
}
330
1D6918403F
100
DictionaryVariables
280
     0
  1
0
  0
ENDSEC
  0
EOF
