  0
SECTION
  2
HEADER
  9
$ACADVER
  1
AC1015
  9
$ACADMAINTVER
 70
    10
  9
$DWGCODEPAGE
  3
ANSI_932
  9
$INSBASE
 10
0.0
 20
0.0
 30
0.0
  9
$EXTMIN
 10
213.5477562545634
 20
0.0
 30
0.0
  9
$EXTMAX
 10
394.5477552545634
 20
273.0
 30
0.0
  9
$LIMMIN
 10
213.5477562545634
 20
0.0
  9
$LIMMAX
 10
394.5477552545634
 20
273.0
  9
$ORTHOMODE
 70
     1
  9
$REGENMODE
 70
     1
  9
$FILLMODE
 70
     1
  9
$QTEXTMODE
 70
     0
  9
$MIRRTEXT
 70
     0
  9
$LTSCALE
 40
5.0
  9
$ATTMODE
 70
     1
  9
$TEXTSIZE
 40
1.5
  9
$TRACEWID
 40
0.05
  9
$TEXTSTYLE
  7
K
  9
$CLAYER
  8
JISSEN
  9
$CELTYPE
  6
BYLAYER
  9
$CECOLOR
 62
   256
  9
$CELTSCALE
 40
1.0
  9
$DISPSILH
 70
     0
  9
$DIMSCALE
 40
1.0
  9
$DIMASZ
 40
1.5
  9
$DIMEXO
 40
1.0
  9
$DIMDLI
 40
6.0
  9
$DIMRND
 40
0.0
  9
$DIMDLE
 40
0.0
  9
$DIMEXE
 40
1.0
  9
$DIMTP
 40
495.0
  9
$DIMTM
 40
0.0
  9
$DIMTXT
 40
3.0
  9
$DIMCEN
 40
0.0
  9
$DIMTSZ
 40
0.0
  9
$DIMTOL
 70
     0
  9
$DIMLIM
 70
     0
  9
$DIMTIH
 70
     0
  9
$DIMTOH
 70
     0
  9
$DIMSE1
 70
     0
  9
$DIMSE2
 70
     0
  9
$DIMTAD
 70
     1
  9
$DIMZIN
 70
     8
  9
$DIMBLK
  1
ARROWANG
  9
$DIMASO
 70
     0
  9
$DIMSHO
 70
     0
  9
$DIMPOST
  1

  9
$DIMAPOST
  1

  9
$DIMALT
 70
     0
  9
$DIMALTD
 70
     2
  9
$DIMALTF
 40
25.4
  9
$DIMLFAC
 40
1.0
  9
$DIMTOFL
 70
     1
  9
$DIMTVP
 40
0.0
  9
$DIMTIX
 70
     1
  9
$DIMSOXD
 70
     0
  9
$DIMSAH
 70
     0
  9
$DIMBLK1
  1
ARROWANG
  9
$DIMBLK2
  1
ARROWANG
  9
$DIMSTYLE
  2
IMAO
  9
$DIMCLRD
 70
     0
  9
$DIMCLRE
 70
     0
  9
$DIMCLRT
 70
     0
  9
$DIMTFAC
 40
1.0
  9
$DIMGAP
 40
0.09
  9
$DIMJUST
 70
     0
  9
$DIMSD1
 70
     0
  9
$DIMSD2
 70
     0
  9
$DIMTOLJ
 70
     1
  9
$DIMTZIN
 70
     0
  9
$DIMALTZ
 70
     0
  9
$DIMALTTZ
 70
     0
  9
$DIMUPT
 70
     0
  9
$DIMDEC
 70
     4
  9
$DIMTDEC
 70
     4
  9
$DIMALTU
 70
     2
  9
$DIMALTTD
 70
     2
  9
$DIMTXSTY
  7
STANDARD
  9
$DIMAUNIT
 70
     0
  9
$DIMADEC
 70
     0
  9
$DIMALTRND
 40
0.0
  9
$DIMAZIN
 70
     0
  9
$DIMDSEP
 70
    46
  9
$DIMATFIT
 70
     3
  9
$DIMFRAC
 70
     0
  9
$DIMLDRBLK
  1
ARROWANG
  9
$DIMLUNIT
 70
     2
  9
$DIMLWD
 70
    -2
  9
$DIMLWE
 70
    -2
  9
$DIMTMOVE
 70
     0
  9
$LUNITS
 70
     2
  9
$LUPREC
 70
     2
  9
$SKETCHINC
 40
0.1
  9
$FILLETRAD
 40
0.5
  9
$AUNITS
 70
     0
  9
$AUPREC
 70
     2
  9
$MENU
  1
STDR12J
  9
$ELEVATION
 40
0.0
  9
$PELEVATION
 40
0.0
  9
$THICKNESS
 40
0.0
  9
$LIMCHECK
 70
     0
  9
$CHAMFERA
 40
0.5
  9
$CHAMFERB
 40
0.5
  9
$CHAMFERC
 40
0.0
  9
$CHAMFERD
 40
0.0
  9
$SKPOLY
 70
     0
  9
$TDCREATE
 40
2450354.415456018
  9
$TDUCREATE
 40
2450354.040456018
  9
$TDUPDATE
 40
2456751.785284143
  9
$TDUUPDATE
 40
2456751.410284143
  9
$TDINDWG
 40
0.0933444792
  9
$TDUSRTIMER
 40
0.0933443634
  9
$USRTIMER
 70
     1
  9
$ANGBASE
 50
0.0
  9
$ANGDIR
 70
     0
  9
$PDMODE
 70
     0
  9
$PDSIZE
 40
0.0
  9
$PLINEWID
 40
0.0
  9
$SPLFRAME
 70
     0
  9
$SPLINETYPE
 70
     6
  9
$SPLINESEGS
 70
     8
  9
$HANDSEED
  5
1D69185123
  9
$SURFTAB1
 70
     6
  9
$SURFTAB2
 70
     6
  9
$SURFTYPE
 70
     6
  9
$SURFU
 70
     6
  9
$SURFV
 70
     6
  9
$UCSBASE
  2

  9
$UCSNAME
  2

  9
$UCSORG
 10
0.0
 20
0.0
 30
0.0
  9
$UCSXDIR
 10
1.0
 20
0.0
 30
0.0
  9
$UCSYDIR
 10
0.0
 20
1.0
 30
0.0
  9
$UCSORTHOREF
  2

  9
$UCSORTHOVIEW
 70
     0
  9
$UCSORGTOP
 10
0.0
 20
0.0
 30
0.0
  9
$UCSORGBOTTOM
 10
0.0
 20
0.0
 30
0.0
  9
$UCSORGLEFT
 10
0.0
 20
0.0
 30
0.0
  9
$UCSORGRIGHT
 10
0.0
 20
0.0
 30
0.0
  9
$UCSORGFRONT
 10
0.0
 20
0.0
 30
0.0
  9
$UCSORGBACK
 10
0.0
 20
0.0
 30
0.0
  9
$PUCSBASE
  2

  9
$PUCSNAME
  2

  9
$PUCSORG
 10
0.0
 20
0.0
 30
0.0
  9
$PUCSXDIR
 10
1.0
 20
0.0
 30
0.0
  9
$PUCSYDIR
 10
0.0
 20
1.0
 30
0.0
  9
$PUCSORTHOREF
  2

  9
$PUCSORTHOVIEW
 70
     0
  9
$PUCSORGTOP
 10
0.0
 20
0.0
 30
0.0
  9
$PUCSORGBOTTOM
 10
0.0
 20
0.0
 30
0.0
  9
$PUCSORGLEFT
 10
0.0
 20
0.0
 30
0.0
  9
$PUCSORGRIGHT
 10
0.0
 20
0.0
 30
0.0
  9
$PUCSORGFRONT
 10
0.0
 20
0.0
 30
0.0
  9
$PUCSORGBACK
 10
0.0
 20
0.0
 30
0.0
  9
$USERI1
 70
     4
  9
$USERI2
 70
     1
  9
$USERI3
 70
     1
  9
$USERI4
 70
     2
  9
$USERI5
 70
     1
  9
$USERR1
 40
1.0
  9
$USERR2
 40
3.0
  9
$USERR3
 40
3.0
  9
$USERR4
 40
1.5
  9
$USERR5
 40
8.0
  9
$WORLDVIEW
 70
     1
  9
$SHADEDGE
 70
     3
  9
$SHADEDIF
 70
    70
  9
$TILEMODE
 70
     1
  9
$MAXACTVP
 70
    16
  9
$PINSBASE
 10
0.0
 20
0.0
 30
0.0
  9
$PLIMCHECK
 70
     0
  9
$PEXTMIN
 10
1.000000000000000E+20
 20
1.000000000000000E+20
 30
1.000000000000000E+20
  9
$PEXTMAX
 10
-1.000000000000000E+20
 20
-1.000000000000000E+20
 30
-1.000000000000000E+20
  9
$PLIMMIN
 10
0.0
 20
0.0
  9
$PLIMMAX
 10
12.0
 20
9.0
  9
$UNITMODE
 70
     0
  9
$VISRETAIN
 70
     0
  9
$PLINEGEN
 70
     0
  9
$PSLTSCALE
 70
     0
  9
$TREEDEPTH
 70
     0
  9
$CMLSTYLE
  2
STANDARD
  9
$CMLJUST
 70
     0
  9
$CMLSCALE
 40
1.0
  9
$PROXYGRAPHICS
 70
     1
  9
$MEASUREMENT
 70
     0
  9
$CELWEIGHT
370
    -1
  9
$ENDCAPS
280
     0
  9
$JOINSTYLE
280
     0
  9
$LWDISPLAY
290
     0
  9
$INSUNITS
 70
     0
  9
$HYPERLINKBASE
  1

  9
$STYLESHEET
  1

  9
$XEDIT
290
     1
  9
$CEPSNTYPE
380
     0
  9
$PSTYLEMODE
290
     1
  9
$FINGERPRINTGUID
  2
{9E4523D2-8DA8-438B-B789-0D080F5E267A}
  9
$VERSIONGUID
  2
{2E16100E-B697-4537-AE38-3A23EF44DF20}
  9
$EXTNAMES
290
     1
  9
$PSVPSCALE
 40
0.0
  9
$OLESTARTUP
290
     0
  0
ENDSEC
  0
SECTION
  2
CLASSES
  0
CLASS
  1
LWPOLYLINE
  2
AcDbPolyline
  3
AutoCAD 2000
 90
    32768
280
     0
281
     1
  0
CLASS
  1
ACDBDICTIONARYWDFLT
  2
AcDbDictionaryWithDefault
  3
AutoCAD 2000
 90
        0
280
     0
281
     0
  0
CLASS
  1
ACDBPLACEHOLDER
  2
AcDbPlaceHolder
  3
AutoCAD 2000
 90
        0
280
     0
281
     0
  0
CLASS
  1
LAYOUT
  2
AcDbLayout
  3
AutoCAD 2000
 90
        0
280
     0
281
     0
  0
CLASS
  1
LONG_TRANSACTION
  2
AcDbLongTransaction
  3
AutoCAD 2000
 90
    32768
280
     0
281
     0
  0
CLASS
  1
LWPOLYLINE
  2
AcDbPolyline
  3
AutoCAD 2000
 90
    32768
280
     0
281
     1
  0
CLASS
  1
HATCH
  2
AcDbHatch
  3
AutoCAD 2000
 90
    32768
280
     0
281
     1
  0
CLASS
  1
XRECORD
  2
AcDbXrecord
  3
AutoCAD 2000
 90
    32768
280
     0
281
     0
  0
CLASS
  1
LONG_TRANSACTION
  2
AcDbLongTransaction
  3
AutoCAD 2000
 90
    32768
280
     0
281
     0
  0
CLASS
  1
LWPOLYLINE
  2
AcDbPolyline
  3
AutoCAD 2000
 90
    32768
280
     0
281
     1
  0
CLASS
  1
HATCH
  2
AcDbHatch
  3
AutoCAD 2000
 90
    32768
280
     0
281
     1
  0
CLASS
  1
XRECORD
  2
AcDbXrecord
  3
AutoCAD 2000
 90
    32768
280
     0
281
     0
  0
CLASS
  1
LONG_TRANSACTION
  2
AcDbLongTransaction
  3
AutoCAD 2000
 90
    32768
280
     0
281
     0
  0
CLASS
  1
LWPOLYLINE
  2
AcDbPolyline
  3
AutoCAD 2000
 90
    32768
280
     0
281
     1
  0
CLASS
  1
HATCH
  2
AcDbHatch
  3
AutoCAD 2000
 90
    32768
280
     0
281
     1
  0
CLASS
  1
XRECORD
  2
AcDbXrecord
  3
AutoCAD 2000
 90
    32768
280
     0
281
     0
  0
CLASS
  1
DICTIONARYVAR
  2
AcDbDictionaryVar
  3
AutoCAD 2000
 90
        0
280
     0
281
     0
  0
CLASS
  1
LONG_TRANSACTION
  2
AcDbLongTransaction
  3
AutoCAD 2000
 90
    32768
280
     0
281
     0
  0
CLASS
  1
LWPOLYLINE
  2
AcDbPolyline
  3
AutoCAD 2000
 90
    32768
280
     0
281
     1
  0
CLASS
  1
HATCH
  2
AcDbHatch
  3
AutoCAD 2000
 90
    32768
280
     0
281
     1
  0
CLASS
  1
XRECORD
  2
AcDbXrecord
  3
AutoCAD 2000
 90
    32768
280
     0
281
     0
  0
CLASS
  1
LONG_TRANSACTION
  2
AcDbLongTransaction
  3
AutoCAD 2000
 90
    32768
280
     0
281
     0
  0
CLASS
  1
LWPOLYLINE
  2
AcDbPolyline
  3
AutoCAD 2000
 90
    32768
280
     0
281
     1
  0
CLASS
  1
HATCH
  2
AcDbHatch
  3
AutoCAD 2000
 90
    32768
280
     0
281
     1
  0
CLASS
  1
XRECORD
  2
AcDbXrecord
  3
AutoCAD 2000
 90
    32768
280
     0
281
     0
  0
ENDSEC
  0
SECTION
  2
TABLES
  0
TABLE
  2
VPORT
  5
1D69183389
330
0
100
AcDbSymbolTable
 70
    10
  0
VPORT
  5
1D691833BC
330
1D69183389
100
AcDbSymbolTableRecord
100
AcDbViewportTableRecord
  2
2
 70
     0
 10
0.5
 20
0.0
 11
1.0
 21
1.0
 12
0.924031
 22
1.052651
 13
0.0
 23
0.0
 14
1.0
 24
1.0
 15
10.0
 25
10.0
 16
0.0
 26
0.0
 36
1.0
 17
0.0
 27
0.0
 37
0.0
 40
2.105302
 41
0.877814
 42
50.0
 43
0.0
 44
0.0
 50
0.0
 51
0.0
 71
     0
 72
   500
 73
     1
 74
     1
 75
     0
 76
     0
 77
     0
 78
     0
281
     0
 65
     1
110
0.0
120
0.0
130
0.0
111
1.0
121
0.0
131
0.0
112
0.0
122
1.0
132
0.0
 79
     0
146
0.0
  0
VPORT
  5
1D691833BD
330
1D69183389
100
AcDbSymbolTableRecord
100
AcDbViewportTableRecord
  2
2
 70
     0
 10
0.0
 20
0.0
 11
0.5
 21
1.0
 12
0.924031
 22
1.052651
 13
0.0
 23
0.0
 14
1.0
 24
1.0
 15
10.0
 25
10.0
 16
0.0
 26
0.0
 36
1.0
 17
0.0
 27
0.0
 37
0.0
 40
2.105302
 41
0.877814
 42
50.0
 43
0.0
 44
0.0
 50
0.0
 51
0.0
 71
     0
 72
   500
 73
     1
 74
     1
 75
     0
 76
     0
 77
     0
 78
     0
281
     0
 65
     1
110
0.0
120
0.0
130
0.0
111
1.0
121
0.0
131
0.0
112
0.0
122
1.0
132
0.0
 79
     0
146
0.0
  0
VPORT
  5
1D691833BE
330
1D69183389
100
AcDbSymbolTableRecord
100
AcDbViewportTableRecord
  2
3
 70
     0
 10
0.0
 20
0.5
 11
1.0
 21
1.0
 12
2.832169999999998
 22
1.052651
 13
0.0
 23
0.0
 14
1.0
 24
1.0
 15
10.0
 25
10.0
 16
0.0
 26
0.0
 36
1.0
 17
0.0
 27
0.0
 37
0.0
 40
2.105302
 41
3.571429
 42
50.0
 43
0.0
 44
0.0
 50
0.0
 51
0.0
 71
     0
 72
   500
 73
     1
 74
     1
 75
     0
 76
     0
 77
     0
 78
     0
281
     0
 65
     1
110
0.0
120
0.0
130
0.0
111
1.0
121
0.0
131
0.0
112
0.0
122
1.0
132
0.0
 79
     0
146
0.0
  0
VPORT
  5
1D691833BF
330
1D69183389
100
AcDbSymbolTableRecord
100
AcDbViewportTableRecord
  2
3
 70
     0
 10
0.0
 20
0.0
 11
1.0
 21
0.5
 12
2.856741999999998
 22
1.052651
 13
0.0
 23
0.0
 14
1.0
 24
1.0
 15
10.0
 25
10.0
 16
0.0
 26
0.0
 36
1.0
 17
0.0
 27
0.0
 37
0.0
 40
2.105302
 41
3.594770999999998
 42
50.0
 43
0.0
 44
0.0
 50
0.0
 51
0.0
 71
     0
 72
   500
 73
     1
 74
     1
 75
     0
 76
     0
 77
     0
 78
     0
281
     0
 65
     1
110
0.0
120
0.0
130
0.0
111
1.0
121
0.0
131
0.0
112
0.0
122
1.0
132
0.0
 79
     0
146
0.0
  0
VPORT
  5
1D691833C0
330
1D69183389
100
AcDbSymbolTableRecord
100
AcDbViewportTableRecord
  2
4
 70
     0
 10
0.5
 20
0.0
 11
1.0
 21
0.5
 12
2.886858
 22
1.052651
 13
0.0
 23
0.0
 14
1.0
 24
1.0
 15
10.0
 25
10.0
 16
0.0
 26
0.0
 36
1.0
 17
0.0
 27
0.0
 37
0.0
 40
4.275206999999999
 41
1.784314
 42
50.0
 43
0.0
 44
0.0
 50
0.0
 51
0.0
 71
     0
 72
   500
 73
     1
 74
     1
 75
     0
 76
     0
 77
     0
 78
     0
281
     0
 65
     1
110
0.0
120
0.0
130
0.0
111
1.0
121
0.0
131
0.0
112
0.0
122
1.0
132
0.0
 79
     0
146
0.0
  0
VPORT
  5
1D691833C1
330
1D69183389
100
AcDbSymbolTableRecord
100
AcDbViewportTableRecord
  2
4
 70
     0
 10
0.5
 20
0.5
 11
1.0
 21
1.0
 12
2.86209
 22
1.052651
 13
0.0
 23
0.0
 14
1.0
 24
1.0
 15
10.0
 25
10.0
 16
0.0
 26
0.0
 36
1.0
 17
0.0
 27
0.0
 37
0.0
 40
4.275206999999999
 41
1.772726999999999
 42
50.0
 43
0.0
 44
0.0
 50
0.0
 51
0.0
 71
     0
 72
   500
 73
     1
 74
     1
 75
     0
 76
     0
 77
     0
 78
     0
281
     0
 65
     1
110
0.0
120
0.0
130
0.0
111
1.0
121
0.0
131
0.0
112
0.0
122
1.0
132
0.0
 79
     0
146
0.0
  0
VPORT
  5
1D691833C2
330
1D69183389
100
AcDbSymbolTableRecord
100
AcDbViewportTableRecord
  2
4
 70
     0
 10
0.0
 20
0.5
 11
0.5
 21
1.0
 12
2.86209
 22
1.052651
 13
0.0
 23
0.0
 14
1.0
 24
1.0
 15
10.0
 25
10.0
 16
0.0
 26
0.0
 36
1.0
 17
0.0
 27
0.0
 37
0.0
 40
4.275206999999999
 41
1.772726999999999
 42
50.0
 43
0.0
 44
0.0
 50
0.0
 51
0.0
 71
     0
 72
   500
 73
     1
 74
     1
 75
     0
 76
     0
 77
     0
 78
     0
281
     0
 65
     1
110
0.0
120
0.0
130
0.0
111
1.0
121
0.0
131
0.0
112
0.0
122
1.0
132
0.0
 79
     0
146
0.0
  0
VPORT
  5
1D691833C3
330
1D69183389
100
AcDbSymbolTableRecord
100
AcDbViewportTableRecord
  2
4
 70
     0
 10
0.0
 20
0.0
 11
0.5
 21
0.5
 12
2.886858
 22
1.052651
 13
0.0
 23
0.0
 14
1.0
 24
1.0
 15
10.0
 25
10.0
 16
0.0
 26
0.0
 36
1.0
 17
0.0
 27
0.0
 37
0.0
 40
4.275206999999999
 41
1.784314
 42
50.0
 43
0.0
 44
0.0
 50
0.0
 51
0.0
 71
     0
 72
   500
 73
     1
 74
     1
 75
     0
 76
     0
 77
     0
 78
     0
281
     0
 65
     1
110
0.0
120
0.0
130
0.0
111
1.0
121
0.0
131
0.0
112
0.0
122
1.0
132
0.0
 79
     0
146
0.0
  0
VPORT
  5
1D69185101
330
1D69183389
100
AcDbSymbolTableRecord
100
AcDbViewportTableRecord
  2
*Active
 70
     0
 10
0.0
 20
0.0
 11
1.0
 21
1.0
 12
304.0505730384587
 22
136.4993224767117
 13
0.0
 23
0.0
 14
1.0
 24
1.0
 15
10.0
 25
10.0
 16
0.0
 26
0.0
 36
1.0
 17
0.0
 27
0.0
 37
0.0
 40
274.7564322006626
 41
2.007438894792773
 42
50.0
 43
0.0
 44
0.0
 50
0.0
 51
0.0
 71
     0
 72
   500
 73
     1
 74
     0
 75
     0
 76
     0
 77
     0
 78
     0
281
     0
 65
     1
110
0.0
120
0.0
130
0.0
111
1.0
121
0.0
131
0.0
112
0.0
122
1.0
132
0.0
 79
     0
146
0.0
  0
ENDTAB
  0
TABLE
  2
LTYPE
  5
1D69183386
330
0
100
AcDbSymbolTable
 70
     4
  0
LTYPE
  5
1D69183393
330
1D69183386
100
AcDbSymbolTableRecord
100
AcDbLinetypeTableRecord
  2
BYBLOCK
 70
     0
  3

 72
    65
 73
     0
 40
0.0
  0
LTYPE
  5
1D69183394
330
1D69183386
100
AcDbSymbolTableRecord
100
AcDbLinetypeTableRecord
  2
BYLAYER
 70
     0
  3

 72
    65
 73
     0
 40
0.0
  0
LTYPE
  5
1D69183395
330
1D69183386
100
AcDbSymbolTableRecord
100
AcDbLinetypeTableRecord
  2
CONTINUOUS
 70
     0
  3
実線
 72
    65
 73
     0
 40
0.0
  0
LTYPE
  5
1D691833BA
330
1D69183386
100
AcDbSymbolTableRecord
100
AcDbLinetypeTableRecord
  2
PHANTOM
 70
     0
  3
_____ _ _ _____ _ _ _____ _ _ _____ _ _ ____
 72
    65
 73
     6
 40
2.5
 49
1.25
 74
     0
 49
-0.25
 74
     0
 49
0.25
 74
     0
 49
-0.25
 74
     0
 49
0.25
 74
     0
 49
-0.25
 74
     0
  0
LTYPE
  5
1D6918416F
330
1D69183386
100
AcDbSymbolTableRecord
100
AcDbLinetypeTableRecord
  2
CENTER
 70
     0
  3
____ _ ____ _ ____ _ ____ _ ____ _ ____ _ ____
 72
    65
 73
     4
 40
2.0
 49
1.25
 74
     0
 49
-0.25
 74
     0
 49
0.25
 74
     0
 49
-0.25
 74
     0
  0
LTYPE
  5
1D69184170
330
1D69183386
100
AcDbSymbolTableRecord
100
AcDbLinetypeTableRecord
  2
HIDDEN
 70
     0
  3
_ _ _ _ _ _ _ _ _ _ _ _ _ _ _ _ _ _ _ _ _ _ _
 72
    65
 73
     2
 40
0.375
 49
0.25
 74
     0
 49
-0.125
 74
     0
  0
ENDTAB
  0
TABLE
  2
LAYER
  5
1D69183383
102
{ACAD_XDICTIONARY
360
1D69183E05
102
}
330
0
100
AcDbSymbolTable
 70
    10
  0
LAYER
  5
1D69183390
330
1D69183383
100
AcDbSymbolTableRecord
100
AcDbLayerTableRecord
  2
0
 70
     0
 62
     7
  6
CONTINUOUS
370
    -3
390
1D691837E5
  0
LAYER
  5
1D691833C9
330
1D69183383
100
AcDbSymbolTableRecord
100
AcDbLayerTableRecord
  2
NITEN
 70
     0
 62
     2
  6
PHANTOM
370
    -3
390
1D691837E5
  0
LAYER
  5
1D691833CA
330
1D69183383
100
AcDbSymbolTableRecord
100
AcDbLayerTableRecord
  2
HATCH
 70
     0
 62
     4
  6
CONTINUOUS
370
    -3
390
1D691837E5
  0
LAYER
  5
1D691833CB
330
1D69183383
100
AcDbSymbolTableRecord
100
AcDbLayerTableRecord
  2
SUNPOU
 70
     0
 62
     3
  6
CONTINUOUS
370
    -3
390
1D691837E5
  0
LAYER
  5
1D691833CC
330
1D69183383
100
AcDbSymbolTableRecord
100
AcDbLayerTableRecord
  2
TEXT
 70
     0
 62
     3
  6
CONTINUOUS
370
    -3
390
1D691837E5
  0
LAYER
  5
1D691833CD
330
1D69183383
100
AcDbSymbolTableRecord
100
AcDbLayerTableRecord
  2
SAISEN
 70
     0
 62
     4
  6
CONTINUOUS
370
    -3
390
1D691837E5
  0
LAYER
  5
1D691833CE
330
1D69183383
100
AcDbSymbolTableRecord
100
AcDbLayerTableRecord
  2
JISSEN
 70
     0
 62
     7
  6
CONTINUOUS
370
    -3
390
1D691837E5
  0
LAYER
  5
1D691833D2
330
1D69183383
100
AcDbSymbolTableRecord
100
AcDbLayerTableRecord
  2
WAKU
 70
     0
 62
     5
  6
CONTINUOUS
370
    -3
390
1D691837E5
  0
LAYER
  5
1D69184171
330
1D69183383
100
AcDbSymbolTableRecord
100
AcDbLayerTableRecord
  2
ITTEN
 70
     0
 62
     1
  6
CENTER
370
    -3
390
1D691837E5
  0
LAYER
  5
1D69184172
330
1D69183383
100
AcDbSymbolTableRecord
100
AcDbLayerTableRecord
  2
TENSEN
 70
     0
 62
     2
  6
HIDDEN
370
    -3
390
1D691837E5
  0
ENDTAB
  0
TABLE
  2
STYLE
  5
1D69183384
330
0
100
AcDbSymbolTable
 70
     4
  0
STYLE
  5
1D69183391
330
1D69183384
100
AcDbSymbolTableRecord
100
AcDbTextStyleTableRecord
  2
STANDARD
 70
     0
 40
0.0
 41
1.0
 50
0.0
 71
     0
 42
0.2
  3
ROMANS
  4
EXTFONT
  0
STYLE
  5
1D691833B3
330
1D69183384
100
AcDbSymbolTableRecord
100
AcDbTextStyleTableRecord
  2
K
 70
     0
 40
0.0
 41
1.0
 50
0.0
 71
     0
 42
1.5
  3
ROMANS.shx
  4
bigfont.shx
  0
STYLE
  5
1D691833B5
330
1D69183384
100
AcDbSymbolTableRecord
100
AcDbTextStyleTableRecord
  2
BIGFONT
 70
     0
 40
0.0
 41
1.0
 50
0.0
 71
     0
 42
1.5
  3
txt.shx
  4
bigfont
  0
STYLE
  5
1D69184173
330
1D69183384
100
AcDbSymbolTableRecord
100
AcDbTextStyleTableRecord
  2
ROMANS
 70
     0
 40
0.0
 41
0.8
 50
0.0
 71
     0
 42
5.0
  3
romans
  4

  0
ENDTAB
  0
TABLE
  2
VIEW
  5
1D69183387
330
0
100
AcDbSymbolTable
 70
     0
  0
ENDTAB
  0
TABLE
  2
UCS
  5
1D69183388
330
0
100
AcDbSymbolTable
 70
     0
  0
ENDTAB
  0
TABLE
  2
APPID
  5
1D6918338A
330
0
100
AcDbSymbolTable
 70
     1
  0
APPID
  5
1D69183392
330
1D6918338A
100
AcDbSymbolTableRecord
100
AcDbRegAppTableRecord
  2
ACAD
 70
     0
  0
ENDTAB
  0
TABLE
  2
DIMSTYLE
  5
1D6918338B
330
0
100
AcDbSymbolTable
 70
     1
100
AcDbDimStyleTable
 71
     0
  0
DIMSTYLE
105
1D691833C6
330
1D6918338B
100
AcDbSymbolTableRecord
100
AcDbDimStyleTableRecord
  2
IMAO
 70
     0
 41
1.5
 42
1.0
 43
6.0
 44
1.0
 47
495.0
 73
     0
 74
     0
 77
     1
 78
     8
140
3.0
141
0.0
172
     1
174
     1
271
     2
272
     2
284
     8
285
     8
286
     8
340
1D691833B5
341
1D691833A3
342
1D691833A3
343
1D691833A3
344
1D691833A3
  0
ENDTAB
  0
TABLE
  2
BLOCK_RECORD
  5
1D69183382
330
0
100
AcDbSymbolTable
 70
     2
  0
BLOCK_RECORD
  5
1D69183399
102
{ACAD_XDICTIONARY
360
1D69183A5C
102
}
330
1D69183382
100
AcDbSymbolTableRecord
100
AcDbBlockTableRecord
  2
*MODEL_SPACE
340
1D69184138
  0
BLOCK_RECORD
  5
1D69183396
102
{ACAD_XDICTIONARY
360
1D69183A5A
102
}
330
1D69183382
100
AcDbSymbolTableRecord
100
AcDbBlockTableRecord
  2
*PAPER_SPACE
340
1D69184139
  0
BLOCK_RECORD
  5
1D691833A3
330
1D69183382
100
AcDbSymbolTableRecord
100
AcDbBlockTableRecord
  2
ARROWANG
340
0
  0
BLOCK_RECORD
  5
1D69184834
330
1D69183382
100
AcDbSymbolTableRecord
100
AcDbBlockTableRecord
  2
ARROW
340
0
  0
ENDTAB
  0
ENDSEC
  0
SECTION
  2
BLOCKS
  0
BLOCK
  5
1D691833D6
330
1D69183399
100
AcDbEntity
  8
0
100
AcDbBlockBegin
  2
*MODEL_SPACE
 70
     0
 10
0.0
 20
0.0
 30
0.0
  3
*MODEL_SPACE
  1

  0
ENDBLK
  5
1D691833D7
330
1D69183399
100
AcDbEntity
  8
0
100
AcDbBlockEnd
  0
BLOCK
  5
1D691833D4
330
1D69183396
100
AcDbEntity
 67
     1
  8
0
100
AcDbBlockBegin
  2
*PAPER_SPACE
 70
     0
 10
0.0
 20
0.0
 30
0.0
  3
*PAPER_SPACE
  1

  0
ENDBLK
  5
1D691833D5
330
1D69183396
100
AcDbEntity
 67
     1
  8
0
100
AcDbBlockEnd
  0
BLOCK
  5
1D
330
1D691833A3
100
AcDbEntity
  8
0
100
AcDbBlockBegin
  2
ARROWANG
 70
     0
 10
0.0
 20
0.0
 30
0.0
  3
ARROWANG
  1

  0
LINE
  5
1E
330
1D691833A3
100
AcDbEntity
  8
SUNPOU
100
AcDbLine
 10
0.0
 20
0.0
 30
0.0
 11
-1.5
 21
0.401924
 31
0.0
  0
LINE
  5
1F
330
1D691833A3
100
AcDbEntity
  8
SUNPOU
100
AcDbLine
 10
0.0
 20
0.0
 30
0.0
 11
-1.5
 21
-0.401924
 31
0.0
  0
ENDBLK
  5
20
330
1D691833A3
100
AcDbEntity
  8
0
100
AcDbBlockEnd
  0
BLOCK
  5
1D69184838
330
1D69184834
100
AcDbEntity
  8
0
100
AcDbBlockBegin
  2
ARROW
 70
     0
 10
1.0
 20
0.5
 30
0.0
  3
ARROW
  1

  0
LINE
  5
1D69184835
330
1D69184834
100
AcDbEntity
  8
0
100
AcDbLine
 10
1.0
 20
0.5
 30
0.0
 11
-0.5000000000000214
 21
0.0980762113533018
 31
0.0
  0
LINE
  5
1D69184836
330
1D69184834
100
AcDbEntity
  8
0
100
AcDbLine
 10
0.0
 20
0.5
 30
0.0
 11
1.0
 21
0.5
 31
0.0
  0
LINE
  5
1D69184837
330
1D69184834
100
AcDbEntity
  8
0
100
AcDbLine
 10
1.0
 20
0.5
 30
0.0
 11
-0.4999999999999574
 21
0.9019237886467408
 31
0.0
  0
ENDBLK
  5
1D69184839
330
1D69184834
100
AcDbEntity
  8
0
100
AcDbBlockEnd
  0
ENDSEC
  0
SECTION
  2
ENTITIES
  0
LINE
  5
1D69184A49
330
1D69183399
100
AcDbEntity
  8
JISSEN
100
AcDbLine
 10
316.5477555045612
 20
77.84845597376011
 30
0.0
 11
349.0477555045612
 21
77.84845597376011
 31
0.0
  0
LINE
  5
1D69184A7C
330
1D69183399
100
AcDbEntity
  8
ITTEN
100
AcDbLine
 39
240.0520776831561
 10
349.0477555045621
 20
37.84845597376011
 30
0.0
 11
349.0477555045622
 21
79.84845597376011
 31
0.0
  0
ARC
  5
1D69184A7D
330
1D69183399
100
AcDbEntity
  8
JISSEN
100
AcDbCircle
 10
332.4462612482624
 20
41.3423262113622
 30
0.0
 40
1.499999999999995
100
AcDbArc
 50
261.9999999999597
 51
264.8184245309498
  0
LINE
  5
1D69184A7E
330
1D69183399
100
AcDbEntity
  8
JISSEN
100
AcDbLine
 10
332.3107927529621
 20
39.84845597376192
 30
0.0
 11
349.0477555045612
 21
39.84845597376011
 31
0.0
  0
LINE
  5
1D69184A81
330
1D69183399
100
AcDbEntity
  8
JISSEN
100
AcDbLine
 10
318.2694093026318
 20
41.82001145846686
 30
0.0
 11
332.2375015968631
 21
39.85692410816159
 31
0.0
  0
LINE
  5
1D69184A86
330
1D69183399
100
AcDbEntity
  8
JISSEN
100
AcDbLine
 10
316.5477555045639
 20
77.84845597376011
 30
0.0
 11
316.547755504563
 21
43.80054759596101
 31
0.0
  0
ARC
  5
1D69184A87
330
1D69183399
100
AcDbEntity
  8
JISSEN
100
AcDbCircle
 10
318.5477555045639
 20
43.80054759596101
 30
0.0
 40
2.0
100
AcDbArc
 50
180.0
 51
261.9999999999597
  0
LINE
  5
1D69184A8D
330
1D69183399
100
AcDbEntity
  8
JISSEN
100
AcDbLine
 10
226.0477560045614
 20
72.84845597376011
 30
0.0
 11
258.5477560045613
 21
72.84845597376011
 31
0.0
  0
ARC
  5
1D69184A92
330
1D69183399
100
AcDbEntity
  8
JISSEN
100
AcDbCircle
 10
228.0477560045641
 20
43.80054759596101
 30
0.0
 40
2.0
100
AcDbArc
 50
180.0
 51
261.9999999999597
  0
LINE
  5
1D69184A93
330
1D69183399
100
AcDbEntity
  8
JISSEN
100
AcDbLine
 10
226.0477560045639
 20
72.84845597376011
 30
0.0
 11
226.0477560045632
 21
43.80054759596101
 31
0.0
  0
LINE
  5
1D69184A98
330
1D69183399
100
AcDbEntity
  8
JISSEN
100
AcDbLine
 10
227.769409802632
 20
41.82001145846686
 30
0.0
 11
241.7375020968632
 21
39.85692410816159
 31
0.0
  0
LINE
  5
1D69184A9B
330
1D69183399
100
AcDbEntity
  8
JISSEN
100
AcDbLine
 10
241.8107932529622
 20
39.84845597376192
 30
0.0
 11
258.5477560045613
 21
39.84845597376011
 31
0.0
  0
ARC
  5
1D69184A9C
330
1D69183399
100
AcDbEntity
  8
JISSEN
100
AcDbCircle
 10
241.9462617482626
 20
41.3423262113622
 30
0.0
 40
1.499999999999995
100
AcDbArc
 50
261.9999999999597
 51
264.8184245309498
  0
LINE
  5
1D69184A9D
330
1D69183399
100
AcDbEntity
  8
ITTEN
100
AcDbLine
 39
240.0520776831561
 10
258.5477560045623
 20
37.84845597376011
 30
0.0
 11
258.5477560045624
 21
74.84845597376022
 31
0.0
  0
LINE
  5
1D69184AD1
330
1D69183399
100
AcDbEntity
  8
JISSEN
100
AcDbLine
 10
316.5477555045615
 20
147.9585677177529
 30
0.0
 11
349.0477555045615
 21
147.9585677177529
 31
0.0
  0
LINE
  5
1D69184B04
330
1D69183399
100
AcDbEntity
  8
ITTEN
100
AcDbLine
 39
240.0520776831561
 10
349.0477555045624
 20
117.9585677177529
 30
0.0
 11
349.0477555045624
 21
149.958567717753
 31
0.0
  0
ARC
  5
1D69184B05
330
1D69183399
100
AcDbEntity
  8
JISSEN
100
AcDbCircle
 10
332.4462612482627
 20
121.452437955355
 30
0.0
 40
1.499999999999995
100
AcDbArc
 50
261.9999999999597
 51
264.8184245309498
  0
LINE
  5
1D69184B06
330
1D69183399
100
AcDbEntity
  8
JISSEN
100
AcDbLine
 10
332.3107927529624
 20
119.9585677177547
 30
0.0
 11
349.0477555045615
 21
119.9585677177529
 31
0.0
  0
LINE
  5
1D69184B09
330
1D69183399
100
AcDbEntity
  8
JISSEN
100
AcDbLine
 10
318.2694093026321
 20
121.9301232024596
 30
0.0
 11
332.2375015968634
 21
119.9670358521544
 31
0.0
  0
LINE
  5
1D69184B0E
330
1D69183399
100
AcDbEntity
  8
JISSEN
100
AcDbLine
 10
316.547755504564
 20
147.9585677177529
 30
0.0
 11
316.5477555045633
 21
123.9106593399538
 31
0.0
  0
ARC
  5
1D69184B0F
330
1D69183399
100
AcDbEntity
  8
JISSEN
100
AcDbCircle
 10
318.5477555045642
 20
123.9106593399538
 30
0.0
 40
2.0
100
AcDbArc
 50
180.0
 51
261.9999999999597
  0
LINE
  5
1D69184B16
330
1D69183399
100
AcDbEntity
  8
JISSEN
100
AcDbLine
 10
226.0477560045615
 20
142.9585677177529
 30
0.0
 11
258.5477560045615
 21
142.9585677177529
 31
0.0
  0
ARC
  5
1D69184B1B
330
1D69183399
100
AcDbEntity
  8
JISSEN
100
AcDbCircle
 10
228.0477560045643
 20
123.9106593399538
 30
0.0
 40
2.0
100
AcDbArc
 50
180.0
 51
261.9999999999597
  0
LINE
  5
1D69184B1C
330
1D69183399
100
AcDbEntity
  8
JISSEN
100
AcDbLine
 10
226.0477560045639
 20
142.9585677177529
 30
0.0
 11
226.0477560045633
 21
123.9106593399538
 31
0.0
  0
LINE
  5
1D69184B21
330
1D69183399
100
AcDbEntity
  8
JISSEN
100
AcDbLine
 10
227.7694098026322
 20
121.9301232024596
 30
0.0
 11
241.7375020968634
 21
119.9670358521544
 31
0.0
  0
LINE
  5
1D69184B24
330
1D69183399
100
AcDbEntity
  8
JISSEN
100
AcDbLine
 10
241.8107932529624
 20
119.9585677177547
 30
0.0
 11
258.5477560045615
 21
119.9585677177529
 31
0.0
  0
ARC
  5
1D69184B25
330
1D69183399
100
AcDbEntity
  8
JISSEN
100
AcDbCircle
 10
241.9462617482627
 20
121.452437955355
 30
0.0
 40
1.499999999999995
100
AcDbArc
 50
261.9999999999597
 51
264.8184245309498
  0
LINE
  5
1D69184B26
330
1D69183399
100
AcDbEntity
  8
ITTEN
100
AcDbLine
 39
240.0520776831561
 10
258.5477560045624
 20
117.9585677177529
 30
0.0
 11
258.5477560045624
 21
144.958567717753
 31
0.0
  0
LINE
  5
1D69184B5B
330
1D69183399
100
AcDbEntity
  8
JISSEN
100
AcDbLine
 10
316.5477555045615
 20
204.9735216617259
 30
0.0
 11
349.0477555045615
 21
204.9735216617259
 31
0.0
  0
LINE
  5
1D69184B8E
330
1D69183399
100
AcDbEntity
  8
ITTEN
100
AcDbLine
 39
240.0520776831561
 10
349.0477555045624
 20
184.9735216617259
 30
0.0
 11
349.0477555045624
 21
206.973521661726
 31
0.0
  0
ARC
  5
1D69184B8F
330
1D69183399
100
AcDbEntity
  8
JISSEN
100
AcDbCircle
 10
332.4462612482627
 20
188.467391899328
 30
0.0
 40
1.499999999999995
100
AcDbArc
 50
261.9999999999597
 51
264.8184245309498
  0
LINE
  5
1D69184B90
330
1D69183399
100
AcDbEntity
  8
JISSEN
100
AcDbLine
 10
332.3107927529624
 20
186.9735216617277
 30
0.0
 11
349.0477555045615
 21
186.9735216617259
 31
0.0
  0
LINE
  5
1D69184B93
330
1D69183399
100
AcDbEntity
  8
JISSEN
100
AcDbLine
 10
318.2694093026321
 20
188.9450771464327
 30
0.0
 11
332.2375015968634
 21
186.9819897961274
 31
0.0
  0
LINE
  5
1D69184B98
330
1D69183399
100
AcDbEntity
  8
JISSEN
100
AcDbLine
 10
316.5477555045637
 20
204.9735216617259
 30
0.0
 11
316.5477555045633
 21
190.9256132839268
 31
0.0
  0
ARC
  5
1D69184B99
330
1D69183399
100
AcDbEntity
  8
JISSEN
100
AcDbCircle
 10
318.5477555045642
 20
190.9256132839268
 30
0.0
 40
2.0
100
AcDbArc
 50
180.0
 51
261.9999999999597
  0
ARC
  5
1D69184BA6
330
1D69183399
100
AcDbEntity
  8
JISSEN
100
AcDbCircle
 10
228.0477560045643
 20
190.9256132839268
 30
0.0
 40
2.0
100
AcDbArc
 50
180.0
 51
261.9999999999597
  0
LINE
  5
1D69184BA7
330
1D69183399
100
AcDbEntity
  8
JISSEN
100
AcDbLine
 10
226.0477560045635
 20
199.9735216617259
 30
0.0
 11
226.0477560045633
 21
190.9256132839268
 31
0.0
  0
LINE
  5
1D69184BA8
330
1D69183399
100
AcDbEntity
  8
JISSEN
100
AcDbLine
 10
226.0477560045615
 20
199.9735216617259
 30
0.0
 11
258.5477560045615
 21
199.9735216617259
 31
0.0
  0
LINE
  5
1D69184BAD
330
1D69183399
100
AcDbEntity
  8
JISSEN
100
AcDbLine
 10
227.7694098026321
 20
188.9450771464327
 30
0.0
 11
241.7375020968634
 21
186.9819897961274
 31
0.0
  0
LINE
  5
1D69184BB0
330
1D69183399
100
AcDbEntity
  8
JISSEN
100
AcDbLine
 10
253.1971764862042
 20
201.4735216617277
 30
0.0
 11
247.813202922747
 21
201.4735216617277
 31
0.0
  0
LINE
  5
1D69184BB1
330
1D69183399
100
AcDbEntity
  8
JISSEN
100
AcDbLine
 10
241.8107932529624
 20
186.9735216617277
 30
0.0
 11
258.5477560045615
 21
186.9735216617259
 31
0.0
  0
LINE
  5
1D69184BB2
330
1D69183399
100
AcDbEntity
  8
JISSEN
 62
     0
 48
0.1
100
AcDbLine
 10
241.8720043166445
 20
199.9735216617259
 30
0.0
 11
241.8477560045626
 21
201.4735216617277
 31
0.0
  0
ARC
  5
1D69184BB3
330
1D69183399
100
AcDbEntity
  8
JISSEN
100
AcDbCircle
 10
241.9462617482627
 20
188.467391899328
 30
0.0
 40
1.499999999999995
100
AcDbArc
 50
261.9999999999597
 51
264.8184245309498
  0
LINE
  5
1D69184BB4
330
1D69183399
100
AcDbEntity
  8
JISSEN
100
AcDbLine
 10
243.0477560045624
 20
201.4735216617277
 30
0.0
 11
241.8477560045626
 21
201.4735216617277
 31
0.0
  0
LINE
  5
1D69184BB5
330
1D69183399
100
AcDbEntity
  8
JISSEN
100
AcDbLine
 10
247.8132029227469
 20
201.4735216617277
 30
0.0
 11
247.8132029227469
 21
199.9735216617259
 31
0.0
  0
LINE
  5
1D69184BB6
330
1D69183399
100
AcDbEntity
  8
JISSEN
 62
     0
 48
0.1
100
AcDbLine
 10
243.5959758361316
 20
199.9735216617259
 30
0.0
 11
243.5777179974571
 21
200.9777027888717
 31
0.0
  0
LINE
  5
1D69184BB7
330
1D69183399
100
AcDbEntity
  8
JISSEN
100
AcDbLine
 10
243.0832358328612
 20
201.4735216617277
 30
0.0
 11
243.0477560045624
 21
201.4735216617277
 31
0.0
  0
LINE
  5
1D69184BB8
330
1D69183399
100
AcDbEntity
  8
JISSEN
100
AcDbLine
 10
243.5777179974571
 20
200.9777027888717
 30
0.0
 11
243.081899124601
 21
201.4735216617277
 31
0.0
  0
LINE
  5
1D69184BB9
330
1D69183399
100
AcDbEntity
  8
ITTEN
100
AcDbLine
 39
240.0520776831561
 10
258.5477560045624
 20
184.9735216617259
 30
0.0
 11
258.5477560045624
 21
203.4735216617277
 31
0.0
  0
LINE
  5
1D69184BBB
330
1D69183399
100
AcDbEntity
  8
JISSEN
100
AcDbLine
 10
253.3681865579288
 20
200.9735216616534
 30
0.0
 11
253.3681865579288
 21
199.9735216617259
 31
0.0
  0
LINE
  5
1D69184BBC
330
1D69183399
100
AcDbEntity
  8
JISSEN
100
AcDbLine
 10
252.8360196110293
 20
201.4735216617277
 30
0.0
 11
252.8360196110293
 21
199.9735216617259
 31
0.0
  0
LINE
  5
1D69184BBD
330
1D69183399
100
AcDbEntity
  8
JISSEN
100
AcDbLine
 10
253.3681865579033
 20
200.9735216617277
 30
0.0
 11
253.3681865579033
 21
199.9735216617259
 31
0.0
  0
LINE
  5
1D69184BC1
330
1D69183399
100
AcDbEntity
  8
JISSEN
100
AcDbLine
 10
253.1971764862042
 20
201.4735216617277
 30
0.0
 11
253.3681865579033
 21
200.9735216617277
 31
0.0
  0
LINE
  5
1D69184BF0
330
1D69183399
100
AcDbEntity
  8
JISSEN
 62
     0
 48
0.1
100
AcDbLine
 10
242.1257148413038
 20
199.9735216617259
 30
0.0
 11
242.1014665292219
 21
201.4735216617277
 31
0.0
  0
ARC
  5
1D69184BF7
330
1D69183399
100
AcDbEntity
  8
JISSEN
100
AcDbCircle
 10
273.5477557545661
 20
247.8545426438096
 30
0.0
 40
2.0
100
AcDbArc
 50
180.0
 51
261.9999999999597
  0
LINE
  5
1D69184BF8
330
1D69183399
100
AcDbEntity
  8
JISSEN
100
AcDbLine
 10
271.5477557545653
 20
251.9024510216087
 30
0.0
 11
271.5477557545652
 21
247.8545426438096
 31
0.0
  0
LINE
  5
1D69184BF9
330
1D69183399
100
AcDbEntity
  8
JISSEN
100
AcDbLine
 10
271.5477557545634
 20
251.9024510216087
 30
0.0
 11
304.0477557545634
 21
251.9024510216087
 31
0.0
  0
LINE
  5
1D69184BFE
330
1D69183399
100
AcDbEntity
  8
JISSEN
100
AcDbLine
 10
273.2694095526339
 20
245.8740065063155
 30
0.0
 11
287.2375018468653
 21
243.9109191560102
 31
0.0
  0
LINE
  5
1D69184C01
330
1D69183399
100
AcDbEntity
  8
JISSEN
100
AcDbLine
 10
298.697176236206
 20
258.4024510216105
 30
0.0
 11
293.3132026727489
 21
258.4024510216105
 31
0.0
  0
LINE
  5
1D69184C02
330
1D69183399
100
AcDbEntity
  8
JISSEN
100
AcDbLine
 10
287.3107930029643
 20
243.9024510216105
 30
0.0
 11
304.0477557545634
 21
243.9024510216087
 31
0.0
  0
LINE
  5
1D69184C03
330
1D69183399
100
AcDbEntity
  8
JISSEN
 62
     0
 48
0.1
100
AcDbLine
 10
287.4528317735861
 20
251.9024510216087
 30
0.0
 11
287.3477557545644
 21
258.4024510216105
 31
0.0
  0
ARC
  5
1D69184C04
330
1D69183399
100
AcDbEntity
  8
JISSEN
100
AcDbCircle
 10
287.4462614982646
 20
245.3963212592108
 30
0.0
 40
1.499999999999995
100
AcDbArc
 50
261.9999999999597
 51
264.8184245309498
  0
LINE
  5
1D69184C05
330
1D69183399
100
AcDbEntity
  8
JISSEN
100
AcDbLine
 10
289.9077635387279
 20
251.90245102161
 30
0.0
 11
288.016812414661
 21
251.9024510216112
 31
0.0
  0
LINE
  5
1D69184C06
330
1D69183399
100
AcDbEntity
  8
JISSEN
100
AcDbLine
 10
288.5477557545643
 20
258.4024510216105
 30
0.0
 11
287.3477557545644
 21
258.4024510216105
 31
0.0
  0
SPLINE
  5
1D69184C07
330
1D69183399
100
AcDbEntity
  8
JISSEN
100
AcDbSpline
210
0.0
220
0.0
230
1.0
 70
     8
 71
     3
 72
    18
 73
    14
 74
     0
 42
0.0000000001
 43
0.0000000001
 40
0.0
 40
0.0
 40
0.0
 40
0.0
 40
0.1250000000000001
 40
0.1250000000000001
 40
0.2500000000000002
 40
0.2500000000000002
 40
0.3750000000000002
 40
0.3750000000000002
 40
0.5000000000000004
 40
0.5000000000000004
 40
0.7500000000000001
 40
0.7500000000000001
 40
1.0
 40
1.0
 40
1.0
 40
1.0
 10
287.6822939861639
 20
253.4024510215796
 30
0.0
 10
287.6822939861639
 20
253.3033102402161
 30
0.0
 10
287.6839751428896
 20
253.2058267263211
 30
0.0
 10
287.6906689881952
 20
253.0140387803686
 30
0.0
 10
287.6957646331092
 20
252.9187399924804
 30
0.0
 10
287.7094154377363
 20
252.7370248710841
 30
0.0
 10
287.7179019030526
 20
252.6508426676729
 30
0.0
 10
287.7386262307035
 20
252.4877481412342
 30
0.0
 10
287.7509870967232
 20
252.4105386116672
 30
0.0
 10
287.7930536755874
 20
252.2030048998032
 30
0.0
 10
287.8289619424294
 20
252.0913374795191
 30
0.0
 10
287.9135401645261
 20
251.9419627571652
 30
0.0
 10
287.963027748522
 20
251.9024510215796
 30
0.0
 10
288.0168124146611
 20
251.9024510215796
 30
0.0
  0
LINE
  5
1D69184C08
330
1D69183399
100
AcDbEntity
  8
JISSEN
 48
0.1
100
AcDbLine
 10
289.1172523100273
 20
255.7322312073948
 30
0.0
 11
289.6165744091847
 21
254.4314526671215
 31
0.0
  0
LINE
  5
1D69184C09
330
1D69183399
100
AcDbEntity
  8
JISSEN
100
AcDbLine
 10
293.3132026727487
 20
258.4024510216105
 30
0.0
 11
293.3132026727489
 21
253.4024510215443
 31
0.0
  0
LINE
  5
1D69184C0A
330
1D69183399
100
AcDbEntity
  8
JISSEN
 62
     0
 48
0.1
100
AcDbLine
 10
289.1596119497673
 20
253.4024510215859
 30
0.0
 11
289.0777177474589
 21
257.9066321487545
 31
0.0
  0
SPLINE
  5
1D69184C0B
330
1D69183399
100
AcDbEntity
  8
JISSEN
100
AcDbSpline
210
0.0
220
0.0
230
1.0
 70
     8
 71
     3
 72
    18
 73
    14
 74
     0
 42
0.0000000001
 43
0.0000000001
 40
0.0
 40
0.0
 40
0.0
 40
0.0
 40
0.1250000000000001
 40
0.1250000000000001
 40
0.2500000000000001
 40
0.2500000000000001
 40
0.5
 40
0.5
 40
0.7499999999999999
 40
0.7499999999999999
 40
0.8749999999999998
 40
0.8749999999999998
 40
1.0
 40
1.0
 40
1.0
 40
1.0
 10
293.3132026727779
 20
253.4024510215487
 30
0.0
 10
293.3132026727779
 20
253.303757435705
 30
0.0
 10
293.3041410740006
 20
253.2064146660315
 30
0.0
 10
293.2682923433493
 20
253.0143659797532
 30
0.0
 10
293.2410324610227
 20
252.9187439575135
 30
0.0
 10
293.134873830153
 20
252.6469212387593
 30
0.0
 10
293.0295907970339
 20
252.4800749928682
 30
0.0
 10
292.7659442389376
 20
252.2026862839276
 30
0.0
 10
292.6067046643528
 20
252.0913280182623
 30
0.0
 10
292.3459893065682
 20
251.9790302575321
 30
0.0
 10
292.2540297595296
 20
251.9501426535817
 30
0.0
 10
292.0684463496235
 20
251.9120885545973
 30
0.0
 10
291.9740358186099
 20
251.9024510215487
 30
0.0
 10
291.8779477794105
 20
251.9024510215487
 30
0.0
  0
SPLINE
  5
1D69184C0C
330
1D69183399
100
AcDbEntity
  8
JISSEN
100
AcDbSpline
210
0.0
220
0.0
230
1.0
 70
     8
 71
     3
 72
    18
 73
    14
 74
     0
 42
0.0000000001
 43
0.0000000001
 40
0.0
 40
0.0
 40
0.0
 40
0.0
 40
0.1250000000000001
 40
0.1250000000000001
 40
0.2500000000000002
 40
0.2500000000000002
 40
0.3750000000000002
 40
0.3750000000000002
 40
0.5000000000000004
 40
0.5000000000000004
 40
0.7500000000000001
 40
0.7500000000000001
 40
1.0
 40
1.0
 40
1.0
 40
1.0
 10
289.1596119497675
 20
253.4024510215859
 30
0.0
 10
289.1596119497675
 20
253.3033102402224
 30
0.0
 10
289.1612931064932
 20
253.2058267263274
 30
0.0
 10
289.1679869517987
 20
253.014038780375
 30
0.0
 10
289.1730825967128
 20
252.9187399924868
 30
0.0
 10
289.1867334013399
 20
252.7370248710905
 30
0.0
 10
289.1952198666562
 20
252.6508426676792
 30
0.0
 10
289.215944194307
 20
252.4877481412405
 30
0.0
 10
289.2283050603267
 20
252.4105386116735
 30
0.0
 10
289.270371639191
 20
252.2030048998095
 30
0.0
 10
289.3062799060329
 20
252.0913374795255
 30
0.0
 10
289.3908581281296
 20
251.9419627571716
 30
0.0
 10
289.4403457121256
 20
251.902451021586
 30
0.0
 10
289.4941303782646
 20
251.902451021586
 30
0.0
  0
LINE
  5
1D69184C0D
330
1D69183399
100
AcDbEntity
  8
JISSEN
100
AcDbLine
 10
289.6165744091328
 20
253.9927655018101
 30
0.0
 11
289.1488789592184
 21
253.9927655018101
 31
0.0
  0
LINE
  5
1D69184C0E
330
1D69183399
100
AcDbEntity
  8
JISSEN
100
AcDbLine
 10
289.6165744091328
 20
253.9927655018101
 30
0.0
 11
289.6165744091328
 21
254.4314526671106
 31
0.0
  0
LINE
  5
1D69184C0F
330
1D69183399
100
AcDbEntity
  8
JISSEN
100
AcDbLine
 10
288.5832355828631
 20
258.4024510216105
 30
0.0
 11
288.5477557545643
 21
258.4024510216105
 31
0.0
  0
LINE
  5
1D69184C10
330
1D69183399
100
AcDbEntity
  8
JISSEN
100
AcDbLine
 10
289.0777177474589
 20
257.9066321487545
 30
0.0
 11
288.5818988746029
 21
258.4024510216105
 31
0.0
  0
LINE
  5
1D69184C11
330
1D69183399
100
AcDbEntity
  8
ITTEN
100
AcDbLine
 39
240.0520776831561
 10
304.0477557545643
 20
241.9024510216087
 30
0.0
 11
304.0477557545643
 21
260.4024510216105
 31
0.0
  0
LINE
  5
1D69184C13
330
1D69183399
100
AcDbEntity
  8
JISSEN
100
AcDbLine
 10
298.8681863079306
 20
257.9024510215361
 30
0.0
 11
298.8681863079306
 21
253.4024510215755
 31
0.0
  0
LINE
  5
1D69184C14
330
1D69183399
100
AcDbEntity
  8
JISSEN
100
AcDbLine
 10
298.3360193610312
 20
258.4024510216105
 30
0.0
 11
298.3360193610312
 21
253.4024510215796
 31
0.0
  0
LINE
  5
1D69184C15
330
1D69183399
100
AcDbEntity
  8
JISSEN
100
AcDbLine
 10
298.8681863079051
 20
257.9024510216105
 30
0.0
 11
298.8681863079051
 21
253.4024510216105
 31
0.0
  0
LINE
  5
1D69184C16
330
1D69183399
100
AcDbEntity
  8
JISSEN
100
AcDbLine
 10
303.4215751512644
 20
251.9024510216105
 30
0.0
 11
299.4367558258997
 21
251.9024510216105
 31
0.0
  0
SPLINE
  5
1D69184C17
330
1D69183399
100
AcDbEntity
  8
JISSEN
100
AcDbSpline
210
0.0
220
0.0
230
1.0
 70
     8
 71
     3
 72
    18
 73
    14
 74
     0
 42
0.0000000001
 43
0.0000000001
 40
0.0
 40
0.0
 40
0.0
 40
0.0
 40
0.1249999999999994
 40
0.1249999999999994
 40
0.2499999999999989
 40
0.2499999999999989
 40
0.3749999999999983
 40
0.3749999999999983
 40
0.4999999999999978
 40
0.4999999999999978
 40
0.749999999999999
 40
0.749999999999999
 40
1.0
 40
1.0
 40
1.0
 40
1.0
 10
298.8681863079306
 20
253.4024510215796
 30
0.0
 10
298.8681863079306
 20
253.3033276816524
 30
0.0
 10
298.875644250587
 20
253.2058610587947
 30
0.0
 10
298.9048029135662
 20
253.0141058164728
 30
0.0
 10
298.9268568644835
 20
252.9188234877139
 30
0.0
 10
298.984225274991
 20
252.7371333594938
 30
0.0
 10
299.0192522449976
 20
252.6509620001244
 30
0.0
 10
299.1016047144982
 20
252.4878851158638
 30
0.0
 10
299.1493595691896
 20
252.4106801287972
 30
0.0
 10
299.3048699798525
 20
252.2031448338594
 30
0.0
 10
299.4290193283593
 20
252.0914576244223
 30
0.0
 10
299.6922342572413
 20
251.9420134237963
 30
0.0
 10
299.8336852170284
 20
251.9024510215796
 30
0.0
 10
299.9733356180856
 20
251.9024510215796
 30
0.0
  0
SPLINE
  5
1D69184C18
330
1D69183399
100
AcDbEntity
  8
JISSEN
100
AcDbSpline
210
0.0
220
0.0
230
1.0
 70
     8
 71
     3
 72
    18
 73
    14
 74
     0
 42
0.0000000001
 43
0.0000000001
 40
0.0
 40
0.0
 40
0.0
 40
0.0
 40
0.1249999999999997
 40
0.1249999999999997
 40
0.2499999999999994
 40
0.2499999999999994
 40
0.3749999999999992
 40
0.3749999999999992
 40
0.499999999999999
 40
0.499999999999999
 40
0.7499999999999995
 40
0.7499999999999995
 40
1.0
 40
1.0
 40
1.0
 40
1.0
 10
299.4367558258998
 20
251.9024510215796
 30
0.0
 10
299.3675667556033
 20
251.9024510215796
 30
0.0
 10
299.298822673956
 20
251.9120865177439
 30
0.0
 10
299.1622759330692
 20
251.9499486149444
 30
0.0
 10
299.0937448262137
 20
251.9786375634495
 30
0.0
 10
298.9619279826327
 20
252.0536367697396
 30
0.0
 10
298.8988286860183
 20
252.0995703938016
 30
0.0
 10
298.7785310919132
 20
252.208194875163
 30
0.0
 10
298.7211030323231
 20
252.271460059249
 30
0.0
 10
298.5657985285723
 20
252.4788500071164
 30
0.0
 10
298.480882821839
 20
252.6461448952187
 30
0.0
 10
298.3666586170345
 20
253.0071405012487
 30
0.0
 10
298.3360193610313
 20
253.2041711463217
 30
0.0
 10
298.3360193610313
 20
253.4024510215796
 30
0.0
  0
LINE
  5
1D69184C1C
330
1D69183399
100
AcDbEntity
  8
JISSEN
100
AcDbLine
 10
298.697176236206
 20
258.4024510216105
 30
0.0
 11
298.8681863079051
 21
257.9024510216105
 31
0.0
  0
LINE
  5
1D69184C4B
330
1D69183399
100
AcDbEntity
  8
JISSEN
 62
     0
 48
0.1
100
AcDbLine
 10
287.6822939861639
 20
253.4024510215732
 30
0.0
 11
287.6014662792237
 21
258.4024510216105
 31
0.0
  0
LWPOLYLINE
  5
1D69184FC6
330
1D69183399
100
AcDbEntity
  8
WAKU
100
AcDbPolyline
 90
        4
 70
     1
 43
0.0
 10
213.5477562545634
 20
0.0
 10
394.5477552545634
 20
0.0
 10
394.5477552545634
 20
273.0
 10
213.5477562545634
 20
273.0
  0
TEXT
  5
1D69184FC7
330
1D69183399
100
AcDbEntity
  8
SUNPOU
100
AcDbText
 10
334.9231692085278
 20
7.849424007059838
 30
0.0
 40
3.0
  1
シーリングプレートK+□□mm
  7
K
100
AcDbText
  0
TEXT
  5
1D69184FC8
330
1D69183399
100
AcDbEntity
  8
SUNPOU
100
AcDbText
 10
334.9231692085278
 20
2.849424007059838
 30
0.0
 40
3.0
  1
尺度　1/1
  7
K
100
AcDbText
  0
ARC
  5
1D69184FC9
330
1D69183399
100
AcDbEntity
  8
JISSEN
100
AcDbCircle
 10
379.5477555045604
 20
43.80054759596086
 30
0.0
 40
2.0
100
AcDbArc
 50
278.0000000000399
 51
359.9999999999997
  0
LINE
  5
1D69184FCA
330
1D69183399
100
AcDbEntity
  8
JISSEN
100
AcDbLine
 10
381.5477555045606
 20
77.84845597375994
 30
0.0
 11
381.5477555045613
 21
43.80054759596084
 31
0.0
  0
LINE
  5
1D69184FCB
330
1D69183399
100
AcDbEntity
  8
JISSEN
100
AcDbLine
 10
379.8261017064925
 20
41.82001145846669
 30
0.0
 11
365.8580094122612
 21
39.85692410816151
 31
0.0
  0
LINE
  5
1D69184FCC
330
1D69183399
100
AcDbEntity
  8
JISSEN
100
AcDbLine
 10
365.7847182561622
 20
39.84845597376184
 30
0.0
 11
349.0477555045631
 21
39.84845597376011
 31
0.0
  0
ARC
  5
1D69184FCD
330
1D69183399
100
AcDbEntity
  8
JISSEN
100
AcDbCircle
 10
365.6492497608619
 20
41.34232621136212
 30
0.0
 40
1.499999999999995
100
AcDbArc
 50
275.1815754690497
 51
278.0000000000399
  0
LINE
  5
1D69184FCE
330
1D69183399
100
AcDbEntity
  8
JISSEN
100
AcDbLine
 10
381.5477555045633
 20
77.84845597375994
 30
0.0
 11
349.0477555045633
 21
77.84845597376011
 31
0.0
  0
ARC
  5
1D69184FCF
330
1D69183399
100
AcDbEntity
  8
JISSEN
100
AcDbCircle
 10
275.1492502608619
 20
41.34232621136212
 30
0.0
 40
1.499999999999995
100
AcDbArc
 50
275.1815754690497
 51
278.0000000000399
  0
LINE
  5
1D69184FD0
330
1D69183399
100
AcDbEntity
  8
JISSEN
100
AcDbLine
 10
275.2847187561623
 20
39.84845597376181
 30
0.0
 11
258.5477560045632
 21
39.84845597376011
 31
0.0
  0
LINE
  5
1D69184FD1
330
1D69183399
100
AcDbEntity
  8
JISSEN
100
AcDbLine
 10
289.3261022064925
 20
41.82001145846666
 30
0.0
 11
275.3580099122613
 21
39.85692410816147
 31
0.0
  0
LINE
  5
1D69184FD2
330
1D69183399
100
AcDbEntity
  8
JISSEN
100
AcDbLine
 10
291.0477560045608
 20
72.84845597375991
 30
0.0
 11
291.0477560045613
 21
43.8005475959608
 31
0.0
  0
ARC
  5
1D69184FD3
330
1D69183399
100
AcDbEntity
  8
JISSEN
100
AcDbCircle
 10
289.0477560045604
 20
43.80054759596084
 30
0.0
 40
2.0
100
AcDbArc
 50
278.0000000000399
 51
359.9999999999996
  0
LINE
  5
1D69184FD4
330
1D69183399
100
AcDbEntity
  8
JISSEN
100
AcDbLine
 10
291.0477560045634
 20
72.84845597375991
 30
0.0
 11
258.5477560045634
 21
72.84845597376011
 31
0.0
  0
ARC
  5
1D69184FD5
330
1D69183399
100
AcDbEntity
  8
JISSEN
100
AcDbCircle
 10
379.5477555045606
 20
123.9106593399538
 30
0.0
 40
2.0
100
AcDbArc
 50
278.0000000000402
 51
0.000000000000007
  0
LINE
  5
1D69184FD6
330
1D69183399
100
AcDbEntity
  8
JISSEN
100
AcDbLine
 10
381.5477555045609
 20
147.9585677177529
 30
0.0
 11
381.5477555045615
 21
123.9106593399538
 31
0.0
  0
LINE
  5
1D69184FD7
330
1D69183399
100
AcDbEntity
  8
JISSEN
100
AcDbLine
 10
379.8261017064927
 20
121.9301232024596
 30
0.0
 11
365.8580094122614
 21
119.9670358521544
 31
0.0
  0
LINE
  5
1D69184FD8
330
1D69183399
100
AcDbEntity
  8
JISSEN
100
AcDbLine
 10
365.7847182561624
 20
119.9585677177547
 30
0.0
 11
349.0477555045633
 21
119.9585677177529
 31
0.0
  0
ARC
  5
1D69184FD9
330
1D69183399
100
AcDbEntity
  8
JISSEN
100
AcDbCircle
 10
365.6492497608621
 20
121.452437955355
 30
0.0
 40
1.499999999999995
100
AcDbArc
 50
275.1815754690501
 51
278.0000000000402
  0
LINE
  5
1D69184FDA
330
1D69183399
100
AcDbEntity
  8
JISSEN
100
AcDbLine
 10
381.5477555045633
 20
147.9585677177529
 30
0.0
 11
349.0477555045633
 21
147.9585677177529
 31
0.0
  0
ARC
  5
1D69184FDB
330
1D69183399
100
AcDbEntity
  8
JISSEN
100
AcDbCircle
 10
275.1492502608621
 20
121.452437955355
 30
0.0
 40
1.499999999999995
100
AcDbArc
 50
275.1815754690501
 51
278.0000000000402
  0
LINE
  5
1D69184FDC
330
1D69183399
100
AcDbEntity
  8
JISSEN
100
AcDbLine
 10
275.2847187561624
 20
119.9585677177547
 30
0.0
 11
258.5477560045633
 21
119.9585677177529
 31
0.0
  0
LINE
  5
1D69184FDD
330
1D69183399
100
AcDbEntity
  8
JISSEN
100
AcDbLine
 10
289.3261022064927
 20
121.9301232024596
 30
0.0
 11
275.3580099122614
 21
119.9670358521544
 31
0.0
  0
LINE
  5
1D69184FDE
330
1D69183399
100
AcDbEntity
  8
JISSEN
100
AcDbLine
 10
291.047756004561
 20
142.9585677177529
 30
0.0
 11
291.0477560045615
 21
123.9106593399538
 31
0.0
  0
ARC
  5
1D69184FDF
330
1D69183399
100
AcDbEntity
  8
JISSEN
100
AcDbCircle
 10
289.0477560045606
 20
123.9106593399538
 30
0.0
 40
2.0
100
AcDbArc
 50
278.0000000000402
 51
0.000000000000007
  0
LINE
  5
1D69184FE0
330
1D69183399
100
AcDbEntity
  8
JISSEN
100
AcDbLine
 10
291.0477560045634
 20
142.9585677177529
 30
0.0
 11
258.5477560045633
 21
142.9585677177529
 31
0.0
  0
ARC
  5
1D69184FE1
330
1D69183399
100
AcDbEntity
  8
JISSEN
100
AcDbCircle
 10
379.5477555045606
 20
190.9256132839268
 30
0.0
 40
2.0
100
AcDbArc
 50
278.0000000000402
 51
0.000000000000007
  0
LINE
  5
1D69184FE2
330
1D69183399
100
AcDbEntity
  8
JISSEN
100
AcDbLine
 10
381.5477555045612
 20
204.9735216617259
 30
0.0
 11
381.5477555045615
 21
190.9256132839268
 31
0.0
  0
LINE
  5
1D69184FE3
330
1D69183399
100
AcDbEntity
  8
JISSEN
100
AcDbLine
 10
379.8261017064927
 20
188.9450771464327
 30
0.0
 11
365.8580094122614
 21
186.9819897961274
 31
0.0
  0
LINE
  5
1D69184FE4
330
1D69183399
100
AcDbEntity
  8
JISSEN
100
AcDbLine
 10
365.7847182561624
 20
186.9735216617277
 30
0.0
 11
349.0477555045633
 21
186.9735216617259
 31
0.0
  0
ARC
  5
1D69184FE5
330
1D69183399
100
AcDbEntity
  8
JISSEN
100
AcDbCircle
 10
365.6492497608621
 20
188.467391899328
 30
0.0
 40
1.499999999999995
100
AcDbArc
 50
275.1815754690501
 51
278.0000000000402
  0
LINE
  5
1D69184FE6
330
1D69183399
100
AcDbEntity
  8
JISSEN
100
AcDbLine
 10
381.5477555045633
 20
204.9735216617259
 30
0.0
 11
349.0477555045633
 21
204.9735216617259
 31
0.0
  0
LINE
  5
1D69184FE7
330
1D69183399
100
AcDbEntity
  8
JISSEN
 62
     0
 48
0.1
100
AcDbLine
 10
274.9697971678211
 20
199.9735216617259
 30
0.0
 11
274.994045479903
 21
201.4735216617277
 31
0.0
  0
LINE
  5
1D69184FE8
330
1D69183399
100
AcDbEntity
  8
JISSEN
100
AcDbLine
 10
263.8983355229207
 20
201.4735216617277
 30
0.0
 11
263.7273254512215
 21
200.9735216617277
 31
0.0
  0
LINE
  5
1D69184FE9
330
1D69183399
100
AcDbEntity
  8
JISSEN
100
AcDbLine
 10
263.7273254512215
 20
200.9735216617277
 30
0.0
 11
263.7273254512215
 21
199.9735216617259
 31
0.0
  0
LINE
  5
1D69184FEA
330
1D69183399
100
AcDbEntity
  8
JISSEN
100
AcDbLine
 10
264.2594923980955
 20
201.4735216617277
 30
0.0
 11
264.2594923980955
 21
199.9735216617259
 31
0.0
  0
LINE
  5
1D69184FEB
330
1D69183399
100
AcDbEntity
  8
JISSEN
100
AcDbLine
 10
263.7273254511961
 20
200.9735216616534
 30
0.0
 11
263.7273254511961
 21
199.9735216617259
 31
0.0
  0
LINE
  5
1D69184FEC
330
1D69183399
100
AcDbEntity
  8
JISSEN
100
AcDbLine
 10
273.5177940116678
 20
200.9777027888717
 30
0.0
 11
274.0136128845238
 21
201.4735216617277
 31
0.0
  0
LINE
  5
1D69184FED
330
1D69183399
100
AcDbEntity
  8
JISSEN
100
AcDbLine
 10
274.0122761762636
 20
201.4735216617277
 30
0.0
 11
274.0477560045624
 21
201.4735216617277
 31
0.0
  0
LINE
  5
1D69184FEE
330
1D69183399
100
AcDbEntity
  8
JISSEN
 62
     0
 48
0.1
100
AcDbLine
 10
273.4995361729932
 20
199.9735216617259
 30
0.0
 11
273.5177940116678
 21
200.9777027888717
 31
0.0
  0
LINE
  5
1D69184FEF
330
1D69183399
100
AcDbEntity
  8
JISSEN
100
AcDbLine
 10
269.282309086378
 20
201.4735216617277
 30
0.0
 11
269.282309086378
 21
199.9735216617259
 31
0.0
  0
LINE
  5
1D69184FF0
330
1D69183399
100
AcDbEntity
  8
JISSEN
100
AcDbLine
 10
274.0477560045624
 20
201.4735216617277
 30
0.0
 11
275.2477560045623
 21
201.4735216617277
 31
0.0
  0
ARC
  5
1D69184FF1
330
1D69183399
100
AcDbEntity
  8
JISSEN
100
AcDbCircle
 10
275.1492502608621
 20
188.467391899328
 30
0.0
 40
1.499999999999995
100
AcDbArc
 50
275.1815754690501
 51
278.0000000000402
  0
LINE
  5
1D69184FF2
330
1D69183399
100
AcDbEntity
  8
JISSEN
 62
     0
 48
0.1
100
AcDbLine
 10
275.2235076924804
 20
199.9735216617259
 30
0.0
 11
275.2477560045623
 21
201.4735216617277
 31
0.0
  0
LINE
  5
1D69184FF3
330
1D69183399
100
AcDbEntity
  8
JISSEN
100
AcDbLine
 10
275.2847187561624
 20
186.9735216617277
 30
0.0
 11
258.5477560045633
 21
186.9735216617259
 31
0.0
  0
LINE
  5
1D69184FF4
330
1D69183399
100
AcDbEntity
  8
JISSEN
100
AcDbLine
 10
263.8983355229207
 20
201.4735216617277
 30
0.0
 11
269.2823090863778
 21
201.4735216617277
 31
0.0
  0
LINE
  5
1D69184FF5
330
1D69183399
100
AcDbEntity
  8
JISSEN
100
AcDbLine
 10
289.3261022064928
 20
188.9450771464327
 30
0.0
 11
275.3580099122614
 21
186.9819897961274
 31
0.0
  0
LINE
  5
1D69184FF6
330
1D69183399
100
AcDbEntity
  8
JISSEN
100
AcDbLine
 10
291.0477560045634
 20
199.9735216617259
 30
0.0
 11
258.5477560045633
 21
199.9735216617259
 31
0.0
  0
LINE
  5
1D69184FF7
330
1D69183399
100
AcDbEntity
  8
JISSEN
100
AcDbLine
 10
291.0477560045613
 20
199.9735216617259
 30
0.0
 11
291.0477560045615
 21
190.9256132839268
 31
0.0
  0
ARC
  5
1D69184FF8
330
1D69183399
100
AcDbEntity
  8
JISSEN
100
AcDbCircle
 10
289.0477560045606
 20
190.9256132839268
 30
0.0
 40
2.0
100
AcDbArc
 50
278.0000000000402
 51
0.000000000000007
  0
LINE
  5
1D69184FF9
330
1D69183399
100
AcDbEntity
  8
JISSEN
 62
     0
 48
0.1
100
AcDbLine
 10
320.4132175229646
 20
253.4024510215732
 30
0.0
 11
320.4940452299049
 21
258.4024510216105
 31
0.0
  0
LINE
  5
1D69184FFA
330
1D69183399
100
AcDbEntity
  8
JISSEN
100
AcDbLine
 10
309.3983352729225
 20
258.4024510216105
 30
0.0
 11
309.2273252012234
 21
257.9024510216105
 31
0.0
  0
SPLINE
  5
1D69184FFB
330
1D69183399
100
AcDbEntity
  8
JISSEN
100
AcDbSpline
210
0.0
220
0.0
230
1.0
 70
     8
 71
     3
 72
    18
 73
    14
 74
     0
 42
0.0000000001
 43
0.0000000001
 40
0.0
 40
0.0
 40
0.0
 40
0.0
 40
0.1249999999999997
 40
0.1249999999999997
 40
0.2499999999999994
 40
0.2499999999999994
 40
0.3749999999999992
 40
0.3749999999999992
 40
0.499999999999999
 40
0.499999999999999
 40
0.7499999999999995
 40
0.7499999999999995
 40
1.0
 40
1.0
 40
1.0
 40
1.0
 10
308.6587556832288
 20
251.9024510215796
 30
0.0
 10
308.7279447535252
 20
251.9024510215796
 30
0.0
 10
308.7966888351725
 20
251.9120865177439
 30
0.0
 10
308.9332355760594
 20
251.9499486149444
 30
0.0
 10
309.0017666829149
 20
251.9786375634495
 30
0.0
 10
309.1335835264958
 20
252.0536367697396
 30
0.0
 10
309.1966828231103
 20
252.0995703938016
 30
0.0
 10
309.3169804172153
 20
252.208194875163
 30
0.0
 10
309.3744084768055
 20
252.271460059249
 30
0.0
 10
309.5297129805563
 20
252.4788500071164
 30
0.0
 10
309.6146286872895
 20
252.6461448952187
 30
0.0
 10
309.728852892094
 20
253.0071405012487
 30
0.0
 10
309.7594921480973
 20
253.2041711463217
 30
0.0
 10
309.7594921480973
 20
253.4024510215796
 30
0.0
  0
SPLINE
  5
1D69184FFC
330
1D69183399
100
AcDbEntity
  8
JISSEN
100
AcDbSpline
210
0.0
220
0.0
230
1.0
 70
     8
 71
     3
 72
    18
 73
    14
 74
     0
 42
0.0000000001
 43
0.0000000001
 40
0.0
 40
0.0
 40
0.0
 40
0.0
 40
0.1249999999999994
 40
0.1249999999999994
 40
0.2499999999999989
 40
0.2499999999999989
 40
0.3749999999999983
 40
0.3749999999999983
 40
0.4999999999999978
 40
0.4999999999999978
 40
0.749999999999999
 40
0.749999999999999
 40
1.0
 40
1.0
 40
1.0
 40
1.0
 10
309.2273252011979
 20
253.4024510215796
 30
0.0
 10
309.2273252011979
 20
253.3033276816524
 30
0.0
 10
309.2198672585415
 20
253.2058610587947
 30
0.0
 10
309.1907085955623
 20
253.0141058164728
 30
0.0
 10
309.168654644645
 20
252.9188234877139
 30
0.0
 10
309.1112862341375
 20
252.7371333594938
 30
0.0
 10
309.076259264131
 20
252.6509620001244
 30
0.0
 10
308.9939067946303
 20
252.4878851158638
 30
0.0
 10
308.9461519399389
 20
252.4106801287972
 30
0.0
 10
308.7906415292761
 20
252.2031448338594
 30
0.0
 10
308.6664921807693
 20
252.0914576244223
 30
0.0
 10
308.4032772518873
 20
251.9420134237963
 30
0.0
 10
308.2618262921002
 20
251.9024510215796
 30
0.0
 10
308.122175891043
 20
251.9024510215796
 30
0.0
  0
LINE
  5
1D69184FFD
330
1D69183399
100
AcDbEntity
  8
JISSEN
100
AcDbLine
 10
304.6739363578641
 20
251.9024510216105
 30
0.0
 11
308.6587556832288
 21
251.9024510216105
 31
0.0
  0
LINE
  5
1D69184FFE
330
1D69183399
100
AcDbEntity
  8
JISSEN
100
AcDbLine
 10
309.2273252012234
 20
257.9024510216105
 30
0.0
 11
309.2273252012234
 21
253.4024510216105
 31
0.0
  0
LINE
  5
1D69184FFF
330
1D69183399
100
AcDbEntity
  8
JISSEN
100
AcDbLine
 10
309.7594921480974
 20
258.4024510216105
 30
0.0
 11
309.7594921480974
 21
253.4024510215796
 31
0.0
  0
LINE
  5
1D69185000
330
1D69183399
100
AcDbEntity
  8
JISSEN
100
AcDbLine
 10
309.2273252011979
 20
257.9024510215361
 30
0.0
 11
309.2273252011979
 21
253.4024510215755
 31
0.0
  0
LINE
  5
1D69185001
330
1D69183399
100
AcDbEntity
  8
JISSEN
100
AcDbLine
 10
319.0177937616696
 20
257.9066321487545
 30
0.0
 11
319.5136126345257
 21
258.4024510216105
 31
0.0
  0
LINE
  5
1D69185002
330
1D69183399
100
AcDbEntity
  8
JISSEN
100
AcDbLine
 10
319.5122759262655
 20
258.4024510216105
 30
0.0
 11
319.5477557545643
 21
258.4024510216105
 31
0.0
  0
LINE
  5
1D69185003
330
1D69183399
100
AcDbEntity
  8
JISSEN
100
AcDbLine
 10
318.4789370999958
 20
253.9927655018101
 30
0.0
 11
318.4789370999958
 21
254.4314526671106
 31
0.0
  0
LINE
  5
1D69185004
330
1D69183399
100
AcDbEntity
  8
JISSEN
100
AcDbLine
 10
318.4789370999958
 20
253.9927655018101
 30
0.0
 11
318.9466325499102
 21
253.9927655018101
 31
0.0
  0
SPLINE
  5
1D69185005
330
1D69183399
100
AcDbEntity
  8
JISSEN
100
AcDbSpline
210
0.0
220
0.0
230
1.0
 70
     8
 71
     3
 72
    18
 73
    14
 74
     0
 42
0.0000000001
 43
0.0000000001
 40
0.0
 40
0.0
 40
0.0
 40
0.0
 40
0.1250000000000001
 40
0.1250000000000001
 40
0.2500000000000002
 40
0.2500000000000002
 40
0.3750000000000002
 40
0.3750000000000002
 40
0.5000000000000004
 40
0.5000000000000004
 40
0.7500000000000001
 40
0.7500000000000001
 40
1.0
 40
1.0
 40
1.0
 40
1.0
 10
318.9358995593611
 20
253.4024510215859
 30
0.0
 10
318.9358995593611
 20
253.3033102402224
 30
0.0
 10
318.9342184026354
 20
253.2058267263274
 30
0.0
 10
318.9275245573298
 20
253.014038780375
 30
0.0
 10
318.9224289124158
 20
252.9187399924868
 30
0.0
 10
318.9087781077887
 20
252.7370248710905
 30
0.0
 10
318.9002916424724
 20
252.6508426676792
 30
0.0
 10
318.8795673148215
 20
252.4877481412405
 30
0.0
 10
318.8672064488018
 20
252.4105386116735
 30
0.0
 10
318.8251398699376
 20
252.2030048998095
 30
0.0
 10
318.7892316030957
 20
252.0913374795255
 30
0.0
 10
318.7046533809989
 20
251.9419627571716
 30
0.0
 10
318.655165797003
 20
251.902451021586
 30
0.0
 10
318.6013811308639
 20
251.902451021586
 30
0.0
  0
SPLINE
  5
1D69185006
330
1D69183399
100
AcDbEntity
  8
JISSEN
100
AcDbSpline
210
0.0
220
0.0
230
1.0
 70
     8
 71
     3
 72
    18
 73
    14
 74
     0
 42
0.0000000001
 43
0.0000000001
 40
0.0
 40
0.0
 40
0.0
 40
0.0
 40
0.1250000000000001
 40
0.1250000000000001
 40
0.2500000000000001
 40
0.2500000000000001
 40
0.5
 40
0.5
 40
0.7499999999999999
 40
0.7499999999999999
 40
0.8749999999999998
 40
0.8749999999999998
 40
1.0
 40
1.0
 40
1.0
 40
1.0
 10
314.7823088363506
 20
253.4024510215487
 30
0.0
 10
314.7823088363506
 20
253.303757435705
 30
0.0
 10
314.791370435128
 20
253.2064146660315
 30
0.0
 10
314.8272191657792
 20
253.0143659797532
 30
0.0
 10
314.8544790481059
 20
252.9187439575135
 30
0.0
 10
314.9606376789756
 20
252.6469212387593
 30
0.0
 10
315.0659207120947
 20
252.4800749928682
 30
0.0
 10
315.329567270191
 20
252.2026862839276
 30
0.0
 10
315.4888068447757
 20
252.0913280182623
 30
0.0
 10
315.7495222025604
 20
251.9790302575321
 30
0.0
 10
315.841481749599
 20
251.9501426535817
 30
0.0
 10
316.027065159505
 20
251.9120885545973
 30
0.0
 10
316.1214756905187
 20
251.9024510215487
 30
0.0
 10
316.2175637297181
 20
251.9024510215487
 30
0.0
  0
LINE
  5
1D69185007
330
1D69183399
100
AcDbEntity
  8
JISSEN
 62
     0
 48
0.1
100
AcDbLine
 10
318.9358995593613
 20
253.4024510215859
 30
0.0
 11
319.0177937616696
 21
257.9066321487545
 31
0.0
  0
LINE
  5
1D69185008
330
1D69183399
100
AcDbEntity
  8
JISSEN
100
AcDbLine
 10
314.7823088363798
 20
258.4024510216105
 30
0.0
 11
314.7823088363797
 21
253.4024510215443
 31
0.0
  0
LINE
  5
1D69185009
330
1D69183399
100
AcDbEntity
  8
JISSEN
 48
0.1
100
AcDbLine
 10
318.9782591991012
 20
255.7322312073948
 30
0.0
 11
318.4789370999439
 21
254.4314526671215
 31
0.0
  0
SPLINE
  5
1D6918500A
330
1D69183399
100
AcDbEntity
  8
JISSEN
100
AcDbSpline
210
0.0
220
0.0
230
1.0
 70
     8
 71
     3
 72
    18
 73
    14
 74
     0
 42
0.0000000001
 43
0.0000000001
 40
0.0
 40
0.0
 40
0.0
 40
0.0
 40
0.1250000000000001
 40
0.1250000000000001
 40
0.2500000000000002
 40
0.2500000000000002
 40
0.3750000000000002
 40
0.3750000000000002
 40
0.5000000000000004
 40
0.5000000000000004
 40
0.7500000000000001
 40
0.7500000000000001
 40
1.0
 40
1.0
 40
1.0
 40
1.0
 10
320.4132175229646
 20
253.4024510215796
 30
0.0
 10
320.4132175229646
 20
253.3033102402161
 30
0.0
 10
320.4115363662389
 20
253.2058267263211
 30
0.0
 10
320.4048425209334
 20
253.0140387803686
 30
0.0
 10
320.3997468760193
 20
252.9187399924804
 30
0.0
 10
320.3860960713922
 20
252.7370248710841
 30
0.0
 10
320.3776096060759
 20
252.6508426676729
 30
0.0
 10
320.356885278425
 20
252.4877481412342
 30
0.0
 10
320.3445244124054
 20
252.4105386116672
 30
0.0
 10
320.3024578335411
 20
252.2030048998032
 30
0.0
 10
320.2665495666991
 20
252.0913374795191
 30
0.0
 10
320.1819713446024
 20
251.9419627571652
 30
0.0
 10
320.1324837606065
 20
251.9024510215796
 30
0.0
 10
320.0786990944674
 20
251.9024510215796
 30
0.0
  0
LINE
  5
1D6918500B
330
1D69183399
100
AcDbEntity
  8
JISSEN
100
AcDbLine
 10
319.5477557545643
 20
258.4024510216105
 30
0.0
 11
320.7477557545641
 21
258.4024510216105
 31
0.0
  0
LINE
  5
1D6918500C
330
1D69183399
100
AcDbEntity
  8
JISSEN
100
AcDbLine
 10
318.1877479704007
 20
251.90245102161
 30
0.0
 11
320.0786990944676
 21
251.9024510216112
 31
0.0
  0
ARC
  5
1D6918500D
330
1D69183399
100
AcDbEntity
  8
JISSEN
100
AcDbCircle
 10
320.649250010864
 20
245.3963212592108
 30
0.0
 40
1.499999999999995
100
AcDbArc
 50
275.1815754690501
 51
278.0000000000402
  0
LINE
  5
1D6918500E
330
1D69183399
100
AcDbEntity
  8
JISSEN
 62
     0
 48
0.1
100
AcDbLine
 10
320.6426797355424
 20
251.9024510216087
 30
0.0
 11
320.7477557545641
 21
258.4024510216105
 31
0.0
  0
LINE
  5
1D6918500F
330
1D69183399
100
AcDbEntity
  8
JISSEN
100
AcDbLine
 10
320.7847185061643
 20
243.9024510216105
 30
0.0
 11
304.0477557545652
 21
243.9024510216087
 31
0.0
  0
LINE
  5
1D69185010
330
1D69183399
100
AcDbEntity
  8
JISSEN
100
AcDbLine
 10
309.3983352729225
 20
258.4024510216105
 30
0.0
 11
314.7823088363797
 21
258.4024510216105
 31
0.0
  0
LINE
  5
1D69185011
330
1D69183399
100
AcDbEntity
  8
JISSEN
100
AcDbLine
 10
334.8261019564947
 20
245.8740065063155
 30
0.0
 11
320.8580096622633
 21
243.9109191560102
 31
0.0
  0
LINE
  5
1D69185012
330
1D69183399
100
AcDbEntity
  8
JISSEN
100
AcDbLine
 10
336.5477557545652
 20
251.9024510216087
 30
0.0
 11
304.0477557545652
 21
251.9024510216087
 31
0.0
  0
LINE
  5
1D69185013
330
1D69183399
100
AcDbEntity
  8
JISSEN
100
AcDbLine
 10
336.5477557545633
 20
251.9024510216087
 30
0.0
 11
336.5477557545634
 21
247.8545426438096
 31
0.0
  0
ARC
  5
1D69185014
330
1D69183399
100
AcDbEntity
  8
JISSEN
100
AcDbCircle
 10
334.5477557545625
 20
247.8545426438096
 30
0.0
 40
2.0
100
AcDbArc
 50
278.0000000000402
 51
0.000000000000007
  0
TEXT
  5
1D69185015
330
1D69183399
100
AcDbEntity
  8
SUNPOU
100
AcDbText
 10
276.5111474974846
 20
229.9156907732669
 30
0.0
 40
3.0
  1
シーリングプレートK+5mm
  7
K
100
AcDbText
  0
TEXT
  5
1D69185016
330
1D69183399
100
AcDbEntity
  8
SUNPOU
100
AcDbText
 10
231.2611477474846
 20
172.9867613015836
 30
0.0
 40
3.0
  1
シーリングプレートK+10mm
  7
K
100
AcDbText
  0
TEXT
  5
1D69185017
330
1D69183399
100
AcDbEntity
  8
SUNPOU
100
AcDbText
 10
231.2611477474846
 20
105.4640184621375
 30
0.0
 40
3.0
  1
シーリングプレートK+20mm
  7
K
100
AcDbText
  0
TEXT
  5
1D69185018
330
1D69183399
100
AcDbEntity
  8
SUNPOU
100
AcDbText
 10
231.2611477474846
 20
25.3539067181448
 30
0.0
 40
3.0
  1
シーリングプレートK+30mm
  7
K
100
AcDbText
  0
TEXT
  5
1D69185019
330
1D69183399
100
AcDbEntity
  8
SUNPOU
100
AcDbText
 10
321.7611472474847
 20
25.3539067181448
 30
0.0
 40
3.0
  1
シーリングプレートK+35mm
  7
K
100
AcDbText
  0
TEXT
  5
1D6918501A
330
1D69183399
100
AcDbEntity
  8
SUNPOU
100
AcDbText
 10
321.7611472474847
 20
105.4640184621375
 30
0.0
 40
3.0
  1
シーリングプレートK+25mm
  7
K
100
AcDbText
  0
TEXT
  5
1D6918501B
330
1D69183399
100
AcDbEntity
  8
SUNPOU
100
AcDbText
 10
321.7611472474847
 20
172.9867613015836
 30
0.0
 40
3.0
  1
シーリングプレートK+15mm
  7
K
100
AcDbText
  0
LINE
  5
1D691850F1
330
1D69183399
100
AcDbEntity
  8
TENSEN
100
AcDbLine
 10
336.3065967203517
 20
246.9024510216106
 30
0.0
 11
271.7889147887769
 21
246.9024510216105
 31
0.0
  0
LINE
  5
1D691850F2
330
1D69183399
100
AcDbEntity
  8
TENSEN
100
AcDbLine
 10
290.8065969703499
 20
189.9735216617278
 30
0.0
 11
226.2889150387751
 21
189.9735216617277
 31
0.0
  0
LINE
  5
1D691850F3
330
1D69183399
100
AcDbEntity
  8
TENSEN
100
AcDbLine
 10
381.3065964703499
 20
189.9735216617278
 30
0.0
 11
316.788914538775
 21
189.9735216617277
 31
0.0
  0
LINE
  5
1D691850F4
330
1D69183399
100
AcDbEntity
  8
TENSEN
100
AcDbLine
 10
381.3065964703572
 20
122.9585677177548
 30
0.0
 11
316.7889145387823
 21
122.9585677177547
 31
0.0
  0
LINE
  5
1D691850F5
330
1D69183399
100
AcDbEntity
  8
TENSEN
100
AcDbLine
 10
290.8065969703571
 20
122.9585677177548
 30
0.0
 11
226.2889150387823
 21
122.9585677177547
 31
0.0
  0
LINE
  5
1D691850F6
330
1D69183399
100
AcDbEntity
  8
TENSEN
100
AcDbLine
 10
290.8065969703653
 20
42.84845597376204
 30
0.0
 11
226.2889150387905
 21
42.84845597376192
 31
0.0
  0
LINE
  5
1D691850F7
330
1D69183399
100
AcDbEntity
  8
TENSEN
100
AcDbLine
 10
381.3065964703653
 20
42.84845597376204
 30
0.0
 11
316.7889145387905
 21
42.84845597376192
 31
0.0
  0
ENDSEC
  0
SECTION
  2
OBJECTS
  0
DICTIONARY
  5
1D6918338D
330
0
100
AcDbDictionary
281
     1
  3
ACAD_GROUP
350
1D6918338E
  3
ACAD_LAYOUT
350
1D691837E6
  3
ACAD_MLINESTYLE
350
1D6918338F
  3
ACAD_PLOTSETTINGS
350
1D691837E7
  3
ACAD_PLOTSTYLENAME
350
1D691837E4
  3
ACDBHEADERROUNDTRIPXREC
350
1D69185102
  3
ACDBVARIABLEDICTIONARY
350
1D69183DB9
  0
DICTIONARY
  5
1D69183E05
330
1D69183383
100
AcDbDictionary
280
     1
281
     1
  3
ACAD_LAYERFILTERS
360
1D6918414C
  3
ACAD_LAYERSTATES
360
1D69183E06
  0
DICTIONARY
  5
1D69183A5C
330
1D69183399
100
AcDbDictionary
280
     1
281
     1
  3
ACAD_LAYOUTSELFREF
360
1D69184133
  0
DICTIONARY
  5
1D69183A5A
330
1D69183396
100
AcDbDictionary
280
     1
281
     1
  3
ACAD_LAYOUTSELFREF
360
1D69184132
  0
DICTIONARY
  5
1D6918338E
102
{ACAD_REACTORS
330
1D6918338D
102
}
330
1D6918338D
100
AcDbDictionary
281
     1
  0
DICTIONARY
  5
1D691837E6
102
{ACAD_REACTORS
330
1D6918338D
102
}
330
1D6918338D
100
AcDbDictionary
281
     1
  3
Model
350
1D69184138
  3
ﾚｲｱｳﾄ1
350
1D69184139
  0
DICTIONARY
  5
1D6918338F
102
{ACAD_REACTORS
330
1D6918338D
102
}
330
1D6918338D
100
AcDbDictionary
281
     1
  3
STANDARD
350
1D6918339C
  0
DICTIONARY
  5
1D691837E7
102
{ACAD_REACTORS
330
1D6918338D
102
}
330
1D6918338D
100
AcDbDictionary
281
     1
  0
ACDBDICTIONARYWDFLT
  5
1D691837E4
102
{ACAD_REACTORS
330
1D6918338D
102
}
330
1D6918338D
100
AcDbDictionary
281
     1
  3
Normal
350
1D691837E5
100
AcDbDictionaryWithDefault
340
1D691837E5
  0
DICTIONARY
  5
1D69185102
102
{ACAD_REACTORS
330
1D6918338D
102
}
330
1D6918338D
100
AcDbDictionary
281
     1
  3
CEPSNTYPE
350
1D6918510C
  3
DIMSTYLEDATA
350
1D69185110
  3
FINGERPRINTGUID
350
1D6918510D
  3
HYPERLINKBASE
350
1D69185105
  3
INSUNITS
350
1D6918510B
  3
LAYOUTDICT
350
1D69185107
  3
LWETCUNION
350
1D6918510A
  3
PLOTSETDICT
350
1D69185108
  3
PLOTSTYLNAMDICT
350
1D69185109
  3
PSVPSCALE
350
1D6918510F
  3
PUCSBASE
350
1D69185113
  3
PUCSORGBACK
350
1D69185119
  3
PUCSORGBOTTOM
350
1D69185115
  3
PUCSORGFRONT
350
1D69185118
  3
PUCSORGLEFT
350
1D69185116
  3
PUCSORGRIGHT
350
1D69185117
  3
PUCSORGTOP
350
1D69185114
  3
PUCSORTHOREF
350
1D69185111
  3
PUCSORTHOVIEW
350
1D69185112
  3
STYLESHEET
350
1D69185106
  3
TSTACKALIGN
350
1D69185103
  3
TSTACKSIZE
350
1D69185104
  3
UCSBASE
350
1D6918511C
  3
UCSORGBACK
350
1D69185122
  3
UCSORGBOTTOM
350
1D6918511E
  3
UCSORGFRONT
350
1D69185121
  3
UCSORGLEFT
350
1D6918511F
  3
UCSORGRIGHT
350
1D69185120
  3
UCSORGTOP
350
1D6918511D
  3
UCSORTHOREF
350
1D6918511A
  3
UCSORTHOVIEW
350
1D6918511B
  3
VERSIONGUID
350
1D6918510E
  0
DICTIONARY
  5
1D69183DB9
102
{ACAD_REACTORS
330
1D6918338D
102
}
330
1D6918338D
100
AcDbDictionary
281
     1
  3
DIMASSOC
350
1D69183DBA
  0
DICTIONARY
  5
1D6918414C
102
{ACAD_REACTORS
330
1D69183E05
102
}
330
1D69183E05
100
AcDbDictionary
280
     1
281
     1
  3
0
360
1D6918414D
  3
0-0
360
1D6918414E
  3
10画層
360
1D6918414F
  3
2
360
1D69184150
  3
3
360
1D69184151
  3
3A
360
1D69184152
  3
4
360
1D69184153
  3
5画層
360
1D69184154
  3
6画層
360
1D69184155
  3
7
360
1D69184156
  3
7a画層
360
1D69184157
  3
8
360
1D69184158
  3
ASYST
360
1D69184159
  3
ASYST PHASE 1
360
1D6918415A
  3
ASYST PHASE 2
360
1D6918415B
  3
cap-0
360
1D6918415C
  3
dims
360
1D6918415D
  3
elec
360
1D6918415E
  3
ELECTRICAL
360
1D6918415F
  3
F
360
1D69184160
  3
Frame
360
1D69184161
  3
FROZEN
360
1D69184162
  3
FROZEN ACTIVE
360
1D69184163
  3
jiku-0
360
1D69184164
  3
MP
360
1D69184165
  3
MPR
360
1D69184166
  3
p-
360
1D69184167
  3
ST
360
1D69184168
  3
TC
360
1D69184169
  3
TEXT
360
1D6918416A
  3
ｹｰﾌﾞﾙ図
360
1D6918416B
  3
０画層
360
1D6918416C
  3
３A画層
360
1D6918416D
  3
３画層
360
1D6918416E
  0
DICTIONARY
  5
1D69183E06
102
{ACAD_REACTORS
330
1D69183E05
102
}
330
1D69183E05
100
AcDbDictionary
281
     1
  0
XRECORD
  5
1D69184133
102
{ACAD_REACTORS
330
1D69183A5C
102
}
330
1D69183A5C
100
AcDbXrecord
280
     1
340
1D69183399
  0
XRECORD
  5
1D69184132
102
{ACAD_REACTORS
330
1D69183A5A
102
}
330
1D69183A5A
100
AcDbXrecord
280
     1
340
1D69183396
  0
LAYOUT
  5
1D69184138
102
{ACAD_REACTORS
330
1D691837E6
102
}
330
1D691837E6
100
AcDbPlotSettings
  1

  2
\\Nt_honsya\GL-8300A
  4

  6

 40
0.0
 41
0.0
 42
0.0
 43
0.0
 44
0.0
 45
0.0
 46
0.0
 47
0.0
 48
0.0
 49
0.0
140
0.0
141
0.0
142
1.0
143
1.0
 70
  1712
 72
     0
 73
     0
 74
     0
  7

 75
     0
147
1.0
148
0.0
149
0.0
100
AcDbLayout
  1
Model
 70
     1
 71
     0
 10
0.0
 20
0.0
 11
12.0
 21
9.0
 12
0.0
 22
0.0
 32
0.0
 14
0.0
 24
0.0
 34
0.0
 15
0.0
 25
0.0
 35
0.0
146
0.0
 13
0.0
 23
0.0
 33
0.0
 16
1.0
 26
0.0
 36
0.0
 17
0.0
 27
1.0
 37
0.0
 76
     0
330
1D69183399
  0
LAYOUT
  5
1D69184139
102
{ACAD_REACTORS
330
1D691837E6
102
}
330
1D691837E6
100
AcDbPlotSettings
  1

  2
\\Nt_honsya\GL-8300A
  4

  6

 40
0.0
 41
0.0
 42
0.0
 43
0.0
 44
0.0
 45
0.0
 46
0.0
 47
0.0
 48
0.0
 49
0.0
140
0.0
141
0.0
142
1.0
143
1.0
 70
   688
 72
     0
 73
     0
 74
     5
  7

 75
    16
147
1.0
148
0.0
149
0.0
100
AcDbLayout
  1
ﾚｲｱｳﾄ1
 70
     0
 71
     1
 10
0.0
 20
0.0
 11
12.0
 21
9.0
 12
0.0
 22
0.0
 32
0.0
 14
1.000000000000000E+20
 24
1.000000000000000E+20
 34
1.000000000000000E+20
 15
-1.000000000000000E+20
 25
-1.000000000000000E+20
 35
-1.000000000000000E+20
146
0.0
 13
0.0
 23
0.0
 33
0.0
 16
1.0
 26
0.0
 36
0.0
 17
0.0
 27
1.0
 37
0.0
 76
     0
330
1D69183396
  0
MLINESTYLE
  5
1D6918339C
102
{ACAD_REACTORS
330
1D6918338F
102
}
330
1D6918338F
100
AcDbMlineStyle
  2
STANDARD
 70
     0
  3

 62
     0
 51
90.0
 52
90.0
 71
     2
 49
0.5
 62
   256
  6
BYLAYER
 49
-0.5
 62
   256
  6
BYLAYER
  0
ACDBPLACEHOLDER
  5
1D691837E5
102
{ACAD_REACTORS
330
1D691837E4
102
}
330
1D691837E4
  0
XRECORD
  5
1D6918510C
102
{ACAD_REACTORS
330
1D69185102
102
}
330
1D69185102
100
AcDbXrecord
280
     1
 90
        0
  0
XRECORD
  5
1D69185110
102
{ACAD_REACTORS
330
1D69185102
102
}
330
1D69185102
100
AcDbXrecord
280
     1
1000
DSTYLE
1002
{
1070
   341
340
1D691833A3
1070
   342
340
1D691833A3
1070
   343
340
1D691833A3
1070
   344
340
1D691833A3
1002
}
  0
XRECORD
  5
1D6918510D
102
{ACAD_REACTORS
330
1D69185102
102
}
330
1D69185102
100
AcDbXrecord
280
     1
  1
{9E4523D2-8DA8-438B-B789-0D080F5E267A}
  0
XRECORD
  5
1D69185105
102
{ACAD_REACTORS
330
1D69185102
102
}
330
1D69185102
100
AcDbXrecord
280
     1
  1

  0
XRECORD
  5
1D6918510B
102
{ACAD_REACTORS
330
1D69185102
102
}
330
1D69185102
100
AcDbXrecord
280
     1
 90
        0
  0
XRECORD
  5
1D69185107
102
{ACAD_REACTORS
330
1D69185102
102
}
330
1D69185102
100
AcDbXrecord
280
     1
340
1D691837E6
  0
XRECORD
  5
1D6918510A
102
{ACAD_REACTORS
330
1D69185102
102
}
330
1D69185102
100
AcDbXrecord
280
     1
 90
    10781
  0
XRECORD
  5
1D69185108
102
{ACAD_REACTORS
330
1D69185102
102
}
330
1D69185102
100
AcDbXrecord
280
     1
340
1D691837E7
  0
XRECORD
  5
1D69185109
102
{ACAD_REACTORS
330
1D69185102
102
}
330
1D69185102
100
AcDbXrecord
280
     1
340
1D691837E4
  0
XRECORD
  5
1D6918510F
102
{ACAD_REACTORS
330
1D69185102
102
}
330
1D69185102
100
AcDbXrecord
280
     1
 40
0.0
  0
XRECORD
  5
1D69185113
102
{ACAD_REACTORS
330
1D69185102
102
}
330
1D69185102
100
AcDbXrecord
280
     1
340
0
  0
XRECORD
  5
1D69185119
102
{ACAD_REACTORS
330
1D69185102
102
}
330
1D69185102
100
AcDbXrecord
280
     1
 10
0.0
 20
0.0
 30
0.0
  0
XRECORD
  5
1D69185115
102
{ACAD_REACTORS
330
1D69185102
102
}
330
1D69185102
100
AcDbXrecord
280
     1
 10
0.0
 20
0.0
 30
0.0
  0
XRECORD
  5
1D69185118
102
{ACAD_REACTORS
330
1D69185102
102
}
330
1D69185102
100
AcDbXrecord
280
     1
 10
0.0
 20
0.0
 30
0.0
  0
XRECORD
  5
1D69185116
102
{ACAD_REACTORS
330
1D69185102
102
}
330
1D69185102
100
AcDbXrecord
280
     1
 10
0.0
 20
0.0
 30
0.0
  0
XRECORD
  5
1D69185117
102
{ACAD_REACTORS
330
1D69185102
102
}
330
1D69185102
100
AcDbXrecord
280
     1
 10
0.0
 20
0.0
 30
0.0
  0
XRECORD
  5
1D69185114
102
{ACAD_REACTORS
330
1D69185102
102
}
330
1D69185102
100
AcDbXrecord
280
     1
 10
0.0
 20
0.0
 30
0.0
  0
XRECORD
  5
1D69185111
102
{ACAD_REACTORS
330
1D69185102
102
}
330
1D69185102
100
AcDbXrecord
280
     1
340
0
  0
XRECORD
  5
1D69185112
102
{ACAD_REACTORS
330
1D69185102
102
}
330
1D69185102
100
AcDbXrecord
280
     1
 70
     0
  0
XRECORD
  5
1D69185106
102
{ACAD_REACTORS
330
1D69185102
102
}
330
1D69185102
100
AcDbXrecord
280
     1
  1

  0
XRECORD
  5
1D69185103
102
{ACAD_REACTORS
330
1D69185102
102
}
330
1D69185102
100
AcDbXrecord
280
     1
 90
        1
  0
XRECORD
  5
1D69185104
102
{ACAD_REACTORS
330
1D69185102
102
}
330
1D69185102
100
AcDbXrecord
280
     1
 90
       70
  0
XRECORD
  5
1D6918511C
102
{ACAD_REACTORS
330
1D69185102
102
}
330
1D69185102
100
AcDbXrecord
280
     1
340
0
  0
XRECORD
  5
1D69185122
102
{ACAD_REACTORS
330
1D69185102
102
}
330
1D69185102
100
AcDbXrecord
280
     1
 10
0.0
 20
0.0
 30
0.0
  0
XRECORD
  5
1D6918511E
102
{ACAD_REACTORS
330
1D69185102
102
}
330
1D69185102
100
AcDbXrecord
280
     1
 10
0.0
 20
0.0
 30
0.0
  0
XRECORD
  5
1D69185121
102
{ACAD_REACTORS
330
1D69185102
102
}
330
1D69185102
100
AcDbXrecord
280
     1
 10
0.0
 20
0.0
 30
0.0
  0
XRECORD
  5
1D6918511F
102
{ACAD_REACTORS
330
1D69185102
102
}
330
1D69185102
100
AcDbXrecord
280
     1
 10
0.0
 20
0.0
 30
0.0
  0
XRECORD
  5
1D69185120
102
{ACAD_REACTORS
330
1D69185102
102
}
330
1D69185102
100
AcDbXrecord
280
     1
 10
0.0
 20
0.0
 30
0.0
  0
XRECORD
  5
1D6918511D
102
{ACAD_REACTORS
330
1D69185102
102
}
330
1D69185102
100
AcDbXrecord
280
     1
 10
0.0
 20
0.0
 30
0.0
  0
XRECORD
  5
1D6918511A
102
{ACAD_REACTORS
330
1D69185102
102
}
330
1D69185102
100
AcDbXrecord
280
     1
340
0
  0
XRECORD
  5
1D6918511B
102
{ACAD_REACTORS
330
1D69185102
102
}
330
1D69185102
100
AcDbXrecord
280
     1
 70
     0
  0
XRECORD
  5
1D6918510E
102
{ACAD_REACTORS
330
1D69185102
102
}
330
1D69185102
100
AcDbXrecord
280
     1
  1
{2E16100E-B697-4537-AE38-3A23EF44DF20}
  0
DICTIONARYVAR
  5
1D69183DBA
102
{ACAD_REACTORS
330
1D69183DB9
102
}
330
1D69183DB9
100
DictionaryVariables
280
     0
  1
0
  0
XRECORD
  5
1D6918414D
102
{ACAD_REACTORS
330
1D6918414C
102
}
330
1D6918414C
100
AcDbXrecord
280
     1
  1
0
  1
*-0
  1
*
  1
*
 70
     0
  1
*
  1
*
  0
XRECORD
  5
1D6918414E
102
{ACAD_REACTORS
330
1D6918414C
102
}
330
1D6918414C
100
AcDbXrecord
280
     1
  1
0-0
  1
*-0
  1
*
  1
*
 70
     0
  1
*
  1
*
  0
XRECORD
  5
1D6918414F
102
{ACAD_REACTORS
330
1D6918414C
102
}
330
1D6918414C
100
AcDbXrecord
280
     1
  1
10画層
  1
*-10
  1
*
  1
*
 70
     0
  1
*
  1
*
  0
XRECORD
  5
1D69184150
102
{ACAD_REACTORS
330
1D6918414C
102
}
330
1D6918414C
100
AcDbXrecord
280
     1
  1
2
  1
*-2
  1
*
  1
*
 70
     0
  1
*
  1
*
  0
XRECORD
  5
1D69184151
102
{ACAD_REACTORS
330
1D6918414C
102
}
330
1D6918414C
100
AcDbXrecord
280
     1
  1
3
  1
*-3
  1
*
  1
*
 70
     0
  1
*
  1
*
  0
XRECORD
  5
1D69184152
102
{ACAD_REACTORS
330
1D6918414C
102
}
330
1D6918414C
100
AcDbXrecord
280
     1
  1
3A
  1
*-3A
  1
*
  1
*
 70
     0
  1
*
  1
*
  0
XRECORD
  5
1D69184153
102
{ACAD_REACTORS
330
1D6918414C
102
}
330
1D6918414C
100
AcDbXrecord
280
     1
  1
4
  1
*-4
  1
*
  1
*
 70
     0
  1
*
  1
*
  0
XRECORD
  5
1D69184154
102
{ACAD_REACTORS
330
1D6918414C
102
}
330
1D6918414C
100
AcDbXrecord
280
     1
  1
5画層
  1
*-5
  1
*
  1
*
 70
     0
  1
*
  1
*
  0
XRECORD
  5
1D69184155
102
{ACAD_REACTORS
330
1D6918414C
102
}
330
1D6918414C
100
AcDbXrecord
280
     1
  1
6画層
  1
*-6
  1
*
  1
*
 70
     0
  1
*
  1
*
  0
XRECORD
  5
1D69184156
102
{ACAD_REACTORS
330
1D6918414C
102
}
330
1D6918414C
100
AcDbXrecord
280
     1
  1
7
  1
*-7*
  1
*
  1
*
 70
     0
  1
*
  1
*
  0
XRECORD
  5
1D69184157
102
{ACAD_REACTORS
330
1D6918414C
102
}
330
1D6918414C
100
AcDbXrecord
280
     1
  1
7a画層
  1
*-7a
  1
*
  1
*
 70
     0
  1
*
  1
*
  0
XRECORD
  5
1D69184158
102
{ACAD_REACTORS
330
1D6918414C
102
}
330
1D6918414C
100
AcDbXrecord
280
     1
  1
8
  1
*-8,8
  1
*
  1
*
 70
     0
  1
*
  1
*
  0
XRECORD
  5
1D69184159
102
{ACAD_REACTORS
330
1D6918414C
102
}
330
1D6918414C
100
AcDbXrecord
280
     1
  1
ASYST
  1
ASYST*
  1
*
  1
*
 70
     0
  1
*
  1
*
  0
XRECORD
  5
1D6918415A
102
{ACAD_REACTORS
330
1D6918414C
102
}
330
1D6918414C
100
AcDbXrecord
280
     1
  1
ASYST PHASE 1
  1
A1.0-8$0$ASYT*
  1
*
  1
*
 70
     0
  1
*
  1
*
  0
XRECORD
  5
1D6918415B
102
{ACAD_REACTORS
330
1D6918414C
102
}
330
1D6918414C
100
AcDbXrecord
280
     1
  1
ASYST PHASE 2
  1
A2.0-8$0$ASYT*
  1
*
  1
*
 70
     0
  1
*
  1
*
  0
XRECORD
  5
1D6918415C
102
{ACAD_REACTORS
330
1D6918414C
102
}
330
1D6918414C
100
AcDbXrecord
280
     1
  1
cap-0
  1
*
  1
*
  1
*
 70
     0
  1
*
  1
*
  0
XRECORD
  5
1D6918415D
102
{ACAD_REACTORS
330
1D6918414C
102
}
330
1D6918414C
100
AcDbXrecord
280
     1
  1
dims
  1
*di*
  1
*
  1
*
 70
     0
  1
*
  1
*
  0
XRECORD
  5
1D6918415E
102
{ACAD_REACTORS
330
1D6918414C
102
}
330
1D6918414C
100
AcDbXrecord
280
     1
  1
elec
  1
e-*
  1
*
  1
*
 70
     0
  1
*
  1
*
  0
XRECORD
  5
1D6918415F
102
{ACAD_REACTORS
330
1D6918414C
102
}
330
1D6918414C
100
AcDbXrecord
280
     1
  1
ELECTRICAL
  1
E-*
  1
*
  1
*
 70
     0
  1
*
  1
*
  0
XRECORD
  5
1D69184160
102
{ACAD_REACTORS
330
1D6918414C
102
}
330
1D6918414C
100
AcDbXrecord
280
     1
  1
F
  1
*
  1
*
  1
*
 70
     0
  1
*
  1
*
  0
XRECORD
  5
1D69184161
102
{ACAD_REACTORS
330
1D6918414C
102
}
330
1D6918414C
100
AcDbXrecord
280
     1
  1
Frame
  1
F*
  1
*
  1
*
 70
     0
  1
*
  1
*
  0
XRECORD
  5
1D69184162
102
{ACAD_REACTORS
330
1D6918414C
102
}
330
1D6918414C
100
AcDbXrecord
280
     1
  1
FROZEN
  1
*
  1
*
  1
*
 70
     4
  1
*
  1
*
  0
XRECORD
  5
1D69184163
102
{ACAD_REACTORS
330
1D6918414C
102
}
330
1D6918414C
100
AcDbXrecord
280
     1
  1
FROZEN ACTIVE
  1
*
  1
*
  1
*
 70
    16
  1
*
  1
*
  0
XRECORD
  5
1D69184164
102
{ACAD_REACTORS
330
1D6918414C
102
}
330
1D6918414C
100
AcDbXrecord
280
     1
  1
jiku-0
  1
*
  1
*
  1
*
 70
     0
  1
*
  1
*
  0
XRECORD
  5
1D69184165
102
{ACAD_REACTORS
330
1D6918414C
102
}
330
1D6918414C
100
AcDbXrecord
280
     1
  1
MP
  1
MP_*
  1
*
  1
*
 70
     0
  1
*
  1
*
  0
XRECORD
  5
1D69184166
102
{ACAD_REACTORS
330
1D6918414C
102
}
330
1D6918414C
100
AcDbXrecord
280
     1
  1
MPR
  1
MPR*
  1
*
  1
*
 70
     0
  1
*
  1
*
  0
XRECORD
  5
1D69184167
102
{ACAD_REACTORS
330
1D6918414C
102
}
330
1D6918414C
100
AcDbXrecord
280
     1
  1
p-
  1
p-*
  1
*
  1
*
 70
     0
  1
*
  1
*
  0
XRECORD
  5
1D69184168
102
{ACAD_REACTORS
330
1D6918414C
102
}
330
1D6918414C
100
AcDbXrecord
280
     1
  1
ST
  1
ST_*
  1
*
  1
*
 70
     0
  1
*
  1
*
  0
XRECORD
  5
1D69184169
102
{ACAD_REACTORS
330
1D6918414C
102
}
330
1D6918414C
100
AcDbXrecord
280
     1
  1
TC
  1
TC_*,0N
  1
*
  1
*
 70
     0
  1
*
  1
*
  0
XRECORD
  5
1D6918416A
102
{ACAD_REACTORS
330
1D6918414C
102
}
330
1D6918414C
100
AcDbXrecord
280
     1
  1
TEXT
  1
TEXT
  1
*
  1
*
 70
     0
  1
*
  1
*
  0
XRECORD
  5
1D6918416B
102
{ACAD_REACTORS
330
1D6918414C
102
}
330
1D6918414C
100
AcDbXrecord
280
     1
  1
ｹｰﾌﾞﾙ図
  1
*
  1
*
  1
*
 70
     0
  1
*
  1
*
  0
XRECORD
  5
1D6918416C
102
{ACAD_REACTORS
330
1D6918414C
102
}
330
1D6918414C
100
AcDbXrecord
280
     1
  1
０画層
  1
*-0
  1
*
  1
*
 70
     0
  1
*
  1
*
  0
XRECORD
  5
1D6918416D
102
{ACAD_REACTORS
330
1D6918414C
102
}
330
1D6918414C
100
AcDbXrecord
280
     1
  1
３A画層
  1
*-3A
  1
*
  1
*
 70
     0
  1
*
  1
*
  0
XRECORD
  5
1D6918416E
102
{ACAD_REACTORS
330
1D6918414C
102
}
330
1D6918414C
100
AcDbXrecord
280
     1
  1
３画層
  1
*-3
  1
*
  1
*
 70
     0
  1
*
  1
*
  0
ENDSEC
  0
EOF
