  0
SECTION
  2
HEADER
  9
$ACADVER
  1
AC1015
  9
$ACADMAINTVER
 70
    10
  9
$DWGCODEPAGE
  3
ANSI_932
  9
$INSBASE
 10
0.0
 20
0.0
 30
0.0
  9
$EXTMIN
 10
0.0000004025043836
 20
0.0000000799905138
 30
0.0
  9
$EXTMAX
 10
180.9999996785047
 20
273.0000000799905
 30
0.0
  9
$LIMMIN
 10
0.0000004025043836
 20
0.0000000799905138
  9
$LIMMAX
 10
180.9999996785047
 20
273.0000000799905
  9
$ORTHOMODE
 70
     1
  9
$REGENMODE
 70
     1
  9
$FILLMODE
 70
     1
  9
$QTEXTMODE
 70
     0
  9
$MIRRTEXT
 70
     0
  9
$LTSCALE
 40
5.0
  9
$ATTMODE
 70
     1
  9
$TEXTSIZE
 40
6.0
  9
$TRACEWID
 40
0.05
  9
$TEXTSTYLE
  7
K
  9
$CLAYER
  8
JISSEN
  9
$CELTYPE
  6
BYLAYER
  9
$CECOLOR
 62
   256
  9
$CELTSCALE
 40
1.0
  9
$DISPSILH
 70
     0
  9
$DIMSCALE
 40
1.0
  9
$DIMASZ
 40
1.099999999999998
  9
$DIMEXO
 40
1.0
  9
$DIMDLI
 40
6.0
  9
$DIMRND
 40
0.0
  9
$DIMDLE
 40
0.0
  9
$DIMEXE
 40
1.0
  9
$DIMTP
 40
0.0
  9
$DIMTM
 40
0.0
  9
$DIMTXT
 40
3.0
  9
$DIMCEN
 40
1.0
  9
$DIMTSZ
 40
0.0
  9
$DIMTOL
 70
     0
  9
$DIMLIM
 70
     0
  9
$DIMTIH
 70
     0
  9
$DIMTOH
 70
     0
  9
$DIMSE1
 70
     0
  9
$DIMSE2
 70
     0
  9
$DIMTAD
 70
     0
  9
$DIMZIN
 70
     8
  9
$DIMBLK
  1
ARROW
  9
$DIMASO
 70
     0
  9
$DIMSHO
 70
     0
  9
$DIMPOST
  1

  9
$DIMAPOST
  1

  9
$DIMALT
 70
     0
  9
$DIMALTD
 70
     2
  9
$DIMALTF
 40
25.4
  9
$DIMLFAC
 40
1.0
  9
$DIMTOFL
 70
     1
  9
$DIMTVP
 40
1.0
  9
$DIMTIX
 70
     0
  9
$DIMSOXD
 70
     0
  9
$DIMSAH
 70
     0
  9
$DIMBLK1
  1

  9
$DIMBLK2
  1

  9
$DIMSTYLE
  2
IMAO
  9
$DIMCLRD
 70
     0
  9
$DIMCLRE
 70
     0
  9
$DIMCLRT
 70
     0
  9
$DIMTFAC
 40
1.0
  9
$DIMGAP
 40
0.09
  9
$DIMJUST
 70
     0
  9
$DIMSD1
 70
     0
  9
$DIMSD2
 70
     0
  9
$DIMTOLJ
 70
     1
  9
$DIMTZIN
 70
     0
  9
$DIMALTZ
 70
     0
  9
$DIMALTTZ
 70
     0
  9
$DIMUPT
 70
     0
  9
$DIMDEC
 70
     2
  9
$DIMTDEC
 70
     2
  9
$DIMALTU
 70
     2
  9
$DIMALTTD
 70
     2
  9
$DIMTXSTY
  7
STANDARD
  9
$DIMAUNIT
 70
     0
  9
$DIMADEC
 70
     0
  9
$DIMALTRND
 40
0.0
  9
$DIMAZIN
 70
     0
  9
$DIMDSEP
 70
    46
  9
$DIMATFIT
 70
     3
  9
$DIMFRAC
 70
     0
  9
$DIMLDRBLK
  1
ARROW
  9
$DIMLUNIT
 70
     2
  9
$DIMLWD
 70
    -2
  9
$DIMLWE
 70
    -2
  9
$DIMTMOVE
 70
     0
  9
$LUNITS
 70
     2
  9
$LUPREC
 70
     2
  9
$SKETCHINC
 40
0.1
  9
$FILLETRAD
 40
0.3
  9
$AUNITS
 70
     0
  9
$AUPREC
 70
     2
  9
$MENU
  1
stdr12j
  9
$ELEVATION
 40
0.0
  9
$PELEVATION
 40
0.0
  9
$THICKNESS
 40
0.0
  9
$LIMCHECK
 70
     0
  9
$CHAMFERA
 40
0.0
  9
$CHAMFERB
 40
0.0
  9
$CHAMFERC
 40
0.0
  9
$CHAMFERD
 40
0.0
  9
$SKPOLY
 70
     0
  9
$TDCREATE
 40
2450542.749144212
  9
$TDUCREATE
 40
2450542.374144212
  9
$TDUPDATE
 40
2456268.670216249
  9
$TDUUPDATE
 40
2456268.295216249
  9
$TDINDWG
 40
1.5085864468
  9
$TDUSRTIMER
 40
1.5085858681
  9
$USRTIMER
 70
     1
  9
$ANGBASE
 50
0.0
  9
$ANGDIR
 70
     0
  9
$PDMODE
 70
     0
  9
$PDSIZE
 40
0.0
  9
$PLINEWID
 40
0.0
  9
$SPLFRAME
 70
     0
  9
$SPLINETYPE
 70
     6
  9
$SPLINESEGS
 70
     8
  9
$HANDSEED
  5
E00EDA93
  9
$SURFTAB1
 70
     6
  9
$SURFTAB2
 70
     6
  9
$SURFTYPE
 70
     6
  9
$SURFU
 70
     6
  9
$SURFV
 70
     6
  9
$UCSBASE
  2

  9
$UCSNAME
  2

  9
$UCSORG
 10
0.0
 20
0.0
 30
0.0
  9
$UCSXDIR
 10
1.0
 20
0.0
 30
0.0
  9
$UCSYDIR
 10
0.0
 20
1.0
 30
0.0
  9
$UCSORTHOREF
  2

  9
$UCSORTHOVIEW
 70
     0
  9
$UCSORGTOP
 10
0.0
 20
0.0
 30
0.0
  9
$UCSORGBOTTOM
 10
0.0
 20
0.0
 30
0.0
  9
$UCSORGLEFT
 10
0.0
 20
0.0
 30
0.0
  9
$UCSORGRIGHT
 10
0.0
 20
0.0
 30
0.0
  9
$UCSORGFRONT
 10
0.0
 20
0.0
 30
0.0
  9
$UCSORGBACK
 10
0.0
 20
0.0
 30
0.0
  9
$PUCSBASE
  2

  9
$PUCSNAME
  2

  9
$PUCSORG
 10
0.0
 20
0.0
 30
0.0
  9
$PUCSXDIR
 10
1.0
 20
0.0
 30
0.0
  9
$PUCSYDIR
 10
0.0
 20
1.0
 30
0.0
  9
$PUCSORTHOREF
  2

  9
$PUCSORTHOVIEW
 70
     0
  9
$PUCSORGTOP
 10
0.0
 20
0.0
 30
0.0
  9
$PUCSORGBOTTOM
 10
0.0
 20
0.0
 30
0.0
  9
$PUCSORGLEFT
 10
0.0
 20
0.0
 30
0.0
  9
$PUCSORGRIGHT
 10
0.0
 20
0.0
 30
0.0
  9
$PUCSORGFRONT
 10
0.0
 20
0.0
 30
0.0
  9
$PUCSORGBACK
 10
0.0
 20
0.0
 30
0.0
  9
$USERI1
 70
     4
  9
$USERI2
 70
     1
  9
$USERI3
 70
     1
  9
$USERI4
 70
     2
  9
$USERI5
 70
     0
  9
$USERR1
 40
1.0
  9
$USERR2
 40
3.0
  9
$USERR3
 40
3.0
  9
$USERR4
 40
1.5
  9
$USERR5
 40
8.0
  9
$WORLDVIEW
 70
     1
  9
$SHADEDGE
 70
     3
  9
$SHADEDIF
 70
    70
  9
$TILEMODE
 70
     1
  9
$MAXACTVP
 70
    16
  9
$PINSBASE
 10
0.0
 20
0.0
 30
0.0
  9
$PLIMCHECK
 70
     0
  9
$PEXTMIN
 10
1.000000000000000E+20
 20
1.000000000000000E+20
 30
1.000000000000000E+20
  9
$PEXTMAX
 10
-1.000000000000000E+20
 20
-1.000000000000000E+20
 30
-1.000000000000000E+20
  9
$PLIMMIN
 10
0.0
 20
0.0
  9
$PLIMMAX
 10
12.0
 20
9.0
  9
$UNITMODE
 70
     0
  9
$VISRETAIN
 70
     0
  9
$PLINEGEN
 70
     0
  9
$PSLTSCALE
 70
     0
  9
$TREEDEPTH
 70
  3020
  9
$CMLSTYLE
  2
STANDARD
  9
$CMLJUST
 70
     0
  9
$CMLSCALE
 40
1.0
  9
$PROXYGRAPHICS
 70
     1
  9
$MEASUREMENT
 70
     0
  9
$CELWEIGHT
370
    -1
  9
$ENDCAPS
280
     0
  9
$JOINSTYLE
280
     0
  9
$LWDISPLAY
290
     0
  9
$INSUNITS
 70
     0
  9
$HYPERLINKBASE
  1

  9
$STYLESHEET
  1
aclt.ctb
  9
$XEDIT
290
     1
  9
$CEPSNTYPE
380
     0
  9
$PSTYLEMODE
290
     1
  9
$FINGERPRINTGUID
  2
{3644D75A-AD60-4D58-9D7E-D616B61E4E68}
  9
$VERSIONGUID
  2
{C9D0BB9D-B9E3-4857-9791-EEE368F549DA}
  9
$EXTNAMES
290
     1
  9
$PSVPSCALE
 40
0.0
  9
$OLESTARTUP
290
     0
  0
ENDSEC
  0
SECTION
  2
CLASSES
  0
CLASS
  1
LWPOLYLINE
  2
AcDbPolyline
  3
AutoCAD 2000
 90
    32768
280
     0
281
     1
  0
CLASS
  1
DICTIONARYVAR
  2
AcDbDictionaryVar
  3
AutoCAD 2000
 90
        0
280
     0
281
     0
  0
CLASS
  1
HATCH
  2
AcDbHatch
  3
AutoCAD 2000
 90
    32768
280
     0
281
     1
  0
CLASS
  1
ACDBDICTIONARYWDFLT
  2
AcDbDictionaryWithDefault
  3
AutoCAD 2000
 90
        0
280
     0
281
     0
  0
CLASS
  1
ACDBPLACEHOLDER
  2
AcDbPlaceHolder
  3
AutoCAD 2000
 90
        0
280
     0
281
     0
  0
CLASS
  1
LAYOUT
  2
AcDbLayout
  3
AutoCAD 2000
 90
        0
280
     0
281
     0
  0
CLASS
  1
LONG_TRANSACTION
  2
AcDbLongTransaction
  3
AutoCAD 2000
 90
    32768
280
     0
281
     0
  0
CLASS
  1
LWPOLYLINE
  2
AcDbPolyline
  3
AutoCAD 2000
 90
    32768
280
     0
281
     1
  0
CLASS
  1
HATCH
  2
AcDbHatch
  3
AutoCAD 2000
 90
    32768
280
     0
281
     1
  0
CLASS
  1
XRECORD
  2
AcDbXrecord
  3
AutoCAD 2000
 90
    32768
280
     0
281
     0
  0
ENDSEC
  0
SECTION
  2
TABLES
  0
TABLE
  2
VPORT
  5
E00DEA4D
330
0
100
AcDbSymbolTable
 70
    10
  0
VPORT
  5
E00DEA82
330
E00DEA4D
100
AcDbSymbolTableRecord
100
AcDbViewportTableRecord
  2
2
 70
     0
 10
0.5
 20
0.0
 11
1.0
 21
1.0
 12
0.9240312421264802
 22
1.052650975462765
 13
0.0
 23
0.0
 14
1.0
 24
1.0
 15
10.0
 25
10.0
 16
0.0
 26
0.0
 36
1.0
 17
0.0
 27
0.0
 37
0.0
 40
2.105301950925533
 41
0.8778135048231511
 42
50.0
 43
0.0
 44
0.0
 50
0.0
 51
0.0
 71
     0
 72
   500
 73
     1
 74
     1
 75
     0
 76
     0
 77
     0
 78
     0
281
     0
 65
     1
110
0.0
120
0.0
130
0.0
111
1.0
121
0.0
131
0.0
112
0.0
122
1.0
132
0.0
 79
     0
146
0.0
  0
VPORT
  5
E00DEA83
330
E00DEA4D
100
AcDbSymbolTableRecord
100
AcDbViewportTableRecord
  2
2
 70
     0
 10
0.0
 20
0.0
 11
0.5
 21
1.0
 12
0.9240312421264802
 22
1.052650975462765
 13
0.0
 23
0.0
 14
1.0
 24
1.0
 15
10.0
 25
10.0
 16
0.0
 26
0.0
 36
1.0
 17
0.0
 27
0.0
 37
0.0
 40
2.105301950925533
 41
0.8778135048231511
 42
50.0
 43
0.0
 44
0.0
 50
0.0
 51
0.0
 71
     0
 72
   500
 73
     1
 74
     1
 75
     0
 76
     0
 77
     0
 78
     0
281
     0
 65
     1
110
0.0
120
0.0
130
0.0
111
1.0
121
0.0
131
0.0
112
0.0
122
1.0
132
0.0
 79
     0
146
0.0
  0
VPORT
  5
E00DEA84
330
E00DEA4D
100
AcDbSymbolTableRecord
100
AcDbViewportTableRecord
  2
3
 70
     0
 10
0.0
 20
0.5
 11
1.0
 21
1.0
 12
2.832169994473273
 22
1.052650975462765
 13
0.0
 23
0.0
 14
1.0
 24
1.0
 15
10.0
 25
10.0
 16
0.0
 26
0.0
 36
1.0
 17
0.0
 27
0.0
 37
0.0
 40
2.105301950925533
 41
3.571428571428571
 42
50.0
 43
0.0
 44
0.0
 50
0.0
 51
0.0
 71
     0
 72
   500
 73
     1
 74
     1
 75
     0
 76
     0
 77
     0
 78
     0
281
     0
 65
     1
110
0.0
120
0.0
130
0.0
111
1.0
121
0.0
131
0.0
112
0.0
122
1.0
132
0.0
 79
     0
146
0.0
  0
VPORT
  5
E00DEA85
330
E00DEA4D
100
AcDbSymbolTableRecord
100
AcDbViewportTableRecord
  2
3
 70
     0
 10
0.0
 20
0.0
 11
1.0
 21
0.5
 12
2.856741679241311
 22
1.052650975462765
 13
0.0
 23
0.0
 14
1.0
 24
1.0
 15
10.0
 25
10.0
 16
0.0
 26
0.0
 36
1.0
 17
0.0
 27
0.0
 37
0.0
 40
2.105301950925533
 41
3.594771241830064
 42
50.0
 43
0.0
 44
0.0
 50
0.0
 51
0.0
 71
     0
 72
   500
 73
     1
 74
     1
 75
     0
 76
     0
 77
     0
 78
     0
281
     0
 65
     1
110
0.0
120
0.0
130
0.0
111
1.0
121
0.0
131
0.0
112
0.0
122
1.0
132
0.0
 79
     0
146
0.0
  0
VPORT
  5
E00DEA86
330
E00DEA4D
100
AcDbSymbolTableRecord
100
AcDbViewportTableRecord
  2
4
 70
     0
 10
0.5
 20
0.0
 11
1.0
 21
0.5
 12
2.886857516709718
 22
1.052650975462765
 13
0.0
 23
0.0
 14
1.0
 24
1.0
 15
10.0
 25
10.0
 16
0.0
 26
0.0
 36
1.0
 17
0.0
 27
0.0
 37
0.0
 40
4.275207030309069
 41
1.784313725490195
 42
50.0
 43
0.0
 44
0.0
 50
0.0
 51
0.0
 71
     0
 72
   500
 73
     1
 74
     1
 75
     0
 76
     0
 77
     0
 78
     0
281
     0
 65
     1
110
0.0
120
0.0
130
0.0
111
1.0
121
0.0
131
0.0
112
0.0
122
1.0
132
0.0
 79
     0
146
0.0
  0
VPORT
  5
E00DEA87
330
E00DEA4D
100
AcDbSymbolTableRecord
100
AcDbViewportTableRecord
  2
4
 70
     0
 10
0.5
 20
0.5
 11
1.0
 21
1.0
 12
2.862090274555523
 22
1.052650975462765
 13
0.0
 23
0.0
 14
1.0
 24
1.0
 15
10.0
 25
10.0
 16
0.0
 26
0.0
 36
1.0
 17
0.0
 27
0.0
 37
0.0
 40
4.275207030309069
 41
1.772727272727271
 42
50.0
 43
0.0
 44
0.0
 50
0.0
 51
0.0
 71
     0
 72
   500
 73
     1
 74
     1
 75
     0
 76
     0
 77
     0
 78
     0
281
     0
 65
     1
110
0.0
120
0.0
130
0.0
111
1.0
121
0.0
131
0.0
112
0.0
122
1.0
132
0.0
 79
     0
146
0.0
  0
VPORT
  5
E00DEA88
330
E00DEA4D
100
AcDbSymbolTableRecord
100
AcDbViewportTableRecord
  2
4
 70
     0
 10
0.0
 20
0.5
 11
0.5
 21
1.0
 12
2.862090274555523
 22
1.052650975462765
 13
0.0
 23
0.0
 14
1.0
 24
1.0
 15
10.0
 25
10.0
 16
0.0
 26
0.0
 36
1.0
 17
0.0
 27
0.0
 37
0.0
 40
4.275207030309069
 41
1.772727272727271
 42
50.0
 43
0.0
 44
0.0
 50
0.0
 51
0.0
 71
     0
 72
   500
 73
     1
 74
     1
 75
     0
 76
     0
 77
     0
 78
     0
281
     0
 65
     1
110
0.0
120
0.0
130
0.0
111
1.0
121
0.0
131
0.0
112
0.0
122
1.0
132
0.0
 79
     0
146
0.0
  0
VPORT
  5
E00DEA89
330
E00DEA4D
100
AcDbSymbolTableRecord
100
AcDbViewportTableRecord
  2
4
 70
     0
 10
0.0
 20
0.0
 11
0.5
 21
0.5
 12
2.886857516709718
 22
1.052650975462765
 13
0.0
 23
0.0
 14
1.0
 24
1.0
 15
10.0
 25
10.0
 16
0.0
 26
0.0
 36
1.0
 17
0.0
 27
0.0
 37
0.0
 40
4.275207030309069
 41
1.784313725490195
 42
50.0
 43
0.0
 44
0.0
 50
0.0
 51
0.0
 71
     0
 72
   500
 73
     1
 74
     1
 75
     0
 76
     0
 77
     0
 78
     0
281
     0
 65
     1
110
0.0
120
0.0
130
0.0
111
1.0
121
0.0
131
0.0
112
0.0
122
1.0
132
0.0
 79
     0
146
0.0
  0
VPORT
  5
E00EDA92
330
E00DEA4D
100
AcDbSymbolTableRecord
100
AcDbViewportTableRecord
  2
*Active
 70
     0
 10
0.0
 20
0.0
 11
1.0
 21
1.0
 12
90.49447636421957
 22
136.500000499305
 13
0.0
 23
0.0
 14
1.0
 24
1.0
 15
10.0
 25
10.0
 16
0.0
 26
0.0
 36
1.0
 17
0.0
 27
0.0
 37
0.0
 40
275.0989732901028
 41
1.588383838383838
 42
50.0
 43
0.0
 44
0.0
 50
0.0
 51
0.0
 71
     0
 72
   500
 73
     1
 74
     0
 75
     0
 76
     0
 77
     0
 78
     0
281
     0
 65
     1
110
0.0
120
0.0
130
0.0
111
1.0
121
0.0
131
0.0
112
0.0
122
1.0
132
0.0
 79
     0
146
0.0
  0
ENDTAB
  0
TABLE
  2
LTYPE
  5
E00DEA4A
330
0
100
AcDbSymbolTable
 70
     5
  0
LTYPE
  5
E00DEA57
330
E00DEA4A
100
AcDbSymbolTableRecord
100
AcDbLinetypeTableRecord
  2
BYBLOCK
 70
     0
  3

 72
    65
 73
     0
 40
0.0
  0
LTYPE
  5
E00DEA58
330
E00DEA4A
100
AcDbSymbolTableRecord
100
AcDbLinetypeTableRecord
  2
BYLAYER
 70
     0
  3

 72
    65
 73
     0
 40
0.0
  0
LTYPE
  5
E00DEA59
330
E00DEA4A
100
AcDbSymbolTableRecord
100
AcDbLinetypeTableRecord
  2
CONTINUOUS
 70
     0
  3
実線
 72
    65
 73
     0
 40
0.0
  0
LTYPE
  5
E00DEA7E
330
E00DEA4A
100
AcDbSymbolTableRecord
100
AcDbLinetypeTableRecord
  2
CENTER
 70
     0
  3
____ _ ____ _ ____ _ ____ _ ____ _ ____ _ ____
 72
    65
 73
     4
 40
2.0
 49
1.25
 74
     0
 49
-0.25
 74
     0
 49
0.25
 74
     0
 49
-0.25
 74
     0
  0
LTYPE
  5
E00DEA81
330
E00DEA4A
100
AcDbSymbolTableRecord
100
AcDbLinetypeTableRecord
  2
HIDDEN
 70
     0
  3
_ _ _ _ _ _ _ _ _ _ _ _ _ _ _ _ _ _ _ _ _ _ _
 72
    65
 73
     2
 40
0.375
 49
0.25
 74
     0
 49
-0.125
 74
     0
  0
LTYPE
  5
E00E0AD4
330
E00DEA4A
100
AcDbSymbolTableRecord
100
AcDbLinetypeTableRecord
  2
PHANTOM
 70
     0
  3
Phantom ______  __  __  ______  __  __  ______
 72
    65
 73
     6
 40
2.5
 49
1.25
 74
     0
 49
-0.25
 74
     0
 49
0.25
 74
     0
 49
-0.25
 74
     0
 49
0.25
 74
     0
 49
-0.25
 74
     0
  0
LTYPE
  5
E00ECC5C
330
E00DEA4A
100
AcDbSymbolTableRecord
100
AcDbLinetypeTableRecord
  2
SLD-実線
 70
     0
  3
SolidWorks Line Style
 72
    65
 73
     0
 40
0.0
  0
ENDTAB
  0
TABLE
  2
LAYER
  5
E00DEA47
102
{ACAD_XDICTIONARY
360
E00DFB39
102
}
330
0
100
AcDbSymbolTable
 70
    13
  0
LAYER
  5
E00DEA54
330
E00DEA47
100
AcDbSymbolTableRecord
100
AcDbLayerTableRecord
  2
0
 70
     0
 62
     6
  6
CONTINUOUS
370
    -3
390
E00DFA69
  0
LAYER
  5
E00DEA8D
330
E00DEA47
100
AcDbSymbolTableRecord
100
AcDbLayerTableRecord
  2
ITTEN
 70
     0
 62
     1
  6
CENTER
370
    -3
390
E00DFA69
  0
LAYER
  5
E00DEA8F
330
E00DEA47
100
AcDbSymbolTableRecord
100
AcDbLayerTableRecord
  2
HATCH
 70
     0
 62
     4
  6
CONTINUOUS
370
    -3
390
E00DFA69
  0
LAYER
  5
E00DEA90
330
E00DEA47
100
AcDbSymbolTableRecord
100
AcDbLayerTableRecord
  2
SUNPOU
 70
     0
 62
     3
  6
CONTINUOUS
370
    -3
390
E00DFA69
  0
LAYER
  5
E00DEA91
330
E00DEA47
100
AcDbSymbolTableRecord
100
AcDbLayerTableRecord
  2
TEXT
 70
     0
 62
     3
  6
CONTINUOUS
370
    -3
390
E00DFA69
  0
LAYER
  5
E00DEA92
330
E00DEA47
100
AcDbSymbolTableRecord
100
AcDbLayerTableRecord
  2
SAISEN
 70
     0
 62
     4
  6
CONTINUOUS
370
    -3
390
E00DFA69
  0
LAYER
  5
E00DEA93
330
E00DEA47
100
AcDbSymbolTableRecord
100
AcDbLayerTableRecord
  2
JISSEN
 70
     0
 62
     7
  6
CONTINUOUS
370
    -3
390
E00DFA69
  0
LAYER
  5
E00DEA96
330
E00DEA47
100
AcDbSymbolTableRecord
100
AcDbLayerTableRecord
  2
WAKU
 70
     0
 62
     5
  6
CONTINUOUS
370
    -3
390
E00DFA69
  0
LAYER
  5
E00DEA97
330
E00DEA47
100
AcDbSymbolTableRecord
100
AcDbLayerTableRecord
  2
TENSEN
 70
     0
 62
     2
  6
HIDDEN
370
    -3
390
E00DFA69
  0
LAYER
  5
E00E0AD5
330
E00DEA47
100
AcDbSymbolTableRecord
100
AcDbLayerTableRecord
  2
SCALE
 70
     0
 62
     4
  6
CONTINUOUS
370
    -3
390
E00DFA69
  0
LAYER
  5
E00E0AD6
330
E00DEA47
100
AcDbSymbolTableRecord
100
AcDbLayerTableRecord
  2
BORDER
 70
     0
 62
     5
  6
CONTINUOUS
370
    -3
390
E00DFA69
  0
LAYER
  5
E00E0AD7
330
E00DEA47
100
AcDbSymbolTableRecord
100
AcDbLayerTableRecord
  2
NITEN
 70
     0
 62
     2
  6
PHANTOM
370
    -3
390
E00DFA69
  0
LAYER
  5
E00E5AB9
330
E00DEA47
100
AcDbSymbolTableRecord
100
AcDbLayerTableRecord
  2
DEFPOINTS
 70
     0
 62
    -7
  6
CONTINUOUS
290
     0
370
    -3
390
E00DFA69
  0
ENDTAB
  0
TABLE
  2
STYLE
  5
E00DEA48
330
0
100
AcDbSymbolTable
 70
     5
  0
STYLE
  5
E00DEA55
330
E00DEA48
100
AcDbSymbolTableRecord
100
AcDbTextStyleTableRecord
  2
STANDARD
 70
     0
 40
0.0
 41
1.0
 50
0.0
 71
     0
 42
2.5
  3
SIMPLEX
  4

  0
STYLE
  5
E00DEA7C
330
E00DEA48
100
AcDbSymbolTableRecord
100
AcDbTextStyleTableRecord
  2
K
 70
     0
 40
0.0
 41
1.0
 50
0.0
 71
     0
 42
6.0
  3
SIMPLEX
  4
bigfont.shx
  0
STYLE
  5
E00DFB37
330
E00DEA48
100
AcDbSymbolTableRecord
100
AcDbTextStyleTableRecord
  2
DIMENSION
 70
     0
 40
0.0
 41
1.0
 50
0.0
 71
     0
 42
2.5
  3
TXT
  4

  0
STYLE
  5
E00EC309
330
E00DEA48
100
AcDbSymbolTableRecord
100
AcDbTextStyleTableRecord
  2
BIGFONT
 70
     0
 40
0.0
 41
1.0
 50
0.0
 71
     0
 42
3.0
  3
txt.shx
  4
bigfont
  0
STYLE
  5
E00ECC5D
330
E00DEA48
100
AcDbSymbolTableRecord
100
AcDbTextStyleTableRecord
  2
ROMANS
 70
     0
 40
0.0
 41
0.8
 50
0.0
 71
     0
 42
6.0
  3
romans
  4

  0
ENDTAB
  0
TABLE
  2
VIEW
  5
E00DEA4B
330
0
100
AcDbSymbolTable
 70
     0
  0
ENDTAB
  0
TABLE
  2
UCS
  5
E00DEA4C
330
0
100
AcDbSymbolTable
 70
     0
  0
ENDTAB
  0
TABLE
  2
APPID
  5
E00DEA4E
330
0
100
AcDbSymbolTable
 70
     8
  0
APPID
  5
E00DEA56
330
E00DEA4E
100
AcDbSymbolTableRecord
100
AcDbRegAppTableRecord
  2
ACAD
 70
     0
  0
APPID
  5
E00E89BA
330
E00DEA4E
100
AcDbSymbolTableRecord
100
AcDbRegAppTableRecord
  2
CONTENTBLOCKICON
 70
     0
  0
APPID
  5
E00E89BB
330
E00DEA4E
100
AcDbSymbolTableRecord
100
AcDbRegAppTableRecord
  2
X_OBJNAME
 70
     0
  0
APPID
  5
E00E89BC
330
E00DEA4E
100
AcDbSymbolTableRecord
100
AcDbRegAppTableRecord
  2
X_PARAM_BALLOON
 70
     0
  0
APPID
  5
E00E89BD
330
E00DEA4E
100
AcDbSymbolTableRecord
100
AcDbRegAppTableRecord
  2
X_PARAM_TXTPATERN
 70
     0
  0
APPID
  5
E00E89BE
330
E00DEA4E
100
AcDbSymbolTableRecord
100
AcDbRegAppTableRecord
  2
X_PARAM_CTXTPATERN
 70
     0
  0
APPID
  5
E00E89BF
330
E00DEA4E
100
AcDbSymbolTableRecord
100
AcDbRegAppTableRecord
  2
X_PARAM_SYSVAL
 70
     0
  0
APPID
  5
E00E89C0
330
E00DEA4E
100
AcDbSymbolTableRecord
100
AcDbRegAppTableRecord
  2
X_DEFINELIST
 70
     0
  0
ENDTAB
  0
TABLE
  2
DIMSTYLE
  5
E00DEA4F
330
0
100
AcDbSymbolTable
 70
     2
100
AcDbDimStyleTable
 71
     1
340
E00DEA8C
  0
DIMSTYLE
105
E00DEA8C
330
E00DEA4F
100
AcDbSymbolTableRecord
100
AcDbDimStyleTableRecord
  2
IMAO
 70
     0
 41
1.5
 42
1.0
 43
6.0
 44
1.0
 47
495.0
 73
     0
 74
     0
 77
     1
 78
     8
140
3.0
141
0.0
172
     1
174
     1
271
     2
272
     2
279
     2
284
     8
285
     8
286
     8
340
E00DEA7C
341
E00DEA68
342
E00DEA68
343
E00DEA68
344
E00DEA68
  0
DIMSTYLE
105
E00DFB38
330
E00DEA4F
100
AcDbSymbolTableRecord
100
AcDbDimStyleTableRecord
  2
STANDARD
 70
     0
 40
0.5
 41
2.0
 42
0.1
 43
10.0
 44
1.5
 73
     0
 74
     0
 78
     8
140
3.0
145
1.0
147
0.1
172
     1
176
   256
177
   256
178
   256
271
     2
272
     2
284
     8
340
E00DFB37
341
E00DFB2F
342
E00DFB2F
  0
ENDTAB
  0
TABLE
  2
BLOCK_RECORD
  5
E00DEA46
330
0
100
AcDbSymbolTable
 70
     4
  0
BLOCK_RECORD
  5
E00DEA5D
102
{ACAD_XDICTIONARY
360
E00DFB13
102
}
330
E00DEA46
100
AcDbSymbolTableRecord
100
AcDbBlockTableRecord
  2
*MODEL_SPACE
340
E00DFA6C
  0
BLOCK_RECORD
  5
E00DEA5A
102
{ACAD_XDICTIONARY
360
E00DFB11
102
}
330
E00DEA46
100
AcDbSymbolTableRecord
100
AcDbBlockTableRecord
  2
*PAPER_SPACE
340
E00DFA6D
  0
BLOCK_RECORD
  5
E00DEA61
330
E00DEA46
100
AcDbSymbolTableRecord
100
AcDbBlockTableRecord
  2
ARROW
340
0
  0
BLOCK_RECORD
  5
E00DEA68
330
E00DEA46
100
AcDbSymbolTableRecord
100
AcDbBlockTableRecord
  2
ARROWANG
340
0
  0
BLOCK_RECORD
  5
E00DFB2F
330
E00DEA46
100
AcDbSymbolTableRecord
100
AcDbBlockTableRecord
  2
AR_OPEN
340
0
  0
BLOCK_RECORD
  5
E00E0A21
330
E00DEA46
100
AcDbSymbolTableRecord
100
AcDbBlockTableRecord
  2
WAKU
340
0
  0
ENDTAB
  0
ENDSEC
  0
SECTION
  2
BLOCKS
  0
BLOCK
  5
E00DEA9A
330
E00DEA5D
100
AcDbEntity
  8
0
100
AcDbBlockBegin
  2
*MODEL_SPACE
 70
     0
 10
0.0
 20
0.0
 30
0.0
  3
*MODEL_SPACE
  1

  0
ENDBLK
  5
E00DEA9B
330
E00DEA5D
100
AcDbEntity
  8
0
100
AcDbBlockEnd
  0
BLOCK
  5
E00DEA98
330
E00DEA5A
100
AcDbEntity
 67
     1
  8
0
100
AcDbBlockBegin
  2
*PAPER_SPACE
 70
     0
 10
0.0
 20
0.0
 30
0.0
  3
*PAPER_SPACE
  1

  0
ENDBLK
  5
E00DEA99
330
E00DEA5A
100
AcDbEntity
 67
     1
  8
0
100
AcDbBlockEnd
  0
BLOCK
  5
41E
330
E00DEA61
100
AcDbEntity
  8
0
100
AcDbBlockBegin
  2
ARROW
 70
     0
 10
1.0
 20
0.5
 30
0.0
  3
ARROW
  1

  0
LINE
  5
41F
330
E00DEA61
100
AcDbEntity
  8
0
100
AcDbLine
 10
1.0
 20
0.5
 30
0.0
 11
-0.5000000000000214
 21
0.0980762113533018
 31
0.0
  0
LINE
  5
420
330
E00DEA61
100
AcDbEntity
  8
0
100
AcDbLine
 10
0.0
 20
0.5
 30
0.0
 11
1.0
 21
0.5
 31
0.0
  0
LINE
  5
421
330
E00DEA61
100
AcDbEntity
  8
0
100
AcDbLine
 10
1.0
 20
0.5
 30
0.0
 11
-0.4999999999999575
 21
0.9019237886467408
 31
0.0
  0
ENDBLK
  5
422
330
E00DEA61
100
AcDbEntity
  8
0
100
AcDbBlockEnd
  0
BLOCK
  5
460
330
E00DEA68
100
AcDbEntity
  8
0
100
AcDbBlockBegin
  2
ARROWANG
 70
     0
 10
0.0
 20
0.0
 30
0.0
  3
ARROWANG
  1

  0
LINE
  5
461
330
E00DEA68
100
AcDbEntity
  8
SUNPOU
100
AcDbLine
 10
0.0
 20
0.0
 30
0.0
 11
-1.499999999999956
 21
0.401923788646741
 31
0.0
  0
LINE
  5
462
330
E00DEA68
100
AcDbEntity
  8
SUNPOU
100
AcDbLine
 10
0.0
 20
0.0
 30
0.0
 11
-1.500000000000027
 21
-0.4019237886467124
 31
0.0
  0
ENDBLK
  5
463
330
E00DEA68
100
AcDbEntity
  8
0
100
AcDbBlockEnd
  0
BLOCK
  5
E00DFB33
330
E00DFB2F
100
AcDbEntity
  8
0
100
AcDbBlockBegin
  2
AR_OPEN
 70
     0
 10
0.0
 20
0.0
 30
0.0
  3
AR_OPEN
  1

  0
LINE
  5
E00DFB30
330
E00DFB2F
100
AcDbEntity
  8
0
 62
     0
100
AcDbLine
 10
-1.0
 20
0.0
 30
0.0
 11
0.0
 21
0.0
 31
0.0
  0
LINE
  5
E00DFB31
330
E00DFB2F
100
AcDbEntity
  8
0
 62
     0
100
AcDbLine
 10
0.0
 20
0.0
 30
0.0
 11
-1.0
 21
0.2679491924311037
 31
0.0
  0
LINE
  5
E00DFB32
330
E00DFB2F
100
AcDbEntity
  8
0
 62
     0
100
AcDbLine
 10
0.0
 20
0.0
 30
0.0
 11
-1.0
 21
-0.2679491924311037
 31
0.0
  0
ENDBLK
  5
E00DFB34
330
E00DFB2F
100
AcDbEntity
  8
0
100
AcDbBlockEnd
  0
BLOCK
  5
E00E0A26
330
E00E0A21
100
AcDbEntity
  8
0
100
AcDbBlockBegin
  2
WAKU
 70
     0
 10
0.0
 20
0.0
 30
0.0
  3
WAKU
  1

  0
LINE
  5
E00E0A22
330
E00E0A21
100
AcDbEntity
  8
WAKU
100
AcDbLine
 10
0.9999999959999998
 20
0.0
 30
0.0
 11
0.9999999959999998
 21
0.9999999999999998
 31
0.0
  0
LINE
  5
E00E0A23
330
E00E0A21
100
AcDbEntity
  8
WAKU
100
AcDbLine
 10
0.0
 20
0.9999999999999998
 30
0.0
 11
0.9999999959999998
 21
0.9999999999999998
 31
0.0
  0
LINE
  5
E00E0A24
330
E00E0A21
100
AcDbEntity
  8
WAKU
100
AcDbLine
 10
0.9999999959999998
 20
0.0
 30
0.0
 11
0.0
 21
0.0
 31
0.0
  0
LINE
  5
E00E0A25
330
E00E0A21
100
AcDbEntity
  8
WAKU
100
AcDbLine
 10
0.0
 20
0.0
 30
0.0
 11
0.0
 21
0.9999999999999998
 31
0.0
  0
ENDBLK
  5
E00E0A27
330
E00E0A21
100
AcDbEntity
  8
0
100
AcDbBlockEnd
  0
ENDSEC
  0
SECTION
  2
ENTITIES
  0
LINE
  5
E00EDA20
330
E00DEA5D
100
AcDbEntity
  8
JISSEN
100
AcDbLine
 10
90.522985057097
 20
185.1056759358065
 30
0.0
 11
86.53816573173228
 21
185.1056759358065
 31
0.0
  0
LINE
  5
E00EDA21
330
E00DEA5D
100
AcDbEntity
  8
JISSEN
100
AcDbLine
 10
74.41220290879687
 20
177.1056759358065
 30
0.0
 11
91.14916566039596
 21
177.1056759358047
 31
0.0
  0
ARC
  5
E00EDA22
330
E00DEA5D
100
AcDbEntity
  8
JISSEN
100
AcDbCircle
 10
91.14916566039505
 20
112.1889107101479
 30
0.0
 40
15.2
100
AcDbArc
 50
180.0
 51
270.0
  0
ARC
  5
E00EDA23
330
E00DEA5D
100
AcDbEntity
  8
JISSEN
100
AcDbCircle
 10
91.14916566039505
 20
112.1889107101479
 30
0.0
 40
15.2
100
AcDbArc
 50
90.0
 51
180.0
  0
ARC
  5
E00EDA24
330
E00DEA5D
100
AcDbEntity
  8
JISSEN
100
AcDbCircle
 10
91.14916566039505
 20
112.1889107101479
 30
0.0
 40
32.49999999999996
100
AcDbArc
 50
0.0
 51
180.0
  0
LINE
  5
E00EDA25
330
E00DEA5D
100
AcDbEntity
  8
JISSEN
100
AcDbLine
 10
91.1491656603969
 20
180.1056759358066
 30
0.0
 11
58.64916566039688
 21
180.1056759358065
 31
0.0
  0
ARC
  5
E00EDA26
330
E00DEA5D
100
AcDbEntity
  8
JISSEN
100
AcDbCircle
 10
91.14916566039505
 20
112.1889107101479
 30
0.0
 40
32.49999999999996
100
AcDbArc
 50
180.0
 51
0.0
  0
LWPOLYLINE
  5
E00EDA27
330
E00DEA5D
100
AcDbEntity
  8
WAKU
100
AcDbPolyline
 90
        4
 70
     1
 43
0.0
 10
180.9999996785047
 20
0.0000000799905138
 10
0.0000004025043836
 20
0.0000000799905138
 10
0.0000004025043836
 20
273.0000000799905
 10
180.9999996785047
 20
273.0000000799905
  0
LINE
  5
E00EDA28
330
E00DEA5D
100
AcDbEntity
  8
JISSEN
100
AcDbLine
 10
76.71798431498903
 20
114.3089107101669
 30
0.0
 11
76.11032733888461
 21
114.3964754180389
 31
0.0
  0
LINE
  5
E00EDA29
330
E00DEA5D
100
AcDbEntity
  8
JISSEN
100
AcDbLine
 10
76.71798431498903
 20
110.0689107101289
 30
0.0
 11
76.11032733888461
 21
109.981346002257
 31
0.0
  0
SPLINE
  5
E00EDA2A
330
E00DEA5D
100
AcDbEntity
  8
JISSEN
100
AcDbSpline
210
0.0
220
0.0
230
1.0
 70
     8
 71
     3
 72
     8
 73
     4
 74
     0
 42
0.0000000001
 43
0.0000000001
 40
0.49691230260294
 40
0.49691230260294
 40
0.49691230260294
 40
0.49691230260294
 40
1.0
 40
1.0
 40
1.0
 40
1.0
 10
83.85970825601654
 20
99.56320012614668
 30
0.0
 10
83.2580004382955
 20
99.91060705183663
 30
0.0
 10
82.68478220443578
 20
100.2988561480316
 30
0.0
 10
82.09760113165541
 20
100.7511410583949
 30
0.0
  0
LINE
  5
E00EDA2B
330
E00DEA5D
100
AcDbEntity
  8
JISSEN
100
AcDbLine
 10
82.09760113165541
 20
100.7511410583949
 30
0.0
 11
81.71793938211269
 21
100.2686770342381
 31
0.0
  0
SPLINE
  5
E00EDA2C
330
E00DEA5D
100
AcDbEntity
  8
JISSEN
100
AcDbSpline
210
0.0
220
0.0
230
1.0
 70
     8
 71
     3
 72
     8
 73
     4
 74
     0
 42
0.0000000001
 43
0.0000000001
 40
0.49691230260294
 40
0.49691230260294
 40
0.49691230260294
 40
0.49691230260294
 40
1.0
 40
1.0
 40
1.0
 40
1.0
 10
76.57025085164534
 20
112.1889107101388
 30
0.0
 10
76.57026016588426
 20
111.4941129914924
 30
0.0
 10
76.61988462925475
 20
110.8035668909589
 30
0.0
 10
76.71798431498903
 20
110.0689107101289
 30
0.0
  0
SPLINE
  5
E00EDA2D
330
E00DEA5D
100
AcDbEntity
  8
JISSEN
100
AcDbSpline
210
0.0
220
0.0
230
1.0
 70
     8
 71
     3
 72
     8
 73
     4
 74
     0
 42
0.0000000001
 43
0.0000000001
 40
0.49691230260294
 40
0.49691230260294
 40
0.49691230260294
 40
0.49691230260294
 40
1.0
 40
1.0
 40
1.0
 40
1.0
 10
76.57025085164534
 20
112.188910710157
 30
0.0
 10
76.57026016588426
 20
112.8837084288035
 30
0.0
 10
76.61988462925475
 20
113.574254529337
 30
0.0
 10
76.71798431498903
 20
114.3089107101669
 30
0.0
  0
SPLINE
  5
E00EDA2E
330
E00DEA5D
100
AcDbEntity
  8
JISSEN
100
AcDbSpline
210
0.0
220
0.0
230
1.0
 70
     8
 71
     3
 72
     8
 73
     4
 74
     0
 42
0.0000000001
 43
0.0000000001
 40
0.49691230260294
 40
0.49691230260294
 40
0.49691230260294
 40
0.49691230260294
 40
1.0
 40
1.0
 40
1.0
 40
1.0
 10
83.85970825603292
 20
99.56320012613758
 30
0.0
 10
84.46142538798923
 20
99.21580933318109
 30
0.0
 10
85.0842680852231
 20
98.91351232884261
 30
0.0
 10
85.7695488437341
 20
98.63114105837775
 30
0.0
  0
LINE
  5
E00EDA2F
330
E00DEA5D
100
AcDbEntity
  8
JISSEN
100
AcDbLine
 10
85.7695488437341
 20
98.63114105837775
 30
0.0
 11
85.54155361717604
 21
98.06111232634719
 31
0.0
  0
SPLINE
  5
E00EDA30
330
E00DEA5D
100
AcDbEntity
  8
JISSEN
100
AcDbSpline
210
0.0
220
0.0
230
1.0
 70
     8
 71
     3
 72
     8
 73
     4
 74
     0
 42
0.0000000001
 43
0.0000000001
 40
0.49691230260294
 40
0.49691230260294
 40
0.49691230260294
 40
0.49691230260294
 40
1.0
 40
1.0
 40
1.0
 40
1.0
 10
83.85970825601654
 20
124.8146212941492
 30
0.0
 10
83.2580004382955
 20
124.4672143684593
 30
0.0
 10
82.68478220443578
 20
124.0789652722642
 30
0.0
 10
82.09760113165541
 20
123.626680361901
 30
0.0
  0
LINE
  5
E00EDA31
330
E00DEA5D
100
AcDbEntity
  8
JISSEN
100
AcDbLine
 10
82.09760113165541
 20
123.626680361901
 30
0.0
 11
81.71793938211269
 21
124.1091443860578
 31
0.0
  0
LINE
  5
E00EDA32
330
E00DEA5D
100
AcDbEntity
  8
JISSEN
100
AcDbLine
 10
85.7695488437341
 20
125.7466803619182
 30
0.0
 11
85.54155361717604
 21
126.3167090939487
 31
0.0
  0
SPLINE
  5
E00EDA33
330
E00DEA5D
100
AcDbEntity
  8
JISSEN
100
AcDbSpline
210
0.0
220
0.0
230
1.0
 70
     8
 71
     3
 72
     8
 73
     4
 74
     0
 42
0.0000000001
 43
0.0000000001
 40
0.49691230260294
 40
0.49691230260294
 40
0.49691230260294
 40
0.49691230260294
 40
1.0
 40
1.0
 40
1.0
 40
1.0
 10
83.85970825603292
 20
124.8146212941583
 30
0.0
 10
84.46142538798923
 20
125.1620120871148
 30
0.0
 10
85.0842680852231
 20
125.4643090914533
 30
0.0
 10
85.7695488437341
 20
125.7466803619182
 30
0.0
  0
LINE
  5
E00EDA34
330
E00DEA5D
100
AcDbEntity
  8
JISSEN
100
AcDbLine
 10
59.07957910989648
 20
179.2587034169077
 30
0.0
 11
74.33891175269787
 21
177.1141440702062
 31
0.0
  0
ARC
  5
E00EDA35
330
E00DEA5D
100
AcDbEntity
  8
JISSEN
100
AcDbCircle
 10
59.14916566039687
 20
179.7538374512073
 30
0.0
 40
0.5000000000000005
100
AcDbArc
 50
180.0
 51
261.9999999999602
  0
LINE
  5
E00EDA36
330
E00DEA5D
100
AcDbEntity
  8
JISSEN
100
AcDbLine
 10
58.64916566039688
 20
180.1056759358065
 30
0.0
 11
58.64916566039688
 21
179.7538374512073
 31
0.0
  0
ARC
  5
E00EDA37
330
E00DEA5D
100
AcDbEntity
  8
JISSEN
100
AcDbCircle
 10
74.54767140409717
 20
178.5995461734068
 30
0.0
 40
1.499999999999995
100
AcDbArc
 50
261.9999999999602
 51
264.8184245309497
  0
LINE
  5
E00EDA38
330
E00DEA5D
100
AcDbEntity
  8
JISSEN
100
AcDbLine
 10
76.7179843149654
 20
187.1959904160062
 30
0.0
 11
76.25028886505091
 21
187.1959904160061
 31
0.0
  0
SPLINE
  5
E00EDA39
330
E00DEA5D
100
AcDbEntity
  8
JISSEN
100
AcDbSpline
210
0.0
220
0.0
230
1.0
 70
     8
 71
     3
 72
    18
 73
    14
 74
     0
 42
0.0000000001
 43
0.0000000001
 40
0.0
 40
0.0
 40
0.0
 40
0.0
 40
0.1250000000000001
 40
0.1250000000000001
 40
0.2500000000000002
 40
0.2500000000000002
 40
0.3750000000000002
 40
0.3750000000000002
 40
0.5000000000000004
 40
0.5000000000000004
 40
0.7500000000000001
 40
0.7500000000000001
 40
1.0
 40
1.0
 40
1.0
 40
1.0
 10
76.26102185560006
 20
186.6056759357819
 30
0.0
 10
76.26102185560006
 20
186.5065351544184
 30
0.0
 10
76.26270301232574
 20
186.4090516405234
 30
0.0
 10
76.2693968576313
 20
186.2172636945709
 30
0.0
 10
76.27449250254534
 20
186.1219649066828
 30
0.0
 10
76.28814330717244
 20
185.9402497852864
 30
0.0
 10
76.29662977248876
 20
185.8540675818752
 30
0.0
 10
76.31735410013965
 20
185.6909730554365
 30
0.0
 10
76.32971496615931
 20
185.6137635258695
 30
0.0
 10
76.37178154502357
 20
185.4062298140055
 30
0.0
 10
76.40768981186551
 20
185.2945623937215
 30
0.0
 10
76.49226803396226
 20
185.1451876713675
 30
0.0
 10
76.54175561795813
 20
185.1056759357819
 30
0.0
 10
76.59554028409724
 20
185.1056759357819
 30
0.0
  0
LINE
  5
E00EDA3A
330
E00DEA5D
100
AcDbEntity
  8
JISSEN
 48
0.1
100
AcDbLine
 10
76.21866221585989
 20
188.9354561215908
 30
0.0
 11
76.71798431501724
 21
187.6346775813176
 31
0.0
  0
LINE
  5
E00EDA3B
330
E00DEA5D
100
AcDbEntity
  8
JISSEN
100
AcDbLine
 10
77.0091734445605
 20
185.1056759358061
 30
0.0
 11
75.11822232049357
 21
185.1056759358073
 31
0.0
  0
LINE
  5
E00EDA3C
330
E00DEA5D
100
AcDbEntity
  8
JISSEN
 62
     0
 48
0.1
100
AcDbLine
 10
74.78370389199657
 20
186.6056759357693
 30
0.0
 11
74.70287618505626
 21
191.6056759358065
 31
0.0
  0
LINE
  5
E00EDA3D
330
E00DEA5D
100
AcDbEntity
  8
JISSEN
 62
     0
 48
0.1
100
AcDbLine
 10
76.26102185559995
 20
186.605675935782
 30
0.0
 11
76.17912765329151
 21
191.1098570629505
 31
0.0
  0
LINE
  5
E00EDA3E
330
E00DEA5D
100
AcDbEntity
  8
JISSEN
 62
     0
 48
0.1
100
AcDbLine
 10
74.63132085127222
 20
180.3375602257414
 30
0.0
 11
74.44916566039705
 21
191.6056759358065
 31
0.0
  0
ARC
  5
E00EDA3F
330
E00DEA5D
100
AcDbEntity
  8
JISSEN
100
AcDbCircle
 10
73.13151680641135
 20
180.3133150813822
 30
0.0
 40
1.5
100
AcDbArc
 50
352.0432185063711
 51
0.9261366264909225
  0
SPLINE
  5
E00EDA40
330
E00DEA5D
100
AcDbEntity
  8
JISSEN
100
AcDbSpline
210
0.0
220
0.0
230
1.0
 70
     8
 71
     3
 72
    18
 73
    14
 74
     0
 42
0.0000000001
 43
0.0000000001
 40
0.0
 40
0.0
 40
0.0
 40
0.0
 40
0.1250000000000001
 40
0.1250000000000001
 40
0.2500000000000002
 40
0.2500000000000002
 40
0.3750000000000002
 40
0.3750000000000002
 40
0.5000000000000004
 40
0.5000000000000004
 40
0.7500000000000001
 40
0.7500000000000001
 40
1.0
 40
1.0
 40
1.0
 40
1.0
 10
74.78370389199657
 20
186.6056759357756
 30
0.0
 10
74.78370389199657
 20
186.5065351544121
 30
0.0
 10
74.78538504872225
 20
186.4090516405171
 30
0.0
 10
74.79207889402781
 20
186.2172636945646
 30
0.0
 10
74.79717453894185
 20
186.1219649066765
 30
0.0
 10
74.81082534356895
 20
185.9402497852801
 30
0.0
 10
74.81931180888526
 20
185.8540675818689
 30
0.0
 10
74.84003613653616
 20
185.6909730554302
 30
0.0
 10
74.85239700255582
 20
185.6137635258632
 30
0.0
 10
74.89446358142007
 20
185.4062298139992
 30
0.0
 10
74.93037184826201
 20
185.2945623937152
 30
0.0
 10
75.01495007035877
 20
185.1451876713612
 30
0.0
 10
75.06443765435463
 20
185.1056759357756
 30
0.0
 10
75.11822232049374
 20
185.1056759357756
 30
0.0
  0
LINE
  5
E00EDA41
330
E00DEA5D
100
AcDbEntity
  8
JISSEN
100
AcDbLine
 10
75.64916566039688
 20
191.6056759358065
 30
0.0
 11
74.44916566039705
 21
191.6056759358065
 31
0.0
  0
LINE
  5
E00EDA42
330
E00DEA5D
100
AcDbEntity
  8
JISSEN
100
AcDbLine
 10
76.17912765329151
 20
191.1098570629505
 30
0.0
 11
75.68330878043548
 21
191.6056759358065
 31
0.0
  0
LINE
  5
E00EDA43
330
E00DEA5D
100
AcDbEntity
  8
JISSEN
100
AcDbLine
 10
75.68464548869565
 20
191.6056759358065
 30
0.0
 11
75.64916566039688
 21
191.6056759358065
 31
0.0
  0
LINE
  5
E00EDA44
330
E00DEA5D
100
AcDbEntity
  8
JISSEN
100
AcDbLine
 10
85.79858614203862
 20
191.6056759358065
 30
0.0
 11
80.41461257858143
 21
191.6056759358066
 31
0.0
  0
LINE
  5
E00EDA45
330
E00DEA5D
100
AcDbEntity
  8
JISSEN
100
AcDbLine
 10
80.41461257858136
 20
191.6056759358066
 30
0.0
 11
80.41461257858143
 21
186.6056759357402
 31
0.0
  0
SPLINE
  5
E00EDA46
330
E00DEA5D
100
AcDbEntity
  8
JISSEN
100
AcDbSpline
210
0.0
220
0.0
230
1.0
 70
     8
 71
     3
 72
    18
 73
    14
 74
     0
 42
0.0000000001
 43
0.0000000001
 40
0.0
 40
0.0
 40
0.0
 40
0.0
 40
0.1250000000000001
 40
0.1250000000000001
 40
0.2500000000000001
 40
0.2500000000000001
 40
0.5
 40
0.5
 40
0.7499999999999999
 40
0.7499999999999999
 40
0.8749999999999998
 40
0.8749999999999998
 40
1.0
 40
1.0
 40
1.0
 40
1.0
 10
80.41461257861053
 20
186.6056759357447
 30
0.0
 10
80.41461257861053
 20
186.506982349901
 30
0.0
 10
80.40555097983313
 20
186.4096395802275
 30
0.0
 10
80.36970224918192
 20
186.2175908939493
 30
0.0
 10
80.34244236685523
 20
186.1219688717096
 30
0.0
 10
80.23628373598555
 20
185.8501461529553
 30
0.0
 10
80.13100070286643
 20
185.6832999070642
 30
0.0
 10
79.86735414477013
 20
185.4059111981236
 30
0.0
 10
79.70811457018541
 20
185.2945529324583
 30
0.0
 10
79.44739921240077
 20
185.1822551717281
 30
0.0
 10
79.35543966536212
 20
185.1533675677778
 30
0.0
 10
79.1698562554561
 20
185.1153134687933
 30
0.0
 10
79.07544572444246
 20
185.1056759357447
 30
0.0
 10
78.979357685243
 20
185.1056759357447
 30
0.0
  0
LINE
  5
E00EDA47
330
E00DEA5D
100
AcDbEntity
  8
JISSEN
100
AcDbLine
 10
76.99586763979755
 20
182.1056759358065
 30
0.0
 11
77.00917344456013
 21
185.1056759357313
 31
0.0
  0
LINE
  5
E00EDA48
330
E00DEA5D
100
AcDbEntity
  8
JISSEN
100
AcDbLine
 10
76.39586763979647
 20
182.1056759358066
 30
0.0
 11
76.38417344448234
 21
185.1056759358065
 31
0.0
  0
LINE
  5
E00EDA49
330
E00DEA5D
100
AcDbEntity
  8
JISSEN
100
AcDbLine
 10
76.99586763979755
 20
182.1056759358066
 30
0.0
 11
76.39586763979647
 21
182.1056759358066
 31
0.0
  0
LINE
  5
E00EDA4A
330
E00DEA5D
100
AcDbEntity
  8
JISSEN
100
AcDbLine
 10
78.31042238279519
 20
185.1056759358065
 30
0.0
 11
77.68424177939528
 21
185.1056759358065
 31
0.0
  0
LINE
  5
E00EDA4B
330
E00DEA5D
100
AcDbEntity
  8
JISSEN
100
AcDbLine
 10
76.7179843149654
 20
187.1959904160062
 30
0.0
 11
76.7179843149654
 21
187.6346775813066
 31
0.0
  0
LINE
  5
E00EDA4C
330
E00DEA5D
100
AcDbEntity
  8
JISSEN
100
AcDbLine
 10
77.85701825169713
 20
185.1056759358065
 30
0.0
 11
77.00917344456044
 21
185.1056759358065
 31
0.0
  0
LINE
  5
E00EDA4D
330
E00DEA5D
100
AcDbEntity
  8
JISSEN
100
AcDbLine
 10
78.97935768524345
 20
185.1056759358065
 30
0.0
 11
78.31042238578106
 21
185.1056759358065
 31
0.0
  0
LINE
  5
E00EDA4E
330
E00DEA5D
100
AcDbEntity
  8
JISSEN
100
AcDbLine
 10
85.96959621373775
 20
191.1056759358065
 30
0.0
 11
85.96959621373775
 21
186.6056759358065
 31
0.0
  0
LINE
  5
E00EDA4F
330
E00DEA5D
100
AcDbEntity
  8
JISSEN
100
AcDbLine
 10
85.4374292668638
 20
191.6056759358065
 30
0.0
 11
85.43742926686382
 21
186.6056759357755
 31
0.0
  0
LINE
  5
E00EDA50
330
E00DEA5D
100
AcDbEntity
  8
JISSEN
100
AcDbLine
 10
85.96959621376326
 20
191.1056759357321
 30
0.0
 11
85.96959621376322
 21
186.6056759357714
 31
0.0
  0
SPLINE
  5
E00EDA51
330
E00DEA5D
100
AcDbEntity
  8
JISSEN
100
AcDbSpline
210
0.0
220
0.0
230
1.0
 70
     8
 71
     3
 72
    18
 73
    14
 74
     0
 42
0.0000000001
 43
0.0000000001
 40
0.0
 40
0.0
 40
0.0
 40
0.0
 40
0.1249999999999994
 40
0.1249999999999994
 40
0.2499999999999989
 40
0.2499999999999989
 40
0.3749999999999983
 40
0.3749999999999983
 40
0.4999999999999978
 40
0.4999999999999978
 40
0.749999999999999
 40
0.749999999999999
 40
1.0
 40
1.0
 40
1.0
 40
1.0
 10
85.96959621376322
 20
186.6056759357755
 30
0.0
 10
85.96959621376322
 20
186.5065525958483
 30
0.0
 10
85.97705415641963
 20
186.4090859729907
 30
0.0
 10
86.00621281939879
 20
186.2173307306687
 30
0.0
 10
86.02826677031613
 20
186.1220484019098
 30
0.0
 10
86.08563518082361
 20
185.9403582736898
 30
0.0
 10
86.12066215083018
 20
185.8541869143204
 30
0.0
 10
86.20301462033081
 20
185.6911100300598
 30
0.0
 10
86.25076947502225
 20
185.6139050429932
 30
0.0
 10
86.40627988568509
 20
185.4063697480554
 30
0.0
 10
86.53042923419183
 20
185.2946825386183
 30
0.0
 10
86.79364416307384
 20
185.1452383379922
 30
0.0
 10
86.93509512286096
 20
185.1056759357756
 30
0.0
 10
87.07474552391818
 20
185.1056759357756
 30
0.0
  0
SPLINE
  5
E00EDA52
330
E00DEA5D
100
AcDbEntity
  8
JISSEN
100
AcDbSpline
210
0.0
220
0.0
230
1.0
 70
     8
 71
     3
 72
    18
 73
    14
 74
     0
 42
0.0000000001
 43
0.0000000001
 40
0.0
 40
0.0
 40
0.0
 40
0.0
 40
0.1249999999999997
 40
0.1249999999999997
 40
0.2499999999999994
 40
0.2499999999999994
 40
0.3749999999999992
 40
0.3749999999999992
 40
0.499999999999999
 40
0.499999999999999
 40
0.7499999999999995
 40
0.7499999999999995
 40
1.0
 40
1.0
 40
1.0
 40
1.0
 10
86.53816573173239
 20
185.1056759357756
 30
0.0
 10
86.46897666143591
 20
185.1056759357756
 30
0.0
 10
86.40023257978858
 20
185.1153114319398
 30
0.0
 10
86.26368583890174
 20
185.1531735291404
 30
0.0
 10
86.19515473204623
 20
185.1818624776455
 30
0.0
 10
86.06333788846526
 20
185.2568616839356
 30
0.0
 10
86.00023859185089
 20
185.3027953079975
 30
0.0
 10
85.87994099774581
 20
185.411419789359
 30
0.0
 10
85.82251293815565
 20
185.474684973445
 30
0.0
 10
85.66720843440483
 20
185.6820749213123
 30
0.0
 10
85.58229272767162
 20
185.8493698094147
 30
0.0
 10
85.46806852286712
 20
186.2103654154447
 30
0.0
 10
85.43742926686386
 20
186.4073960605177
 30
0.0
 10
85.43742926686386
 20
186.6056759357755
 30
0.0
  0
LINE
  5
E00EDA53
330
E00DEA5D
100
AcDbEntity
  8
JISSEN
100
AcDbLine
 10
85.79858614203862
 20
191.6056759358065
 30
0.0
 11
85.96959621373775
 21
191.1056759358065
 31
0.0
  0
TEXT
  5
E00EDA54
330
E00DEA5D
100
AcDbEntity
  8
TEXT
100
AcDbText
 10
135.5196956544609
 20
6.449992666068389
 30
0.0
 40
3.0
  1
尺度　1/1
  7
K
 72
     4
 11
143.9911242258895
 21
7.735706951782674
 31
0.0
100
AcDbText
  0
TEXT
  5
E00EDA55
330
E00DEA5D
100
AcDbEntity
  8
TEXT
100
AcDbText
 10
125.8911242258895
 20
11.45211943139469
 30
0.0
 40
3.0
  1
シーリングプレート K
  7
K
 72
     4
 11
143.9911242258895
 21
12.95211943139469
 31
0.0
100
AcDbText
  0
ARC
  5
E00EDA56
330
E00DEA5D
100
AcDbEntity
  8
JISSEN
100
AcDbCircle
 10
91.14916566043508
 20
112.1889107101334
 30
0.0
 40
15.2
100
AcDbArc
 50
269.9999999998492
 51
0.0000000000553671
  0
ARC
  5
E00EDA57
330
E00DEA5D
100
AcDbEntity
  8
JISSEN
100
AcDbCircle
 10
91.14916566043508
 20
112.1889107101625
 30
0.0
 40
15.2
100
AcDbArc
 50
359.9999999999446
 51
90.00000000015075
  0
SPLINE
  5
E00EDA58
330
E00DEA5D
100
AcDbEntity
  8
JISSEN
100
AcDbSpline
210
0.0
220
0.0
230
1.0
 70
     8
 71
     3
 72
     8
 73
     4
 74
     0
 42
0.0000000001
 43
0.0000000001
 40
0.49691230260294
 40
0.49691230260294
 40
0.49691230260294
 40
0.49691230260294
 40
1.0
 40
1.0
 40
1.0
 40
1.0
 10
98.43862306478536
 20
99.56320012613032
 30
0.0
 10
97.83690593282631
 20
99.21580933317381
 30
0.0
 10
97.21406323559518
 20
98.91351232883534
 30
0.0
 10
96.52878247708327
 20
98.63114105836865
 30
0.0
  0
LINE
  5
E00EDA59
330
E00DEA5D
100
AcDbEntity
  8
JISSEN
100
AcDbLine
 10
96.52878247708327
 20
98.63114105836865
 30
0.0
 11
96.75677770364224
 21
98.06111232633993
 31
0.0
  0
SPLINE
  5
E00EDA5A
330
E00DEA5D
100
AcDbEntity
  8
JISSEN
100
AcDbSpline
210
0.0
220
0.0
230
1.0
 70
     8
 71
     3
 72
     8
 73
     4
 74
     0
 42
0.0000000001
 43
0.0000000001
 40
0.49691230260294
 40
0.49691230260294
 40
0.49691230260294
 40
0.49691230260294
 40
1.0
 40
1.0
 40
1.0
 40
1.0
 10
98.43862306480174
 20
99.56320012613758
 30
0.0
 10
99.04033088252186
 20
99.91060705182935
 30
0.0
 10
99.61354911638251
 20
100.2988561480244
 30
0.0
 10
100.2007301891619
 20
100.7511410583876
 30
0.0
  0
LINE
  5
E00EDA5B
330
E00DEA5D
100
AcDbEntity
  8
JISSEN
100
AcDbLine
 10
100.2007301891619
 20
100.7511410583876
 30
0.0
 11
100.5803919387055
 21
100.2686770342308
 31
0.0
  0
SPLINE
  5
E00EDA5C
330
E00DEA5D
100
AcDbEntity
  8
JISSEN
100
AcDbSpline
210
0.0
220
0.0
230
1.0
 70
     8
 71
     3
 72
     8
 73
     4
 74
     0
 42
0.0000000001
 43
0.0000000001
 40
0.49691230260294
 40
0.49691230260294
 40
0.49691230260294
 40
0.49691230260294
 40
1.0
 40
1.0
 40
1.0
 40
1.0
 10
98.43862306478536
 20
124.8146212941656
 30
0.0
 10
97.83690593282631
 20
125.1620120871221
 30
0.0
 10
97.21406323559518
 20
125.4643090914606
 30
0.0
 10
96.52878247708327
 20
125.7466803619273
 30
0.0
  0
LINE
  5
E00EDA5D
330
E00DEA5D
100
AcDbEntity
  8
JISSEN
100
AcDbLine
 10
96.52878247708327
 20
125.7466803619273
 30
0.0
 11
96.75677770364224
 21
126.316709093956
 31
0.0
  0
SPLINE
  5
E00EDA5E
330
E00DEA5D
100
AcDbEntity
  8
JISSEN
100
AcDbSpline
210
0.0
220
0.0
230
1.0
 70
     8
 71
     3
 72
     8
 73
     4
 74
     0
 42
0.0000000001
 43
0.0000000001
 40
0.49691230260294
 40
0.49691230260294
 40
0.49691230260294
 40
0.49691230260294
 40
1.0
 40
1.0
 40
1.0
 40
1.0
 10
98.43862306480174
 20
124.8146212941583
 30
0.0
 10
99.04033088252186
 20
124.4672143684666
 30
0.0
 10
99.61354911638251
 20
124.0789652722715
 30
0.0
 10
100.2007301891619
 20
123.6266803619083
 30
0.0
  0
LINE
  5
E00EDA5F
330
E00DEA5D
100
AcDbEntity
  8
JISSEN
100
AcDbLine
 10
100.2007301891619
 20
123.6266803619083
 30
0.0
 11
100.5803919387055
 21
124.1091443860651
 31
0.0
  0
LINE
  5
E00EDA60
330
E00DEA5D
100
AcDbEntity
  8
JISSEN
100
AcDbLine
 10
105.580347005841
 20
114.3089107101815
 30
0.0
 11
106.1880039819454
 21
114.3964754180534
 31
0.0
  0
SPLINE
  5
E00EDA61
330
E00DEA5D
100
AcDbEntity
  8
JISSEN
100
AcDbSpline
210
0.0
220
0.0
230
1.0
 70
     8
 71
     3
 72
     8
 73
     4
 74
     0
 42
0.0000000001
 43
0.0000000001
 40
0.49691230260294
 40
0.49691230260294
 40
0.49691230260294
 40
0.49691230260294
 40
1.0
 40
1.0
 40
1.0
 40
1.0
 10
105.7280804691847
 20
112.1889107101243
 30
0.0
 10
105.7280711549458
 20
111.4941129914778
 30
0.0
 10
105.6784466915753
 20
110.8035668909443
 30
0.0
 10
105.580347005841
 20
110.0689107101144
 30
0.0
  0
LINE
  5
E00EDA62
330
E00DEA5D
100
AcDbEntity
  8
JISSEN
100
AcDbLine
 10
105.580347005841
 20
110.0689107101144
 30
0.0
 11
106.1880039819454
 21
109.9813460022424
 31
0.0
  0
SPLINE
  5
E00EDA63
330
E00DEA5D
100
AcDbEntity
  8
JISSEN
100
AcDbSpline
210
0.0
220
0.0
230
1.0
 70
     8
 71
     3
 72
     8
 73
     4
 74
     0
 42
0.0000000001
 43
0.0000000001
 40
0.49691230260294
 40
0.49691230260294
 40
0.49691230260294
 40
0.49691230260294
 40
1.0
 40
1.0
 40
1.0
 40
1.0
 10
105.7280804691847
 20
112.1889107101716
 30
0.0
 10
105.7280711549458
 20
112.883708428818
 30
0.0
 10
105.6784466915753
 20
113.5742545293516
 30
0.0
 10
105.580347005841
 20
114.3089107101815
 30
0.0
  0
LINE
  5
E00EDA64
330
E00DEA5D
100
AcDbEntity
  8
JISSEN
100
AcDbLine
 10
123.2187522108972
 20
179.2587034169077
 30
0.0
 11
107.9594195680958
 21
177.1141440702062
 31
0.0
  0
LINE
  5
E00EDA65
330
E00DEA5D
100
AcDbEntity
  8
JISSEN
100
AcDbLine
 10
91.14916566039685
 20
180.1056759358066
 30
0.0
 11
123.6491656603968
 21
180.1056759358065
 31
0.0
  0
LINE
  5
E00EDA66
330
E00DEA5D
100
AcDbEntity
  8
JISSEN
100
AcDbLine
 10
107.8861284119968
 20
177.1056759358065
 30
0.0
 11
91.14916566039779
 21
177.1056759358047
 31
0.0
  0
ARC
  5
E00EDA67
330
E00DEA5D
100
AcDbEntity
  8
JISSEN
100
AcDbCircle
 10
107.7506599166965
 20
178.5995461734068
 30
0.0
 40
1.499999999999995
100
AcDbArc
 50
275.1815754690501
 51
278.0000000000398
  0
LINE
  5
E00EDA68
330
E00DEA5D
100
AcDbEntity
  8
JISSEN
100
AcDbLine
 10
104.4413130690966
 20
185.1056759358065
 30
0.0
 11
105.2891578762332
 21
185.1056759358065
 31
0.0
  0
LINE
  5
E00EDA69
330
E00DEA5D
100
AcDbEntity
  8
JISSEN
100
AcDbLine
 10
96.49974517875513
 20
191.6056759358065
 30
0.0
 11
101.8837187422123
 21
191.6056759358066
 31
0.0
  0
LINE
  5
E00EDA6A
330
E00DEA5D
100
AcDbEntity
  8
JISSEN
100
AcDbLine
 10
96.32873510703049
 20
191.1056759357321
 30
0.0
 11
96.32873510703053
 21
186.6056759357714
 31
0.0
  0
LINE
  5
E00EDA6B
330
E00DEA5D
100
AcDbEntity
  8
JISSEN
100
AcDbLine
 10
96.86090205392995
 20
191.6056759358065
 30
0.0
 11
96.86090205392993
 21
186.6056759357755
 31
0.0
  0
LINE
  5
E00EDA6C
330
E00DEA5D
100
AcDbEntity
  8
JISSEN
100
AcDbLine
 10
96.328735107056
 20
191.1056759358065
 30
0.0
 11
96.328735107056
 21
186.6056759358065
 31
0.0
  0
LINE
  5
E00EDA6D
330
E00DEA5D
100
AcDbEntity
  8
JISSEN
100
AcDbLine
 10
91.77534626369675
 20
185.1056759358065
 30
0.0
 11
95.76016558906147
 21
185.1056759358065
 31
0.0
  0
LINE
  5
E00EDA6E
330
E00DEA5D
100
AcDbEntity
  8
JISSEN
100
AcDbLine
 10
91.77534626369675
 20
185.1056759358065
 30
0.0
 11
91.74916566039724
 21
182.1056759358065
 31
0.0
  0
LINE
  5
E00EDA6F
330
E00DEA5D
100
AcDbEntity
  8
JISSEN
100
AcDbLine
 10
90.522985057097
 20
185.1056759358065
 30
0.0
 11
90.54916566039651
 21
182.1056759358065
 31
0.0
  0
LINE
  5
E00EDA70
330
E00DEA5D
100
AcDbEntity
  8
JISSEN
100
AcDbLine
 10
91.74916566039724
 20
182.1056759358065
 30
0.0
 11
91.14916566039687
 21
182.1056759358066
 31
0.0
  0
LINE
  5
E00EDA71
330
E00DEA5D
100
AcDbEntity
  8
JISSEN
100
AcDbLine
 10
90.54916566039651
 20
182.1056759358065
 30
0.0
 11
91.14916566039687
 21
182.1056759358066
 31
0.0
  0
SPLINE
  5
E00EDA72
330
E00DEA5D
100
AcDbEntity
  8
JISSEN
100
AcDbSpline
210
0.0
220
0.0
230
1.0
 70
     8
 71
     3
 72
    18
 73
    14
 74
     0
 42
0.0000000001
 43
0.0000000001
 40
0.0
 40
0.0
 40
0.0
 40
0.0
 40
0.1249999999999994
 40
0.1249999999999994
 40
0.2499999999999989
 40
0.2499999999999989
 40
0.3749999999999983
 40
0.3749999999999983
 40
0.4999999999999978
 40
0.4999999999999978
 40
0.749999999999999
 40
0.749999999999999
 40
1.0
 40
1.0
 40
1.0
 40
1.0
 10
96.32873510703053
 20
186.6056759357755
 30
0.0
 10
96.32873510703053
 20
186.5065525958483
 30
0.0
 10
96.32127716437413
 20
186.4090859729907
 30
0.0
 10
96.29211850139496
 20
186.2173307306687
 30
0.0
 10
96.27006455047762
 20
186.1220484019098
 30
0.0
 10
96.21269613997014
 20
185.9403582736898
 30
0.0
 10
96.17766916996357
 20
185.8541869143204
 30
0.0
 10
96.09531670046294
 20
185.6911100300598
 30
0.0
 10
96.0475618457715
 20
185.6139050429932
 30
0.0
 10
95.89205143510866
 20
185.4063697480554
 30
0.0
 10
95.7679020866019
 20
185.2946825386183
 30
0.0
 10
95.50468715771989
 20
185.1452383379922
 30
0.0
 10
95.36323619793279
 20
185.1056759357756
 30
0.0
 10
95.22358579687557
 20
185.1056759357756
 30
0.0
  0
SPLINE
  5
E00EDA73
330
E00DEA5D
100
AcDbEntity
  8
JISSEN
100
AcDbSpline
210
0.0
220
0.0
230
1.0
 70
     8
 71
     3
 72
    18
 73
    14
 74
     0
 42
0.0000000001
 43
0.0000000001
 40
0.0
 40
0.0
 40
0.0
 40
0.0
 40
0.1249999999999997
 40
0.1249999999999997
 40
0.2499999999999994
 40
0.2499999999999994
 40
0.3749999999999992
 40
0.3749999999999992
 40
0.499999999999999
 40
0.499999999999999
 40
0.7499999999999995
 40
0.7499999999999995
 40
1.0
 40
1.0
 40
1.0
 40
1.0
 10
95.76016558906136
 20
185.1056759357756
 30
0.0
 10
95.82935465935785
 20
185.1056759357756
 30
0.0
 10
95.89809874100515
 20
185.1153114319398
 30
0.0
 10
96.03464548189201
 20
185.1531735291404
 30
0.0
 10
96.10317658874752
 20
185.1818624776455
 30
0.0
 10
96.23499343232849
 20
185.2568616839356
 30
0.0
 10
96.29809272894286
 20
185.3027953079975
 30
0.0
 10
96.41839032304794
 20
185.411419789359
 30
0.0
 10
96.4758183826381
 20
185.474684973445
 30
0.0
 10
96.63112288638892
 20
185.6820749213123
 30
0.0
 10
96.71603859312213
 20
185.8493698094147
 30
0.0
 10
96.83026279792663
 20
186.2103654154447
 30
0.0
 10
96.86090205392989
 20
186.4073960605177
 30
0.0
 10
96.86090205392989
 20
186.6056759357755
 30
0.0
  0
LINE
  5
E00EDA74
330
E00DEA5D
100
AcDbEntity
  8
JISSEN
100
AcDbLine
 10
96.49974517875513
 20
191.6056759358065
 30
0.0
 11
96.328735107056
 21
191.1056759358065
 31
0.0
  0
LINE
  5
E00EDA75
330
E00DEA5D
100
AcDbEntity
  8
JISSEN
100
AcDbLine
 10
101.8837187422123
 20
191.6056759358066
 30
0.0
 11
101.8837187422123
 21
186.6056759357402
 31
0.0
  0
SPLINE
  5
E00EDA76
330
E00DEA5D
100
AcDbEntity
  8
JISSEN
100
AcDbSpline
210
0.0
220
0.0
230
1.0
 70
     8
 71
     3
 72
    18
 73
    14
 74
     0
 42
0.0000000001
 43
0.0000000001
 40
0.0
 40
0.0
 40
0.0
 40
0.0
 40
0.1250000000000001
 40
0.1250000000000001
 40
0.2500000000000001
 40
0.2500000000000001
 40
0.5
 40
0.5
 40
0.7499999999999999
 40
0.7499999999999999
 40
0.8749999999999998
 40
0.8749999999999998
 40
1.0
 40
1.0
 40
1.0
 40
1.0
 10
101.8837187421832
 20
186.6056759357447
 30
0.0
 10
101.8837187421832
 20
186.506982349901
 30
0.0
 10
101.8927803409606
 20
186.4096395802275
 30
0.0
 10
101.9286290716118
 20
186.2175908939493
 30
0.0
 10
101.9558889539385
 20
186.1219688717096
 30
0.0
 10
102.0620475848081
 20
185.8501461529553
 30
0.0
 10
102.1673306179273
 20
185.6832999070642
 30
0.0
 10
102.4309771760236
 20
185.4059111981236
 30
0.0
 10
102.5902167506083
 20
185.2945529324583
 30
0.0
 10
102.8509321083929
 20
185.1822551717281
 30
0.0
 10
102.9428916554316
 20
185.1533675677778
 30
0.0
 10
103.1284750653376
 20
185.1153134687933
 30
0.0
 10
103.2228855963512
 20
185.1056759357447
 30
0.0
 10
103.3189736355507
 20
185.1056759357447
 30
0.0
  0
LINE
  5
E00EDA77
330
E00DEA5D
100
AcDbEntity
  8
JISSEN
100
AcDbLine
 10
103.3189736355502
 20
185.1056759358065
 30
0.0
 11
103.9879089350126
 21
185.1056759358065
 31
0.0
  0
LINE
  5
E00EDA78
330
E00DEA5D
100
AcDbEntity
  8
JISSEN
100
AcDbLine
 10
103.9879089379985
 20
185.1056759358065
 30
0.0
 11
104.6140895413984
 21
185.1056759358065
 31
0.0
  0
LINE
  5
E00EDA79
330
E00DEA5D
100
AcDbEntity
  8
JISSEN
 62
     0
 48
0.1
100
AcDbLine
 10
106.0373094651938
 20
186.605675935782
 30
0.0
 11
106.1192036675022
 21
191.1098570629505
 31
0.0
  0
LINE
  5
E00EDA7A
330
E00DEA5D
100
AcDbEntity
  8
JISSEN
 62
     0
 48
0.1
100
AcDbLine
 10
107.5146274287971
 20
186.6056759357693
 30
0.0
 11
107.5954551357374
 21
191.6056759358065
 31
0.0
  0
LINE
  5
E00EDA7B
330
E00DEA5D
100
AcDbEntity
  8
JISSEN
 62
     0
 48
0.1
100
AcDbLine
 10
107.6670104695215
 20
180.3375602257414
 30
0.0
 11
107.8491656603967
 21
191.6056759358065
 31
0.0
  0
LINE
  5
E00EDA7C
330
E00DEA5D
100
AcDbEntity
  8
JISSEN
100
AcDbLine
 10
105.3024636809962
 20
182.1056759358065
 30
0.0
 11
105.2891578762336
 21
185.1056759357313
 31
0.0
  0
LINE
  5
E00EDA7D
330
E00DEA5D
100
AcDbEntity
  8
JISSEN
100
AcDbLine
 10
105.9024636809972
 20
182.1056759358066
 30
0.0
 11
105.9141578763113
 21
185.1056759358065
 31
0.0
  0
LINE
  5
E00EDA7E
330
E00DEA5D
100
AcDbEntity
  8
JISSEN
100
AcDbLine
 10
105.3024636809962
 20
182.1056759358066
 30
0.0
 11
105.9024636809972
 21
182.1056759358066
 31
0.0
  0
ARC
  5
E00EDA7F
330
E00DEA5D
100
AcDbEntity
  8
JISSEN
100
AcDbCircle
 10
109.1668145143823
 20
180.3133150813822
 30
0.0
 40
1.5
100
AcDbArc
 50
179.073863373509
 51
187.9567814936288
  0
LINE
  5
E00EDA80
330
E00DEA5D
100
AcDbEntity
  8
JISSEN
100
AcDbLine
 10
105.2891578762332
 20
185.1056759358061
 30
0.0
 11
107.1801090003001
 21
185.1056759358073
 31
0.0
  0
LINE
  5
E00EDA81
330
E00DEA5D
100
AcDbEntity
  8
JISSEN
 48
0.1
100
AcDbLine
 10
106.0796691049338
 20
188.9354561215908
 30
0.0
 11
105.5803470057764
 21
187.6346775813176
 31
0.0
  0
LINE
  5
E00EDA82
330
E00DEA5D
100
AcDbEntity
  8
JISSEN
100
AcDbLine
 10
105.5803470058283
 20
187.1959904160062
 30
0.0
 11
106.0480424557428
 21
187.1959904160061
 31
0.0
  0
LINE
  5
E00EDA83
330
E00DEA5D
100
AcDbEntity
  8
JISSEN
100
AcDbLine
 10
105.5803470058283
 20
187.1959904160062
 30
0.0
 11
105.5803470058283
 21
187.6346775813066
 31
0.0
  0
SPLINE
  5
E00EDA84
330
E00DEA5D
100
AcDbEntity
  8
JISSEN
100
AcDbSpline
210
0.0
220
0.0
230
1.0
 70
     8
 71
     3
 72
    18
 73
    14
 74
     0
 42
0.0000000001
 43
0.0000000001
 40
0.0
 40
0.0
 40
0.0
 40
0.0
 40
0.1250000000000001
 40
0.1250000000000001
 40
0.2500000000000002
 40
0.2500000000000002
 40
0.3750000000000002
 40
0.3750000000000002
 40
0.5000000000000004
 40
0.5000000000000004
 40
0.7500000000000001
 40
0.7500000000000001
 40
1.0
 40
1.0
 40
1.0
 40
1.0
 10
106.0373094651936
 20
186.6056759357819
 30
0.0
 10
106.0373094651936
 20
186.5065351544184
 30
0.0
 10
106.0356283084679
 20
186.4090516405234
 30
0.0
 10
106.0289344631624
 20
186.2172636945709
 30
0.0
 10
106.0238388182484
 20
186.1219649066828
 30
0.0
 10
106.0101880136212
 20
185.9402497852864
 30
0.0
 10
106.0017015483049
 20
185.8540675818752
 30
0.0
 10
105.980977220654
 20
185.6909730554365
 30
0.0
 10
105.9686163546344
 20
185.6137635258695
 30
0.0
 10
105.9265497757701
 20
185.4062298140055
 30
0.0
 10
105.8906415089282
 20
185.2945623937215
 30
0.0
 10
105.8060632868314
 20
185.1451876713675
 30
0.0
 10
105.7565757028356
 20
185.1056759357819
 30
0.0
 10
105.7027910366965
 20
185.1056759357819
 30
0.0
  0
SPLINE
  5
E00EDA85
330
E00DEA5D
100
AcDbEntity
  8
JISSEN
100
AcDbSpline
210
0.0
220
0.0
230
1.0
 70
     8
 71
     3
 72
    18
 73
    14
 74
     0
 42
0.0000000001
 43
0.0000000001
 40
0.0
 40
0.0
 40
0.0
 40
0.0
 40
0.1250000000000001
 40
0.1250000000000001
 40
0.2500000000000002
 40
0.2500000000000002
 40
0.3750000000000002
 40
0.3750000000000002
 40
0.5000000000000004
 40
0.5000000000000004
 40
0.7500000000000001
 40
0.7500000000000001
 40
1.0
 40
1.0
 40
1.0
 40
1.0
 10
107.5146274287971
 20
186.6056759357756
 30
0.0
 10
107.5146274287971
 20
186.5065351544121
 30
0.0
 10
107.5129462720715
 20
186.4090516405171
 30
0.0
 10
107.5062524267659
 20
186.2172636945646
 30
0.0
 10
107.5011567818519
 20
186.1219649066765
 30
0.0
 10
107.4875059772248
 20
185.9402497852801
 30
0.0
 10
107.4790195119085
 20
185.8540675818689
 30
0.0
 10
107.4582951842576
 20
185.6909730554302
 30
0.0
 10
107.4459343182379
 20
185.6137635258632
 30
0.0
 10
107.4038677393736
 20
185.4062298139992
 30
0.0
 10
107.3679594725317
 20
185.2945623937152
 30
0.0
 10
107.2833812504349
 20
185.1451876713612
 30
0.0
 10
107.2338936664391
 20
185.1056759357756
 30
0.0
 10
107.1801090003
 20
185.1056759357756
 30
0.0
  0
LINE
  5
E00EDA86
330
E00DEA5D
100
AcDbEntity
  8
JISSEN
100
AcDbLine
 10
106.1192036675022
 20
191.1098570629505
 30
0.0
 11
106.6150225403582
 21
191.6056759358065
 31
0.0
  0
LINE
  5
E00EDA87
330
E00DEA5D
100
AcDbEntity
  8
JISSEN
100
AcDbLine
 10
106.613685832098
 20
191.6056759358065
 30
0.0
 11
106.6491656603968
 21
191.6056759358065
 31
0.0
  0
LINE
  5
E00EDA88
330
E00DEA5D
100
AcDbEntity
  8
JISSEN
100
AcDbLine
 10
106.6491656603968
 20
191.6056759358065
 30
0.0
 11
107.8491656603967
 21
191.6056759358065
 31
0.0
  0
LINE
  5
E00EDA89
330
E00DEA5D
100
AcDbEntity
  8
JISSEN
100
AcDbLine
 10
123.6491656603968
 20
180.1056759358065
 30
0.0
 11
123.6491656603968
 21
179.7538374512073
 31
0.0
  0
ARC
  5
E00EDA8A
330
E00DEA5D
100
AcDbEntity
  8
JISSEN
100
AcDbCircle
 10
123.1491656603968
 20
179.7538374512073
 30
0.0
 40
0.5000000000000005
100
AcDbArc
 50
278.0000000000398
 51
0.0
  0
ENDSEC
  0
SECTION
  2
OBJECTS
  0
DICTIONARY
  5
E00DEA51
330
0
100
AcDbDictionary
281
     1
  3
ACAD_GROUP
350
E00DEA52
  3
ACAD_LAYOUT
350
E00DFA6A
  3
ACAD_MLINESTYLE
350
E00DEA53
  3
ACAD_PLOTSETTINGS
350
E00DFA6B
  3
ACAD_PLOTSTYLENAME
350
E00DFA68
  3
AcadDim
350
E00E59A8
  3
ACDBVARIABLEDICTIONARY
350
E00DF82C
  0
DICTIONARY
  5
E00DFB39
330
E00DEA47
100
AcDbDictionary
280
     1
281
     1
  3
ACAD_LAYERFILTERS
360
E00E26A3
  3
ACAD_LAYERSTATES
360
E00DFB3A
  0
DICTIONARY
  5
E00DFB13
330
E00DEA5D
100
AcDbDictionary
280
     1
281
     1
  3
ACAD_LAYOUTSELFREF
360
E00DFB14
  0
DICTIONARY
  5
E00DFB11
330
E00DEA5A
100
AcDbDictionary
280
     1
281
     1
  3
ACAD_LAYOUTSELFREF
360
E00DFB12
  0
DICTIONARY
  5
E00DEA52
102
{ACAD_REACTORS
330
E00DEA51
102
}
330
E00DEA51
100
AcDbDictionary
281
     1
  0
DICTIONARY
  5
E00DFA6A
102
{ACAD_REACTORS
330
E00DEA51
102
}
330
E00DEA51
100
AcDbDictionary
281
     1
  3
Model
350
E00DFA6C
  3
ﾚｲｱｳﾄ1
350
E00DFA6D
  0
DICTIONARY
  5
E00DEA53
102
{ACAD_REACTORS
330
E00DEA51
102
}
330
E00DEA51
100
AcDbDictionary
281
     1
  3
STANDARD
350
E00DEA60
  0
DICTIONARY
  5
E00DFA6B
102
{ACAD_REACTORS
330
E00DEA51
102
}
330
E00DEA51
100
AcDbDictionary
281
     1
  0
ACDBDICTIONARYWDFLT
  5
E00DFA68
102
{ACAD_REACTORS
330
E00DEA51
102
}
330
E00DEA51
100
AcDbDictionary
281
     1
  3
Normal
350
E00DFA69
  3
Style_1
350
E00ECC5E
100
AcDbDictionaryWithDefault
340
E00DFA69
  0
XRECORD
  5
E00E59A8
102
{ACAD_REACTORS
330
E00DEA51
102
}
330
E00DEA51
100
AcDbXrecord
280
     1
 90
   990106
  3

 60
     0
 61
     0
 62
     1
 63
     3
 64
     0
 65
     0
 66
     0
 67
     3
 68
     1
 69
     0
 70
     0
 71
     0
 72
     0
 40
0.0
170
     0
  0
DICTIONARY
  5
E00DF82C
102
{ACAD_REACTORS
330
E00DEA51
102
}
330
E00DEA51
100
AcDbDictionary
281
     1
  3
DIMASSOC
350
E00DFB2E
  3
SORTENTS
350
E00DF82D
  0
DICTIONARY
  5
E00E26A3
102
{ACAD_REACTORS
330
E00DFB39
102
}
330
E00DFB39
100
AcDbDictionary
280
     1
281
     1
  3
0
360
E00E26A4
  3
0-0
360
E00E26A5
  3
10画層
360
E00E26A6
  3
2
360
E00E26A7
  3
3
360
E00E26A8
  3
3A
360
E00E26A9
  3
4
360
E00E26AA
  3
5画層
360
E00E26AB
  3
6画層
360
E00E26AC
  3
7
360
E00E26AD
  3
7a画層
360
E00E26AE
  3
8
360
E00E26AF
  3
ASYST
360
E00E26B0
  3
ASYST PHASE 1
360
E00E26B1
  3
ASYST PHASE 2
360
E00E26B2
  3
cap-0
360
E00E26B3
  3
dims
360
E00E26B4
  3
elec
360
E00E26B5
  3
ELECTRICAL
360
E00E26B6
  3
F
360
E00E26B7
  3
Frame
360
E00E26B8
  3
FROZEN
360
E00E26B9
  3
FROZEN ACTIVE
360
E00E26BA
  3
jiku-0
360
E00E26BB
  3
MP
360
E00E26BC
  3
MPR
360
E00E26BD
  3
p-
360
E00E26BE
  3
ST
360
E00E26BF
  3
TC
360
E00E26C0
  3
TEXT
360
E00E26C1
  3
ｹｰﾌﾞﾙ図
360
E00E26C2
  3
０画層
360
E00E26C3
  3
３A画層
360
E00E26C4
  3
３画層
360
E00E26C5
  0
DICTIONARY
  5
E00DFB3A
102
{ACAD_REACTORS
330
E00DFB39
102
}
330
E00DFB39
100
AcDbDictionary
281
     1
  0
XRECORD
  5
E00DFB14
102
{ACAD_REACTORS
330
E00DFB13
102
}
330
E00DFB13
100
AcDbXrecord
280
     1
340
E00DEA5D
  0
XRECORD
  5
E00DFB12
102
{ACAD_REACTORS
330
E00DFB11
102
}
330
E00DFB11
100
AcDbXrecord
280
     1
340
E00DEA5A
  0
LAYOUT
  5
E00DFA6C
102
{ACAD_REACTORS
330
E00DFA6A
102
}
330
E00DFA6A
100
AcDbPlotSettings
  1

  2
\\Nt_honsya\FUJITSU XL-5300-3
  4
A4
  6

 40
5.873749732971191
 41
5.704405784606932
 42
5.789077758789062
 43
5.873748779296875
 44
209.9733276367186
 45
296.9259948730469
 46
0.0
 47
0.0
 48
0.0
 49
0.0
140
0.0
141
0.0
142
1.0
143
1.0
 70
 11952
 72
     0
 73
     1
 74
     0
  7
aclt.ctb
 75
     0
147
1.0
148
1211.157904756485
149
44.79223521629618
100
AcDbLayout
  1
Model
 70
     1
 71
     0
 10
0.0
 20
0.0
 11
12.0
 21
9.0
 12
0.0
 22
0.0
 32
0.0
 14
0.0
 24
0.0
 34
0.0
 15
0.0
 25
0.0
 35
0.0
146
0.0
 13
0.0
 23
0.0
 33
0.0
 16
1.0
 26
0.0
 36
0.0
 17
0.0
 27
1.0
 37
0.0
 76
     0
330
E00DEA5D
  0
LAYOUT
  5
E00DFA6D
102
{ACAD_REACTORS
330
E00DFA6A
102
}
330
E00DFA6A
100
AcDbPlotSettings
  1

  2
\\Nt_honsya\FUJITSU XL-5300-3
  4

  6

 40
0.0
 41
0.0
 42
0.0
 43
0.0
 44
0.0
 45
0.0
 46
0.0
 47
0.0
 48
0.0
 49
0.0
140
0.0
141
0.0
142
1.0
143
1.0
 70
   688
 72
     0
 73
     0
 74
     5
  7
aclt(XL).ctb
 75
    16
147
1.0
148
0.0
149
0.0
100
AcDbLayout
  1
ﾚｲｱｳﾄ1
 70
     0
 71
     1
 10
0.0
 20
0.0
 11
12.0
 21
9.0
 12
0.0
 22
0.0
 32
0.0
 14
1.000000000000000E+20
 24
1.000000000000000E+20
 34
1.000000000000000E+20
 15
-1.000000000000000E+20
 25
-1.000000000000000E+20
 35
-1.000000000000000E+20
146
0.0
 13
0.0
 23
0.0
 33
0.0
 16
1.0
 26
0.0
 36
0.0
 17
0.0
 27
1.0
 37
0.0
 76
     0
330
E00DEA5A
  0
MLINESTYLE
  5
E00DEA60
102
{ACAD_REACTORS
330
E00DEA53
102
}
330
E00DEA53
100
AcDbMlineStyle
  2
STANDARD
 70
     0
  3

 62
     0
 51
90.0
 52
90.0
 71
     2
 49
0.5
 62
   256
  6
BYLAYER
 49
-0.5
 62
   256
  6
BYLAYER
  0
ACDBPLACEHOLDER
  5
E00DFA69
102
{ACAD_REACTORS
330
E00DFA68
102
}
330
E00DFA68
  0
ACDBPLACEHOLDER
  5
E00ECC5E
102
{ACAD_REACTORS
330
E00DFA68
102
}
330
E00DFA68
  0
DICTIONARYVAR
  5
E00DFB2E
102
{ACAD_REACTORS
330
E00DF82C
102
}
330
E00DF82C
100
DictionaryVariables
280
     0
  1
0
  0
DICTIONARYVAR
  5
E00DF82D
102
{ACAD_REACTORS
330
E00DF82C
102
}
330
E00DF82C
100
DictionaryVariables
280
     0
  1
96
  0
XRECORD
  5
E00E26A4
102
{ACAD_REACTORS
330
E00E26A3
102
}
330
E00E26A3
100
AcDbXrecord
280
     1
  1
0
  1
*-0
  1
*
  1
*
 70
     0
  1
*
  1
*
  0
XRECORD
  5
E00E26A5
102
{ACAD_REACTORS
330
E00E26A3
102
}
330
E00E26A3
100
AcDbXrecord
280
     1
  1
0-0
  1
*-0
  1
*
  1
*
 70
     0
  1
*
  1
*
  0
XRECORD
  5
E00E26A6
102
{ACAD_REACTORS
330
E00E26A3
102
}
330
E00E26A3
100
AcDbXrecord
280
     1
  1
10画層
  1
*-10
  1
*
  1
*
 70
     0
  1
*
  1
*
  0
XRECORD
  5
E00E26A7
102
{ACAD_REACTORS
330
E00E26A3
102
}
330
E00E26A3
100
AcDbXrecord
280
     1
  1
2
  1
*-2
  1
*
  1
*
 70
     0
  1
*
  1
*
  0
XRECORD
  5
E00E26A8
102
{ACAD_REACTORS
330
E00E26A3
102
}
330
E00E26A3
100
AcDbXrecord
280
     1
  1
3
  1
*-3
  1
*
  1
*
 70
     0
  1
*
  1
*
  0
XRECORD
  5
E00E26A9
102
{ACAD_REACTORS
330
E00E26A3
102
}
330
E00E26A3
100
AcDbXrecord
280
     1
  1
3A
  1
*-3A
  1
*
  1
*
 70
     0
  1
*
  1
*
  0
XRECORD
  5
E00E26AA
102
{ACAD_REACTORS
330
E00E26A3
102
}
330
E00E26A3
100
AcDbXrecord
280
     1
  1
4
  1
*-4
  1
*
  1
*
 70
     0
  1
*
  1
*
  0
XRECORD
  5
E00E26AB
102
{ACAD_REACTORS
330
E00E26A3
102
}
330
E00E26A3
100
AcDbXrecord
280
     1
  1
5画層
  1
*-5
  1
*
  1
*
 70
     0
  1
*
  1
*
  0
XRECORD
  5
E00E26AC
102
{ACAD_REACTORS
330
E00E26A3
102
}
330
E00E26A3
100
AcDbXrecord
280
     1
  1
6画層
  1
*-6
  1
*
  1
*
 70
     0
  1
*
  1
*
  0
XRECORD
  5
E00E26AD
102
{ACAD_REACTORS
330
E00E26A3
102
}
330
E00E26A3
100
AcDbXrecord
280
     1
  1
7
  1
*-7*
  1
*
  1
*
 70
     0
  1
*
  1
*
  0
XRECORD
  5
E00E26AE
102
{ACAD_REACTORS
330
E00E26A3
102
}
330
E00E26A3
100
AcDbXrecord
280
     1
  1
7a画層
  1
*-7a
  1
*
  1
*
 70
     0
  1
*
  1
*
  0
XRECORD
  5
E00E26AF
102
{ACAD_REACTORS
330
E00E26A3
102
}
330
E00E26A3
100
AcDbXrecord
280
     1
  1
8
  1
*-8,8
  1
*
  1
*
 70
     0
  1
*
  1
*
  0
XRECORD
  5
E00E26B0
102
{ACAD_REACTORS
330
E00E26A3
102
}
330
E00E26A3
100
AcDbXrecord
280
     1
  1
ASYST
  1
ASYST*
  1
*
  1
*
 70
     0
  1
*
  1
*
  0
XRECORD
  5
E00E26B1
102
{ACAD_REACTORS
330
E00E26A3
102
}
330
E00E26A3
100
AcDbXrecord
280
     1
  1
ASYST PHASE 1
  1
A1.0-8$0$ASYT*
  1
*
  1
*
 70
     0
  1
*
  1
*
  0
XRECORD
  5
E00E26B2
102
{ACAD_REACTORS
330
E00E26A3
102
}
330
E00E26A3
100
AcDbXrecord
280
     1
  1
ASYST PHASE 2
  1
A2.0-8$0$ASYT*
  1
*
  1
*
 70
     0
  1
*
  1
*
  0
XRECORD
  5
E00E26B3
102
{ACAD_REACTORS
330
E00E26A3
102
}
330
E00E26A3
100
AcDbXrecord
280
     1
  1
cap-0
  1
*
  1
*
  1
*
 70
     0
  1
*
  1
*
  0
XRECORD
  5
E00E26B4
102
{ACAD_REACTORS
330
E00E26A3
102
}
330
E00E26A3
100
AcDbXrecord
280
     1
  1
dims
  1
*di*
  1
*
  1
*
 70
     0
  1
*
  1
*
  0
XRECORD
  5
E00E26B5
102
{ACAD_REACTORS
330
E00E26A3
102
}
330
E00E26A3
100
AcDbXrecord
280
     1
  1
elec
  1
e-*
  1
*
  1
*
 70
     0
  1
*
  1
*
  0
XRECORD
  5
E00E26B6
102
{ACAD_REACTORS
330
E00E26A3
102
}
330
E00E26A3
100
AcDbXrecord
280
     1
  1
ELECTRICAL
  1
E-*
  1
*
  1
*
 70
     0
  1
*
  1
*
  0
XRECORD
  5
E00E26B7
102
{ACAD_REACTORS
330
E00E26A3
102
}
330
E00E26A3
100
AcDbXrecord
280
     1
  1
F
  1
*
  1
*
  1
*
 70
     0
  1
*
  1
*
  0
XRECORD
  5
E00E26B8
102
{ACAD_REACTORS
330
E00E26A3
102
}
330
E00E26A3
100
AcDbXrecord
280
     1
  1
Frame
  1
F*
  1
*
  1
*
 70
     0
  1
*
  1
*
  0
XRECORD
  5
E00E26B9
102
{ACAD_REACTORS
330
E00E26A3
102
}
330
E00E26A3
100
AcDbXrecord
280
     1
  1
FROZEN
  1
*
  1
*
  1
*
 70
     4
  1
*
  1
*
  0
XRECORD
  5
E00E26BA
102
{ACAD_REACTORS
330
E00E26A3
102
}
330
E00E26A3
100
AcDbXrecord
280
     1
  1
FROZEN ACTIVE
  1
*
  1
*
  1
*
 70
    16
  1
*
  1
*
  0
XRECORD
  5
E00E26BB
102
{ACAD_REACTORS
330
E00E26A3
102
}
330
E00E26A3
100
AcDbXrecord
280
     1
  1
jiku-0
  1
*
  1
*
  1
*
 70
     0
  1
*
  1
*
  0
XRECORD
  5
E00E26BC
102
{ACAD_REACTORS
330
E00E26A3
102
}
330
E00E26A3
100
AcDbXrecord
280
     1
  1
MP
  1
MP_*
  1
*
  1
*
 70
     0
  1
*
  1
*
  0
XRECORD
  5
E00E26BD
102
{ACAD_REACTORS
330
E00E26A3
102
}
330
E00E26A3
100
AcDbXrecord
280
     1
  1
MPR
  1
MPR*
  1
*
  1
*
 70
     0
  1
*
  1
*
  0
XRECORD
  5
E00E26BE
102
{ACAD_REACTORS
330
E00E26A3
102
}
330
E00E26A3
100
AcDbXrecord
280
     1
  1
p-
  1
p-*
  1
*
  1
*
 70
     0
  1
*
  1
*
  0
XRECORD
  5
E00E26BF
102
{ACAD_REACTORS
330
E00E26A3
102
}
330
E00E26A3
100
AcDbXrecord
280
     1
  1
ST
  1
ST_*
  1
*
  1
*
 70
     0
  1
*
  1
*
  0
XRECORD
  5
E00E26C0
102
{ACAD_REACTORS
330
E00E26A3
102
}
330
E00E26A3
100
AcDbXrecord
280
     1
  1
TC
  1
TC_*,0N
  1
*
  1
*
 70
     0
  1
*
  1
*
  0
XRECORD
  5
E00E26C1
102
{ACAD_REACTORS
330
E00E26A3
102
}
330
E00E26A3
100
AcDbXrecord
280
     1
  1
TEXT
  1
TEXT
  1
*
  1
*
 70
     0
  1
*
  1
*
  0
XRECORD
  5
E00E26C2
102
{ACAD_REACTORS
330
E00E26A3
102
}
330
E00E26A3
100
AcDbXrecord
280
     1
  1
ｹｰﾌﾞﾙ図
  1
*
  1
*
  1
*
 70
     0
  1
*
  1
*
  0
XRECORD
  5
E00E26C3
102
{ACAD_REACTORS
330
E00E26A3
102
}
330
E00E26A3
100
AcDbXrecord
280
     1
  1
０画層
  1
*-0
  1
*
  1
*
 70
     0
  1
*
  1
*
  0
XRECORD
  5
E00E26C4
102
{ACAD_REACTORS
330
E00E26A3
102
}
330
E00E26A3
100
AcDbXrecord
280
     1
  1
３A画層
  1
*-3A
  1
*
  1
*
 70
     0
  1
*
  1
*
  0
XRECORD
  5
E00E26C5
102
{ACAD_REACTORS
330
E00E26A3
102
}
330
E00E26A3
100
AcDbXrecord
280
     1
  1
３画層
  1
*-3
  1
*
  1
*
 70
     0
  1
*
  1
*
  0
ENDSEC
  0
EOF
