  0
SECTION
  2
HEADER
  9
$ACADVER
  1
AC1014
  9
$ACADMAINTVER
 70
     9
  9
$DWGCODEPAGE
  3
ANSI_932
  9
$INSBASE
 10
0.0
 20
0.0
 30
0.0
  9
$EXTMIN
 10
-0.012488176106217
 20
-0.0082797064699207
 30
-0.0000000000112498
  9
$EXTMAX
 10
819.0124996181019
 20
543.0082851325551
 30
0.0000000000002956
  9
$LIMMIN
 10
0.0
 20
0.0
  9
$LIMMAX
 10
818.9999999999995
 20
542.9999978399999
  9
$ORTHOMODE
 70
     1
  9
$REGENMODE
 70
     1
  9
$FILLMODE
 70
     1
  9
$QTEXTMODE
 70
     0
  9
$MIRRTEXT
 70
     0
  9
$DRAGMODE
 70
     2
  9
$LTSCALE
 40
5.0
  9
$OSMODE
 70
   167
  9
$ATTMODE
 70
     1
  9
$TEXTSIZE
 40
13.5
  9
$TRACEWID
 40
0.05
  9
$TEXTSTYLE
  7
K
  9
$CLAYER
  8
JISSEN
  9
$CELTYPE
  6
BYLAYER
  9
$CECOLOR
 62
   256
  9
$CELTSCALE
 40
1.0
  9
$DELOBJ
 70
     1
  9
$DISPSILH
 70
     0
  9
$DIMSCALE
 40
3.0
  9
$DIMASZ
 40
1.5
  9
$DIMEXO
 40
0.75
  9
$DIMDLI
 40
6.0
  9
$DIMRND
 40
0.0
  9
$DIMDLE
 40
0.0
  9
$DIMEXE
 40
1.0
  9
$DIMTP
 40
495.0
  9
$DIMTM
 40
0.0
  9
$DIMTXT
 40
3.0
  9
$DIMCEN
 40
0.0
  9
$DIMTSZ
 40
0.0
  9
$DIMTOL
 70
     0
  9
$DIMLIM
 70
     0
  9
$DIMTIH
 70
     0
  9
$DIMTOH
 70
     0
  9
$DIMSE1
 70
     0
  9
$DIMSE2
 70
     0
  9
$DIMTAD
 70
     3
  9
$DIMZIN
 70
     8
  9
$DIMBLK
  1
ARROWANG
  9
$DIMASO
 70
     0
  9
$DIMSHO
 70
     0
  9
$DIMPOST
  1

  9
$DIMAPOST
  1

  9
$DIMALT
 70
     0
  9
$DIMALTD
 70
     2
  9
$DIMALTF
 40
25.4
  9
$DIMLFAC
 40
1.0
  9
$DIMTOFL
 70
     1
  9
$DIMTVP
 40
0.0
  9
$DIMTIX
 70
     1
  9
$DIMSOXD
 70
     0
  9
$DIMSAH
 70
     1
  9
$DIMBLK1
  1
ARROWANG
  9
$DIMBLK2
  1
ARROWANG
  9
$DIMSTYLE
  2
IMAO
  9
$DIMCLRD
 70
   256
  9
$DIMCLRE
 70
   256
  9
$DIMCLRT
 70
   256
  9
$DIMTFAC
 40
1.0
  9
$DIMGAP
 40
1.0
  9
$DIMJUST
 70
     0
  9
$DIMSD1
 70
     0
  9
$DIMSD2
 70
     0
  9
$DIMTOLJ
 70
     1
  9
$DIMTZIN
 70
     0
  9
$DIMALTZ
 70
     0
  9
$DIMALTTZ
 70
     0
  9
$DIMFIT
 70
     3
  9
$DIMUPT
 70
     0
  9
$DIMUNIT
 70
     2
  9
$DIMDEC
 70
     2
  9
$DIMTDEC
 70
     2
  9
$DIMALTU
 70
     2
  9
$DIMALTTD
 70
     2
  9
$DIMTXSTY
  7
K
  9
$DIMAUNIT
 70
     0
  9
$LUNITS
 70
     2
  9
$LUPREC
 70
     2
  9
$SKETCHINC
 40
0.1
  9
$FILLETRAD
 40
5.0
  9
$AUNITS
 70
     0
  9
$AUPREC
 70
     2
  9
$MENU
  1
STDR12J
  9
$ELEVATION
 40
0.0
  9
$PELEVATION
 40
0.0
  9
$THICKNESS
 40
0.0
  9
$LIMCHECK
 70
     0
  9
$BLIPMODE
 70
     0
  9
$CHAMFERA
 40
0.0
  9
$CHAMFERB
 40
0.0
  9
$CHAMFERC
 40
0.0
  9
$CHAMFERD
 40
0.0
  9
$SKPOLY
 70
     0
  9
$TDCREATE
 40
2450694.750535185
  9
$TDUPDATE
 40
2453980.703173946
  9
$TDINDWG
 40
0.6708648380
  9
$TDUSRTIMER
 40
0.6708648380
  9
$USRTIMER
 70
     1
  9
$ANGBASE
 50
0.0
  9
$ANGDIR
 70
     0
  9
$PDMODE
 70
     0
  9
$PDSIZE
 40
0.0
  9
$PLINEWID
 40
0.0
  9
$COORDS
 70
     2
  9
$SPLFRAME
 70
     0
  9
$SPLINETYPE
 70
     6
  9
$SPLINESEGS
 70
     8
  9
$ATTDIA
 70
     0
  9
$ATTREQ
 70
     1
  9
$HANDLING
 70
 22529
  9
$HANDSEED
  5
31838AE3
  9
$SURFTAB1
 70
     6
  9
$SURFTAB2
 70
     6
  9
$SURFTYPE
 70
     6
  9
$SURFU
 70
     6
  9
$SURFV
 70
     6
  9
$UCSNAME
  2

  9
$UCSORG
 10
0.0
 20
0.0
 30
0.0
  9
$UCSXDIR
 10
1.0
 20
0.0
 30
0.0
  9
$UCSYDIR
 10
0.0
 20
1.0
 30
0.0
  9
$PUCSNAME
  2

  9
$PUCSORG
 10
0.0
 20
0.0
 30
0.0
  9
$PUCSXDIR
 10
1.0
 20
0.0
 30
0.0
  9
$PUCSYDIR
 10
0.0
 20
1.0
 30
0.0
  9
$USERI1
 70
     4
  9
$USERI2
 70
     1
  9
$USERI3
 70
     1
  9
$USERI4
 70
     1
  9
$USERI5
 70
     1
  9
$USERR1
 40
1.0
  9
$USERR2
 40
3.0
  9
$USERR3
 40
3.0
  9
$USERR4
 40
1.5
  9
$USERR5
 40
10.0
  9
$WORLDVIEW
 70
     1
  9
$SHADEDGE
 70
     3
  9
$SHADEDIF
 70
    70
  9
$TILEMODE
 70
     1
  9
$MAXACTVP
 70
    16
  9
$PINSBASE
 10
0.0
 20
0.0
 30
0.0
  9
$PLIMCHECK
 70
     0
  9
$PEXTMIN
 10
1.000000000000000E+20
 20
1.000000000000000E+20
 30
1.000000000000000E+20
  9
$PEXTMAX
 10
-1.000000000000000E+20
 20
-1.000000000000000E+20
 30
-1.000000000000000E+20
  9
$PLIMMIN
 10
0.0
 20
0.0
  9
$PLIMMAX
 10
12.0
 20
9.0
  9
$UNITMODE
 70
     0
  9
$VISRETAIN
 70
     0
  9
$PLINEGEN
 70
     0
  9
$PSLTSCALE
 70
     0
  9
$TREEDEPTH
 70
     0
  9
$PICKSTYLE
 70
     1
  9
$CMLSTYLE
  2
STANDARD
  9
$CMLJUST
 70
     0
  9
$CMLSCALE
 40
1.0
  9
$PROXYGRAPHICS
 70
     1
  9
$MEASUREMENT
 70
     0
  0
ENDSEC
  0
SECTION
  2
CLASSES
  0
CLASS
  1
LWPOLYLINE
  2
AcDbPolyline
  3
AutoCAD 2000
 90
        0
280
     0
281
     1
  0
CLASS
  1
HATCH
  2
AcDbHatch
  3
AutoCAD 2000
 90
        0
280
     0
281
     1
  0
CLASS
  1
DICTIONARYVAR
  2
AcDbDictionaryVar
  3
AutoCAD 2000
 90
        0
280
     0
281
     0
  0
CLASS
  1
ACDBDICTIONARYWDFLT
  2
AcDbDictionaryWithDefault
  3
AutoCAD 2000
 90
        0
280
     0
281
     0
  0
CLASS
  1
ACDBPLACEHOLDER
  2
AcDbPlaceHolder
  3
AutoCAD 2000
 90
        0
280
     0
281
     0
  0
CLASS
  1
LAYOUT
  2
AcDbLayout
  3
AutoCAD 2000
 90
        0
280
     0
281
     0
  0
CLASS
  1
LONG_TRANSACTION
  2
AcDbLongTransaction
  3
AutoCAD 2000
 90
        0
280
     0
281
     0
  0
CLASS
  1
LWPOLYLINE
  2
AcDbPolyline
  3
AutoCAD 2000
 90
        0
280
     0
281
     1
  0
CLASS
  1
HATCH
  2
AcDbHatch
  3
AutoCAD 2000
 90
        0
280
     0
281
     1
  0
CLASS
  1
XRECORD
  2
AcDbXrecord
  3
AutoCAD 2000
 90
        0
280
     0
281
     0
  0
CLASS
  1
LONG_TRANSACTION
  2
AcDbLongTransaction
  3
AutoCAD 2000
 90
        0
280
     0
281
     0
  0
CLASS
  1
LWPOLYLINE
  2
AcDbPolyline
  3
AutoCAD 2000
 90
        0
280
     0
281
     1
  0
CLASS
  1
HATCH
  2
AcDbHatch
  3
AutoCAD 2000
 90
        0
280
     0
281
     1
  0
CLASS
  1
XRECORD
  2
AcDbXrecord
  3
AutoCAD 2000
 90
        0
280
     0
281
     0
  0
CLASS
  1
LONG_TRANSACTION
  2
AcDbLongTransaction
  3
AutoCAD 2000
 90
        0
280
     0
281
     0
  0
CLASS
  1
LWPOLYLINE
  2
AcDbPolyline
  3
AutoCAD 2000
 90
        0
280
     0
281
     1
  0
CLASS
  1
HATCH
  2
AcDbHatch
  3
AutoCAD 2000
 90
        0
280
     0
281
     1
  0
CLASS
  1
XRECORD
  2
AcDbXrecord
  3
AutoCAD 2000
 90
        0
280
     0
281
     0
  0
CLASS
  1
LONG_TRANSACTION
  2
AcDbLongTransaction
  3
AutoCAD 2000
 90
        0
280
     0
281
     0
  0
CLASS
  1
LWPOLYLINE
  2
AcDbPolyline
  3
AutoCAD 2000
 90
        0
280
     0
281
     1
  0
CLASS
  1
HATCH
  2
AcDbHatch
  3
AutoCAD 2000
 90
        0
280
     0
281
     1
  0
CLASS
  1
XRECORD
  2
AcDbXrecord
  3
AutoCAD 2000
 90
        0
280
     0
281
     0
  0
CLASS
  1
LONG_TRANSACTION
  2
AcDbLongTransaction
  3
AutoCAD 2000
 90
        0
280
     0
281
     0
  0
CLASS
  1
LWPOLYLINE
  2
AcDbPolyline
  3
AutoCAD 2000
 90
        0
280
     0
281
     1
  0
CLASS
  1
HATCH
  2
AcDbHatch
  3
AutoCAD 2000
 90
        0
280
     0
281
     1
  0
CLASS
  1
XRECORD
  2
AcDbXrecord
  3
AutoCAD 2000
 90
        0
280
     0
281
     0
  0
CLASS
  1
LONG_TRANSACTION
  2
AcDbLongTransaction
  3
AutoCAD 2000
 90
        0
280
     0
281
     0
  0
CLASS
  1
LWPOLYLINE
  2
AcDbPolyline
  3
AutoCAD 2000
 90
        0
280
     0
281
     1
  0
CLASS
  1
HATCH
  2
AcDbHatch
  3
AutoCAD 2000
 90
        0
280
     0
281
     1
  0
CLASS
  1
XRECORD
  2
AcDbXrecord
  3
AutoCAD 2000
 90
        0
280
     0
281
     0
  0
CLASS
  1
LONG_TRANSACTION
  2
AcDbLongTransaction
  3
AutoCAD 2000
 90
        0
280
     0
281
     0
  0
CLASS
  1
LWPOLYLINE
  2
AcDbPolyline
  3
AutoCAD 2000
 90
        0
280
     0
281
     1
  0
CLASS
  1
HATCH
  2
AcDbHatch
  3
AutoCAD 2000
 90
        0
280
     0
281
     1
  0
CLASS
  1
XRECORD
  2
AcDbXrecord
  3
AutoCAD 2000
 90
        0
280
     0
281
     0
  0
CLASS
  1
LONG_TRANSACTION
  2
AcDbLongTransaction
  3
AutoCAD 2000
 90
        0
280
     0
281
     0
  0
CLASS
  1
LWPOLYLINE
  2
AcDbPolyline
  3
AutoCAD 2000
 90
        0
280
     0
281
     1
  0
CLASS
  1
HATCH
  2
AcDbHatch
  3
AutoCAD 2000
 90
        0
280
     0
281
     1
  0
CLASS
  1
XRECORD
  2
AcDbXrecord
  3
AutoCAD 2000
 90
        0
280
     0
281
     0
  0
CLASS
  1
LONG_TRANSACTION
  2
AcDbLongTransaction
  3
AutoCAD 2000
 90
        0
280
     0
281
     0
  0
CLASS
  1
LWPOLYLINE
  2
AcDbPolyline
  3
AutoCAD 2000
 90
        0
280
     0
281
     1
  0
CLASS
  1
HATCH
  2
AcDbHatch
  3
AutoCAD 2000
 90
        0
280
     0
281
     1
  0
CLASS
  1
XRECORD
  2
AcDbXrecord
  3
AutoCAD 2000
 90
        0
280
     0
281
     0
  0
CLASS
  1
LONG_TRANSACTION
  2
AcDbLongTransaction
  3
AutoCAD 2000
 90
        0
280
     0
281
     0
  0
CLASS
  1
LWPOLYLINE
  2
AcDbPolyline
  3
AutoCAD 2000
 90
        0
280
     0
281
     1
  0
CLASS
  1
HATCH
  2
AcDbHatch
  3
AutoCAD 2000
 90
        0
280
     0
281
     1
  0
CLASS
  1
XRECORD
  2
AcDbXrecord
  3
AutoCAD 2000
 90
        0
280
     0
281
     0
  0
CLASS
  1
LONG_TRANSACTION
  2
AcDbLongTransaction
  3
AutoCAD 2000
 90
        0
280
     0
281
     0
  0
CLASS
  1
LWPOLYLINE
  2
AcDbPolyline
  3
AutoCAD 2000
 90
        0
280
     0
281
     1
  0
CLASS
  1
HATCH
  2
AcDbHatch
  3
AutoCAD 2000
 90
        0
280
     0
281
     1
  0
CLASS
  1
XRECORD
  2
AcDbXrecord
  3
AutoCAD 2000
 90
        0
280
     0
281
     0
  0
ENDSEC
  0
SECTION
  2
TABLES
  0
TABLE
  2
VPORT
  5
3183249F
330
0
100
AcDbSymbolTable
 70
    10
  0
VPORT
  5
318324C3
330
3183249F
100
AcDbSymbolTableRecord
100
AcDbViewportTableRecord
  2
2
 70
     0
 10
0.5
 20
0.0
 11
1.0
 21
1.0
 12
0.9240312421264802
 22
1.052650975462766
 13
0.0
 23
0.0
 14
1.0
 24
1.0
 15
10.0
 25
10.0
 16
0.0
 26
0.0
 36
1.0
 17
0.0
 27
0.0
 37
0.0
 40
2.105301950925533
 41
0.8778135048231511
 42
50.0
 43
0.0
 44
0.0
 50
0.0
 51
0.0
 71
     0
 72
   500
 73
     1
 74
     1
 75
     0
 76
     0
 77
     0
 78
     0
  0
VPORT
  5
318324C4
330
3183249F
100
AcDbSymbolTableRecord
100
AcDbViewportTableRecord
  2
2
 70
     0
 10
0.0
 20
0.0
 11
0.5
 21
1.0
 12
0.9240312421264802
 22
1.052650975462766
 13
0.0
 23
0.0
 14
1.0
 24
1.0
 15
10.0
 25
10.0
 16
0.0
 26
0.0
 36
1.0
 17
0.0
 27
0.0
 37
0.0
 40
2.105301950925533
 41
0.8778135048231511
 42
50.0
 43
0.0
 44
0.0
 50
0.0
 51
0.0
 71
     0
 72
   500
 73
     1
 74
     1
 75
     0
 76
     0
 77
     0
 78
     0
  0
VPORT
  5
318324C5
330
3183249F
100
AcDbSymbolTableRecord
100
AcDbViewportTableRecord
  2
3
 70
     0
 10
0.0
 20
0.5
 11
1.0
 21
1.0
 12
2.832169994473273
 22
1.052650975462766
 13
0.0
 23
0.0
 14
1.0
 24
1.0
 15
10.0
 25
10.0
 16
0.0
 26
0.0
 36
1.0
 17
0.0
 27
0.0
 37
0.0
 40
2.105301950925533
 41
3.571428571428571
 42
50.0
 43
0.0
 44
0.0
 50
0.0
 51
0.0
 71
     0
 72
   500
 73
     1
 74
     1
 75
     0
 76
     0
 77
     0
 78
     0
  0
VPORT
  5
318324C6
330
3183249F
100
AcDbSymbolTableRecord
100
AcDbViewportTableRecord
  2
3
 70
     0
 10
0.0
 20
0.0
 11
1.0
 21
0.5
 12
2.856741679241311
 22
1.052650975462766
 13
0.0
 23
0.0
 14
1.0
 24
1.0
 15
10.0
 25
10.0
 16
0.0
 26
0.0
 36
1.0
 17
0.0
 27
0.0
 37
0.0
 40
2.105301950925533
 41
3.594771241830065
 42
50.0
 43
0.0
 44
0.0
 50
0.0
 51
0.0
 71
     0
 72
   500
 73
     1
 74
     1
 75
     0
 76
     0
 77
     0
 78
     0
  0
VPORT
  5
318324C7
330
3183249F
100
AcDbSymbolTableRecord
100
AcDbViewportTableRecord
  2
4
 70
     0
 10
0.5
 20
0.0
 11
1.0
 21
0.5
 12
2.886857516709719
 22
1.052650975462766
 13
0.0
 23
0.0
 14
1.0
 24
1.0
 15
10.0
 25
10.0
 16
0.0
 26
0.0
 36
1.0
 17
0.0
 27
0.0
 37
0.0
 40
4.27520703030907
 41
1.784313725490195
 42
50.0
 43
0.0
 44
0.0
 50
0.0
 51
0.0
 71
     0
 72
   500
 73
     1
 74
     1
 75
     0
 76
     0
 77
     0
 78
     0
  0
VPORT
  5
318324C8
330
3183249F
100
AcDbSymbolTableRecord
100
AcDbViewportTableRecord
  2
4
 70
     0
 10
0.5
 20
0.5
 11
1.0
 21
1.0
 12
2.862090274555523
 22
1.052650975462766
 13
0.0
 23
0.0
 14
1.0
 24
1.0
 15
10.0
 25
10.0
 16
0.0
 26
0.0
 36
1.0
 17
0.0
 27
0.0
 37
0.0
 40
4.27520703030907
 41
1.772727272727272
 42
50.0
 43
0.0
 44
0.0
 50
0.0
 51
0.0
 71
     0
 72
   500
 73
     1
 74
     1
 75
     0
 76
     0
 77
     0
 78
     0
  0
VPORT
  5
318324C9
330
3183249F
100
AcDbSymbolTableRecord
100
AcDbViewportTableRecord
  2
4
 70
     0
 10
0.0
 20
0.5
 11
0.5
 21
1.0
 12
2.862090274555523
 22
1.052650975462766
 13
0.0
 23
0.0
 14
1.0
 24
1.0
 15
10.0
 25
10.0
 16
0.0
 26
0.0
 36
1.0
 17
0.0
 27
0.0
 37
0.0
 40
4.27520703030907
 41
1.772727272727272
 42
50.0
 43
0.0
 44
0.0
 50
0.0
 51
0.0
 71
     0
 72
   500
 73
     1
 74
     1
 75
     0
 76
     0
 77
     0
 78
     0
  0
VPORT
  5
318324CA
330
3183249F
100
AcDbSymbolTableRecord
100
AcDbViewportTableRecord
  2
4
 70
     0
 10
0.0
 20
0.0
 11
0.5
 21
0.5
 12
2.886857516709719
 22
1.052650975462766
 13
0.0
 23
0.0
 14
1.0
 24
1.0
 15
10.0
 25
10.0
 16
0.0
 26
0.0
 36
1.0
 17
0.0
 27
0.0
 37
0.0
 40
4.27520703030907
 41
1.784313725490195
 42
50.0
 43
0.0
 44
0.0
 50
0.0
 51
0.0
 71
     0
 72
   500
 73
     1
 74
     1
 75
     0
 76
     0
 77
     0
 78
     0
  0
VPORT
  5
31838ABF
330
3183249F
100
AcDbSymbolTableRecord
100
AcDbViewportTableRecord
  2
*ACTIVE
 70
     0
 10
0.0
 20
0.0
 11
1.0
 21
1.0
 12
409.5000057209977
 22
271.5000027130425
 13
0.0
 23
0.0
 14
1.0
 24
1.0
 15
10.0
 25
10.0
 16
0.0
 26
0.0
 36
1.0
 17
0.0
 27
0.0
 37
0.0
 40
546.6326573906721
 41
1.764444444444444
 42
50.0
 43
0.0
 44
0.0
 50
0.0
 51
0.0
 71
     0
 72
   500
 73
     1
 74
     0
 75
     0
 76
     0
 77
     0
 78
     0
  0
ENDTAB
  0
TABLE
  2
LTYPE
  5
3183249C
330
0
100
AcDbSymbolTable
 70
     2
  0
LTYPE
  5
318324A9
330
3183249C
100
AcDbSymbolTableRecord
100
AcDbLinetypeTableRecord
  2
BYBLOCK
 70
     0
  3

 72
    65
 73
     0
 40
0.0
  0
LTYPE
  5
318324AA
330
3183249C
100
AcDbSymbolTableRecord
100
AcDbLinetypeTableRecord
  2
BYLAYER
 70
     0
  3

 72
    65
 73
     0
 40
0.0
  0
LTYPE
  5
318324AB
330
3183249C
100
AcDbSymbolTableRecord
100
AcDbLinetypeTableRecord
  2
CONTINUOUS
 70
     0
  3
実線
 72
    65
 73
     0
 40
0.0
  0
LTYPE
  5
31837E70
330
3183249C
100
AcDbSymbolTableRecord
100
AcDbLinetypeTableRecord
  2
DASHED
 70
     0
  3
__ __ __ __ __ __ __ __ __ __ __ __ __ __ __
 72
    65
 73
     2
 40
0.75
 49
0.5
 74
     0
 49
-0.25
 74
     0
  0
ENDTAB
  0
TABLE
  2
LAYER
  5
31832499
330
0
100
AcDbSymbolTable
 70
     8
  0
LAYER
  5
318324A6
330
31832499
100
AcDbSymbolTableRecord
100
AcDbLayerTableRecord
  2
0
 70
     0
 62
     7
  6
CONTINUOUS
  0
LAYER
  5
318324D1
330
31832499
100
AcDbSymbolTableRecord
100
AcDbLayerTableRecord
  2
HATCH
 70
     0
 62
     4
  6
CONTINUOUS
  0
LAYER
  5
318324D2
330
31832499
100
AcDbSymbolTableRecord
100
AcDbLayerTableRecord
  2
SUNPOU
 70
     0
 62
     3
  6
CONTINUOUS
  0
LAYER
  5
318324D4
330
31832499
100
AcDbSymbolTableRecord
100
AcDbLayerTableRecord
  2
SAISEN
 70
     0
 62
     4
  6
CONTINUOUS
  0
LAYER
  5
318324D5
330
31832499
100
AcDbSymbolTableRecord
100
AcDbLayerTableRecord
  2
JISSEN
 70
     0
 62
     7
  6
CONTINUOUS
  0
LAYER
  5
318324D9
330
31832499
100
AcDbSymbolTableRecord
100
AcDbLayerTableRecord
  2
WAKU
 70
     0
 62
     5
  6
CONTINUOUS
  0
LAYER
  5
318324EC
330
31832499
100
AcDbSymbolTableRecord
100
AcDbLayerTableRecord
  2
SCALE
 70
     0
 62
     7
  6
CONTINUOUS
  0
LAYER
  5
31837E73
330
31832499
100
AcDbSymbolTableRecord
100
AcDbLayerTableRecord
  2
HASEN
 70
     0
 62
     2
  6
DASHED
  0
ENDTAB
  0
TABLE
  2
STYLE
  5
3183249A
330
0
100
AcDbSymbolTable
 70
     3
  0
STYLE
  5
318324A7
330
3183249A
100
AcDbSymbolTableRecord
100
AcDbTextStyleTableRecord
  2
STANDARD
 70
     0
 40
0.0
 41
1.0
 50
0.0
 71
     0
 42
9.0
  3
ROMANS.shx
  4
bigfont.shx
  0
STYLE
  5
318324BE
330
3183249A
100
AcDbSymbolTableRecord
100
AcDbTextStyleTableRecord
  2
K
 70
     0
 40
0.0
 41
1.0
 50
0.0
 71
     0
 42
13.5
  3
ROMANS.shx
  4
bigfont.shx
  0
STYLE
  5
31836C06
330
3183249A
100
AcDbSymbolTableRecord
100
AcDbTextStyleTableRecord
  2
太字
 70
     0
 40
0.0
 41
0.7
 50
0.0
 71
     0
 42
91.00035378310668
  3
romand.shx
  4
bigfont.shx
  0
ENDTAB
  0
TABLE
  2
VIEW
  5
3183249D
330
0
100
AcDbSymbolTable
 70
     0
  0
ENDTAB
  0
TABLE
  2
UCS
  5
3183249E
330
0
100
AcDbSymbolTable
 70
     0
  0
ENDTAB
  0
TABLE
  2
APPID
  5
318324A0
330
0
100
AcDbSymbolTable
 70
     5
  0
APPID
  5
318324A8
330
318324A0
100
AcDbSymbolTableRecord
100
AcDbRegAppTableRecord
  2
ACAD
 70
     0
  0
APPID
  5
31832DF7
330
318324A0
100
AcDbSymbolTableRecord
100
AcDbRegAppTableRecord
  2
X_OBJNAME
 70
     0
  0
APPID
  5
31832DF8
330
318324A0
100
AcDbSymbolTableRecord
100
AcDbRegAppTableRecord
  2
X_UNIONHANDLE
 70
     0
  0
APPID
  5
31832DF9
330
318324A0
100
AcDbSymbolTableRecord
100
AcDbRegAppTableRecord
  2
X_OBJDATA
 70
     0
  0
APPID
  5
31832DFA
330
318324A0
100
AcDbSymbolTableRecord
100
AcDbRegAppTableRecord
  2
X_PARENTHANDLE
 70
     0
  0
ENDTAB
  0
TABLE
  2
DIMSTYLE
  5
318324A1
330
0
100
AcDbSymbolTable
 70
     1
  0
DIMSTYLE
105
318324CD
330
318324A1
100
AcDbSymbolTableRecord
100
AcDbDimStyleTableRecord
  2
IMAO
 70
     0
  3

  4

  5
ARROWANG
  6
ARROWANG
  7
ARROWANG
 40
1.0
 41
1.5
 42
0.75
 43
6.0
 44
1.0
 45
0.0
 46
0.0
 47
495.0
 48
0.0
140
3.0
141
0.0
142
0.0
143
25.4
144
1.0
145
0.0
146
1.0
147
1.0
 71
     0
 72
     0
 73
     0
 74
     0
 75
     0
 76
     0
 77
     3
 78
     8
170
     0
171
     2
172
     1
173
     1
174
     1
175
     0
176
   256
177
   256
178
   256
270
     2
271
     2
272
     2
273
     2
274
     2
340
318324BE
275
     0
280
     0
281
     0
282
     0
283
     1
284
     0
285
     0
286
     0
287
     3
288
     0
  0
ENDTAB
  0
TABLE
  2
BLOCK_RECORD
  5
31832498
330
0
100
AcDbSymbolTable
 70
     1
  0
BLOCK_RECORD
  5
318324AF
102
{ACAD_XDICTIONARY
360
31837BDA
102
}
330
31832498
100
AcDbSymbolTableRecord
100
AcDbBlockTableRecord
  2
*MODEL_SPACE
  0
BLOCK_RECORD
  5
318324AC
102
{ACAD_XDICTIONARY
360
31837BD8
102
}
330
31832498
100
AcDbSymbolTableRecord
100
AcDbBlockTableRecord
  2
*PAPER_SPACE
  0
BLOCK_RECORD
  5
318324B9
330
31832498
100
AcDbSymbolTableRecord
100
AcDbBlockTableRecord
  2
ARROWANG
  0
ENDTAB
  0
ENDSEC
  0
SECTION
  2
BLOCKS
  0
BLOCK
  5
318324DE
330
318324AF
100
AcDbEntity
  8
0
100
AcDbBlockBegin
  2
*MODEL_SPACE
 70
     0
 10
0.0
 20
0.0
 30
0.0
  3
*MODEL_SPACE
  1

  0
ENDBLK
  5
318324DF
330
318324AF
100
AcDbEntity
  8
0
100
AcDbBlockEnd
  0
BLOCK
  5
318324DC
330
318324AC
100
AcDbEntity
 67
     1
  8
0
100
AcDbBlockBegin
  2
*PAPER_SPACE
 70
     0
 10
0.0
 20
0.0
 30
0.0
  3
*PAPER_SPACE
  1

  0
ENDBLK
  5
318324DD
330
318324AC
100
AcDbEntity
 67
     1
  8
0
100
AcDbBlockEnd
  0
BLOCK
  5
1D
330
318324B9
100
AcDbEntity
  8
0
100
AcDbBlockBegin
  2
ARROWANG
 70
     0
 10
0.0
 20
0.0
 30
0.0
  3
ARROWANG
  1

  0
LINE
  5
1E
330
318324B9
100
AcDbEntity
  8
SUNPOU
100
AcDbLine
 10
0.0
 20
0.0
 30
0.0
 11
-1.499999999999957
 21
0.4019237886467409
 31
0.0
  0
LINE
  5
1F
330
318324B9
100
AcDbEntity
  8
SUNPOU
100
AcDbLine
 10
0.0
 20
0.0
 30
0.0
 11
-1.500000000000028
 21
-0.4019237886467124
 31
0.0
  0
ENDBLK
  5
20
330
318324B9
100
AcDbEntity
  8
0
100
AcDbBlockEnd
  0
ENDSEC
  0
SECTION
  2
ENTITIES
  0
LWPOLYLINE
  5
31837AFD
330
318324AF
100
AcDbEntity
  8
WAKU
100
AcDbPolyline
 90
        4
 70
     1
 43
0.0
 10
0.0
 20
0.0
 10
818.9999999999995
 20
0.0
 10
818.9999999999995
 20
542.9999978399999
 10
0.0
 20
542.9999978399999
  0
TEXT
  5
31837E22
330
318324AF
100
AcDbEntity
  8
SUNPOU
100
AcDbText
 10
584.4299915009064
 20
23.08187357040491
 30
0.0
 40
9.0
  1
ウォーターモーターゴング WMG  -B 外観図
  7
K
100
AcDbText
  0
LINE
  5
31837E23
330
318324AF
100
AcDbEntity
  8
SUNPOU
100
AcDbLine
 10
751.1096416692724
 20
32.08124504827252
 30
0.0
 11
757.1096416692731
 21
32.08124504827252
 31
0.0
  0
LINE
  5
31837E24
330
318324AF
100
AcDbEntity
  8
SUNPOU
100
AcDbLine
 10
751.1096416692724
 20
23.08124504827253
 30
0.0
 11
757.1096416692731
 21
23.08124504827253
 31
0.0
  0
LINE
  5
31837E25
330
318324AF
100
AcDbEntity
  8
SUNPOU
100
AcDbLine
 10
752.6096416692731
 20
32.08124504827252
 30
0.0
 11
752.6096416692731
 21
23.08124504827253
 31
0.0
  0
LINE
  5
31837E26
330
318324AF
100
AcDbEntity
  8
SUNPOU
100
AcDbLine
 10
755.6096416692724
 20
32.08124504827252
 30
0.0
 11
755.6096416692724
 21
23.08124504827253
 31
0.0
  0
TEXT
  5
31837E27
330
318324AF
100
AcDbEntity
  8
SUNPOU
100
AcDbText
 10
584.4299915009064
 20
8.081873570404923
 30
0.0
 40
9.0
  1
A4 用紙、印刷尺度：1/3
  7
K
100
AcDbText
  0
LINE
  5
31838278
330
318324AF
100
AcDbEntity
  8
JISSEN
 48
0.5
100
AcDbLine
 10
31.51136192750141
 20
424.9407736563745
 30
0.0
 11
32.66606246588048
 21
426.9407736563746
 31
0.0
  0
LINE
  5
31838279
330
318324AF
100
AcDbEntity
  8
JISSEN
100
AcDbLine
 10
39.51136192750232
 20
426.9407736563755
 30
0.0
 11
32.66606246588048
 21
426.9407736563746
 31
0.0
  0
LINE
  5
3183827A
330
318324AF
100
AcDbEntity
  8
JISSEN
 48
0.5
100
AcDbLine
 10
32.66606246588503
 20
386.9407736563736
 30
0.0
 11
31.51136192750505
 21
388.9407736563745
 31
0.0
  0
LINE
  5
3183827B
330
318324AF
100
AcDbEntity
  8
JISSEN
 48
7.0
100
AcDbLine
 10
31.51136192750505
 20
388.9407736563745
 30
0.0
 11
31.51136192750141
 21
424.9407736563745
 31
0.0
  0
LINE
  5
3183827C
330
318324AF
100
AcDbEntity
  8
JISSEN
 48
7.0
100
AcDbLine
 10
32.66606246588503
 20
386.9407736563736
 30
0.0
 11
39.51136192750505
 21
386.9407736563755
 31
0.0
  0
ARC
  5
3183827D
330
318324AF
100
AcDbEntity
  8
JISSEN
100
AcDbCircle
 10
41.0113619275005
 20
426.4407736563755
 30
0.0
 40
1.5
100
AcDbArc
 50
90.0
 51
180.000000000013
  0
ARC
  5
3183827E
330
318324AF
100
AcDbEntity
  8
JISSEN
100
AcDbCircle
 10
41.01136192750504
 20
387.4407736563745
 30
0.0
 40
1.5
100
AcDbArc
 50
180.000000000013
 51
270.0
  0
LINE
  5
3183827F
330
318324AF
100
AcDbEntity
  8
JISSEN
100
AcDbLine
 10
51.76136192750277
 20
385.9407736563746
 30
0.0
 11
41.01136192750504
 21
385.9407736563746
 31
0.0
  0
LINE
  5
318382B8
330
318324AF
100
AcDbEntity
  8
JISSEN
100
AcDbLine
 10
81.9574469178624
 20
427.9407736563747
 30
0.0
 11
41.0113619275005
 21
427.9407736563747
 31
0.0
  0
HATCH
  5
318382B9
330
318324AF
100
AcDbEntity
  8
SAISEN
100
AcDbHatch
 10
0.0
 20
0.0
 30
0.0
210
0.0
220
0.0
230
1.0
  2
SOLID
 70
     1
 71
     1
 91
        2
 92
        7
 72
     0
 73
     1
 93
        7
 10
71.71956087826128
 20
385.3774178446289
 10
74.71956087826139
 20
385.3774178446288
 10
68.71956087826124
 20
391.3774178446288
 10
62.71956087826134
 20
385.3774178446289
 10
65.71956087826129
 20
385.3774178446288
 10
65.71956087826129
 20
379.3774178446289
 10
71.71956087826129
 20
379.3774178446288
 97
        1
330
318382F0
 92
        7
 72
     0
 73
     1
 93
        7
 10
152.3031629767455
 20
304.8098668108254
 10
152.3031629767455
 20
310.8098668108254
 10
146.3031629767456
 20
310.8098668108254
 10
146.3031629767456
 20
304.8098668108254
 10
143.3031629767455
 20
304.8098668108254
 10
149.3031629767456
 20
298.8098668108253
 10
155.3031629767454
 20
304.8098668108254
 97
        1
330
318382F1
 75
     0
 76
     1
 47
0.2840051093271637
 98
        2
 10
69.89448009275929
 20
382.3891691932853
 10
150.6271500699462
 20
304.8557745365292
  0
ARC
  5
318382C0
330
318324AF
100
AcDbEntity
  8
JISSEN
 62
     0
 48
0.5
100
AcDbCircle
 10
81.95744691786286
 20
402.9407736563749
 30
0.0
 40
25.0
100
AcDbArc
 50
65.00000000000031
 51
90.0
  0
LINE
  5
318382C2
330
318324AF
100
AcDbEntity
  8
JISSEN
 62
     0
100
AcDbLine
 10
85.511361927503
 20
376.4541422727289
 30
0.0
 11
53.26136192750346
 21
376.4541422727285
 31
0.0
  0
ARC
  5
318382C3
330
318324AF
100
AcDbEntity
  8
JISSEN
 62
     0
100
AcDbCircle
 10
149.5113619275039
 20
372.4541422727285
 30
0.0
 40
59.99999999999954
100
AcDbArc
 50
298.1270682186022
 51
124.9048326068523
  0
ARC
  5
318382C4
330
318324AF
100
AcDbEntity
  8
JISSEN
 62
     0
100
AcDbCircle
 10
128.0113619275029
 20
296.9541422727289
 30
0.0
 40
1.5
100
AcDbArc
 50
180.0
 51
270.0
  0
ARC
  5
318382C5
330
318324AF
100
AcDbEntity
  8
JISSEN
 62
     0
100
AcDbCircle
 10
171.0113619275038
 20
296.9541422727285
 30
0.0
 40
1.5
100
AcDbArc
 50
270.0
 51
0.0
  0
ARC
  5
318382C6
330
318324AF
100
AcDbEntity
  8
JISSEN
 62
     0
100
AcDbCircle
 10
116.5113619275029
 20
310.8419886815778
 30
0.0
 40
10.0
100
AcDbArc
 50
0.0
 51
67.31190884913167
  0
ARC
  5
318382C7
330
318324AF
100
AcDbEntity
  8
JISSEN
 62
     0
100
AcDbCircle
 10
182.5113619275029
 20
310.7208449365258
 30
0.0
 40
10.0
100
AcDbArc
 50
118.1270682186022
 51
180.0
  0
LINE
  5
318382C8
330
318324AF
100
AcDbEntity
  8
JISSEN
 62
     0
100
AcDbLine
 10
128.0113619275029
 20
295.454142272729
 30
0.0
 11
171.0113619275038
 21
295.4541422727285
 31
0.0
  0
LINE
  5
318382C9
330
318324AF
100
AcDbEntity
  8
JISSEN
 62
     0
100
AcDbLine
 10
126.511361927503
 20
310.8419886815778
 30
0.0
 11
126.511361927503
 21
296.9541422727289
 31
0.0
  0
LINE
  5
318382CA
330
318324AF
100
AcDbEntity
  8
JISSEN
 62
     0
100
AcDbLine
 10
172.5113619275028
 20
310.7208449365258
 30
0.0
 11
172.5113619275037
 21
296.9541422727285
 31
0.0
  0
ARC
  5
318382CB
330
318324AF
100
AcDbEntity
  8
JISSEN
 62
     0
 48
0.5
100
AcDbCircle
 10
112.8895989170027
 20
424.940773656375
 30
0.0
 40
4.0
100
AcDbArc
 50
270.0
 51
304.9048326068527
  0
LINE
  5
318382CC
330
318324AF
100
AcDbEntity
  8
JISSEN
 62
     0
 48
0.5
100
AcDbLine
 10
103.3981405780746
 20
420.940773656375
 30
0.0
 11
112.8895989170027
 21
420.940773656375
 31
0.0
  0
LINE
  5
318382CD
330
318324AF
100
AcDbEntity
  8
JISSEN
 62
     0
 48
0.5
100
AcDbLine
 10
92.52290346137987
 20
425.598468332291
 30
0.0
 11
101.7076675311122
 21
421.3155425082282
 31
0.0
  0
ARC
  5
318382CE
330
318324AF
100
AcDbEntity
  8
JISSEN
 62
     0
 48
0.5
100
AcDbCircle
 10
103.3981405780746
 20
424.940773656375
 30
0.0
 40
4.0
100
AcDbArc
 50
245.0000000000003
 51
270.0
  0
ARC
  5
318382CF
330
318324AF
100
AcDbEntity
  8
JISSEN
 62
     0
 48
0.5
100
AcDbCircle
 10
85.511361927503
 20
372.4541422727285
 30
0.0
 40
4.0
100
AcDbArc
 50
0.0
 51
90.0
  0
ARC
  5
318382D0
330
318324AF
100
AcDbEntity
  8
JISSEN
 62
     0
100
AcDbCircle
 10
53.26136192750346
 20
377.9541422727285
 30
0.0
 40
1.5
100
AcDbArc
 50
180.0
 51
270.0
  0
LINE
  5
318382D1
330
318324AF
100
AcDbEntity
  8
JISSEN
 62
     0
100
AcDbLine
 10
51.76136192750345
 20
377.9541422727285
 30
0.0
 11
51.76136192750345
 21
385.9407736563749
 31
0.0
  0
ARC
  5
318382D2
330
318324AF
100
AcDbEntity
  8
HASEN
 62
     0
100
AcDbCircle
 10
123.261361927502
 20
326.9878085740452
 30
0.0
 40
7.5
100
AcDbArc
 50
240.0000000000001
 51
247.3119088491316
  0
ARC
  5
318382D3
330
318324AF
100
AcDbEntity
  8
JISSEN
 62
     0
100
AcDbCircle
 10
149.5113619275039
 20
372.4541422727285
 30
0.0
 40
59.99999999999954
100
AcDbArc
 50
243.1158622196436
 51
298.1270682186023
  0
ARC
  5
318382D4
330
318324AF
100
AcDbEntity
  8
JISSEN
 62
     0
100
AcDbCircle
 10
149.5113619275039
 20
372.4541422727294
 30
0.0
 40
60.00000000000006
100
AcDbArc
 50
225.0000000000088
 51
240.0000000000002
  0
LINE
  5
318382D6
330
318324AF
100
AcDbEntity
  8
JISSEN
 62
     0
100
AcDbLine
 10
167.5113619275037
 20
295.4541422727285
 30
0.0
 11
131.5113619275039
 21
295.4541422727285
 31
0.0
  0
LINE
  5
318382D7
330
318324AF
100
AcDbEntity
  8
HATCH
 62
     0
100
AcDbLine
 10
145.3608194620669
 20
312.5978727828702
 30
0.0
 11
145.1177971860174
 21
312.8408950589188
 31
0.0
  0
ARC
  5
318382D8
330
318324AF
100
AcDbEntity
  8
JISSEN
 62
     0
100
AcDbCircle
 10
149.5113619275039
 20
372.4541422727285
 30
0.0
 40
59.99999999999954
100
AcDbArc
 50
124.9048326068523
 51
242.797105587782
  0
CIRCLE
  5
318382D9
330
318324AF
100
AcDbEntity
  8
JISSEN
 62
     0
100
AcDbCircle
 10
175.7613619275038
 20
326.9878085740452
 30
0.0
 40
5.899999999999977
  0
LINE
  5
318382DA
330
318324AF
100
AcDbEntity
  8
JISSEN
 62
     0
100
AcDbLine
 10
179.3630638194075
 20
326.0227354607319
 30
0.0
 11
172.1596600356009
 21
327.9528816873586
 31
0.0
  0
LINE
  5
318382DB
330
318324AF
100
AcDbEntity
  8
JISSEN
 62
     0
100
AcDbLine
 10
176.7264350408171
 20
330.589510465949
 30
0.0
 11
174.7962888141904
 21
323.3861066821424
 31
0.0
  0
LINE
  5
318382DC
330
318324AF
100
AcDbEntity
  8
JISSEN
 62
     0
100
AcDbLine
 10
199.3747331489133
 20
375.0907710513193
 30
0.0
 11
204.6479907060933
 21
369.8175134941385
 31
0.0
  0
LINE
  5
318382DD
330
318324AF
100
AcDbEntity
  8
JISSEN
 62
     0
100
AcDbLine
 10
204.6479907060942
 20
375.0907710513193
 30
0.0
 11
199.3747331489133
 21
369.817513494139
 31
0.0
  0
CIRCLE
  5
318382DE
330
318324AF
100
AcDbEntity
  8
JISSEN
 62
     0
100
AcDbCircle
 10
202.0113619275042
 20
372.4541422727289
 30
0.0
 40
5.899999999999977
  0
LINE
  5
318382DF
330
318324AF
100
AcDbEntity
  8
JISSEN
 62
     0
100
AcDbLine
 10
172.1596600356
 20
416.9554028580988
 30
0.0
 11
179.3630638194066
 21
418.8855490847246
 31
0.0
  0
LINE
  5
318382E0
330
318324AF
100
AcDbEntity
  8
JISSEN
 62
     0
100
AcDbLine
 10
174.7962888141904
 20
421.5221778633159
 30
0.0
 11
176.7264350408162
 21
414.3187740795089
 31
0.0
  0
CIRCLE
  5
318382E1
330
318324AF
100
AcDbEntity
  8
JISSEN
 62
     0
100
AcDbCircle
 10
175.7613619275028
 20
417.9204759714126
 30
0.0
 40
5.899999999999977
  0
LINE
  5
318382E2
330
318324AF
100
AcDbEntity
  8
JISSEN
 62
     0
100
AcDbLine
 10
122.2962888141901
 20
414.3187740795084
 30
0.0
 11
124.2264350408168
 21
421.522177863315
 31
0.0
  0
LINE
  5
318382E3
330
318324AF
100
AcDbEntity
  8
JISSEN
 62
     0
100
AcDbLine
 10
119.6596600355997
 20
418.8855490847255
 30
0.0
 11
126.8630638194063
 21
416.9554028580988
 31
0.0
  0
CIRCLE
  5
318382E4
330
318324AF
100
AcDbEntity
  8
JISSEN
 62
     0
100
AcDbCircle
 10
123.2613619275034
 20
417.9204759714122
 30
0.0
 40
5.899999999999977
  0
LINE
  5
318382E5
330
318324AF
100
AcDbEntity
  8
JISSEN
 62
     0
100
AcDbLine
 10
99.64799070609434
 20
369.8175134941376
 30
0.0
 11
94.37473314891349
 21
375.0907710513184
 31
0.0
  0
LINE
  5
318382E6
330
318324AF
100
AcDbEntity
  8
JISSEN
 62
     0
100
AcDbLine
 10
94.37473314891258
 20
369.8175134941376
 30
0.0
 11
99.64799070609343
 21
375.0907710513175
 31
0.0
  0
CIRCLE
  5
318382E7
330
318324AF
100
AcDbEntity
  8
JISSEN
 62
     0
100
AcDbCircle
 10
97.01136192750301
 20
372.454142272728
 30
0.0
 40
5.899999999999977
  0
LINE
  5
318382E8
330
318324AF
100
AcDbEntity
  8
JISSEN
 62
     0
100
AcDbLine
 10
126.8630638194076
 20
327.9528816873581
 30
0.0
 11
119.659660035601
 21
326.0227354607323
 31
0.0
  0
LINE
  5
318382E9
330
318324AF
100
AcDbEntity
  8
JISSEN
 62
     0
100
AcDbLine
 10
124.2264350408172
 20
323.386106682141
 30
0.0
 11
122.296288814191
 21
330.5895104659477
 31
0.0
  0
CIRCLE
  5
318382EA
330
318324AF
100
AcDbEntity
  8
JISSEN
 62
     0
100
AcDbCircle
 10
123.2613619275039
 20
326.9878085740448
 30
0.0
 40
5.899999999999977
  0
ARC
  5
318382EB
330
318324AF
100
AcDbEntity
  8
JISSEN
 62
     0
 48
0.5
100
AcDbCircle
 10
68.59610405324293
 20
373.1040550456374
 30
0.0
 40
21.17049567514694
100
AcDbArc
 50
44.04753815862822
 51
142.6739893895464
  0
LINE
  5
318382EC
330
318324AF
100
AcDbEntity
  8
JISSEN
 62
     0
100
AcDbLine
 10
85.26136192750209
 20
385.9407736563754
 30
0.0
 11
91.0467506321088
 21
385.9407736563754
 31
0.0
  0
LINE
  5
318382ED
330
318324AF
100
AcDbEntity
  8
JISSEN
 62
     0
100
AcDbLine
 10
85.261361927503
 20
377.9541422727289
 30
0.0
 11
85.261361927503
 21
385.9407736563754
 31
0.0
  0
LINE
  5
318382EE
330
318324AF
100
AcDbEntity
  8
JISSEN
 62
     0
 48
0.5
100
AcDbLine
 10
87.49981348393566
 20
424.9126157086076
 30
0.0
 11
87.49981348393566
 21
390.8084640263488
 31
0.0
  0
LINE
  5
318382EF
330
318324AF
100
AcDbEntity
  8
JISSEN
 62
     0
 48
0.5
100
AcDbLine
 10
102.511361927503
 20
419.1058650113529
 30
0.0
 11
102.511361927503
 21
409.750254670672
 31
0.0
  0
LWPOLYLINE
  5
318382F0
102
{ACAD_REACTORS
330
318382B9
102
}
330
318324AF
100
AcDbEntity
  8
SAISEN
 62
     0
100
AcDbPolyline
 90
        8
 70
     0
 43
0.0
 10
71.71956087826129
 20
379.3774178446288
 10
71.71956087826129
 20
385.3774178446288
 10
74.71956087826129
 20
385.3774178446288
 10
68.71956087826129
 20
391.3774178446288
 10
62.71956087826129
 20
385.3774178446288
 10
65.71956087826129
 20
385.3774178446288
 10
65.71956087826129
 20
379.3774178446288
 10
71.71956087826129
 20
379.3774178446288
  0
LWPOLYLINE
  5
318382F1
102
{ACAD_REACTORS
330
318382B9
102
}
330
318324AF
100
AcDbEntity
  8
SUNPOU
 62
     0
100
AcDbPolyline
 90
        8
 70
     0
 43
0.0
 10
146.3031629767456
 20
310.8098668108254
 10
146.3031629767456
 20
304.8098668108254
 10
143.3031629767456
 20
304.8098668108254
 10
149.3031629767456
 20
298.8098668108253
 10
155.3031629767455
 20
304.8098668108254
 10
152.3031629767455
 20
304.8098668108254
 10
152.3031629767455
 20
310.8098668108254
 10
146.3031629767456
 20
310.8098668108254
  0
LINE
  5
31838304
330
318324AF
100
AcDbEntity
  8
JISSEN
100
AcDbLine
 10
473.3481311374365
 20
391.4547049591455
 30
0.0
 11
473.3481311374366
 21
393.4541422727294
 31
0.0
  0
LINE
  5
31838456
330
318324AF
100
AcDbEntity
  8
JISSEN
 62
     0
 48
0.3
100
AcDbLine
 10
348.8170422241904
 20
394.7041422727282
 30
0.0
 11
357.8792200560645
 21
394.7041422727282
 31
0.0
  0
LINE
  5
31838457
330
318324AF
100
AcDbEntity
  8
JISSEN
 62
     0
 48
0.3
100
AcDbLine
 10
348.8170423011937
 20
350.2041422727283
 30
0.0
 11
357.8792201330674
 21
350.2041422727283
 31
0.0
  0
LINE
  5
31838458
330
318324AF
100
AcDbEntity
  8
JISSEN
 62
     0
 48
0.3
100
AcDbLine
 10
359.3015245535615
 20
345.8960298915261
 30
0.0
 11
369.3947378753158
 21
345.8960298915261
 31
0.0
  0
LINE
  5
31838459
330
318324AF
100
AcDbEntity
  8
JISSEN
 62
     0
 48
0.3
100
AcDbLine
 10
359.3015244765587
 20
399.01225465393
 30
0.0
 11
369.3947377983139
 21
399.01225465393
 31
0.0
  0
LINE
  5
3183845A
330
318324AF
100
AcDbEntity
  8
JISSEN
 62
     0
100
AcDbLine
 10
329.8481312144389
 20
298.9541422727301
 30
0.0
 11
328.8481312144389
 21
297.9541422727301
 31
0.0
  0
LINE
  5
3183845B
330
318324AF
100
AcDbEntity
  8
JISSEN
 62
     0
 48
0.3
100
AcDbLine
 10
328.8481312144389
 20
322.9541422727296
 30
0.0
 11
329.8481312144389
 21
321.9541422727296
 31
0.0
  0
ARC
  5
3183845C
330
318324AF
100
AcDbEntity
  8
JISSEN
 62
     0
100
AcDbCircle
 10
324.3481312144389
 20
324.4541422727301
 30
0.0
 40
1.5
100
AcDbArc
 50
180.0
 51
270.0
  0
LINE
  5
3183845D
330
318324AF
100
AcDbEntity
  8
JISSEN
 62
     0
100
AcDbLine
 10
348.3481312144389
 20
351.9541422727292
 30
0.0
 11
348.3481312144389
 21
359.2672952498509
 31
0.0
  0
LINE
  5
3183845E
330
318324AF
100
AcDbEntity
  8
JISSEN
 62
     0
100
AcDbLine
 10
348.3481312144389
 20
392.9541422727292
 30
0.0
 11
348.3481312144389
 21
359.2672952498504
 31
0.0
  0
LINE
  5
3183845F
330
318324AF
100
AcDbEntity
  8
JISSEN
 62
     0
 48
0.3
100
AcDbLine
 10
358.3481312144389
 20
349.4541422727292
 30
0.0
 11
359.3015245535615
 21
345.8960298915261
 31
0.0
  0
LINE
  5
31838460
330
318324AF
100
AcDbEntity
  8
JISSEN
 62
     0
 48
0.3
100
AcDbLine
 10
370.3481312144389
 20
349.4541422727292
 30
0.0
 11
369.3947378753158
 21
345.8960298915261
 31
0.0
  0
LINE
  5
31838461
330
318324AF
100
AcDbEntity
  8
JISSEN
 62
     0
 48
0.3
100
AcDbLine
 10
358.3481311374365
 20
395.4541422727282
 30
0.0
 11
359.3015244765587
 21
399.01225465393
 31
0.0
  0
LINE
  5
31838462
330
318324AF
100
AcDbEntity
  8
JISSEN
 62
     0
 48
0.3
100
AcDbLine
 10
370.348131137436
 20
395.4541422727282
 30
0.0
 11
369.3947377983139
 21
399.01225465393
 31
0.0
  0
LINE
  5
31838463
330
318324AF
100
AcDbEntity
  8
JISSEN
 62
     0
100
AcDbLine
 10
370.3481311374356
 20
332.4541422727287
 30
0.0
 11
370.3481311374365
 21
412.4541422727283
 31
0.0
  0
LINE
  5
31838464
330
318324AF
100
AcDbEntity
  8
JISSEN
 62
     0
 48
0.3
100
AcDbLine
 10
373.3481312144384
 20
332.4541422727282
 30
0.0
 11
370.3481312144384
 21
332.4541422727282
 31
0.0
  0
LINE
  5
31838465
330
318324AF
100
AcDbEntity
  8
JISSEN
 62
     0
 48
0.3
100
AcDbLine
 10
373.348131137437
 20
412.4541422727283
 30
0.0
 11
373.3481311374365
 21
332.4541422727287
 31
0.0
  0
LINE
  5
31838466
330
318324AF
100
AcDbEntity
  8
JISSEN
 62
     0
 48
0.3
100
AcDbLine
 10
370.348131137436
 20
412.4541422727283
 30
0.0
 11
373.348131137437
 21
412.4541422727283
 31
0.0
  0
LINE
  5
31838467
330
318324AF
100
AcDbEntity
  8
JISSEN
 62
     0
 48
0.3
100
AcDbLine
 10
329.8481312144389
 20
321.9541422727296
 30
0.0
 11
329.8481312144389
 21
298.9541422727301
 31
0.0
  0
LINE
  5
3183846A
330
318324AF
100
AcDbEntity
  8
JISSEN
 62
     0
100
AcDbLine
 10
445.3481311374352
 20
391.4547049591455
 30
0.0
 11
473.3481311374363
 21
391.4547049591455
 31
0.0
  0
ARC
  5
3183846B
330
318324AF
100
AcDbEntity
  8
JISSEN
 62
     0
100
AcDbCircle
 10
377.3481312144384
 20
355.4541422727287
 30
0.0
 40
2.0
100
AcDbArc
 50
270.0
 51
0.0
  0
ARC
  5
3183846C
330
318324AF
100
AcDbEntity
  8
JISSEN
 62
     0
100
AcDbCircle
 10
377.3481311374361
 20
389.4541422727283
 30
0.0
 40
2.0
100
AcDbArc
 50
0.0
 51
90.0
  0
ARC
  5
3183846D
330
318324AF
100
AcDbEntity
  8
JISSEN
 62
     0
100
AcDbCircle
 10
329.8481312144393
 20
390.9541422727287
 30
0.0
 40
1.5
100
AcDbArc
 50
0.0
 51
90.0
  0
ARC
  5
3183846E
330
318324AF
100
AcDbEntity
  8
JISSEN
 62
     0
100
AcDbCircle
 10
329.8481312144393
 20
353.9541422727287
 30
0.0
 40
1.5
100
AcDbArc
 50
270.0
 51
0.0
  0
LINE
  5
31838471
330
318324AF
100
AcDbEntity
  8
JISSEN
 62
     0
100
AcDbLine
 10
259.3481312144389
 20
312.4541422727283
 30
0.0
 11
259.3481312144389
 21
295.4541422727282
 31
0.0
  0
LINE
  5
31838472
330
318324AF
100
AcDbEntity
  8
SAISEN
 62
     0
100
AcDbLine
 10
442.3481312144371
 20
360.4292952498516
 30
0.0
 11
444.3481312144394
 21
360.4292952498516
 31
0.0
  0
LINE
  5
31838473
330
318324AF
100
AcDbEntity
  8
JISSEN
 62
     0
100
AcDbLine
 10
304.1481312144391
 20
432.4541422727283
 30
0.0
 11
308.64813121444
 21
432.4541422727283
 31
0.0
  0
LINE
  5
31838474
330
318324AF
100
AcDbEntity
  8
JISSEN
 62
     0
 48
0.3
100
AcDbLine
 10
444.3481312144375
 20
385.6409892956061
 30
0.0
 11
440.3354881760418
 21
385.6409892956061
 31
0.0
  0
LINE
  5
31838475
330
318324AF
100
AcDbEntity
  8
JISSEN
 62
     0
 48
0.3
100
AcDbLine
 10
439.9974881760416
 20
385.8361336865922
 30
0.0
 11
440.3354881760418
 21
385.6409892956061
 31
0.0
  0
LINE
  5
31838476
330
318324AF
100
AcDbEntity
  8
JISSEN
 62
     0
 48
0.3
100
AcDbLine
 10
440.3354881760418
 20
359.2672952498513
 30
0.0
 11
444.3481312144394
 21
359.2672952498513
 31
0.0
  0
LINE
  5
3183847B
330
318324AF
100
AcDbEntity
  8
JISSEN
 62
     0
 48
0.3
100
AcDbLine
 10
257.8481312144384
 20
432.4541422727287
 30
0.0
 11
259.3481312144384
 21
432.4541422727287
 31
0.0
  0
ARC
  5
3183847C
330
318324AF
100
AcDbEntity
  8
JISSEN
 62
     0
100
AcDbCircle
 10
310.3481312144393
 20
431.4541422727282
 30
0.0
 40
1.0
100
AcDbArc
 50
0.0
 51
90.0
  0
LINE
  5
3183847D
330
318324AF
100
AcDbEntity
  8
JISSEN
 62
     0
100
AcDbLine
 10
257.8481312144389
 20
432.4541422727287
 30
0.0
 11
310.3481312144393
 21
432.4541422727283
 31
0.0
  0
LINE
  5
3183847E
330
318324AF
100
AcDbEntity
  8
JISSEN
 62
     0
100
AcDbLine
 10
311.3481312144394
 20
431.4541422727282
 30
0.0
 11
311.3481312144389
 21
427.4541422727282
 31
0.0
  0
LINE
  5
3183847F
330
318324AF
100
AcDbEntity
  8
JISSEN
 62
     0
100
AcDbLine
 10
305.3481312144389
 20
295.4541422727278
 30
0.0
 11
305.3481312144389
 21
327.4541422727283
 31
0.0
  0
ARC
  5
31838480
330
318324AF
100
AcDbEntity
  8
JISSEN
 62
     0
100
AcDbCircle
 10
310.3481312144393
 20
431.4541422727282
 30
0.0
 40
1.0
100
AcDbArc
 50
0.0
 51
90.0
  0
LINE
  5
31838481
330
318324AF
100
AcDbEntity
  8
JISSEN
 62
     0
100
AcDbLine
 10
257.8481312144389
 20
432.4541422727287
 30
0.0
 11
310.3481312144393
 21
432.4541422727283
 31
0.0
  0
LINE
  5
31838482
330
318324AF
100
AcDbEntity
  8
JISSEN
 62
     0
100
AcDbLine
 10
311.3481312144394
 20
431.4541422727282
 30
0.0
 11
311.3481312144389
 21
427.4541422727282
 31
0.0
  0
LINE
  5
31838483
330
318324AF
100
AcDbEntity
  8
JISSEN
 62
     0
100
AcDbLine
 10
329.8481312144393
 20
392.4541422727287
 30
0.0
 11
315.3481312144389
 21
392.4541422727283
 31
0.0
  0
LINE
  5
31838484
330
318324AF
100
AcDbEntity
  8
JISSEN
 62
     0
100
AcDbLine
 10
305.3481312144389
 20
295.4541422727278
 30
0.0
 11
305.3481312144384
 21
432.4541422727287
 31
0.0
  0
LINE
  5
31838485
330
318324AF
100
AcDbEntity
  8
JISSEN
 62
     0
100
AcDbLine
 10
259.3481312144384
 20
295.4541422727282
 30
0.0
 11
310.3900913228893
 21
295.4541422727278
 31
0.0
  0
ARC
  5
31838486
330
318324AF
100
AcDbEntity
  8
JISSEN
 62
     0
100
AcDbCircle
 10
310.3900913228893
 20
296.4541422727278
 30
0.0
 40
1.0
100
AcDbArc
 50
270.0
 51
350.4059317731748
  0
ARC
  5
31838487
330
318324AF
100
AcDbEntity
  8
JISSEN
 62
     0
100
AcDbCircle
 10
313.3481312144389
 20
295.9541422727296
 30
0.0
 40
2.0
100
AcDbArc
 50
90.0
 51
170.4059317731748
  0
ARC
  5
31838488
330
318324AF
100
AcDbEntity
  8
JISSEN
 62
     0
100
AcDbCircle
 10
315.3481312144389
 20
396.4541422727283
 30
0.0
 40
4.0
100
AcDbArc
 50
180.0
 51
270.0
  0
LINE
  5
31838489
330
318324AF
100
AcDbEntity
  8
JISSEN
 62
     0
 48
0.3
100
AcDbLine
 10
331.3481312144389
 20
385.6409892956061
 30
0.0
 11
348.3481312144389
 21
385.6409892956061
 31
0.0
  0
LINE
  5
3183848A
330
318324AF
100
AcDbEntity
  8
SAISEN
 62
     0
 48
0.3
100
AcDbLine
 10
386.3481312144389
 20
384.4789892956063
 30
0.0
 11
379.3481312144384
 21
384.4789892956059
 31
0.0
  0
LINE
  5
3183848B
330
318324AF
100
AcDbEntity
  8
SAISEN
 62
     0
 48
0.3
100
AcDbLine
 10
386.3481312144389
 20
360.4292952498507
 30
0.0
 11
379.3481312144384
 21
360.4292952498506
 31
0.0
  0
LINE
  5
3183848C
330
318324AF
100
AcDbEntity
  8
JISSEN
 62
     0
 48
0.3
100
AcDbLine
 10
331.3481312144366
 20
359.2672952498509
 30
0.0
 11
348.3481312144389
 21
359.2672952498509
 31
0.0
  0
LINE
  5
3183848D
330
318324AF
100
AcDbEntity
  8
SAISEN
 62
     0
100
AcDbLine
 10
386.3481312144394
 20
360.4292952498507
 30
0.0
 11
388.3607742528342
 21
359.2672952498509
 31
0.0
  0
LINE
  5
3183848E
330
318324AF
100
AcDbEntity
  8
JISSEN
 62
     0
100
AcDbLine
 10
389.0763762005093
 20
358.8541422727279
 30
0.0
 11
388.3607742528342
 21
359.2672952498509
 31
0.0
  0
LINE
  5
3183848F
330
318324AF
100
AcDbEntity
  8
JISSEN
 62
     0
100
AcDbLine
 10
311.3481312144389
 20
422.4541422727282
 30
0.0
 11
311.3481312144389
 21
396.4541422727283
 31
0.0
  0
LINE
  5
31838490
330
318324AF
100
AcDbEntity
  8
JISSEN
 62
     0
100
AcDbLine
 10
311.3481312144389
 20
422.4541422727282
 30
0.0
 11
311.3481312144389
 21
295.9541422727296
 31
0.0
  0
LINE
  5
31838491
330
318324AF
100
AcDbEntity
  8
JISSEN
 62
     0
 48
0.3
100
AcDbLine
 10
311.3481312144389
 20
430.8541422727284
 30
0.0
 11
311.3481312144389
 21
419.0541422727282
 31
0.0
  0
LINE
  5
31838496
330
318324AF
100
AcDbEntity
  8
JISSEN
 62
     0
100
AcDbLine
 10
445.3481312144361
 20
353.4541422727282
 30
0.0
 11
473.3481312144391
 21
353.4541422727285
 31
0.0
  0
LINE
  5
31838497
330
318324AF
100
AcDbEntity
  8
JISSEN
 62
     0
100
AcDbLine
 10
444.3481311374352
 20
390.4547049591455
 30
0.0
 11
445.3481311374352
 21
391.4547049591455
 31
0.0
  0
LINE
  5
31838498
330
318324AF
100
AcDbEntity
  8
JISSEN
 62
     0
100
AcDbLine
 10
444.3481312144362
 20
354.4541422727283
 30
0.0
 11
445.3481312144361
 21
353.4541422727282
 31
0.0
  0
LINE
  5
31838499
330
318324AF
100
AcDbEntity
  8
JISSEN
 62
     0
100
AcDbLine
 10
257.8481312144384
 20
432.4541422727287
 30
0.0
 11
255.8481312144389
 21
432.4541422727287
 31
0.0
  0
LINE
  5
3183849A
330
318324AF
100
AcDbEntity
  8
JISSEN
 62
     0
100
AcDbLine
 10
255.8481312144389
 20
312.4541422727283
 30
0.0
 11
259.3481312144389
 21
312.4541422727283
 31
0.0
  0
LINE
  5
3183849B
330
318324AF
100
AcDbEntity
  8
JISSEN
 62
     0
100
AcDbLine
 10
313.3481312144389
 20
322.9541422727305
 30
0.0
 11
328.8481312144389
 21
322.9541422727296
 31
0.0
  0
LINE
  5
3183849C
330
318324AF
100
AcDbEntity
  8
JISSEN
 62
     0
100
AcDbLine
 10
313.3481312144389
 20
297.9541422727301
 30
0.0
 11
328.8481312144389
 21
297.9541422727301
 31
0.0
  0
LINE
  5
3183849D
330
318324AF
100
AcDbEntity
  8
JISSEN
 62
     0
100
AcDbLine
 10
259.3481312144389
 20
312.4541422727283
 30
0.0
 11
258.3481312144389
 21
312.4541422727283
 31
0.0
  0
LINE
  5
3183849E
330
318324AF
100
AcDbEntity
  8
JISSEN
 62
     0
100
AcDbLine
 10
322.8481312144389
 20
324.4541422727301
 30
0.0
 11
322.8481312144389
 21
350.9541422727282
 31
0.0
  0
ARC
  5
3183849F
330
318324AF
100
AcDbEntity
  8
JISSEN
 62
     0
100
AcDbCircle
 10
324.3481312144389
 20
350.9541422727282
 30
0.0
 40
1.5
100
AcDbArc
 50
90.0
 51
180.0
  0
ARC
  5
318384A0
330
318324AF
100
AcDbEntity
  8
JISSEN
 62
     0
100
AcDbCircle
 10
329.8481312144393
 20
353.9541422727287
 30
0.0
 40
1.5
100
AcDbArc
 50
270.0
 51
0.0
  0
LINE
  5
318384A1
330
318324AF
100
AcDbEntity
  8
JISSEN
 62
     0
100
AcDbLine
 10
259.3481312144384
 20
432.4541422727287
 30
0.0
 11
259.3481312144389
 21
312.4541422727283
 31
0.0
  0
LINE
  5
318384A2
330
318324AF
100
AcDbEntity
  8
JISSEN
 62
     0
100
AcDbLine
 10
255.5481312144387
 20
412.0204744565038
 30
0.0
 11
255.8481312144389
 21
412.0204744565038
 31
0.0
  0
LINE
  5
318384A3
330
318324AF
100
AcDbEntity
  8
JISSEN
 62
     0
100
AcDbLine
 10
255.5481312144387
 20
423.820474456504
 30
0.0
 11
255.8481312144389
 21
423.820474456504
 31
0.0
  0
ARC
  5
318384A4
330
318324AF
100
AcDbEntity
  8
JISSEN
 62
     0
100
AcDbCircle
 10
260.3642026430105
 20
417.9204744565039
 30
0.0
 40
7.616071428571543
100
AcDbArc
 50
129.2241874178113
 51
230.7758125821886
  0
LINE
  5
318384A5
330
318324AF
100
AcDbEntity
  8
JISSEN
 62
     0
100
AcDbLine
 10
255.5481312144387
 20
423.820474456504
 30
0.0
 11
255.5481312144387
 21
412.0204744565038
 31
0.0
  0
LINE
  5
318384A6
330
318324AF
100
AcDbEntity
  8
JISSEN
 62
     0
100
AcDbLine
 10
255.8481312144389
 20
432.4541422727287
 30
0.0
 11
255.8481312144389
 21
312.4541422727283
 31
0.0
  0
LINE
  5
318384A7
330
318324AF
100
AcDbEntity
  8
JISSEN
 62
     0
100
AcDbLine
 10
259.3481312144384
 20
432.4541422727287
 30
0.0
 11
307.64813121444
 21
432.4541422727283
 31
0.0
  0
LINE
  5
318384A8
330
318324AF
100
AcDbEntity
  8
JISSEN
 62
     0
100
AcDbLine
 10
257.8481312144384
 20
432.4541422727287
 30
0.0
 11
257.8481312144389
 21
312.4541422727283
 31
0.0
  0
LINE
  5
318384A9
330
318324AF
100
AcDbEntity
  8
JISSEN
 62
     0
100
AcDbLine
 10
389.0763762005093
 20
386.0541422727291
 30
0.0
 11
388.3607742528342
 21
385.6409892956061
 31
0.0
  0
LINE
  5
318384AA
330
318324AF
100
AcDbEntity
  8
SAISEN
 62
     0
100
AcDbLine
 10
386.3481312144394
 20
384.4789892956063
 30
0.0
 11
388.3607742528342
 21
385.6409892956061
 31
0.0
  0
LINE
  5
318384AB
330
318324AF
100
AcDbEntity
  8
JISSEN
 62
     0
100
AcDbLine
 10
439.6198862283666
 20
358.8541422727288
 30
0.0
 11
440.3354881760418
 21
359.2672952498513
 31
0.0
  0
LINE
  5
318384AC
330
318324AF
100
AcDbEntity
  8
SAISEN
 62
     0
100
AcDbLine
 10
442.3481312144371
 20
360.4292952498516
 30
0.0
 11
440.3354881760418
 21
359.2672952498513
 31
0.0
  0
LINE
  5
318384AD
330
318324AF
100
AcDbEntity
  8
JISSEN
 62
     0
100
AcDbLine
 10
439.6198862283666
 20
386.0541422727286
 30
0.0
 11
440.3354881760418
 21
385.6409892956061
 31
0.0
  0
LINE
  5
318384AE
330
318324AF
100
AcDbEntity
  8
SAISEN
 62
     0
100
AcDbLine
 10
442.3481312144371
 20
384.4789892956063
 30
0.0
 11
440.3354881760418
 21
385.6409892956061
 31
0.0
  0
LINE
  5
318384AF
330
318324AF
100
AcDbEntity
  8
JISSEN
 62
     0
100
AcDbLine
 10
444.3481311374374
 20
354.4541422727246
 30
0.0
 11
444.3481311374342
 21
390.4547049591446
 31
0.0
  0
LINE
  5
318384B0
330
318324AF
100
AcDbEntity
  8
SAISEN
 62
     0
100
AcDbLine
 10
442.3481312144371
 20
384.4789892956063
 30
0.0
 11
444.3481312144371
 21
384.4789892956067
 31
0.0
  0
LINE
  5
318384BD
330
318324AF
100
AcDbEntity
  8
JISSEN
 62
     0
 48
0.3
100
AcDbLine
 10
331.3481312144393
 20
390.9541422727287
 30
0.0
 11
331.3481312144366
 21
353.9541422727287
 31
0.0
  0
LINE
  5
318384BE
330
318324AF
100
AcDbEntity
  8
JISSEN
 62
     0
100
AcDbLine
 10
373.3481311374365
 20
391.4541422727278
 30
0.0
 11
377.3481311374361
 21
391.4541422727278
 31
0.0
  0
LINE
  5
318384BF
330
318324AF
100
AcDbEntity
  8
JISSEN
 62
     0
100
AcDbLine
 10
373.3481312144389
 20
353.4541422727287
 30
0.0
 11
377.3481312144384
 21
353.4541422727287
 31
0.0
  0
LINE
  5
318384C0
330
318324AF
100
AcDbEntity
  8
JISSEN
 62
     0
100
AcDbLine
 10
379.348131137436
 20
389.4541422727283
 30
0.0
 11
379.348131137436
 21
359.2672952498504
 31
0.0
  0
LINE
  5
318384C1
330
318324AF
100
AcDbEntity
  8
JISSEN
 62
     0
100
AcDbLine
 10
379.3481312144384
 20
359.3002811686736
 30
0.0
 11
379.3481312144384
 21
355.4541422727287
 31
0.0
  0
LINE
  5
318384C2
330
318324AF
100
AcDbEntity
  8
JISSEN
 62
     0
100
AcDbLine
 10
358.3481311374365
 20
349.4541422727292
 30
0.0
 11
358.3481311374365
 21
395.4541422727282
 31
0.0
  0
LINE
  5
318384C3
330
318324AF
100
AcDbEntity
  8
JISSEN
 62
     0
 48
0.3
100
AcDbLine
 10
358.3481311374365
 20
392.9541422928163
 30
0.0
 11
357.8792200560645
 21
394.7041422727282
 31
0.0
  0
LINE
  5
318384C4
330
318324AF
100
AcDbEntity
  8
JISSEN
 62
     0
 48
0.3
100
AcDbLine
 10
348.3481312144393
 20
392.954142272731
 30
0.0
 11
348.8170423011928
 21
394.7041422727282
 31
0.0
  0
LINE
  5
318384C5
330
318324AF
100
AcDbEntity
  8
JISSEN
 62
     0
 48
0.3
100
AcDbLine
 10
358.3481312144389
 20
351.9541422526398
 30
0.0
 11
357.8792201330674
 21
350.2041422727283
 31
0.0
  0
LINE
  5
318384C6
330
318324AF
100
AcDbEntity
  8
JISSEN
 62
     0
 48
0.3
100
AcDbLine
 10
348.3481312144389
 20
351.9541422727282
 30
0.0
 11
348.8170423011937
 21
350.2041422727283
 31
0.0
  0
ARC
  5
318384C7
330
318324AF
100
AcDbEntity
  8
JISSEN
 62
     0
100
AcDbCircle
 10
315.3481312144389
 20
348.4541422727283
 30
0.0
 40
4.0
100
AcDbArc
 50
90.0
 51
180.0
  0
LINE
  5
318384C8
330
318324AF
100
AcDbEntity
  8
JISSEN
 62
     0
100
AcDbLine
 10
329.8481312144393
 20
352.4541422727278
 30
0.0
 11
315.3481312144389
 21
352.4541422727283
 31
0.0
  0
ARC
  5
318384C9
330
318324AF
100
AcDbEntity
  8
JISSEN
 62
     0
100
AcDbCircle
 10
313.3481312144389
 20
324.9541422727305
 30
0.0
 40
2.0
100
AcDbArc
 50
268.4126673154644
 51
270.0
  0
ARC
  5
318384CA
330
318324AF
100
AcDbEntity
  8
JISSEN
 62
     0
100
AcDbCircle
 10
306.8320597858672
 20
372.45414359433
 30
0.0
 40
7.616071428571543
100
AcDbArc
 50
309.2241874178113
 51
50.77581258218865
  0
LINE
  5
318384CB
330
318324AF
100
AcDbEntity
  8
JISSEN
 62
     0
100
AcDbLine
 10
311.6481312144386
 20
378.3541435943297
 30
0.0
 11
311.6481312144386
 21
366.5541435943294
 31
0.0
  0
LINE
  5
318384CC
330
318324AF
100
AcDbEntity
  8
JISSEN
 62
     0
100
AcDbLine
 10
311.6481312144386
 20
366.5541435943294
 30
0.0
 11
311.3481312144384
 21
366.5541435943294
 31
0.0
  0
LINE
  5
318384CD
330
318324AF
100
AcDbEntity
  8
JISSEN
 62
     0
100
AcDbLine
 10
311.6481312144386
 20
378.3541435943297
 30
0.0
 11
311.3481312144384
 21
378.3541435943297
 31
0.0
  0
LINE
  5
318384CE
330
318324AF
100
AcDbEntity
  8
JISSEN
 62
     0
100
AcDbLine
 10
311.6481312144386
 20
412.0204744565038
 30
0.0
 11
311.3481312144384
 21
412.0204744565038
 31
0.0
  0
ARC
  5
318384CF
330
318324AF
100
AcDbEntity
  8
JISSEN
 62
     0
100
AcDbCircle
 10
306.8320597858672
 20
417.9204744565039
 30
0.0
 40
7.616071428571543
100
AcDbArc
 50
309.2241874178113
 51
50.77581258218865
  0
LINE
  5
318384D0
330
318324AF
100
AcDbEntity
  8
JISSEN
 62
     0
100
AcDbLine
 10
311.6481312144386
 20
423.820474456504
 30
0.0
 11
311.3481312144384
 21
423.820474456504
 31
0.0
  0
LINE
  5
318384D1
330
318324AF
100
AcDbEntity
  8
JISSEN
 62
     0
100
AcDbLine
 10
311.6481312144386
 20
423.820474456504
 30
0.0
 11
311.6481312144386
 21
412.0204744565038
 31
0.0
  0
LINE
  5
318384D2
330
318324AF
100
AcDbEntity
  8
JISSEN
 62
     0
100
AcDbLine
 10
255.5481312144387
 20
378.3541422727283
 30
0.0
 11
255.5481312144387
 21
366.5541422727282
 31
0.0
  0
ARC
  5
318384D3
330
318324AF
100
AcDbEntity
  8
JISSEN
 62
     0
100
AcDbCircle
 10
260.3642026430105
 20
372.4541422727282
 30
0.0
 40
7.616071428571543
100
AcDbArc
 50
129.2241874178113
 51
230.7758125821886
  0
LINE
  5
318384D4
330
318324AF
100
AcDbEntity
  8
JISSEN
 62
     0
100
AcDbLine
 10
255.5481312144387
 20
366.5541422727282
 30
0.0
 11
255.8481312144389
 21
366.5541422727282
 31
0.0
  0
LINE
  5
318384D5
330
318324AF
100
AcDbEntity
  8
JISSEN
 62
     0
100
AcDbLine
 10
255.5481312144387
 20
378.3541422727283
 30
0.0
 11
255.8481312144389
 21
378.3541422727283
 31
0.0
  0
LINE
  5
318384D6
330
318324AF
100
AcDbEntity
  8
JISSEN
 62
     0
100
AcDbLine
 10
311.6481312144386
 20
321.0878100889525
 30
0.0
 11
311.6481312144386
 21
332.8878100889527
 31
0.0
  0
LINE
  5
318384D7
330
318324AF
100
AcDbEntity
  8
JISSEN
 62
     0
100
AcDbLine
 10
311.6481312144386
 20
321.0878100889525
 30
0.0
 11
311.3481312144384
 21
321.0878100889525
 31
0.0
  0
ARC
  5
318384D8
330
318324AF
100
AcDbEntity
  8
JISSEN
 62
     0
100
AcDbCircle
 10
306.8320597858672
 20
326.9878100889526
 30
0.0
 40
7.616071428571543
100
AcDbArc
 50
309.2241874178113
 51
50.77581258218865
  0
LINE
  5
318384D9
330
318324AF
100
AcDbEntity
  8
JISSEN
 62
     0
100
AcDbLine
 10
311.6481312144386
 20
332.8878100889527
 30
0.0
 11
311.3481312144384
 21
332.8878100889527
 31
0.0
  0
LINE
  5
318384DA
330
318324AF
100
AcDbEntity
  8
JISSEN
 62
     0
100
AcDbLine
 10
255.5481312144387
 20
321.0878100889525
 30
0.0
 11
255.5481312144387
 21
332.8878100889527
 31
0.0
  0
ARC
  5
318384DB
330
318324AF
100
AcDbEntity
  8
JISSEN
 62
     0
100
AcDbCircle
 10
260.3642026430105
 20
326.9878100889526
 30
0.0
 40
7.616071428571543
100
AcDbArc
 50
129.2241874178113
 51
230.7758125821886
  0
LINE
  5
318384DC
330
318324AF
100
AcDbEntity
  8
JISSEN
 62
     0
100
AcDbLine
 10
255.5481312144387
 20
321.0878100889525
 30
0.0
 11
255.8481312144389
 21
321.0878100889525
 31
0.0
  0
LINE
  5
318384DD
330
318324AF
100
AcDbEntity
  8
JISSEN
 62
     0
100
AcDbLine
 10
255.5481312144387
 20
332.8878100889527
 30
0.0
 11
255.8481312144389
 21
332.8878100889527
 31
0.0
  0
LINE
  5
318384DE
330
318324AF
100
AcDbEntity
  8
SAISEN
 62
     0
 48
0.3
100
AcDbLine
 10
348.3481312144389
 20
384.4789892956063
 30
0.0
 11
331.3481312144389
 21
384.4789892956058
 31
0.0
  0
LINE
  5
318384DF
330
318324AF
100
AcDbEntity
  8
JISSEN
 62
     0
 48
0.3
100
AcDbLine
 10
379.3481312144384
 20
385.6409892956057
 30
0.0
 11
388.3607742528342
 21
385.6409892956061
 31
0.0
  0
LINE
  5
318384E0
330
318324AF
100
AcDbEntity
  8
JISSEN
 62
     0
 48
0.3
100
AcDbLine
 10
379.3481312144387
 20
359.2672952498505
 30
0.0
 11
388.3607742528342
 21
359.2672952498509
 31
0.0
  0
LINE
  5
318384E1
330
318324AF
100
AcDbEntity
  8
SAISEN
 62
     0
 48
0.3
100
AcDbLine
 10
348.3481312144389
 20
360.4292952498507
 30
0.0
 11
331.3481312144366
 21
360.4292952498507
 31
0.0
  0
LINE
  5
318384E2
330
318324AF
100
AcDbEntity
  8
JISSEN
 62
     0
 48
0.3
100
AcDbLine
 10
389.0763762005097
 20
386.0541422727291
 30
0.0
 11
389.0763762005093
 21
358.8541422727279
 31
0.0
  0
LINE
  5
318384E3
330
318324AF
100
AcDbEntity
  8
JISSEN
 62
     0
 48
0.3
100
AcDbLine
 10
439.6198862283657
 20
386.0541422727291
 30
0.0
 11
439.6198862283666
 21
358.8541422727288
 31
0.0
  0
LINE
  5
318384E4
330
318324AF
100
AcDbEntity
  8
SAISEN
 62
     0
 48
0.3
100
AcDbLine
 10
386.3481312144394
 20
384.4789892956063
 30
0.0
 11
386.3481312144394
 21
360.4292952498507
 31
0.0
  0
LINE
  5
318384E5
330
318324AF
100
AcDbEntity
  8
SAISEN
 62
     0
 48
0.3
100
AcDbLine
 10
442.3481312144371
 20
384.4789892956063
 30
0.0
 11
442.3481312144371
 21
360.4292952498516
 31
0.0
  0
LINE
  5
318384E6
330
318324AF
100
AcDbEntity
  8
JISSEN
 62
     0
 48
0.3
100
AcDbLine
 10
358.3481312144389
 20
385.7331984633291
 30
0.0
 11
370.3481312144384
 21
385.7331984633291
 31
0.0
  0
LINE
  5
318384E7
330
318324AF
100
AcDbEntity
  8
JISSEN
 62
     0
 48
0.3
100
AcDbLine
 10
358.3481312144389
 20
359.175086082127
 30
0.0
 11
370.3481312144384
 21
359.175086082127
 31
0.0
  0
LINE
  5
318384E8
330
318324AF
100
AcDbEntity
  8
JISSEN
 62
     0
 48
0.3
100
AcDbLine
 10
348.3481312144389
 20
385.8829520566181
 30
0.0
 11
358.3481312144389
 21
385.8829520566181
 31
0.0
  0
LINE
  5
318384E9
330
318324AF
100
AcDbEntity
  8
JISSEN
 62
     0
 48
0.3
100
AcDbLine
 10
348.3481312144389
 20
381.1035642426421
 30
0.0
 11
358.3481312144389
 21
381.1035642426421
 31
0.0
  0
LINE
  5
318384EA
330
318324AF
100
AcDbEntity
  8
JISSEN
 62
     0
 48
0.3
100
AcDbLine
 10
348.3481312144389
 20
363.804720302818
 30
0.0
 11
358.3481312144389
 21
363.804720302818
 31
0.0
  0
LINE
  5
318384EB
330
318324AF
100
AcDbEntity
  8
JISSEN
 62
     0
 48
0.3
100
AcDbLine
 10
348.3481312144389
 20
359.0253324888375
 30
0.0
 11
358.3481312144389
 21
359.0253324888371
 31
0.0
  0
LINE
  5
318385D7
330
318324AF
100
AcDbEntity
  8
JISSEN
 62
     0
 48
0.3
100
AcDbLine
 10
473.3481311374356
 20
411.9541422727301
 30
0.0
 11
473.3481311374356
 21
391.4547049591453
 31
0.0
  0
LINE
  5
318385D8
330
318324AF
100
AcDbEntity
  8
JISSEN
 62
     0
 48
0.3
100
AcDbLine
 10
473.3481312144389
 20
208.9541422727305
 30
0.0
 11
473.3481312144389
 21
353.4541422727286
 31
0.0
  0
LINE
  5
318385DA
330
318324AF
100
AcDbEntity
  8
JISSEN
 62
     0
 48
0.3
100
AcDbLine
 10
262.3782021787759
 20
328.9783309822309
 30
0.0
 11
302.8253880209034
 21
328.9783309822309
 31
0.0
  0
LINE
  5
318385DB
330
318324AF
100
AcDbEntity
  8
JISSEN
 62
     0
 48
0.3
100
AcDbLine
 10
306.7360225137057
 20
328.9783309822309
 30
0.0
 11
310.6466708849806
 21
328.9783309822309
 31
0.0
  0
LINE
  5
318385DC
330
318324AF
100
AcDbEntity
  8
JISSEN
 62
     0
100
AcDbLine
 10
439.6198862283671
 20
386.0541422727282
 30
0.0
 11
389.0763762005097
 21
386.0541422727291
 31
0.0
  0
LINE
  5
318385DD
330
318324AF
100
AcDbEntity
  8
JISSEN
 62
     0
100
AcDbLine
 10
439.6198862283666
 20
358.8541422727288
 30
0.0
 11
389.0763762005075
 21
358.8541422727288
 31
0.0
  0
LWPOLYLINE
  5
318385DE
330
318324AF
100
AcDbEntity
  8
SAISEN
100
AcDbPolyline
 90
       46
 70
     0
 43
0.0
 10
410.801497080746
 20
389.0541422727292
 10
410.8256809244807
 20
388.1442453077294
 10
411.0556149362795
 20
386.8985849656266
 10
411.3844147631226
 20
385.7338989841829
 10
411.7162257413171
 20
384.6519422327024
 10
411.9551932071695
 20
383.6544695804893
 10
412.0285479140813
 20
382.7414810338226
 10
411.9558622838254
 20
381.9059571468835
 10
411.77979415527
 20
381.1391236108281
 10
411.5430013672818
 20
380.4322061168129
 10
411.2881417587288
 20
379.776430355994
 10
411.0578731684783
 20
379.1630220195279
 10
410.8948534353977
 20
378.5832067985708
 10
410.8417403983545
 20
378.028210384279
 10
410.9277253995677
 20
377.4905537214887
 10
411.1281337946642
 20
376.9679387697546
 10
411.4048244426227
 20
376.4593627423115
 10
411.7196562024215
 20
375.9638228523941
 10
412.0344879330392
 20
375.4803163132372
 10
412.3111784934545
 20
375.0078403380754
 10
412.5115867426463
 20
374.5453921401433
 10
412.5975715395924
 20
374.0919689326757
 10
412.5437054581617
 20
373.6461083242719
 10
412.3754159317805
 20
373.2045095049901
 10
412.1308441087664
 20
372.7634120602525
 10
411.8481311374356
 20
372.3190555754822
 10
411.5654181661047
 20
371.8676796361017
 10
411.3208463430904
 20
371.4055238275334
 10
411.1525568167095
 20
370.9288277352003
 10
411.0986907352786
 20
370.4338309445249
 10
411.1835254431906
 20
369.9177131439463
 10
411.3758830691414
 20
369.3814144339691
 10
411.6307219379035
 20
368.8268150181142
 10
411.9030003742492
 20
368.255795099903
 10
412.1476767029508
 20
367.6702348828562
 10
412.3197092487804
 20
367.0720145704949
 10
412.3740563365105
 20
366.4630143663403
 10
412.2656762909133
 20
365.8451144739133
 10
411.9808098575235
 20
365.2068664988882
 10
411.630827464926
 20
364.4835076555522
 10
411.3583819624674
 20
363.5969465603458
 10
411.306126199495
 20
362.4690918297094
 10
411.6167130253562
 20
361.0218520800835
 10
412.4327952893978
 20
359.1771359279086
 10
413.8970258409671
 20
356.856851989625
 10
414.683799308979
 20
355.8541422727288
  0
LWPOLYLINE
  5
318385DF
330
318324AF
100
AcDbEntity
  8
SAISEN
100
AcDbPolyline
 90
       46
 70
     0
 43
0.0
 10
413.8014970807461
 20
389.0541422727292
 10
413.8256809244807
 20
388.1442453077294
 10
414.0556149362795
 20
386.8985849656266
 10
414.3844147631226
 20
385.7338989841829
 10
414.716225741317
 20
384.6519422327024
 10
414.9551932071696
 20
383.6544695804893
 10
415.0285479140812
 20
382.7414810338226
 10
414.9558622838254
 20
381.9059571468835
 10
414.77979415527
 20
381.1391236108281
 10
414.5430013672818
 20
380.4322061168129
 10
414.2881417587288
 20
379.776430355994
 10
414.0578731684782
 20
379.1630220195279
 10
413.8948534353977
 20
378.5832067985708
 10
413.8417403983545
 20
378.028210384279
 10
413.9277253995677
 20
377.4905537214887
 10
414.1281337946642
 20
376.9679387697546
 10
414.4048244426227
 20
376.4593627423115
 10
414.7196562024215
 20
375.9638228523941
 10
415.0344879330392
 20
375.4803163132372
 10
415.3111784934545
 20
375.0078403380754
 10
415.5115867426462
 20
374.5453921401433
 10
415.5975715395924
 20
374.0919689326757
 10
415.5437054581617
 20
373.6461083242719
 10
415.3754159317806
 20
373.2045095049901
 10
415.1308441087663
 20
372.7634120602525
 10
414.8481311374356
 20
372.3190555754822
 10
414.5654181661046
 20
371.8676796361017
 10
414.3208463430904
 20
371.4055238275334
 10
414.1525568167095
 20
370.9288277352003
 10
414.0986907352786
 20
370.4338309445249
 10
414.1835254431907
 20
369.9177131439463
 10
414.3758830691414
 20
369.3814144339691
 10
414.6307219379036
 20
368.8268150181142
 10
414.9030003742492
 20
368.255795099903
 10
415.1476767029508
 20
367.6702348828562
 10
415.3197092487804
 20
367.0720145704949
 10
415.3740563365105
 20
366.4630143663403
 10
415.2656762909133
 20
365.8451144739133
 10
414.9808098575234
 20
365.2068664988882
 10
414.630827464926
 20
364.4835076555522
 10
414.3583819624674
 20
363.5969465603458
 10
414.3061261994949
 20
362.4690918297094
 10
414.6167130253562
 20
361.0218520800835
 10
415.4327952893978
 20
359.1771359279086
 10
416.8970258409671
 20
356.856851989625
 10
417.6837993089789
 20
355.8541422727288
  0
LINE
  5
318385F5
330
318324AF
100
AcDbEntity
  8
JISSEN
100
AcDbLine
 10
39.51136192750232
 20
426.9407736563755
 30
0.0
 11
39.51136192750221
 21
386.9407736563754
 31
0.0
  0
ARC
  5
318385F7
330
318324AF
100
AcDbEntity
  8
SCALE
100
AcDbCircle
 10
518.3481403890503
 20
410.5037253729125
 30
0.0
 40
8.999999999999944
100
AcDbArc
 50
0.0
 51
90.00000110297769
  0
LINE
  5
318385F8
330
318324AF
100
AcDbEntity
  8
SCALE
100
AcDbLine
 10
518.3481402157952
 20
419.5037253729124
 30
0.0
 11
485.348140312048
 21
419.5037247376422
 31
0.0
  0
ARC
  5
318385F9
330
318324AF
100
AcDbEntity
  8
JISSEN
100
AcDbCircle
 10
518.3481403890503
 20
410.5037253729125
 30
0.0
 40
9.0
100
AcDbArc
 50
359.9999999999998
 51
90.00000110297841
  0
LINE
  5
318385FA
330
318324AF
100
AcDbEntity
  8
JISSEN
100
AcDbLine
 10
485.348140312048
 20
419.5037247376422
 30
0.0
 11
518.3481402157948
 21
419.5037253729124
 31
0.0
  0
LINE
  5
318385FB
330
318324AF
100
AcDbEntity
  8
SCALE
100
AcDbLine
 10
527.3481403890504
 20
315.5037233961589
 30
0.0
 11
527.3481403890504
 21
410.5037253729125
 31
0.0
  0
LINE
  5
318385FC
330
318324AF
100
AcDbEntity
  8
JISSEN
100
AcDbLine
 10
527.3481403890504
 20
410.5037253729125
 30
0.0
 11
527.3481403890504
 21
310.5037236986646
 31
0.0
  0
ARC
  5
318385FD
330
318324AF
100
AcDbEntity
  8
JISSEN
100
AcDbCircle
 10
532.0558018583291
 20
317.6411296392907
 30
0.0
 40
3.292398337984485
100
AcDbArc
 50
316.8387919426722
 51
0.345349687228044
  0
LINE
  5
318385FE
330
318324AF
100
AcDbEntity
  8
JISSEN
100
AcDbLine
 10
535.3481403890499
 20
318.7289333954505
 30
0.0
 11
534.4532474718061
 21
320.2789333954506
 31
0.0
  0
LINE
  5
318385FF
330
318324AF
100
AcDbEntity
  8
JISSEN
100
AcDbLine
 10
534.4532474718061
 20
315.3864106835622
 30
0.0
 11
528.9481403890503
 21
315.3864106835622
 31
0.0
  0
LINE
  5
31838600
330
318324AF
100
AcDbEntity
  8
JISSEN
100
AcDbLine
 10
534.4532474718061
 20
320.2789333954506
 30
0.0
 11
528.9481403890503
 21
320.2789333954506
 31
0.0
  0
ARC
  5
31838601
330
318324AF
100
AcDbEntity
  8
JISSEN
100
AcDbCircle
 10
521.4450512180645
 20
310.4789333954505
 30
0.0
 40
13.90311127443038
100
AcDbArc
 50
339.330495152863
 51
20.66950484713699
  0
LINE
  5
31838602
330
318324AF
100
AcDbEntity
  8
JISSEN
100
AcDbLine
 10
535.3481403890499
 20
318.7289333954505
 30
0.0
 11
535.3481403890499
 21
302.1793506235868
 31
0.0
  0
LWPOLYLINE
  5
31838603
330
318324AF
100
AcDbEntity
  8
JISSEN
100
AcDbPolyline
 90
        4
 70
     1
 43
0.0
 10
527.3481403890504
 20
321.5037235561418
 10
528.9481403890503
 20
321.5037235561418
 10
528.9481403890503
 20
299.5037235561417
 10
527.3481403890504
 20
299.5037235561417
  0
ARC
  5
31838604
330
318324AF
100
AcDbEntity
  8
JISSEN
100
AcDbCircle
 10
532.0519554895667
 20
303.3143080685545
 30
0.0
 40
3.29686573668548
100
AcDbArc
 50
358.8355626880354
 51
43.14627490556256
  0
LINE
  5
31838605
330
318324AF
100
AcDbEntity
  8
JISSEN
100
AcDbLine
 10
535.3481403890499
 20
302.2041420095184
 30
0.0
 11
534.4675607851476
 21
300.6789333954507
 31
0.0
  0
LINE
  5
31838606
330
318324AF
100
AcDbEntity
  8
JISSEN
100
AcDbLine
 10
534.4675607851476
 20
300.6789333954507
 30
0.0
 11
528.9481403890503
 21
300.6789333954507
 31
0.0
  0
LINE
  5
31838607
330
318324AF
100
AcDbEntity
  8
JISSEN
100
AcDbLine
 10
534.4573823354866
 20
305.5689134386044
 30
0.0
 11
528.9481403890503
 21
305.5689134386044
 31
0.0
  0
LINE
  5
31838608
330
318324AF
100
AcDbEntity
  8
JISSEN
100
AcDbLine
 10
527.3481403890504
 20
310.5037236986646
 30
0.0
 11
527.3481403890504
 21
210.5037247756704
 31
0.0
  0
ARC
  5
31838609
330
318324AF
100
AcDbEntity
  8
JISSEN
100
AcDbCircle
 10
518.3481403890503
 20
210.5037247756704
 30
0.0
 40
9.0
100
AcDbArc
 50
269.9999999999987
 51
0.0000000000001272
  0
LINE
  5
3183860A
330
318324AF
100
AcDbEntity
  8
JISSEN
100
AcDbLine
 10
485.3481403890504
 20
201.5037247756709
 30
0.0
 11
518.3481403890503
 21
201.5037247756704
 31
0.0
  0
LINE
  5
3183860B
330
318324AF
100
AcDbEntity
  8
JISSEN
100
AcDbLine
 10
485.3481403890504
 20
201.5037247756709
 30
0.0
 11
485.3481403890504
 21
419.5037247376422
 31
0.0
  0
ARC
  5
3183860C
330
318324AF
100
AcDbEntity
  8
JISSEN
100
AcDbCircle
 10
478.3481259028072
 20
404.0037236535704
 30
0.0
 40
8.0
100
AcDbArc
 50
28.9548107997493
 51
90.00000000000518
  0
ARC
  5
3183860D
330
318324AF
100
AcDbEntity
  8
JISSEN
100
AcDbCircle
 10
478.348131139707
 20
217.0037236535705
 30
0.0
 40
8.0
100
AcDbArc
 50
270.0
 51
331.0451124605066
  0
LINE
  5
3183860E
330
318324AF
100
AcDbEntity
  8
JISSEN
 48
0.3
100
AcDbLine
 10
473.3481310627042
 20
209.0037236535704
 30
0.0
 11
473.3481312121694
 21
412.00372365357
 31
0.0
  0
LINE
  5
3183860F
330
318324AF
100
AcDbEntity
  8
JISSEN
100
AcDbLine
 10
478.3481259028065
 20
412.0037236535704
 30
0.0
 11
473.3481312121694
 21
412.0037236572518
 31
0.0
  0
LINE
  5
31838610
330
318324AF
100
AcDbEntity
  8
JISSEN
100
AcDbLine
 10
478.348131139707
 20
209.0037236535704
 30
0.0
 11
473.3481311397066
 21
209.0037236535704
 31
0.0
  0
CIRCLE
  5
31838686
330
318324AF
100
AcDbEntity
  8
JISSEN
100
AcDbCircle
 10
669.5673110522658
 20
310.5037247566566
 30
0.0
 40
108.0000028695476
  0
TEXT
  5
31838687
330
318324AF
100
AcDbEntity
  8
SAISEN
100
AcDbText
 10
637.0950679420194
 20
330.3031764059952
 30
0.0
 40
4.499999999999954
  1
ウォーターモーターゴング
 41
0.7
  7
K
100
AcDbText
  0
LINE
  5
31838688
330
318324AF
100
AcDbEntity
  8
SAISEN
100
AcDbLine
 10
694.1225047039621
 20
334.4097038061759
 30
0.0
 11
694.1225047039621
 21
330.412678865388
 31
0.0
  0
LINE
  5
31838689
330
318324AF
100
AcDbEntity
  8
SAISEN
100
AcDbLine
 10
695.3566053552736
 20
334.4097038061764
 30
0.0
 11
695.3566053552736
 21
330.412678865388
 31
0.0
  0
LINE
  5
3183868A
330
318324AF
100
AcDbEntity
  8
SAISEN
100
AcDbLine
 10
693.4225047039618
 20
330.412678865388
 30
0.0
 11
696.0566053552735
 21
330.412678865388
 31
0.0
  0
LINE
  5
3183868B
330
318324AF
100
AcDbEntity
  8
SAISEN
100
AcDbLine
 10
693.4225047039618
 20
334.4097038061759
 30
0.0
 11
696.0566053552735
 21
334.4097038061764
 31
0.0
  0
TEXT
  5
3183868C
330
318324AF
100
AcDbEntity
  8
SAISEN
100
AcDbText
 10
683.905868535353
 20
330.4168853167867
 30
0.0
 40
3.99999999999996
  1
WMG  -B
 41
0.7
  7
K
100
AcDbText
  0
ARC
  5
3183868D
330
318324AF
100
AcDbEntity
  8
SAISEN
100
AcDbCircle
 10
658.3954203847999
 20
292.971721432106
 30
0.0
 40
4.200641081100419
100
AcDbArc
 50
277.6452179033855
 51
310.8239910654832
  0
LINE
  5
3183868E
330
318324AF
100
AcDbEntity
  8
SAISEN
100
AcDbLine
 10
662.0260209528961
 20
292.4418074016012
 30
0.0
 11
658.3719564351755
 21
292.4071717189688
 31
0.0
  0
ARC
  5
3183868F
330
318324AF
100
AcDbEntity
  8
SAISEN
100
AcDbCircle
 10
658.5122192893078
 20
292.6844402710091
 30
0.0
 40
3.69559507159648
100
AcDbArc
 50
277.2326934244144
 51
311.1894956236273
  0
LINE
  5
31838690
330
318324AF
100
AcDbEntity
  8
SAISEN
100
AcDbLine
 10
661.7258652844944
 20
292.2454187985731
 30
0.0
 11
658.4106162046428
 21
292.2139946366787
 31
0.0
  0
LINE
  5
31838691
330
318324AF
100
AcDbEntity
  8
SAISEN
100
AcDbLine
 10
658.4106162046428
 20
292.6139946366787
 30
0.0
 11
661.9589652220342
 21
292.647628276654
 31
0.0
  0
ARC
  5
31838692
330
318324AF
100
AcDbEntity
  8
SAISEN
100
AcDbCircle
 10
659.0040999253038
 20
288.8200287909816
 30
0.0
 40
0.2
100
AcDbArc
 50
97.64521790338697
 51
277.6452179033849
  0
ARC
  5
31838693
330
318324AF
100
AcDbEntity
  8
SAISEN
100
AcDbCircle
 10
642.443965129196
 20
320.8237774020689
 30
0.0
 40
28.56737063331074
100
AcDbArc
 50
272.1463653708891
 51
278.9270447761149
  0
ARC
  5
31838694
330
318324AF
100
AcDbEntity
  8
SAISEN
100
AcDbCircle
 10
642.443965129196
 20
321.2161221477757
 30
0.0
 40
29.16085435397164
100
AcDbArc
 50
272.1026625696792
 51
275.0259868493147
  0
ARC
  5
31838695
330
318324AF
100
AcDbEntity
  8
SAISEN
100
AcDbCircle
 10
642.443965129196
 20
321.0280764549708
 30
0.0
 40
28.56737063331074
100
AcDbArc
 50
272.1463653708891
 51
278.9270447761149
  0
ARC
  5
31838696
330
318324AF
100
AcDbEntity
  8
SAISEN
100
AcDbCircle
 10
645.1954184016705
 20
288.7909445517128
 30
0.0
 40
0.2
100
AcDbArc
 50
180.0
 51
0.0
  0
LINE
  5
31838697
330
318324AF
100
AcDbEntity
  8
SAISEN
100
AcDbLine
 10
639.5750089937585
 20
288.7492068772224
 30
0.0
 11
636.7262871345848
 21
288.7492068772224
 31
0.0
  0
LINE
  5
31838698
330
318324AF
100
AcDbEntity
  8
SAISEN
100
AcDbLine
 10
636.8153096926841
 20
291.9561910619058
 30
0.0
 11
639.4859864356596
 21
291.9561910619058
 31
0.0
  0
LINE
  5
31838699
330
318324AF
100
AcDbEntity
  8
SAISEN
100
AcDbLine
 10
636.8647666694059
 20
290.5516129230077
 30
0.0
 11
639.4365294589378
 21
290.5516129230077
 31
0.0
  0
LINE
  5
3183869A
330
318324AF
100
AcDbEntity
  8
SAISEN
100
AcDbLine
 10
636.7262871345848
 20
288.9492068772224
 30
0.0
 11
639.5750089937585
 21
288.9492068772224
 31
0.0
  0
ARC
  5
3183869B
330
318324AF
100
AcDbEntity
  8
SAISEN
100
AcDbCircle
 10
638.1539062038413
 20
292.6722966516354
 30
0.0
 40
0.2
100
AcDbArc
 50
0.0
 51
179.9999999999979
  0
CIRCLE
  5
3183869C
330
318324AF
100
AcDbEntity
  8
SAISEN
100
AcDbCircle
 10
637.5639719905063
 20
290.6247074166764
 30
0.0
 40
3.6
  0
CIRCLE
  5
3183869D
330
318324AF
100
AcDbEntity
  8
SAISEN
100
AcDbCircle
 10
637.5639719905063
 20
290.6247074166764
 30
0.0
 40
3.7
  0
LINE
  5
3183869E
330
318324AF
100
AcDbEntity
  8
SAISEN
100
AcDbLine
 10
636.0753224980215
 20
291.6727601475445
 30
0.0
 11
636.0753224980215
 21
288.7492068772224
 31
0.0
  0
LINE
  5
3183869F
330
318324AF
100
AcDbEntity
  8
SAISEN
100
AcDbLine
 10
635.8753224980215
 20
288.7711617610241
 30
0.0
 11
635.8753224980215
 21
291.7521958632171
 31
0.0
  0
ARC
  5
318386A0
330
318324AF
100
AcDbEntity
  8
SAISEN
100
AcDbCircle
 10
631.8956506511964
 20
293.3916057995274
 30
0.0
 40
4.119376708931562
100
AcDbArc
 50
323.0469655698353
 51
350.0531909869008
  0
ARC
  5
318386A1
330
318324AF
100
AcDbEntity
  8
SAISEN
100
AcDbCircle
 10
632.0799392081416
 20
293.3363546220756
 30
0.0
 40
4.119376708931562
100
AcDbArc
 50
323.0469655698353
 51
350.0531909869008
  0
LINE
  5
318386A2
330
318324AF
100
AcDbEntity
  8
SAISEN
100
AcDbLine
 10
637.9539062038412
 20
292.6722966516354
 30
0.0
 11
637.9539062038412
 21
290.7516129230076
 31
0.0
  0
ARC
  5
318386A3
330
318324AF
100
AcDbEntity
  8
SAISEN
100
AcDbCircle
 10
635.8753224980215
 20
288.7711617610241
 30
0.0
 40
0.2
100
AcDbArc
 50
180.0
 51
0.0
  0
LINE
  5
318386A4
330
318324AF
100
AcDbEntity
  8
SAISEN
100
AcDbLine
 10
635.6753224980215
 20
290.9199710379919
 30
0.0
 11
635.6753224980215
 21
288.7492068772224
 31
0.0
  0
ARC
  5
318386A5
330
318324AF
100
AcDbEntity
  8
SAISEN
100
AcDbCircle
 10
635.3411871494264
 20
290.7885062056902
 30
0.0
 40
0.2
100
AcDbArc
 50
137.1623160997192
 51
319.8382959004519
  0
ARC
  5
318386A6
330
318324AF
100
AcDbEntity
  8
SAISEN
100
AcDbCircle
 10
632.2020909494577
 20
293.1349037864402
 30
0.0
 40
4.119376708931562
100
AcDbArc
 50
323.0469655698353
 51
327.4737208694316
  0
LINE
  5
318386A7
330
318324AF
100
AcDbEntity
  8
SAISEN
100
AcDbLine
 10
637.9539062038412
 20
290.3516129230077
 30
0.0
 11
636.8647666694059
 21
290.3516129230077
 31
0.0
  0
LINE
  5
318386A8
330
318324AF
100
AcDbEntity
  8
SAISEN
100
AcDbLine
 10
636.7262871345848
 20
289.1492068772225
 30
0.0
 11
637.9539062038412
 21
289.1492068772225
 31
0.0
  0
LINE
  5
318386A9
330
318324AF
100
AcDbEntity
  8
SAISEN
100
AcDbLine
 10
636.8647666694059
 20
290.7516129230076
 30
0.0
 11
637.9539062038412
 21
290.7516129230076
 31
0.0
  0
ARC
  5
318386AA
330
318324AF
100
AcDbEntity
  8
SAISEN
100
AcDbCircle
 10
636.8647666694059
 20
290.5516129230077
 30
0.0
 40
0.2
100
AcDbArc
 50
90.0
 51
270.0
  0
ARC
  5
318386AB
330
318324AF
100
AcDbEntity
  8
SAISEN
100
AcDbCircle
 10
636.7262871345848
 20
288.9492068772224
 30
0.0
 40
0.2
100
AcDbArc
 50
90.0
 51
270.0
  0
LINE
  5
318386AC
330
318324AF
100
AcDbEntity
  8
SAISEN
100
AcDbLine
 10
637.9539062038412
 20
290.3516129230077
 30
0.0
 11
637.9539062038412
 21
289.1492068772225
 31
0.0
  0
ARC
  5
318386AD
330
318324AF
100
AcDbEntity
  8
SAISEN
100
AcDbCircle
 10
636.1553729357739
 20
292.6720121977565
 30
0.0
 40
0.2
100
AcDbArc
 50
343.2309706446293
 51
177.3102528734094
  0
ARC
  5
318386AE
330
318324AF
100
AcDbEntity
  8
SAISEN
100
AcDbCircle
 10
631.7455601751399
 20
293.4314081980971
 30
0.0
 40
4.67329484821543
100
AcDbArc
 50
337.7179082673201
 51
350.0531909869007
  0
LINE
  5
318386AF
330
318324AF
100
AcDbEntity
  8
SAISEN
100
AcDbLine
 10
637.9539062038412
 20
291.7561910619058
 30
0.0
 11
636.8153096926841
 21
291.7561910619058
 31
0.0
  0
LINE
  5
318386B0
330
318324AF
100
AcDbEntity
  8
SAISEN
100
AcDbLine
 10
636.8153096926841
 20
292.1561910619058
 30
0.0
 11
637.9539062038412
 21
292.1561910619058
 31
0.0
  0
ARC
  5
318386B1
330
318324AF
100
AcDbEntity
  8
SAISEN
100
AcDbCircle
 10
636.8153096926841
 20
291.9561910619058
 30
0.0
 40
0.2
100
AcDbArc
 50
90.0
 51
270.0
  0
LINE
  5
318386B2
330
318324AF
100
AcDbEntity
  8
SAISEN
100
AcDbLine
 10
638.3539062038413
 20
292.6722966516354
 30
0.0
 11
638.3539062038413
 21
290.7516129230076
 31
0.0
  0
LINE
  5
318386B3
330
318324AF
100
AcDbEntity
  8
SAISEN
100
AcDbLine
 10
638.1506480641718
 20
288.9492068772224
 30
0.0
 11
638.1506480641718
 21
292.6722966516354
 31
0.0
  0
ARC
  5
318386B4
330
318324AF
100
AcDbEntity
  8
SAISEN
100
AcDbCircle
 10
639.5750089937585
 20
288.9492068772224
 30
0.0
 40
0.2
100
AcDbArc
 50
270.0
 51
90.0
  0
ARC
  5
318386B5
330
318324AF
100
AcDbEntity
  8
SAISEN
100
AcDbCircle
 10
639.4365294589378
 20
290.5516129230077
 30
0.0
 40
0.2
100
AcDbArc
 50
270.0
 51
90.0
  0
LINE
  5
318386B6
330
318324AF
100
AcDbEntity
  8
SAISEN
100
AcDbLine
 10
638.3539062038413
 20
290.3516129230077
 30
0.0
 11
638.3539062038413
 21
289.1492068772225
 31
0.0
  0
LINE
  5
318386B7
330
318324AF
100
AcDbEntity
  8
SAISEN
100
AcDbLine
 10
638.3539062038413
 20
290.7516129230076
 30
0.0
 11
639.4365294589378
 21
290.7516129230076
 31
0.0
  0
LINE
  5
318386B8
330
318324AF
100
AcDbEntity
  8
SAISEN
100
AcDbLine
 10
638.3539062038413
 20
289.1492068772225
 30
0.0
 11
639.5750089937585
 21
289.1492068772225
 31
0.0
  0
LINE
  5
318386B9
330
318324AF
100
AcDbEntity
  8
SAISEN
100
AcDbLine
 10
639.4365294589378
 20
290.3516129230077
 30
0.0
 11
638.3539062038413
 21
290.3516129230077
 31
0.0
  0
ARC
  5
318386BA
330
318324AF
100
AcDbEntity
  8
SAISEN
100
AcDbCircle
 10
639.4859864356596
 20
291.9561910619058
 30
0.0
 40
0.2
100
AcDbArc
 50
270.0
 51
90.0
  0
LINE
  5
318386BB
330
318324AF
100
AcDbEntity
  8
SAISEN
100
AcDbLine
 10
638.3539062038413
 20
292.1561910619058
 30
0.0
 11
639.4859864356596
 21
292.1561910619058
 31
0.0
  0
LINE
  5
318386BC
330
318324AF
100
AcDbEntity
  8
SAISEN
100
AcDbLine
 10
639.4859864356596
 20
291.7561910619058
 30
0.0
 11
638.3539062038413
 21
291.7561910619058
 31
0.0
  0
LINE
  5
318386BD
330
318324AF
100
AcDbEntity
  8
SAISEN
100
AcDbLine
 10
644.9986765413397
 20
292.1673893655318
 30
0.0
 11
644.9986765413397
 21
291.068137574027
 31
0.0
  0
LINE
  5
318386BE
330
318324AF
100
AcDbEntity
  8
SAISEN
100
AcDbLine
 10
644.9986765413397
 20
290.882411712625
 30
0.0
 11
643.1924108444388
 21
290.882411712625
 31
0.0
  0
LINE
  5
318386BF
330
318324AF
100
AcDbEntity
  8
SAISEN
100
AcDbLine
 10
643.1924108444388
 20
290.668137574027
 30
0.0
 11
644.9986765413397
 21
290.668137574027
 31
0.0
  0
LINE
  5
318386C0
330
318324AF
100
AcDbEntity
  8
SAISEN
100
AcDbLine
 10
644.9986765413397
 20
291.068137574027
 30
0.0
 11
643.1924108444388
 21
291.068137574027
 31
0.0
  0
ARC
  5
318386C1
330
318324AF
100
AcDbEntity
  8
SAISEN
100
AcDbCircle
 10
643.1924108444388
 20
290.868137574027
 30
0.0
 40
0.2
100
AcDbArc
 50
90.0
 51
270.0
  0
LINE
  5
318386C2
330
318324AF
100
AcDbEntity
  8
SAISEN
100
AcDbLine
 10
644.9986765413397
 20
290.668137574027
 30
0.0
 11
644.9986765413397
 21
288.7909445517128
 31
0.0
  0
ARC
  5
318386C3
330
318324AF
100
AcDbEntity
  8
SAISEN
100
AcDbCircle
 10
643.5138811931302
 20
292.2823001874122
 30
0.0
 40
0.2
100
AcDbArc
 50
90.0
 51
270.0
  0
LINE
  5
318386C4
330
318324AF
100
AcDbEntity
  8
SAISEN
100
AcDbLine
 10
649.7563859190383
 20
288.9492068772224
 30
0.0
 11
652.6051077782121
 21
288.9492068772224
 31
0.0
  0
LINE
  5
318386C5
330
318324AF
100
AcDbEntity
  8
SAISEN
100
AcDbLine
 10
649.8948654538593
 20
290.5516129230077
 30
0.0
 11
652.466628243391
 21
290.5516129230077
 31
0.0
  0
LINE
  5
318386C6
330
318324AF
100
AcDbEntity
  8
SAISEN
100
AcDbLine
 10
649.8454084771375
 20
291.9561910619058
 30
0.0
 11
652.516085220113
 21
291.9561910619058
 31
0.0
  0
LINE
  5
318386C7
330
318324AF
100
AcDbEntity
  8
SAISEN
100
AcDbLine
 10
652.516085220113
 20
291.7561910619058
 30
0.0
 11
651.3840049882948
 21
291.7561910619058
 31
0.0
  0
LINE
  5
318386C8
330
318324AF
100
AcDbEntity
  8
SAISEN
100
AcDbLine
 10
652.466628243391
 20
290.3516129230077
 30
0.0
 11
651.3840049882948
 21
290.3516129230077
 31
0.0
  0
LINE
  5
318386C9
330
318324AF
100
AcDbEntity
  8
SAISEN
100
AcDbLine
 10
652.6051077782121
 20
288.7492068772224
 30
0.0
 11
649.7563859190383
 21
288.7492068772224
 31
0.0
  0
LINE
  5
318386CA
330
318324AF
100
AcDbEntity
  8
SAISEN
100
AcDbLine
 10
651.3840049882948
 20
289.1492068772225
 30
0.0
 11
652.6051077782121
 21
289.1492068772225
 31
0.0
  0
LINE
  5
318386CB
330
318324AF
100
AcDbEntity
  8
SAISEN
100
AcDbLine
 10
651.3840049882948
 20
290.7516129230076
 30
0.0
 11
652.466628243391
 21
290.7516129230076
 31
0.0
  0
LINE
  5
318386CC
330
318324AF
100
AcDbEntity
  8
SAISEN
100
AcDbLine
 10
651.4238625635481
 20
292.1561910619058
 30
0.0
 11
652.516085220113
 21
292.1561910619058
 31
0.0
  0
ARC
  5
318386CD
330
318324AF
100
AcDbEntity
  8
SAISEN
100
AcDbCircle
 10
645.110037992595
 20
293.3363546220756
 30
0.0
 40
4.119376708931562
100
AcDbArc
 50
323.0469655698353
 51
350.0531909869008
  0
ARC
  5
318386CE
330
318324AF
100
AcDbEntity
  8
SAISEN
100
AcDbCircle
 10
644.9257494356499
 20
293.3916057995274
 30
0.0
 40
4.119376708931562
100
AcDbArc
 50
323.0469655698353
 51
350.0531909869008
  0
ARC
  5
318386CF
330
318324AF
100
AcDbEntity
  8
SAISEN
100
AcDbCircle
 10
648.3712859338798
 20
290.7885062056902
 30
0.0
 40
0.2
100
AcDbArc
 50
137.1623160997192
 51
319.8382959004519
  0
LINE
  5
318386D0
330
318324AF
100
AcDbEntity
  8
SAISEN
100
AcDbLine
 10
645.1954184016705
 20
288.7909445517128
 30
0.0
 11
645.1954184016705
 21
292.3836662134225
 31
0.0
  0
LINE
  5
318386D1
330
318324AF
100
AcDbEntity
  8
SAISEN
100
AcDbLine
 10
645.3975913775422
 20
291.068137574027
 30
0.0
 11
645.3986765413397
 21
292.2053464407303
 31
0.0
  0
LINE
  5
318386D2
330
318324AF
100
AcDbEntity
  8
SAISEN
100
AcDbLine
 10
647.1984259589017
 20
290.882411712625
 30
0.0
 11
645.3975913775422
 21
290.882411712625
 31
0.0
  0
LINE
  5
318386D3
330
318324AF
100
AcDbEntity
  8
SAISEN
100
AcDbLine
 10
647.1984259589017
 20
291.068137574027
 30
0.0
 11
645.3975913775422
 21
291.068137574027
 31
0.0
  0
LINE
  5
318386D4
330
318324AF
100
AcDbEntity
  8
SAISEN
100
AcDbLine
 10
645.39720968379
 20
290.668137574027
 30
0.0
 11
647.1984259589017
 21
290.668137574027
 31
0.0
  0
LINE
  5
318386D5
330
318324AF
100
AcDbEntity
  8
SAISEN
100
AcDbLine
 10
645.3954184016703
 20
288.7909445517128
 30
0.0
 11
645.39720968379
 21
290.668137574027
 31
0.0
  0
ARC
  5
318386D6
330
318324AF
100
AcDbEntity
  8
SAISEN
100
AcDbCircle
 10
647.1984259589017
 20
290.868137574027
 30
0.0
 40
0.2
100
AcDbArc
 50
270.0
 51
90.0
  0
ARC
  5
318386D7
330
318324AF
100
AcDbEntity
  8
SAISEN
100
AcDbCircle
 10
642.4439651291964
 20
321.2161221477768
 30
0.0
 40
29.1608543539727
100
AcDbArc
 50
275.8154509631574
 51
278.7439220211071
  0
ARC
  5
318386D8
330
318324AF
100
AcDbEntity
  8
SAISEN
100
AcDbCircle
 10
646.8769556102105
 20
292.604907690038
 30
0.0
 40
0.2
100
AcDbArc
 50
270.0
 51
90.0
  0
LINE
  5
318386D9
330
318324AF
100
AcDbEntity
  8
SAISEN
100
AcDbLine
 10
651.1807468486253
 20
288.9492068772224
 30
0.0
 11
651.1807468486253
 21
292.3326540670884
 31
0.0
  0
LINE
  5
318386DA
330
318324AF
100
AcDbEntity
  8
SAISEN
100
AcDbLine
 10
648.905421282475
 20
288.7711617610241
 30
0.0
 11
648.905421282475
 21
291.7521958632171
 31
0.0
  0
LINE
  5
318386DB
330
318324AF
100
AcDbEntity
  8
SAISEN
100
AcDbLine
 10
649.1054212824748
 20
291.6727601475445
 30
0.0
 11
649.1054212824748
 21
288.7492068772224
 31
0.0
  0
LINE
  5
318386DC
330
318324AF
100
AcDbEntity
  8
SAISEN
100
AcDbLine
 10
650.9840049882947
 20
291.7561910619058
 30
0.0
 11
650.9840049882947
 21
290.7516129230076
 31
0.0
  0
LINE
  5
318386DD
330
318324AF
100
AcDbEntity
  8
SAISEN
100
AcDbLine
 10
651.3840049882948
 20
291.7561910619058
 30
0.0
 11
651.3840049882948
 21
290.7516129230076
 31
0.0
  0
LINE
  5
318386DE
330
318324AF
100
AcDbEntity
  8
SAISEN
100
AcDbLine
 10
649.8948654538593
 20
290.7516129230076
 30
0.0
 11
650.9840049882947
 21
290.7516129230076
 31
0.0
  0
LINE
  5
318386DF
330
318324AF
100
AcDbEntity
  8
SAISEN
100
AcDbLine
 10
649.7563859190383
 20
289.1492068772225
 30
0.0
 11
650.9840049882947
 21
289.1492068772225
 31
0.0
  0
LINE
  5
318386E0
330
318324AF
100
AcDbEntity
  8
SAISEN
100
AcDbLine
 10
650.9840049882947
 20
290.3516129230077
 30
0.0
 11
649.8948654538593
 21
290.3516129230077
 31
0.0
  0
ARC
  5
318386E1
330
318324AF
100
AcDbEntity
  8
SAISEN
100
AcDbCircle
 10
645.2321897339112
 20
293.1349037864402
 30
0.0
 40
4.119376708931562
100
AcDbArc
 50
323.0469655698353
 51
327.4737208694316
  0
ARC
  5
318386E2
330
318324AF
100
AcDbEntity
  8
SAISEN
100
AcDbCircle
 10
649.7563859190383
 20
288.9492068772224
 30
0.0
 40
0.2
100
AcDbArc
 50
90.0
 51
270.0
  0
ARC
  5
318386E3
330
318324AF
100
AcDbEntity
  8
SAISEN
100
AcDbCircle
 10
649.8948654538593
 20
290.5516129230077
 30
0.0
 40
0.2
100
AcDbArc
 50
90.0
 51
270.0
  0
LINE
  5
318386E4
330
318324AF
100
AcDbEntity
  8
SAISEN
100
AcDbLine
 10
648.7054212824749
 20
290.9199710379919
 30
0.0
 11
648.7054212824749
 21
288.7492068772224
 31
0.0
  0
ARC
  5
318386E5
330
318324AF
100
AcDbEntity
  8
SAISEN
100
AcDbCircle
 10
648.905421282475
 20
288.7711617610241
 30
0.0
 40
0.2
100
AcDbArc
 50
180.0
 51
0.0
  0
LINE
  5
318386E6
330
318324AF
100
AcDbEntity
  8
SAISEN
100
AcDbLine
 10
651.3840049882948
 20
290.3516129230077
 30
0.0
 11
651.3840049882948
 21
289.1492068772225
 31
0.0
  0
LINE
  5
318386E7
330
318324AF
100
AcDbEntity
  8
SAISEN
100
AcDbLine
 10
650.9840049882947
 20
290.3516129230077
 30
0.0
 11
650.9840049882947
 21
289.1492068772225
 31
0.0
  0
LINE
  5
318386E8
330
318324AF
100
AcDbEntity
  8
SAISEN
100
AcDbLine
 10
649.8454084771375
 20
292.1561910619058
 30
0.0
 11
650.9440182859735
 21
292.1561910619058
 31
0.0
  0
LINE
  5
318386E9
330
318324AF
100
AcDbEntity
  8
SAISEN
100
AcDbLine
 10
650.9840049882947
 20
291.7561910619058
 30
0.0
 11
649.8454084771375
 21
291.7561910619058
 31
0.0
  0
ARC
  5
318386EA
330
318324AF
100
AcDbEntity
  8
SAISEN
100
AcDbCircle
 10
649.8454084771375
 20
291.9561910619058
 30
0.0
 40
0.2
100
AcDbArc
 50
90.0
 51
270.0
  0
ARC
  5
318386EB
330
318324AF
100
AcDbEntity
  8
SAISEN
100
AcDbCircle
 10
644.7756589595934
 20
293.4314081980971
 30
0.0
 40
4.67329484821543
100
AcDbArc
 50
337.7179082673201
 51
350.0531909869007
  0
ARC
  5
318386EC
330
318324AF
100
AcDbEntity
  8
SAISEN
100
AcDbCircle
 10
649.1854717202273
 20
292.6720121977565
 30
0.0
 40
0.2
100
AcDbArc
 50
343.2309706446293
 51
177.3102528734094
  0
LINE
  5
318386ED
330
318324AF
100
AcDbEntity
  8
SAISEN
100
AcDbLine
 10
650.8701166446781
 20
292.7475026894541
 30
0.0
 11
651.1793432669684
 21
292.341441619457
 31
0.0
  0
ARC
  5
318386EE
330
318324AF
100
AcDbEntity
  8
SAISEN
100
AcDbCircle
 10
651.4350947406625
 20
292.1941288191801
 30
0.0
 40
0.0395655813773743
100
AcDbArc
 50
163.1956021092883
 51
269.9999999999485
  0
ARC
  5
318386EF
330
318324AF
100
AcDbEntity
  8
SAISEN
100
AcDbCircle
 10
651.1131485316164
 20
292.2913570755106
 30
0.0
 40
0.2967418603305844
100
AcDbArc
 50
343.1956021093568
 51
29.8765715201601
  0
LINE
  5
318386F0
330
318324AF
100
AcDbEntity
  8
SAISEN
100
AcDbLine
 10
650.7135113983553
 20
292.6231049530431
 30
0.0
 11
650.9971686550573
 21
292.2660066983749
 31
0.0
  0
ARC
  5
318386F1
330
318324AF
100
AcDbEntity
  8
SAISEN
100
AcDbCircle
 10
650.941108192068
 20
292.225369647787
 30
0.0
 40
0.0692397674104647
100
AcDbArc
 50
270.0000000000059
 51
38.46150445229264
  0
ARC
  5
318386F2
330
318324AF
100
AcDbEntity
  8
SAISEN
100
AcDbCircle
 10
650.8701166446781
 20
292.7475026894541
 30
0.0
 40
0.2
100
AcDbArc
 50
38.4615044522788
 51
218.4615044522762
  0
LINE
  5
318386F3
330
318324AF
100
AcDbEntity
  8
SAISEN
100
AcDbLine
 10
651.3704535500884
 20
292.4391740540404
 30
0.0
 11
651.0267218910009
 21
292.8719004258651
 31
0.0
  0
ARC
  5
318386F4
330
318324AF
100
AcDbEntity
  8
SAISEN
100
AcDbCircle
 10
652.0201367870228
 20
293.6456365353143
 30
0.0
 40
5.117097423324145
100
AcDbArc
 50
291.1520284424179
 51
325.5103361553218
  0
LINE
  5
318386F5
330
318324AF
100
AcDbEntity
  8
SAISEN
100
AcDbLine
 10
654.2428396207754
 20
292.4507608291235
 30
0.0
 11
656.8382503251899
 21
292.4507608291235
 31
0.0
  0
LINE
  5
318386F6
330
318324AF
100
AcDbEntity
  8
SAISEN
100
AcDbLine
 10
654.2428396207754
 20
292.6507608291235
 30
0.0
 11
656.8025230716738
 21
292.65184687568
 31
0.0
  0
ARC
  5
318386F7
330
318324AF
100
AcDbEntity
  8
SAISEN
100
AcDbCircle
 10
651.8600106378436
 20
294.0129640828179
 30
0.0
 40
5.710581143985369
100
AcDbArc
 50
291.0642306470723
 51
320.8665967697888
  0
ARC
  5
318386F8
330
318324AF
100
AcDbEntity
  8
SAISEN
100
AcDbCircle
 10
651.9272133674097
 20
293.8313623967163
 30
0.0
 40
5.117097423324145
100
AcDbArc
 50
291.1520284424179
 51
325.5103361553218
  0
LINE
  5
318386F9
330
318324AF
100
AcDbEntity
  8
SAISEN
100
AcDbLine
 10
654.2428396207754
 20
292.2507608291235
 30
0.0
 11
656.572535106792
 21
292.2507608291235
 31
0.0
  0
ARC
  5
318386FA
330
318324AF
100
AcDbEntity
  8
SAISEN
100
AcDbCircle
 10
653.8471838070014
 20
288.8730172640195
 30
0.0
 40
0.2
100
AcDbArc
 50
111.5606966022282
 51
289.0538596104055
  0
ARC
  5
318386FB
330
318324AF
100
AcDbEntity
  8
SAISEN
100
AcDbCircle
 10
652.466628243391
 20
290.5516129230077
 30
0.0
 40
0.2
100
AcDbArc
 50
270.0
 51
90.0
  0
ARC
  5
318386FC
330
318324AF
100
AcDbEntity
  8
SAISEN
100
AcDbCircle
 10
652.6051077782121
 20
288.9492068772224
 30
0.0
 40
0.2
100
AcDbArc
 50
270.0
 51
90.0
  0
ARC
  5
318386FD
330
318324AF
100
AcDbEntity
  8
SAISEN
100
AcDbCircle
 10
652.516085220113
 20
291.9561910619058
 30
0.0
 40
0.2
100
AcDbArc
 50
270.0
 51
90.0
  0
ARC
  5
318386FE
330
318324AF
100
AcDbEntity
  8
SAISEN
100
AcDbCircle
 10
654.2428396207754
 20
292.4507608291235
 30
0.0
 40
0.2
100
AcDbArc
 50
90.0
 51
270.0
  0
ARC
  5
318386FF
330
318324AF
100
AcDbEntity
  8
SAISEN
100
AcDbCircle
 10
652.8584525975414
 20
293.0464133035682
 30
0.0
 40
4.115702211458429
100
AcDbArc
 50
326.4612171854166
 51
351.5603004662478
  0
ARC
  5
31838700
330
318324AF
100
AcDbEntity
  8
SAISEN
100
AcDbCircle
 10
653.0257164870225
 20
292.8978323117668
 30
0.0
 40
4.115702211458429
100
AcDbArc
 50
326.4612171854166
 51
351.5603004662478
  0
ARC
  5
31838701
330
318324AF
100
AcDbEntity
  8
SAISEN
100
AcDbCircle
 10
653.2206607252048
 20
292.8971883865635
 30
0.0
 40
3.522218490797287
100
AcDbArc
 50
325.7052343648282
 51
347.5787438447317
  0
LINE
  5
31838702
330
318324AF
100
AcDbEntity
  8
SAISEN
100
AcDbLine
 10
657.630335414777
 20
288.8874885670036
 30
0.0
 11
656.1594931525466
 21
290.2602746784184
 31
0.0
  0
LINE
  5
31838703
330
318324AF
100
AcDbEntity
  8
SAISEN
100
AcDbLine
 10
657.7604284499749
 20
289.0360695588049
 30
0.0
 11
656.2895861877446
 21
290.4088556702199
 31
0.0
  0
LINE
  5
31838704
330
318324AF
100
AcDbEntity
  8
SAISEN
100
AcDbLine
 10
657.487501149831
 20
288.7436474515078
 30
0.0
 11
656.0262752945724
 21
290.1074582497492
 31
0.0
  0
ARC
  5
31838705
330
318324AF
100
AcDbEntity
  8
SAISEN
100
AcDbCircle
 10
651.8600106378436
 20
294.0129640828179
 30
0.0
 40
5.710581143985369
100
AcDbArc
 50
320.8665967697888
 51
323.5963112526801
  0
ARC
  5
31838706
330
318324AF
100
AcDbEntity
  8
SAISEN
100
AcDbCircle
 10
657.6239647999031
 20
288.8898585051563
 30
0.0
 40
0.2
100
AcDbArc
 50
226.9749340108814
 51
46.97493401088138
  0
ARC
  5
31838707
330
318324AF
100
AcDbEntity
  8
SAISEN
100
AcDbCircle
 10
656.56225499311
 20
292.1523825314735
 30
0.0
 40
0.098913953443514
100
AcDbArc
 50
345.7487979237089
 51
90.0
  0
ARC
  5
31838708
330
318324AF
100
AcDbEntity
  8
SAISEN
100
AcDbCircle
 10
656.8025230716738
 20
292.35184687568
 30
0.0
 40
0.3
100
AcDbArc
 50
348.8390365341861
 51
90.0
  0
ARC
  5
31838709
330
318324AF
100
AcDbEntity
  8
SAISEN
100
AcDbCircle
 10
658.4106162046428
 20
292.4139946366787
 30
0.0
 40
0.2
100
AcDbArc
 50
90.00000000000204
 51
271.0861433873868
  0
LINE
  5
3183870A
330
318324AF
100
AcDbEntity
  8
SAISEN
100
AcDbLine
 10
683.3714360649961
 20
290.7729675276511
 30
0.0
 11
687.3279942027376
 21
290.7729675276511
 31
0.0
  0
LINE
  5
3183870B
330
318324AF
100
AcDbEntity
  8
SAISEN
100
AcDbLine
 10
683.3932569717227
 20
290.9692236205834
 30
0.0
 11
687.3498151094639
 21
290.9692236205834
 31
0.0
  0
LINE
  5
3183870C
330
318324AF
100
AcDbEntity
  8
SAISEN
100
AcDbLine
 10
687.3498151094639
 20
290.5692236205835
 30
0.0
 11
683.3932569717227
 21
290.5692236205835
 31
0.0
  0
ARC
  5
3183870D
330
318324AF
100
AcDbEntity
  8
SAISEN
100
AcDbCircle
 10
664.4356935871284
 20
292.3833841279868
 30
0.0
 40
3.584188196679613
100
AcDbArc
 50
273.8301554721632
 51
302.907173832793
  0
ARC
  5
3183870E
330
318324AF
100
AcDbEntity
  8
SAISEN
100
AcDbCircle
 10
664.4832088097172
 20
292.1744540735783
 30
0.0
 40
3.184188196679545
100
AcDbArc
 50
273.8301554721643
 51
303.1403454176757
  0
ARC
  5
3183870F
330
318324AF
100
AcDbEntity
  8
SAISEN
100
AcDbCircle
 10
664.4832088097172
 20
292.1744540735783
 30
0.0
 40
3.584188196679613
100
AcDbArc
 50
273.8301554721632
 51
302.907173832793
  0
ARC
  5
31838710
330
318324AF
100
AcDbEntity
  8
SAISEN
100
AcDbCircle
 10
662.2880390222209
 20
292.8750275599215
 30
0.0
 40
0.4
100
AcDbArc
 50
261.7204449720558
 51
214.6455675014336
  0
CIRCLE
  5
31838711
330
318324AF
100
AcDbEntity
  8
SAISEN
100
AcDbCircle
 10
662.2880390222209
 20
292.8750275599215
 30
0.0
 40
0.3
  0
ARC
  5
31838712
330
318324AF
100
AcDbEntity
  8
SAISEN
100
AcDbCircle
 10
656.1041763256691
 20
292.4703465548053
 30
0.0
 40
5.921913396216108
100
AcDbArc
 50
341.8674282767248
 51
359.7238765159754
  0
ARC
  5
31838713
330
318324AF
100
AcDbEntity
  8
SAISEN
100
AcDbCircle
 10
656.3168100125327
 20
292.451028770906
 30
0.0
 40
5.50919454838201
100
AcDbArc
 50
341.7356819002808
 51
356.9040479454125
  0
ARC
  5
31838714
330
318324AF
100
AcDbEntity
  8
SAISEN
100
AcDbCircle
 10
656.3168100125314
 20
292.4510287709063
 30
0.0
 40
5.921913396216108
100
AcDbArc
 50
341.8674282767248
 51
356.9687629374052
  0
ARC
  5
31838715
330
318324AF
100
AcDbEntity
  8
SAISEN
100
AcDbCircle
 10
658.4727411624324
 20
292.778544349816
 30
0.0
 40
4.200641081100419
100
AcDbArc
 50
277.6452179033855
 51
310.8239910654832
  0
ARC
  5
31838716
330
318324AF
100
AcDbEntity
  8
SAISEN
100
AcDbCircle
 10
658.8769458508342
 20
292.055627933628
 30
0.0
 40
3.203004881980841
100
AcDbArc
 50
313.0691382297104
 51
334.2262262218499
  0
ARC
  5
31838717
330
318324AF
100
AcDbEntity
  8
SAISEN
100
AcDbCircle
 10
659.0315886447975
 20
291.9397212302342
 30
0.0
 40
2.794910925181346
100
AcDbArc
 50
313.2315653312655
 51
334.2262262218497
  0
ARC
  5
31838718
330
318324AF
100
AcDbEntity
  8
SAISEN
100
AcDbCircle
 10
659.0315886447975
 20
291.9397212302342
 30
0.0
 40
3.203004881980841
100
AcDbArc
 50
313.0691382297104
 51
334.2262262218499
  0
ARC
  5
31838719
330
318324AF
100
AcDbEntity
  8
SAISEN
100
AcDbCircle
 10
661.4626642628933
 20
290.7658658914619
 30
0.0
 40
0.5033632358983916
100
AcDbArc
 50
334.2262262219166
 51
341.867428276762
  0
LINE
  5
3183871A
330
318324AF
100
AcDbEntity
  8
SAISEN
100
AcDbLine
 10
662.2304377833112
 20
292.1378756758424
 30
0.0
 11
662.2304377833112
 21
292.4791966651241
 31
0.0
  0
ARC
  5
3183871B
330
318324AF
100
AcDbEntity
  8
SAISEN
100
AcDbCircle
 10
661.7182668379001
 20
292.1457078984199
 30
0.0
 40
0.1
100
AcDbArc
 50
4.461446366543238
 51
95.44393285886446
  0
LINE
  5
3183871C
330
318324AF
100
AcDbEntity
  8
SAISEN
100
AcDbLine
 10
663.9080186167622
 20
292.7759931858143
 30
0.0
 11
663.9080186167622
 21
290.5998862100566
 31
0.0
  0
LINE
  5
3183871D
330
318324AF
100
AcDbEntity
  8
SAISEN
100
AcDbLine
 10
663.717957726407
 20
292.7475026894541
 30
0.0
 11
663.717957726407
 21
290.5713957136963
 31
0.0
  0
LINE
  5
3183871E
330
318324AF
100
AcDbEntity
  8
SAISEN
100
AcDbLine
 10
664.1179577264071
 20
290.5713957136963
 30
0.0
 11
664.1179577264071
 21
292.7475026894541
 31
0.0
  0
ARC
  5
3183871F
330
318324AF
100
AcDbEntity
  8
SAISEN
100
AcDbCircle
 10
663.9179577264073
 20
290.5713957136963
 30
0.0
 40
0.2
100
AcDbArc
 50
180.0
 51
0.0
  0
ARC
  5
31838720
330
318324AF
100
AcDbEntity
  8
SAISEN
100
AcDbCircle
 10
664.7092693539554
 20
288.7978246327181
 30
0.0
 40
0.2
100
AcDbArc
 50
93.83015547216233
 51
273.8301554721623
  0
ARC
  5
31838721
330
318324AF
100
AcDbEntity
  8
SAISEN
100
AcDbCircle
 10
663.9179577264073
 20
292.7475026894541
 30
0.0
 40
0.2
100
AcDbArc
 50
0.0
 51
180.0
  0
ARC
  5
31838722
330
318324AF
100
AcDbEntity
  8
SAISEN
100
AcDbCircle
 10
668.2827474049089
 20
292.8935443193663
 30
0.0
 40
3.890358273512631
100
AcDbArc
 50
274.3165453626423
 51
345.4768343840378
  0
ARC
  5
31838723
330
318324AF
100
AcDbEntity
  8
SAISEN
100
AcDbCircle
 10
668.1664063966455
 20
293.0795683204077
 30
0.0
 40
3.890358273512631
100
AcDbArc
 50
274.3165453626423
 51
345.4768343840378
  0
ARC
  5
31838724
330
318324AF
100
AcDbEntity
  8
SAISEN
100
AcDbCircle
 10
668.1664063966455
 20
293.0795683204077
 30
0.0
 40
4.290358273512624
100
AcDbArc
 50
274.3165453626426
 51
345.4768343840378
  0
ARC
  5
31838725
330
318324AF
100
AcDbEntity
  8
SAISEN
100
AcDbCircle
 10
663.406020779612
 20
279.7178221135394
 30
0.0
 40
13.81605394989843
100
AcDbArc
 50
62.32240968900853
 51
67.72062209583229
  0
ARC
  5
31838726
330
318324AF
100
AcDbEntity
  8
SAISEN
100
AcDbCircle
 10
663.5825616886337
 20
280.0726330752514
 30
0.0
 40
13.22257022923734
100
AcDbArc
 50
62.32240968900788
 51
67.72062209583161
  0
ARC
  5
31838727
330
318324AF
100
AcDbEntity
  8
SAISEN
100
AcDbCircle
 10
663.4874602286153
 20
279.9038461145808
 30
0.0
 40
13.81605394989843
100
AcDbArc
 50
62.32240968900853
 51
67.72062209583229
  0
LINE
  5
31838728
330
318324AF
100
AcDbEntity
  8
SAISEN
100
AcDbLine
 10
667.0217047679894
 20
290.7248433121578
 30
0.0
 11
667.0216837714211
 21
292.7475026894541
 31
0.0
  0
LINE
  5
31838729
330
318324AF
100
AcDbEntity
  8
SAISEN
100
AcDbLine
 10
667.2117644196461
 20
290.7533338085181
 30
0.0
 11
667.211743423078
 21
292.7759931858143
 31
0.0
  0
LINE
  5
3183872A
330
318324AF
100
AcDbEntity
  8
SAISEN
100
AcDbLine
 10
667.4216837714213
 20
292.7475026894541
 30
0.0
 11
667.4217012979376
 21
290.7071096269998
 31
0.0
  0
ARC
  5
3183872B
330
318324AF
100
AcDbEntity
  8
SAISEN
100
AcDbCircle
 10
665.2739007311999
 20
290.9841330701253
 30
0.0
 40
1.955048349124109
100
AcDbArc
 50
299.3065120326639
 51
355.2156684909693
  0
ARC
  5
3183872C
330
318324AF
100
AcDbEntity
  8
SAISEN
100
AcDbCircle
 10
665.4734649138121
 20
290.8701710846845
 30
0.0
 40
1.555045596608111
100
AcDbArc
 50
298.8573776850579
 51
354.6375612980967
  0
ARC
  5
3183872D
330
318324AF
100
AcDbEntity
  8
SAISEN
100
AcDbCircle
 10
665.4734649138121
 20
290.8701710846845
 30
0.0
 40
1.955048349124109
100
AcDbArc
 50
299.3065120326639
 51
355.2156684909693
  0
LINE
  5
3183872E
330
318324AF
100
AcDbEntity
  8
SAISEN
100
AcDbLine
 10
668.5981867811748
 20
289.004106600236
 30
0.0
 11
668.4004075626063
 21
289.004106600236
 31
0.0
  0
ARC
  5
3183872F
330
318324AF
100
AcDbEntity
  8
SAISEN
100
AcDbCircle
 10
668.4742740916678
 20
289.000812592486
 30
0.0
 40
0.2
100
AcDbArc
 50
94.31654536264847
 51
274.3165453626444
  0
ARC
  5
31838730
330
318324AF
100
AcDbEntity
  8
SAISEN
100
AcDbCircle
 10
667.2216837714209
 20
292.7475026894541
 30
0.0
 40
0.2
100
AcDbArc
 50
0.0
 51
180.0
  0
ARC
  5
31838731
330
318324AF
100
AcDbEntity
  8
SAISEN
100
AcDbCircle
 10
668.6680085377749
 20
292.4946093261246
 30
0.0
 40
0.2
100
AcDbArc
 50
65.55279062614438
 51
245.5527906261425
  0
ARC
  5
31838732
330
318324AF
100
AcDbEntity
  8
SAISEN
100
AcDbCircle
 10
669.8221871208168
 20
291.9569345866539
 30
0.0
 40
0.2
100
AcDbArc
 50
245.5527906261443
 51
65.55279062614438
  0
LINE
  5
31838733
330
318324AF
100
AcDbEntity
  8
SAISEN
100
AcDbLine
 10
672.0651530390012
 20
291.9223624675964
 30
0.0
 11
672.1233235431331
 21
292.1083864686379
 31
0.0
  0
ARC
  5
31838734
330
318324AF
100
AcDbEntity
  8
SAISEN
100
AcDbCircle
 10
672.1260627057273
 20
292.0538233620285
 30
0.0
 40
0.2
100
AcDbArc
 50
345.4768343840399
 51
165.476834384036
  0
LINE
  5
31838735
330
318324AF
100
AcDbEntity
  8
SAISEN
100
AcDbLine
 10
678.1332086809745
 20
291.3487524083016
 30
0.0
 11
681.8480903644143
 21
291.3498547954582
 31
0.0
  0
LINE
  5
31838736
330
318324AF
100
AcDbEntity
  8
SAISEN
100
AcDbLine
 10
678.1332086809745
 20
291.542924550556
 30
0.0
 11
681.7930249583852
 21
291.5440105971124
 31
0.0
  0
LINE
  5
31838737
330
318324AF
100
AcDbEntity
  8
SAISEN
100
AcDbLine
 10
681.4721576991971
 20
291.1472687367819
 30
0.0
 11
678.1332086809745
 21
291.1429245505559
 31
0.0
  0
ARC
  5
31838738
330
318324AF
100
AcDbEntity
  8
SAISEN
100
AcDbCircle
 10
678.7385241279181
 20
294.0674765957932
 30
0.0
 40
5.144163353137099
100
AcDbArc
 50
271.3822734681051
 51
288.6515486543204
  0
LINE
  5
31838739
330
318324AF
100
AcDbEntity
  8
SAISEN
100
AcDbLine
 10
678.519611419519
 20
292.4961550249461
 30
0.0
 11
681.487030022825
 21
292.4961550249461
 31
0.0
  0
LINE
  5
3183873A
330
318324AF
100
AcDbEntity
  8
SAISEN
100
AcDbLine
 10
678.5288644947487
 20
292.6903264105009
 30
0.0
 11
681.4962830980547
 21
292.6903264105009
 31
0.0
  0
ARC
  5
3183873B
330
318324AF
100
AcDbEntity
  8
SAISEN
100
AcDbCircle
 10
678.7015143043955
 20
294.2339096443829
 30
0.0
 40
5.144163353137099
100
AcDbArc
 50
271.3822734681051
 51
288.6515486543204
  0
ARC
  5
3183873C
330
318324AF
100
AcDbEntity
  8
SAISEN
100
AcDbCircle
 10
678.7015143043955
 20
294.2339096443829
 30
0.0
 40
5.544055350446695
100
AcDbArc
 50
271.2825529569757
 51
288.6657642521421
  0
LINE
  5
3183873D
330
318324AF
100
AcDbEntity
  8
SAISEN
100
AcDbLine
 10
681.4962830980547
 20
292.290326410501
 30
0.0
 11
678.5288644947487
 21
292.290326410501
 31
0.0
  0
ARC
  5
3183873E
330
318324AF
100
AcDbEntity
  8
SAISEN
100
AcDbCircle
 10
672.9745220321275
 20
292.5985398602986
 30
0.0
 40
4.03644439940768
100
AcDbArc
 50
316.142739775347
 51
354.882916904744
  0
LINE
  5
3183873F
330
318324AF
100
AcDbEntity
  8
SAISEN
100
AcDbLine
 10
676.7771800527317
 20
292.4436555427149
 30
0.0
 11
674.572691429632
 21
292.4436555427149
 31
0.0
  0
ARC
  5
31838740
330
318324AF
100
AcDbEntity
  8
SAISEN
100
AcDbCircle
 10
673.1723024893941
 20
292.5287804815583
 30
0.0
 40
3.636444399631327
100
AcDbArc
 50
316.172438280045
 51
351.1825706592754
  0
ARC
  5
31838741
330
318324AF
100
AcDbEntity
  8
SAISEN
100
AcDbCircle
 10
673.1723024893941
 20
292.5287804815583
 30
0.0
 40
4.03644439940768
100
AcDbArc
 50
316.142739775347
 51
354.882916904744
  0
LINE
  5
31838742
330
318324AF
100
AcDbEntity
  8
SAISEN
100
AcDbLine
 10
676.8004477589053
 20
292.6529329222365
 30
0.0
 11
674.5959591358056
 21
292.6529329222365
 31
0.0
  0
LINE
  5
31838743
330
318324AF
100
AcDbEntity
  8
SAISEN
100
AcDbLine
 10
674.8261759972562
 20
292.2561910619058
 30
0.0
 11
676.4647586253755
 21
292.2561910619058
 31
0.0
  0
ARC
  5
31838744
330
318324AF
100
AcDbEntity
  8
SAISEN
100
AcDbCircle
 10
672.2572122982679
 20
293.7297092316821
 30
0.0
 40
2.663627609097051
100
AcDbArc
 50
297.2144190821765
 51
328.7046138518113
  0
ARC
  5
31838745
330
318324AF
100
AcDbEntity
  8
SAISEN
100
AcDbCircle
 10
672.3153828023995
 20
293.5204318521607
 30
0.0
 40
2.663627609097051
100
AcDbArc
 50
297.2144190821765
 51
328.7046138518113
  0
ARC
  5
31838746
330
318324AF
100
AcDbEntity
  8
SAISEN
100
AcDbCircle
 10
673.4420532759624
 20
291.3295245879646
 30
0.0
 40
0.2
100
AcDbArc
 50
117.2144190821781
 51
297.2144190821781
  0
ARC
  5
31838747
330
318324AF
100
AcDbEntity
  8
SAISEN
100
AcDbCircle
 10
672.3153828023995
 20
293.5204318521607
 30
0.0
 40
2.263627609097051
100
AcDbArc
 50
297.2144190821763
 51
331.9050007181475
  0
ARC
  5
31838748
330
318324AF
100
AcDbEntity
  8
SAISEN
100
AcDbCircle
 10
673.1825648575046
 20
292.7586901598142
 30
0.0
 40
4.010294928130582
100
AcDbArc
 50
280.8792661165337
 51
315.6028626151583
  0
ARC
  5
31838749
330
318324AF
100
AcDbEntity
  8
SAISEN
100
AcDbCircle
 10
673.2174676554628
 20
292.5377860910527
 30
0.0
 40
3.610294928130592
100
AcDbArc
 50
280.8792661165338
 51
315.5729604112654
  0
ARC
  5
3183874A
330
318324AF
100
AcDbEntity
  8
SAISEN
100
AcDbCircle
 10
673.2174676554628
 20
292.5377860910527
 30
0.0
 40
4.010294928130582
100
AcDbArc
 50
280.8792661165337
 51
315.6028626151583
  0
ARC
  5
3183874B
330
318324AF
100
AcDbEntity
  8
SAISEN
100
AcDbCircle
 10
673.9366230431798
 20
288.7959732994161
 30
0.0
 40
0.2
100
AcDbArc
 50
100.8792661165328
 51
280.8792661165328
  0
ARC
  5
3183874C
330
318324AF
100
AcDbEntity
  8
SAISEN
100
AcDbCircle
 10
674.8261759972562
 20
291.9561910619058
 30
0.0
 40
0.3
100
AcDbArc
 50
90.0
 51
142.2781546378461
  0
ARC
  5
3183874D
330
318324AF
100
AcDbEntity
  8
SAISEN
100
AcDbCircle
 10
674.5959591358056
 20
292.35184687568
 30
0.0
 40
0.3
100
AcDbArc
 50
89.88121335297497
 51
160.2957140717949
  0
ARC
  5
3183874E
330
318324AF
100
AcDbEntity
  8
SAISEN
100
AcDbCircle
 10
678.1332086809745
 20
291.342924550556
 30
0.0
 40
0.2
100
AcDbArc
 50
90.0
 51
270.0
  0
ARC
  5
3183874F
330
318324AF
100
AcDbEntity
  8
SAISEN
100
AcDbCircle
 10
678.8256063550794
 20
288.8912432380605
 30
0.0
 40
0.2
100
AcDbArc
 50
90.0
 51
270.0
  0
ARC
  5
31838750
330
318324AF
100
AcDbEntity
  8
SAISEN
100
AcDbCircle
 10
676.6625378439445
 20
292.1654684414273
 30
0.0
 40
0.3
100
AcDbArc
 50
2.778166472327038
 51
90.0
  0
ARC
  5
31838751
330
318324AF
100
AcDbEntity
  8
SAISEN
100
AcDbCircle
 10
676.4647586253755
 20
291.9561910619058
 30
0.0
 40
0.3
100
AcDbArc
 50
2.778166472327038
 51
90.0
  0
ARC
  5
31838752
330
318324AF
100
AcDbEntity
  8
SAISEN
100
AcDbCircle
 10
676.8004477589053
 20
292.2529329222364
 30
0.0
 40
0.4
100
AcDbArc
 50
347.7651295113945
 51
90.0
  0
ARC
  5
31838753
330
318324AF
100
AcDbEntity
  8
SAISEN
100
AcDbCircle
 10
678.5288644947487
 20
292.4903264105009
 30
0.0
 40
0.2
100
AcDbArc
 50
90.0
 51
270.0
  0
ARC
  5
31838754
330
318324AF
100
AcDbEntity
  8
SAISEN
100
AcDbCircle
 10
681.7930249583852
 20
291.2440105971124
 30
0.0
 40
0.3
100
AcDbArc
 50
0.0
 51
90.0
  0
ARC
  5
31838755
330
318324AF
100
AcDbEntity
  8
SAISEN
100
AcDbCircle
 10
679.8603710227377
 20
291.1574893266763
 30
0.0
 40
1.997005922588831
100
AcDbArc
 50
289.0559919991801
 51
5.527698145366789
  0
ARC
  5
31838756
330
318324AF
100
AcDbEntity
  8
SAISEN
100
AcDbCircle
 10
679.6938292942819
 20
291.2499519632928
 30
0.0
 40
2.402258302043286
100
AcDbArc
 50
289.0210108793427
 51
357.1065115118855
  0
ARC
  5
31838757
330
318324AF
100
AcDbEntity
  8
SAISEN
100
AcDbCircle
 10
679.6938292942819
 20
291.2499519632928
 30
0.0
 40
1.997005922588831
100
AcDbArc
 50
289.0559919991801
 51
351.9124464469893
  0
ARC
  5
31838758
330
318324AF
100
AcDbEntity
  8
SAISEN
100
AcDbCircle
 10
681.4721576991971
 20
290.9472687367818
 30
0.0
 40
0.2
100
AcDbArc
 50
6.238111700189068
 51
90.0
  0
ARC
  5
31838759
330
318324AF
100
AcDbEntity
  8
SAISEN
100
AcDbCircle
 10
683.3932569717227
 20
290.7692236205834
 30
0.0
 40
0.2
100
AcDbArc
 50
90.0
 51
270.0
  0
LINE
  5
3183875A
330
318324AF
100
AcDbEntity
  8
SAISEN
100
AcDbLine
 10
682.0930249583851
 20
291.2440105971124
 30
0.0
 11
682.0930249583851
 21
291.1286873143465
 31
0.0
  0
ARC
  5
3183875B
330
318324AF
100
AcDbEntity
  8
SAISEN
100
AcDbCircle
 10
681.4962830980547
 20
292.4903264105009
 30
0.0
 40
0.2
100
AcDbArc
 50
270.0
 51
90.0
  0
LINE
  5
3183875C
330
318324AF
100
AcDbEntity
  8
SAISEN
100
AcDbLine
 10
702.0465054763991
 20
289.2100482475021
 30
0.0
 11
698.904849466665
 21
289.007360763003
 31
0.0
  0
LINE
  5
3183875D
330
318324AF
100
AcDbEntity
  8
SAISEN
100
AcDbLine
 10
698.7341240871822
 20
290.5795106248604
 30
0.0
 11
702.4928543180366
 21
290.5795106248604
 31
0.0
  0
LINE
  5
3183875E
330
318324AF
100
AcDbEntity
  8
SAISEN
100
AcDbLine
 10
699.5309435863297
 20
291.5338164292469
 30
0.0
 11
701.6800432256874
 21
291.5338164292469
 31
0.0
  0
LINE
  5
3183875F
330
318324AF
100
AcDbEntity
  8
SAISEN
100
AcDbLine
 10
701.6440899171658
 20
291.3288449466638
 30
0.0
 11
699.5668968948518
 21
291.3288449466638
 31
0.0
  0
LINE
  5
31838760
330
318324AF
100
AcDbEntity
  8
SAISEN
100
AcDbLine
 10
702.0784886628024
 20
289.0182778697546
 30
0.0
 11
698.9368326530681
 21
288.8155903852555
 31
0.0
  0
LINE
  5
31838761
330
318324AF
100
AcDbEntity
  8
SAISEN
100
AcDbLine
 10
702.484858521436
 20
290.3792709936059
 30
0.0
 11
700.2800122775781
 21
290.3792709936059
 31
0.0
  0
LINE
  5
31838762
330
318324AF
100
AcDbEntity
  8
SAISEN
100
AcDbLine
 10
698.7261282905816
 20
290.7792709936059
 30
0.0
 11
702.484858521436
 21
290.7792709936059
 31
0.0
  0
LINE
  5
31838763
330
318324AF
100
AcDbEntity
  8
SAISEN
100
AcDbLine
 10
699.8563953587851
 20
289.2757486131601
 30
0.0
 11
701.7035736155131
 21
289.3949214039168
 31
0.0
  0
LINE
  5
31838764
330
318324AF
100
AcDbEntity
  8
SAISEN
100
AcDbLine
 10
699.5309435863297
 20
291.7255868069945
 30
0.0
 11
701.6800432256874
 21
291.7255868069945
 31
0.0
  0
ARC
  5
31838765
330
318324AF
100
AcDbEntity
  8
SAISEN
100
AcDbCircle
 10
705.6493896196863
 20
298.887226629773
 30
0.0
 40
7.925291662835922
100
AcDbArc
 50
230.8140697900567
 51
247.1625804839607
  0
ARC
  5
31838766
330
318324AF
100
AcDbEntity
  8
SAISEN
100
AcDbCircle
 10
705.8488228771322
 20
298.9591978087086
 30
0.0
 40
8.286693282901969
100
AcDbArc
 50
230.7473707218835
 51
246.3942638529459
  0
ARC
  5
31838767
330
318324AF
100
AcDbEntity
  8
SAISEN
100
AcDbCircle
 10
705.7373409048988
 20
299.0470347734295
 30
0.0
 40
7.925291662835922
100
AcDbArc
 50
230.8140697900567
 51
247.1625804839607
  0
LINE
  5
31838768
330
318324AF
100
AcDbEntity
  8
SAISEN
100
AcDbLine
 10
693.6815166649613
 20
292.0589503197359
 30
0.0
 11
697.5787264306364
 21
292.1097834905925
 31
0.0
  0
LINE
  5
31838769
330
318324AF
100
AcDbEntity
  8
SAISEN
100
AcDbLine
 10
693.6825761078235
 20
289.0156077276318
 30
0.0
 11
695.5052774310616
 21
289.3774814516213
 31
0.0
  0
LINE
  5
3183876A
330
318324AF
100
AcDbEntity
  8
SAISEN
100
AcDbLine
 10
693.6712010031775
 20
291.0522806801841
 30
0.0
 11
695.432293640912
 21
291.0826706312685
 31
0.0
  0
LINE
  5
3183876B
330
318324AF
100
AcDbEntity
  8
SAISEN
100
AcDbLine
 10
693.6688533767856
 20
291.2322653702283
 30
0.0
 11
695.4299460145201
 21
291.2626553213128
 31
0.0
  0
LINE
  5
3183876C
330
318324AF
100
AcDbEntity
  8
SAISEN
100
AcDbLine
 10
695.9457169614246
 20
291.8884663545721
 30
0.0
 11
693.6841251387301
 21
291.8589673307979
 31
0.0
  0
LINE
  5
3183876D
330
318324AF
100
AcDbEntity
  8
SAISEN
100
AcDbLine
 10
693.6789081911926
 20
292.2589333086739
 30
0.0
 11
695.9123187359647
 21
292.2880647505623
 31
0.0
  0
LINE
  5
3183876E
330
318324AF
100
AcDbEntity
  8
SAISEN
100
AcDbLine
 10
695.5895542600107
 20
289.1961050030335
 30
0.0
 11
693.7223783709311
 21
288.8196082892359
 31
0.0
  0
LINE
  5
3183876F
330
318324AF
100
AcDbEntity
  8
SAISEN
100
AcDbLine
 10
693.6735486295701
 20
290.8722959901399
 30
0.0
 11
694.4739378959056
 21
290.8861077511632
 31
0.0
  0
LINE
  5
31838770
330
318324AF
100
AcDbEntity
  8
SAISEN
100
AcDbLine
 10
693.6530145351588
 20
289.2134109465682
 30
0.0
 11
694.4739378959056
 21
289.3763233036453
 31
0.0
  0
ARC
  5
31838771
330
318324AF
100
AcDbEntity
  8
SAISEN
100
AcDbCircle
 10
685.015900516452
 20
294.0717268584138
 30
0.0
 40
7.139218915457766
100
AcDbArc
 50
314.5125496142203
 51
331.8004368319099
  0
ARC
  5
31838772
330
318324AF
100
AcDbEntity
  8
SAISEN
100
AcDbCircle
 10
687.5404541937935
 20
293.2098603340223
 30
0.0
 40
2.986931585685118
100
AcDbArc
 50
331.9804593803295
 51
349.0217472925337
  0
LINE
  5
31838773
330
318324AF
100
AcDbEntity
  8
SAISEN
100
AcDbLine
 10
692.5143320143278
 20
292.1144533874155
 30
0.0
 11
690.3543826773155
 21
292.1106694313087
 31
0.0
  0
LINE
  5
31838774
330
318324AF
100
AcDbEntity
  8
SAISEN
100
AcDbLine
 10
692.5736803863939
 20
291.1253138529802
 30
0.0
 11
690.3184422478813
 21
291.1253138529802
 31
0.0
  0
LINE
  5
31838775
330
318324AF
100
AcDbEntity
  8
SAISEN
100
AcDbLine
 10
690.3184422478813
 20
291.3253138529802
 30
0.0
 11
691.1768215497271
 21
291.3253138529802
 31
0.0
  0
ARC
  5
31838776
330
318324AF
100
AcDbEntity
  8
SAISEN
100
AcDbCircle
 10
687.3549802027124
 20
293.2752792838996
 30
0.0
 40
3.386931585685115
100
AcDbArc
 50
331.9804593803298
 51
336.3100448298412
  0
LINE
  5
31838777
330
318324AF
100
AcDbEntity
  8
SAISEN
100
AcDbLine
 10
691.1768215497271
 20
290.9253138529802
 30
0.0
 11
690.3184422478813
 21
290.9253138529802
 31
0.0
  0
ARC
  5
31838778
330
318324AF
100
AcDbEntity
  8
SAISEN
100
AcDbCircle
 10
684.8849775534891
 20
294.2025640014689
 30
0.0
 40
7.139218915457766
100
AcDbArc
 50
314.5125496142203
 51
331.8004368319099
  0
ARC
  5
31838779
330
318324AF
100
AcDbEntity
  8
SAISEN
100
AcDbCircle
 10
684.8849775534891
 20
294.2025640014689
 30
0.0
 40
7.53921891545777
100
AcDbArc
 50
314.5125496142203
 51
326.5688563556289
  0
ARC
  5
3183877A
330
318324AF
100
AcDbEntity
  8
SAISEN
100
AcDbCircle
 10
690.4835894634044
 20
292.6683715266993
 30
0.0
 40
0.2
100
AcDbArc
 50
349.0217472925427
 51
169.0217472925339
  0
ARC
  5
3183877B
330
318324AF
100
AcDbEntity
  8
SAISEN
100
AcDbCircle
 10
696.0884531495568
 20
294.5015072792624
 30
0.0
 40
7.418832849175436
100
AcDbArc
 50
203.7602849504221
 51
213.9853002248279
  0
ARC
  5
3183877C
330
318324AF
100
AcDbEntity
  8
SAISEN
100
AcDbCircle
 10
684.0475072162193
 20
292.6531941772357
 30
0.0
 40
5.271169530173041
100
AcDbArc
 50
328.4671771623674
 51
347.4646461118934
  0
LINE
  5
3183877D
330
318324AF
100
AcDbEntity
  8
SAISEN
100
AcDbLine
 10
689.2402801553467
 20
292.7672854801428
 30
0.0
 11
689.2402801553467
 21
288.7711617610241
 31
0.0
  0
ARC
  5
3183877E
330
318324AF
100
AcDbEntity
  8
SAISEN
100
AcDbCircle
 10
683.8947633465296
 20
292.7949338480207
 30
0.0
 40
5.271169530173041
100
AcDbArc
 50
328.4671771623674
 51
347.4646461118934
  0
ARC
  5
3183877F
330
318324AF
100
AcDbEntity
  8
SAISEN
100
AcDbCircle
 10
696.2302865658831
 20
294.6323444223174
 30
0.0
 40
7.418832849175436
100
AcDbArc
 50
203.7602849504221
 51
213.9853002248279
  0
ARC
  5
31838780
330
318324AF
100
AcDbEntity
  8
SAISEN
100
AcDbCircle
 10
688.5478824812422
 20
289.9185644359602
 30
0.0
 40
0.2
100
AcDbArc
 50
143.2672556023236
 51
329.3159127459409
  0
ARC
  5
31838781
330
318324AF
100
AcDbEntity
  8
SAISEN
100
AcDbCircle
 10
687.3498151094639
 20
290.7692236205834
 30
0.0
 40
0.2
100
AcDbArc
 50
270.0
 51
90.0
  0
ARC
  5
31838782
330
318324AF
100
AcDbEntity
  8
SAISEN
100
AcDbCircle
 10
689.2402801553467
 20
288.7711617610241
 30
0.0
 40
0.2
100
AcDbArc
 50
180.0
 51
0.0
  0
LINE
  5
31838783
330
318324AF
100
AcDbEntity
  8
SAISEN
100
AcDbLine
 10
689.0402801553469
 20
290.4124002067112
 30
0.0
 11
689.0402801553469
 21
288.7711617610241
 31
0.0
  0
ARC
  5
31838784
330
318324AF
100
AcDbEntity
  8
SAISEN
100
AcDbCircle
 10
683.8947633465296
 20
292.7949338480207
 30
0.0
 40
5.67034476745378
100
AcDbArc
 50
328.3139559024094
 51
335.1544021915958
  0
ARC
  5
31838785
330
318324AF
100
AcDbEntity
  8
SAISEN
100
AcDbCircle
 10
690.3184422478813
 20
291.1253138529802
 30
0.0
 40
0.2
100
AcDbArc
 50
90.00000000000406
 51
269.9999999999959
  0
ARC
  5
31838786
330
318324AF
100
AcDbEntity
  8
SAISEN
100
AcDbCircle
 10
690.0302505281853
 20
288.9689896679112
 30
0.0
 40
0.2
100
AcDbArc
 50
134.5125496142205
 51
314.5125496142204
  0
ARC
  5
31838787
330
318324AF
100
AcDbEntity
  8
SAISEN
100
AcDbCircle
 10
689.9128950375008
 20
290.3735678068093
 30
0.0
 40
0.2
100
AcDbArc
 50
213.9853002248293
 51
33.98530022482029
  0
LINE
  5
31838788
330
318324AF
100
AcDbEntity
  8
SAISEN
100
AcDbLine
 10
689.4402801553468
 20
288.7711617610241
 30
0.0
 11
689.4402801553468
 21
290.7554951773478
 31
0.0
  0
ARC
  5
31838789
330
318324AF
100
AcDbEntity
  8
SAISEN
100
AcDbCircle
 10
696.2302865658831
 20
294.6323444223174
 30
0.0
 40
7.818832849175443
100
AcDbArc
 50
209.7248115755767
 51
213.9853002248277
  0
LINE
  5
3183878A
330
318324AF
100
AcDbEntity
  8
SAISEN
100
AcDbLine
 10
688.6072308533081
 20
291.9364082712172
 30
0.0
 11
689.7348499225646
 21
291.9364082712172
 31
0.0
  0
LINE
  5
3183878B
330
318324AF
100
AcDbEntity
  8
SAISEN
100
AcDbLine
 10
688.6072308533081
 20
292.1364082712171
 30
0.0
 11
689.0402801553469
 21
292.1364082712171
 31
0.0
  0
LINE
  5
3183878C
330
318324AF
100
AcDbEntity
  8
SAISEN
100
AcDbLine
 10
689.0402801553469
 20
291.7364082712171
 30
0.0
 11
688.6072308533081
 21
291.7364082712171
 31
0.0
  0
ARC
  5
3183878D
330
318324AF
100
AcDbEntity
  8
SAISEN
100
AcDbCircle
 10
688.6072308533081
 20
291.9364082712172
 30
0.0
 40
0.2
100
AcDbArc
 50
90.0
 51
270.0
  0
ARC
  5
3183878E
330
318324AF
100
AcDbEntity
  8
SAISEN
100
AcDbCircle
 10
689.2402801553467
 20
292.7672854801428
 30
0.0
 40
0.2
100
AcDbArc
 50
0.0
 51
180.0
  0
LINE
  5
3183878F
330
318324AF
100
AcDbEntity
  8
SAISEN
100
AcDbLine
 10
689.0402801553469
 20
291.7364082712171
 30
0.0
 11
689.0402801553469
 21
291.6508687336125
 31
0.0
  0
LINE
  5
31838790
330
318324AF
100
AcDbEntity
  8
SAISEN
100
AcDbLine
 10
689.0402801553469
 20
292.7672854801428
 30
0.0
 11
689.0402801553469
 21
292.1364082712171
 31
0.0
  0
ARC
  5
31838791
330
318324AF
100
AcDbEntity
  8
SAISEN
100
AcDbCircle
 10
689.7348499225646
 20
291.9364082712172
 30
0.0
 40
0.2
100
AcDbArc
 50
270.0
 51
90.0
  0
ARC
  5
31838792
330
318324AF
100
AcDbEntity
  8
SAISEN
100
AcDbCircle
 10
690.1683633439699
 20
291.7781459457075
 30
0.0
 40
0.2
100
AcDbArc
 50
151.9804593803337
 51
331.9804593803337
  0
LINE
  5
31838793
330
318324AF
100
AcDbEntity
  8
SAISEN
100
AcDbLine
 10
689.4402801553468
 20
291.6432151529681
 30
0.0
 11
689.4402801553468
 21
291.7364082712172
 31
0.0
  0
LINE
  5
31838794
330
318324AF
100
AcDbEntity
  8
SAISEN
100
AcDbLine
 10
689.7348499225646
 20
291.7364082712172
 30
0.0
 11
689.4402801553468
 21
291.7364082712172
 31
0.0
  0
LINE
  5
31838795
330
318324AF
100
AcDbEntity
  8
SAISEN
100
AcDbLine
 10
689.4402801553468
 20
292.1364082712172
 30
0.0
 11
689.7348499225646
 21
292.1364082712172
 31
0.0
  0
LINE
  5
31838796
330
318324AF
100
AcDbEntity
  8
SAISEN
100
AcDbLine
 10
689.4402801553468
 20
292.1364082712172
 30
0.0
 11
689.4402801553468
 21
292.7672854801428
 31
0.0
  0
ARC
  5
31838797
330
318324AF
100
AcDbEntity
  8
SAISEN
100
AcDbCircle
 10
687.3549802027124
 20
293.2752792838996
 30
0.0
 40
2.986931585685118
100
AcDbArc
 50
331.9804593803295
 51
349.0217472925337
  0
LINE
  5
31838798
330
318324AF
100
AcDbEntity
  8
SAISEN
100
AcDbLine
 10
691.3768215497271
 20
292.7672854801428
 30
0.0
 11
691.3768215497271
 21
288.7711617610241
 31
0.0
  0
LINE
  5
31838799
330
318324AF
100
AcDbEntity
  8
SAISEN
100
AcDbLine
 10
691.576821549727
 20
291.3253138529802
 30
0.0
 11
691.576821549727
 21
291.9144533874155
 31
0.0
  0
LINE
  5
3183879A
330
318324AF
100
AcDbEntity
  8
SAISEN
100
AcDbLine
 10
691.1768215497271
 20
291.9144533874155
 30
0.0
 11
691.1768215497271
 21
291.3253138529802
 31
0.0
  0
ARC
  5
3183879B
330
318324AF
100
AcDbEntity
  8
SAISEN
100
AcDbCircle
 10
697.7486530363655
 20
294.0608235739844
 30
0.0
 40
7.139218915457866
100
AcDbArc
 50
208.1995631680902
 51
225.3643482129403
  0
LINE
  5
3183879C
330
318324AF
100
AcDbEntity
  8
SAISEN
100
AcDbLine
 10
692.5736803863939
 20
290.9253138529802
 30
0.0
 11
691.576821549727
 21
290.9253138529802
 31
0.0
  0
LINE
  5
3183879D
330
318324AF
100
AcDbEntity
  8
SAISEN
100
AcDbLine
 10
691.576821549727
 20
291.3253138529802
 30
0.0
 11
692.5736803863939
 21
291.3253138529802
 31
0.0
  0
ARC
  5
3183879E
330
318324AF
100
AcDbEntity
  8
SAISEN
100
AcDbCircle
 10
697.8686655459652
 20
294.2025640014689
 30
0.0
 40
7.139218915457866
100
AcDbArc
 50
208.1995631680902
 51
225.3643482129403
  0
ARC
  5
3183879F
330
318324AF
100
AcDbEntity
  8
SAISEN
100
AcDbCircle
 10
697.8686655459652
 20
294.2025640014689
 30
0.0
 40
7.539218915457878
100
AcDbArc
 50
213.4311436443713
 51
225.3643482129403
  0
ARC
  5
318387A0
330
318324AF
100
AcDbEntity
  8
SAISEN
100
AcDbCircle
 10
691.3768215497271
 20
288.7711617610241
 30
0.0
 40
0.2
100
AcDbArc
 50
180.0
 51
0.0
  0
LINE
  5
318387A1
330
318324AF
100
AcDbEntity
  8
SAISEN
100
AcDbLine
 10
691.576821549727
 20
288.7711617610241
 30
0.0
 11
691.576821549727
 21
290.0489485905046
 31
0.0
  0
LINE
  5
318387A2
330
318324AF
100
AcDbEntity
  8
SAISEN
100
AcDbLine
 10
691.1768215497271
 20
290.9253138529802
 30
0.0
 11
691.1768215497271
 21
290.8289686122981
 31
0.0
  0
LINE
  5
318387A3
330
318324AF
100
AcDbEntity
  8
SAISEN
100
AcDbLine
 10
691.1768215497271
 20
290.0489485905046
 30
0.0
 11
691.1768215497271
 21
288.7711617610241
 31
0.0
  0
LINE
  5
318387A4
330
318324AF
100
AcDbEntity
  8
SAISEN
100
AcDbLine
 10
691.576821549727
 20
290.8289686122981
 30
0.0
 11
691.576821549727
 21
290.9253138529802
 31
0.0
  0
ARC
  5
318387A5
330
318324AF
100
AcDbEntity
  8
SAISEN
100
AcDbCircle
 10
692.5736803863939
 20
291.1253138529802
 30
0.0
 40
0.2
100
AcDbArc
 50
270.0
 51
90.0
  0
ARC
  5
318387A6
330
318324AF
100
AcDbEntity
  8
SAISEN
100
AcDbCircle
 10
692.7121599212147
 20
288.9800565547598
 30
0.0
 40
0.2
100
AcDbArc
 50
225.3643482129409
 51
45.36434821294096
  0
ARC
  5
318387A7
330
318324AF
100
AcDbEntity
  8
SAISEN
100
AcDbCircle
 10
693.6712010031775
 20
291.0522806801841
 30
0.0
 40
0.18
100
AcDbArc
 50
90.74729387682133
 51
271.2299367324829
  0
ARC
  5
318387A8
330
318324AF
100
AcDbEntity
  8
SAISEN
100
AcDbCircle
 10
693.6825761078235
 20
289.0156077276318
 30
0.0
 40
0.2
100
AcDbArc
 50
98.49991033237312
 51
281.4791494176519
  0
LINE
  5
318387A9
330
318324AF
100
AcDbEntity
  8
SAISEN
100
AcDbLine
 10
692.5143320143278
 20
292.3144533874155
 30
0.0
 11
691.576821549727
 21
292.3144533874155
 31
0.0
  0
LINE
  5
318387AA
330
318324AF
100
AcDbEntity
  8
SAISEN
100
AcDbLine
 10
692.5143320143278
 20
291.9144533874155
 30
0.0
 11
691.576821549727
 21
291.9144533874155
 31
0.0
  0
ARC
  5
318387AB
330
318324AF
100
AcDbEntity
  8
SAISEN
100
AcDbCircle
 10
691.3768215497271
 20
292.7672854801428
 30
0.0
 40
0.2
100
AcDbArc
 50
0.0
 51
180.0
  0
ARC
  5
318387AC
330
318324AF
100
AcDbEntity
  8
SAISEN
100
AcDbCircle
 10
687.3549802027124
 20
293.2752792838996
 30
0.0
 40
3.386931585685115
100
AcDbArc
 50
343.5196649963716
 51
349.0217472925343
  0
LINE
  5
318387AD
330
318324AF
100
AcDbEntity
  8
SAISEN
100
AcDbLine
 10
691.1768215497271
 20
291.9144533874155
 30
0.0
 11
690.4565053832599
 21
291.9144533874155
 31
0.0
  0
LINE
  5
318387AE
330
318324AF
100
AcDbEntity
  8
SAISEN
100
AcDbLine
 10
691.1768215497271
 20
292.3144533874155
 30
0.0
 11
690.6027670126428
 21
292.3144533874155
 31
0.0
  0
LINE
  5
318387AF
330
318324AF
100
AcDbEntity
  8
SAISEN
100
AcDbLine
 10
691.1768215497271
 20
292.7672854801428
 30
0.0
 11
691.1768215497271
 21
292.3144533874155
 31
0.0
  0
LINE
  5
318387B0
330
318324AF
100
AcDbEntity
  8
SAISEN
100
AcDbLine
 10
691.576821549727
 20
292.3144533874155
 30
0.0
 11
691.576821549727
 21
292.7672854801428
 31
0.0
  0
ARC
  5
318387B1
330
318324AF
100
AcDbEntity
  8
SAISEN
100
AcDbCircle
 10
692.5143320143278
 20
292.1144533874155
 30
0.0
 40
0.2
100
AcDbArc
 50
270.0
 51
90.0
  0
ARC
  5
318387B2
330
318324AF
100
AcDbEntity
  8
SAISEN
100
AcDbCircle
 10
693.6815166649613
 20
292.0589503197359
 30
0.0
 40
0.2
100
AcDbArc
 50
90.74729387682674
 51
270.7472938768268
  0
LINE
  5
318387B3
330
318324AF
100
AcDbEntity
  8
SAISEN
100
AcDbLine
 10
697.5813349044052
 20
291.9098005016545
 30
0.0
 11
696.3472714889466
 21
291.8937040223224
 31
0.0
  0
LINE
  5
318387B4
330
318324AF
100
AcDbEntity
  8
SAISEN
100
AcDbLine
 10
696.3130463307353
 20
292.2932916322332
 30
0.0
 11
697.5761179568679
 21
292.3097664795306
 31
0.0
  0
LINE
  5
318387B5
330
318324AF
100
AcDbEntity
  8
SAISEN
100
AcDbLine
 10
697.3409251810752
 20
288.8506252218731
 30
0.0
 11
697.5059135820425
 21
289.0155055228987
 31
0.0
  0
LINE
  5
318387B6
330
318324AF
100
AcDbEntity
  8
SAISEN
100
AcDbLine
 10
697.2147575803354
 20
289.0155055228987
 30
0.0
 11
697.4476823817012
 21
289.1318919738342
 31
0.0
  0
ARC
  5
318387B7
330
318324AF
100
AcDbEntity
  8
SAISEN
100
AcDbCircle
 10
697.3384647239647
 20
288.8950061844744
 30
0.0
 40
0.22
100
AcDbArc
 50
257.6391813438886
 51
312.5107582051346
  0
ARC
  5
318387B8
330
318324AF
100
AcDbEntity
  8
SAISEN
100
AcDbCircle
 10
692.8214504873878
 20
290.4262410457484
 30
0.0
 40
4.639999999999999
100
AcDbArc
 50
346.9855123116682
 51
355.0676815097338
  0
LINE
  5
318387B9
330
318324AF
100
AcDbEntity
  8
SAISEN
100
AcDbLine
 10
696.0784913083083
 20
292.7475026894541
 30
0.0
 11
696.3801091367435
 21
290.3442503332795
 31
0.0
  0
ARC
  5
318387BA
330
318324AF
100
AcDbEntity
  8
SAISEN
100
AcDbCircle
 10
709.4768202311059
 20
293.2556694503962
 30
0.0
 40
13.2
100
AcDbArc
 50
185.9222725457115
 51
193.2451308304553
  0
ARC
  5
318387BB
330
318324AF
100
AcDbEntity
  8
SAISEN
100
AcDbCircle
 10
709.4768202311055
 20
293.2556694503961
 30
0.0
 40
13.6
100
AcDbArc
 50
185.7696702748553
 51
190.3029430131223
  0
ARC
  5
318387BC
330
318324AF
100
AcDbEntity
  8
SAISEN
100
AcDbCircle
 10
695.5052774310616
 20
289.3774814516213
 30
0.0
 40
0.2
100
AcDbArc
 50
294.9220052137643
 51
104.7637627083263
  0
LINE
  5
318387BD
330
318324AF
100
AcDbEntity
  8
SAISEN
100
AcDbLine
 10
694.6525835266144
 20
291.0716648949268
 30
0.0
 11
694.6525835266144
 21
289.2288804307139
 31
0.0
  0
LINE
  5
318387BE
330
318324AF
100
AcDbEntity
  8
SAISEN
100
AcDbLine
 10
694.4739378959056
 20
290.8861077511632
 30
0.0
 11
694.4739378959056
 21
289.3763233036453
 31
0.0
  0
ARC
  5
318387BF
330
318324AF
100
AcDbEntity
  8
SAISEN
100
AcDbCircle
 10
695.432293640912
 20
291.0826706312685
 30
0.0
 40
0.18
100
AcDbArc
 50
270.7472938768304
 51
90.74729387682133
  0
LINE
  5
318387C0
330
318324AF
100
AcDbEntity
  8
SAISEN
100
AcDbLine
 10
694.8674216165667
 20
290.8928978261243
 30
0.0
 11
695.4346412673045
 21
290.9026859412243
 31
0.0
  0
LINE
  5
318387C1
330
318324AF
100
AcDbEntity
  8
SAISEN
100
AcDbLine
 10
694.8674216165669
 20
289.4544102036771
 30
0.0
 11
695.4543105851183
 21
289.570878402514
 31
0.0
  0
LINE
  5
318387C2
330
318324AF
100
AcDbEntity
  8
SAISEN
100
AcDbLine
 10
694.8674216165669
 20
289.4544102036771
 30
0.0
 11
694.8674216165667
 21
290.8928978261243
 31
0.0
  0
ARC
  5
318387C3
330
318324AF
100
AcDbEntity
  8
SAISEN
100
AcDbCircle
 10
700.883579092946
 20
291.6651156946753
 30
0.0
 40
4.679999999999999
100
AcDbArc
 50
195.2891069285951
 51
213.6379702656438
  0
ARC
  5
318387C4
330
318324AF
100
AcDbEntity
  8
SAISEN
100
AcDbCircle
 10
700.7282958920356
 20
291.490536018272
 30
0.0
 40
4.679999999999999
100
AcDbArc
 50
188.1970387230629
 51
213.6379702656438
  0
ARC
  5
318387C5
330
318324AF
100
AcDbEntity
  8
SAISEN
100
AcDbCircle
 10
700.3582085223999
 20
291.5605352481317
 30
0.0
 40
3.959999999999999
100
AcDbArc
 50
199.6127606482544
 51
214.3744272003667
  0
LINE
  5
318387C6
330
318324AF
100
AcDbEntity
  8
SAISEN
100
AcDbLine
 10
697.0885899795956
 20
288.9185170660189
 30
0.0
 11
697.3409251810752
 21
288.8506252218731
 31
0.0
  0
LINE
  5
318387C7
330
318324AF
100
AcDbEntity
  8
SAISEN
100
AcDbLine
 10
697.0012431790834
 20
289.0640001296883
 30
0.0
 11
697.2147575803354
 21
289.0155055228987
 31
0.0
  0
ARC
  5
318387C8
330
318324AF
100
AcDbEntity
  8
SAISEN
100
AcDbCircle
 10
697.1850440218728
 20
289.2520847112299
 30
0.0
 40
0.5
100
AcDbArc
 50
225.0730467242681
 51
238.9531630610385
  0
ARC
  5
318387C9
330
318324AF
100
AcDbEntity
  8
SAISEN
100
AcDbCircle
 10
697.5317351971508
 20
289.8349020949062
 30
0.0
 40
1.179999999999999
100
AcDbArc
 50
239.1259188682699
 51
258.2665070817582
  0
ARC
  5
318387CA
330
318324AF
100
AcDbEntity
  8
SAISEN
100
AcDbCircle
 10
697.195423995737
 20
289.4448714754515
 30
0.0
 40
0.16
100
AcDbArc
 50
228.6700141633633
 51
336.5989012719083
  0
ARC
  5
318387CB
330
318324AF
100
AcDbEntity
  8
SAISEN
100
AcDbCircle
 10
696.819392655126
 20
292.7969596661759
 30
0.0
 40
0.14
100
AcDbArc
 50
55.25520930929936
 51
235.2552093093122
  0
LINE
  5
318387CC
330
318324AF
100
AcDbEntity
  8
SAISEN
100
AcDbLine
 10
695.9123187359647
 20
292.2880647505623
 30
0.0
 11
695.8790491495052
 21
292.732575355733
 31
0.0
  0
LINE
  5
318387CD
330
318324AF
100
AcDbEntity
  8
SAISEN
100
AcDbLine
 10
696.2779334671112
 20
292.7624300231751
 30
0.0
 11
696.3130463307353
 21
292.2932916322332
 31
0.0
  0
ARC
  5
318387CE
330
318324AF
100
AcDbEntity
  8
SAISEN
100
AcDbCircle
 10
696.0784913083083
 20
292.7475026894541
 30
0.0
 40
0.2
100
AcDbArc
 50
4.280346437774319
 51
184.2803464377743
  0
LINE
  5
318387CF
330
318324AF
100
AcDbEntity
  8
SAISEN
100
AcDbLine
 10
696.819392655126
 20
292.7969596661759
 30
0.0
 11
697.2918759656502
 21
292.5749545346386
 31
0.0
  0
ARC
  5
318387D0
330
318324AF
100
AcDbEntity
  8
SAISEN
100
AcDbCircle
 10
697.7134969840982
 20
294.0860559710619
 30
0.0
 40
1.428818611043933
100
AcDbArc
 50
235.2552093093074
 51
254.4100633419982
  0
ARC
  5
318387D1
330
318324AF
100
AcDbEntity
  8
SAISEN
100
AcDbCircle
 10
697.7134969840982
 20
294.0860559710619
 30
0.0
 40
1.708818611043934
100
AcDbArc
 50
235.2552093093071
 51
254.4100633419976
  0
ARC
  5
318387D2
330
318324AF
100
AcDbEntity
  8
SAISEN
100
AcDbCircle
 10
697.2918759656502
 20
292.5749545346386
 30
0.0
 40
0.14
100
AcDbArc
 50
254.4100633419911
 51
74.41006334199426
  0
ARC
  5
318387D3
330
318324AF
100
AcDbEntity
  8
SAISEN
100
AcDbCircle
 10
695.5376110412267
 20
298.871245891077
 30
0.0
 40
7.925283407336333
100
AcDbArc
 50
292.8374195160407
 51
309.1859309849252
  0
ARC
  5
318387D4
330
318324AF
100
AcDbEntity
  8
SAISEN
100
AcDbCircle
 10
695.3621639348852
 20
298.9591978087085
 30
0.0
 40
8.28669328290189
100
AcDbArc
 50
293.6057361470537
 51
309.2526292781167
  0
ARC
  5
318387D5
330
318324AF
100
AcDbEntity
  8
SAISEN
100
AcDbCircle
 10
698.6272143371381
 20
291.5586857722587
 30
0.0
 40
0.2
100
AcDbArc
 50
112.8374195160451
 51
285.4499948569614
  0
ARC
  5
318387D6
330
318324AF
100
AcDbEntity
  8
SAISEN
100
AcDbCircle
 10
699.5668968948515
 20
291.5288449466639
 30
0.0
 40
0.2
100
AcDbArc
 50
100.3561618732414
 51
270.0
  0
LINE
  5
318387D7
330
318324AF
100
AcDbEntity
  8
SAISEN
100
AcDbLine
 10
698.911079741869
 20
289.2147605088429
 30
0.0
 11
699.390030619306
 21
289.2456605654518
 31
0.0
  0
LINE
  5
318387D8
330
318324AF
100
AcDbEntity
  8
SAISEN
100
AcDbLine
 10
699.8649214743435
 20
290.3792709936059
 30
0.0
 11
698.7261282905816
 21
290.3792709936059
 31
0.0
  0
LINE
  5
318387D9
330
318324AF
100
AcDbEntity
  8
SAISEN
100
AcDbLine
 10
697.4476823817012
 20
289.1318919738342
 30
0.0
 11
697.5253239821564
 21
289.3258688875937
 31
0.0
  0
ARC
  5
318387DA
330
318324AF
100
AcDbEntity
  8
SAISEN
100
AcDbCircle
 10
693.005849288469
 20
290.3874458143364
 30
0.0
 40
4.639999999999999
100
AcDbArc
 50
346.9855123116682
 51
355.0676815097338
  0
ARC
  5
318387DB
330
318324AF
100
AcDbEntity
  8
SAISEN
100
AcDbCircle
 10
698.7261282905816
 20
290.5792709936059
 30
0.0
 40
0.2
100
AcDbArc
 50
90.0
 51
270.0
  0
ARC
  5
318387DC
330
318324AF
100
AcDbEntity
  8
SAISEN
100
AcDbCircle
 10
698.9239561974685
 20
289.0151754470493
 30
0.0
 40
0.2
100
AcDbArc
 50
93.69138598645191
 51
273.6913859864519
  0
ARC
  5
318387DD
330
318324AF
100
AcDbEntity
  8
SAISEN
100
AcDbCircle
 10
697.6380748027028
 20
289.9779119930352
 30
0.0
 40
0.2
100
AcDbArc
 50
0.0
 51
165.703814290577
  0
ARC
  5
318387DE
330
318324AF
100
AcDbEntity
  8
SAISEN
100
AcDbCircle
 10
694.3913896861531
 20
290.0967448609577
 30
0.0
 40
3.459999999999999
100
AcDbArc
 50
341.0698757630186
 51
354.9718568203695
  0
ARC
  5
318387DF
330
318324AF
100
AcDbEntity
  8
SAISEN
100
AcDbCircle
 10
696.9408242731884
 20
289.3158066720459
 30
0.0
 40
0.8
100
AcDbArc
 50
313.1105487457624
 51
334.7276671366933
  0
LINE
  5
318387E0
330
318324AF
100
AcDbEntity
  8
SAISEN
100
AcDbLine
 10
697.8380748027026
 20
289.9779119930352
 30
0.0
 11
697.8380748027026
 21
289.7934929733221
 31
0.0
  0
LINE
  5
318387E1
330
318324AF
100
AcDbEntity
  8
SAISEN
100
AcDbLine
 10
700.07280846987
 20
290.3872609846039
 30
0.0
 11
699.5979176148324
 21
289.2536505564498
 31
0.0
  0
LINE
  5
318387E2
330
318324AF
100
AcDbEntity
  8
SAISEN
100
AcDbLine
 10
699.8649214743435
 20
290.3792709936059
 30
0.0
 11
699.390030619306
 21
289.2456605654518
 31
0.0
  0
LINE
  5
318387E3
330
318324AF
100
AcDbEntity
  8
SAISEN
100
AcDbLine
 10
699.8563953587851
 20
289.2757486131601
 30
0.0
 11
700.2800122775781
 21
290.3792709936059
 31
0.0
  0
ARC
  5
318387E4
330
318324AF
100
AcDbEntity
  8
SAISEN
100
AcDbCircle
 10
695.4736459071185
 20
299.0470347734293
 30
0.0
 40
7.925283407336333
100
AcDbArc
 50
292.8374195160407
 51
309.1859309849252
  0
ARC
  5
318387E5
330
318324AF
100
AcDbEntity
  8
SAISEN
100
AcDbCircle
 10
697.5787264306364
 20
292.1097834905925
 30
0.0
 40
0.2
100
AcDbArc
 50
270.7472938768268
 51
90.74729387681047
  0
ARC
  5
318387E6
330
318324AF
100
AcDbEntity
  8
SAISEN
100
AcDbCircle
 10
700.6054934060085
 20
292.7475026894541
 30
0.0
 40
0.2
100
AcDbArc
 50
51.55800965288952
 51
128.4419903471104
  0
LINE
  5
318387E7
330
318324AF
100
AcDbEntity
  8
SAISEN
100
AcDbLine
 10
703.6718259627581
 20
291.9265168758727
 30
0.0
 11
705.2250964975006
 21
291.9265168758727
 31
0.0
  0
ARC
  5
318387E8
330
318324AF
100
AcDbEntity
  8
SAISEN
100
AcDbCircle
 10
701.2013282961881
 20
293.7715014766565
 30
0.0
 40
4.360160322345875
100
AcDbArc
 50
302.8785139530977
 51
334.9666295207256
  0
ARC
  5
318387E9
330
318324AF
100
AcDbEntity
  8
SAISEN
100
AcDbCircle
 10
701.097385417774
 20
293.9393003680107
 30
0.0
 40
4.360160322345875
100
AcDbArc
 50
302.8785139530977
 51
329.5025185277317
  0
LINE
  5
318387EA
330
318324AF
100
AcDbEntity
  8
SAISEN
100
AcDbLine
 10
703.6718259627581
 20
291.7265168758728
 30
0.0
 11
704.8543239657784
 21
291.7265168758728
 31
0.0
  0
ARC
  5
318387EB
330
318324AF
100
AcDbEntity
  8
SAISEN
100
AcDbCircle
 10
704.4631375903064
 20
292.7475026894541
 30
0.0
 40
0.2
100
AcDbArc
 50
0.0
 51
180.0
  0
ARC
  5
318387EC
330
318324AF
100
AcDbEntity
  8
SAISEN
100
AcDbCircle
 10
704.4631375903064
 20
288.7909445517128
 30
0.0
 40
0.2
100
AcDbArc
 50
180.0
 51
0.0
  0
ARC
  5
318387ED
330
318324AF
100
AcDbEntity
  8
SAISEN
100
AcDbCircle
 10
702.5837724748793
 20
291.5586857722587
 30
0.0
 40
0.2
100
AcDbArc
 50
254.5500051430218
 51
67.16258048395857
  0
ARC
  5
318387EE
330
318324AF
100
AcDbEntity
  8
SAISEN
100
AcDbCircle
 10
701.6440899171658
 20
291.5288449466638
 30
0.0
 40
0.2
100
AcDbArc
 50
270.0
 51
79.64383813076079
  0
ARC
  5
318387EF
330
318324AF
100
AcDbEntity
  8
SAISEN
100
AcDbCircle
 10
702.484858521436
 20
290.5792709936059
 30
0.0
 40
0.2
100
AcDbArc
 50
270.0
 51
90.0
  0
ARC
  5
318387F0
330
318324AF
100
AcDbEntity
  8
SAISEN
100
AcDbCircle
 10
702.5834106242188
 20
288.7909445517128
 30
0.0
 40
0.2
100
AcDbArc
 50
215.7544013538862
 51
35.75440135388954
  0
LINE
  5
318387F1
330
318324AF
100
AcDbEntity
  8
SAISEN
100
AcDbLine
 10
701.7164181599333
 20
289.9418506551092
 30
0.0
 11
702.7457164439412
 21
288.9078069532125
 31
0.0
  0
LINE
  5
318387F2
330
318324AF
100
AcDbEntity
  8
SAISEN
100
AcDbLine
 10
701.5804920951158
 20
289.7980232501484
 30
0.0
 11
702.6097903791239
 21
288.7639795482517
 31
0.0
  0
ARC
  5
318387F3
330
318324AF
100
AcDbEntity
  8
SAISEN
100
AcDbCircle
 10
701.5988104341387
 20
289.7800840861481
 30
0.0
 40
0.2
100
AcDbArc
 50
53.98205344659047
 51
233.9820534465814
  0
LINE
  5
318387F4
330
318324AF
100
AcDbEntity
  8
SAISEN
100
AcDbLine
 10
701.4812027083441
 20
289.618317517187
 30
0.0
 11
701.7035736155131
 21
289.3949214039168
 31
0.0
  0
LINE
  5
318387F5
330
318324AF
100
AcDbEntity
  8
SAISEN
100
AcDbLine
 10
702.0784886628024
 20
289.0182778697546
 30
0.0
 11
702.4658028984241
 21
288.6291779827518
 31
0.0
  0
ARC
  5
318387F6
330
318324AF
100
AcDbEntity
  8
SAISEN
100
AcDbCircle
 10
701.0973854177765
 20
293.939300368009
 30
0.0
 40
4.760160322343132
100
AcDbArc
 50
302.8785139530821
 51
311.6862830605918
  0
ARC
  5
318387F7
330
318324AF
100
AcDbEntity
  8
SAISEN
100
AcDbCircle
 10
703.5729120093145
 20
290.1095705785773
 30
0.0
 40
0.2
100
AcDbArc
 50
122.8785139530951
 51
302.8785139531007
  0
LINE
  5
318387F8
330
318324AF
100
AcDbEntity
  8
SAISEN
100
AcDbLine
 10
704.2631375903064
 20
290.3844249163888
 30
0.0
 11
704.2631375903064
 21
288.7909445517128
 31
0.0
  0
LINE
  5
318387F9
330
318324AF
100
AcDbEntity
  8
SAISEN
100
AcDbLine
 10
703.6718259627581
 20
292.1265168758728
 30
0.0
 11
704.2631375903064
 21
292.1261331091431
 31
0.0
  0
ARC
  5
318387FA
330
318324AF
100
AcDbEntity
  8
SAISEN
100
AcDbCircle
 10
703.6718259627581
 20
291.9265168758727
 30
0.0
 40
0.2
100
AcDbArc
 50
90.0
 51
270.0
  0
LINE
  5
318387FB
330
318324AF
100
AcDbEntity
  8
SAISEN
100
AcDbLine
 10
704.2631375903064
 20
292.7475026894541
 30
0.0
 11
704.2631375903064
 21
292.1261331091431
 31
0.0
  0
LINE
  5
318387FC
330
318324AF
100
AcDbEntity
  8
SAISEN
100
AcDbLine
 10
706.5304392172764
 20
292.7475026894541
 30
0.0
 11
706.5304392172764
 21
288.9492068772224
 31
0.0
  0
LINE
  5
318387FD
330
318324AF
100
AcDbEntity
  8
SAISEN
100
AcDbLine
 10
706.7304392172762
 20
291.6318527870345
 30
0.0
 11
706.7304392172762
 21
289.1492068772225
 31
0.0
  0
LINE
  5
318387FE
330
318324AF
100
AcDbEntity
  8
SAISEN
100
AcDbLine
 10
706.3304392172762
 20
291.6318527870345
 30
0.0
 11
706.3304392172762
 21
289.1492068772225
 31
0.0
  0
ARC
  5
318387FF
330
318324AF
100
AcDbEntity
  8
SAISEN
100
AcDbCircle
 10
701.0973854177765
 20
293.939300368009
 30
0.0
 40
4.760160322343132
100
AcDbArc
 50
322.4933001843671
 51
335.7624708418981
  0
LINE
  5
31838800
330
318324AF
100
AcDbEntity
  8
SAISEN
100
AcDbLine
 10
705.3434717759538
 20
288.9492068772224
 30
0.0
 11
707.5789271237781
 21
288.9492068772224
 31
0.0
  0
LINE
  5
31838801
330
318324AF
100
AcDbEntity
  8
SAISEN
100
AcDbLine
 10
705.3434717759538
 20
289.1492068772225
 30
0.0
 11
706.3304392172762
 21
289.1492068772225
 31
0.0
  0
LINE
  5
31838802
330
318324AF
100
AcDbEntity
  8
SAISEN
100
AcDbLine
 10
705.3434717759538
 20
288.7492068772224
 30
0.0
 11
707.5789271237781
 21
288.7492068772224
 31
0.0
  0
LINE
  5
31838803
330
318324AF
100
AcDbEntity
  8
SAISEN
100
AcDbLine
 10
705.6501050316288
 20
290.2204177845742
 30
0.0
 11
704.6455257331068
 21
290.9599041486007
 31
0.0
  0
LINE
  5
31838804
330
318324AF
100
AcDbEntity
  8
SAISEN
100
AcDbLine
 10
704.4631375903064
 20
288.7909445517128
 30
0.0
 11
704.4631375903064
 21
290.8365295769277
 31
0.0
  0
ARC
  5
31838805
330
318324AF
100
AcDbEntity
  8
SAISEN
100
AcDbCircle
 10
705.6501050316288
 20
290.2204177845742
 30
0.0
 40
0.2
100
AcDbArc
 50
233.6156481841653
 51
53.61564818416532
  0
ARC
  5
31838806
330
318324AF
100
AcDbEntity
  8
SAISEN
100
AcDbCircle
 10
705.3434717759538
 20
288.9492068772224
 30
0.0
 40
0.2
100
AcDbArc
 50
90.0
 51
270.0
  0
LINE
  5
31838807
330
318324AF
100
AcDbEntity
  8
SAISEN
100
AcDbLine
 10
704.8735356328895
 20
291.0410567883023
 30
0.0
 11
705.7687448392388
 21
290.381428952045
 31
0.0
  0
LINE
  5
31838808
330
318324AF
100
AcDbEntity
  8
SAISEN
100
AcDbLine
 10
705.5314652240189
 20
290.0594066171036
 30
0.0
 11
704.6631375903065
 21
290.6992269787865
 31
0.0
  0
LINE
  5
31838809
330
318324AF
100
AcDbEntity
  8
SAISEN
100
AcDbLine
 10
704.6631375903065
 20
288.7909445517128
 30
0.0
 11
704.6631375903065
 21
290.6992269787865
 31
0.0
  0
ARC
  5
3183880A
330
318324AF
100
AcDbEntity
  8
SAISEN
100
AcDbCircle
 10
707.5789271237781
 20
288.9492068772224
 30
0.0
 40
0.2
100
AcDbArc
 50
270.0
 51
90.0
  0
LINE
  5
3183880B
330
318324AF
100
AcDbEntity
  8
SAISEN
100
AcDbLine
 10
706.7304392172762
 20
289.1492068772225
 30
0.0
 11
707.5789271237781
 21
289.1492068772225
 31
0.0
  0
LINE
  5
3183880C
330
318324AF
100
AcDbEntity
  8
SAISEN
100
AcDbLine
 10
705.7668136263461
 20
291.8318527870346
 30
0.0
 11
707.4800131703344
 21
291.8318527870346
 31
0.0
  0
LINE
  5
3183880D
330
318324AF
100
AcDbEntity
  8
SAISEN
100
AcDbLine
 10
705.7668136263461
 20
292.0318527870345
 30
0.0
 11
706.3304392172762
 21
292.0318527870346
 31
0.0
  0
LINE
  5
3183880E
330
318324AF
100
AcDbEntity
  8
SAISEN
100
AcDbLine
 10
706.3304392172762
 20
291.6318527870345
 30
0.0
 11
705.7668136263461
 21
291.6318527870345
 31
0.0
  0
LINE
  5
3183880F
330
318324AF
100
AcDbEntity
  8
SAISEN
100
AcDbLine
 10
704.4631375903064
 20
292.7475026894541
 30
0.0
 11
704.4631375903064
 21
291.9312158528296
 31
0.0
  0
ARC
  5
31838810
330
318324AF
100
AcDbEntity
  8
SAISEN
100
AcDbCircle
 10
705.7668136263461
 20
291.8318527870346
 30
0.0
 40
0.2
100
AcDbArc
 50
90.0
 51
270.0
  0
ARC
  5
31838811
330
318324AF
100
AcDbEntity
  8
SAISEN
100
AcDbCircle
 10
705.3452173937565
 20
292.0254308293163
 30
0.0
 40
0.1
100
AcDbArc
 50
336.1633255554821
 51
90.0
  0
LINE
  5
31838812
330
318324AF
100
AcDbEntity
  8
SAISEN
100
AcDbLine
 10
704.6631375903062
 20
292.1258735054338
 30
0.0
 11
705.3452173937565
 21
292.1254308293163
 31
0.0
  0
LINE
  5
31838813
330
318324AF
100
AcDbEntity
  8
SAISEN
100
AcDbLine
 10
704.6631375903062
 20
292.1258735054338
 30
0.0
 11
704.6631375903065
 21
292.7475026894541
 31
0.0
  0
ARC
  5
31838814
330
318324AF
100
AcDbEntity
  8
SAISEN
100
AcDbCircle
 10
706.5304392172764
 20
292.7475026894541
 30
0.0
 40
0.2
100
AcDbArc
 50
0.0
 51
180.0
  0
ARC
  5
31838815
330
318324AF
100
AcDbEntity
  8
SAISEN
100
AcDbCircle
 10
707.4800131703344
 20
291.8318527870346
 30
0.0
 40
0.2
100
AcDbArc
 50
270.0
 51
90.0
  0
LINE
  5
31838816
330
318324AF
100
AcDbEntity
  8
SAISEN
100
AcDbLine
 10
707.4800131703344
 20
291.6318527870345
 30
0.0
 11
706.7304392172762
 21
291.6318527870345
 31
0.0
  0
LINE
  5
31838817
330
318324AF
100
AcDbEntity
  8
SAISEN
100
AcDbLine
 10
706.7304392172762
 20
292.0318527870346
 30
0.0
 11
707.4800131703344
 21
292.0318527870346
 31
0.0
  0
LINE
  5
31838818
330
318324AF
100
AcDbEntity
  8
SAISEN
100
AcDbLine
 10
706.3304392172762
 20
292.7475026894541
 30
0.0
 11
706.3304392172762
 21
292.0318527870346
 31
0.0
  0
LINE
  5
31838819
330
318324AF
100
AcDbEntity
  8
SAISEN
100
AcDbLine
 10
706.7304392172762
 20
292.7475026894541
 30
0.0
 11
706.7304392172762
 21
292.0318527870345
 31
0.0
  0
CIRCLE
  5
3183881A
330
318324AF
100
AcDbEntity
  8
SAISEN
100
AcDbCircle
 10
669.5673110522658
 20
310.5037247566566
 30
0.0
 40
8.5
  0
LWPOLYLINE
  5
3183881B
330
318324AF
100
AcDbEntity
  8
SAISEN
100
AcDbPolyline
 90
        7
 70
     0
 43
0.0
 10
661.067311052266
 20
315.4112020447683
 10
669.567311052266
 20
320.3186793328803
 10
678.067311052266
 20
315.4112020447685
 10
678.067311052266
 20
305.5962474685448
 10
669.567311052266
 20
300.6887701804328
 10
661.067311052266
 20
305.5962474685446
 10
661.067311052266
 20
315.4112020447683
  0
HATCH
  5
3183881C
330
318324AF
100
AcDbEntity
  8
SAISEN
100
AcDbHatch
 10
0.0
 20
0.0
 30
0.0
210
0.0
220
0.0
230
1.0
  2
ANSI31
 70
     0
 71
     0
 91
        6
 92
        7
 72
     1
 73
     1
 93
        4
 10
656.567311052266
 20
310.5037247566566
 42
0.0
 10
657.067311052266
 20
310.5037247566566
 42
-0.4142135623730951
 10
669.567311052266
 20
323.0037247566566
 42
0.0
 10
669.567311052266
 20
323.5037247566566
 42
0.4142135623730951
 97
        0
 92
        7
 72
     1
 73
     1
 93
        4
 10
669.567311052266
 20
323.5037247566566
 42
0.0
 10
669.567311052266
 20
323.0037247566566
 42
-0.2755973854081401
 10
680.5662649986287
 20
316.4428334512157
 42
0.0
 10
681.0062231564833
 20
316.6803977989981
 42
0.275597385408141
 97
        0
 92
        7
 72
     1
 73
     1
 93
        4
 10
682.067311052266
 20
310.5037247566566
 42
0.0
 10
682.567311052266
 20
310.5037247566566
 42
0.1244135966764299
 10
681.0062231564833
 20
316.6803977989981
 42
0.0
 10
680.5662649986287
 20
316.4428334512157
 42
-0.1244135966764294
 97
        0
 92
        7
 72
     1
 73
     1
 93
        4
 10
669.567311052266
 20
298.0037247566566
 42
0.0
 10
669.567311052266
 20
297.5037247566565
 42
0.4142135623730951
 10
682.567311052266
 20
310.5037247566566
 42
0.0
 10
682.067311052266
 20
310.5037247566566
 42
-0.4142135623730951
 97
        0
 92
        7
 72
     1
 73
     1
 93
        4
 10
669.567311052266
 20
297.5037247566565
 42
0.0
 10
669.567311052266
 20
298.0037247566566
 42
-0.2755973854081401
 10
658.5683571059034
 20
304.5646160620973
 42
0.0
 10
658.1283989480488
 20
304.327051714315
 42
0.275597385408141
 97
        0
 92
        7
 72
     1
 73
     1
 93
        4
 10
657.067311052266
 20
310.5037247566566
 42
0.0
 10
656.567311052266
 20
310.5037247566566
 42
0.1244135966764299
 10
658.1283989480488
 20
304.327051714315
 42
0.0
 10
658.5683571059028
 20
304.5646160620973
 42
-0.1244135966764294
 97
        0
 75
     0
 76
     1
 52
0.0
 41
1.0
 77
     0
 78
     1
 53
45.0
 43
-2.99572375324135
 44
53.00460001687731
 45
-0.0883883476483184
 46
0.0883883476483185
 79
     0
 47
0.0481098810086891
 98
        6
 10
661.6865327703184
 20
320.5892754486733
 10
672.5166043980911
 20
322.9466600133611
 10
681.806397102764
 20
313.9020021244973
 10
680.4105227090712
 20
303.9432559241083
 10
666.4036298196523
 20
298.1219607429854
 10
657.7395743986811
 20
306.1082007927968
  0
CIRCLE
  5
3183881D
330
318324AF
100
AcDbEntity
  8
SAISEN
100
AcDbCircle
 10
669.5673110522658
 20
310.5037247566566
 30
0.0
 40
12.5
  0
CIRCLE
  5
3183881E
330
318324AF
100
AcDbEntity
  8
SAISEN
100
AcDbCircle
 10
669.5673110522658
 20
310.5037247566566
 30
0.0
 40
13.0
  0
LINE
  5
3183881F
330
318324AF
100
AcDbEntity
  8
SAISEN
100
AcDbLine
 10
723.567311052266
 20
320.5037247566568
 30
0.0
 11
723.567311052266
 21
310.5037247566568
 31
0.0
  0
TEXT
  5
31838820
330
318324AF
100
AcDbEntity
  8
SAISEN
100
AcDbText
 10
710.3522808511719
 20
316.4731236501344
 30
0.0
 40
3.0
  1
20 A
  7
K
 72
     4
 11
715.5379951368862
 21
317.9731236501345
 31
0.0
100
AcDbText
  0
TEXT
  5
31838821
330
318324AF
100
AcDbEntity
  8
SAISEN
100
AcDbText
 10
694.4231976649303
 20
316.6252813913182
 30
0.0
 40
3.0
  1
管  径
  7
K
 72
     4
 11
699.4231976649303
 21
318.1252813913181
 31
0.0
100
AcDbText
  0
TEXT
  5
31838822
330
318324AF
100
AcDbEntity
  8
SAISEN
100
AcDbText
 10
692.8995480522631
 20
311.6252813913181
 30
0.0
 40
3.0
  1
許容高さ
  7
K
 72
     4
 11
699.499548052263
 21
313.1252813913182
 31
0.0
100
AcDbText
  0
TEXT
  5
31838823
330
318324AF
100
AcDbEntity
  8
SAISEN
100
AcDbText
 10
692.8395706312853
 20
306.6252807393925
 30
0.0
 40
3.0
  1
許容長さ
  7
K
 72
     4
 11
699.4395706312854
 21
308.1252807393925
 31
0.0
100
AcDbText
  0
LINE
  5
31838824
330
318324AF
100
AcDbEntity
  8
SAISEN
100
AcDbLine
 10
707.567311052266
 20
320.5037247566568
 30
0.0
 11
707.567311052266
 21
310.5037247566568
 31
0.0
  0
LINE
  5
31838825
330
318324AF
100
AcDbEntity
  8
SAISEN
100
AcDbLine
 10
691.5673110522658
 20
320.5037247566568
 30
0.0
 11
723.567311052266
 21
320.5037247566567
 31
0.0
  0
TEXT
  5
31838826
330
318324AF
100
AcDbEntity
  8
SAISEN
100
AcDbText
 10
709.2862124403215
 20
306.4731229982088
 30
0.0
 40
3.0
  1
10 m
  7
K
 72
     4
 11
715.3290695831787
 21
307.9731229982087
 31
0.0
100
AcDbText
  0
TEXT
  5
31838827
330
318324AF
100
AcDbEntity
  8
SAISEN
100
AcDbText
 10
708.5131071314061
 20
311.4731236501345
 30
0.0
 40
3.0
  1
  3 m
  7
K
 72
     4
 11
716.5131071314061
 21
312.9731236501344
 31
0.0
100
AcDbText
  0
LINE
  5
31838828
330
318324AF
100
AcDbEntity
  8
SAISEN
100
AcDbLine
 10
723.567311052266
 20
310.5037247566568
 30
0.0
 11
691.5673110522658
 21
310.5037247566566
 31
0.0
  0
LINE
  5
31838829
330
318324AF
100
AcDbEntity
  8
SAISEN
100
AcDbLine
 10
691.5673110522658
 20
315.5037247566567
 30
0.0
 11
723.567311052266
 21
315.5037247566566
 31
0.0
  0
LINE
  5
3183882A
330
318324AF
100
AcDbEntity
  8
SAISEN
100
AcDbLine
 10
691.5673110522658
 20
305.5037247566565
 30
0.0
 11
723.567311052266
 21
305.5037247566565
 31
0.0
  0
LINE
  5
3183882B
330
318324AF
100
AcDbEntity
  8
SAISEN
100
AcDbLine
 10
723.567311052266
 20
300.5037247566568
 30
0.0
 11
691.5673110522658
 21
300.5037247566566
 31
0.0
  0
TEXT
  5
3183882C
330
318324AF
100
AcDbEntity
  8
SAISEN
100
AcDbText
 10
692.7492500734973
 20
301.6252807393925
 30
0.0
 40
3.0
  1
製造番号
  7
K
 72
     4
 11
699.5492500734973
 21
303.1252807393925
 31
0.0
100
AcDbText
  0
LINE
  5
3183882D
330
318324AF
100
AcDbEntity
  8
SAISEN
100
AcDbLine
 10
691.5673110522658
 20
320.5037247566568
 30
0.0
 11
691.5673110522658
 21
300.5037247566566
 31
0.0
  0
LINE
  5
3183882E
330
318324AF
100
AcDbEntity
  8
SAISEN
100
AcDbLine
 10
723.567311052266
 20
310.5037247566567
 30
0.0
 11
723.567311052266
 21
300.5037247566566
 31
0.0
  0
LINE
  5
3183882F
330
318324AF
100
AcDbEntity
  8
SAISEN
100
AcDbLine
 10
707.567311052266
 20
310.5037247566567
 30
0.0
 11
707.567311052266
 21
300.5037247566566
 31
0.0
  0
MTEXT
  5
31838830
330
318324AF
100
AcDbEntity
  8
SAISEN
100
AcDbMText
 10
634.2130606630743
 20
354.5101707586198
 30
0.0
 40
14.0
 41
74.58671106934888
 71
     1
 72
     5
  1
{\fSwis721 BT|b0|i0|c0|p34;SPRINKLER}
  7
太字
1001
ACAD
1000
MTEXTBEGIN
1070
    73
1070
     1
1070
    44
1040
1.0
1070
    74
1070
     0
1000
MTEXTEND
  0
MTEXT
  5
31838831
330
318324AF
100
AcDbEntity
  8
SAISEN
100
AcDbMText
 10
631.5960171222685
 20
283.7420402863891
 30
0.0
 40
14.0
 41
82.63476731827458
 71
     1
 72
     5
  1
{\fSwis721 BT|b0|i0|c0|p34;FIRE ALARM}
  7
太字
1001
ACAD
1000
MTEXTBEGIN
1070
    73
1070
     1
1070
    44
1040
1.0
1070
    74
1070
     0
1000
MTEXTEND
  0
CIRCLE
  5
31838832
330
318324AF
100
AcDbEntity
  8
SAISEN
100
AcDbCircle
 10
669.5673110522658
 20
310.5037247566566
 30
0.0
 40
60.0
  0
CIRCLE
  5
31838833
330
318324AF
100
AcDbEntity
  8
SAISEN
100
AcDbCircle
 10
669.5673110522658
 20
310.5037247566566
 30
0.0
 40
63.0
  0
CIRCLE
  5
31838834
330
318324AF
100
AcDbEntity
  8
SAISEN
100
AcDbCircle
 10
669.5673110522658
 20
310.5037247566566
 30
0.0
 40
62.5
  0
CIRCLE
  5
31838835
330
318324AF
100
AcDbEntity
  8
SAISEN
100
AcDbCircle
 10
669.5673110522658
 20
310.5037247566566
 30
0.0
 40
59.5
  0
HATCH
  5
31838836
330
318324AF
100
AcDbEntity
  8
SAISEN
100
AcDbHatch
 10
0.0
 20
0.0
 30
0.0
210
0.0
220
0.0
230
1.0
  2
NET3
 70
     0
 71
     0
 91
        4
 92
        7
 72
     1
 73
     1
 93
        4
 10
606.5673110522658
 20
310.5037247566566
 42
0.0
 10
607.0673110522658
 20
310.5037247566566
 42
-1.0
 10
732.067311052266
 20
310.5037247566566
 42
0.0
 10
732.567311052266
 20
310.5037247566566
 42
1.0
 97
        0
 92
       23
 72
     1
 73
     1
 93
        4
 10
609.5673110522658
 20
310.5037247566566
 42
0.0
 10
610.0673110522658
 20
310.5037247566566
 42
-1.0
 10
729.0673110522661
 20
310.5037247566566
 42
0.0
 10
729.5673110522661
 20
310.5037247566566
 42
1.0
 97
        0
 92
       23
 72
     1
 73
     1
 93
        4
 10
729.5673110522661
 20
310.5037247566566
 42
0.0
 10
729.0673110522661
 20
310.5037247566566
 42
-1.0
 10
610.0673110522658
 20
310.5037247566566
 42
0.0
 10
609.5673110522658
 20
310.5037247566566
 42
1.0
 97
        0
 92
        7
 72
     1
 73
     1
 93
        4
 10
732.567311052266
 20
310.5037247566566
 42
0.0
 10
732.067311052266
 20
310.5037247566566
 42
-1.0
 10
607.0673110522658
 20
310.5037247566566
 42
0.0
 10
606.5673110522658
 20
310.5037247566566
 42
1.0
 97
        0
 75
     0
 76
     1
 52
0.0
 41
1.0
 77
     0
 78
     3
 53
0.0
 43
267.0042773207586
 44
53.00460001687731
 45
0.0
 46
0.125
 79
     0
 53
60.0
 43
267.0042773207586
 44
53.00460001687731
 45
-0.1082531754730548
 46
0.0625
 79
     0
 53
119.9999999999999
 43
267.0042773207586
 44
53.00460001687731
 45
-0.1082531754730548
 46
-0.0625
 79
     0
 47
0.0644153922217792
 98
        4
 10
732.3392463104299
 20
311.5910328115325
 10
729.3746004816425
 20
311.3431888932929
 10
729.3858736098116
 20
309.7997964700595
 10
732.3843349297793
 20
309.8110622528185
  0
LINE
  5
31838837
330
318324AF
100
AcDbEntity
  8
SAISEN
100
AcDbLine
 10
647.5673110522658
 20
310.5037247566564
 30
0.0
 11
647.5673110522658
 21
300.5037247566564
 31
0.0
  0
LINE
  5
31838838
330
318324AF
100
AcDbEntity
  8
SAISEN
100
AcDbLine
 10
631.5673110522658
 20
320.5037247566565
 30
0.0
 11
631.5673110522658
 21
300.5037247566564
 31
0.0
  0
LINE
  5
31838839
330
318324AF
100
AcDbEntity
  8
SAISEN
100
AcDbLine
 10
647.5673110522658
 20
320.5037247566565
 30
0.0
 11
647.5673110522658
 21
310.5037247566566
 31
0.0
  0
TEXT
  5
3183883A
330
318324AF
100
AcDbEntity
  8
SAISEN
100
AcDbText
 10
634.5231976649304
 20
316.6252813913179
 30
0.0
 40
3.0
  1
検定印
  7
K
 72
     4
 11
639.4231976649304
 21
318.1252813913179
 31
0.0
100
AcDbText
  0
LINE
  5
3183883B
330
318324AF
100
AcDbEntity
  8
SAISEN
100
AcDbLine
 10
631.5673110522658
 20
315.5037247566564
 30
0.0
 11
647.5673110522658
 21
315.5037247566563
 31
0.0
  0
LINE
  5
3183883C
330
318324AF
100
AcDbEntity
  8
SAISEN
100
AcDbLine
 10
631.5673110522658
 20
320.5037247566565
 30
0.0
 11
647.5673110522658
 21
320.5037247566565
 31
0.0
  0
LINE
  5
3183883D
330
318324AF
100
AcDbEntity
  8
SAISEN
100
AcDbLine
 10
631.5673110522658
 20
300.5037247566564
 30
0.0
 11
647.5673110522658
 21
300.5037247566563
 31
0.0
  0
LINE
  5
31838AB6
330
318324AF
100
AcDbEntity
  8
SUNPOU
100
AcDbLine
 10
754.1096416692728
 20
23.08124504827253
 30
0.0
 11
754.1096416692728
 21
32.08124504827252
 31
0.0
  0
LINE
  5
31838AB7
330
318324AF
100
AcDbEntity
  8
SAISEN
100
AcDbLine
 10
694.7395550296176
 20
334.4097038061761
 30
0.0
 11
694.7395550296176
 21
330.412678865388
 31
0.0
  0
ENDSEC
  0
SECTION
  2
OBJECTS
  0
DICTIONARY
  5
318324A3
330
0
100
AcDbDictionary
  3
ACAD_GROUP
350
318324A4
  3
ACAD_LAYOUT
350
31837BA9
  3
ACAD_MLINESTYLE
350
318324A5
  3
ACAD_PLOTSETTINGS
350
31837BAA
  3
ACAD_PLOTSTYLENAME
350
31837BA7
  3
ACDBHEADERROUNDTRIPXREC
350
31838AC0
  3
ACDBVARIABLEDICTIONARY
350
31833B85
  0
DICTIONARY
  5
31837BDA
330
318324AF
100
AcDbDictionary
280
     1
  3
ACAD_LAYOUTSELFREF
360
31838AE2
  0
DICTIONARY
  5
31837BD8
330
318324AC
100
AcDbDictionary
280
     1
  3
ACAD_LAYOUTSELFREF
360
31838AE1
  0
DICTIONARY
  5
318324A4
102
{ACAD_REACTORS
330
318324A3
102
}
330
318324A3
100
AcDbDictionary
  0
DICTIONARY
  5
31837BA9
102
{ACAD_REACTORS
330
318324A3
102
}
330
318324A3
100
AcDbDictionary
  0
DICTIONARY
  5
318324A5
102
{ACAD_REACTORS
330
318324A3
102
}
330
318324A3
100
AcDbDictionary
  3
STANDARD
350
318324B2
  0
DICTIONARY
  5
31837BAA
102
{ACAD_REACTORS
330
318324A3
102
}
330
318324A3
100
AcDbDictionary
  0
ACDBDICTIONARYWDFLT
  5
31837BA7
102
{ACAD_REACTORS
330
318324A3
102
}
330
318324A3
100
AcDbDictionary
281
     1
  3
Normal
350
31837BA8
100
AcDbDictionaryWithDefault
340
31837BA8
  0
DICTIONARY
  5
31838AC0
102
{ACAD_REACTORS
330
318324A3
102
}
330
318324A3
100
AcDbDictionary
  3
CEPSNTYPE
350
31838ACA
  3
DIMSTYLEDATA
350
31838ACE
  3
FINGERPRINTGUID
350
31838ACB
  3
HYPERLINKBASE
350
31838AC3
  3
INSUNITS
350
31838AC9
  3
LAYOUTDICT
350
31838AC5
  3
LWETCUNION
350
31838AC8
  3
PLOTSETDICT
350
31838AC6
  3
PLOTSTYLNAMDICT
350
31838AC7
  3
PSVPSCALE
350
31838ACD
  3
PUCSBASE
350
31838AD1
  3
PUCSORGBACK
350
31838AD7
  3
PUCSORGBOTTOM
350
31838AD3
  3
PUCSORGFRONT
350
31838AD6
  3
PUCSORGLEFT
350
31838AD4
  3
PUCSORGRIGHT
350
31838AD5
  3
PUCSORGTOP
350
31838AD2
  3
PUCSORTHOREF
350
31838ACF
  3
PUCSORTHOVIEW
350
31838AD0
  3
STYLESHEET
350
31838AC4
  3
TSTACKALIGN
350
31838AC1
  3
TSTACKSIZE
350
31838AC2
  3
UCSBASE
350
31838ADA
  3
UCSORGBACK
350
31838AE0
  3
UCSORGBOTTOM
350
31838ADC
  3
UCSORGFRONT
350
31838ADF
  3
UCSORGLEFT
350
31838ADD
  3
UCSORGRIGHT
350
31838ADE
  3
UCSORGTOP
350
31838ADB
  3
UCSORTHOREF
350
31838AD8
  3
UCSORTHOVIEW
350
31838AD9
  3
VERSIONGUID
350
31838ACC
  0
DICTIONARY
  5
31833B85
102
{ACAD_REACTORS
330
318324A3
102
}
330
318324A3
100
AcDbDictionary
  3
DIMASSOC
350
31838A68
  3
SORTENTS
350
31833B86
  0
XRECORD
  5
31838AE2
102
{ACAD_REACTORS
330
31837BDA
102
}
330
31837BDA
100
AcDbXrecord
340
318324AF
  0
XRECORD
  5
31838AE1
102
{ACAD_REACTORS
330
31837BD8
102
}
330
31837BD8
100
AcDbXrecord
340
318324AC
  0
MLINESTYLE
  5
318324B2
102
{ACAD_REACTORS
330
318324A5
102
}
330
318324A5
100
AcDbMlineStyle
  2
STANDARD
 70
     0
  3

 62
     0
 51
90.0
 52
90.0
 71
     2
 49
0.5
 62
   256
  6
BYLAYER
 49
-0.5
 62
   256
  6
BYLAYER
  0
ACDBPLACEHOLDER
  5
31837BA8
102
{ACAD_REACTORS
330
31837BA7
102
}
330
31837BA7
100
AcDbPlaceHolder
280
     0
  0
XRECORD
  5
31838ACA
102
{ACAD_REACTORS
330
31838AC0
102
}
330
31838AC0
100
AcDbXrecord
 90
        0
  0
XRECORD
  5
31838ACE
102
{ACAD_REACTORS
330
31838AC0
102
}
330
31838AC0
100
AcDbXrecord
1000
DSTYLE
1002
{
1070
   341
340
318324B9
1070
   342
340
318324B9
1070
   343
340
318324B9
1070
   344
340
318324B9
1002
}
  0
XRECORD
  5
31838ACB
102
{ACAD_REACTORS
330
31838AC0
102
}
330
31838AC0
100
AcDbXrecord
  1
{151A5143-241F-4DB8-9D5C-D77B69367189}
  0
XRECORD
  5
31838AC3
102
{ACAD_REACTORS
330
31838AC0
102
}
330
31838AC0
100
AcDbXrecord
  1

  0
XRECORD
  5
31838AC9
102
{ACAD_REACTORS
330
31838AC0
102
}
330
31838AC0
100
AcDbXrecord
 90
        0
  0
XRECORD
  5
31838AC5
102
{ACAD_REACTORS
330
31838AC0
102
}
330
31838AC0
100
AcDbXrecord
340
31837BA9
  0
XRECORD
  5
31838AC8
102
{ACAD_REACTORS
330
31838AC0
102
}
330
31838AC0
100
AcDbXrecord
 90
    14877
  0
XRECORD
  5
31838AC6
102
{ACAD_REACTORS
330
31838AC0
102
}
330
31838AC0
100
AcDbXrecord
340
31837BAA
  0
XRECORD
  5
31838AC7
102
{ACAD_REACTORS
330
31838AC0
102
}
330
31838AC0
100
AcDbXrecord
340
31837BA7
  0
XRECORD
  5
31838ACD
102
{ACAD_REACTORS
330
31838AC0
102
}
330
31838AC0
100
AcDbXrecord
 40
0.0
  0
XRECORD
  5
31838AD1
102
{ACAD_REACTORS
330
31838AC0
102
}
330
31838AC0
100
AcDbXrecord
340
0
  0
XRECORD
  5
31838AD7
102
{ACAD_REACTORS
330
31838AC0
102
}
330
31838AC0
100
AcDbXrecord
 10
0.0
 20
0.0
 30
0.0
  0
XRECORD
  5
31838AD3
102
{ACAD_REACTORS
330
31838AC0
102
}
330
31838AC0
100
AcDbXrecord
 10
0.0
 20
0.0
 30
0.0
  0
XRECORD
  5
31838AD6
102
{ACAD_REACTORS
330
31838AC0
102
}
330
31838AC0
100
AcDbXrecord
 10
0.0
 20
0.0
 30
0.0
  0
XRECORD
  5
31838AD4
102
{ACAD_REACTORS
330
31838AC0
102
}
330
31838AC0
100
AcDbXrecord
 10
0.0
 20
0.0
 30
0.0
  0
XRECORD
  5
31838AD5
102
{ACAD_REACTORS
330
31838AC0
102
}
330
31838AC0
100
AcDbXrecord
 10
0.0
 20
0.0
 30
0.0
  0
XRECORD
  5
31838AD2
102
{ACAD_REACTORS
330
31838AC0
102
}
330
31838AC0
100
AcDbXrecord
 10
0.0
 20
0.0
 30
0.0
  0
XRECORD
  5
31838ACF
102
{ACAD_REACTORS
330
31838AC0
102
}
330
31838AC0
100
AcDbXrecord
340
0
  0
XRECORD
  5
31838AD0
102
{ACAD_REACTORS
330
31838AC0
102
}
330
31838AC0
100
AcDbXrecord
 70
     0
  0
XRECORD
  5
31838AC4
102
{ACAD_REACTORS
330
31838AC0
102
}
330
31838AC0
100
AcDbXrecord
  1
aclt.ctb
  0
XRECORD
  5
31838AC1
102
{ACAD_REACTORS
330
31838AC0
102
}
330
31838AC0
100
AcDbXrecord
 90
        1
  0
XRECORD
  5
31838AC2
102
{ACAD_REACTORS
330
31838AC0
102
}
330
31838AC0
100
AcDbXrecord
 90
       70
  0
XRECORD
  5
31838ADA
102
{ACAD_REACTORS
330
31838AC0
102
}
330
31838AC0
100
AcDbXrecord
340
0
  0
XRECORD
  5
31838AE0
102
{ACAD_REACTORS
330
31838AC0
102
}
330
31838AC0
100
AcDbXrecord
 10
0.0
 20
0.0
 30
0.0
  0
XRECORD
  5
31838ADC
102
{ACAD_REACTORS
330
31838AC0
102
}
330
31838AC0
100
AcDbXrecord
 10
0.0
 20
0.0
 30
0.0
  0
XRECORD
  5
31838ADF
102
{ACAD_REACTORS
330
31838AC0
102
}
330
31838AC0
100
AcDbXrecord
 10
0.0
 20
0.0
 30
0.0
  0
XRECORD
  5
31838ADD
102
{ACAD_REACTORS
330
31838AC0
102
}
330
31838AC0
100
AcDbXrecord
 10
0.0
 20
0.0
 30
0.0
  0
XRECORD
  5
31838ADE
102
{ACAD_REACTORS
330
31838AC0
102
}
330
31838AC0
100
AcDbXrecord
 10
0.0
 20
0.0
 30
0.0
  0
XRECORD
  5
31838ADB
102
{ACAD_REACTORS
330
31838AC0
102
}
330
31838AC0
100
AcDbXrecord
 10
0.0
 20
0.0
 30
0.0
  0
XRECORD
  5
31838AD8
102
{ACAD_REACTORS
330
31838AC0
102
}
330
31838AC0
100
AcDbXrecord
340
0
  0
XRECORD
  5
31838AD9
102
{ACAD_REACTORS
330
31838AC0
102
}
330
31838AC0
100
AcDbXrecord
 70
     0
  0
XRECORD
  5
31838ACC
102
{ACAD_REACTORS
330
31838AC0
102
}
330
31838AC0
100
AcDbXrecord
  1
{B22954F3-DA55-4202-8ED0-86D9319600B3}
  0
DICTIONARYVAR
  5
31838A68
102
{ACAD_REACTORS
330
31833B85
102
}
330
31833B85
100
DictionaryVariables
280
     0
  1
0
  0
DICTIONARYVAR
  5
31833B86
102
{ACAD_REACTORS
330
31833B85
102
}
330
31833B85
100
DictionaryVariables
280
     0
  1
96
  0
ENDSEC
  0
EOF
