  0
SECTION
  2
HEADER
  9
$ACADVER
  1
AC1014
  9
$ACADMAINTVER
 70
     9
  9
$DWGCODEPAGE
  3
ANSI_932
  9
$INSBASE
 10
0.0
 20
0.0
 30
0.0
  9
$EXTMIN
 10
-0.0499855046512039
 20
-0.0331405725489731
 30
-0.0000000349181948
  9
$EXTMAX
 10
819.0499931324151
 20
543.0331434697848
 30
0.0000000814935746
  9
$LIMMIN
 10
0.0
 20
0.0
  9
$LIMMAX
 10
818.9999999999995
 20
542.9999978399999
  9
$ORTHOMODE
 70
     1
  9
$REGENMODE
 70
     1
  9
$FILLMODE
 70
     1
  9
$QTEXTMODE
 70
     0
  9
$MIRRTEXT
 70
     0
  9
$DRAGMODE
 70
     2
  9
$LTSCALE
 40
5.0
  9
$OSMODE
 70
   167
  9
$ATTMODE
 70
     1
  9
$TEXTSIZE
 40
13.5
  9
$TRACEWID
 40
0.05
  9
$TEXTSTYLE
  7
K
  9
$CLAYER
  8
JISSEN
  9
$CELTYPE
  6
BYLAYER
  9
$CECOLOR
 62
   256
  9
$CELTSCALE
 40
1.0
  9
$DELOBJ
 70
     1
  9
$DISPSILH
 70
     0
  9
$DIMSCALE
 40
3.0
  9
$DIMASZ
 40
1.5
  9
$DIMEXO
 40
0.75
  9
$DIMDLI
 40
6.0
  9
$DIMRND
 40
0.0
  9
$DIMDLE
 40
0.0
  9
$DIMEXE
 40
1.0
  9
$DIMTP
 40
495.0
  9
$DIMTM
 40
0.0
  9
$DIMTXT
 40
3.0
  9
$DIMCEN
 40
0.0
  9
$DIMTSZ
 40
0.0
  9
$DIMTOL
 70
     0
  9
$DIMLIM
 70
     0
  9
$DIMTIH
 70
     0
  9
$DIMTOH
 70
     0
  9
$DIMSE1
 70
     0
  9
$DIMSE2
 70
     0
  9
$DIMTAD
 70
     3
  9
$DIMZIN
 70
     8
  9
$DIMBLK
  1
ARROWANG
  9
$DIMASO
 70
     0
  9
$DIMSHO
 70
     0
  9
$DIMPOST
  1

  9
$DIMAPOST
  1

  9
$DIMALT
 70
     0
  9
$DIMALTD
 70
     2
  9
$DIMALTF
 40
25.4
  9
$DIMLFAC
 40
1.0
  9
$DIMTOFL
 70
     1
  9
$DIMTVP
 40
0.0
  9
$DIMTIX
 70
     1
  9
$DIMSOXD
 70
     0
  9
$DIMSAH
 70
     1
  9
$DIMBLK1
  1
ARROWANG
  9
$DIMBLK2
  1
ARROWANG
  9
$DIMSTYLE
  2
IMAO
  9
$DIMCLRD
 70
   256
  9
$DIMCLRE
 70
   256
  9
$DIMCLRT
 70
   256
  9
$DIMTFAC
 40
1.0
  9
$DIMGAP
 40
1.0
  9
$DIMJUST
 70
     0
  9
$DIMSD1
 70
     0
  9
$DIMSD2
 70
     0
  9
$DIMTOLJ
 70
     1
  9
$DIMTZIN
 70
     0
  9
$DIMALTZ
 70
     0
  9
$DIMALTTZ
 70
     0
  9
$DIMFIT
 70
     3
  9
$DIMUPT
 70
     0
  9
$DIMUNIT
 70
     2
  9
$DIMDEC
 70
     2
  9
$DIMTDEC
 70
     2
  9
$DIMALTU
 70
     2
  9
$DIMALTTD
 70
     2
  9
$DIMTXSTY
  7
K
  9
$DIMAUNIT
 70
     0
  9
$LUNITS
 70
     2
  9
$LUPREC
 70
     2
  9
$SKETCHINC
 40
0.1
  9
$FILLETRAD
 40
5.0
  9
$AUNITS
 70
     0
  9
$AUPREC
 70
     2
  9
$MENU
  1
STDR12J
  9
$ELEVATION
 40
0.0
  9
$PELEVATION
 40
0.0
  9
$THICKNESS
 40
0.0
  9
$LIMCHECK
 70
     0
  9
$BLIPMODE
 70
     0
  9
$CHAMFERA
 40
0.0
  9
$CHAMFERB
 40
0.0
  9
$CHAMFERC
 40
0.0
  9
$CHAMFERD
 40
0.0
  9
$SKPOLY
 70
     0
  9
$TDCREATE
 40
2450694.750535185
  9
$TDUPDATE
 40
2453980.702138067
  9
$TDINDWG
 40
0.6666381250
  9
$TDUSRTIMER
 40
0.6666381250
  9
$USRTIMER
 70
     1
  9
$ANGBASE
 50
0.0
  9
$ANGDIR
 70
     0
  9
$PDMODE
 70
     0
  9
$PDSIZE
 40
0.0
  9
$PLINEWID
 40
0.0
  9
$COORDS
 70
     2
  9
$SPLFRAME
 70
     0
  9
$SPLINETYPE
 70
     6
  9
$SPLINESEGS
 70
     8
  9
$ATTDIA
 70
     0
  9
$ATTREQ
 70
     1
  9
$HANDLING
 70
 22529
  9
$HANDSEED
  5
31838755
  9
$SURFTAB1
 70
     6
  9
$SURFTAB2
 70
     6
  9
$SURFTYPE
 70
     6
  9
$SURFU
 70
     6
  9
$SURFV
 70
     6
  9
$UCSNAME
  2

  9
$UCSORG
 10
0.0
 20
0.0
 30
0.0
  9
$UCSXDIR
 10
1.0
 20
0.0
 30
0.0
  9
$UCSYDIR
 10
0.0
 20
1.0
 30
0.0
  9
$PUCSNAME
  2

  9
$PUCSORG
 10
0.0
 20
0.0
 30
0.0
  9
$PUCSXDIR
 10
1.0
 20
0.0
 30
0.0
  9
$PUCSYDIR
 10
0.0
 20
1.0
 30
0.0
  9
$USERI1
 70
     4
  9
$USERI2
 70
     1
  9
$USERI3
 70
     1
  9
$USERI4
 70
     1
  9
$USERI5
 70
     1
  9
$USERR1
 40
1.0
  9
$USERR2
 40
3.0
  9
$USERR3
 40
3.0
  9
$USERR4
 40
1.5
  9
$USERR5
 40
10.0
  9
$WORLDVIEW
 70
     1
  9
$SHADEDGE
 70
     3
  9
$SHADEDIF
 70
    70
  9
$TILEMODE
 70
     1
  9
$MAXACTVP
 70
    16
  9
$PINSBASE
 10
0.0
 20
0.0
 30
0.0
  9
$PLIMCHECK
 70
     0
  9
$PEXTMIN
 10
1.000000000000000E+20
 20
1.000000000000000E+20
 30
1.000000000000000E+20
  9
$PEXTMAX
 10
-1.000000000000000E+20
 20
-1.000000000000000E+20
 30
-1.000000000000000E+20
  9
$PLIMMIN
 10
0.0
 20
0.0
  9
$PLIMMAX
 10
12.0
 20
9.0
  9
$UNITMODE
 70
     0
  9
$VISRETAIN
 70
     0
  9
$PLINEGEN
 70
     0
  9
$PSLTSCALE
 70
     0
  9
$TREEDEPTH
 70
     0
  9
$PICKSTYLE
 70
     1
  9
$CMLSTYLE
  2
STANDARD
  9
$CMLJUST
 70
     0
  9
$CMLSCALE
 40
1.0
  9
$PROXYGRAPHICS
 70
     1
  9
$MEASUREMENT
 70
     0
  0
ENDSEC
  0
SECTION
  2
CLASSES
  0
CLASS
  1
LWPOLYLINE
  2
AcDbPolyline
  3
AutoCAD 2000
 90
        0
280
     0
281
     1
  0
CLASS
  1
HATCH
  2
AcDbHatch
  3
AutoCAD 2000
 90
        0
280
     0
281
     1
  0
CLASS
  1
DICTIONARYVAR
  2
AcDbDictionaryVar
  3
AutoCAD 2000
 90
        0
280
     0
281
     0
  0
CLASS
  1
ACDBDICTIONARYWDFLT
  2
AcDbDictionaryWithDefault
  3
AutoCAD 2000
 90
        0
280
     0
281
     0
  0
CLASS
  1
ACDBPLACEHOLDER
  2
AcDbPlaceHolder
  3
AutoCAD 2000
 90
        0
280
     0
281
     0
  0
CLASS
  1
LAYOUT
  2
AcDbLayout
  3
AutoCAD 2000
 90
        0
280
     0
281
     0
  0
CLASS
  1
LONG_TRANSACTION
  2
AcDbLongTransaction
  3
AutoCAD 2000
 90
        0
280
     0
281
     0
  0
CLASS
  1
LWPOLYLINE
  2
AcDbPolyline
  3
AutoCAD 2000
 90
        0
280
     0
281
     1
  0
CLASS
  1
HATCH
  2
AcDbHatch
  3
AutoCAD 2000
 90
        0
280
     0
281
     1
  0
CLASS
  1
XRECORD
  2
AcDbXrecord
  3
AutoCAD 2000
 90
        0
280
     0
281
     0
  0
CLASS
  1
LONG_TRANSACTION
  2
AcDbLongTransaction
  3
AutoCAD 2000
 90
        0
280
     0
281
     0
  0
CLASS
  1
LWPOLYLINE
  2
AcDbPolyline
  3
AutoCAD 2000
 90
        0
280
     0
281
     1
  0
CLASS
  1
HATCH
  2
AcDbHatch
  3
AutoCAD 2000
 90
        0
280
     0
281
     1
  0
CLASS
  1
XRECORD
  2
AcDbXrecord
  3
AutoCAD 2000
 90
        0
280
     0
281
     0
  0
CLASS
  1
LONG_TRANSACTION
  2
AcDbLongTransaction
  3
AutoCAD 2000
 90
        0
280
     0
281
     0
  0
CLASS
  1
LWPOLYLINE
  2
AcDbPolyline
  3
AutoCAD 2000
 90
        0
280
     0
281
     1
  0
CLASS
  1
HATCH
  2
AcDbHatch
  3
AutoCAD 2000
 90
        0
280
     0
281
     1
  0
CLASS
  1
XRECORD
  2
AcDbXrecord
  3
AutoCAD 2000
 90
        0
280
     0
281
     0
  0
CLASS
  1
LONG_TRANSACTION
  2
AcDbLongTransaction
  3
AutoCAD 2000
 90
        0
280
     0
281
     0
  0
CLASS
  1
LWPOLYLINE
  2
AcDbPolyline
  3
AutoCAD 2000
 90
        0
280
     0
281
     1
  0
CLASS
  1
HATCH
  2
AcDbHatch
  3
AutoCAD 2000
 90
        0
280
     0
281
     1
  0
CLASS
  1
XRECORD
  2
AcDbXrecord
  3
AutoCAD 2000
 90
        0
280
     0
281
     0
  0
CLASS
  1
LONG_TRANSACTION
  2
AcDbLongTransaction
  3
AutoCAD 2000
 90
        0
280
     0
281
     0
  0
CLASS
  1
LWPOLYLINE
  2
AcDbPolyline
  3
AutoCAD 2000
 90
        0
280
     0
281
     1
  0
CLASS
  1
HATCH
  2
AcDbHatch
  3
AutoCAD 2000
 90
        0
280
     0
281
     1
  0
CLASS
  1
XRECORD
  2
AcDbXrecord
  3
AutoCAD 2000
 90
        0
280
     0
281
     0
  0
CLASS
  1
LONG_TRANSACTION
  2
AcDbLongTransaction
  3
AutoCAD 2000
 90
        0
280
     0
281
     0
  0
CLASS
  1
LWPOLYLINE
  2
AcDbPolyline
  3
AutoCAD 2000
 90
        0
280
     0
281
     1
  0
CLASS
  1
HATCH
  2
AcDbHatch
  3
AutoCAD 2000
 90
        0
280
     0
281
     1
  0
CLASS
  1
XRECORD
  2
AcDbXrecord
  3
AutoCAD 2000
 90
        0
280
     0
281
     0
  0
CLASS
  1
LONG_TRANSACTION
  2
AcDbLongTransaction
  3
AutoCAD 2000
 90
        0
280
     0
281
     0
  0
CLASS
  1
LWPOLYLINE
  2
AcDbPolyline
  3
AutoCAD 2000
 90
        0
280
     0
281
     1
  0
CLASS
  1
HATCH
  2
AcDbHatch
  3
AutoCAD 2000
 90
        0
280
     0
281
     1
  0
CLASS
  1
XRECORD
  2
AcDbXrecord
  3
AutoCAD 2000
 90
        0
280
     0
281
     0
  0
CLASS
  1
LONG_TRANSACTION
  2
AcDbLongTransaction
  3
AutoCAD 2000
 90
        0
280
     0
281
     0
  0
CLASS
  1
LWPOLYLINE
  2
AcDbPolyline
  3
AutoCAD 2000
 90
        0
280
     0
281
     1
  0
CLASS
  1
HATCH
  2
AcDbHatch
  3
AutoCAD 2000
 90
        0
280
     0
281
     1
  0
CLASS
  1
XRECORD
  2
AcDbXrecord
  3
AutoCAD 2000
 90
        0
280
     0
281
     0
  0
CLASS
  1
LONG_TRANSACTION
  2
AcDbLongTransaction
  3
AutoCAD 2000
 90
        0
280
     0
281
     0
  0
CLASS
  1
LWPOLYLINE
  2
AcDbPolyline
  3
AutoCAD 2000
 90
        0
280
     0
281
     1
  0
CLASS
  1
HATCH
  2
AcDbHatch
  3
AutoCAD 2000
 90
        0
280
     0
281
     1
  0
CLASS
  1
XRECORD
  2
AcDbXrecord
  3
AutoCAD 2000
 90
        0
280
     0
281
     0
  0
CLASS
  1
LONG_TRANSACTION
  2
AcDbLongTransaction
  3
AutoCAD 2000
 90
        0
280
     0
281
     0
  0
CLASS
  1
LWPOLYLINE
  2
AcDbPolyline
  3
AutoCAD 2000
 90
        0
280
     0
281
     1
  0
CLASS
  1
HATCH
  2
AcDbHatch
  3
AutoCAD 2000
 90
        0
280
     0
281
     1
  0
CLASS
  1
XRECORD
  2
AcDbXrecord
  3
AutoCAD 2000
 90
        0
280
     0
281
     0
  0
CLASS
  1
LONG_TRANSACTION
  2
AcDbLongTransaction
  3
AutoCAD 2000
 90
        0
280
     0
281
     0
  0
CLASS
  1
LWPOLYLINE
  2
AcDbPolyline
  3
AutoCAD 2000
 90
        0
280
     0
281
     1
  0
CLASS
  1
HATCH
  2
AcDbHatch
  3
AutoCAD 2000
 90
        0
280
     0
281
     1
  0
CLASS
  1
XRECORD
  2
AcDbXrecord
  3
AutoCAD 2000
 90
        0
280
     0
281
     0
  0
ENDSEC
  0
SECTION
  2
TABLES
  0
TABLE
  2
VPORT
  5
3183249F
330
0
100
AcDbSymbolTable
 70
    11
  0
VPORT
  5
318324C3
330
3183249F
100
AcDbSymbolTableRecord
100
AcDbViewportTableRecord
  2
2
 70
     0
 10
0.5
 20
0.0
 11
1.0
 21
1.0
 12
0.9240312421264802
 22
1.052650975462766
 13
0.0
 23
0.0
 14
1.0
 24
1.0
 15
10.0
 25
10.0
 16
0.0
 26
0.0
 36
1.0
 17
0.0
 27
0.0
 37
0.0
 40
2.105301950925533
 41
0.8778135048231511
 42
50.0
 43
0.0
 44
0.0
 50
0.0
 51
0.0
 71
     0
 72
   500
 73
     1
 74
     1
 75
     0
 76
     0
 77
     0
 78
     0
  0
VPORT
  5
318324C4
330
3183249F
100
AcDbSymbolTableRecord
100
AcDbViewportTableRecord
  2
2
 70
     0
 10
0.0
 20
0.0
 11
0.5
 21
1.0
 12
0.9240312421264802
 22
1.052650975462766
 13
0.0
 23
0.0
 14
1.0
 24
1.0
 15
10.0
 25
10.0
 16
0.0
 26
0.0
 36
1.0
 17
0.0
 27
0.0
 37
0.0
 40
2.105301950925533
 41
0.8778135048231511
 42
50.0
 43
0.0
 44
0.0
 50
0.0
 51
0.0
 71
     0
 72
   500
 73
     1
 74
     1
 75
     0
 76
     0
 77
     0
 78
     0
  0
VPORT
  5
318324C5
330
3183249F
100
AcDbSymbolTableRecord
100
AcDbViewportTableRecord
  2
3
 70
     0
 10
0.0
 20
0.5
 11
1.0
 21
1.0
 12
2.832169994473273
 22
1.052650975462766
 13
0.0
 23
0.0
 14
1.0
 24
1.0
 15
10.0
 25
10.0
 16
0.0
 26
0.0
 36
1.0
 17
0.0
 27
0.0
 37
0.0
 40
2.105301950925533
 41
3.571428571428571
 42
50.0
 43
0.0
 44
0.0
 50
0.0
 51
0.0
 71
     0
 72
   500
 73
     1
 74
     1
 75
     0
 76
     0
 77
     0
 78
     0
  0
VPORT
  5
318324C6
330
3183249F
100
AcDbSymbolTableRecord
100
AcDbViewportTableRecord
  2
3
 70
     0
 10
0.0
 20
0.0
 11
1.0
 21
0.5
 12
2.856741679241311
 22
1.052650975462766
 13
0.0
 23
0.0
 14
1.0
 24
1.0
 15
10.0
 25
10.0
 16
0.0
 26
0.0
 36
1.0
 17
0.0
 27
0.0
 37
0.0
 40
2.105301950925533
 41
3.594771241830065
 42
50.0
 43
0.0
 44
0.0
 50
0.0
 51
0.0
 71
     0
 72
   500
 73
     1
 74
     1
 75
     0
 76
     0
 77
     0
 78
     0
  0
VPORT
  5
318324C7
330
3183249F
100
AcDbSymbolTableRecord
100
AcDbViewportTableRecord
  2
4
 70
     0
 10
0.5
 20
0.0
 11
1.0
 21
0.5
 12
2.886857516709719
 22
1.052650975462766
 13
0.0
 23
0.0
 14
1.0
 24
1.0
 15
10.0
 25
10.0
 16
0.0
 26
0.0
 36
1.0
 17
0.0
 27
0.0
 37
0.0
 40
4.27520703030907
 41
1.784313725490195
 42
50.0
 43
0.0
 44
0.0
 50
0.0
 51
0.0
 71
     0
 72
   500
 73
     1
 74
     1
 75
     0
 76
     0
 77
     0
 78
     0
  0
VPORT
  5
318324C8
330
3183249F
100
AcDbSymbolTableRecord
100
AcDbViewportTableRecord
  2
4
 70
     0
 10
0.5
 20
0.5
 11
1.0
 21
1.0
 12
2.862090274555523
 22
1.052650975462766
 13
0.0
 23
0.0
 14
1.0
 24
1.0
 15
10.0
 25
10.0
 16
0.0
 26
0.0
 36
1.0
 17
0.0
 27
0.0
 37
0.0
 40
4.27520703030907
 41
1.772727272727272
 42
50.0
 43
0.0
 44
0.0
 50
0.0
 51
0.0
 71
     0
 72
   500
 73
     1
 74
     1
 75
     0
 76
     0
 77
     0
 78
     0
  0
VPORT
  5
318324C9
330
3183249F
100
AcDbSymbolTableRecord
100
AcDbViewportTableRecord
  2
4
 70
     0
 10
0.0
 20
0.5
 11
0.5
 21
1.0
 12
2.862090274555523
 22
1.052650975462766
 13
0.0
 23
0.0
 14
1.0
 24
1.0
 15
10.0
 25
10.0
 16
0.0
 26
0.0
 36
1.0
 17
0.0
 27
0.0
 37
0.0
 40
4.27520703030907
 41
1.772727272727272
 42
50.0
 43
0.0
 44
0.0
 50
0.0
 51
0.0
 71
     0
 72
   500
 73
     1
 74
     1
 75
     0
 76
     0
 77
     0
 78
     0
  0
VPORT
  5
318324CA
330
3183249F
100
AcDbSymbolTableRecord
100
AcDbViewportTableRecord
  2
4
 70
     0
 10
0.0
 20
0.0
 11
0.5
 21
0.5
 12
2.886857516709719
 22
1.052650975462766
 13
0.0
 23
0.0
 14
1.0
 24
1.0
 15
10.0
 25
10.0
 16
0.0
 26
0.0
 36
1.0
 17
0.0
 27
0.0
 37
0.0
 40
4.27520703030907
 41
1.784313725490195
 42
50.0
 43
0.0
 44
0.0
 50
0.0
 51
0.0
 71
     0
 72
   500
 73
     1
 74
     1
 75
     0
 76
     0
 77
     0
 78
     0
  0
VPORT
  5
31838731
330
3183249F
100
AcDbSymbolTableRecord
100
AcDbViewportTableRecord
  2
*ACTIVE
 70
     0
 10
0.0
 20
0.0
 11
1.0
 21
1.0
 12
409.5000038138818
 22
271.5000014486178
 13
0.0
 23
0.0
 14
1.0
 24
1.0
 15
10.0
 25
10.0
 16
0.0
 26
0.0
 36
1.0
 17
0.0
 27
0.0
 37
0.0
 40
546.6827076874547
 41
1.764444444444444
 42
50.0
 43
0.0
 44
0.0
 50
0.0
 51
0.0
 71
     0
 72
   500
 73
     1
 74
     0
 75
     0
 76
     0
 77
     0
 78
     0
  0
ENDTAB
  0
TABLE
  2
LTYPE
  5
3183249C
330
0
100
AcDbSymbolTable
 70
     1
  0
LTYPE
  5
318324A9
330
3183249C
100
AcDbSymbolTableRecord
100
AcDbLinetypeTableRecord
  2
BYBLOCK
 70
     0
  3

 72
    65
 73
     0
 40
0.0
  0
LTYPE
  5
318324AA
330
3183249C
100
AcDbSymbolTableRecord
100
AcDbLinetypeTableRecord
  2
BYLAYER
 70
     0
  3

 72
    65
 73
     0
 40
0.0
  0
LTYPE
  5
318324AB
330
3183249C
100
AcDbSymbolTableRecord
100
AcDbLinetypeTableRecord
  2
CONTINUOUS
 70
     0
  3
実線
 72
    65
 73
     0
 40
0.0
  0
ENDTAB
  0
TABLE
  2
LAYER
  5
31832499
102
{ACAD_XDICTIONARY
360
31838040
102
}
330
0
100
AcDbSymbolTable
 70
     7
  0
LAYER
  5
318324A6
330
31832499
100
AcDbSymbolTableRecord
100
AcDbLayerTableRecord
  2
0
 70
     0
 62
     7
  6
CONTINUOUS
  0
LAYER
  5
318324D1
330
31832499
100
AcDbSymbolTableRecord
100
AcDbLayerTableRecord
  2
HATCH
 70
     0
 62
     4
  6
CONTINUOUS
  0
LAYER
  5
318324D2
330
31832499
100
AcDbSymbolTableRecord
100
AcDbLayerTableRecord
  2
SUNPOU
 70
     0
 62
     3
  6
CONTINUOUS
  0
LAYER
  5
318324D4
330
31832499
100
AcDbSymbolTableRecord
100
AcDbLayerTableRecord
  2
SAISEN
 70
     0
 62
     4
  6
CONTINUOUS
  0
LAYER
  5
318324D5
330
31832499
100
AcDbSymbolTableRecord
100
AcDbLayerTableRecord
  2
JISSEN
 70
     0
 62
     7
  6
CONTINUOUS
  0
LAYER
  5
318324D9
330
31832499
100
AcDbSymbolTableRecord
100
AcDbLayerTableRecord
  2
WAKU
 70
     0
 62
     5
  6
CONTINUOUS
  0
LAYER
  5
318324EC
330
31832499
100
AcDbSymbolTableRecord
100
AcDbLayerTableRecord
  2
SCALE
 70
     0
 62
     7
  6
CONTINUOUS
  0
ENDTAB
  0
TABLE
  2
STYLE
  5
3183249A
330
0
100
AcDbSymbolTable
 70
     3
  0
STYLE
  5
318324A7
330
3183249A
100
AcDbSymbolTableRecord
100
AcDbTextStyleTableRecord
  2
STANDARD
 70
     0
 40
0.0
 41
1.0
 50
0.0
 71
     0
 42
9.0
  3
ROMANS.shx
  4
bigfont.shx
  0
STYLE
  5
318324BE
330
3183249A
100
AcDbSymbolTableRecord
100
AcDbTextStyleTableRecord
  2
K
 70
     0
 40
0.0
 41
1.0
 50
0.0
 71
     0
 42
13.5
  3
ROMANS.shx
  4
bigfont.shx
  0
STYLE
  5
31836C06
330
3183249A
100
AcDbSymbolTableRecord
100
AcDbTextStyleTableRecord
  2
太字
 70
     0
 40
0.0
 41
0.7
 50
0.0
 71
     0
 42
91.00035378310668
  3
romand.shx
  4
bigfont.shx
  0
ENDTAB
  0
TABLE
  2
VIEW
  5
3183249D
330
0
100
AcDbSymbolTable
 70
     0
  0
ENDTAB
  0
TABLE
  2
UCS
  5
3183249E
330
0
100
AcDbSymbolTable
 70
     0
  0
ENDTAB
  0
TABLE
  2
APPID
  5
318324A0
330
0
100
AcDbSymbolTable
 70
     5
  0
APPID
  5
318324A8
330
318324A0
100
AcDbSymbolTableRecord
100
AcDbRegAppTableRecord
  2
ACAD
 70
     0
  0
APPID
  5
31832DF7
330
318324A0
100
AcDbSymbolTableRecord
100
AcDbRegAppTableRecord
  2
X_OBJNAME
 70
     0
  0
APPID
  5
31832DF8
330
318324A0
100
AcDbSymbolTableRecord
100
AcDbRegAppTableRecord
  2
X_UNIONHANDLE
 70
     0
  0
APPID
  5
31832DF9
330
318324A0
100
AcDbSymbolTableRecord
100
AcDbRegAppTableRecord
  2
X_OBJDATA
 70
     0
  0
APPID
  5
31832DFA
330
318324A0
100
AcDbSymbolTableRecord
100
AcDbRegAppTableRecord
  2
X_PARENTHANDLE
 70
     0
  0
ENDTAB
  0
TABLE
  2
DIMSTYLE
  5
318324A1
330
0
100
AcDbSymbolTable
 70
     1
  0
DIMSTYLE
105
318324CD
330
318324A1
100
AcDbSymbolTableRecord
100
AcDbDimStyleTableRecord
  2
IMAO
 70
     0
  3

  4

  5
ARROWANG
  6
ARROWANG
  7
ARROWANG
 40
1.0
 41
1.5
 42
0.75
 43
6.0
 44
1.0
 45
0.0
 46
0.0
 47
495.0
 48
0.0
140
3.0
141
0.0
142
0.0
143
25.4
144
1.0
145
0.0
146
1.0
147
1.0
 71
     0
 72
     0
 73
     0
 74
     0
 75
     0
 76
     0
 77
     3
 78
     8
170
     0
171
     2
172
     1
173
     1
174
     1
175
     0
176
   256
177
   256
178
   256
270
     2
271
     2
272
     2
273
     2
274
     2
340
318324BE
275
     0
280
     0
281
     0
282
     0
283
     1
284
     0
285
     0
286
     0
287
     3
288
     0
  0
ENDTAB
  0
TABLE
  2
BLOCK_RECORD
  5
31832498
330
0
100
AcDbSymbolTable
 70
     1
  0
BLOCK_RECORD
  5
318324AF
102
{ACAD_XDICTIONARY
360
31837BDA
102
}
330
31832498
100
AcDbSymbolTableRecord
100
AcDbBlockTableRecord
  2
*MODEL_SPACE
  0
BLOCK_RECORD
  5
318324AC
102
{ACAD_XDICTIONARY
360
31837BD8
102
}
330
31832498
100
AcDbSymbolTableRecord
100
AcDbBlockTableRecord
  2
*PAPER_SPACE
  0
BLOCK_RECORD
  5
318324B9
330
31832498
100
AcDbSymbolTableRecord
100
AcDbBlockTableRecord
  2
ARROWANG
  0
ENDTAB
  0
ENDSEC
  0
SECTION
  2
BLOCKS
  0
BLOCK
  5
318324DE
330
318324AF
100
AcDbEntity
  8
0
100
AcDbBlockBegin
  2
*MODEL_SPACE
 70
     0
 10
0.0
 20
0.0
 30
0.0
  3
*MODEL_SPACE
  1

  0
ENDBLK
  5
318324DF
330
318324AF
100
AcDbEntity
  8
0
100
AcDbBlockEnd
  0
BLOCK
  5
318324DC
330
318324AC
100
AcDbEntity
 67
     1
  8
0
100
AcDbBlockBegin
  2
*PAPER_SPACE
 70
     0
 10
0.0
 20
0.0
 30
0.0
  3
*PAPER_SPACE
  1

  0
ENDBLK
  5
318324DD
330
318324AC
100
AcDbEntity
 67
     1
  8
0
100
AcDbBlockEnd
  0
BLOCK
  5
1D
330
318324B9
100
AcDbEntity
  8
0
100
AcDbBlockBegin
  2
ARROWANG
 70
     0
 10
0.0
 20
0.0
 30
0.0
  3
ARROWANG
  1

  0
LINE
  5
1E
330
318324B9
100
AcDbEntity
  8
SUNPOU
100
AcDbLine
 10
0.0
 20
0.0
 30
0.0
 11
-1.499999999999957
 21
0.4019237886467409
 31
0.0
  0
LINE
  5
1F
330
318324B9
100
AcDbEntity
  8
SUNPOU
100
AcDbLine
 10
0.0
 20
0.0
 30
0.0
 11
-1.500000000000028
 21
-0.4019237886467124
 31
0.0
  0
ENDBLK
  5
20
330
318324B9
100
AcDbEntity
  8
0
100
AcDbBlockEnd
  0
ENDSEC
  0
SECTION
  2
ENTITIES
  0
ARC
  5
31836F1E
330
318324AF
100
AcDbEntity
  8
JISSEN
100
AcDbCircle
 10
468.5457664614088
 20
188.5149998015441
 30
0.0
 40
8.0
100
AcDbArc
 50
270.0
 51
331.0451124605066
  0
ARC
  5
31836F1F
330
318324AF
100
AcDbEntity
  8
JISSEN
100
AcDbCircle
 10
468.5457613015113
 20
375.5149998015441
 30
0.0
 40
8.0
100
AcDbArc
 50
28.9548107997493
 51
90.00000000000518
  0
HATCH
  5
31836F43
330
318324AF
100
AcDbEntity
  8
HATCH
100
AcDbHatch
 10
0.0
 20
0.0
 30
0.0
210
0.0
220
0.0
230
1.0
  2
SOLID
 70
     1
 71
     1
 91
        1
 92
        7
 72
     1
 73
     1
 93
        6
 10
770.5457757107539
 20
355.6345921613445
 42
0.0
 10
773.5457757107536
 20
355.6345921613445
 42
0.0
 10
767.5457757107537
 20
361.6345921613445
 42
0.0
 10
763.2715999151181
 20
357.360416365709
 42
-0.0240688282049687
 10
770.2213741067573
 20
349.6345921613445
 42
0.0
 10
770.5457757107536
 20
349.6345921613445
 42
0.0
 97
        6
330
31836F72
330
31837067
330
31836F6E
330
31836F6F
330
31836F70
330
31836F71
 75
     0
 76
     1
 47
0.0320843871504063
 98
        1
 10
768.3222149026818
 20
356.0846600182116
  0
LINE
  5
31836F4B
330
318324AF
100
AcDbEntity
  8
SAISEN
100
AcDbLine
 10
648.5457757107536
 20
271.3528606887682
 30
0.0
 11
664.5457757107536
 21
271.3528606887681
 31
0.0
  0
LINE
  5
31836F4C
330
318324AF
100
AcDbEntity
  8
SAISEN
100
AcDbLine
 10
648.5457757107536
 20
291.3528606887684
 30
0.0
 11
664.5457757107536
 21
291.3528606887684
 31
0.0
  0
LINE
  5
31836F4D
330
318324AF
100
AcDbEntity
  8
SAISEN
100
AcDbLine
 10
648.5457757107536
 20
286.3528606887682
 30
0.0
 11
664.5457757107536
 21
286.3528606887681
 31
0.0
  0
TEXT
  5
31836F4E
330
318324AF
100
AcDbEntity
  8
SAISEN
100
AcDbText
 10
651.5016623234181
 20
287.4744173234297
 30
0.0
 40
3.0
  1
検定印
  7
K
 72
     4
 11
656.4016623234181
 21
288.9744173234297
 31
0.0
100
AcDbText
  0
LINE
  5
31836F4F
330
318324AF
100
AcDbEntity
  8
SAISEN
100
AcDbLine
 10
664.5457757107536
 20
291.3528606887684
 30
0.0
 11
664.5457757107536
 21
281.3528606887683
 31
0.0
  0
LINE
  5
31836F50
330
318324AF
100
AcDbEntity
  8
SAISEN
100
AcDbLine
 10
648.5457757107536
 20
291.3528606887684
 30
0.0
 11
648.5457757107536
 21
271.3528606887682
 31
0.0
  0
LINE
  5
31836F51
330
318324AF
100
AcDbEntity
  8
SAISEN
100
AcDbLine
 10
664.5457757107536
 20
281.3528606887682
 30
0.0
 11
664.5457757107536
 21
271.3528606887682
 31
0.0
  0
HATCH
  5
31836F52
330
318324AF
100
AcDbEntity
  8
SAISEN
100
AcDbHatch
 10
0.0
 20
0.0
 30
0.0
210
0.0
220
0.0
230
1.0
  2
NET3
 70
     0
 71
     0
 91
        4
 92
        7
 72
     1
 73
     1
 93
        4
 10
623.5457757107536
 20
281.3528606887683
 42
0.0
 10
624.0457757107535
 20
281.3528606887683
 42
-1.0
 10
749.0457757107536
 20
281.3528606887683
 42
0.0
 10
749.5457757107536
 20
281.3528606887683
 42
1.0
 97
        0
 92
       23
 72
     1
 73
     1
 93
        4
 10
626.5457757107535
 20
281.3528606887683
 42
0.0
 10
627.0457757107536
 20
281.3528606887683
 42
-1.0
 10
746.0457757107536
 20
281.3528606887683
 42
0.0
 10
746.5457757107536
 20
281.3528606887683
 42
1.0
 97
        0
 92
       23
 72
     1
 73
     1
 93
        4
 10
746.5457757107536
 20
281.3528606887683
 42
0.0
 10
746.0457757107536
 20
281.3528606887683
 42
-1.0
 10
627.0457757107536
 20
281.3528606887683
 42
0.0
 10
626.5457757107535
 20
281.3528606887683
 42
1.0
 97
        0
 92
        7
 72
     1
 73
     1
 93
        4
 10
749.5457757107536
 20
281.3528606887683
 42
0.0
 10
749.0457757107536
 20
281.3528606887683
 42
-1.0
 10
624.0457757107535
 20
281.3528606887683
 42
0.0
 10
623.5457757107536
 20
281.3528606887683
 42
1.0
 97
        0
 75
     0
 76
     1
 52
0.0
 41
1.0
 77
     0
 78
     3
 53
0.0
 43
283.9827419792463
 44
23.85373594898908
 45
0.0
 46
0.125
 79
     0
 53
60.0
 43
283.9827419792463
 44
23.85373594898908
 45
-0.1082531754730548
 46
0.0625
 79
     0
 53
119.9999999999999
 43
283.9827419792463
 44
23.85373594898908
 45
-0.1082531754730548
 46
-0.0625
 79
     0
 47
0.0644153922217792
 98
        4
 10
749.3177109689176
 20
282.4401687436443
 10
746.35306514013
 20
282.1923248254047
 10
746.3643382682993
 20
280.6489324021713
 10
749.3627995882669
 20
280.6601981849303
  0
CIRCLE
  5
31836F53
330
318324AF
100
AcDbEntity
  8
SAISEN
100
AcDbCircle
 10
686.5457757107535
 20
281.3528606887683
 30
0.0
 40
59.5
  0
CIRCLE
  5
31836F54
330
318324AF
100
AcDbEntity
  8
SAISEN
100
AcDbCircle
 10
686.5457757107535
 20
281.3528606887683
 30
0.0
 40
62.5
  0
CIRCLE
  5
31836F55
330
318324AF
100
AcDbEntity
  8
SAISEN
100
AcDbCircle
 10
686.5457757107535
 20
281.3528606887683
 30
0.0
 40
63.0
  0
CIRCLE
  5
31836F56
330
318324AF
100
AcDbEntity
  8
SAISEN
100
AcDbCircle
 10
686.5457757107535
 20
281.3528606887683
 30
0.0
 40
60.0
  0
MTEXT
  5
31836F57
330
318324AF
100
AcDbEntity
  8
SAISEN
100
AcDbMText
 10
648.5744817807561
 20
254.5911762185009
 30
0.0
 40
14.0
 41
82.63476731827458
 71
     1
 72
     5
  1
{\fSwis721 BT|b0|i0|c0|p34;FIRE ALARM}
  7
太字
1001
ACAD
1000
MTEXTBEGIN
1070
    73
1070
     1
1070
    44
1040
1.0
1070
    74
1070
     0
1000
MTEXTEND
  0
MTEXT
  5
31836F58
330
318324AF
100
AcDbEntity
  8
SAISEN
100
AcDbMText
 10
651.1915253215619
 20
325.3593066907316
 30
0.0
 40
14.0
 41
74.58671106934888
 71
     1
 72
     5
  1
{\fSwis721 BT|b0|i0|c0|p34;SPRINKLER}
  7
太字
1001
ACAD
1000
MTEXTBEGIN
1070
    73
1070
     1
1070
    44
1040
1.0
1070
    74
1070
     0
1000
MTEXTEND
  0
LINE
  5
31836F59
330
318324AF
100
AcDbEntity
  8
SAISEN
100
AcDbLine
 10
724.5457757107536
 20
281.3528606887684
 30
0.0
 11
724.5457757107536
 21
271.3528606887684
 31
0.0
  0
LINE
  5
31836F5A
330
318324AF
100
AcDbEntity
  8
SAISEN
100
AcDbLine
 10
740.5457757107536
 20
281.3528606887684
 30
0.0
 11
740.5457757107536
 21
271.3528606887684
 31
0.0
  0
LINE
  5
31836F5B
330
318324AF
100
AcDbEntity
  8
SAISEN
100
AcDbLine
 10
708.5457757107535
 20
291.3528606887686
 30
0.0
 11
708.5457757107535
 21
271.3528606887684
 31
0.0
  0
TEXT
  5
31836F5C
330
318324AF
100
AcDbEntity
  8
SAISEN
100
AcDbText
 10
709.727714731985
 20
272.4744166715042
 30
0.0
 40
3.0
  1
製造番号
  7
K
 72
     4
 11
716.527714731985
 21
273.9744166715043
 31
0.0
100
AcDbText
  0
LINE
  5
31836F5D
330
318324AF
100
AcDbEntity
  8
SAISEN
100
AcDbLine
 10
740.5457757107536
 20
271.3528606887686
 30
0.0
 11
708.5457757107535
 21
271.3528606887684
 31
0.0
  0
LINE
  5
31836F5E
330
318324AF
100
AcDbEntity
  8
SAISEN
100
AcDbLine
 10
708.5457757107535
 20
276.3528606887683
 30
0.0
 11
740.5457757107536
 21
276.3528606887683
 31
0.0
  0
LINE
  5
31836F5F
330
318324AF
100
AcDbEntity
  8
SAISEN
100
AcDbLine
 10
708.5457757107535
 20
286.3528606887685
 30
0.0
 11
740.5457757107536
 21
286.3528606887683
 31
0.0
  0
LINE
  5
31836F60
330
318324AF
100
AcDbEntity
  8
SAISEN
100
AcDbLine
 10
740.5457757107536
 20
281.3528606887686
 30
0.0
 11
708.5457757107535
 21
281.3528606887683
 31
0.0
  0
TEXT
  5
31836F61
330
318324AF
100
AcDbEntity
  8
SAISEN
100
AcDbText
 10
725.4915717898938
 20
282.3222595822462
 30
0.0
 40
3.0
  1
  3 m
  7
K
 72
     4
 11
733.4915717898938
 21
283.8222595822462
 31
0.0
100
AcDbText
  0
TEXT
  5
31836F62
330
318324AF
100
AcDbEntity
  8
SAISEN
100
AcDbText
 10
726.2646770988092
 20
277.3222589303205
 30
0.0
 40
3.0
  1
10 m
  7
K
 72
     4
 11
732.3075342416663
 21
278.8222589303205
 31
0.0
100
AcDbText
  0
LINE
  5
31836F63
330
318324AF
100
AcDbEntity
  8
SAISEN
100
AcDbLine
 10
708.5457757107535
 20
291.3528606887686
 30
0.0
 11
740.5457757107536
 21
291.3528606887684
 31
0.0
  0
LINE
  5
31836F64
330
318324AF
100
AcDbEntity
  8
SAISEN
100
AcDbLine
 10
724.5457757107536
 20
291.3528606887686
 30
0.0
 11
724.5457757107536
 21
281.3528606887686
 31
0.0
  0
TEXT
  5
31836F65
330
318324AF
100
AcDbEntity
  8
SAISEN
100
AcDbText
 10
709.818035289773
 20
277.4744166715042
 30
0.0
 40
3.0
  1
許容長さ
  7
K
 72
     4
 11
716.4180352897731
 21
278.9744166715042
 31
0.0
100
AcDbText
  0
TEXT
  5
31836F66
330
318324AF
100
AcDbEntity
  8
SAISEN
100
AcDbText
 10
709.8780127107508
 20
282.4744173234299
 30
0.0
 40
3.0
  1
許容高さ
  7
K
 72
     4
 11
716.4780127107508
 21
283.9744173234299
 31
0.0
100
AcDbText
  0
TEXT
  5
31836F67
330
318324AF
100
AcDbEntity
  8
SAISEN
100
AcDbText
 10
711.4016623234181
 20
287.4744173234299
 30
0.0
 40
3.0
  1
管  径
  7
K
 72
     4
 11
716.4016623234181
 21
288.9744173234299
 31
0.0
100
AcDbText
  0
TEXT
  5
31836F68
330
318324AF
100
AcDbEntity
  8
SAISEN
100
AcDbText
 10
727.3307455096595
 20
287.3222595822462
 30
0.0
 40
3.0
  1
20 A
  7
K
 72
     4
 11
732.5164597953738
 21
288.8222595822462
 31
0.0
100
AcDbText
  0
LINE
  5
31836F69
330
318324AF
100
AcDbEntity
  8
SAISEN
100
AcDbLine
 10
740.5457757107536
 20
291.3528606887686
 30
0.0
 11
740.5457757107536
 21
281.3528606887686
 31
0.0
  0
CIRCLE
  5
31836F6A
330
318324AF
100
AcDbEntity
  8
SAISEN
100
AcDbCircle
 10
686.5457757107535
 20
281.3528606887683
 30
0.0
 40
13.0
  0
CIRCLE
  5
31836F6B
330
318324AF
100
AcDbEntity
  8
SAISEN
100
AcDbCircle
 10
686.5457757107535
 20
281.3528606887683
 30
0.0
 40
12.5
  0
HATCH
  5
31836F6C
330
318324AF
100
AcDbEntity
  8
SAISEN
100
AcDbHatch
 10
0.0
 20
0.0
 30
0.0
210
0.0
220
0.0
230
1.0
  2
ANSI31
 70
     0
 71
     0
 91
        6
 92
        7
 72
     1
 73
     1
 93
        4
 10
673.5457757107536
 20
281.3528606887683
 42
0.0
 10
674.0457757107536
 20
281.3528606887683
 42
-0.4142135623730951
 10
686.5457757107536
 20
293.8528606887683
 42
0.0
 10
686.5457757107536
 20
294.3528606887683
 42
0.4142135623730951
 97
        0
 92
        7
 72
     1
 73
     1
 93
        4
 10
686.5457757107536
 20
294.3528606887683
 42
0.0
 10
686.5457757107536
 20
293.8528606887683
 42
-0.2755973854081401
 10
697.5447296571164
 20
287.2919693833275
 42
0.0
 10
697.9846878149709
 20
287.5295337311099
 42
0.275597385408141
 97
        0
 92
        7
 72
     1
 73
     1
 93
        4
 10
699.0457757107536
 20
281.3528606887683
 42
0.0
 10
699.5457757107536
 20
281.3528606887683
 42
0.1244135966764299
 10
697.9846878149709
 20
287.5295337311099
 42
0.0
 10
697.5447296571164
 20
287.2919693833275
 42
-0.1244135966764294
 97
        0
 92
        7
 72
     1
 73
     1
 93
        4
 10
686.5457757107536
 20
268.8528606887683
 42
0.0
 10
686.5457757107536
 20
268.3528606887683
 42
0.4142135623730951
 10
699.5457757107536
 20
281.3528606887683
 42
0.0
 10
699.0457757107536
 20
281.3528606887683
 42
-0.4142135623730951
 97
        0
 92
        7
 72
     1
 73
     1
 93
        4
 10
686.5457757107536
 20
268.3528606887683
 42
0.0
 10
686.5457757107536
 20
268.8528606887683
 42
-0.2755973854081401
 10
675.5468217643909
 20
275.4137519942091
 42
0.0
 10
675.1068636065364
 20
275.1761876464267
 42
0.275597385408141
 97
        0
 92
        7
 72
     1
 73
     1
 93
        4
 10
674.0457757107536
 20
281.3528606887683
 42
0.0
 10
673.5457757107536
 20
281.3528606887683
 42
0.1244135966764299
 10
675.1068636065364
 20
275.1761876464267
 42
0.0
 10
675.5468217643905
 20
275.4137519942091
 42
-0.1244135966764294
 97
        0
 75
     0
 76
     1
 52
0.0
 41
1.0
 77
     0
 78
     1
 53
45.0
 43
13.98274090524637
 44
23.85373594898908
 45
-0.0883883476483184
 46
0.0883883476483185
 79
     0
 47
0.0481098810086891
 98
        6
 10
678.664997428806
 20
291.438411380785
 10
689.4950690565787
 20
293.7957959454729
 10
698.7848617612516
 20
284.7511380566091
 10
697.3889873675588
 20
274.7923918562201
 10
683.38209447814
 20
268.9710966750971
 10
674.7180390571688
 20
276.9573367249086
  0
LINE
  5
31836F6D
330
318324AF
100
AcDbEntity
  8
HATCH
100
AcDbLine
 10
767.5457757107537
 20
361.4933596414542
 30
0.0
 11
767.6163919706985
 21
361.5639759013994
 31
0.0
  0
LINE
  5
31836F6E
102
{ACAD_REACTORS
330
31836F43
102
}
330
318324AF
100
AcDbEntity
  8
SUNPOU
100
AcDbLine
 10
770.5457757107536
 20
349.6345921613445
 30
0.0
 11
770.221374106757
 21
349.6345921613445
 31
0.0
  0
LINE
  5
31836F6F
102
{ACAD_REACTORS
330
31836F43
102
}
330
318324AF
100
AcDbEntity
  8
SUNPOU
100
AcDbLine
 10
770.5457757107536
 20
355.6345921613445
 30
0.0
 11
770.5457757107536
 21
349.6345921613445
 31
0.0
  0
LINE
  5
31836F70
102
{ACAD_REACTORS
330
31836F43
102
}
330
318324AF
100
AcDbEntity
  8
SUNPOU
100
AcDbLine
 10
773.5457757107536
 20
355.6345921613445
 30
0.0
 11
770.5457757107536
 21
355.6345921613445
 31
0.0
  0
LINE
  5
31836F71
102
{ACAD_REACTORS
330
31836F43
102
}
330
318324AF
100
AcDbEntity
  8
SUNPOU
100
AcDbLine
 10
767.5457757107537
 20
361.6345921613445
 30
0.0
 11
773.5457757107536
 21
355.6345921613445
 31
0.0
  0
LINE
  5
31836F72
102
{ACAD_REACTORS
330
31836F43
102
}
330
318324AF
100
AcDbEntity
  8
SUNPOU
100
AcDbLine
 10
763.2715999151181
 20
357.360416365709
 30
0.0
 11
767.5457757107537
 21
361.6345921613445
 31
0.0
  0
LINE
  5
31836F75
330
318324AF
100
AcDbEntity
  8
JISSEN
100
AcDbLine
 10
475.5457757107521
 20
173.0150009236446
 30
0.0
 11
475.5457757107521
 21
391.0150008856159
 31
0.0
  0
LINE
  5
31836F77
330
318324AF
100
AcDbEntity
  8
JISSEN
 48
0.3
100
AcDbLine
 10
468.5457664614088
 20
180.5149998015441
 30
0.0
 11
463.5457664614084
 21
180.5149998015441
 31
0.0
  0
LINE
  5
31836F7A
330
318324AF
100
AcDbEntity
  8
JISSEN
100
AcDbLine
 10
475.5457757107521
 20
173.0150009236446
 30
0.0
 11
508.5457757107522
 21
173.0150009236441
 31
0.0
  0
ARC
  5
31836F7B
330
318324AF
100
AcDbEntity
  8
JISSEN
100
AcDbCircle
 10
508.5457757107522
 20
182.0150009236441
 30
0.0
 40
9.0
100
AcDbArc
 50
269.9999999999987
 51
0.0000000000001272
  0
LINE
  5
31836FF2
330
318324AF
100
AcDbEntity
  8
JISSEN
 48
0.3
100
AcDbLine
 10
463.5457664614084
 20
180.5149998015441
 30
0.0
 11
463.5457666108735
 21
383.5149998015436
 31
0.0
  0
LINE
  5
31836FF3
330
318324AF
100
AcDbEntity
  8
JISSEN
100
AcDbLine
 10
517.5457757107522
 20
282.0149998466382
 30
0.0
 11
517.5457757107522
 21
182.0150009236441
 31
0.0
  0
LINE
  5
31836FF6
330
318324AF
100
AcDbEntity
  8
JISSEN
100
AcDbLine
 10
524.6550176571884
 20
277.080189586578
 30
0.0
 11
519.1457757107521
 21
277.080189586578
 31
0.0
  0
LINE
  5
31836FF7
330
318324AF
100
AcDbEntity
  8
JISSEN
100
AcDbLine
 10
524.6651961068494
 20
272.1902095434244
 30
0.0
 11
519.1457757107521
 21
272.1902095434244
 31
0.0
  0
LINE
  5
31836FF9
330
318324AF
100
AcDbEntity
  8
JISSEN
100
AcDbLine
 10
525.5457757107517
 20
273.715418157492
 30
0.0
 11
524.6651961068494
 21
272.1902095434244
 31
0.0
  0
ARC
  5
31836FFA
330
318324AF
100
AcDbEntity
  8
JISSEN
100
AcDbCircle
 10
522.2495908112684
 20
274.8255842165282
 30
0.0
 40
3.29686573668548
100
AcDbArc
 50
358.8355626880354
 51
43.14627490556256
  0
LWPOLYLINE
  5
3183700D
330
318324AF
100
AcDbEntity
  8
JISSEN
100
AcDbPolyline
 90
        4
 70
     1
 43
0.0
 10
517.5457757107522
 20
293.0149997041154
 10
519.1457757107521
 20
293.0149997041154
 10
519.1457757107521
 20
271.0149997041154
 10
517.5457757107522
 20
271.0149997041154
  0
LINE
  5
3183700E
330
318324AF
100
AcDbEntity
  8
JISSEN
100
AcDbLine
 10
525.5457757107517
 20
290.2402095434241
 30
0.0
 11
525.5457757107517
 21
273.6906267715604
 31
0.0
  0
ARC
  5
3183700F
330
318324AF
100
AcDbEntity
  8
JISSEN
100
AcDbCircle
 10
511.6426865397663
 20
281.9902095434241
 30
0.0
 40
13.90311127443038
100
AcDbArc
 50
339.330495152863
 51
20.66950484713699
  0
LINE
  5
31837011
330
318324AF
100
AcDbEntity
  8
JISSEN
100
AcDbLine
 10
524.6508827935079
 20
291.7902095434243
 30
0.0
 11
519.1457757107521
 21
291.7902095434243
 31
0.0
  0
LINE
  5
31837012
330
318324AF
100
AcDbEntity
  8
JISSEN
100
AcDbLine
 10
524.6508827935079
 20
286.8976868315359
 30
0.0
 11
519.1457757107521
 21
286.8976868315359
 31
0.0
  0
LINE
  5
31837015
330
318324AF
100
AcDbEntity
  8
JISSEN
100
AcDbLine
 10
525.5457757107517
 20
290.2402095434241
 30
0.0
 11
524.6508827935079
 21
291.7902095434243
 31
0.0
  0
ARC
  5
31837016
330
318324AF
100
AcDbEntity
  8
JISSEN
100
AcDbCircle
 10
522.2534371800309
 20
289.1524057872644
 30
0.0
 40
3.292398337984485
100
AcDbArc
 50
316.8387919426722
 51
0.345349687228044
  0
LINE
  5
31837031
330
318324AF
100
AcDbEntity
  8
JISSEN
 48
0.3
100
AcDbLine
 10
468.5457613015107
 20
383.5149998015441
 30
0.0
 11
463.5457665754267
 21
383.5149998015436
 31
0.0
  0
LINE
  5
31837034
330
318324AF
100
AcDbEntity
  8
JISSEN
100
AcDbLine
 10
517.5457757107522
 20
382.0150015208861
 30
0.0
 11
517.5457757107522
 21
282.0149998466382
 31
0.0
  0
LINE
  5
31837037
330
318324AF
100
AcDbEntity
  8
SCALE
100
AcDbLine
 10
517.5457757107522
 20
287.0149995441325
 30
0.0
 11
517.5457757107522
 21
382.0150015208861
 31
0.0
  0
LINE
  5
3183705A
330
318324AF
100
AcDbEntity
  8
JISSEN
100
AcDbLine
 10
475.5457756337498
 20
391.0150008856159
 30
0.0
 11
508.5457755374966
 21
391.0150015208861
 31
0.0
  0
ARC
  5
3183705B
330
318324AF
100
AcDbEntity
  8
JISSEN
100
AcDbCircle
 10
508.5457757107522
 20
382.0150015208861
 30
0.0
 40
9.0
100
AcDbArc
 50
359.9999999999998
 51
90.00000110297841
  0
LINE
  5
3183705C
330
318324AF
100
AcDbEntity
  8
SCALE
100
AcDbLine
 10
508.5457755374971
 20
391.0150015208861
 30
0.0
 11
475.5457756337498
 21
391.0150008856159
 31
0.0
  0
ARC
  5
3183705F
330
318324AF
100
AcDbEntity
  8
SCALE
100
AcDbCircle
 10
508.5457757107522
 20
382.0150015208861
 30
0.0
 40
8.999999999999944
100
AcDbArc
 50
0.0
 51
90.00000110297769
  0
LWPOLYLINE
  5
31837065
330
318324AF
100
AcDbEntity
  8
SAISEN
100
AcDbPolyline
 90
        7
 70
     0
 43
0.0
 10
678.0457757107536
 20
286.2603379768801
 10
686.5457757107536
 20
291.1678152649921
 10
695.0457757107536
 20
286.2603379768803
 10
695.0457757107536
 20
276.4453834006566
 10
686.5457757107536
 20
271.5379061125446
 10
678.0457757107536
 20
276.4453834006563
 10
678.0457757107536
 20
286.2603379768801
  0
CIRCLE
  5
31837066
330
318324AF
100
AcDbEntity
  8
SAISEN
100
AcDbCircle
 10
686.5457757107535
 20
281.3528606887683
 30
0.0
 40
8.5
  0
CIRCLE
  5
31837067
102
{ACAD_REACTORS
330
31836F43
102
}
330
318324AF
100
AcDbEntity
  8
JISSEN
100
AcDbCircle
 10
686.5457757107535
 20
281.3528606887683
 30
0.0
 40
108.0000028695476
  0
LINE
  5
31837072
330
318324AF
100
AcDbEntity
  8
JISSEN
100
AcDbLine
 10
652.5457757107521
 20
428.8191943874484
 30
0.0
 11
652.5457757107512
 21
392.7896890659984
 31
0.0
  0
ARC
  5
31837073
330
318324AF
100
AcDbEntity
  8
JISSEN
100
AcDbCircle
 10
657.5457757107521
 20
428.8191943874484
 30
0.0
 40
5.0
100
AcDbArc
 50
90.0
 51
180.0
  0
LINE
  5
31837074
330
318324AF
100
AcDbEntity
  8
JISSEN
100
AcDbLine
 10
652.5457757107512
 20
407.0191943874491
 30
0.0
 11
720.5457757107512
 21
407.0191943874482
 31
0.0
  0
LINE
  5
31837075
330
318324AF
100
AcDbEntity
  8
JISSEN
100
AcDbLine
 10
720.5457757107517
 20
428.8191943874484
 30
0.0
 11
720.5457757107512
 21
392.7896890660014
 31
0.0
  0
LINE
  5
31837076
330
318324AF
100
AcDbEntity
  8
JISSEN
100
AcDbLine
 10
715.5457757107517
 20
433.8191943874484
 30
0.0
 11
657.5457757107521
 21
433.8191943874484
 31
0.0
  0
ARC
  5
31837077
330
318324AF
100
AcDbEntity
  8
JISSEN
100
AcDbCircle
 10
715.5457757107517
 20
428.8191943874477
 30
0.0
 40
5.0
100
AcDbArc
 50
0.0
 51
90.0
  0
ARC
  5
31837078
330
318324AF
100
AcDbEntity
  8
JISSEN
100
AcDbCircle
 10
686.5457757107535
 20
343.3528606887665
 30
0.0
 40
59.99999999999954
100
AcDbArc
 50
34.55550814703241
 51
145.4444918529676
  0
ARC
  5
31837081
330
318324AF
100
AcDbEntity
  8
JISSEN
100
AcDbCircle
 10
660.2957757107531
 20
388.8191943874506
 30
0.0
 40
5.899999999999977
100
AcDbArc
 50
345.9229251355463
 51
221.5299416129704
  0
LINE
  5
31837082
330
318324AF
100
AcDbEntity
  8
JISSEN
100
AcDbLine
 10
661.2608488240664
 20
392.420896279354
 30
0.0
 11
659.5179258657078
 21
385.9162192450809
 31
0.0
  0
LINE
  5
31837083
330
318324AF
100
AcDbEntity
  8
JISSEN
100
AcDbLine
 10
663.8974776026568
 20
387.8541212741375
 30
0.0
 11
656.6940738188502
 21
389.7842675007635
 31
0.0
  0
ARC
  5
31837084
330
318324AF
100
AcDbEntity
  8
JISSEN
100
AcDbCircle
 10
712.795775710754
 20
388.8191943874504
 30
0.0
 40
5.899999999999977
100
AcDbArc
 50
318.4700583870302
 51
194.0770748644536
  0
LINE
  5
31837085
330
318324AF
100
AcDbEntity
  8
JISSEN
100
AcDbLine
 10
716.3974776026573
 20
389.7842675007638
 30
0.0
 11
709.1940738188512
 21
387.8541212741371
 31
0.0
  0
LINE
  5
31837086
330
318324AF
100
AcDbEntity
  8
JISSEN
100
AcDbLine
 10
713.5736255557997
 20
385.9162192450807
 30
0.0
 11
711.8307025974411
 21
392.4208962793535
 31
0.0
  0
ARC
  5
31837087
330
318324AF
100
AcDbEntity
  8
JISSEN
 48
0.5
100
AcDbCircle
 10
767.4610335850147
 20
344.002773461675
 30
0.0
 40
21.17049567514694
100
AcDbArc
 50
37.3260106104537
 51
117.8686787535868
  0
LINE
  5
3183708E
330
318324AF
100
AcDbEntity
  8
JISSEN
 48
0.5
100
AcDbLine
 10
748.5573241543214
 20
395.8113341246454
 30
0.0
 11
748.5573241543214
 21
369.77553017716
 31
0.0
  0
LINE
  5
3183708F
330
318324AF
100
AcDbEntity
  8
JISSEN
100
AcDbLine
 10
754.0996907203947
 20
398.839492072413
 30
0.0
 11
795.0457757107565
 21
398.839492072413
 31
0.0
  0
ARC
  5
31837091
330
318324AF
100
AcDbEntity
  8
JISSEN
100
AcDbCircle
 10
754.0996907203951
 20
373.839492072413
 30
0.0
 40
25.0
100
AcDbArc
 50
90.0
 51
114.9999999999993
  0
LINE
  5
31837092
330
318324AF
100
AcDbEntity
  8
JISSEN
 48
0.5
100
AcDbLine
 10
733.545775710754
 20
390.0045834273909
 30
0.0
 11
733.545775710754
 21
380.6489730867095
 31
0.0
  0
ARC
  5
31837093
330
318324AF
100
AcDbEntity
  8
JISSEN
 48
0.5
100
AcDbCircle
 10
732.658997060182
 20
395.8394920724127
 30
0.0
 40
4.0
100
AcDbArc
 50
270.0
 51
294.9999999999993
  0
LINE
  5
31837094
330
318324AF
100
AcDbEntity
  8
JISSEN
 48
0.5
100
AcDbLine
 10
743.5342341768777
 20
396.4971867483294
 30
0.0
 11
734.3494701071448
 21
392.2142609242661
 31
0.0
  0
LINE
  5
31837095
330
318324AF
100
AcDbEntity
  8
JISSEN
 48
0.5
100
AcDbLine
 10
732.658997060182
 20
391.8394920724127
 30
0.0
 11
723.1675387212542
 21
391.8394920724127
 31
0.0
  0
ARC
  5
31837096
330
318324AF
100
AcDbEntity
  8
JISSEN
 48
0.5
100
AcDbCircle
 10
723.1675387212542
 20
395.8394920724127
 30
0.0
 40
4.0
100
AcDbArc
 50
235.0951673931445
 51
270.0
  0
LINE
  5
31837114
330
318324AF
100
AcDbEntity
  8
SAISEN
100
AcDbLine
 10
723.7089038757641
 20
263.5966386215659
 30
0.0
 11
723.7089038757641
 21
262.8809887191463
 31
0.0
  0
LINE
  5
31837115
330
318324AF
100
AcDbEntity
  8
SAISEN
100
AcDbLine
 10
723.308903875764
 20
263.5966386215659
 30
0.0
 11
723.308903875764
 21
262.8809887191463
 31
0.0
  0
LINE
  5
31837116
330
318324AF
100
AcDbEntity
  8
SAISEN
100
AcDbLine
 10
723.7089038757641
 20
262.8809887191463
 30
0.0
 11
724.4584778288221
 21
262.8809887191463
 31
0.0
  0
LINE
  5
31837117
330
318324AF
100
AcDbEntity
  8
SAISEN
100
AcDbLine
 10
724.4584778288221
 20
262.4809887191463
 30
0.0
 11
723.7089038757641
 21
262.4809887191463
 31
0.0
  0
ARC
  5
31837118
330
318324AF
100
AcDbEntity
  8
SAISEN
100
AcDbCircle
 10
724.4584778288221
 20
262.6809887191464
 30
0.0
 40
0.2
100
AcDbArc
 50
270.0
 51
90.0
  0
ARC
  5
31837119
330
318324AF
100
AcDbEntity
  8
SAISEN
100
AcDbCircle
 10
723.508903875764
 20
263.5966386215659
 30
0.0
 40
0.2
100
AcDbArc
 50
0.0
 51
180.0
  0
LINE
  5
3183711A
330
318324AF
100
AcDbEntity
  8
SAISEN
100
AcDbLine
 10
721.641602248794
 20
262.9750094375456
 30
0.0
 11
721.6416022487942
 21
263.5966386215659
 31
0.0
  0
LINE
  5
3183711B
330
318324AF
100
AcDbEntity
  8
SAISEN
100
AcDbLine
 10
721.641602248794
 20
262.9750094375456
 30
0.0
 11
722.3236820522442
 21
262.9745667614281
 31
0.0
  0
ARC
  5
3183711C
330
318324AF
100
AcDbEntity
  8
SAISEN
100
AcDbCircle
 10
722.3236820522442
 20
262.8745667614281
 30
0.0
 40
0.1
100
AcDbArc
 50
336.1633255554821
 51
90.0
  0
ARC
  5
3183711D
330
318324AF
100
AcDbEntity
  8
SAISEN
100
AcDbCircle
 10
722.7452782848338
 20
262.6809887191464
 30
0.0
 40
0.2
100
AcDbArc
 50
90.0
 51
270.0
  0
LINE
  5
3183711E
330
318324AF
100
AcDbEntity
  8
SAISEN
100
AcDbLine
 10
721.4416022487942
 20
263.5966386215659
 30
0.0
 11
721.4416022487942
 21
262.7803517849414
 31
0.0
  0
LINE
  5
3183711F
330
318324AF
100
AcDbEntity
  8
SAISEN
100
AcDbLine
 10
723.308903875764
 20
262.4809887191463
 30
0.0
 11
722.7452782848338
 21
262.4809887191463
 31
0.0
  0
LINE
  5
31837120
330
318324AF
100
AcDbEntity
  8
SAISEN
100
AcDbLine
 10
722.7452782848338
 20
262.8809887191463
 30
0.0
 11
723.308903875764
 21
262.8809887191463
 31
0.0
  0
LINE
  5
31837121
330
318324AF
100
AcDbEntity
  8
SAISEN
100
AcDbLine
 10
722.7452782848338
 20
262.6809887191464
 30
0.0
 11
724.4584778288221
 21
262.6809887191464
 31
0.0
  0
LINE
  5
31837122
330
318324AF
100
AcDbEntity
  8
SAISEN
100
AcDbLine
 10
723.7089038757641
 20
259.9983428093342
 30
0.0
 11
724.5573917822656
 21
259.9983428093342
 31
0.0
  0
ARC
  5
31837123
330
318324AF
100
AcDbEntity
  8
SAISEN
100
AcDbCircle
 10
724.5573917822656
 20
259.7983428093342
 30
0.0
 40
0.2
100
AcDbArc
 50
270.0
 51
90.0
  0
LINE
  5
31837124
330
318324AF
100
AcDbEntity
  8
SAISEN
100
AcDbLine
 10
721.6416022487942
 20
259.6400804838245
 30
0.0
 11
721.6416022487942
 21
261.5483629108982
 31
0.0
  0
LINE
  5
31837125
330
318324AF
100
AcDbEntity
  8
SAISEN
100
AcDbLine
 10
722.5099298825066
 20
260.9085425492154
 30
0.0
 11
721.6416022487942
 21
261.5483629108982
 31
0.0
  0
LINE
  5
31837126
330
318324AF
100
AcDbEntity
  8
SAISEN
100
AcDbLine
 10
721.8520002913772
 20
261.8901927204141
 30
0.0
 11
722.7472094977265
 21
261.2305648841568
 31
0.0
  0
ARC
  5
31837127
330
318324AF
100
AcDbEntity
  8
SAISEN
100
AcDbCircle
 10
722.3219364344416
 20
259.7983428093342
 30
0.0
 40
0.2
100
AcDbArc
 50
90.0
 51
270.0
  0
ARC
  5
31837128
330
318324AF
100
AcDbEntity
  8
SAISEN
100
AcDbCircle
 10
722.6285696901165
 20
261.069553716686
 30
0.0
 40
0.2
100
AcDbArc
 50
233.6156481841653
 51
53.61564818416532
  0
LINE
  5
31837129
330
318324AF
100
AcDbEntity
  8
SAISEN
100
AcDbLine
 10
721.4416022487942
 20
259.6400804838245
 30
0.0
 11
721.4416022487942
 21
261.6856655090395
 31
0.0
  0
LINE
  5
3183712A
330
318324AF
100
AcDbEntity
  8
SAISEN
100
AcDbLine
 10
722.6285696901165
 20
261.069553716686
 30
0.0
 11
721.6239903915946
 21
261.8090400807125
 31
0.0
  0
LINE
  5
3183712B
330
318324AF
100
AcDbEntity
  8
SAISEN
100
AcDbLine
 10
722.3219364344416
 20
259.5983428093342
 30
0.0
 11
724.5573917822656
 21
259.5983428093342
 31
0.0
  0
LINE
  5
3183712C
330
318324AF
100
AcDbEntity
  8
SAISEN
100
AcDbLine
 10
722.3219364344416
 20
259.9983428093342
 30
0.0
 11
723.308903875764
 21
259.9983428093342
 31
0.0
  0
LINE
  5
3183712D
330
318324AF
100
AcDbEntity
  8
SAISEN
100
AcDbLine
 10
722.3219364344416
 20
259.7983428093342
 30
0.0
 11
724.5573917822656
 21
259.7983428093342
 31
0.0
  0
ARC
  5
3183712E
330
318324AF
100
AcDbEntity
  8
SAISEN
100
AcDbCircle
 10
718.0758500762642
 20
264.7884363001208
 30
0.0
 40
4.760160322343132
100
AcDbArc
 50
322.4933001843671
 51
335.7624708418981
  0
LINE
  5
3183712F
330
318324AF
100
AcDbEntity
  8
SAISEN
100
AcDbLine
 10
723.308903875764
 20
262.4809887191463
 30
0.0
 11
723.308903875764
 21
259.9983428093342
 31
0.0
  0
LINE
  5
31837130
330
318324AF
100
AcDbEntity
  8
SAISEN
100
AcDbLine
 10
723.7089038757641
 20
262.4809887191463
 30
0.0
 11
723.7089038757641
 21
259.9983428093342
 31
0.0
  0
LINE
  5
31837131
330
318324AF
100
AcDbEntity
  8
SAISEN
100
AcDbLine
 10
723.508903875764
 20
263.5966386215659
 30
0.0
 11
723.508903875764
 21
259.7983428093342
 31
0.0
  0
LINE
  5
31837132
330
318324AF
100
AcDbEntity
  8
SAISEN
100
AcDbLine
 10
721.2416022487941
 20
263.5966386215659
 30
0.0
 11
721.2416022487941
 21
262.9752690412549
 31
0.0
  0
ARC
  5
31837133
330
318324AF
100
AcDbEntity
  8
SAISEN
100
AcDbCircle
 10
720.6502906212458
 20
262.7756528079845
 30
0.0
 40
0.2
100
AcDbArc
 50
90.0
 51
270.0
  0
LINE
  5
31837134
330
318324AF
100
AcDbEntity
  8
SAISEN
100
AcDbLine
 10
720.6502906212458
 20
262.9756528079846
 30
0.0
 11
721.2416022487941
 21
262.9752690412549
 31
0.0
  0
LINE
  5
31837135
330
318324AF
100
AcDbEntity
  8
SAISEN
100
AcDbLine
 10
721.2416022487941
 20
261.2335608485006
 30
0.0
 11
721.2416022487941
 21
259.6400804838245
 31
0.0
  0
ARC
  5
31837136
330
318324AF
100
AcDbEntity
  8
SAISEN
100
AcDbCircle
 10
720.5513766678023
 20
260.9587065106891
 30
0.0
 40
0.2
100
AcDbArc
 50
122.8785139530951
 51
302.8785139531007
  0
ARC
  5
31837137
330
318324AF
100
AcDbEntity
  8
SAISEN
100
AcDbCircle
 10
718.0758500762642
 20
264.7884363001208
 30
0.0
 40
4.760160322343132
100
AcDbArc
 50
302.8785139530821
 51
311.6862830605918
  0
LINE
  5
31837138
330
318324AF
100
AcDbEntity
  8
SAISEN
100
AcDbLine
 10
719.0569533212901
 20
259.8674138018663
 30
0.0
 11
719.4442675569119
 21
259.4783139148636
 31
0.0
  0
LINE
  5
31837139
330
318324AF
100
AcDbEntity
  8
SAISEN
100
AcDbLine
 10
718.4596673668318
 20
260.4674534492989
 30
0.0
 11
718.6820382740009
 21
260.2440573360286
 31
0.0
  0
ARC
  5
3183713A
330
318324AF
100
AcDbEntity
  8
SAISEN
100
AcDbCircle
 10
718.5772750926264
 20
260.6292200182599
 30
0.0
 40
0.2
100
AcDbArc
 50
53.98205344659047
 51
233.9820534465814
  0
LINE
  5
3183713B
330
318324AF
100
AcDbEntity
  8
SAISEN
100
AcDbLine
 10
718.5589567536035
 20
260.6471591822602
 30
0.0
 11
719.5882550376116
 21
259.6131154803634
 31
0.0
  0
LINE
  5
3183713C
330
318324AF
100
AcDbEntity
  8
SAISEN
100
AcDbLine
 10
718.6948828184211
 20
260.790986587221
 30
0.0
 11
719.7241811024289
 21
259.7569428853243
 31
0.0
  0
ARC
  5
3183713D
330
318324AF
100
AcDbEntity
  8
SAISEN
100
AcDbCircle
 10
719.5618752827065
 20
259.6400804838246
 30
0.0
 40
0.2
100
AcDbArc
 50
215.7544013538862
 51
35.75440135388954
  0
ARC
  5
3183713E
330
318324AF
100
AcDbEntity
  8
SAISEN
100
AcDbCircle
 10
719.4633231799237
 20
261.4284069257176
 30
0.0
 40
0.2
100
AcDbArc
 50
270.0
 51
90.0
  0
ARC
  5
3183713F
330
318324AF
100
AcDbEntity
  8
SAISEN
100
AcDbCircle
 10
718.6225545756535
 20
262.3779808787756
 30
0.0
 40
0.2
100
AcDbArc
 50
270.0
 51
79.64383813076079
  0
ARC
  5
31837140
330
318324AF
100
AcDbEntity
  8
SAISEN
100
AcDbCircle
 10
719.562237133367
 20
262.4078217043706
 30
0.0
 40
0.2
100
AcDbArc
 50
254.5500051430218
 51
67.16258048395857
  0
ARC
  5
31837141
330
318324AF
100
AcDbEntity
  8
SAISEN
100
AcDbCircle
 10
721.4416022487942
 20
259.6400804838245
 30
0.0
 40
0.2
100
AcDbArc
 50
180.0
 51
0.0
  0
ARC
  5
31837142
330
318324AF
100
AcDbEntity
  8
SAISEN
100
AcDbCircle
 10
721.4416022487942
 20
263.5966386215659
 30
0.0
 40
0.2
100
AcDbArc
 50
0.0
 51
180.0
  0
LINE
  5
31837143
330
318324AF
100
AcDbEntity
  8
SAISEN
100
AcDbLine
 10
720.6502906212458
 20
262.5756528079846
 30
0.0
 11
721.8327886242661
 21
262.5756528079846
 31
0.0
  0
ARC
  5
31837144
330
318324AF
100
AcDbEntity
  8
SAISEN
100
AcDbCircle
 10
718.0758500762618
 20
264.7884363001224
 30
0.0
 40
4.360160322345875
100
AcDbArc
 50
302.8785139530977
 51
329.5025185277317
  0
ARC
  5
31837145
330
318324AF
100
AcDbEntity
  8
SAISEN
100
AcDbCircle
 10
718.1797929546758
 20
264.6206374087682
 30
0.0
 40
4.360160322345875
100
AcDbArc
 50
302.8785139530977
 51
334.9666295207256
  0
LINE
  5
31837146
330
318324AF
100
AcDbEntity
  8
SAISEN
100
AcDbLine
 10
720.6502906212458
 20
262.7756528079845
 30
0.0
 11
722.2035611559883
 21
262.7756528079845
 31
0.0
  0
ARC
  5
31837147
330
318324AF
100
AcDbEntity
  8
SAISEN
100
AcDbCircle
 10
717.5839580644963
 20
263.5966386215659
 30
0.0
 40
0.2
100
AcDbArc
 50
51.55800965288952
 51
128.4419903471104
  0
ARC
  5
31837148
330
318324AF
100
AcDbEntity
  8
SAISEN
100
AcDbCircle
 10
714.5571910891241
 20
262.9589194227043
 30
0.0
 40
0.2
100
AcDbArc
 50
270.7472938768268
 51
90.74729387681047
  0
ARC
  5
31837149
330
318324AF
100
AcDbEntity
  8
SAISEN
100
AcDbCircle
 10
712.4521105656063
 20
269.8961707055411
 30
0.0
 40
7.925283407336333
100
AcDbArc
 50
292.8374195160407
 51
309.1859309849252
  0
LINE
  5
3183714A
330
318324AF
100
AcDbEntity
  8
SAISEN
100
AcDbLine
 10
716.8348600172728
 20
260.1248845452719
 30
0.0
 11
717.2584769360658
 21
261.2284069257177
 31
0.0
  0
LINE
  5
3183714B
330
318324AF
100
AcDbEntity
  8
SAISEN
100
AcDbLine
 10
716.8433861328312
 20
261.2284069257177
 30
0.0
 11
716.3684952777937
 21
260.0947964975635
 31
0.0
  0
LINE
  5
3183714C
330
318324AF
100
AcDbEntity
  8
SAISEN
100
AcDbLine
 10
717.0512731283577
 20
261.2363969167157
 30
0.0
 11
716.5763822733201
 21
260.1027864885616
 31
0.0
  0
LINE
  5
3183714D
330
318324AF
100
AcDbEntity
  8
SAISEN
100
AcDbLine
 10
714.8165394611903
 20
260.8270479251469
 30
0.0
 11
714.8165394611903
 21
260.6426289054339
 31
0.0
  0
ARC
  5
3183714E
330
318324AF
100
AcDbEntity
  8
SAISEN
100
AcDbCircle
 10
713.9192889316761
 20
260.1649426041577
 30
0.0
 40
0.8
100
AcDbArc
 50
313.1105487457624
 51
334.7276671366933
  0
ARC
  5
3183714F
330
318324AF
100
AcDbEntity
  8
SAISEN
100
AcDbCircle
 10
711.3698543446408
 20
260.9458807930694
 30
0.0
 40
3.459999999999999
100
AcDbArc
 50
341.0698757630186
 51
354.9718568203695
  0
ARC
  5
31837150
330
318324AF
100
AcDbEntity
  8
SAISEN
100
AcDbCircle
 10
714.6165394611905
 20
260.8270479251469
 30
0.0
 40
0.2
100
AcDbArc
 50
0.0
 51
165.703814290577
  0
ARC
  5
31837151
330
318324AF
100
AcDbEntity
  8
SAISEN
100
AcDbCircle
 10
715.9024208559563
 20
259.8643113791611
 30
0.0
 40
0.2
100
AcDbArc
 50
93.69138598645191
 51
273.6913859864519
  0
ARC
  5
31837152
330
318324AF
100
AcDbEntity
  8
SAISEN
100
AcDbCircle
 10
715.7045929490693
 20
261.4284069257176
 30
0.0
 40
0.2
100
AcDbArc
 50
90.0
 51
270.0
  0
ARC
  5
31837153
330
318324AF
100
AcDbEntity
  8
SAISEN
100
AcDbCircle
 10
709.9843139469567
 20
261.2365817464482
 30
0.0
 40
4.639999999999999
100
AcDbArc
 50
346.9855123116682
 51
355.0676815097338
  0
LINE
  5
31837154
330
318324AF
100
AcDbEntity
  8
SAISEN
100
AcDbLine
 10
714.4261470401889
 20
259.981027905946
 30
0.0
 11
714.5037886406441
 21
260.1750048197054
 31
0.0
  0
LINE
  5
31837155
330
318324AF
100
AcDbEntity
  8
SAISEN
100
AcDbLine
 10
716.8433861328312
 20
261.2284069257177
 30
0.0
 11
715.7045929490693
 21
261.2284069257177
 31
0.0
  0
LINE
  5
31837156
330
318324AF
100
AcDbEntity
  8
SAISEN
100
AcDbLine
 10
715.8895444003567
 20
260.0638964409547
 30
0.0
 11
716.3684952777937
 21
260.0947964975635
 31
0.0
  0
ARC
  5
31837157
330
318324AF
100
AcDbEntity
  8
SAISEN
100
AcDbCircle
 10
716.5453615533392
 20
262.3779808787757
 30
0.0
 40
0.2
100
AcDbArc
 50
100.3561618732414
 51
270.0
  0
ARC
  5
31837158
330
318324AF
100
AcDbEntity
  8
SAISEN
100
AcDbCircle
 10
715.6056789956258
 20
262.4078217043706
 30
0.0
 40
0.2
100
AcDbArc
 50
112.8374195160451
 51
285.4499948569614
  0
ARC
  5
31837159
330
318324AF
100
AcDbEntity
  8
SAISEN
100
AcDbCircle
 10
712.3406285933729
 20
269.8083337408203
 30
0.0
 40
8.28669328290189
100
AcDbArc
 50
293.6057361470537
 51
309.2526292781167
  0
ARC
  5
3183715A
330
318324AF
100
AcDbEntity
  8
SAISEN
100
AcDbCircle
 10
712.5160756997145
 20
269.7203818231888
 30
0.0
 40
7.925283407336333
100
AcDbArc
 50
292.8374195160407
 51
309.1859309849252
  0
ARC
  5
3183715B
330
318324AF
100
AcDbEntity
  8
SAISEN
100
AcDbCircle
 10
714.2703406241381
 20
263.4240904667503
 30
0.0
 40
0.14
100
AcDbArc
 50
254.4100633419911
 51
74.41006334199426
  0
ARC
  5
3183715C
330
318324AF
100
AcDbEntity
  8
SAISEN
100
AcDbCircle
 10
714.691961642586
 20
264.9351919031737
 30
0.0
 40
1.708818611043934
100
AcDbArc
 50
235.2552093093071
 51
254.4100633419976
  0
ARC
  5
3183715D
330
318324AF
100
AcDbEntity
  8
SAISEN
100
AcDbCircle
 10
714.691961642586
 20
264.9351919031737
 30
0.0
 40
1.428818611043933
100
AcDbArc
 50
235.2552093093074
 51
254.4100633419982
  0
LINE
  5
3183715E
330
318324AF
100
AcDbEntity
  8
SAISEN
100
AcDbLine
 10
713.7978573136138
 20
263.6460955982876
 30
0.0
 11
714.2703406241381
 21
263.4240904667503
 31
0.0
  0
ARC
  5
3183715F
330
318324AF
100
AcDbEntity
  8
SAISEN
100
AcDbCircle
 10
713.0569559667961
 20
263.5966386215659
 30
0.0
 40
0.2
100
AcDbArc
 50
4.280346437774319
 51
184.2803464377743
  0
LINE
  5
31837160
330
318324AF
100
AcDbEntity
  8
SAISEN
100
AcDbLine
 10
713.2563981255989
 20
263.6115659552869
 30
0.0
 11
713.291510989223
 21
263.142427564345
 31
0.0
  0
LINE
  5
31837161
330
318324AF
100
AcDbEntity
  8
SAISEN
100
AcDbLine
 10
712.8907833944524
 20
263.1372006826741
 30
0.0
 11
712.857513807993
 21
263.5817112878448
 31
0.0
  0
ARC
  5
31837162
330
318324AF
100
AcDbEntity
  8
SAISEN
100
AcDbCircle
 10
713.7978573136138
 20
263.6460955982876
 30
0.0
 40
0.14
100
AcDbArc
 50
55.25520930929936
 51
235.2552093093122
  0
ARC
  5
31837163
330
318324AF
100
AcDbEntity
  8
SAISEN
100
AcDbCircle
 10
714.1738886542248
 20
260.2940074075633
 30
0.0
 40
0.16
100
AcDbArc
 50
228.6700141633633
 51
336.5989012719083
  0
ARC
  5
31837164
330
318324AF
100
AcDbEntity
  8
SAISEN
100
AcDbCircle
 10
714.5101998556385
 20
260.684038027018
 30
0.0
 40
1.179999999999999
100
AcDbArc
 50
239.1259188682699
 51
258.2665070817582
  0
ARC
  5
31837165
330
318324AF
100
AcDbEntity
  8
SAISEN
100
AcDbCircle
 10
714.1635086803606
 20
260.1012206433417
 30
0.0
 40
0.5
100
AcDbArc
 50
225.0730467242681
 51
238.9531630610385
  0
LINE
  5
31837166
330
318324AF
100
AcDbEntity
  8
SAISEN
100
AcDbLine
 10
713.9797078375711
 20
259.9131360618001
 30
0.0
 11
714.1932222388231
 21
259.8646414550104
 31
0.0
  0
LINE
  5
31837167
330
318324AF
100
AcDbEntity
  8
SAISEN
100
AcDbLine
 10
714.0670546380833
 20
259.7676529981307
 30
0.0
 11
714.319389839563
 21
259.6997611539849
 31
0.0
  0
ARC
  5
31837168
330
318324AF
100
AcDbEntity
  8
SAISEN
100
AcDbCircle
 10
717.3366731808876
 20
262.4096711802435
 30
0.0
 40
3.959999999999999
100
AcDbArc
 50
199.6127606482544
 51
214.3744272003667
  0
ARC
  5
31837169
330
318324AF
100
AcDbEntity
  8
SAISEN
100
AcDbCircle
 10
717.7067605505233
 20
262.3396719503838
 30
0.0
 40
4.679999999999999
100
AcDbArc
 50
188.1970387230629
 51
213.6379702656438
  0
ARC
  5
3183716A
330
318324AF
100
AcDbEntity
  8
SAISEN
100
AcDbCircle
 10
717.8620437514337
 20
262.514251626787
 30
0.0
 40
4.679999999999999
100
AcDbArc
 50
195.2891069285951
 51
213.6379702656438
  0
LINE
  5
3183716B
330
318324AF
100
AcDbEntity
  8
SAISEN
100
AcDbLine
 10
711.8458862750546
 20
260.3035461357888
 30
0.0
 11
711.8458862750544
 21
261.742033758236
 31
0.0
  0
LINE
  5
3183716C
330
318324AF
100
AcDbEntity
  8
SAISEN
100
AcDbLine
 10
711.8458862750546
 20
260.3035461357888
 30
0.0
 11
712.4327752436061
 21
260.4200143346258
 31
0.0
  0
LINE
  5
3183716D
330
318324AF
100
AcDbEntity
  8
SAISEN
100
AcDbLine
 10
711.8458862750544
 20
261.742033758236
 30
0.0
 11
712.4131059257922
 21
261.7518218733361
 31
0.0
  0
ARC
  5
3183716E
330
318324AF
100
AcDbEntity
  8
SAISEN
100
AcDbCircle
 10
712.4107582993997
 20
261.9318065633803
 30
0.0
 40
0.18
100
AcDbArc
 50
270.7472938768304
 51
90.74729387682133
  0
LINE
  5
3183716F
330
318324AF
100
AcDbEntity
  8
SAISEN
100
AcDbLine
 10
711.4524025543933
 20
261.735243683275
 30
0.0
 11
711.4524025543933
 21
260.2254592357571
 31
0.0
  0
LINE
  5
31837170
330
318324AF
100
AcDbEntity
  8
SAISEN
100
AcDbLine
 10
711.6310481851021
 20
261.9208008270386
 30
0.0
 11
711.6310481851021
 21
260.0780163628257
 31
0.0
  0
ARC
  5
31837171
330
318324AF
100
AcDbEntity
  8
SAISEN
100
AcDbCircle
 10
712.4837420895494
 20
260.2266173837331
 30
0.0
 40
0.2
100
AcDbArc
 50
294.9220052137643
 51
104.7637627083263
  0
ARC
  5
31837172
330
318324AF
100
AcDbEntity
  8
SAISEN
100
AcDbCircle
 10
726.4552848895934
 20
264.1048053825079
 30
0.0
 40
13.6
100
AcDbArc
 50
185.7696702748553
 51
190.3029430131223
  0
ARC
  5
31837173
330
318324AF
100
AcDbEntity
  8
SAISEN
100
AcDbCircle
 10
726.4552848895935
 20
264.104805382508
 30
0.0
 40
13.2
100
AcDbArc
 50
185.9222725457115
 51
193.2451308304553
  0
LINE
  5
31837174
330
318324AF
100
AcDbEntity
  8
SAISEN
100
AcDbLine
 10
713.0569559667961
 20
263.5966386215659
 30
0.0
 11
713.3585737952312
 21
261.1933862653912
 31
0.0
  0
ARC
  5
31837175
330
318324AF
100
AcDbEntity
  8
SAISEN
100
AcDbCircle
 10
709.7999151458755
 20
261.2753769778602
 30
0.0
 40
4.639999999999999
100
AcDbArc
 50
346.9855123116682
 51
355.0676815097338
  0
ARC
  5
31837176
330
318324AF
100
AcDbEntity
  8
SAISEN
100
AcDbCircle
 10
714.3169293824524
 20
259.7441421165862
 30
0.0
 40
0.22
100
AcDbArc
 50
257.6391813438886
 51
312.5107582051346
  0
LINE
  5
31837177
330
318324AF
100
AcDbEntity
  8
SAISEN
100
AcDbLine
 10
714.1932222388231
 20
259.8646414550104
 30
0.0
 11
714.4261470401889
 21
259.981027905946
 31
0.0
  0
LINE
  5
31837178
330
318324AF
100
AcDbEntity
  8
SAISEN
100
AcDbLine
 10
714.319389839563
 20
259.6997611539849
 30
0.0
 11
714.4843782405303
 21
259.8646414550104
 31
0.0
  0
LINE
  5
31837179
330
318324AF
100
AcDbEntity
  8
SAISEN
100
AcDbLine
 10
713.291510989223
 20
263.142427564345
 30
0.0
 11
714.5545826153557
 21
263.1589024116424
 31
0.0
  0
LINE
  5
3183717A
330
318324AF
100
AcDbEntity
  8
SAISEN
100
AcDbLine
 10
714.5597995628929
 20
262.7589364337662
 30
0.0
 11
713.3257361474343
 21
262.7428399544342
 31
0.0
  0
ARC
  5
3183717B
330
318324AF
100
AcDbEntity
  8
SAISEN
100
AcDbCircle
 10
710.659981323449
 20
262.9080862518477
 30
0.0
 40
0.2
100
AcDbArc
 50
90.74729387682674
 51
270.7472938768268
  0
ARC
  5
3183717C
330
318324AF
100
AcDbEntity
  8
SAISEN
100
AcDbCircle
 10
709.4927966728155
 20
262.9635893195272
 30
0.0
 40
0.2
100
AcDbArc
 50
270.0
 51
90.0
  0
LINE
  5
3183717D
330
318324AF
100
AcDbEntity
  8
SAISEN
100
AcDbLine
 10
708.5552862082147
 20
263.1635893195273
 30
0.0
 11
708.5552862082147
 21
263.6164214122546
 31
0.0
  0
LINE
  5
3183717E
330
318324AF
100
AcDbEntity
  8
SAISEN
100
AcDbLine
 10
708.1552862082149
 20
263.6164214122546
 30
0.0
 11
708.1552862082149
 21
263.1635893195273
 31
0.0
  0
LINE
  5
3183717F
330
318324AF
100
AcDbEntity
  8
SAISEN
100
AcDbLine
 10
708.1552862082149
 20
263.1635893195273
 30
0.0
 11
707.5812316711306
 21
263.1635893195273
 31
0.0
  0
LINE
  5
31837180
330
318324AF
100
AcDbEntity
  8
SAISEN
100
AcDbLine
 10
708.1552862082149
 20
262.7635893195273
 30
0.0
 11
707.4349700417476
 21
262.7635893195273
 31
0.0
  0
ARC
  5
31837181
330
318324AF
100
AcDbEntity
  8
SAISEN
100
AcDbCircle
 10
704.3334448612001
 20
264.1244152160114
 30
0.0
 40
3.386931585685115
100
AcDbArc
 50
343.5196649963716
 51
349.0217472925343
  0
ARC
  5
31837182
330
318324AF
100
AcDbEntity
  8
SAISEN
100
AcDbCircle
 10
708.3552862082149
 20
263.6164214122546
 30
0.0
 40
0.2
100
AcDbArc
 50
0.0
 51
180.0
  0
LINE
  5
31837183
330
318324AF
100
AcDbEntity
  8
SAISEN
100
AcDbLine
 10
709.4927966728155
 20
262.7635893195273
 30
0.0
 11
708.5552862082147
 21
262.7635893195273
 31
0.0
  0
LINE
  5
31837184
330
318324AF
100
AcDbEntity
  8
SAISEN
100
AcDbLine
 10
709.4927966728155
 20
263.1635893195273
 30
0.0
 11
708.5552862082147
 21
263.1635893195273
 31
0.0
  0
ARC
  5
31837185
330
318324AF
100
AcDbEntity
  8
SAISEN
100
AcDbCircle
 10
710.6610407663112
 20
259.8647436597436
 30
0.0
 40
0.2
100
AcDbArc
 50
98.49991033237312
 51
281.4791494176519
  0
ARC
  5
31837186
330
318324AF
100
AcDbEntity
  8
SAISEN
100
AcDbCircle
 10
710.6496656616652
 20
261.9014166122959
 30
0.0
 40
0.18
100
AcDbArc
 50
90.74729387682133
 51
271.2299367324829
  0
ARC
  5
31837187
330
318324AF
100
AcDbEntity
  8
SAISEN
100
AcDbCircle
 10
709.6906245797024
 20
259.8291924868715
 30
0.0
 40
0.2
100
AcDbArc
 50
225.3643482129409
 51
45.36434821294096
  0
ARC
  5
31837188
330
318324AF
100
AcDbEntity
  8
SAISEN
100
AcDbCircle
 10
709.5521450448816
 20
261.974449785092
 30
0.0
 40
0.2
100
AcDbArc
 50
270.0
 51
90.0
  0
LINE
  5
31837189
330
318324AF
100
AcDbEntity
  8
SAISEN
100
AcDbLine
 10
708.5552862082147
 20
261.6781045444099
 30
0.0
 11
708.5552862082147
 21
261.7744497850919
 31
0.0
  0
LINE
  5
3183718A
330
318324AF
100
AcDbEntity
  8
SAISEN
100
AcDbLine
 10
708.1552862082149
 20
260.8980845226164
 30
0.0
 11
708.1552862082149
 21
259.6202976931359
 31
0.0
  0
LINE
  5
3183718B
330
318324AF
100
AcDbEntity
  8
SAISEN
100
AcDbLine
 10
708.1552862082149
 20
261.7744497850919
 30
0.0
 11
708.1552862082149
 21
261.6781045444099
 31
0.0
  0
LINE
  5
3183718C
330
318324AF
100
AcDbEntity
  8
SAISEN
100
AcDbLine
 10
708.5552862082147
 20
259.6202976931359
 30
0.0
 11
708.5552862082147
 21
260.8980845226164
 31
0.0
  0
ARC
  5
3183718D
330
318324AF
100
AcDbEntity
  8
SAISEN
100
AcDbCircle
 10
708.3552862082149
 20
259.6202976931359
 30
0.0
 40
0.2
100
AcDbArc
 50
180.0
 51
0.0
  0
ARC
  5
3183718E
330
318324AF
100
AcDbEntity
  8
SAISEN
100
AcDbCircle
 10
714.8471302044529
 20
265.0516999335807
 30
0.0
 40
7.539218915457878
100
AcDbArc
 50
213.4311436443713
 51
225.3643482129403
  0
ARC
  5
3183718F
330
318324AF
100
AcDbEntity
  8
SAISEN
100
AcDbCircle
 10
714.8471302044529
 20
265.0516999335807
 30
0.0
 40
7.139218915457866
100
AcDbArc
 50
208.1995631680902
 51
225.3643482129403
  0
LINE
  5
31837190
330
318324AF
100
AcDbEntity
  8
SAISEN
100
AcDbLine
 10
708.5552862082147
 20
262.174449785092
 30
0.0
 11
709.5521450448816
 21
262.174449785092
 31
0.0
  0
LINE
  5
31837191
330
318324AF
100
AcDbEntity
  8
SAISEN
100
AcDbLine
 10
709.5521450448816
 20
261.7744497850919
 30
0.0
 11
708.5552862082147
 21
261.7744497850919
 31
0.0
  0
ARC
  5
31837192
330
318324AF
100
AcDbEntity
  8
SAISEN
100
AcDbCircle
 10
714.7271176948532
 20
264.9099595060962
 30
0.0
 40
7.139218915457866
100
AcDbArc
 50
208.1995631680902
 51
225.3643482129403
  0
LINE
  5
31837193
330
318324AF
100
AcDbEntity
  8
SAISEN
100
AcDbLine
 10
708.1552862082149
 20
262.7635893195273
 30
0.0
 11
708.1552862082149
 21
262.174449785092
 31
0.0
  0
LINE
  5
31837194
330
318324AF
100
AcDbEntity
  8
SAISEN
100
AcDbLine
 10
708.5552862082147
 20
262.174449785092
 30
0.0
 11
708.5552862082147
 21
262.7635893195273
 31
0.0
  0
LINE
  5
31837195
330
318324AF
100
AcDbEntity
  8
SAISEN
100
AcDbLine
 10
708.3552862082149
 20
263.6164214122546
 30
0.0
 11
708.3552862082149
 21
259.6202976931359
 31
0.0
  0
ARC
  5
31837196
330
318324AF
100
AcDbEntity
  8
SAISEN
100
AcDbCircle
 10
704.3334448612001
 20
264.1244152160114
 30
0.0
 40
2.986931585685118
100
AcDbArc
 50
331.9804593803295
 51
349.0217472925337
  0
LINE
  5
31837197
330
318324AF
100
AcDbEntity
  8
SAISEN
100
AcDbLine
 10
706.4187448138345
 20
262.985544203329
 30
0.0
 11
706.4187448138345
 21
263.6164214122546
 31
0.0
  0
LINE
  5
31837198
330
318324AF
100
AcDbEntity
  8
SAISEN
100
AcDbLine
 10
706.4187448138345
 20
262.985544203329
 30
0.0
 11
706.7133145810523
 21
262.985544203329
 31
0.0
  0
LINE
  5
31837199
330
318324AF
100
AcDbEntity
  8
SAISEN
100
AcDbLine
 10
706.7133145810523
 20
262.585544203329
 30
0.0
 11
706.4187448138345
 21
262.585544203329
 31
0.0
  0
LINE
  5
3183719A
330
318324AF
100
AcDbEntity
  8
SAISEN
100
AcDbLine
 10
706.4187448138345
 20
262.4923510850799
 30
0.0
 11
706.4187448138345
 21
262.585544203329
 31
0.0
  0
ARC
  5
3183719B
330
318324AF
100
AcDbEntity
  8
SAISEN
100
AcDbCircle
 10
707.1468280024576
 20
262.6272818778193
 30
0.0
 40
0.2
100
AcDbArc
 50
151.9804593803337
 51
331.9804593803337
  0
ARC
  5
3183719C
330
318324AF
100
AcDbEntity
  8
SAISEN
100
AcDbCircle
 10
706.7133145810523
 20
262.7855442033289
 30
0.0
 40
0.2
100
AcDbArc
 50
270.0
 51
90.0
  0
LINE
  5
3183719D
330
318324AF
100
AcDbEntity
  8
SAISEN
100
AcDbLine
 10
706.0187448138346
 20
263.6164214122546
 30
0.0
 11
706.0187448138346
 21
262.9855442033289
 31
0.0
  0
LINE
  5
3183719E
330
318324AF
100
AcDbEntity
  8
SAISEN
100
AcDbLine
 10
706.0187448138346
 20
262.5855442033289
 30
0.0
 11
706.0187448138346
 21
262.5000046657243
 31
0.0
  0
ARC
  5
3183719F
330
318324AF
100
AcDbEntity
  8
SAISEN
100
AcDbCircle
 10
706.2187448138345
 20
263.6164214122546
 30
0.0
 40
0.2
100
AcDbArc
 50
0.0
 51
180.0
  0
ARC
  5
318371A0
330
318324AF
100
AcDbEntity
  8
SAISEN
100
AcDbCircle
 10
705.5856955117958
 20
262.7855442033289
 30
0.0
 40
0.2
100
AcDbArc
 50
90.0
 51
270.0
  0
LINE
  5
318371A1
330
318324AF
100
AcDbEntity
  8
SAISEN
100
AcDbLine
 10
706.0187448138346
 20
262.5855442033289
 30
0.0
 11
705.5856955117958
 21
262.5855442033289
 31
0.0
  0
LINE
  5
318371A2
330
318324AF
100
AcDbEntity
  8
SAISEN
100
AcDbLine
 10
705.5856955117958
 20
262.9855442033289
 30
0.0
 11
706.0187448138346
 21
262.9855442033289
 31
0.0
  0
LINE
  5
318371A3
330
318324AF
100
AcDbEntity
  8
SAISEN
100
AcDbLine
 10
705.5856955117958
 20
262.7855442033289
 30
0.0
 11
706.7133145810523
 21
262.7855442033289
 31
0.0
  0
ARC
  5
318371A4
330
318324AF
100
AcDbEntity
  8
SAISEN
100
AcDbCircle
 10
713.2087512243709
 20
265.4814803544292
 30
0.0
 40
7.818832849175443
100
AcDbArc
 50
209.7248115755767
 51
213.9853002248277
  0
LINE
  5
318371A5
330
318324AF
100
AcDbEntity
  8
SAISEN
100
AcDbLine
 10
706.4187448138345
 20
259.6202976931359
 30
0.0
 11
706.4187448138345
 21
261.6046311094596
 31
0.0
  0
ARC
  5
318371A6
330
318324AF
100
AcDbEntity
  8
SAISEN
100
AcDbCircle
 10
706.8913596959885
 20
261.2227037389211
 30
0.0
 40
0.2
100
AcDbArc
 50
213.9853002248293
 51
33.98530022482029
  0
ARC
  5
318371A7
330
318324AF
100
AcDbEntity
  8
SAISEN
100
AcDbCircle
 10
707.008715186673
 20
259.818125600023
 30
0.0
 40
0.2
100
AcDbArc
 50
134.5125496142205
 51
314.5125496142204
  0
ARC
  5
318371A8
330
318324AF
100
AcDbEntity
  8
SAISEN
100
AcDbCircle
 10
707.296906906369
 20
261.974449785092
 30
0.0
 40
0.2
100
AcDbArc
 50
90.00000000000406
 51
269.9999999999959
  0
ARC
  5
318371A9
330
318324AF
100
AcDbEntity
  8
SAISEN
100
AcDbCircle
 10
700.8732280050174
 20
263.6440697801325
 30
0.0
 40
5.67034476745378
100
AcDbArc
 50
328.3139559024094
 51
335.1544021915958
  0
LINE
  5
318371AA
330
318324AF
100
AcDbEntity
  8
SAISEN
100
AcDbLine
 10
706.0187448138346
 20
261.2615361388229
 30
0.0
 11
706.0187448138346
 21
259.6202976931359
 31
0.0
  0
ARC
  5
318371AB
330
318324AF
100
AcDbEntity
  8
SAISEN
100
AcDbCircle
 10
706.2187448138345
 20
259.6202976931359
 30
0.0
 40
0.2
100
AcDbArc
 50
180.0
 51
0.0
  0
ARC
  5
318371AC
330
318324AF
100
AcDbEntity
  8
SAISEN
100
AcDbCircle
 10
704.3282797679516
 20
261.6183595526952
 30
0.0
 40
0.2
100
AcDbArc
 50
270.0
 51
90.0
  0
ARC
  5
318371AD
330
318324AF
100
AcDbEntity
  8
SAISEN
100
AcDbCircle
 10
705.5263471397299
 20
260.7677003680719
 30
0.0
 40
0.2
100
AcDbArc
 50
143.2672556023236
 51
329.3159127459409
  0
ARC
  5
318371AE
330
318324AF
100
AcDbEntity
  8
SAISEN
100
AcDbCircle
 10
713.2087512243709
 20
265.4814803544292
 30
0.0
 40
7.418832849175436
100
AcDbArc
 50
203.7602849504221
 51
213.9853002248279
  0
ARC
  5
318371AF
330
318324AF
100
AcDbEntity
  8
SAISEN
100
AcDbCircle
 10
700.8732280050174
 20
263.6440697801325
 30
0.0
 40
5.271169530173041
100
AcDbArc
 50
328.4671771623674
 51
347.4646461118934
  0
LINE
  5
318371B0
330
318324AF
100
AcDbEntity
  8
SAISEN
100
AcDbLine
 10
706.2187448138345
 20
263.6164214122546
 30
0.0
 11
706.2187448138345
 21
259.6202976931359
 31
0.0
  0
ARC
  5
318371B1
330
318324AF
100
AcDbEntity
  8
SAISEN
100
AcDbCircle
 10
701.025971874707
 20
263.5023301093475
 30
0.0
 40
5.271169530173041
100
AcDbArc
 50
328.4671771623674
 51
347.4646461118934
  0
ARC
  5
318371B2
330
318324AF
100
AcDbEntity
  8
SAISEN
100
AcDbCircle
 10
713.0669178080445
 20
265.3506432113743
 30
0.0
 40
7.418832849175436
100
AcDbArc
 50
203.7602849504221
 51
213.9853002248279
  0
ARC
  5
318371B3
330
318324AF
100
AcDbEntity
  8
SAISEN
100
AcDbCircle
 10
707.4620541218921
 20
263.5175074588111
 30
0.0
 40
0.2
100
AcDbArc
 50
349.0217472925427
 51
169.0217472925339
  0
ARC
  5
318371B4
330
318324AF
100
AcDbEntity
  8
SAISEN
100
AcDbCircle
 10
701.8634422119768
 20
265.0516999335806
 30
0.0
 40
7.53921891545777
100
AcDbArc
 50
314.5125496142203
 51
326.5688563556289
  0
ARC
  5
318371B5
330
318324AF
100
AcDbEntity
  8
SAISEN
100
AcDbCircle
 10
701.8634422119768
 20
265.0516999335806
 30
0.0
 40
7.139218915457766
100
AcDbArc
 50
314.5125496142203
 51
331.8004368319099
  0
LINE
  5
318371B6
330
318324AF
100
AcDbEntity
  8
SAISEN
100
AcDbLine
 10
708.1552862082149
 20
261.7744497850919
 30
0.0
 11
707.296906906369
 21
261.7744497850919
 31
0.0
  0
ARC
  5
318371B7
330
318324AF
100
AcDbEntity
  8
SAISEN
100
AcDbCircle
 10
704.3334448612001
 20
264.1244152160114
 30
0.0
 40
3.386931585685115
100
AcDbArc
 50
331.9804593803298
 51
336.3100448298412
  0
LINE
  5
318371B8
330
318324AF
100
AcDbEntity
  8
SAISEN
100
AcDbLine
 10
707.296906906369
 20
262.174449785092
 30
0.0
 11
708.1552862082149
 21
262.174449785092
 31
0.0
  0
LINE
  5
318371B9
330
318324AF
100
AcDbEntity
  8
SAISEN
100
AcDbLine
 10
709.5521450448816
 20
261.974449785092
 30
0.0
 11
707.296906906369
 21
261.974449785092
 31
0.0
  0
LINE
  5
318371BA
330
318324AF
100
AcDbEntity
  8
SAISEN
100
AcDbLine
 10
709.4927966728155
 20
262.9635893195272
 30
0.0
 11
707.3328473358032
 21
262.9598053634205
 31
0.0
  0
ARC
  5
318371BB
330
318324AF
100
AcDbEntity
  8
SAISEN
100
AcDbCircle
 10
704.5189188522813
 20
264.0589962661341
 30
0.0
 40
2.986931585685118
100
AcDbArc
 50
331.9804593803295
 51
349.0217472925337
  0
ARC
  5
318371BC
330
318324AF
100
AcDbEntity
  8
SAISEN
100
AcDbCircle
 10
701.9943651749397
 20
264.9208627905256
 30
0.0
 40
7.139218915457766
100
AcDbArc
 50
314.5125496142203
 51
331.8004368319099
  0
LINE
  5
318371BD
330
318324AF
100
AcDbEntity
  8
SAISEN
100
AcDbLine
 10
710.6314791936465
 20
260.06254687868
 30
0.0
 11
711.4524025543933
 21
260.2254592357571
 31
0.0
  0
LINE
  5
318371BE
330
318324AF
100
AcDbEntity
  8
SAISEN
100
AcDbLine
 10
710.6520132880578
 20
261.7214319222517
 30
0.0
 11
711.4524025543933
 21
261.735243683275
 31
0.0
  0
LINE
  5
318371BF
330
318324AF
100
AcDbEntity
  8
SAISEN
100
AcDbLine
 10
712.5680189184984
 20
260.0452409351453
 30
0.0
 11
710.7008430294188
 21
259.6687442213477
 31
0.0
  0
LINE
  5
318371C0
330
318324AF
100
AcDbEntity
  8
SAISEN
100
AcDbLine
 10
710.6573728496803
 20
263.1080692407857
 30
0.0
 11
712.8907833944524
 21
263.1372006826741
 31
0.0
  0
LINE
  5
318371C1
330
318324AF
100
AcDbEntity
  8
SAISEN
100
AcDbLine
 10
712.9241816199123
 20
262.7376022866839
 30
0.0
 11
710.6625897972178
 21
262.7081032629096
 31
0.0
  0
LINE
  5
318371C2
330
318324AF
100
AcDbEntity
  8
SAISEN
100
AcDbLine
 10
710.6473180352734
 20
262.0814013023401
 30
0.0
 11
712.4084106730078
 21
262.1117912534245
 31
0.0
  0
LINE
  5
318371C3
330
318324AF
100
AcDbEntity
  8
SAISEN
100
AcDbLine
 10
710.6496656616652
 20
261.9014166122959
 30
0.0
 11
712.4107582993997
 21
261.9318065633803
 31
0.0
  0
LINE
  5
318371C4
330
318324AF
100
AcDbEntity
  8
SAISEN
100
AcDbLine
 10
710.6610407663112
 20
259.8647436597436
 30
0.0
 11
712.4837420895494
 21
260.2266173837331
 31
0.0
  0
LINE
  5
318371C5
330
318324AF
100
AcDbEntity
  8
SAISEN
100
AcDbLine
 10
710.659981323449
 20
262.9080862518477
 30
0.0
 11
714.5571910891241
 21
262.9589194227043
 31
0.0
  0
ARC
  5
318371C6
330
318324AF
100
AcDbEntity
  8
SAISEN
100
AcDbCircle
 10
722.7158055633865
 20
269.8961707055413
 30
0.0
 40
7.925291662835922
100
AcDbArc
 50
230.8140697900567
 51
247.1625804839607
  0
ARC
  5
318371C7
330
318324AF
100
AcDbEntity
  8
SAISEN
100
AcDbCircle
 10
722.8272875356199
 20
269.8083337408204
 30
0.0
 40
8.286693282901969
100
AcDbArc
 50
230.7473707218835
 51
246.3942638529459
  0
ARC
  5
318371C8
330
318324AF
100
AcDbEntity
  8
SAISEN
100
AcDbCircle
 10
722.627854278174
 20
269.7363625618848
 30
0.0
 40
7.925291662835922
100
AcDbArc
 50
230.8140697900567
 51
247.1625804839607
  0
LINE
  5
318371C9
330
318324AF
100
AcDbEntity
  8
SAISEN
100
AcDbLine
 10
716.5094082448174
 20
262.5747227391062
 30
0.0
 11
718.6585078841751
 21
262.5747227391062
 31
0.0
  0
LINE
  5
318371CA
330
318324AF
100
AcDbEntity
  8
SAISEN
100
AcDbLine
 10
716.8348600172728
 20
260.1248845452719
 30
0.0
 11
718.6820382740009
 21
260.2440573360286
 31
0.0
  0
LINE
  5
318371CB
330
318324AF
100
AcDbEntity
  8
SAISEN
100
AcDbLine
 10
715.7045929490693
 20
261.6284069257177
 30
0.0
 11
719.4633231799237
 21
261.6284069257177
 31
0.0
  0
LINE
  5
318371CC
330
318324AF
100
AcDbEntity
  8
SAISEN
100
AcDbLine
 10
719.4633231799237
 20
261.2284069257177
 30
0.0
 11
717.2584769360658
 21
261.2284069257177
 31
0.0
  0
LINE
  5
318371CD
330
318324AF
100
AcDbEntity
  8
SAISEN
100
AcDbLine
 10
719.0569533212901
 20
259.8674138018663
 30
0.0
 11
715.9152973115558
 21
259.6647263173673
 31
0.0
  0
LINE
  5
318371CE
330
318324AF
100
AcDbEntity
  8
SAISEN
100
AcDbLine
 10
718.6225545756535
 20
262.1779808787756
 30
0.0
 11
716.5453615533395
 21
262.1779808787756
 31
0.0
  0
LINE
  5
318371CF
330
318324AF
100
AcDbEntity
  8
SAISEN
100
AcDbLine
 10
716.5094082448174
 20
262.3829523613587
 30
0.0
 11
718.6585078841751
 21
262.3829523613587
 31
0.0
  0
LINE
  5
318371D0
330
318324AF
100
AcDbEntity
  8
SAISEN
100
AcDbLine
 10
715.71258874567
 20
261.4286465569721
 30
0.0
 11
719.4713189765243
 21
261.4286465569721
 31
0.0
  0
LINE
  5
318371D1
330
318324AF
100
AcDbEntity
  8
SAISEN
100
AcDbLine
 10
719.0249701348868
 20
260.0591841796139
 30
0.0
 11
715.8833141251527
 21
259.8564966951148
 31
0.0
  0
ARC
  5
318371D2
330
318324AF
100
AcDbEntity
  8
SAISEN
100
AcDbCircle
 10
698.4747477565425
 20
263.3394623426127
 30
0.0
 40
0.2
100
AcDbArc
 50
270.0
 51
90.0
  0
LINE
  5
318371D3
330
318324AF
100
AcDbEntity
  8
SAISEN
100
AcDbLine
 10
699.0714896168729
 20
262.0931465292242
 30
0.0
 11
699.0714896168729
 21
261.9778232464582
 31
0.0
  0
ARC
  5
318371D4
330
318324AF
100
AcDbEntity
  8
SAISEN
100
AcDbCircle
 10
700.3717216302105
 20
261.6183595526952
 30
0.0
 40
0.2
100
AcDbArc
 50
90.0
 51
270.0
  0
ARC
  5
318371D5
330
318324AF
100
AcDbEntity
  8
SAISEN
100
AcDbCircle
 10
698.4506223576848
 20
261.7964046688936
 30
0.0
 40
0.2
100
AcDbArc
 50
6.238111700189068
 51
90.0
  0
ARC
  5
318371D6
330
318324AF
100
AcDbEntity
  8
SAISEN
100
AcDbCircle
 10
696.6722939527697
 20
262.0990878954046
 30
0.0
 40
1.997005922588831
100
AcDbArc
 50
289.0559919991801
 51
351.9124464469893
  0
ARC
  5
318371D7
330
318324AF
100
AcDbEntity
  8
SAISEN
100
AcDbCircle
 10
696.6722939527697
 20
262.0990878954046
 30
0.0
 40
2.402258302043286
100
AcDbArc
 50
289.0210108793427
 51
357.1065115118855
  0
ARC
  5
318371D8
330
318324AF
100
AcDbEntity
  8
SAISEN
100
AcDbCircle
 10
696.8388356812254
 20
262.0066252587881
 30
0.0
 40
1.997005922588831
100
AcDbArc
 50
289.0559919991801
 51
5.527698145366789
  0
ARC
  5
318371D9
330
318324AF
100
AcDbEntity
  8
SAISEN
100
AcDbCircle
 10
698.7714896168729
 20
262.0931465292242
 30
0.0
 40
0.3
100
AcDbArc
 50
0.0
 51
90.0
  0
ARC
  5
318371DA
330
318324AF
100
AcDbEntity
  8
SAISEN
100
AcDbCircle
 10
695.5073291532364
 20
263.3394623426127
 30
0.0
 40
0.2
100
AcDbArc
 50
90.0
 51
270.0
  0
ARC
  5
318371DB
330
318324AF
100
AcDbEntity
  8
SAISEN
100
AcDbCircle
 10
693.778912417393
 20
263.1020688543482
 30
0.0
 40
0.4
100
AcDbArc
 50
347.7651295113945
 51
90.0
  0
ARC
  5
318371DC
330
318324AF
100
AcDbEntity
  8
SAISEN
100
AcDbCircle
 10
693.4432232838632
 20
262.8053269940175
 30
0.0
 40
0.3
100
AcDbArc
 50
2.778166472327038
 51
90.0
  0
ARC
  5
318371DD
330
318324AF
100
AcDbEntity
  8
SAISEN
100
AcDbCircle
 10
693.6410025024322
 20
263.0146043735391
 30
0.0
 40
0.3
100
AcDbArc
 50
2.778166472327038
 51
90.0
  0
ARC
  5
318371DE
330
318324AF
100
AcDbEntity
  8
SAISEN
100
AcDbCircle
 10
695.8040710135671
 20
259.7403791701723
 30
0.0
 40
0.2
100
AcDbArc
 50
90.0
 51
270.0
  0
ARC
  5
318371DF
330
318324AF
100
AcDbEntity
  8
SAISEN
100
AcDbCircle
 10
695.1116733394622
 20
262.1920604826677
 30
0.0
 40
0.2
100
AcDbArc
 50
90.0
 51
270.0
  0
ARC
  5
318371E0
330
318324AF
100
AcDbEntity
  8
SAISEN
100
AcDbCircle
 10
691.5744237942933
 20
263.2009828077917
 30
0.0
 40
0.3
100
AcDbArc
 50
89.88121335297497
 51
160.2957140717949
  0
ARC
  5
318371E1
330
318324AF
100
AcDbEntity
  8
SAISEN
100
AcDbCircle
 10
691.8046406557439
 20
262.8053269940176
 30
0.0
 40
0.3
100
AcDbArc
 50
90.0
 51
142.2781546378461
  0
ARC
  5
318371E2
330
318324AF
100
AcDbEntity
  8
SAISEN
100
AcDbCircle
 10
690.9150877016675
 20
259.6451092315279
 30
0.0
 40
0.2
100
AcDbArc
 50
100.8792661165328
 51
280.8792661165328
  0
ARC
  5
318371E3
330
318324AF
100
AcDbEntity
  8
SAISEN
100
AcDbCircle
 10
690.1959323139505
 20
263.3869220231645
 30
0.0
 40
4.010294928130582
100
AcDbArc
 50
280.8792661165337
 51
315.6028626151583
  0
ARC
  5
318371E4
330
318324AF
100
AcDbEntity
  8
SAISEN
100
AcDbCircle
 10
690.1959323139505
 20
263.3869220231645
 30
0.0
 40
3.610294928130592
100
AcDbArc
 50
280.8792661165338
 51
315.5729604112654
  0
ARC
  5
318371E5
330
318324AF
100
AcDbEntity
  8
SAISEN
100
AcDbCircle
 10
690.1610295159923
 20
263.6078260919259
 30
0.0
 40
4.010294928130582
100
AcDbArc
 50
280.8792661165337
 51
315.6028626151583
  0
ARC
  5
318371E6
330
318324AF
100
AcDbEntity
  8
SAISEN
100
AcDbCircle
 10
689.2938474608873
 20
264.3695677842724
 30
0.0
 40
2.263627609097051
100
AcDbArc
 50
297.2144190821763
 51
331.9050007181475
  0
ARC
  5
318371E7
330
318324AF
100
AcDbEntity
  8
SAISEN
100
AcDbCircle
 10
690.4205179344501
 20
262.1786605200763
 30
0.0
 40
0.2
100
AcDbArc
 50
117.2144190821781
 51
297.2144190821781
  0
ARC
  5
318371E8
330
318324AF
100
AcDbEntity
  8
SAISEN
100
AcDbCircle
 10
689.2938474608873
 20
264.3695677842724
 30
0.0
 40
2.663627609097051
100
AcDbArc
 50
297.2144190821765
 51
328.7046138518113
  0
ARC
  5
318371E9
330
318324AF
100
AcDbEntity
  8
SAISEN
100
AcDbCircle
 10
689.2356769567556
 20
264.5788451637939
 30
0.0
 40
2.663627609097051
100
AcDbArc
 50
297.2144190821765
 51
328.7046138518113
  0
LINE
  5
318371EA
330
318324AF
100
AcDbEntity
  8
SAISEN
100
AcDbLine
 10
691.8046406557439
 20
263.1053269940176
 30
0.0
 11
693.4432232838632
 21
263.1053269940176
 31
0.0
  0
LINE
  5
318371EB
330
318324AF
100
AcDbEntity
  8
SAISEN
100
AcDbLine
 10
693.778912417393
 20
263.5020688543483
 30
0.0
 11
691.5744237942933
 21
263.5020688543483
 31
0.0
  0
ARC
  5
318371EC
330
318324AF
100
AcDbEntity
  8
SAISEN
100
AcDbCircle
 10
690.1507671478818
 20
263.3779164136701
 30
0.0
 40
4.03644439940768
100
AcDbArc
 50
316.142739775347
 51
354.882916904744
  0
ARC
  5
318371ED
330
318324AF
100
AcDbEntity
  8
SAISEN
100
AcDbCircle
 10
690.1507671478818
 20
263.3779164136701
 30
0.0
 40
3.636444399631327
100
AcDbArc
 50
316.172438280045
 51
351.1825706592754
  0
LINE
  5
318371EE
330
318324AF
100
AcDbEntity
  8
SAISEN
100
AcDbLine
 10
693.7556447112195
 20
263.2927914748268
 30
0.0
 11
691.5511560881197
 21
263.2927914748268
 31
0.0
  0
ARC
  5
318371EF
330
318324AF
100
AcDbEntity
  8
SAISEN
100
AcDbCircle
 10
689.9529866906152
 20
263.4476757924104
 30
0.0
 40
4.03644439940768
100
AcDbArc
 50
316.142739775347
 51
354.882916904744
  0
LINE
  5
318371F0
330
318324AF
100
AcDbEntity
  8
SAISEN
100
AcDbLine
 10
698.4747477565425
 20
263.1394623426127
 30
0.0
 11
695.5073291532364
 21
263.1394623426127
 31
0.0
  0
ARC
  5
318371F1
330
318324AF
100
AcDbEntity
  8
SAISEN
100
AcDbCircle
 10
695.6799789628832
 20
265.0830455764946
 30
0.0
 40
5.544055350446695
100
AcDbArc
 50
271.2825529569757
 51
288.6657642521421
  0
ARC
  5
318371F2
330
318324AF
100
AcDbEntity
  8
SAISEN
100
AcDbCircle
 10
695.6799789628832
 20
265.0830455764946
 30
0.0
 40
5.144163353137099
100
AcDbArc
 50
271.3822734681051
 51
288.6515486543204
  0
LINE
  5
318371F3
330
318324AF
100
AcDbEntity
  8
SAISEN
100
AcDbLine
 10
695.5073291532364
 20
263.5394623426127
 30
0.0
 11
698.4747477565425
 21
263.5394623426127
 31
0.0
  0
LINE
  5
318371F4
330
318324AF
100
AcDbEntity
  8
SAISEN
100
AcDbLine
 10
695.4980760780067
 20
263.3452909570579
 30
0.0
 11
698.4654946813127
 21
263.3452909570579
 31
0.0
  0
ARC
  5
318371F5
330
318324AF
100
AcDbEntity
  8
SAISEN
100
AcDbCircle
 10
695.7169887864059
 20
264.916612527905
 30
0.0
 40
5.144163353137099
100
AcDbArc
 50
271.3822734681051
 51
288.6515486543204
  0
LINE
  5
318371F6
330
318324AF
100
AcDbEntity
  8
SAISEN
100
AcDbLine
 10
698.4506223576848
 20
261.9964046688936
 30
0.0
 11
695.1116733394622
 21
261.9920604826677
 31
0.0
  0
LINE
  5
318371F7
330
318324AF
100
AcDbEntity
  8
SAISEN
100
AcDbLine
 10
695.1116733394622
 20
262.3920604826677
 30
0.0
 11
698.7714896168729
 21
262.3931465292242
 31
0.0
  0
LINE
  5
318371F8
330
318324AF
100
AcDbEntity
  8
SAISEN
100
AcDbLine
 10
695.1116733394622
 20
262.1978883404134
 30
0.0
 11
698.826555022902
 21
262.19899072757
 31
0.0
  0
ARC
  5
318371F9
330
318324AF
100
AcDbEntity
  8
SAISEN
100
AcDbCircle
 10
689.104527364215
 20
262.9029592941403
 30
0.0
 40
0.2
100
AcDbArc
 50
345.4768343840399
 51
165.476834384036
  0
LINE
  5
318371FA
330
318324AF
100
AcDbEntity
  8
SAISEN
100
AcDbLine
 10
689.043617697489
 20
262.7714983997082
 30
0.0
 11
689.1017882016208
 21
262.9575224007497
 31
0.0
  0
ARC
  5
318371FB
330
318324AF
100
AcDbEntity
  8
SAISEN
100
AcDbCircle
 10
686.8006517793046
 20
262.8060705187657
 30
0.0
 40
0.2
100
AcDbArc
 50
245.5527906261443
 51
65.55279062614438
  0
ARC
  5
318371FC
330
318324AF
100
AcDbEntity
  8
SAISEN
100
AcDbCircle
 10
685.6464731962626
 20
263.3437452582364
 30
0.0
 40
0.2
100
AcDbArc
 50
65.55279062614438
 51
245.5527906261425
  0
ARC
  5
318371FD
330
318324AF
100
AcDbEntity
  8
SAISEN
100
AcDbCircle
 10
684.2001484299087
 20
263.5966386215659
 30
0.0
 40
0.2
100
AcDbArc
 50
0.0
 51
180.0
  0
ARC
  5
318371FE
330
318324AF
100
AcDbEntity
  8
SAISEN
100
AcDbCircle
 10
685.4527387501555
 20
259.8499485245977
 30
0.0
 40
0.2
100
AcDbArc
 50
94.31654536264847
 51
274.3165453626444
  0
LINE
  5
318371FF
330
318324AF
100
AcDbEntity
  8
SAISEN
100
AcDbLine
 10
685.5766514396625
 20
259.8532425323478
 30
0.0
 11
685.378872221094
 21
259.8532425323478
 31
0.0
  0
ARC
  5
31837200
330
318324AF
100
AcDbEntity
  8
SAISEN
100
AcDbCircle
 10
682.4519295722998
 20
261.7193070167962
 30
0.0
 40
1.955048349124109
100
AcDbArc
 50
299.3065120326639
 51
355.2156684909693
  0
ARC
  5
31837201
330
318324AF
100
AcDbEntity
  8
SAISEN
100
AcDbCircle
 10
682.4519295722998
 20
261.7193070167962
 30
0.0
 40
1.555045596608111
100
AcDbArc
 50
298.8573776850579
 51
354.6375612980967
  0
ARC
  5
31837202
330
318324AF
100
AcDbEntity
  8
SAISEN
100
AcDbCircle
 10
682.2523653896876
 20
261.833269002237
 30
0.0
 40
1.955048349124109
100
AcDbArc
 50
299.3065120326639
 51
355.2156684909693
  0
LINE
  5
31837203
330
318324AF
100
AcDbEntity
  8
SAISEN
100
AcDbLine
 10
684.400148429909
 20
263.5966386215659
 30
0.0
 11
684.4001659564253
 21
261.5562455591116
 31
0.0
  0
LINE
  5
31837204
330
318324AF
100
AcDbEntity
  8
SAISEN
100
AcDbLine
 10
684.1902290781338
 20
261.6024697406298
 30
0.0
 11
684.1902080815657
 21
263.6251291179261
 31
0.0
  0
LINE
  5
31837205
330
318324AF
100
AcDbEntity
  8
SAISEN
100
AcDbLine
 10
684.0001694264771
 20
261.5739792442696
 30
0.0
 11
684.0001484299088
 21
263.5966386215659
 31
0.0
  0
ARC
  5
31837206
330
318324AF
100
AcDbEntity
  8
SAISEN
100
AcDbCircle
 10
680.465924887103
 20
250.7529820466926
 30
0.0
 40
13.81605394989843
100
AcDbArc
 50
62.32240968900853
 51
67.72062209583229
  0
ARC
  5
31837207
330
318324AF
100
AcDbEntity
  8
SAISEN
100
AcDbCircle
 10
680.5610263471215
 20
250.9217690073632
 30
0.0
 40
13.22257022923734
100
AcDbArc
 50
62.32240968900788
 51
67.72062209583161
  0
ARC
  5
31837208
330
318324AF
100
AcDbEntity
  8
SAISEN
100
AcDbCircle
 10
680.3844854380997
 20
250.5669580456511
 30
0.0
 40
13.81605394989843
100
AcDbArc
 50
62.32240968900853
 51
67.72062209583229
  0
ARC
  5
31837209
330
318324AF
100
AcDbEntity
  8
SAISEN
100
AcDbCircle
 10
685.1448710551332
 20
263.9287042525195
 30
0.0
 40
4.290358273512624
100
AcDbArc
 50
274.3165453626426
 51
345.4768343840378
  0
ARC
  5
3183720A
330
318324AF
100
AcDbEntity
  8
SAISEN
100
AcDbCircle
 10
685.1448710551332
 20
263.9287042525195
 30
0.0
 40
3.890358273512631
100
AcDbArc
 50
274.3165453626423
 51
345.4768343840378
  0
ARC
  5
3183720B
330
318324AF
100
AcDbEntity
  8
SAISEN
100
AcDbCircle
 10
685.2612120633966
 20
263.7426802514781
 30
0.0
 40
3.890358273512631
100
AcDbArc
 50
274.3165453626423
 51
345.4768343840378
  0
ARC
  5
3183720C
330
318324AF
100
AcDbEntity
  8
SAISEN
100
AcDbCircle
 10
680.896422384895
 20
263.5966386215659
 30
0.0
 40
0.2
100
AcDbArc
 50
0.0
 51
180.0
  0
ARC
  5
3183720D
330
318324AF
100
AcDbEntity
  8
SAISEN
100
AcDbCircle
 10
681.6877340124431
 20
259.6469605648298
 30
0.0
 40
0.2
100
AcDbArc
 50
93.83015547216233
 51
273.8301554721623
  0
ARC
  5
3183720E
330
318324AF
100
AcDbEntity
  8
SAISEN
100
AcDbCircle
 10
680.896422384895
 20
261.4205316458082
 30
0.0
 40
0.2
100
AcDbArc
 50
180.0
 51
0.0
  0
LINE
  5
3183720F
330
318324AF
100
AcDbEntity
  8
SAISEN
100
AcDbLine
 10
681.0964223848948
 20
261.4205316458082
 30
0.0
 11
681.0964223848948
 21
263.5966386215659
 31
0.0
  0
LINE
  5
31837210
330
318324AF
100
AcDbEntity
  8
SAISEN
100
AcDbLine
 10
680.6964223848947
 20
263.5966386215659
 30
0.0
 11
680.6964223848947
 21
261.4205316458082
 31
0.0
  0
LINE
  5
31837211
330
318324AF
100
AcDbEntity
  8
SAISEN
100
AcDbLine
 10
680.8864832752499
 20
263.6251291179261
 30
0.0
 11
680.8864832752499
 21
261.4490221421684
 31
0.0
  0
ARC
  5
31837212
330
318324AF
100
AcDbEntity
  8
SAISEN
100
AcDbCircle
 10
678.6967314963878
 20
262.9948438305317
 30
0.0
 40
0.1
100
AcDbArc
 50
4.461446366543238
 51
95.44393285886446
  0
LINE
  5
31837213
330
318324AF
100
AcDbEntity
  8
SAISEN
100
AcDbLine
 10
679.208902441799
 20
262.9870116079542
 30
0.0
 11
679.208902441799
 21
263.328332597236
 31
0.0
  0
ARC
  5
31837214
330
318324AF
100
AcDbEntity
  8
SAISEN
100
AcDbCircle
 10
678.441128921381
 20
261.6150018235738
 30
0.0
 40
0.5033632358983916
100
AcDbArc
 50
334.2262262219166
 51
341.867428276762
  0
ARC
  5
31837215
330
318324AF
100
AcDbEntity
  8
SAISEN
100
AcDbCircle
 10
676.0100533032852
 20
262.788857162346
 30
0.0
 40
3.203004881980841
100
AcDbArc
 50
313.0691382297104
 51
334.2262262218499
  0
ARC
  5
31837216
330
318324AF
100
AcDbEntity
  8
SAISEN
100
AcDbCircle
 10
676.0100533032852
 20
262.788857162346
 30
0.0
 40
2.794910925181346
100
AcDbArc
 50
313.2315653312655
 51
334.2262262218497
  0
ARC
  5
31837217
330
318324AF
100
AcDbEntity
  8
SAISEN
100
AcDbCircle
 10
675.8554105093219
 20
262.9047638657398
 30
0.0
 40
3.203004881980841
100
AcDbArc
 50
313.0691382297104
 51
334.2262262218499
  0
ARC
  5
31837218
330
318324AF
100
AcDbEntity
  8
SAISEN
100
AcDbCircle
 10
675.4512058209201
 20
263.6276802819277
 30
0.0
 40
4.200641081100419
100
AcDbArc
 50
277.6452179033855
 51
310.8239910654832
  0
ARC
  5
31837219
330
318324AF
100
AcDbEntity
  8
SAISEN
100
AcDbCircle
 10
673.2952746710191
 20
263.3001647030181
 30
0.0
 40
5.921913396216108
100
AcDbArc
 50
341.8674282767248
 51
356.9687629374052
  0
ARC
  5
3183721A
330
318324AF
100
AcDbEntity
  8
SAISEN
100
AcDbCircle
 10
673.2952746710204
 20
263.3001647030178
 30
0.0
 40
5.50919454838201
100
AcDbArc
 50
341.7356819002808
 51
356.9040479454125
  0
ARC
  5
3183721B
330
318324AF
100
AcDbEntity
  8
SAISEN
100
AcDbCircle
 10
673.0826409841568
 20
263.3194824869171
 30
0.0
 40
5.921913396216108
100
AcDbArc
 50
341.8674282767248
 51
359.7238765159754
  0
CIRCLE
  5
3183721C
330
318324AF
100
AcDbEntity
  8
SAISEN
100
AcDbCircle
 10
679.2665036807086
 20
263.7241634920333
 30
0.0
 40
0.3
  0
ARC
  5
3183721D
330
318324AF
100
AcDbEntity
  8
SAISEN
100
AcDbCircle
 10
679.2665036807086
 20
263.7241634920333
 30
0.0
 40
0.4
100
AcDbArc
 50
261.7204449720558
 51
214.6455675014336
  0
ARC
  5
3183721E
330
318324AF
100
AcDbEntity
  8
SAISEN
100
AcDbCircle
 10
681.4616734682049
 20
263.0235900056901
 30
0.0
 40
3.584188196679613
100
AcDbArc
 50
273.8301554721632
 51
302.907173832793
  0
ARC
  5
3183721F
330
318324AF
100
AcDbEntity
  8
SAISEN
100
AcDbCircle
 10
681.4616734682049
 20
263.0235900056901
 30
0.0
 40
3.184188196679545
100
AcDbArc
 50
273.8301554721643
 51
303.1403454176757
  0
ARC
  5
31837220
330
318324AF
100
AcDbEntity
  8
SAISEN
100
AcDbCircle
 10
681.4141582456161
 20
263.2325200600986
 30
0.0
 40
3.584188196679613
100
AcDbArc
 50
273.8301554721632
 51
302.907173832793
  0
LINE
  5
31837221
330
318324AF
100
AcDbEntity
  8
SAISEN
100
AcDbLine
 10
704.3282797679516
 20
261.4183595526952
 30
0.0
 11
700.3717216302105
 21
261.4183595526952
 31
0.0
  0
LINE
  5
31837222
330
318324AF
100
AcDbEntity
  8
SAISEN
100
AcDbLine
 10
700.3717216302105
 20
261.8183595526952
 30
0.0
 11
704.3282797679516
 21
261.8183595526952
 31
0.0
  0
LINE
  5
31837223
330
318324AF
100
AcDbEntity
  8
SAISEN
100
AcDbLine
 10
700.3499007234839
 20
261.6221034597629
 30
0.0
 11
704.3064588612253
 21
261.6221034597629
 31
0.0
  0
ARC
  5
31837224
330
318324AF
100
AcDbEntity
  8
SAISEN
100
AcDbCircle
 10
675.3890808631306
 20
263.2631305687905
 30
0.0
 40
0.2
100
AcDbArc
 50
90.00000000000204
 51
271.0861433873868
  0
ARC
  5
31837225
330
318324AF
100
AcDbEntity
  8
SAISEN
100
AcDbCircle
 10
673.7809877301615
 20
263.2009828077917
 30
0.0
 40
0.3
100
AcDbArc
 50
348.8390365341861
 51
90.0
  0
ARC
  5
31837226
330
318324AF
100
AcDbEntity
  8
SAISEN
100
AcDbCircle
 10
673.5407196515978
 20
263.0015184635853
 30
0.0
 40
0.098913953443514
100
AcDbArc
 50
345.7487979237089
 51
90.0
  0
ARC
  5
31837227
330
318324AF
100
AcDbEntity
  8
SAISEN
100
AcDbCircle
 10
674.6024294583908
 20
259.7389944372681
 30
0.0
 40
0.2
100
AcDbArc
 50
226.9749340108814
 51
46.97493401088138
  0
ARC
  5
31837228
330
318324AF
100
AcDbEntity
  8
SAISEN
100
AcDbCircle
 10
668.8384752963314
 20
264.8621000149297
 30
0.0
 40
5.710581143985369
100
AcDbArc
 50
320.8665967697888
 51
323.5963112526801
  0
LINE
  5
31837229
330
318324AF
100
AcDbEntity
  8
SAISEN
100
AcDbLine
 10
674.4659658083187
 20
259.5927833836195
 30
0.0
 11
673.0047399530601
 21
260.956594181861
 31
0.0
  0
LINE
  5
3183722A
330
318324AF
100
AcDbEntity
  8
SAISEN
100
AcDbLine
 10
674.7388931084627
 20
259.8852054909167
 30
0.0
 11
673.2680508462324
 21
261.2579916023317
 31
0.0
  0
LINE
  5
3183722B
330
318324AF
100
AcDbEntity
  8
SAISEN
100
AcDbLine
 10
674.6088000732648
 20
259.7366244991153
 30
0.0
 11
673.1379578110343
 21
261.1094106105302
 31
0.0
  0
ARC
  5
3183722C
330
318324AF
100
AcDbEntity
  8
SAISEN
100
AcDbCircle
 10
670.1991253836925
 20
263.7463243186753
 30
0.0
 40
3.522218490797287
100
AcDbArc
 50
325.7052343648282
 51
347.5787438447317
  0
ARC
  5
3183722D
330
318324AF
100
AcDbEntity
  8
SAISEN
100
AcDbCircle
 10
670.0041811455102
 20
263.7469682438786
 30
0.0
 40
4.115702211458429
100
AcDbArc
 50
326.4612171854166
 51
351.5603004662478
  0
ARC
  5
3183722E
330
318324AF
100
AcDbEntity
  8
SAISEN
100
AcDbCircle
 10
669.8369172560291
 20
263.89554923568
 30
0.0
 40
4.115702211458429
100
AcDbArc
 50
326.4612171854166
 51
351.5603004662478
  0
ARC
  5
3183722F
330
318324AF
100
AcDbEntity
  8
SAISEN
100
AcDbCircle
 10
671.2213042792632
 20
263.2998967612353
 30
0.0
 40
0.2
100
AcDbArc
 50
90.0
 51
270.0
  0
ARC
  5
31837230
330
318324AF
100
AcDbEntity
  8
SAISEN
100
AcDbCircle
 10
669.4945498786007
 20
262.8053269940176
 30
0.0
 40
0.2
100
AcDbArc
 50
270.0
 51
90.0
  0
ARC
  5
31837231
330
318324AF
100
AcDbEntity
  8
SAISEN
100
AcDbCircle
 10
669.5835724366998
 20
259.7983428093342
 30
0.0
 40
0.2
100
AcDbArc
 50
270.0
 51
90.0
  0
ARC
  5
31837232
330
318324AF
100
AcDbEntity
  8
SAISEN
100
AcDbCircle
 10
669.4450929018787
 20
261.4007488551195
 30
0.0
 40
0.2
100
AcDbArc
 50
270.0
 51
90.0
  0
ARC
  5
31837233
330
318324AF
100
AcDbEntity
  8
SAISEN
100
AcDbCircle
 10
670.8256484654891
 20
259.7221531961313
 30
0.0
 40
0.2
100
AcDbArc
 50
111.5606966022282
 51
289.0538596104055
  0
LINE
  5
31837234
330
318324AF
100
AcDbEntity
  8
SAISEN
100
AcDbLine
 10
671.2213042792632
 20
263.0998967612352
 30
0.0
 11
673.5509997652798
 21
263.0998967612352
 31
0.0
  0
ARC
  5
31837235
330
318324AF
100
AcDbEntity
  8
SAISEN
100
AcDbCircle
 10
668.9056780258974
 20
264.680498328828
 30
0.0
 40
5.117097423324145
100
AcDbArc
 50
291.1520284424179
 51
325.5103361553218
  0
ARC
  5
31837236
330
318324AF
100
AcDbEntity
  8
SAISEN
100
AcDbCircle
 10
668.8384752963314
 20
264.8621000149297
 30
0.0
 40
5.710581143985369
100
AcDbArc
 50
291.0642306470723
 51
320.8665967697888
  0
LINE
  5
31837237
330
318324AF
100
AcDbEntity
  8
SAISEN
100
AcDbLine
 10
671.2213042792632
 20
263.4998967612353
 30
0.0
 11
673.7809877301615
 21
263.5009828077917
 31
0.0
  0
LINE
  5
31837238
330
318324AF
100
AcDbEntity
  8
SAISEN
100
AcDbLine
 10
671.2213042792632
 20
263.2998967612353
 30
0.0
 11
673.8167149836776
 21
263.2998967612353
 31
0.0
  0
ARC
  5
31837239
330
318324AF
100
AcDbEntity
  8
SAISEN
100
AcDbCircle
 10
668.9986014455105
 20
264.4947724674261
 30
0.0
 40
5.117097423324145
100
AcDbArc
 50
291.1520284424179
 51
325.5103361553218
  0
LINE
  5
3183723A
330
318324AF
100
AcDbEntity
  8
SAISEN
100
AcDbLine
 10
668.3489182085761
 20
263.2883099861522
 30
0.0
 11
668.0051865494886
 21
263.7210363579769
 31
0.0
  0
ARC
  5
3183723B
330
318324AF
100
AcDbEntity
  8
SAISEN
100
AcDbCircle
 10
667.8485813031659
 20
263.5966386215659
 30
0.0
 40
0.2
100
AcDbArc
 50
38.4615044522788
 51
218.4615044522762
  0
ARC
  5
3183723C
330
318324AF
100
AcDbEntity
  8
SAISEN
100
AcDbCircle
 10
667.9195728505558
 20
263.0745055798988
 30
0.0
 40
0.0692397674104647
100
AcDbArc
 50
270.0000000000059
 51
38.46150445229264
  0
LINE
  5
3183723D
330
318324AF
100
AcDbEntity
  8
SAISEN
100
AcDbLine
 10
667.691976056843
 20
263.4722408851549
 30
0.0
 11
667.9756333135451
 21
263.1151426304867
 31
0.0
  0
ARC
  5
3183723E
330
318324AF
100
AcDbEntity
  8
SAISEN
100
AcDbCircle
 10
668.0916131901042
 20
263.1404930076224
 30
0.0
 40
0.2967418603305844
100
AcDbArc
 50
343.1956021093568
 51
29.8765715201601
  0
ARC
  5
3183723F
330
318324AF
100
AcDbEntity
  8
SAISEN
100
AcDbCircle
 10
668.4135593991502
 20
263.0432647512918
 30
0.0
 40
0.0395655813773743
100
AcDbArc
 50
163.1956021092883
 51
269.9999999999485
  0
LINE
  5
31837240
330
318324AF
100
AcDbEntity
  8
SAISEN
100
AcDbLine
 10
667.8485813031659
 20
263.5966386215659
 30
0.0
 11
668.1578079254562
 21
263.1905775515688
 31
0.0
  0
ARC
  5
31837241
330
318324AF
100
AcDbEntity
  8
SAISEN
100
AcDbCircle
 10
666.1639363787151
 20
263.5211481298682
 30
0.0
 40
0.2
100
AcDbArc
 50
343.2309706446293
 51
177.3102528734094
  0
ARC
  5
31837242
330
318324AF
100
AcDbEntity
  8
SAISEN
100
AcDbCircle
 10
661.7541236180811
 20
264.2805441302089
 30
0.0
 40
4.67329484821543
100
AcDbArc
 50
337.7179082673201
 51
350.0531909869007
  0
ARC
  5
31837243
330
318324AF
100
AcDbEntity
  8
SAISEN
100
AcDbCircle
 10
666.8238731356252
 20
262.8053269940176
 30
0.0
 40
0.2
100
AcDbArc
 50
90.0
 51
270.0
  0
LINE
  5
31837244
330
318324AF
100
AcDbEntity
  8
SAISEN
100
AcDbLine
 10
667.9624696467824
 20
262.6053269940176
 30
0.0
 11
666.8238731356252
 21
262.6053269940176
 31
0.0
  0
LINE
  5
31837245
330
318324AF
100
AcDbEntity
  8
SAISEN
100
AcDbLine
 10
666.8238731356252
 20
263.0053269940176
 30
0.0
 11
667.9224829444613
 21
263.0053269940176
 31
0.0
  0
LINE
  5
31837246
330
318324AF
100
AcDbEntity
  8
SAISEN
100
AcDbLine
 10
667.9624696467824
 20
261.2007488551195
 30
0.0
 11
667.9624696467824
 21
259.9983428093342
 31
0.0
  0
LINE
  5
31837247
330
318324AF
100
AcDbEntity
  8
SAISEN
100
AcDbLine
 10
668.3624696467825
 20
261.2007488551195
 30
0.0
 11
668.3624696467825
 21
259.9983428093342
 31
0.0
  0
ARC
  5
31837248
330
318324AF
100
AcDbEntity
  8
SAISEN
100
AcDbCircle
 10
665.8838859409627
 20
259.6202976931359
 30
0.0
 40
0.2
100
AcDbArc
 50
180.0
 51
0.0
  0
LINE
  5
31837249
330
318324AF
100
AcDbEntity
  8
SAISEN
100
AcDbLine
 10
665.6838859409626
 20
261.7691069701037
 30
0.0
 11
665.6838859409626
 21
259.5983428093342
 31
0.0
  0
ARC
  5
3183724A
330
318324AF
100
AcDbEntity
  8
SAISEN
100
AcDbCircle
 10
666.873330112347
 20
261.4007488551195
 30
0.0
 40
0.2
100
AcDbArc
 50
90.0
 51
270.0
  0
ARC
  5
3183724B
330
318324AF
100
AcDbEntity
  8
SAISEN
100
AcDbCircle
 10
666.734850577526
 20
259.7983428093342
 30
0.0
 40
0.2
100
AcDbArc
 50
90.0
 51
270.0
  0
ARC
  5
3183724C
330
318324AF
100
AcDbEntity
  8
SAISEN
100
AcDbCircle
 10
662.2106543923989
 20
263.984039718552
 30
0.0
 40
4.119376708931562
100
AcDbArc
 50
323.0469655698353
 51
327.4737208694316
  0
LINE
  5
3183724D
330
318324AF
100
AcDbEntity
  8
SAISEN
100
AcDbLine
 10
667.9624696467824
 20
261.2007488551195
 30
0.0
 11
666.873330112347
 21
261.2007488551195
 31
0.0
  0
LINE
  5
3183724E
330
318324AF
100
AcDbEntity
  8
SAISEN
100
AcDbLine
 10
666.734850577526
 20
259.9983428093342
 30
0.0
 11
667.9624696467824
 21
259.9983428093342
 31
0.0
  0
LINE
  5
3183724F
330
318324AF
100
AcDbEntity
  8
SAISEN
100
AcDbLine
 10
666.873330112347
 20
261.6007488551194
 30
0.0
 11
667.9624696467824
 21
261.6007488551194
 31
0.0
  0
LINE
  5
31837250
330
318324AF
100
AcDbEntity
  8
SAISEN
100
AcDbLine
 10
668.3624696467825
 20
262.6053269940176
 30
0.0
 11
668.3624696467825
 21
261.6007488551194
 31
0.0
  0
LINE
  5
31837251
330
318324AF
100
AcDbEntity
  8
SAISEN
100
AcDbLine
 10
667.9624696467824
 20
262.6053269940176
 30
0.0
 11
667.9624696467824
 21
261.6007488551194
 31
0.0
  0
LINE
  5
31837252
330
318324AF
100
AcDbEntity
  8
SAISEN
100
AcDbLine
 10
666.0838859409625
 20
262.5218960796563
 30
0.0
 11
666.0838859409625
 21
259.5983428093342
 31
0.0
  0
LINE
  5
31837253
330
318324AF
100
AcDbEntity
  8
SAISEN
100
AcDbLine
 10
665.8838859409627
 20
259.6202976931359
 30
0.0
 11
665.8838859409627
 21
262.6013317953289
 31
0.0
  0
LINE
  5
31837254
330
318324AF
100
AcDbEntity
  8
SAISEN
100
AcDbLine
 10
668.159211507113
 20
259.7983428093342
 30
0.0
 11
668.159211507113
 21
263.1817899992002
 31
0.0
  0
ARC
  5
31837255
330
318324AF
100
AcDbEntity
  8
SAISEN
100
AcDbCircle
 10
663.8554202686982
 20
263.4540436221498
 30
0.0
 40
0.2
100
AcDbArc
 50
270.0
 51
90.0
  0
ARC
  5
31837256
330
318324AF
100
AcDbEntity
  8
SAISEN
100
AcDbCircle
 10
659.4224297876841
 20
292.0652580798886
 30
0.0
 40
29.1608543539727
100
AcDbArc
 50
275.8154509631574
 51
278.7439220211071
  0
ARC
  5
31837257
330
318324AF
100
AcDbEntity
  8
SAISEN
100
AcDbCircle
 10
664.1768906173894
 20
261.7172735061387
 30
0.0
 40
0.2
100
AcDbArc
 50
270.0
 51
90.0
  0
LINE
  5
31837258
330
318324AF
100
AcDbEntity
  8
SAISEN
100
AcDbLine
 10
662.373883060158
 20
259.6400804838245
 30
0.0
 11
662.3756743422777
 21
261.5172735061388
 31
0.0
  0
LINE
  5
31837259
330
318324AF
100
AcDbEntity
  8
SAISEN
100
AcDbLine
 10
662.3756743422777
 20
261.5172735061388
 30
0.0
 11
664.1768906173894
 21
261.5172735061388
 31
0.0
  0
LINE
  5
3183725A
330
318324AF
100
AcDbEntity
  8
SAISEN
100
AcDbLine
 10
664.1768906173894
 20
261.9172735061388
 30
0.0
 11
662.3760560360299
 21
261.9172735061388
 31
0.0
  0
LINE
  5
3183725B
330
318324AF
100
AcDbEntity
  8
SAISEN
100
AcDbLine
 10
664.1768906173894
 20
261.7315476447368
 30
0.0
 11
662.3760560360299
 21
261.7315476447368
 31
0.0
  0
LINE
  5
3183725C
330
318324AF
100
AcDbEntity
  8
SAISEN
100
AcDbLine
 10
662.3760560360299
 20
261.9172735061388
 30
0.0
 11
662.3771411998275
 21
263.0544823728421
 31
0.0
  0
LINE
  5
3183725D
330
318324AF
100
AcDbEntity
  8
SAISEN
100
AcDbLine
 10
662.1738830601582
 20
259.6400804838245
 30
0.0
 11
662.1738830601582
 21
263.2328021455343
 31
0.0
  0
ARC
  5
3183725E
330
318324AF
100
AcDbEntity
  8
SAISEN
100
AcDbCircle
 10
665.3497505923676
 20
261.637642137802
 30
0.0
 40
0.2
100
AcDbArc
 50
137.1623160997192
 51
319.8382959004519
  0
ARC
  5
3183725F
330
318324AF
100
AcDbEntity
  8
SAISEN
100
AcDbCircle
 10
661.9042140941376
 20
264.2407417316392
 30
0.0
 40
4.119376708931562
100
AcDbArc
 50
323.0469655698353
 51
350.0531909869008
  0
ARC
  5
31837260
330
318324AF
100
AcDbEntity
  8
SAISEN
100
AcDbCircle
 10
662.0885026510827
 20
264.1854905541874
 30
0.0
 40
4.119376708931562
100
AcDbArc
 50
323.0469655698353
 51
350.0531909869008
  0
LINE
  5
31837261
330
318324AF
100
AcDbEntity
  8
SAISEN
100
AcDbLine
 10
668.4023272220358
 20
263.0053269940176
 30
0.0
 11
669.4945498786007
 21
263.0053269940176
 31
0.0
  0
LINE
  5
31837262
330
318324AF
100
AcDbEntity
  8
SAISEN
100
AcDbLine
 10
668.3624696467825
 20
261.6007488551194
 30
0.0
 11
669.4450929018787
 21
261.6007488551194
 31
0.0
  0
LINE
  5
31837263
330
318324AF
100
AcDbEntity
  8
SAISEN
100
AcDbLine
 10
668.3624696467825
 20
259.9983428093342
 30
0.0
 11
669.5835724366998
 21
259.9983428093342
 31
0.0
  0
LINE
  5
31837264
330
318324AF
100
AcDbEntity
  8
SAISEN
100
AcDbLine
 10
669.5835724366998
 20
259.5983428093342
 30
0.0
 11
666.734850577526
 21
259.5983428093342
 31
0.0
  0
LINE
  5
31837265
330
318324AF
100
AcDbEntity
  8
SAISEN
100
AcDbLine
 10
669.4450929018787
 20
261.2007488551195
 30
0.0
 11
668.3624696467825
 21
261.2007488551195
 31
0.0
  0
LINE
  5
31837266
330
318324AF
100
AcDbEntity
  8
SAISEN
100
AcDbLine
 10
669.4945498786007
 20
262.6053269940176
 30
0.0
 11
668.3624696467825
 21
262.6053269940176
 31
0.0
  0
LINE
  5
31837267
330
318324AF
100
AcDbEntity
  8
SAISEN
100
AcDbLine
 10
666.8238731356252
 20
262.8053269940176
 30
0.0
 11
669.4945498786007
 21
262.8053269940176
 31
0.0
  0
LINE
  5
31837268
330
318324AF
100
AcDbEntity
  8
SAISEN
100
AcDbLine
 10
666.873330112347
 20
261.4007488551195
 30
0.0
 11
669.4450929018787
 21
261.4007488551195
 31
0.0
  0
LINE
  5
31837269
330
318324AF
100
AcDbEntity
  8
SAISEN
100
AcDbLine
 10
666.734850577526
 20
259.7983428093342
 30
0.0
 11
669.5835724366998
 21
259.7983428093342
 31
0.0
  0
ARC
  5
3183726A
330
318324AF
100
AcDbEntity
  8
SAISEN
100
AcDbCircle
 10
660.492345851618
 20
263.131436119524
 30
0.0
 40
0.2
100
AcDbArc
 50
90.0
 51
270.0
  0
LINE
  5
3183726B
330
318324AF
100
AcDbEntity
  8
SAISEN
100
AcDbLine
 10
661.9771411998274
 20
261.5172735061388
 30
0.0
 11
661.9771411998274
 21
259.6400804838246
 31
0.0
  0
ARC
  5
3183726C
330
318324AF
100
AcDbEntity
  8
SAISEN
100
AcDbCircle
 10
660.1708755029265
 20
261.7172735061387
 30
0.0
 40
0.2
100
AcDbArc
 50
90.0
 51
270.0
  0
LINE
  5
3183726D
330
318324AF
100
AcDbEntity
  8
SAISEN
100
AcDbLine
 10
661.9771411998274
 20
261.9172735061388
 30
0.0
 11
660.1708755029265
 21
261.9172735061388
 31
0.0
  0
LINE
  5
3183726E
330
318324AF
100
AcDbEntity
  8
SAISEN
100
AcDbLine
 10
660.1708755029265
 20
261.5172735061388
 30
0.0
 11
661.9771411998274
 21
261.5172735061388
 31
0.0
  0
LINE
  5
3183726F
330
318324AF
100
AcDbEntity
  8
SAISEN
100
AcDbLine
 10
661.9771411998274
 20
261.7315476447368
 30
0.0
 11
660.1708755029265
 21
261.7315476447368
 31
0.0
  0
LINE
  5
31837270
330
318324AF
100
AcDbEntity
  8
SAISEN
100
AcDbLine
 10
661.9771411998274
 20
263.0165252976436
 30
0.0
 11
661.9771411998274
 21
261.9172735061388
 31
0.0
  0
LINE
  5
31837271
330
318324AF
100
AcDbEntity
  8
SAISEN
100
AcDbLine
 10
656.4644510941473
 20
262.6053269940176
 30
0.0
 11
655.332370862329
 21
262.6053269940176
 31
0.0
  0
LINE
  5
31837272
330
318324AF
100
AcDbEntity
  8
SAISEN
100
AcDbLine
 10
655.332370862329
 20
263.0053269940176
 30
0.0
 11
656.4644510941473
 21
263.0053269940176
 31
0.0
  0
ARC
  5
31837273
330
318324AF
100
AcDbEntity
  8
SAISEN
100
AcDbCircle
 10
656.4644510941473
 20
262.8053269940176
 30
0.0
 40
0.2
100
AcDbArc
 50
270.0
 51
90.0
  0
LINE
  5
31837274
330
318324AF
100
AcDbEntity
  8
SAISEN
100
AcDbLine
 10
656.4149941174255
 20
261.2007488551195
 30
0.0
 11
655.332370862329
 21
261.2007488551195
 31
0.0
  0
LINE
  5
31837275
330
318324AF
100
AcDbEntity
  8
SAISEN
100
AcDbLine
 10
655.332370862329
 20
259.9983428093342
 30
0.0
 11
656.5534736522463
 21
259.9983428093342
 31
0.0
  0
LINE
  5
31837276
330
318324AF
100
AcDbEntity
  8
SAISEN
100
AcDbLine
 10
655.332370862329
 20
261.6007488551194
 30
0.0
 11
656.4149941174255
 21
261.6007488551194
 31
0.0
  0
LINE
  5
31837277
330
318324AF
100
AcDbEntity
  8
SAISEN
100
AcDbLine
 10
655.332370862329
 20
261.2007488551195
 30
0.0
 11
655.332370862329
 21
259.9983428093342
 31
0.0
  0
ARC
  5
31837278
330
318324AF
100
AcDbEntity
  8
SAISEN
100
AcDbCircle
 10
656.4149941174255
 20
261.4007488551195
 30
0.0
 40
0.2
100
AcDbArc
 50
270.0
 51
90.0
  0
ARC
  5
31837279
330
318324AF
100
AcDbEntity
  8
SAISEN
100
AcDbCircle
 10
656.5534736522463
 20
259.7983428093342
 30
0.0
 40
0.2
100
AcDbArc
 50
270.0
 51
90.0
  0
LINE
  5
3183727A
330
318324AF
100
AcDbEntity
  8
SAISEN
100
AcDbLine
 10
655.1291127226595
 20
259.7983428093342
 30
0.0
 11
655.1291127226595
 21
263.5214325837472
 31
0.0
  0
LINE
  5
3183727B
330
318324AF
100
AcDbEntity
  8
SAISEN
100
AcDbLine
 10
655.332370862329
 20
263.5214325837472
 30
0.0
 11
655.332370862329
 21
261.6007488551194
 31
0.0
  0
ARC
  5
3183727C
330
318324AF
100
AcDbEntity
  8
SAISEN
100
AcDbCircle
 10
653.7937743511718
 20
262.8053269940176
 30
0.0
 40
0.2
100
AcDbArc
 50
90.0
 51
270.0
  0
LINE
  5
3183727D
330
318324AF
100
AcDbEntity
  8
SAISEN
100
AcDbLine
 10
653.7937743511718
 20
263.0053269940176
 30
0.0
 11
654.932370862329
 21
263.0053269940176
 31
0.0
  0
LINE
  5
3183727E
330
318324AF
100
AcDbEntity
  8
SAISEN
100
AcDbLine
 10
654.932370862329
 20
262.6053269940176
 30
0.0
 11
653.7937743511718
 21
262.6053269940176
 31
0.0
  0
ARC
  5
3183727F
330
318324AF
100
AcDbEntity
  8
SAISEN
100
AcDbCircle
 10
648.7240248336277
 20
264.2805441302089
 30
0.0
 40
4.67329484821543
100
AcDbArc
 50
337.7179082673201
 51
350.0531909869007
  0
ARC
  5
31837280
330
318324AF
100
AcDbEntity
  8
SAISEN
100
AcDbCircle
 10
653.1338375942616
 20
263.5211481298682
 30
0.0
 40
0.2
100
AcDbArc
 50
343.2309706446293
 51
177.3102528734094
  0
LINE
  5
31837281
330
318324AF
100
AcDbEntity
  8
SAISEN
100
AcDbLine
 10
654.932370862329
 20
261.2007488551195
 30
0.0
 11
654.932370862329
 21
259.9983428093342
 31
0.0
  0
ARC
  5
31837282
330
318324AF
100
AcDbEntity
  8
SAISEN
100
AcDbCircle
 10
653.7047517930725
 20
259.7983428093342
 30
0.0
 40
0.2
100
AcDbArc
 50
90.0
 51
270.0
  0
ARC
  5
31837283
330
318324AF
100
AcDbEntity
  8
SAISEN
100
AcDbCircle
 10
653.8432313278936
 20
261.4007488551195
 30
0.0
 40
0.2
100
AcDbArc
 50
90.0
 51
270.0
  0
LINE
  5
31837284
330
318324AF
100
AcDbEntity
  8
SAISEN
100
AcDbLine
 10
653.8432313278936
 20
261.6007488551194
 30
0.0
 11
654.932370862329
 21
261.6007488551194
 31
0.0
  0
LINE
  5
31837285
330
318324AF
100
AcDbEntity
  8
SAISEN
100
AcDbLine
 10
653.7047517930725
 20
259.9983428093342
 30
0.0
 11
654.932370862329
 21
259.9983428093342
 31
0.0
  0
LINE
  5
31837286
330
318324AF
100
AcDbEntity
  8
SAISEN
100
AcDbLine
 10
654.932370862329
 20
261.2007488551195
 30
0.0
 11
653.8432313278936
 21
261.2007488551195
 31
0.0
  0
ARC
  5
31837287
330
318324AF
100
AcDbEntity
  8
SAISEN
100
AcDbCircle
 10
649.1805556079455
 20
263.984039718552
 30
0.0
 40
4.119376708931562
100
AcDbArc
 50
323.0469655698353
 51
327.4737208694316
  0
ARC
  5
31837288
330
318324AF
100
AcDbEntity
  8
SAISEN
100
AcDbCircle
 10
652.3196518079141
 20
261.637642137802
 30
0.0
 40
0.2
100
AcDbArc
 50
137.1623160997192
 51
319.8382959004519
  0
LINE
  5
31837289
330
318324AF
100
AcDbEntity
  8
SAISEN
100
AcDbLine
 10
652.6537871565092
 20
261.7691069701037
 30
0.0
 11
652.6537871565092
 21
259.5983428093342
 31
0.0
  0
ARC
  5
3183728A
330
318324AF
100
AcDbEntity
  8
SAISEN
100
AcDbCircle
 10
652.8537871565093
 20
259.6202976931359
 30
0.0
 40
0.2
100
AcDbArc
 50
180.0
 51
0.0
  0
LINE
  5
3183728B
330
318324AF
100
AcDbEntity
  8
SAISEN
100
AcDbLine
 10
654.932370862329
 20
263.5214325837472
 30
0.0
 11
654.932370862329
 21
261.6007488551194
 31
0.0
  0
ARC
  5
3183728C
330
318324AF
100
AcDbEntity
  8
SAISEN
100
AcDbCircle
 10
649.0584038666293
 20
264.1854905541874
 30
0.0
 40
4.119376708931562
100
AcDbArc
 50
323.0469655698353
 51
350.0531909869008
  0
ARC
  5
3183728D
330
318324AF
100
AcDbEntity
  8
SAISEN
100
AcDbCircle
 10
648.8741153096841
 20
264.2407417316392
 30
0.0
 40
4.119376708931562
100
AcDbArc
 50
323.0469655698353
 51
350.0531909869008
  0
LINE
  5
3183728E
330
318324AF
100
AcDbEntity
  8
SAISEN
100
AcDbLine
 10
652.8537871565093
 20
259.6202976931359
 30
0.0
 11
652.8537871565093
 21
262.6013317953289
 31
0.0
  0
LINE
  5
3183728F
330
318324AF
100
AcDbEntity
  8
SAISEN
100
AcDbLine
 10
653.0537871565093
 20
262.5218960796563
 30
0.0
 11
653.0537871565093
 21
259.5983428093342
 31
0.0
  0
CIRCLE
  5
31837290
330
318324AF
100
AcDbEntity
  8
SAISEN
100
AcDbCircle
 10
654.542436648994
 20
261.4738433487882
 30
0.0
 40
3.7
  0
CIRCLE
  5
31837291
330
318324AF
100
AcDbEntity
  8
SAISEN
100
AcDbCircle
 10
654.542436648994
 20
261.4738433487882
 30
0.0
 40
3.6
  0
ARC
  5
31837292
330
318324AF
100
AcDbEntity
  8
SAISEN
100
AcDbCircle
 10
655.132370862329
 20
263.5214325837472
 30
0.0
 40
0.2
100
AcDbArc
 50
0.0
 51
179.9999999999979
  0
LINE
  5
31837293
330
318324AF
100
AcDbEntity
  8
SAISEN
100
AcDbLine
 10
653.7047517930725
 20
259.7983428093342
 30
0.0
 11
656.5534736522463
 21
259.7983428093342
 31
0.0
  0
LINE
  5
31837294
330
318324AF
100
AcDbEntity
  8
SAISEN
100
AcDbLine
 10
653.8432313278936
 20
261.4007488551195
 30
0.0
 11
656.4149941174255
 21
261.4007488551195
 31
0.0
  0
LINE
  5
31837295
330
318324AF
100
AcDbEntity
  8
SAISEN
100
AcDbLine
 10
653.7937743511718
 20
262.8053269940176
 30
0.0
 11
656.4644510941473
 21
262.8053269940176
 31
0.0
  0
LINE
  5
31837296
330
318324AF
100
AcDbEntity
  8
SAISEN
100
AcDbLine
 10
656.5534736522463
 20
259.5983428093342
 30
0.0
 11
653.7047517930725
 21
259.5983428093342
 31
0.0
  0
ARC
  5
31837297
330
318324AF
100
AcDbEntity
  8
SAISEN
100
AcDbCircle
 10
662.1738830601582
 20
259.6400804838245
 30
0.0
 40
0.2
100
AcDbArc
 50
180.0
 51
0.0
  0
ARC
  5
31837298
330
318324AF
100
AcDbEntity
  8
SAISEN
100
AcDbCircle
 10
659.4224297876837
 20
291.8772123870825
 30
0.0
 40
28.56737063331074
100
AcDbArc
 50
272.1463653708891
 51
278.9270447761149
  0
ARC
  5
31837299
330
318324AF
100
AcDbEntity
  8
SAISEN
100
AcDbCircle
 10
659.4224297876837
 20
292.0652580798875
 30
0.0
 40
29.16085435397164
100
AcDbArc
 50
272.1026625696792
 51
275.0259868493147
  0
ARC
  5
3183729A
330
318324AF
100
AcDbEntity
  8
SAISEN
100
AcDbCircle
 10
659.4224297876837
 20
291.6729133341807
 30
0.0
 40
28.56737063331074
100
AcDbArc
 50
272.1463653708891
 51
278.9270447761149
  0
ARC
  5
3183729B
330
318324AF
100
AcDbEntity
  8
SAISEN
100
AcDbCircle
 10
675.9825645837915
 20
259.6691647230934
 30
0.0
 40
0.2
100
AcDbArc
 50
97.64521790338697
 51
277.6452179033849
  0
LINE
  5
3183729C
330
318324AF
100
AcDbEntity
  8
SAISEN
100
AcDbLine
 10
675.3890808631306
 20
263.4631305687905
 30
0.0
 11
678.9374298805219
 21
263.4967642087658
 31
0.0
  0
LINE
  5
3183729D
330
318324AF
100
AcDbEntity
  8
SAISEN
100
AcDbLine
 10
678.7043299429821
 20
263.0945547306848
 30
0.0
 11
675.3890808631306
 21
263.0631305687904
 31
0.0
  0
ARC
  5
3183729E
330
318324AF
100
AcDbEntity
  8
SAISEN
100
AcDbCircle
 10
675.4906839477955
 20
263.5335762031209
 30
0.0
 40
3.69559507159648
100
AcDbArc
 50
277.2326934244144
 51
311.1894956236273
  0
LINE
  5
3183729F
330
318324AF
100
AcDbEntity
  8
SAISEN
100
AcDbLine
 10
679.0044856113838
 20
263.290943333713
 30
0.0
 11
675.3504210936633
 21
263.2563076510806
 31
0.0
  0
ARC
  5
318372A0
330
318324AF
100
AcDbEntity
  8
SAISEN
100
AcDbCircle
 10
675.3738850432876
 20
263.8208573642178
 30
0.0
 40
4.200641081100419
100
AcDbArc
 50
277.6452179033855
 51
310.8239910654832
  0
TEXT
  5
318372A1
330
318324AF
100
AcDbEntity
  8
SAISEN
100
AcDbText
 10
700.8843331938408
 20
301.2660212488984
 30
0.0
 40
3.99999999999996
  1
WMG  -A
 41
0.7
  7
K
100
AcDbText
  0
LINE
  5
318372A2
330
318324AF
100
AcDbEntity
  8
SAISEN
100
AcDbLine
 10
710.4009693624496
 20
305.2588397382877
 30
0.0
 11
713.0350700137612
 21
305.2588397382882
 31
0.0
  0
LINE
  5
318372A3
330
318324AF
100
AcDbEntity
  8
SAISEN
100
AcDbLine
 10
710.4009693624496
 20
301.2618147974998
 30
0.0
 11
713.0350700137612
 21
301.2618147974998
 31
0.0
  0
LINE
  5
318372A4
330
318324AF
100
AcDbEntity
  8
SAISEN
100
AcDbLine
 10
712.3350700137613
 20
305.2588397382882
 30
0.0
 11
712.3350700137613
 21
301.2618147974998
 31
0.0
  0
LINE
  5
318372A5
330
318324AF
100
AcDbEntity
  8
SAISEN
100
AcDbLine
 10
711.1009693624498
 20
305.2588397382877
 30
0.0
 11
711.1009693624498
 21
301.2618147974998
 31
0.0
  0
TEXT
  5
318372A6
330
318324AF
100
AcDbEntity
  8
SAISEN
100
AcDbText
 10
654.0735326005071
 20
301.1523123381069
 30
0.0
 40
4.499999999999954
  1
ウォーターモーターゴング
 41
0.7
  7
K
100
AcDbText
  0
ARC
  5
3183762A
330
318324AF
100
AcDbEntity
  8
JISSEN
100
AcDbCircle
 10
686.5457757107521
 20
423.3191943874485
 30
0.0
 40
4.5
100
AcDbArc
 50
0.0
 51
180.0
  0
ARC
  5
3183762B
330
318324AF
100
AcDbEntity
  8
JISSEN
100
AcDbCircle
 10
686.5457757107521
 20
420.3191943874485
 30
0.0
 40
4.5
100
AcDbArc
 50
180.0
 51
0.0
  0
LINE
  5
3183762C
330
318324AF
100
AcDbEntity
  8
JISSEN
100
AcDbLine
 10
682.0457757107521
 20
423.3191943874485
 30
0.0
 11
682.0457757107521
 21
420.3191943874485
 31
0.0
  0
LINE
  5
3183762D
330
318324AF
100
AcDbEntity
  8
JISSEN
100
AcDbLine
 10
691.0457757107522
 20
423.3191943874485
 30
0.0
 11
691.0457757107522
 21
420.3191943874485
 31
0.0
  0
LINE
  5
318377C8
330
318324AF
100
AcDbEntity
  8
JISSEN
100
AcDbLine
 10
94.29577571075231
 20
356.8394920724132
 30
0.0
 11
100.081164415359
 21
356.8394920724132
 31
0.0
  0
LINE
  5
318377C9
330
318324AF
100
AcDbEntity
  8
JISSEN
100
AcDbLine
 10
94.29577571075276
 20
348.8528606887667
 30
0.0
 11
94.29577571075276
 21
356.8394920724132
 31
0.0
  0
ARC
  5
318377CA
330
318324AF
100
AcDbEntity
  8
JISSEN
100
AcDbCircle
 10
92.79577571075277
 20
348.8528606887667
 30
0.0
 40
1.5
100
AcDbArc
 50
270.0
 51
0.000000000000007
  0
LINE
  5
318377CB
330
318324AF
100
AcDbEntity
  8
JISSEN
100
AcDbLine
 10
77.54577571075277
 20
347.3528606887668
 30
0.0
 11
97.47397894102631
 21
347.3528606887672
 31
0.0
  0
ARC
  5
318377F3
330
318324AF
100
AcDbEntity
  8
JISSEN
100
AcDbCircle
 10
125.5457757107527
 20
281.7407070976151
 30
0.0
 40
10.0
100
AcDbArc
 50
0.000000000000007
 51
46.60482203431326
  0
ARC
  5
318377F7
330
318324AF
100
AcDbEntity
  8
JISSEN
100
AcDbCircle
 10
180.0457757107527
 20
267.8528606887663
 30
0.0
 40
1.5
100
AcDbArc
 50
270.0
 51
0.000000000000007
  0
LINE
  5
318377F8
330
318324AF
100
AcDbEntity
  8
JISSEN
100
AcDbLine
 10
181.5457757107527
 20
281.6195633525636
 30
0.0
 11
181.5457757107527
 21
267.8528606887663
 31
0.0
  0
ARC
  5
318377FD
330
318324AF
100
AcDbEntity
  8
JISSEN
100
AcDbCircle
 10
137.0457757107527
 20
267.8528606887667
 30
0.0
 40
1.5
100
AcDbArc
 50
180.0
 51
270.0
  0
LINE
  5
318377FE
330
318324AF
100
AcDbEntity
  8
JISSEN
100
AcDbLine
 10
137.0457757107527
 20
266.3528606887668
 30
0.0
 11
180.0457757107527
 21
266.3528606887663
 31
0.0
  0
LINE
  5
318377FF
330
318324AF
100
AcDbEntity
  8
JISSEN
100
AcDbLine
 10
135.5457757107527
 20
281.7407070976151
 30
0.0
 11
135.5457757107527
 21
267.8528606887667
 31
0.0
  0
ARC
  5
3183780A
330
318324AF
100
AcDbEntity
  8
JISSEN
100
AcDbCircle
 10
158.545775710755
 20
420.3191943874482
 30
0.0
 40
4.5
100
AcDbArc
 50
270.0
 51
0.000000000000007
  0
LINE
  5
3183780B
330
318324AF
100
AcDbEntity
  8
JISSEN
100
AcDbLine
 10
163.045775710755
 20
420.3191943874482
 30
0.0
 11
163.045775710755
 21
423.3191943874482
 31
0.0
  0
ARC
  5
3183780C
330
318324AF
100
AcDbEntity
  8
JISSEN
100
AcDbCircle
 10
158.545775710755
 20
423.3191943874482
 30
0.0
 40
4.5
100
AcDbArc
 50
0.000000000000007
 51
90.0
  0
ARC
  5
3183780D
330
318324AF
100
AcDbEntity
  8
JISSEN
100
AcDbCircle
 10
158.545775710755
 20
423.3191943874482
 30
0.0
 40
4.5
100
AcDbArc
 50
90.0
 51
180.0
  0
ARC
  5
3183780E
330
318324AF
100
AcDbEntity
  8
JISSEN
100
AcDbCircle
 10
158.545775710755
 20
420.3191943874486
 30
0.0
 40
4.5
100
AcDbArc
 50
180.0
 51
270.0
  0
LINE
  5
3183780F
330
318324AF
100
AcDbEntity
  8
JISSEN
100
AcDbLine
 10
154.045775710755
 20
423.3191943874486
 30
0.0
 11
154.045775710755
 21
420.3191943874486
 31
0.0
  0
LINE
  5
31837810
330
318324AF
100
AcDbEntity
  8
JISSEN
 48
0.5
100
AcDbLine
 10
41.70047624913547
 20
397.8394920724141
 30
0.0
 11
40.54577571075549
 21
395.8394920724132
 31
0.0
  0
LINE
  5
31837811
330
318324AF
100
AcDbEntity
  8
JISSEN
 48
7.0
100
AcDbLine
 10
41.70047624913547
 20
397.8394920724141
 30
0.0
 11
48.54577571075504
 21
397.8394920724123
 31
0.0
  0
LINE
  5
31837812
330
318324AF
100
AcDbEntity
  8
JISSEN
100
AcDbLine
 10
40.54577571075367
 20
389.677949340533
 30
0.0
 11
48.54577571075276
 21
389.677949340532
 31
0.0
  0
LINE
  5
31837813
330
318324AF
100
AcDbEntity
  8
JISSEN
100
AcDbLine
 10
40.54577571075367
 20
385.3394920724132
 30
0.0
 11
48.54577571075276
 21
385.3394920724123
 31
0.0
  0
LINE
  5
31837814
330
318324AF
100
AcDbEntity
  8
JISSEN
 48
0.5
100
AcDbLine
 10
41.70047624913547
 20
357.8394920724123
 30
0.0
 11
40.54577571075549
 21
359.8394920724127
 31
0.0
  0
LINE
  5
31837815
330
318324AF
100
AcDbEntity
  8
JISSEN
100
AcDbLine
 10
40.54577571075367
 20
366.0010348042934
 30
0.0
 11
48.54577571075276
 21
366.0010348042943
 31
0.0
  0
LINE
  5
31837816
330
318324AF
100
AcDbEntity
  8
JISSEN
100
AcDbLine
 10
40.54577571075367
 20
370.3394920724123
 30
0.0
 11
48.54577571075276
 21
370.3394920724132
 31
0.0
  0
LINE
  5
31837817
330
318324AF
100
AcDbEntity
  8
JISSEN
 48
7.0
100
AcDbLine
 10
40.54577571075549
 20
359.8394920724127
 30
0.0
 11
40.54577571075185
 21
395.8394920724127
 31
0.0
  0
LINE
  5
31837818
330
318324AF
100
AcDbEntity
  8
JISSEN
 48
7.0
100
AcDbLine
 10
41.70047624913547
 20
357.8394920724118
 30
0.0
 11
48.54577571075504
 21
357.8394920724132
 31
0.0
  0
ARC
  5
31837819
330
318324AF
100
AcDbEntity
  8
JISSEN
 48
0.5
100
AcDbCircle
 10
121.924012700253
 20
395.8394920724127
 30
0.0
 40
4.0
100
AcDbArc
 50
270.0
 51
304.9048326068554
  0
LINE
  5
3183781A
330
318324AF
100
AcDbEntity
  8
JISSEN
 48
0.5
100
AcDbLine
 10
112.432554361325
 20
391.8394920724127
 30
0.0
 11
121.924012700253
 21
391.8394920724127
 31
0.0
  0
LINE
  5
3183781B
330
318324AF
100
AcDbEntity
  8
JISSEN
 48
0.5
100
AcDbLine
 10
101.5573172446294
 20
396.4971867483292
 30
0.0
 11
110.7420813143622
 21
392.2142609242661
 31
0.0
  0
ARC
  5
3183781C
330
318324AF
100
AcDbEntity
  8
JISSEN
 48
0.5
100
AcDbCircle
 10
112.432554361325
 20
395.8394920724127
 30
0.0
 40
4.0
100
AcDbArc
 50
245.0000000000006
 51
270.0
  0
LINE
  5
3183781D
330
318324AF
100
AcDbEntity
  8
JISSEN
 48
0.5
100
AcDbLine
 10
111.5457757107532
 20
390.0045834273906
 30
0.0
 11
111.5457757107532
 21
380.6489730867098
 31
0.0
  0
ARC
  5
3183781E
330
318324AF
100
AcDbEntity
  8
JISSEN
100
AcDbCircle
 10
90.99186070111215
 20
373.8394920724132
 30
0.0
 40
25.0
100
AcDbArc
 50
65.00000000000068
 51
90.0
  0
ARC
  5
3183781F
330
318324AF
100
AcDbEntity
  8
JISSEN
100
AcDbCircle
 10
50.04577571075095
 20
397.3394920724132
 30
0.0
 40
1.5
100
AcDbArc
 50
90.0
 51
180.000000000013
  0
LINE
  5
31837820
330
318324AF
100
AcDbEntity
  8
JISSEN
100
AcDbLine
 10
90.99186070111239
 20
398.8394920724132
 30
0.0
 11
50.04577571075095
 21
398.8394920724132
 31
0.0
  0
LINE
  5
31837821
330
318324AF
100
AcDbEntity
  8
JISSEN
 48
0.5
100
AcDbLine
 10
96.53422726718588
 20
395.8113341246454
 30
0.0
 11
96.53422726718588
 21
361.7071824423866
 31
0.0
  0
LINE
  5
31837822
330
318324AF
100
AcDbEntity
  8
JISSEN
100
AcDbLine
 10
77.54577571075322
 20
347.3528606887668
 30
0.0
 11
62.29577571075322
 21
347.3528606887668
 31
0.0
  0
ARC
  5
31837823
330
318324AF
100
AcDbEntity
  8
JISSEN
100
AcDbCircle
 10
62.29577571075322
 20
348.8528606887667
 30
0.0
 40
1.5
100
AcDbArc
 50
180.0
 51
270.0
  0
LINE
  5
31837824
330
318324AF
100
AcDbEntity
  8
JISSEN
100
AcDbLine
 10
60.79577571075322
 20
348.8528606887667
 30
0.0
 11
60.79577571075322
 21
356.8394920724132
 31
0.0
  0
LINE
  5
31837825
330
318324AF
100
AcDbEntity
  8
JISSEN
100
AcDbLine
 10
48.54577571075549
 20
358.3394920724132
 30
0.0
 11
48.54577571075094
 21
397.3019567783131
 31
0.0
  0
ARC
  5
31837826
330
318324AF
100
AcDbEntity
  8
JISSEN
100
AcDbCircle
 10
50.04577571075549
 20
358.3394920724132
 30
0.0
 40
1.5
100
AcDbArc
 50
180.000000000013
 51
270.0
  0
LINE
  5
31837827
330
318324AF
100
AcDbEntity
  8
JISSEN
100
AcDbLine
 10
60.79577571075367
 20
356.8394920724132
 30
0.0
 11
50.04577571075549
 21
356.8394920724132
 31
0.0
  0
ARC
  5
31837828
330
318324AF
100
AcDbEntity
  8
JISSEN
 48
0.5
100
AcDbCircle
 10
77.63051783649268
 20
344.0027734616752
 30
0.0
 40
21.17049567514694
100
AcDbArc
 50
44.04753815862675
 51
142.6739893895463
  0
LINE
  5
31837829
330
318324AF
100
AcDbEntity
  8
JISSEN
100
AcDbLine
 10
131.3307025974398
 20
385.2174924955471
 30
0.0
 11
133.2608488240661
 21
392.4208962793537
 31
0.0
  0
LINE
  5
3183782A
330
318324AF
100
AcDbEntity
  8
JISSEN
100
AcDbLine
 10
128.6940738188499
 20
389.7842675007638
 30
0.0
 11
135.897477602656
 21
387.8541212741371
 31
0.0
  0
CIRCLE
  5
3183782B
330
318324AF
100
AcDbEntity
  8
JISSEN
100
AcDbCircle
 10
132.2957757107532
 20
388.8191943874504
 30
0.0
 40
5.899999999999977
  0
LINE
  5
3183782F
330
318324AF
100
AcDbEntity
  8
JISSEN
100
AcDbLine
 10
181.1940738188501
 20
387.8541212741375
 30
0.0
 11
188.3974776026571
 21
389.7842675007633
 31
0.0
  0
LINE
  5
31837830
330
318324AF
100
AcDbEntity
  8
JISSEN
100
AcDbLine
 10
183.8307025974407
 20
392.4208962793537
 30
0.0
 11
185.7608488240668
 21
385.2174924955471
 31
0.0
  0
CIRCLE
  5
31837831
330
318324AF
100
AcDbEntity
  8
JISSEN
100
AcDbCircle
 10
184.795775710754
 20
388.8191943874509
 30
0.0
 40
5.899999999999977
  0
ARC
  5
31837834
330
318324AF
100
AcDbEntity
  8
JISSEN
100
AcDbCircle
 10
158.5457757107536
 20
343.3528606887668
 30
0.0
 40
59.99999999999954
100
AcDbArc
 50
4.518107841058556
 51
55.48189215893579
  0
ARC
  5
31837835
330
318324AF
100
AcDbEntity
  8
JISSEN
100
AcDbCircle
 10
129.5457757107554
 20
428.8191943874481
 30
0.0
 40
5.0
100
AcDbArc
 50
90.0
 51
180.0
  0
LINE
  5
31837836
330
318324AF
100
AcDbEntity
  8
JISSEN
100
AcDbLine
 10
129.5457757107554
 20
433.819194387449
 30
0.0
 11
187.5457757107551
 21
433.819194387449
 31
0.0
  0
LINE
  5
31837837
330
318324AF
100
AcDbEntity
  8
JISSEN
100
AcDbLine
 10
124.5457757107554
 20
428.8191943874481
 30
0.0
 11
124.5457757107559
 21
385.8191943874485
 31
0.0
  0
LINE
  5
31837838
330
318324AF
100
AcDbEntity
  8
JISSEN
100
AcDbLine
 10
192.545775710756
 20
407.0191943874489
 30
0.0
 11
124.5457757107559
 21
407.019194387448
 31
0.0
  0
ARC
  5
31837839
330
318324AF
100
AcDbEntity
  8
JISSEN
100
AcDbCircle
 10
187.5457757107551
 20
428.819194387449
 30
0.0
 40
5.0
100
AcDbArc
 50
0.000000000000007
 51
90.0
  0
LINE
  5
3183783A
330
318324AF
100
AcDbEntity
  8
JISSEN
100
AcDbLine
 10
192.5457757107551
 20
428.8191943874481
 30
0.0
 11
192.5457757107562
 21
385.8191943874487
 31
0.0
  0
LINE
  5
3183786E
330
318324AF
100
AcDbEntity
  8
JISSEN
100
AcDbLine
 10
183.420461638423
 20
380.8191943874486
 30
0.0
 11
187.5457757107578
 21
380.8191943874486
 31
0.0
  0
ARC
  5
3183786F
330
318324AF
100
AcDbEntity
  8
JISSEN
100
AcDbCircle
 10
158.5457757107575
 20
343.3191943874486
 30
0.0
 40
44.99999999999994
100
AcDbArc
 50
56.44269023807925
 51
123.5573097619207
  0
ARC
  5
31837870
330
318324AF
100
AcDbEntity
  8
JISSEN
100
AcDbCircle
 10
187.5457757107578
 20
385.8191943874486
 30
0.0
 40
5.0
100
AcDbArc
 50
270.0
 51
0.0000000000014885
  0
ARC
  5
31837871
330
318324AF
100
AcDbEntity
  8
JISSEN
100
AcDbCircle
 10
129.5457757107573
 20
385.8191943874486
 30
0.0
 40
5.0
100
AcDbArc
 50
180.0000000000006
 51
270.0
  0
LINE
  5
31837872
330
318324AF
100
AcDbEntity
  8
JISSEN
100
AcDbLine
 10
129.5457757107573
 20
380.8191943874486
 30
0.0
 11
133.671089783092
 21
380.8191943874486
 31
0.0
  0
ARC
  5
31837873
330
318324AF
100
AcDbEntity
  8
JISSEN
100
AcDbCircle
 10
158.5457757107536
 20
343.3528606887668
 30
0.0
 40
59.99999999999954
100
AcDbArc
 50
124.518107841059
 51
175.4818921589361
  0
LINE
  5
31837874
330
318324AF
100
AcDbEntity
  8
JISSEN
100
AcDbLine
 10
140.5989789410279
 20
299.5049571296796
 30
0.0
 11
138.5363219048605
 21
303.077583914911
 31
0.0
  0
ARC
  5
31837875
330
318324AF
100
AcDbEntity
  8
JISSEN
100
AcDbCircle
 10
136.2688519221059
 20
297.0049571296797
 30
0.0
 40
5.0
100
AcDbArc
 50
300.0000000000007
 51
29.99999999999997
  0
ARC
  5
31837876
330
318324AF
100
AcDbEntity
  8
JISSEN
100
AcDbCircle
 10
107.2688519221056
 20
347.2344305491776
 30
0.0
 40
5.0
100
AcDbArc
 50
29.99999999999997
 51
120.0000000000015
  0
ARC
  5
31837877
330
318324AF
100
AcDbEntity
  8
JISSEN
100
AcDbCircle
 10
158.5749315829442
 20
343.3696938394287
 30
0.0
 40
44.99999999999994
100
AcDbArc
 50
176.4426902380792
 51
243.5573097619207
  0
LINE
  5
31837878
330
318324AF
100
AcDbEntity
  8
JISSEN
100
AcDbLine
 10
113.661635977195
 20
346.1618037639463
 30
0.0
 11
111.5989789410276
 21
349.7344305491775
 31
0.0
  0
LINE
  5
31837879
330
318324AF
100
AcDbEntity
  8
JISSEN
100
AcDbLine
 10
67.52975955937642
 20
330.0645575680976
 30
0.0
 11
104.7688519221063
 21
351.5645575680981
 31
0.0
  0
ARC
  5
3183787A
330
318324AF
100
AcDbEntity
  8
JISSEN
100
AcDbCircle
 10
70.02975955937575
 20
325.7344305491751
 30
0.0
 40
5.0
100
AcDbArc
 50
119.9999999999999
 51
209.9999999999999
  0
LINE
  5
3183787B
330
318324AF
100
AcDbEntity
  8
JISSEN
100
AcDbLine
 10
86.40911336187617
 20
340.964557568098
 30
0.0
 11
120.4091133618768
 21
282.0748301107565
 31
0.0
  0
LINE
  5
3183787C
330
318324AF
100
AcDbEntity
  8
JISSEN
100
AcDbLine
 10
101.5297595593761
 20
271.1748301107562
 30
0.0
 11
138.7688519221063
 21
292.6748301107563
 31
0.0
  0
LINE
  5
3183787D
330
318324AF
100
AcDbEntity
  8
JISSEN
100
AcDbLine
 10
94.69963254045309
 20
273.0049571296778
 30
0.0
 11
65.6996325404533
 21
323.234430549175
 31
0.0
  0
ARC
  5
3183787E
330
318324AF
100
AcDbEntity
  8
JISSEN
100
AcDbCircle
 10
99.0297595593762
 20
275.5049571296785
 30
0.0
 40
5.0
100
AcDbArc
 50
209.9999999999999
 51
299.9999999999999
  0
CIRCLE
  5
3183787F
330
318324AF
100
AcDbEntity
  8
JISSEN
100
AcDbCircle
 10
106.0457757107523
 20
343.352860688766
 30
0.0
 40
5.899999999999977
  0
LINE
  5
31837880
330
318324AF
100
AcDbEntity
  8
JISSEN
100
AcDbLine
 10
103.4091469321623
 20
340.7162319101759
 30
0.0
 11
108.6824044893427
 21
345.989489467356
 31
0.0
  0
LINE
  5
31837881
330
318324AF
100
AcDbEntity
  8
JISSEN
100
AcDbLine
 10
108.6824044893427
 20
340.7162319101754
 30
0.0
 11
103.4091469321628
 21
345.989489467356
 31
0.0
  0
CIRCLE
  5
31837882
330
318324AF
100
AcDbEntity
  8
JISSEN
100
AcDbCircle
 10
132.2957757107529
 20
297.8865269900825
 30
0.0
 40
5.899999999999977
  0
LINE
  5
31837883
330
318324AF
100
AcDbEntity
  8
JISSEN
100
AcDbLine
 10
133.2608488240658
 20
294.2848250981791
 30
0.0
 11
131.3307025974401
 21
301.4882288819855
 31
0.0
  0
LINE
  5
31837884
330
318324AF
100
AcDbEntity
  8
JISSEN
100
AcDbLine
 10
135.8974776026562
 20
298.8516001033955
 30
0.0
 11
128.6940738188496
 21
296.921453876769
 31
0.0
  0
LINE
  5
31837885
330
318324AF
100
AcDbEntity
  8
JISSEN
100
AcDbLine
 10
91.54289928019045
 20
299.4725795223966
 30
0.0
 11
94.14097549154382
 21
300.9725795223965
 31
0.0
  0
ARC
  5
31837886
330
318324AF
100
AcDbEntity
  8
JISSEN
100
AcDbCircle
 10
91.89097549154382
 20
304.8696938394266
 30
0.0
 40
4.5
100
AcDbArc
 50
299.9999999999999
 51
29.99999999999997
  0
ARC
  5
31837887
330
318324AF
100
AcDbEntity
  8
JISSEN
100
AcDbCircle
 10
89.29289928019091
 20
303.3696938394268
 30
0.0
 40
4.5
100
AcDbArc
 50
209.9999999999999
 51
299.9999999999999
  0
ARC
  5
31837888
330
318324AF
100
AcDbEntity
  8
JISSEN
100
AcDbCircle
 10
89.29289928019091
 20
303.3696938394268
 30
0.0
 40
4.5
100
AcDbArc
 50
119.9999999999999
 51
209.9999999999999
  0
LINE
  5
31837889
330
318324AF
100
AcDbEntity
  8
JISSEN
100
AcDbLine
 10
89.64097549154406
 20
308.7668081564566
 30
0.0
 11
87.04289928019091
 21
307.2668081564567
 31
0.0
  0
ARC
  5
3183788A
330
318324AF
100
AcDbEntity
  8
JISSEN
100
AcDbCircle
 10
91.89097549154428
 20
304.8696938394268
 30
0.0
 40
4.5
100
AcDbArc
 50
29.99999999999997
 51
119.9999999999999
  0
LINE
  5
3183788B
330
318324AF
100
AcDbEntity
  8
JISSEN
100
AcDbLine
 10
205.4925724804759
 20
349.7344305491708
 30
0.0
 11
203.4299154443085
 21
346.1618037639396
 31
0.0
  0
ARC
  5
3183788C
330
318324AF
100
AcDbEntity
  8
JISSEN
100
AcDbCircle
 10
209.8226994993981
 20
347.234430549171
 30
0.0
 40
5.0
100
AcDbArc
 50
60.00000000000067
 51
149.9999999999999
  0
ARC
  5
3183788D
330
318324AF
100
AcDbEntity
  8
JISSEN
100
AcDbCircle
 10
180.8226994993975
 20
297.0049571296732
 30
0.0
 40
5.0
100
AcDbArc
 50
149.9999999999999
 51
240.0000000000014
  0
ARC
  5
3183788E
330
318324AF
100
AcDbEntity
  8
JISSEN
100
AcDbCircle
 10
158.5166198385589
 20
343.369693839422
 30
0.0
 40
44.99999999999994
100
AcDbArc
 50
296.4426902380791
 51
3.557309761920731
  0
LINE
  5
3183788F
330
318324AF
100
AcDbEntity
  8
JISSEN
100
AcDbLine
 10
178.5552295166429
 20
303.0775839149043
 30
0.0
 11
176.4925724804755
 21
299.504957129673
 31
0.0
  0
LINE
  5
31837890
330
318324AF
100
AcDbEntity
  8
JISSEN
100
AcDbLine
 10
215.5617918621296
 20
271.1748301107533
 30
0.0
 11
178.3226994993987
 21
292.6748301107524
 31
0.0
  0
ARC
  5
31837891
330
318324AF
100
AcDbEntity
  8
JISSEN
100
AcDbCircle
 10
218.0617918621303
 20
275.5049571296753
 30
0.0
 40
5.0
100
AcDbArc
 50
239.9999999999999
 51
330.0
  0
LINE
  5
31837892
330
318324AF
100
AcDbEntity
  8
JISSEN
100
AcDbLine
 10
196.682438059629
 20
282.0748301107523
 30
0.0
 11
230.6824380596283
 21
340.9645575680946
 31
0.0
  0
LINE
  5
31837893
330
318324AF
100
AcDbEntity
  8
JISSEN
100
AcDbLine
 10
249.5617918621294
 20
330.0645575680948
 30
0.0
 11
212.3226994993988
 21
351.5645575680943
 31
0.0
  0
LINE
  5
31837894
330
318324AF
100
AcDbEntity
  8
JISSEN
100
AcDbLine
 10
251.3919188810525
 20
323.2344305491722
 30
0.0
 11
222.3919188810525
 21
273.004957129675
 31
0.0
  0
ARC
  5
31837895
330
318324AF
100
AcDbEntity
  8
JISSEN
100
AcDbCircle
 10
247.0617918621294
 20
325.7344305491728
 30
0.0
 40
5.0
100
AcDbArc
 50
330.0
 51
59.99999999999999
  0
CIRCLE
  5
31837896
330
318324AF
100
AcDbEntity
  8
JISSEN
100
AcDbCircle
 10
184.7957757107549
 20
297.8865269900826
 30
0.0
 40
5.899999999999977
  0
LINE
  5
31837897
330
318324AF
100
AcDbEntity
  8
JISSEN
100
AcDbLine
 10
188.397477602658
 20
296.9214538767695
 30
0.0
 11
181.1940738188512
 21
298.8516001033961
 31
0.0
  0
LINE
  5
31837898
330
318324AF
100
AcDbEntity
  8
JISSEN
100
AcDbLine
 10
185.7608488240682
 20
301.4882288819862
 30
0.0
 11
183.8307025974412
 21
294.2848250981798
 31
0.0
  0
CIRCLE
  5
31837899
330
318324AF
100
AcDbEntity
  8
JISSEN
100
AcDbCircle
 10
211.0457757107549
 20
343.3528606887664
 30
0.0
 40
5.899999999999977
  0
LINE
  5
3183789A
330
318324AF
100
AcDbEntity
  8
JISSEN
100
AcDbLine
 10
213.6824044893453
 20
345.9894894673563
 30
0.0
 11
208.4091469321649
 21
340.7162319101767
 31
0.0
  0
LINE
  5
3183789B
330
318324AF
100
AcDbEntity
  8
JISSEN
100
AcDbLine
 10
208.4091469321649
 20
345.9894894673566
 30
0.0
 11
213.6824044893453
 21
340.7162319101763
 31
0.0
  0
LINE
  5
3183789C
330
318324AF
100
AcDbEntity
  8
JISSEN
100
AcDbLine
 10
230.0486521413156
 20
307.2668081564541
 30
0.0
 11
227.4505759299622
 21
308.766808156454
 31
0.0
  0
ARC
  5
3183789D
330
318324AF
100
AcDbEntity
  8
JISSEN
100
AcDbCircle
 10
225.2005759299622
 20
304.8696938394241
 30
0.0
 40
4.5
100
AcDbArc
 50
59.99999999999999
 51
149.9999999999999
  0
ARC
  5
3183789E
330
318324AF
100
AcDbEntity
  8
JISSEN
100
AcDbCircle
 10
227.7986521413152
 20
303.3696938394244
 30
0.0
 40
4.5
100
AcDbArc
 50
330.0
 51
59.99999999999999
  0
ARC
  5
3183789F
330
318324AF
100
AcDbEntity
  8
JISSEN
100
AcDbCircle
 10
227.7986521413152
 20
303.3696938394244
 30
0.0
 40
4.5
100
AcDbArc
 50
239.9999999999999
 51
330.0
  0
LINE
  5
318378A0
330
318324AF
100
AcDbEntity
  8
JISSEN
100
AcDbLine
 10
222.950575929962
 20
300.9725795223944
 30
0.0
 11
225.5486521413152
 21
299.4725795223944
 31
0.0
  0
ARC
  5
318378A1
330
318324AF
100
AcDbEntity
  8
JISSEN
100
AcDbCircle
 10
225.2005759299618
 20
304.8696938394244
 30
0.0
 40
4.5
100
AcDbArc
 50
149.9999999999999
 51
239.9999999999999
  0
ARC
  5
318378A3
330
318324AF
100
AcDbEntity
  8
JISSEN
100
AcDbCircle
 10
191.5457757107547
 20
281.7407070976151
 30
0.0
 40
10.0
100
AcDbArc
 50
133.3951779657134
 51
180.0
  0
LINE
  5
318378A8
102
{ACAD_REACTORS
330
318378FD
102
}
330
318324AF
100
AcDbEntity
  8
SUNPOU
100
AcDbLine
 10
76.38944486977504
 20
361.6345921613452
 30
0.0
 11
82.38944486977505
 21
355.6345921613452
 31
0.0
  0
LINE
  5
318378A9
102
{ACAD_REACTORS
330
318378FD
102
}
330
318324AF
100
AcDbEntity
  8
SUNPOU
100
AcDbLine
 10
82.38944486977505
 20
355.6345921613452
 30
0.0
 11
79.38944486977504
 21
355.6345921613452
 31
0.0
  0
LINE
  5
318378AA
102
{ACAD_REACTORS
330
318378FD
102
}
330
318324AF
100
AcDbEntity
  8
SUNPOU
100
AcDbLine
 10
79.38944486977504
 20
355.6345921613452
 30
0.0
 11
79.38944486977504
 21
349.6345921613452
 31
0.0
  0
LINE
  5
318378AB
102
{ACAD_REACTORS
330
318378FD
102
}
330
318324AF
100
AcDbEntity
  8
SUNPOU
100
AcDbLine
 10
79.38944486977504
 20
349.6345921613452
 30
0.0
 11
73.38944486977505
 21
349.6345921613452
 31
0.0
  0
LINE
  5
318378B0
102
{ACAD_REACTORS
330
318378FD
102
}
330
318324AF
100
AcDbEntity
  8
SUNPOU
100
AcDbLine
 10
70.38944486977505
 20
355.6345921613452
 30
0.0
 11
73.38944486977505
 21
355.6345921613452
 31
0.0
  0
LINE
  5
318378B1
102
{ACAD_REACTORS
330
318378FD
102
}
330
318324AF
100
AcDbEntity
  8
SUNPOU
100
AcDbLine
 10
76.38944486977504
 20
361.6345921613452
 30
0.0
 11
70.38944486977505
 21
355.6345921613452
 31
0.0
  0
LINE
  5
318378B2
102
{ACAD_REACTORS
330
318378FD
102
}
330
318324AF
100
AcDbEntity
  8
SUNPOU
100
AcDbLine
 10
73.38944486977505
 20
355.6345921613452
 30
0.0
 11
73.38944486977505
 21
349.6345921613452
 31
0.0
  0
HATCH
  5
318378FD
330
318324AF
100
AcDbEntity
  8
JISSEN
100
AcDbHatch
 10
0.0
 20
0.0
 30
0.0
210
0.0
220
0.0
230
1.0
  2
SOLID
 70
     1
 71
     1
 91
        1
 92
        7
 72
     0
 73
     1
 93
        7
 10
79.38944486977527
 20
355.6345921613452
 10
82.38944486977503
 20
355.6345921613452
 10
76.389444869775
 20
361.6345921613452
 10
70.38944486977507
 20
355.6345921613452
 10
73.38944486977505
 20
355.6345921613452
 10
73.38944486977505
 20
349.6345921613452
 10
79.38944486977504
 20
349.6345921613453
 97
        7
330
318378B1
330
318378B0
330
318378B2
330
318378AB
330
318378AA
330
318378A9
330
318378A8
 75
     0
 76
     1
 47
0.3917898068204014
 98
        1
 10
77.12694299966523
 20
355.9993266968649
  0
ARC
  5
31837900
330
318324AF
100
AcDbEntity
  8
JISSEN
100
AcDbCircle
 10
158.5457757107532
 20
281.3528606887686
 30
0.0
 40
108.0000028695476
100
AcDbArc
 50
142.3301142109938
 51
62.7713376052603
  0
LINE
  5
318379E2
330
318324AF
100
AcDbEntity
  8
JISSEN
100
AcDbLine
 10
784.2957757107542
 20
348.8528606887665
 30
0.0
 11
784.2957757107535
 21
356.8394920724139
 31
0.0
  0
LINE
  5
31837A56
330
318324AF
100
AcDbEntity
  8
JISSEN
100
AcDbLine
 10
796.5457757107522
 20
397.3394920724138
 30
0.0
 11
796.5457757107565
 21
357.8394920724118
 31
0.0
  0
LINE
  5
31837A6B
330
318324AF
100
AcDbEntity
  8
JISSEN
100
AcDbLine
 10
784.2957757107542
 20
356.8394920724127
 30
0.0
 11
795.0457757107519
 21
356.8394920724127
 31
0.0
  0
ARC
  5
31837A6C
330
318324AF
100
AcDbEntity
  8
JISSEN
100
AcDbCircle
 10
795.0457757107519
 20
358.3394920724127
 30
0.0
 40
1.5
100
AcDbArc
 50
270.0
 51
359.9999999999869
  0
ARC
  5
31837A6D
330
318324AF
100
AcDbEntity
  8
JISSEN
100
AcDbCircle
 10
795.0457757107565
 20
397.3394920724136
 30
0.0
 40
1.5
100
AcDbArc
 50
359.9999999999869
 51
90.0
  0
LINE
  5
31837A6E
330
318324AF
100
AcDbEntity
  8
JISSEN
 48
7.0
100
AcDbLine
 10
803.391075172372
 20
357.8394920724118
 30
0.0
 11
796.5457757107519
 21
357.8394920724136
 31
0.0
  0
LINE
  5
31837A6F
330
318324AF
100
AcDbEntity
  8
JISSEN
 48
7.0
100
AcDbLine
 10
804.545775710752
 20
359.8394920724127
 30
0.0
 11
804.5457757107556
 21
395.8394920724127
 31
0.0
  0
LINE
  5
31837A70
330
318324AF
100
AcDbEntity
  8
JISSEN
 48
0.5
100
AcDbLine
 10
803.391075172372
 20
357.8394920724118
 30
0.0
 11
804.545775710752
 21
359.8394920724127
 31
0.0
  0
LINE
  5
31837A71
330
318324AF
100
AcDbEntity
  8
JISSEN
100
AcDbLine
 10
796.5457757107547
 20
397.8394920724137
 30
0.0
 11
803.3910751723764
 21
397.8394920724127
 31
0.0
  0
LINE
  5
31837A72
330
318324AF
100
AcDbEntity
  8
JISSEN
 48
0.5
100
AcDbLine
 10
804.5457757107556
 20
395.8394920724127
 30
0.0
 11
803.3910751723764
 21
397.8394920724127
 31
0.0
  0
LINE
  5
31837A8B
330
318324AF
100
AcDbEntity
  8
JISSEN
100
AcDbLine
 10
772.0326204286548
 20
347.3528606887665
 30
0.0
 11
782.7957757107542
 21
347.3528606887665
 31
0.0
  0
ARC
  5
31837A8C
330
318324AF
100
AcDbEntity
  8
JISSEN
100
AcDbCircle
 10
782.7957757107542
 20
348.8528606887665
 30
0.0
 40
1.5
100
AcDbArc
 50
270.0
 51
0.0
  0
LWPOLYLINE
  5
31837AFD
330
318324AF
100
AcDbEntity
  8
WAKU
100
AcDbPolyline
 90
        4
 70
     1
 43
0.0
 10
0.0
 20
0.0
 10
818.9999999999995
 20
0.0
 10
818.9999999999995
 20
542.9999978399999
 10
0.0
 20
542.9999978399999
  0
TEXT
  5
31837E22
330
318324AF
100
AcDbEntity
  8
SUNPOU
100
AcDbText
 10
584.4299915009064
 20
23.08187357040491
 30
0.0
 40
9.0
  1
ウォーターモーターゴング WMG  -A 外観図
  7
K
100
AcDbText
  0
LINE
  5
31837E23
330
318324AF
100
AcDbEntity
  8
SUNPOU
100
AcDbLine
 10
751.1096416692724
 20
32.08124504827252
 30
0.0
 11
757.1096416692731
 21
32.08124504827252
 31
0.0
  0
LINE
  5
31837E24
330
318324AF
100
AcDbEntity
  8
SUNPOU
100
AcDbLine
 10
751.1096416692724
 20
23.08124504827253
 30
0.0
 11
757.1096416692731
 21
23.08124504827253
 31
0.0
  0
LINE
  5
31837E25
330
318324AF
100
AcDbEntity
  8
SUNPOU
100
AcDbLine
 10
752.6096416692731
 20
32.08124504827252
 30
0.0
 11
752.6096416692731
 21
23.08124504827253
 31
0.0
  0
LINE
  5
31837E26
330
318324AF
100
AcDbEntity
  8
SUNPOU
100
AcDbLine
 10
755.6096416692724
 20
32.08124504827252
 30
0.0
 11
755.6096416692724
 21
23.08124504827253
 31
0.0
  0
TEXT
  5
31837E27
330
318324AF
100
AcDbEntity
  8
SUNPOU
100
AcDbText
 10
584.4299915009064
 20
8.081873570404923
 30
0.0
 40
9.0
  1
A4 用紙、印刷尺度：1/3
  7
K
100
AcDbText
  0
LINE
  5
318383E8
330
318324AF
100
AcDbEntity
  8
JISSEN
100
AcDbLine
 10
425.0457757107533
 20
270.5150011929915
 30
0.0
 11
424.0457757107533
 21
269.5150011929915
 31
0.0
  0
LINE
  5
318383E9
330
318324AF
100
AcDbEntity
  8
JISSEN
 48
0.3
100
AcDbLine
 10
424.0457757107533
 20
294.5150011929915
 30
0.0
 11
425.0457757107533
 21
293.5150011929915
 31
0.0
  0
ARC
  5
318383EA
330
318324AF
100
AcDbEntity
  8
JISSEN
100
AcDbCircle
 10
419.5457757107533
 20
296.0150011929915
 30
0.0
 40
1.5
100
AcDbArc
 50
180.0
 51
270.0
  0
LINE
  5
318383EB
330
318324AF
100
AcDbEntity
  8
JISSEN
 48
0.3
100
AcDbLine
 10
425.0457757107533
 20
293.5150011929915
 30
0.0
 11
425.0457757107533
 21
270.5150011929915
 31
0.0
  0
ARC
  5
318383EC
330
318324AF
100
AcDbEntity
  8
JISSEN
100
AcDbCircle
 10
426.0457757107538
 20
362.5150011929017
 30
0.0
 40
1.5
100
AcDbArc
 50
70.52877936551393
 51
90.0
  0
ARC
  5
318383ED
330
318324AF
100
AcDbEntity
  8
JISSEN
100
AcDbCircle
 10
426.0457757107538
 20
325.5150011929017
 30
0.0
 40
1.5
100
AcDbArc
 50
270.0
 51
289.471220634486
  0
LINE
  5
318383EE
330
318324AF
100
AcDbEntity
  8
JISSEN
100
AcDbLine
 10
399.3457757107535
 20
404.0150011929897
 30
0.0
 11
403.8457757107543
 21
404.0150011929897
 31
0.0
  0
LINE
  5
318383EF
330
318324AF
100
AcDbEntity
  8
JISSEN
 48
0.3
100
AcDbLine
 10
353.0457757107528
 20
404.0150011929906
 30
0.0
 11
354.5457757107528
 21
404.0150011929906
 31
0.0
  0
ARC
  5
318383F0
330
318324AF
100
AcDbEntity
  8
JISSEN
100
AcDbCircle
 10
405.5457757107538
 20
403.0150011929897
 30
0.0
 40
1.0
100
AcDbArc
 50
0.0
 51
90.0
  0
LINE
  5
318383F1
330
318324AF
100
AcDbEntity
  8
JISSEN
100
AcDbLine
 10
353.0457757107533
 20
404.0150011929906
 30
0.0
 11
405.5457757107538
 21
404.0150011929897
 31
0.0
  0
ARC
  5
318383F3
330
318324AF
100
AcDbEntity
  8
JISSEN
100
AcDbCircle
 10
405.5457757107538
 20
403.0150011929897
 30
0.0
 40
1.0
100
AcDbArc
 50
0.0
 51
90.0
  0
LINE
  5
318383F4
330
318324AF
100
AcDbEntity
  8
JISSEN
100
AcDbLine
 10
353.0457757107533
 20
404.0150011929906
 30
0.0
 11
405.5457757107538
 21
404.0150011929897
 31
0.0
  0
LINE
  5
318383F6
330
318324AF
100
AcDbEntity
  8
JISSEN
100
AcDbLine
 10
426.0457757107538
 20
364.0150011929017
 30
0.0
 11
410.5457757107533
 21
364.0150011929897
 31
0.0
  0
LINE
  5
318383F7
330
318324AF
100
AcDbEntity
  8
JISSEN
100
AcDbLine
 10
354.5457757107528
 20
267.0150011929897
 30
0.0
 11
405.5877358192037
 21
267.0150011929897
 31
0.0
  0
ARC
  5
318383F8
330
318324AF
100
AcDbEntity
  8
JISSEN
100
AcDbCircle
 10
405.5877358192037
 20
268.0150011929897
 30
0.0
 40
1.0
100
AcDbArc
 50
270.0
 51
350.4059317731748
  0
ARC
  5
318383F9
330
318324AF
100
AcDbEntity
  8
JISSEN
100
AcDbCircle
 10
408.5457757107533
 20
267.5150011929915
 30
0.0
 40
2.0
100
AcDbArc
 50
90.0
 51
170.4059317731748
  0
ARC
  5
318383FA
330
318324AF
100
AcDbEntity
  8
JISSEN
100
AcDbCircle
 10
410.5457757107533
 20
368.0150011929897
 30
0.0
 40
4.0
100
AcDbArc
 50
180.0
 51
270.0
  0
LINE
  5
318383FB
330
318324AF
100
AcDbEntity
  8
JISSEN
100
AcDbLine
 10
406.8457757107535
 20
402.4150011929902
 30
0.0
 11
406.8457757107535
 21
390.6150011929892
 31
0.0
  0
LINE
  5
318383FC
330
318324AF
100
AcDbEntity
  8
JISSEN
100
AcDbLine
 10
406.8457757107535
 20
402.4150011929902
 30
0.0
 11
406.5457757107533
 21
402.4150011929902
 31
0.0
  0
ARC
  5
318383FD
330
318324AF
100
AcDbEntity
  8
JISSEN
100
AcDbCircle
 10
402.0297042821821
 20
396.5150011929897
 30
0.0
 40
7.616071428571543
100
AcDbArc
 50
309.2241874178113
 51
50.77581258218865
  0
LINE
  5
318383FE
330
318324AF
100
AcDbEntity
  8
JISSEN
100
AcDbLine
 10
406.8457757107535
 20
390.6150011929892
 30
0.0
 11
406.5457757107533
 21
390.6150011929892
 31
0.0
  0
LINE
  5
31838402
330
318324AF
100
AcDbEntity
  8
JISSEN
100
AcDbLine
 10
426.5457757107546
 20
362.0155638793192
 30
0.0
 11
427.5457757107546
 21
363.0155638793191
 31
0.0
  0
LINE
  5
31838403
330
318324AF
100
AcDbEntity
  8
JISSEN
100
AcDbLine
 10
426.5457757107519
 20
326.0150011929029
 30
0.0
 11
427.545775710752
 21
325.0150011929028
 31
0.0
  0
LINE
  5
31838404
330
318324AF
100
AcDbEntity
  8
JISSEN
100
AcDbLine
 10
353.0457757107528
 20
404.0150011929906
 30
0.0
 11
351.0457757107533
 21
404.0150011929906
 31
0.0
  0
LINE
  5
31838405
330
318324AF
100
AcDbEntity
  8
JISSEN
100
AcDbLine
 10
419.5457757107533
 20
294.5150011929915
 30
0.0
 11
424.0457757107533
 21
294.5150011929915
 31
0.0
  0
LINE
  5
31838406
330
318324AF
100
AcDbEntity
  8
JISSEN
100
AcDbLine
 10
408.5457757107533
 20
269.5150011929915
 30
0.0
 11
424.0457757107533
 21
269.5150011929915
 31
0.0
  0
LINE
  5
31838407
330
318324AF
100
AcDbEntity
  8
JISSEN
100
AcDbLine
 10
418.0457757107533
 20
296.0150011929915
 30
0.0
 11
418.0457757107533
 21
322.5150011929897
 31
0.0
  0
ARC
  5
31838408
330
318324AF
100
AcDbEntity
  8
JISSEN
100
AcDbCircle
 10
419.5457757107533
 20
322.5150011929897
 30
0.0
 40
1.5
100
AcDbArc
 50
90.0
 51
180.0
  0
LINE
  5
31838409
330
318324AF
100
AcDbEntity
  8
JISSEN
100
AcDbLine
 10
419.5457757107533
 20
324.0150011929897
 30
0.0
 11
426.0457757107538
 21
324.0150011929017
 31
0.0
  0
LINE
  5
3183840A
330
318324AF
100
AcDbEntity
  8
JISSEN
100
AcDbLine
 10
351.0457757107533
 20
404.0150011929906
 30
0.0
 11
351.0457757107533
 21
283.3528606887668
 31
0.0
  0
LINE
  5
3183840B
330
318324AF
100
AcDbEntity
  8
JISSEN
100
AcDbLine
 10
354.5457757107528
 20
404.0150011929906
 30
0.0
 11
402.8457757107544
 21
404.0150011929897
 31
0.0
  0
LINE
  5
3183840C
330
318324AF
100
AcDbEntity
  8
HATCH
 48
0.3
100
AcDbLine
 10
425.0457757107533
 20
292.8784535232377
 30
0.0
 11
423.409228041
 21
294.5150011929915
 31
0.0
  0
LINE
  5
3183840D
330
318324AF
100
AcDbEntity
  8
JISSEN
100
AcDbLine
 10
347.5457757107533
 20
394.7191931098807
 30
0.0
 11
347.8457757107535
 21
394.7191931098807
 31
0.0
  0
LINE
  5
3183840E
330
318324AF
100
AcDbEntity
  8
JISSEN
100
AcDbLine
 10
347.8457757107535
 20
380.8191943874492
 30
0.0
 11
351.0457757107533
 21
380.8191943874492
 31
0.0
  0
ARC
  5
3183840F
330
318324AF
100
AcDbEntity
  8
JISSEN
100
AcDbCircle
 10
352.3618471393251
 20
388.8191931098802
 30
0.0
 40
7.616071428571543
100
AcDbArc
 50
129.2241874178026
 51
230.7758125821973
  0
LINE
  5
31838410
330
318324AF
100
AcDbEntity
  8
JISSEN
100
AcDbLine
 10
347.5457757107533
 20
394.7191931098807
 30
0.0
 11
347.5457757107533
 21
382.9191931098805
 31
0.0
  0
LINE
  5
31838411
330
318324AF
100
AcDbEntity
  8
JISSEN
100
AcDbLine
 10
347.5457757107533
 20
382.9191931098805
 30
0.0
 11
347.8457757107535
 21
382.9191931098805
 31
0.0
  0
LINE
  5
31838412
330
318324AF
100
AcDbEntity
  8
JISSEN
100
AcDbLine
 10
347.8457757107535
 20
400.8191943874496
 30
0.0
 11
347.8457757107535
 21
380.8191943874492
 31
0.0
  0
LINE
  5
31838413
330
318324AF
100
AcDbEntity
  8
JISSEN
100
AcDbLine
 10
344.8457757107535
 20
403.8191943874497
 30
0.0
 11
334.2457757107536
 21
403.8191943874497
 31
0.0
  0
ARC
  5
31838414
330
318324AF
100
AcDbEntity
  8
JISSEN
100
AcDbCircle
 10
344.8457757107535
 20
400.8191943874496
 30
0.0
 40
3.0
100
AcDbArc
 50
0.0
 51
90.0
  0
ARC
  5
31838415
330
318324AF
100
AcDbEntity
  8
JISSEN
100
AcDbCircle
 10
344.8457757107535
 20
400.8191943874501
 30
0.0
 40
6.2
100
AcDbArc
 50
0.0
 51
90.0
  0
LINE
  5
31838416
330
318324AF
100
AcDbEntity
  8
JISSEN
100
AcDbLine
 10
334.2457757107536
 20
407.0191943874499
 30
0.0
 11
344.8457757107535
 21
407.0191943874499
 31
0.0
  0
ARC
  5
31838417
330
318324AF
100
AcDbEntity
  8
JISSEN
100
AcDbCircle
 10
334.2457757107536
 20
410.0191943874499
 30
0.0
 40
3.0
100
AcDbArc
 50
180.0
 51
270.0
  0
ARC
  5
31838418
330
318324AF
100
AcDbEntity
  8
JISSEN
100
AcDbCircle
 10
334.2457757107536
 20
410.0191943874499
 30
0.0
 40
6.2
100
AcDbArc
 50
180.0
 51
270.0
  0
LINE
  5
31838419
330
318324AF
100
AcDbEntity
  8
JISSEN
100
AcDbLine
 10
328.0457757107533
 20
433.8191943874492
 30
0.0
 11
328.0457757107535
 21
410.0191943874499
 31
0.0
  0
LINE
  5
3183841A
330
318324AF
100
AcDbEntity
  8
JISSEN
100
AcDbLine
 10
328.0457757107533
 20
433.8191943874492
 30
0.0
 11
331.2457757107535
 21
433.8191943874492
 31
0.0
  0
LINE
  5
3183841B
330
318324AF
100
AcDbEntity
  8
JISSEN
100
AcDbLine
 10
331.2457757107535
 20
433.8191943874492
 30
0.0
 11
331.2457757107535
 21
410.0191943874499
 31
0.0
  0
LINE
  5
3183841C
330
318324AF
100
AcDbEntity
  8
JISSEN
100
AcDbLine
 10
331.2457757107535
 20
414.561899720404
 30
0.0
 11
331.2457757107535
 21
429.0764854878309
 31
0.0
  0
LINE
  5
31838454
330
318324AF
100
AcDbEntity
  8
JISSEN
100
AcDbLine
 10
427.5457757107542
 20
363.0155638793187
 30
0.0
 11
463.5457665957802
 21
363.0155638793187
 31
0.0
  0
LINE
  5
3183848D
330
318324AF
100
AcDbEntity
  8
JISSEN
100
AcDbLine
 10
427.5457757107528
 20
325.015001192902
 30
0.0
 11
463.5457665678011
 21
325.015001192902
 31
0.0
  0
LINE
  5
31838533
330
318324AF
100
AcDbEntity
  8
JISSEN
100
AcDbLine
 10
426.5457757107538
 20
363.9292147552748
 30
0.0
 11
426.5457757107538
 21
324.1007876305286
 31
0.0
  0
LINE
  5
31838534
330
318324AF
100
AcDbEntity
  8
JISSEN
100
AcDbLine
 10
400.5457757107533
 20
404.0150011929898
 30
0.0
 11
400.5457757107533
 21
267.0150011929897
 31
0.0
  0
ELLIPSE
  5
3183856F
330
318324AF
100
AcDbEntity
  8
JISSEN
100
AcDbEllipse
 10
344.8457757107526
 20
285.1748301107538
 30
0.0
 11
6.199999999999818
 21
0.0
 31
0.0
210
0.0
220
0.0
230
1.0
 40
0.5000000000000734
 41
4.712388980384689
 42
6.283185307179586
  0
ELLIPSE
  5
31838570
330
318324AF
100
AcDbEntity
  8
JISSEN
100
AcDbEllipse
 10
334.2457757107536
 20
280.574830110753
 30
0.0
 11
-3.0
 21
0.0
 31
0.0
210
0.0
220
0.0
230
1.0
 40
0.5000000000000759
 41
4.712388980384689
 42
6.283185307179586
  0
ELLIPSE
  5
31838571
330
318324AF
100
AcDbEntity
  8
JISSEN
100
AcDbEllipse
 10
344.8457757107535
 20
344.0645575680957
 30
0.0
 11
6.199999999999818
 21
0.0
 31
0.0
210
0.0
220
0.0
230
1.0
 40
0.5000000000000734
 41
4.712388980384689
 42
6.283185307179586
  0
ELLIPSE
  5
31838572
330
318324AF
100
AcDbEntity
  8
JISSEN
100
AcDbEllipse
 10
344.8457757107535
 20
344.0645575680957
 30
0.0
 11
3.0
 21
0.0
 31
0.0
210
0.0
220
0.0
230
1.0
 40
0.5000000000000759
 41
4.712388980384689
 42
6.283185307179586
  0
ELLIPSE
  5
31838573
330
318324AF
100
AcDbEntity
  8
JISSEN
100
AcDbEllipse
 10
334.2457757107536
 20
339.4645575680954
 30
0.0
 11
-6.200000000000271
 21
0.0
 31
0.0
210
0.0
220
0.0
230
1.0
 40
0.5000000000000368
 41
4.712388980384689
 42
6.283185307179586
  0
ELLIPSE
  5
31838574
330
318324AF
100
AcDbEntity
  8
JISSEN
100
AcDbEllipse
 10
334.2457757107536
 20
339.4645575680954
 30
0.0
 11
-3.0
 21
0.0
 31
0.0
210
0.0
220
0.0
230
1.0
 40
0.5
 41
4.712388980384689
 42
6.283185307179586
  0
LINE
  5
31838575
330
318324AF
100
AcDbEntity
  8
JISSEN
100
AcDbLine
 10
344.8457757107521
 20
282.0748301107535
 30
0.0
 11
334.2457757107531
 21
282.0748301107535
 31
0.0
  0
LINE
  5
31838576
330
318324AF
100
AcDbEntity
  8
JISSEN
100
AcDbLine
 10
344.8457757107535
 20
342.5645575680953
 30
0.0
 11
334.2457757107522
 21
342.5645575680953
 31
0.0
  0
LINE
  5
31838577
330
318324AF
100
AcDbEntity
  8
JISSEN
100
AcDbLine
 10
344.8457757107535
 20
342.5645575680957
 30
0.0
 11
334.2457757107522
 21
342.5645575680957
 31
0.0
  0
LINE
  5
31838578
330
318324AF
100
AcDbEntity
  8
JISSEN
100
AcDbLine
 10
334.2457757107536
 20
340.9645575680954
 30
0.0
 11
344.8457757107548
 21
340.9645575680954
 31
0.0
  0
LINE
  5
31838579
330
318324AF
100
AcDbEntity
  8
JISSEN
100
AcDbLine
 10
347.8457757107535
 20
352.2122763591557
 30
0.0
 11
347.8457757107535
 21
344.0645575680957
 31
0.0
  0
LINE
  5
3183857A
330
318324AF
100
AcDbEntity
  8
JISSEN
100
AcDbLine
 10
351.0457757107533
 20
352.2122763591557
 30
0.0
 11
347.8457757107535
 21
352.2122763591557
 31
0.0
  0
LINE
  5
3183857B
330
318324AF
100
AcDbEntity
  8
JISSEN
100
AcDbLine
 10
331.2457757107535
 20
339.4645575680945
 30
0.0
 11
331.2457757107535
 21
327.5645575680957
 31
0.0
  0
LWPOLYLINE
  5
3183857C
330
318324AF
100
AcDbEntity
  8
JISSEN
100
AcDbPolyline
 90
        4
 70
     1
 43
0.0
 10
328.0457757107533
 20
327.5645575680957
 10
331.2457757107535
 20
327.5645575680957
 10
331.2457757107535
 20
268.6748301107538
 10
328.0457757107533
 20
268.6748301107538
  0
LINE
  5
3183857D
330
318324AF
100
AcDbEntity
  8
JISSEN
100
AcDbLine
 10
354.5457757107533
 20
283.3528606887668
 30
0.0
 11
353.0457757107533
 21
283.3528606887668
 31
0.0
  0
LINE
  5
3183857E
330
318324AF
100
AcDbEntity
  8
JISSEN
100
AcDbLine
 10
354.5457757107528
 20
283.3528606887668
 30
0.0
 11
354.5457757107528
 21
267.0150011929897
 31
0.0
  0
LINE
  5
3183857F
330
318324AF
100
AcDbEntity
  8
JISSEN
100
AcDbLine
 10
351.0457757107533
 20
283.3528606887668
 30
0.0
 11
353.0457757107533
 21
283.3528606887668
 31
0.0
  0
LINE
  5
31838580
330
318324AF
100
AcDbEntity
  8
JISSEN
100
AcDbLine
 10
328.0457757107533
 20
339.4645575680954
 30
0.0
 11
328.0457757107533
 21
327.5645575680957
 31
0.0
  0
LINE
  5
31838721
330
318324AF
100
AcDbEntity
  8
SUNPOU
100
AcDbLine
 10
754.1096416692728
 20
32.08124504827252
 30
0.0
 11
754.1096416692728
 21
23.08124504827253
 31
0.0
  0
LINE
  5
31838723
330
318324AF
100
AcDbEntity
  8
JISSEN
100
AcDbLine
 10
406.5457757107537
 20
403.0150011929897
 30
0.0
 11
406.5737491163871
 21
267.8483345263237
 31
0.0
  0
LINE
  5
3183872F
330
318324AF
100
AcDbEntity
  8
SAISEN
100
AcDbLine
 10
711.7180196881053
 20
305.258839738288
 30
0.0
 11
711.7180196881053
 21
301.2618147974998
 31
0.0
  0
ENDSEC
  0
SECTION
  2
OBJECTS
  0
DICTIONARY
  5
318324A3
330
0
100
AcDbDictionary
  3
ACAD_GROUP
350
318324A4
  3
ACAD_LAYOUT
350
31837BA9
  3
ACAD_MLINESTYLE
350
318324A5
  3
ACAD_PLOTSETTINGS
350
31837BAA
  3
ACAD_PLOTSTYLENAME
350
31837BA7
  3
ACDBHEADERROUNDTRIPXREC
350
31838732
  3
ACDBVARIABLEDICTIONARY
350
31833B85
  0
DICTIONARY
  5
31838040
330
31832499
100
AcDbDictionary
280
     1
  3
ACAD_LAYERSTATES
360
31838041
  0
DICTIONARY
  5
31837BDA
330
318324AF
100
AcDbDictionary
280
     1
  3
ACAD_LAYOUTSELFREF
360
31838754
  0
DICTIONARY
  5
31837BD8
330
318324AC
100
AcDbDictionary
280
     1
  3
ACAD_LAYOUTSELFREF
360
31838753
  0
DICTIONARY
  5
318324A4
102
{ACAD_REACTORS
330
318324A3
102
}
330
318324A3
100
AcDbDictionary
  0
DICTIONARY
  5
31837BA9
102
{ACAD_REACTORS
330
318324A3
102
}
330
318324A3
100
AcDbDictionary
  0
DICTIONARY
  5
318324A5
102
{ACAD_REACTORS
330
318324A3
102
}
330
318324A3
100
AcDbDictionary
  3
STANDARD
350
318324B2
  0
DICTIONARY
  5
31837BAA
102
{ACAD_REACTORS
330
318324A3
102
}
330
318324A3
100
AcDbDictionary
  0
ACDBDICTIONARYWDFLT
  5
31837BA7
102
{ACAD_REACTORS
330
318324A3
102
}
330
318324A3
100
AcDbDictionary
281
     1
  3
Normal
350
31837BA8
100
AcDbDictionaryWithDefault
340
31837BA8
  0
DICTIONARY
  5
31838732
102
{ACAD_REACTORS
330
318324A3
102
}
330
318324A3
100
AcDbDictionary
  3
CEPSNTYPE
350
3183873C
  3
DIMSTYLEDATA
350
31838740
  3
FINGERPRINTGUID
350
3183873D
  3
HYPERLINKBASE
350
31838735
  3
INSUNITS
350
3183873B
  3
LAYOUTDICT
350
31838737
  3
LWETCUNION
350
3183873A
  3
PLOTSETDICT
350
31838738
  3
PLOTSTYLNAMDICT
350
31838739
  3
PSVPSCALE
350
3183873F
  3
PUCSBASE
350
31838743
  3
PUCSORGBACK
350
31838749
  3
PUCSORGBOTTOM
350
31838745
  3
PUCSORGFRONT
350
31838748
  3
PUCSORGLEFT
350
31838746
  3
PUCSORGRIGHT
350
31838747
  3
PUCSORGTOP
350
31838744
  3
PUCSORTHOREF
350
31838741
  3
PUCSORTHOVIEW
350
31838742
  3
STYLESHEET
350
31838736
  3
TSTACKALIGN
350
31838733
  3
TSTACKSIZE
350
31838734
  3
UCSBASE
350
3183874C
  3
UCSORGBACK
350
31838752
  3
UCSORGBOTTOM
350
3183874E
  3
UCSORGFRONT
350
31838751
  3
UCSORGLEFT
350
3183874F
  3
UCSORGRIGHT
350
31838750
  3
UCSORGTOP
350
3183874D
  3
UCSORTHOREF
350
3183874A
  3
UCSORTHOVIEW
350
3183874B
  3
VERSIONGUID
350
3183873E
  0
DICTIONARY
  5
31833B85
102
{ACAD_REACTORS
330
318324A3
102
}
330
318324A3
100
AcDbDictionary
  3
DIMASSOC
350
31837E64
  3
SORTENTS
350
31833B86
  0
DICTIONARY
  5
31838041
102
{ACAD_REACTORS
330
31838040
102
}
330
31838040
100
AcDbDictionary
  0
XRECORD
  5
31838754
102
{ACAD_REACTORS
330
31837BDA
102
}
330
31837BDA
100
AcDbXrecord
340
318324AF
  0
XRECORD
  5
31838753
102
{ACAD_REACTORS
330
31837BD8
102
}
330
31837BD8
100
AcDbXrecord
340
318324AC
  0
MLINESTYLE
  5
318324B2
102
{ACAD_REACTORS
330
318324A5
102
}
330
318324A5
100
AcDbMlineStyle
  2
STANDARD
 70
     0
  3

 62
     0
 51
90.0
 52
90.0
 71
     2
 49
0.5
 62
   256
  6
BYLAYER
 49
-0.5
 62
   256
  6
BYLAYER
  0
ACDBPLACEHOLDER
  5
31837BA8
102
{ACAD_REACTORS
330
31837BA7
102
}
330
31837BA7
100
AcDbPlaceHolder
280
     0
  0
XRECORD
  5
3183873C
102
{ACAD_REACTORS
330
31838732
102
}
330
31838732
100
AcDbXrecord
 90
        0
  0
XRECORD
  5
31838740
102
{ACAD_REACTORS
330
31838732
102
}
330
31838732
100
AcDbXrecord
1000
DSTYLE
1002
{
1070
   341
340
318324B9
1070
   342
340
318324B9
1070
   343
340
318324B9
1070
   344
340
318324B9
1002
}
  0
XRECORD
  5
3183873D
102
{ACAD_REACTORS
330
31838732
102
}
330
31838732
100
AcDbXrecord
  1
{151A5143-241F-4DB8-9D5C-D77B69367189}
  0
XRECORD
  5
31838735
102
{ACAD_REACTORS
330
31838732
102
}
330
31838732
100
AcDbXrecord
  1

  0
XRECORD
  5
3183873B
102
{ACAD_REACTORS
330
31838732
102
}
330
31838732
100
AcDbXrecord
 90
        0
  0
XRECORD
  5
31838737
102
{ACAD_REACTORS
330
31838732
102
}
330
31838732
100
AcDbXrecord
340
31837BA9
  0
XRECORD
  5
3183873A
102
{ACAD_REACTORS
330
31838732
102
}
330
31838732
100
AcDbXrecord
 90
    14877
  0
XRECORD
  5
31838738
102
{ACAD_REACTORS
330
31838732
102
}
330
31838732
100
AcDbXrecord
340
31837BAA
  0
XRECORD
  5
31838739
102
{ACAD_REACTORS
330
31838732
102
}
330
31838732
100
AcDbXrecord
340
31837BA7
  0
XRECORD
  5
3183873F
102
{ACAD_REACTORS
330
31838732
102
}
330
31838732
100
AcDbXrecord
 40
0.0
  0
XRECORD
  5
31838743
102
{ACAD_REACTORS
330
31838732
102
}
330
31838732
100
AcDbXrecord
340
0
  0
XRECORD
  5
31838749
102
{ACAD_REACTORS
330
31838732
102
}
330
31838732
100
AcDbXrecord
 10
0.0
 20
0.0
 30
0.0
  0
XRECORD
  5
31838745
102
{ACAD_REACTORS
330
31838732
102
}
330
31838732
100
AcDbXrecord
 10
0.0
 20
0.0
 30
0.0
  0
XRECORD
  5
31838748
102
{ACAD_REACTORS
330
31838732
102
}
330
31838732
100
AcDbXrecord
 10
0.0
 20
0.0
 30
0.0
  0
XRECORD
  5
31838746
102
{ACAD_REACTORS
330
31838732
102
}
330
31838732
100
AcDbXrecord
 10
0.0
 20
0.0
 30
0.0
  0
XRECORD
  5
31838747
102
{ACAD_REACTORS
330
31838732
102
}
330
31838732
100
AcDbXrecord
 10
0.0
 20
0.0
 30
0.0
  0
XRECORD
  5
31838744
102
{ACAD_REACTORS
330
31838732
102
}
330
31838732
100
AcDbXrecord
 10
0.0
 20
0.0
 30
0.0
  0
XRECORD
  5
31838741
102
{ACAD_REACTORS
330
31838732
102
}
330
31838732
100
AcDbXrecord
340
0
  0
XRECORD
  5
31838742
102
{ACAD_REACTORS
330
31838732
102
}
330
31838732
100
AcDbXrecord
 70
     0
  0
XRECORD
  5
31838736
102
{ACAD_REACTORS
330
31838732
102
}
330
31838732
100
AcDbXrecord
  1
aclt.ctb
  0
XRECORD
  5
31838733
102
{ACAD_REACTORS
330
31838732
102
}
330
31838732
100
AcDbXrecord
 90
        1
  0
XRECORD
  5
31838734
102
{ACAD_REACTORS
330
31838732
102
}
330
31838732
100
AcDbXrecord
 90
       70
  0
XRECORD
  5
3183874C
102
{ACAD_REACTORS
330
31838732
102
}
330
31838732
100
AcDbXrecord
340
0
  0
XRECORD
  5
31838752
102
{ACAD_REACTORS
330
31838732
102
}
330
31838732
100
AcDbXrecord
 10
0.0
 20
0.0
 30
0.0
  0
XRECORD
  5
3183874E
102
{ACAD_REACTORS
330
31838732
102
}
330
31838732
100
AcDbXrecord
 10
0.0
 20
0.0
 30
0.0
  0
XRECORD
  5
31838751
102
{ACAD_REACTORS
330
31838732
102
}
330
31838732
100
AcDbXrecord
 10
0.0
 20
0.0
 30
0.0
  0
XRECORD
  5
3183874F
102
{ACAD_REACTORS
330
31838732
102
}
330
31838732
100
AcDbXrecord
 10
0.0
 20
0.0
 30
0.0
  0
XRECORD
  5
31838750
102
{ACAD_REACTORS
330
31838732
102
}
330
31838732
100
AcDbXrecord
 10
0.0
 20
0.0
 30
0.0
  0
XRECORD
  5
3183874D
102
{ACAD_REACTORS
330
31838732
102
}
330
31838732
100
AcDbXrecord
 10
0.0
 20
0.0
 30
0.0
  0
XRECORD
  5
3183874A
102
{ACAD_REACTORS
330
31838732
102
}
330
31838732
100
AcDbXrecord
340
0
  0
XRECORD
  5
3183874B
102
{ACAD_REACTORS
330
31838732
102
}
330
31838732
100
AcDbXrecord
 70
     0
  0
XRECORD
  5
3183873E
102
{ACAD_REACTORS
330
31838732
102
}
330
31838732
100
AcDbXrecord
  1
{6D623ED5-C23A-4478-9E38-F62A40DF1954}
  0
DICTIONARYVAR
  5
31837E64
102
{ACAD_REACTORS
330
31833B85
102
}
330
31833B85
100
DictionaryVariables
280
     0
  1
0
  0
DICTIONARYVAR
  5
31833B86
102
{ACAD_REACTORS
330
31833B85
102
}
330
31833B85
100
DictionaryVariables
280
     0
  1
96
  0
ENDSEC
  0
EOF
