  0
SECTION
  2
HEADER
  9
$ACADVER
  1
AC1014
  9
$ACADMAINTVER
 70
     9
  9
$DWGCODEPAGE
  3
ANSI_932
  9
$INSBASE
 10
0.0
 20
0.0
 30
0.0
  9
$EXTMIN
 10
0.0
 20
0.0
 30
0.0
  9
$EXTMAX
 10
723.999998
 20
546.0
 30
0.0
  9
$LIMMIN
 10
0.0
 20
0.0
  9
$LIMMAX
 10
361.999999
 20
546.0
  9
$ORTHOMODE
 70
     1
  9
$REGENMODE
 70
     1
  9
$FILLMODE
 70
     1
  9
$QTEXTMODE
 70
     0
  9
$MIRRTEXT
 70
     0
  9
$DRAGMODE
 70
     2
  9
$LTSCALE
 40
10.0
  9
$OSMODE
 70
   167
  9
$ATTMODE
 70
     1
  9
$TEXTSIZE
 40
6.0
  9
$TRACEWID
 40
0.05
  9
$TEXTSTYLE
  7
K
  9
$CLAYER
  8
JISSEN
  9
$CELTYPE
  6
BYLAYER
  9
$CECOLOR
 62
   256
  9
$CELTSCALE
 40
1.0
  9
$DELOBJ
 70
     1
  9
$DISPSILH
 70
     0
  9
$DIMSCALE
 40
2.0
  9
$DIMASZ
 40
1.5
  9
$DIMEXO
 40
1.0
  9
$DIMDLI
 40
6.0
  9
$DIMRND
 40
0.0
  9
$DIMDLE
 40
0.0
  9
$DIMEXE
 40
1.0
  9
$DIMTP
 40
495.0
  9
$DIMTM
 40
0.0
  9
$DIMTXT
 40
3.0
  9
$DIMCEN
 40
0.0
  9
$DIMTSZ
 40
0.0
  9
$DIMTOL
 70
     0
  9
$DIMLIM
 70
     0
  9
$DIMTIH
 70
     0
  9
$DIMTOH
 70
     0
  9
$DIMSE1
 70
     0
  9
$DIMSE2
 70
     0
  9
$DIMTAD
 70
     1
  9
$DIMZIN
 70
     8
  9
$DIMBLK
  1
ARROW
  9
$DIMASO
 70
     0
  9
$DIMSHO
 70
     0
  9
$DIMPOST
  1

  9
$DIMAPOST
  1

  9
$DIMALT
 70
     0
  9
$DIMALTD
 70
     2
  9
$DIMALTF
 40
25.4
  9
$DIMLFAC
 40
1.0
  9
$DIMTOFL
 70
     1
  9
$DIMTVP
 40
0.0
  9
$DIMTIX
 70
     1
  9
$DIMSOXD
 70
     0
  9
$DIMSAH
 70
     0
  9
$DIMBLK1
  1

  9
$DIMBLK2
  1

  9
$DIMSTYLE
  2
IMAO
  9
$DIMCLRD
 70
     0
  9
$DIMCLRE
 70
     0
  9
$DIMCLRT
 70
     0
  9
$DIMTFAC
 40
1.0
  9
$DIMGAP
 40
0.09
  9
$DIMJUST
 70
     0
  9
$DIMSD1
 70
     0
  9
$DIMSD2
 70
     0
  9
$DIMTOLJ
 70
     1
  9
$DIMTZIN
 70
     8
  9
$DIMALTZ
 70
     8
  9
$DIMALTTZ
 70
     8
  9
$DIMFIT
 70
     5
  9
$DIMUPT
 70
     0
  9
$DIMUNIT
 70
     2
  9
$DIMDEC
 70
     2
  9
$DIMTDEC
 70
     2
  9
$DIMALTU
 70
     2
  9
$DIMALTTD
 70
     2
  9
$DIMTXSTY
  7
K
  9
$DIMAUNIT
 70
     0
  9
$LUNITS
 70
     2
  9
$LUPREC
 70
     2
  9
$SKETCHINC
 40
0.1
  9
$FILLETRAD
 40
2.0
  9
$AUNITS
 70
     0
  9
$AUPREC
 70
     2
  9
$MENU
  1
stdr12j
  9
$ELEVATION
 40
0.0
  9
$PELEVATION
 40
0.0
  9
$THICKNESS
 40
0.0
  9
$LIMCHECK
 70
     0
  9
$BLIPMODE
 70
     0
  9
$CHAMFERA
 40
0.0
  9
$CHAMFERB
 40
0.0
  9
$CHAMFERC
 40
0.0
  9
$CHAMFERD
 40
0.0
  9
$SKPOLY
 70
     0
  9
$TDCREATE
 40
2449987.420485764
  9
$TDUPDATE
 40
2453334.755263854
  9
$TDINDWG
 40
0.0507510764
  9
$TDUSRTIMER
 40
0.0507510764
  9
$USRTIMER
 70
     1
  9
$ANGBASE
 50
0.0
  9
$ANGDIR
 70
     0
  9
$PDMODE
 70
     0
  9
$PDSIZE
 40
0.0
  9
$PLINEWID
 40
0.0
  9
$COORDS
 70
     2
  9
$SPLFRAME
 70
     0
  9
$SPLINETYPE
 70
     6
  9
$SPLINESEGS
 70
     8
  9
$ATTDIA
 70
     0
  9
$ATTREQ
 70
     1
  9
$HANDLING
 70
 22529
  9
$HANDSEED
  5
4824BA3
  9
$SURFTAB1
 70
     6
  9
$SURFTAB2
 70
     6
  9
$SURFTYPE
 70
     6
  9
$SURFU
 70
     6
  9
$SURFV
 70
     6
  9
$UCSNAME
  2

  9
$UCSORG
 10
0.0
 20
0.0
 30
0.0
  9
$UCSXDIR
 10
1.0
 20
0.0
 30
0.0
  9
$UCSYDIR
 10
0.0
 20
1.0
 30
0.0
  9
$PUCSNAME
  2

  9
$PUCSORG
 10
0.0
 20
0.0
 30
0.0
  9
$PUCSXDIR
 10
1.0
 20
0.0
 30
0.0
  9
$PUCSYDIR
 10
0.0
 20
1.0
 30
0.0
  9
$USERI1
 70
     4
  9
$USERI2
 70
     1
  9
$USERI3
 70
     2
  9
$USERI4
 70
     2
  9
$USERI5
 70
     0
  9
$USERR1
 40
2.0
  9
$USERR2
 40
3.0
  9
$USERR3
 40
3.0
  9
$USERR4
 40
1.5
  9
$USERR5
 40
10.0
  9
$WORLDVIEW
 70
     1
  9
$SHADEDGE
 70
     3
  9
$SHADEDIF
 70
    70
  9
$TILEMODE
 70
     1
  9
$MAXACTVP
 70
    16
  9
$PINSBASE
 10
0.0
 20
0.0
 30
0.0
  9
$PLIMCHECK
 70
     0
  9
$PEXTMIN
 10
1.000000000000000E+20
 20
1.000000000000000E+20
 30
1.000000000000000E+20
  9
$PEXTMAX
 10
-1.000000000000000E+20
 20
-1.000000000000000E+20
 30
-1.000000000000000E+20
  9
$PLIMMIN
 10
0.0
 20
0.0
  9
$PLIMMAX
 10
12.0
 20
9.0
  9
$UNITMODE
 70
     0
  9
$VISRETAIN
 70
     0
  9
$PLINEGEN
 70
     0
  9
$PSLTSCALE
 70
     0
  9
$TREEDEPTH
 70
  3020
  9
$PICKSTYLE
 70
     1
  9
$CMLSTYLE
  2
STANDARD
  9
$CMLJUST
 70
     0
  9
$CMLSCALE
 40
1.0
  9
$PROXYGRAPHICS
 70
     1
  9
$MEASUREMENT
 70
     0
  0
ENDSEC
  0
SECTION
  2
CLASSES
  0
CLASS
  1
LWPOLYLINE
  2
AcDbPolyline
  3
AutoCAD 2000
 90
        0
280
     0
281
     1
  0
CLASS
  1
HATCH
  2
AcDbHatch
  3
AutoCAD 2000
 90
        0
280
     0
281
     1
  0
CLASS
  1
ACDBDICTIONARYWDFLT
  2
AcDbDictionaryWithDefault
  3
AutoCAD 2000
 90
        0
280
     0
281
     0
  0
CLASS
  1
ACDBPLACEHOLDER
  2
AcDbPlaceHolder
  3
AutoCAD 2000
 90
        0
280
     0
281
     0
  0
CLASS
  1
LAYOUT
  2
AcDbLayout
  3
AutoCAD 2000
 90
        0
280
     0
281
     0
  0
CLASS
  1
LONG_TRANSACTION
  2
AcDbLongTransaction
  3
AutoCAD 2000
 90
        0
280
     0
281
     0
  0
CLASS
  1
LWPOLYLINE
  2
AcDbPolyline
  3
AutoCAD 2000
 90
        0
280
     0
281
     1
  0
CLASS
  1
HATCH
  2
AcDbHatch
  3
AutoCAD 2000
 90
        0
280
     0
281
     1
  0
CLASS
  1
XRECORD
  2
AcDbXrecord
  3
AutoCAD 2000
 90
        0
280
     0
281
     0
  0
CLASS
  1
DICTIONARYVAR
  2
AcDbDictionaryVar
  3
AutoCAD 2000
 90
        0
280
     0
281
     0
  0
CLASS
  1
LONG_TRANSACTION
  2
AcDbLongTransaction
  3
AutoCAD 2000
 90
        0
280
     0
281
     0
  0
CLASS
  1
LWPOLYLINE
  2
AcDbPolyline
  3
AutoCAD 2000
 90
        0
280
     0
281
     1
  0
CLASS
  1
HATCH
  2
AcDbHatch
  3
AutoCAD 2000
 90
        0
280
     0
281
     1
  0
CLASS
  1
XRECORD
  2
AcDbXrecord
  3
AutoCAD 2000
 90
        0
280
     0
281
     0
  0
ENDSEC
  0
SECTION
  2
TABLES
  0
TABLE
  2
VPORT
  5
4823AFD
330
0
100
AcDbSymbolTable
 70
    11
  0
VPORT
  5
4823B30
330
4823AFD
100
AcDbSymbolTableRecord
100
AcDbViewportTableRecord
  2
2
 70
     0
 10
0.5
 20
0.0
 11
1.0
 21
1.0
 12
0.9240309999999999
 22
1.052651
 13
0.0
 23
0.0
 14
1.0
 24
1.0
 15
10.0
 25
10.0
 16
0.0
 26
0.0
 36
1.0
 17
0.0
 27
0.0
 37
0.0
 40
2.105302
 41
0.877814
 42
50.0
 43
0.0
 44
0.0
 50
0.0
 51
0.0
 71
     0
 72
   500
 73
     1
 74
     1
 75
     0
 76
     0
 77
     0
 78
     0
  0
VPORT
  5
4823B31
330
4823AFD
100
AcDbSymbolTableRecord
100
AcDbViewportTableRecord
  2
2
 70
     0
 10
0.0
 20
0.0
 11
0.5
 21
1.0
 12
0.9240309999999999
 22
1.052651
 13
0.0
 23
0.0
 14
1.0
 24
1.0
 15
10.0
 25
10.0
 16
0.0
 26
0.0
 36
1.0
 17
0.0
 27
0.0
 37
0.0
 40
2.105302
 41
0.877814
 42
50.0
 43
0.0
 44
0.0
 50
0.0
 51
0.0
 71
     0
 72
   500
 73
     1
 74
     1
 75
     0
 76
     0
 77
     0
 78
     0
  0
VPORT
  5
4823B32
330
4823AFD
100
AcDbSymbolTableRecord
100
AcDbViewportTableRecord
  2
3
 70
     0
 10
0.0
 20
0.5
 11
1.0
 21
1.0
 12
2.832169999999999
 22
1.052651
 13
0.0
 23
0.0
 14
1.0
 24
1.0
 15
10.0
 25
10.0
 16
0.0
 26
0.0
 36
1.0
 17
0.0
 27
0.0
 37
0.0
 40
2.105302
 41
3.571429
 42
50.0
 43
0.0
 44
0.0
 50
0.0
 51
0.0
 71
     0
 72
   500
 73
     1
 74
     1
 75
     0
 76
     0
 77
     0
 78
     0
  0
VPORT
  5
4823B33
330
4823AFD
100
AcDbSymbolTableRecord
100
AcDbViewportTableRecord
  2
3
 70
     0
 10
0.0
 20
0.0
 11
1.0
 21
0.5
 12
2.856741999999999
 22
1.052651
 13
0.0
 23
0.0
 14
1.0
 24
1.0
 15
10.0
 25
10.0
 16
0.0
 26
0.0
 36
1.0
 17
0.0
 27
0.0
 37
0.0
 40
2.105302
 41
3.594770999999999
 42
50.0
 43
0.0
 44
0.0
 50
0.0
 51
0.0
 71
     0
 72
   500
 73
     1
 74
     1
 75
     0
 76
     0
 77
     0
 78
     0
  0
VPORT
  5
4823B34
330
4823AFD
100
AcDbSymbolTableRecord
100
AcDbViewportTableRecord
  2
4
 70
     0
 10
0.5
 20
0.0
 11
1.0
 21
0.5
 12
2.886858
 22
1.052651
 13
0.0
 23
0.0
 14
1.0
 24
1.0
 15
10.0
 25
10.0
 16
0.0
 26
0.0
 36
1.0
 17
0.0
 27
0.0
 37
0.0
 40
4.275206999999999
 41
1.784314
 42
50.0
 43
0.0
 44
0.0
 50
0.0
 51
0.0
 71
     0
 72
   500
 73
     1
 74
     1
 75
     0
 76
     0
 77
     0
 78
     0
  0
VPORT
  5
4823B35
330
4823AFD
100
AcDbSymbolTableRecord
100
AcDbViewportTableRecord
  2
4
 70
     0
 10
0.5
 20
0.5
 11
1.0
 21
1.0
 12
2.86209
 22
1.052651
 13
0.0
 23
0.0
 14
1.0
 24
1.0
 15
10.0
 25
10.0
 16
0.0
 26
0.0
 36
1.0
 17
0.0
 27
0.0
 37
0.0
 40
4.275206999999999
 41
1.772726999999999
 42
50.0
 43
0.0
 44
0.0
 50
0.0
 51
0.0
 71
     0
 72
   500
 73
     1
 74
     1
 75
     0
 76
     0
 77
     0
 78
     0
  0
VPORT
  5
4823B36
330
4823AFD
100
AcDbSymbolTableRecord
100
AcDbViewportTableRecord
  2
4
 70
     0
 10
0.0
 20
0.5
 11
0.5
 21
1.0
 12
2.86209
 22
1.052651
 13
0.0
 23
0.0
 14
1.0
 24
1.0
 15
10.0
 25
10.0
 16
0.0
 26
0.0
 36
1.0
 17
0.0
 27
0.0
 37
0.0
 40
4.275206999999999
 41
1.772726999999999
 42
50.0
 43
0.0
 44
0.0
 50
0.0
 51
0.0
 71
     0
 72
   500
 73
     1
 74
     1
 75
     0
 76
     0
 77
     0
 78
     0
  0
VPORT
  5
4823B37
330
4823AFD
100
AcDbSymbolTableRecord
100
AcDbViewportTableRecord
  2
4
 70
     0
 10
0.0
 20
0.0
 11
0.5
 21
0.5
 12
2.886858
 22
1.052651
 13
0.0
 23
0.0
 14
1.0
 24
1.0
 15
10.0
 25
10.0
 16
0.0
 26
0.0
 36
1.0
 17
0.0
 27
0.0
 37
0.0
 40
4.275206999999999
 41
1.784314
 42
50.0
 43
0.0
 44
0.0
 50
0.0
 51
0.0
 71
     0
 72
   500
 73
     1
 74
     1
 75
     0
 76
     0
 77
     0
 78
     0
  0
VPORT
  5
4824B7F
330
4823AFD
100
AcDbSymbolTableRecord
100
AcDbViewportTableRecord
  2
*ACTIVE
 70
     0
 10
0.0
 20
0.0
 11
1.0
 21
1.0
 12
519.9005703551258
 22
273.0000012712552
 13
0.0
 23
0.0
 14
1.0
 24
1.0
 15
10.0
 25
10.0
 16
0.0
 26
0.0
 36
1.0
 17
0.0
 27
0.0
 37
0.0
 40
552.2876498718296
 41
1.771962616822429
 42
50.0
 43
0.0
 44
0.0
 50
0.0
 51
0.0
 71
     0
 72
   500
 73
     1
 74
     0
 75
     0
 76
     0
 77
     0
 78
     0
  0
ENDTAB
  0
TABLE
  2
LTYPE
  5
4823AFA
330
0
100
AcDbSymbolTable
 70
     5
  0
LTYPE
  5
4823B06
330
4823AFA
100
AcDbSymbolTableRecord
100
AcDbLinetypeTableRecord
  2
BYBLOCK
 70
     0
  3

 72
    65
 73
     0
 40
0.0
  0
LTYPE
  5
4823B07
330
4823AFA
100
AcDbSymbolTableRecord
100
AcDbLinetypeTableRecord
  2
BYLAYER
 70
     0
  3

 72
    65
 73
     0
 40
0.0
  0
LTYPE
  5
4823B08
330
4823AFA
100
AcDbSymbolTableRecord
100
AcDbLinetypeTableRecord
  2
CONTINUOUS
 70
     0
  3
実線
 72
    65
 73
     0
 40
0.0
  0
LTYPE
  5
4823B2C
330
4823AFA
100
AcDbSymbolTableRecord
100
AcDbLinetypeTableRecord
  2
DASHED
 70
     0
  3
__ __ __ __ __ __ __ __ __ __ __ __ __ __ __
 72
    65
 73
     2
 40
0.75
 49
0.5
 74
     0
 49
-0.25
 74
     0
  0
LTYPE
  5
4823B2D
330
4823AFA
100
AcDbSymbolTableRecord
100
AcDbLinetypeTableRecord
  2
CENTER
 70
     0
  3
____ _ ____ _ ____ _ ____ _ ____ _ ____ _ ____
 72
    65
 73
     4
 40
2.0
 49
1.25
 74
     0
 49
-0.25
 74
     0
 49
0.25
 74
     0
 49
-0.25
 74
     0
  0
LTYPE
  5
4823B2E
330
4823AFA
100
AcDbSymbolTableRecord
100
AcDbLinetypeTableRecord
  2
PHANTOM
 70
     0
  3
_____ _ _ _____ _ _ _____ _ _ _____ _ _ ____
 72
    65
 73
     6
 40
2.5
 49
1.25
 74
     0
 49
-0.25
 74
     0
 49
0.25
 74
     0
 49
-0.25
 74
     0
 49
0.25
 74
     0
 49
-0.25
 74
     0
  0
LTYPE
  5
4823B2F
330
4823AFA
100
AcDbSymbolTableRecord
100
AcDbLinetypeTableRecord
  2
HIDDEN
 70
     0
  3
_ _ _ _ _ _ _ _ _ _ _ _ _ _ _ _ _ _ _ _ _ _ _
 72
    65
 73
     2
 40
0.375
 49
0.25
 74
     0
 49
-0.125
 74
     0
  0
ENDTAB
  0
TABLE
  2
LAYER
  5
4823AF7
330
0
100
AcDbSymbolTable
 70
    11
  0
LAYER
  5
4823B03
330
4823AF7
100
AcDbSymbolTableRecord
100
AcDbLayerTableRecord
  2
0
 70
     0
 62
     6
  6
CONTINUOUS
  0
LAYER
  5
4823B3B
330
4823AF7
100
AcDbSymbolTableRecord
100
AcDbLayerTableRecord
  2
HASEN
 70
     0
 62
     2
  6
DASHED
  0
LAYER
  5
4823B3C
330
4823AF7
100
AcDbSymbolTableRecord
100
AcDbLayerTableRecord
  2
ITTEN
 70
     0
 62
     1
  6
CENTER
  0
LAYER
  5
4823B3D
330
4823AF7
100
AcDbSymbolTableRecord
100
AcDbLayerTableRecord
  2
NITEN
 70
     0
 62
     2
  6
PHANTOM
  0
LAYER
  5
4823B3E
330
4823AF7
100
AcDbSymbolTableRecord
100
AcDbLayerTableRecord
  2
SUNPOU
 70
     0
 62
     3
  6
CONTINUOUS
  0
LAYER
  5
4823B3F
330
4823AF7
100
AcDbSymbolTableRecord
100
AcDbLayerTableRecord
  2
TEXT
 70
     0
 62
     3
  6
CONTINUOUS
  0
LAYER
  5
4823B40
330
4823AF7
100
AcDbSymbolTableRecord
100
AcDbLayerTableRecord
  2
SAISEN
 70
     0
 62
     4
  6
CONTINUOUS
  0
LAYER
  5
4823B41
330
4823AF7
100
AcDbSymbolTableRecord
100
AcDbLayerTableRecord
  2
JISSEN
 70
     0
 62
     7
  6
CONTINUOUS
  0
LAYER
  5
4823B43
330
4823AF7
100
AcDbSymbolTableRecord
100
AcDbLayerTableRecord
  2
TENSEN
 70
     0
 62
     2
  6
HIDDEN
  0
LAYER
  5
4823B45
330
4823AF7
100
AcDbSymbolTableRecord
100
AcDbLayerTableRecord
  2
WAKU
 70
     0
 62
     5
  6
CONTINUOUS
  0
LAYER
  5
4823B6C
330
4823AF7
100
AcDbSymbolTableRecord
100
AcDbLayerTableRecord
  2
CORE
 70
     0
 62
     4
  6
CONTINUOUS
  0
ENDTAB
  0
TABLE
  2
STYLE
  5
4823AF8
330
0
100
AcDbSymbolTable
 70
     4
  0
STYLE
  5
4823B04
330
4823AF8
100
AcDbSymbolTableRecord
100
AcDbTextStyleTableRecord
  2
STANDARD
 70
     0
 40
0.0
 41
1.0
 50
0.0
 71
     0
 42
0.2
  3
ROMANS
  4
EXTFONT
  0
STYLE
  5
4823B2A
330
4823AF8
100
AcDbSymbolTableRecord
100
AcDbTextStyleTableRecord
  2
K
 70
     0
 40
0.0
 41
1.0
 50
0.0
 71
     0
 42
6.0
  3
ROMANS
  4
C:/ACADWIN/FONTS/BIGFONT.SHX
  0
STYLE
  5
4823B6D
330
4823AF8
100
AcDbSymbolTableRecord
100
AcDbTextStyleTableRecord
  2
35FONT
 70
     0
 40
3.5
 41
0.75
 50
15.0
 71
     0
 42
2.5
  3
SIMPLEX.shx
  4
BIGFONT.shx
  0
STYLE
  5
4824877
330
4823AF8
100
AcDbSymbolTableRecord
100
AcDbTextStyleTableRecord
  2
DIMENSION
 70
     0
 40
0.0
 41
1.0
 50
0.0
 71
     0
 42
2.5
  3
TXT
  4

  0
ENDTAB
  0
TABLE
  2
VIEW
  5
4823AFB
330
0
100
AcDbSymbolTable
 70
     0
  0
ENDTAB
  0
TABLE
  2
UCS
  5
4823AFC
330
0
100
AcDbSymbolTable
 70
     0
  0
ENDTAB
  0
TABLE
  2
APPID
  5
4823AFE
330
0
100
AcDbSymbolTable
 70
     1
  0
APPID
  5
4823B05
330
4823AFE
100
AcDbSymbolTableRecord
100
AcDbRegAppTableRecord
  2
ACAD
 70
     0
  0
ENDTAB
  0
TABLE
  2
DIMSTYLE
  5
4823AFF
330
0
100
AcDbSymbolTable
 70
     2
  0
DIMSTYLE
105
4823B3A
330
4823AFF
100
AcDbSymbolTableRecord
100
AcDbDimStyleTableRecord
  2
IMAO
 70
     0
  3

  4

  5
ARROWANG
  6
ARROWANG
  7
ARROWANG
 40
1.0
 41
1.5
 42
1.0
 43
6.0
 44
1.0
 45
0.0
 46
0.0
 47
495.0
 48
0.0
140
3.0
141
0.0
142
0.0
143
25.4
144
1.0
145
0.0
146
1.0
147
0.09
 71
     0
 72
     0
 73
     0
 74
     0
 75
     0
 76
     0
 77
     1
 78
     8
170
     0
171
     2
172
     1
173
     0
174
     1
175
     0
176
     0
177
     0
178
     0
270
     2
271
     2
272
     2
273
     2
274
     2
340
4823B2A
275
     0
280
     0
281
     0
282
     0
283
     1
284
     8
285
     8
286
     8
287
     5
288
     0
  0
DIMSTYLE
105
4824879
330
4823AFF
100
AcDbSymbolTableRecord
100
AcDbDimStyleTableRecord
  2
STANDARD
 70
     0
  3

  4

  5
AR_OPEN
  6

  7

 40
2.0
 41
2.0
 42
0.1
 43
10.0
 44
1.5
 45
0.0
 46
0.0
 47
0.0
 48
0.0
140
3.0
141
0.09
142
0.0
143
25.4
144
1.0
145
1.0
146
1.0
147
0.1
 71
     0
 72
     0
 73
     0
 74
     0
 75
     0
 76
     0
 77
     0
 78
     8
170
     0
171
     2
172
     1
173
     0
174
     0
175
     0
176
   256
177
   256
178
   256
270
     2
271
     2
272
     2
273
     2
274
     2
340
4824877
275
     0
280
     0
281
     0
282
     0
283
     1
284
     8
285
     0
286
     0
287
     3
288
     0
  0
ENDTAB
  0
TABLE
  2
BLOCK_RECORD
  5
4823AF6
330
0
100
AcDbSymbolTable
 70
     9
  0
BLOCK_RECORD
  5
4823B0C
102
{ACAD_XDICTIONARY
360
4824B20
102
}
330
4823AF6
100
AcDbSymbolTableRecord
100
AcDbBlockTableRecord
  2
*MODEL_SPACE
  0
BLOCK_RECORD
  5
4823B09
102
{ACAD_XDICTIONARY
360
4824B1E
102
}
330
4823AF6
100
AcDbSymbolTableRecord
100
AcDbBlockTableRecord
  2
*PAPER_SPACE
  0
BLOCK_RECORD
  5
4823B11
330
4823AF6
100
AcDbSymbolTableRecord
100
AcDbBlockTableRecord
  2
ARROW
  0
BLOCK_RECORD
  5
4823B18
330
4823AF6
100
AcDbSymbolTableRecord
100
AcDbBlockTableRecord
  2
STDGX5
  0
BLOCK_RECORD
  5
4823B19
330
4823AF6
100
AcDbSymbolTableRecord
100
AcDbBlockTableRecord
  2
ARROWANG
  0
BLOCK_RECORD
  5
4823B1A
330
4823AF6
100
AcDbSymbolTableRecord
100
AcDbBlockTableRecord
  2
STDR12J
  0
BLOCK_RECORD
  5
48246C0
330
4823AF6
100
AcDbSymbolTableRecord
100
AcDbBlockTableRecord
  2
AR_OPEN
  0
BLOCK_RECORD
  5
48246CF
330
4823AF6
100
AcDbSymbolTableRecord
100
AcDbBlockTableRecord
  2
*X5
  0
BLOCK_RECORD
  5
48246F3
330
4823AF6
100
AcDbSymbolTableRecord
100
AcDbBlockTableRecord
  2
*X6
  0
BLOCK_RECORD
  5
48247B3
330
4823AF6
100
AcDbSymbolTableRecord
100
AcDbBlockTableRecord
  2
*X7
  0
BLOCK_RECORD
  5
48247BE
330
4823AF6
100
AcDbSymbolTableRecord
100
AcDbBlockTableRecord
  2
*X8
  0
ENDTAB
  0
ENDSEC
  0
SECTION
  2
BLOCKS
  0
BLOCK
  5
4823B49
330
4823B0C
100
AcDbEntity
  8
0
100
AcDbBlockBegin
  2
*MODEL_SPACE
 70
     0
 10
0.0
 20
0.0
 30
0.0
  3
*MODEL_SPACE
  1

  0
ENDBLK
  5
4823B4A
330
4823B0C
100
AcDbEntity
  8
0
100
AcDbBlockEnd
  0
BLOCK
  5
4823B47
330
4823B09
100
AcDbEntity
 67
     1
  8
0
100
AcDbBlockBegin
  2
*PAPER_SPACE
 70
     0
 10
0.0
 20
0.0
 30
0.0
  3
*PAPER_SPACE
  1

  0
ENDBLK
  5
4823B48
330
4823B09
100
AcDbEntity
 67
     1
  8
0
100
AcDbBlockEnd
  0
BLOCK
  5
2CC
330
4823B11
100
AcDbEntity
  8
0
100
AcDbBlockBegin
  2
ARROW
 70
     0
 10
1.0
 20
0.5
 30
0.0
  3
ARROW
  1

  0
LINE
  5
2CD
330
4823B11
100
AcDbEntity
  8
0
100
AcDbLine
 10
1.0
 20
0.5
 30
0.0
 11
-0.5
 21
0.098076
 31
0.0
  0
LINE
  5
2CE
330
4823B11
100
AcDbEntity
  8
0
100
AcDbLine
 10
0.0
 20
0.5
 30
0.0
 11
1.0
 21
0.5
 31
0.0
  0
LINE
  5
2CF
330
4823B11
100
AcDbEntity
  8
0
100
AcDbLine
 10
1.0
 20
0.5
 30
0.0
 11
-0.5
 21
0.9019239999999999
 31
0.0
  0
ENDBLK
  5
2D0
330
4823B11
100
AcDbEntity
  8
0
100
AcDbBlockEnd
  0
BLOCK
  5
12B2
330
4823B18
100
AcDbEntity
  8
0
100
AcDbBlockBegin
  2
STDGX5
 70
     0
 10
0.0
 20
0.0
 30
0.0
  3
STDGX5
  1

  0
ENDBLK
  5
12B3
330
4823B18
100
AcDbEntity
  8
0
100
AcDbBlockEnd
  0
BLOCK
  5
2544
330
4823B19
100
AcDbEntity
  8
0
100
AcDbBlockBegin
  2
ARROWANG
 70
     0
 10
0.0
 20
0.0
 30
0.0
  3
ARROWANG
  1

  0
LINE
  5
2545
330
4823B19
100
AcDbEntity
  8
SUNPOU
100
AcDbLine
 10
0.0
 20
0.0
 30
0.0
 11
-1.5
 21
0.401924
 31
0.0
  0
LINE
  5
2546
330
4823B19
100
AcDbEntity
  8
SUNPOU
100
AcDbLine
 10
0.0
 20
0.0
 30
0.0
 11
-1.5
 21
-0.401924
 31
0.0
  0
ENDBLK
  5
2547
330
4823B19
100
AcDbEntity
  8
0
100
AcDbBlockEnd
  0
BLOCK
  5
2799
330
4823B1A
100
AcDbEntity
  8
0
100
AcDbBlockBegin
  2
STDR12J
 70
     0
 10
0.0
 20
0.0
 30
0.0
  3
STDR12J
  1

  0
ENDBLK
  5
27BE
330
4823B1A
100
AcDbEntity
  8
0
100
AcDbBlockEnd
  0
BLOCK
  5
48246C4
330
48246C0
100
AcDbEntity
  8
0
100
AcDbBlockBegin
  2
AR_OPEN
 70
     0
 10
0.0
 20
0.0
 30
0.0
  3
AR_OPEN
  1

  0
LINE
  5
48246C1
330
48246C0
100
AcDbEntity
  8
0
 62
     0
100
AcDbLine
 10
-1.0
 20
0.0
 30
0.0
 11
0.0
 21
0.0
 31
0.0
  0
LINE
  5
48246C2
330
48246C0
100
AcDbEntity
  8
0
 62
     0
100
AcDbLine
 10
0.0
 20
0.0
 30
0.0
 11
-1.0
 21
0.2679491924311037
 31
0.0
  0
LINE
  5
48246C3
330
48246C0
100
AcDbEntity
  8
0
 62
     0
100
AcDbLine
 10
0.0
 20
0.0
 30
0.0
 11
-1.0
 21
-0.2679491924311037
 31
0.0
  0
ENDBLK
  5
48246C5
330
48246C0
100
AcDbEntity
  8
0
100
AcDbBlockEnd
  0
BLOCK
  5
48246F1
330
48246CF
100
AcDbEntity
  8
0
100
AcDbBlockBegin
  2
*X5
 70
     1
 10
0.0
 20
0.0
 30
0.0
  3
*X5
  1

  0
LINE
  5
48246D0
330
48246CF
100
AcDbEntity
  8
0
 62
     0
100
AcDbLine
 10
179.8
 20
218.365912
 30
0.0
 11
179.8
 21
224.202044
 31
0.0
  0
LINE
  5
48246D1
330
48246CF
100
AcDbEntity
  8
0
 62
     0
100
AcDbLine
 10
180.0
 20
218.361135
 30
0.0
 11
180.0
 21
224.2068209999999
 31
0.0
  0
LINE
  5
48246D2
330
48246CF
100
AcDbEntity
  8
0
 62
     0
100
AcDbLine
 10
180.1999999999999
 20
218.520225
 30
0.0
 11
180.1999999999999
 21
224.0477299999998
 31
0.0
  0
LINE
  5
48246D3
330
48246CF
100
AcDbEntity
  8
0
 62
     0
100
AcDbLine
 10
180.4
 20
218.679316
 30
0.0
 11
180.4
 21
223.888639
 31
0.0
  0
LINE
  5
48246D4
330
48246CF
100
AcDbEntity
  8
0
 62
     0
100
AcDbLine
 10
180.6
 20
218.838407
 30
0.0
 11
180.6
 21
223.7295479999999
 31
0.0
  0
LINE
  5
48246D5
330
48246CF
100
AcDbEntity
  8
0
 62
     0
100
AcDbLine
 10
180.8
 20
218.997498
 30
0.0
 11
180.8
 21
223.5704569999998
 31
0.0
  0
LINE
  5
48246D6
330
48246CF
100
AcDbEntity
  8
0
 62
     0
100
AcDbLine
 10
181.0
 20
219.156589
 30
0.0
 11
181.0
 21
223.4113659999999
 31
0.0
  0
LINE
  5
48246D7
330
48246CF
100
AcDbEntity
  8
0
 62
     0
100
AcDbLine
 10
181.1999999999999
 20
219.31568
 30
0.0
 11
181.1999999999999
 21
220.0339779999999
 31
0.0
  0
LINE
  5
48246D8
330
48246CF
100
AcDbEntity
  8
0
 62
     0
100
AcDbLine
 10
181.1999999999999
 20
222.533978
 30
0.0
 11
181.1999999999999
 21
223.252275
 31
0.0
  0
LINE
  5
48246D9
330
48246CF
100
AcDbEntity
  8
0
 62
     0
100
AcDbLine
 10
181.4
 20
219.474771
 30
0.0
 11
181.4
 21
220.0339779999999
 31
0.0
  0
LINE
  5
48246DA
330
48246CF
100
AcDbEntity
  8
0
 62
     0
100
AcDbLine
 10
181.4
 20
222.533978
 30
0.0
 11
181.4
 21
223.0931839999998
 31
0.0
  0
LINE
  5
48246DB
330
48246CF
100
AcDbEntity
  8
0
 62
     0
100
AcDbLine
 10
181.6
 20
219.633862
 30
0.0
 11
181.6
 21
220.0339779999999
 31
0.0
  0
LINE
  5
48246DC
330
48246CF
100
AcDbEntity
  8
0
 62
     0
100
AcDbLine
 10
181.6
 20
222.533978
 30
0.0
 11
181.6
 21
222.9340939999999
 31
0.0
  0
LINE
  5
48246DD
330
48246CF
100
AcDbEntity
  8
0
 62
     0
100
AcDbLine
 10
181.7999999999999
 20
219.7929529999999
 30
0.0
 11
181.7999999999999
 21
220.0339779999999
 31
0.0
  0
LINE
  5
48246DE
330
48246CF
100
AcDbEntity
  8
0
 62
     0
100
AcDbLine
 10
181.7999999999999
 20
222.533978
 30
0.0
 11
181.7999999999999
 21
222.7750029999999
 31
0.0
  0
LINE
  5
48246DF
330
48246CF
100
AcDbEntity
  8
0
 62
     0
100
AcDbLine
 10
182.0
 20
219.952044
 30
0.0
 11
182.0
 21
220.0339779999999
 31
0.0
  0
LINE
  5
48246E0
330
48246CF
100
AcDbEntity
  8
0
 62
     0
100
AcDbLine
 10
182.0
 20
222.533978
 30
0.0
 11
182.0
 21
222.615912
 31
0.0
  0
LINE
  5
48246E1
330
48246CF
100
AcDbEntity
  8
0
 62
     0
100
AcDbLine
 10
179.6
 20
218.5250029999999
 30
0.0
 11
179.6
 21
224.0429529999999
 31
0.0
  0
LINE
  5
48246E2
330
48246CF
100
AcDbEntity
  8
0
 62
     0
100
AcDbLine
 10
179.4
 20
218.6840939999999
 30
0.0
 11
179.4
 21
223.883862
 31
0.0
  0
LINE
  5
48246E3
330
48246CF
100
AcDbEntity
  8
0
 62
     0
100
AcDbLine
 10
179.1999999999999
 20
218.8431839999998
 30
0.0
 11
179.1999999999999
 21
223.724771
 31
0.0
  0
LINE
  5
48246E4
330
48246CF
100
AcDbEntity
  8
0
 62
     0
100
AcDbLine
 10
179.0
 20
219.002275
 30
0.0
 11
179.0
 21
223.56568
 31
0.0
  0
LINE
  5
48246E5
330
48246CF
100
AcDbEntity
  8
0
 62
     0
100
AcDbLine
 10
178.8
 20
219.1613659999999
 30
0.0
 11
178.8
 21
220.0339779999999
 31
0.0
  0
LINE
  5
48246E6
330
48246CF
100
AcDbEntity
  8
0
 62
     0
100
AcDbLine
 10
178.8
 20
222.533978
 30
0.0
 11
178.8
 21
223.406589
 31
0.0
  0
LINE
  5
48246E7
330
48246CF
100
AcDbEntity
  8
0
 62
     0
100
AcDbLine
 10
178.6
 20
219.3204569999998
 30
0.0
 11
178.6
 21
220.0339779999999
 31
0.0
  0
LINE
  5
48246E8
330
48246CF
100
AcDbEntity
  8
0
 62
     0
100
AcDbLine
 10
178.6
 20
222.533978
 30
0.0
 11
178.6
 21
223.247498
 31
0.0
  0
LINE
  5
48246E9
330
48246CF
100
AcDbEntity
  8
0
 62
     0
100
AcDbLine
 10
178.3999999999998
 20
219.4795479999999
 30
0.0
 11
178.3999999999998
 21
220.0339779999999
 31
0.0
  0
LINE
  5
48246EA
330
48246CF
100
AcDbEntity
  8
0
 62
     0
100
AcDbLine
 10
178.3999999999998
 20
222.533978
 30
0.0
 11
178.3999999999998
 21
223.088407
 31
0.0
  0
LINE
  5
48246EB
330
48246CF
100
AcDbEntity
  8
0
 62
     0
100
AcDbLine
 10
178.2
 20
219.638639
 30
0.0
 11
178.2
 21
220.0339779999999
 31
0.0
  0
LINE
  5
48246EC
330
48246CF
100
AcDbEntity
  8
0
 62
     0
100
AcDbLine
 10
178.2
 20
222.533978
 30
0.0
 11
178.2
 21
222.929316
 31
0.0
  0
LINE
  5
48246ED
330
48246CF
100
AcDbEntity
  8
0
 62
     0
100
AcDbLine
 10
178.0
 20
219.7977299999998
 30
0.0
 11
178.0
 21
220.0339779999999
 31
0.0
  0
LINE
  5
48246EE
330
48246CF
100
AcDbEntity
  8
0
 62
     0
100
AcDbLine
 10
178.0
 20
222.533978
 30
0.0
 11
178.0
 21
222.770225
 31
0.0
  0
LINE
  5
48246EF
330
48246CF
100
AcDbEntity
  8
0
 62
     0
100
AcDbLine
 10
177.8
 20
219.9568209999999
 30
0.0
 11
177.8
 21
220.0339779999999
 31
0.0
  0
LINE
  5
48246F0
330
48246CF
100
AcDbEntity
  8
0
 62
     0
100
AcDbLine
 10
177.8
 20
222.533978
 30
0.0
 11
177.8
 21
222.611135
 31
0.0
  0
ENDBLK
  5
48246F2
330
48246CF
100
AcDbEntity
  8
0
100
AcDbBlockEnd
  0
BLOCK
  5
48247B1
330
48246F3
100
AcDbEntity
  8
0
100
AcDbBlockBegin
  2
*X6
 70
     1
 10
0.0
 20
0.0
 30
0.0
  3
*X6
  1

  0
LINE
  5
48246F4
330
48246F3
100
AcDbEntity
  8
0
 62
     0
100
AcDbLine
 10
313.0006709999999
 20
151.8
 30
0.0
 11
314.808542
 21
151.8
 31
0.0
  0
LINE
  5
48246F5
330
48246F3
100
AcDbEntity
  8
0
 62
     0
100
AcDbLine
 10
327.6695119999998
 20
151.8
 30
0.0
 11
329.4993289999998
 21
151.8
 31
0.0
  0
LINE
  5
48246F6
330
48246F3
100
AcDbEntity
  8
0
 62
     0
100
AcDbLine
 10
315.9233589999999
 20
151.8
 30
0.0
 11
316.4904849999999
 21
151.8
 31
0.0
  0
LINE
  5
48246F7
330
48246F3
100
AcDbEntity
  8
0
 62
     0
100
AcDbLine
 10
324.6726759999999
 20
151.8
 30
0.0
 11
326.668925
 21
151.8
 31
0.0
  0
LINE
  5
48246F8
330
48246F3
100
AcDbEntity
  8
0
 62
     0
100
AcDbLine
 10
317.4904849999999
 20
151.8
 30
0.0
 11
319.0220889999999
 21
151.8
 31
0.0
  0
LINE
  5
48246F9
330
48246F3
100
AcDbEntity
  8
0
 62
     0
100
AcDbLine
 10
323.019512
 20
151.8
 30
0.0
 11
323.672089
 21
151.8
 31
0.0
  0
LINE
  5
48246FA
330
48246F3
100
AcDbEntity
  8
0
 62
     0
100
AcDbLine
 10
320.022676
 20
151.8
 30
0.0
 11
322.018925
 21
151.8
 31
0.0
  0
LINE
  5
48246FB
330
48246F3
100
AcDbEntity
  8
0
 62
     0
100
AcDbLine
 10
313.0009719999999
 20
152.0
 30
0.0
 11
314.907095
 21
152.0
 31
0.0
  0
LINE
  5
48246FC
330
48246F3
100
AcDbEntity
  8
0
 62
     0
100
AcDbLine
 10
327.6689339999999
 20
152.0
 30
0.0
 11
329.4990279999999
 21
152.0
 31
0.0
  0
LINE
  5
48246FD
330
48246F3
100
AcDbEntity
  8
0
 62
     0
100
AcDbLine
 10
316.0219109999998
 20
152.0
 30
0.0
 11
316.4904849999999
 21
152.0
 31
0.0
  0
LINE
  5
48246FE
330
48246F3
100
AcDbEntity
  8
0
 62
     0
100
AcDbLine
 10
324.673517
 20
152.0
 30
0.0
 11
326.6680839999999
 21
152.0
 31
0.0
  0
LINE
  5
48246FF
330
48246F3
100
AcDbEntity
  8
0
 62
     0
100
AcDbLine
 10
317.4904849999999
 20
152.0
 30
0.0
 11
319.022667
 21
152.0
 31
0.0
  0
LINE
  5
4824700
330
48246F3
100
AcDbEntity
  8
0
 62
     0
100
AcDbLine
 10
323.0189339999999
 20
152.0
 30
0.0
 11
323.6726669999999
 21
152.0
 31
0.0
  0
LINE
  5
4824701
330
48246F3
100
AcDbEntity
  8
0
 62
     0
100
AcDbLine
 10
320.0235169999999
 20
152.0
 30
0.0
 11
322.0180839999998
 21
152.0
 31
0.0
  0
LINE
  5
4824702
330
48246F3
100
AcDbEntity
  8
0
 62
     0
100
AcDbLine
 10
313.007793
 20
152.2
 30
0.0
 11
315.0056479999999
 21
152.2
 31
0.0
  0
LINE
  5
4824703
330
48246F3
100
AcDbEntity
  8
0
 62
     0
100
AcDbLine
 10
327.6558109999999
 20
152.2
 30
0.0
 11
329.492207
 21
152.2
 31
0.0
  0
LINE
  5
4824704
330
48246F3
100
AcDbEntity
  8
0
 62
     0
100
AcDbLine
 10
316.1204640000001
 20
152.2
 30
0.0
 11
316.4904849999999
 21
152.2
 31
0.0
  0
LINE
  5
4824705
330
48246F3
100
AcDbEntity
  8
0
 62
     0
100
AcDbLine
 10
324.69267
 20
152.2
 30
0.0
 11
326.648931
 21
152.2
 31
0.0
  0
LINE
  5
4824706
330
48246F3
100
AcDbEntity
  8
0
 62
     0
100
AcDbLine
 10
317.4904849999999
 20
152.2
 30
0.0
 11
319.0357899999999
 21
152.2
 31
0.0
  0
LINE
  5
4824707
330
48246F3
100
AcDbEntity
  8
0
 62
     0
100
AcDbLine
 10
323.0058109999998
 20
152.2
 30
0.0
 11
323.6857899999999
 21
152.2
 31
0.0
  0
LINE
  5
4824708
330
48246F3
100
AcDbEntity
  8
0
 62
     0
100
AcDbLine
 10
320.0426699999999
 20
152.2
 30
0.0
 11
321.998931
 21
152.2
 31
0.0
  0
LINE
  5
4824709
330
48246F3
100
AcDbEntity
  8
0
 62
     0
100
AcDbLine
 10
313.021158
 20
152.4
 30
0.0
 11
315.1041999999999
 21
152.4
 31
0.0
  0
LINE
  5
482470A
330
48246F3
100
AcDbEntity
  8
0
 62
     0
100
AcDbLine
 10
327.6299859999999
 20
152.4
 30
0.0
 11
329.4788419999998
 21
152.4
 31
0.0
  0
LINE
  5
482470B
330
48246F3
100
AcDbEntity
  8
0
 62
     0
100
AcDbLine
 10
316.219017
 20
152.4
 30
0.0
 11
316.4904849999999
 21
152.4
 31
0.0
  0
LINE
  5
482470C
330
48246F3
100
AcDbEntity
  8
0
 62
     0
100
AcDbLine
 10
324.7306259999999
 20
152.4
 30
0.0
 11
326.610975
 21
152.4
 31
0.0
  0
LINE
  5
482470D
330
48246F3
100
AcDbEntity
  8
0
 62
     0
100
AcDbLine
 10
317.4904849999999
 20
152.4
 30
0.0
 11
319.061615
 21
152.4
 31
0.0
  0
LINE
  5
482470E
330
48246F3
100
AcDbEntity
  8
0
 62
     0
100
AcDbLine
 10
322.9799859999999
 20
152.4
 30
0.0
 11
323.7116149999998
 21
152.4
 31
0.0
  0
LINE
  5
482470F
330
48246F3
100
AcDbEntity
  8
0
 62
     0
100
AcDbLine
 10
320.080626
 20
152.4
 30
0.0
 11
321.960975
 21
152.4
 31
0.0
  0
LINE
  5
4824710
330
48246F3
100
AcDbEntity
  8
0
 62
     0
100
AcDbLine
 10
313.041107
 20
152.5999999999999
 30
0.0
 11
315.2027529999999
 21
152.5999999999999
 31
0.0
  0
LINE
  5
4824711
330
48246F3
100
AcDbEntity
  8
0
 62
     0
100
AcDbLine
 10
327.5911439999998
 20
152.5999999999999
 30
0.0
 11
329.4588929999998
 21
152.5999999999999
 31
0.0
  0
LINE
  5
4824712
330
48246F3
100
AcDbEntity
  8
0
 62
     0
100
AcDbLine
 10
316.317569
 20
152.5999999999999
 30
0.0
 11
316.4904849999999
 21
152.5999999999999
 31
0.0
  0
LINE
  5
4824713
330
48246F3
100
AcDbEntity
  8
0
 62
     0
100
AcDbLine
 10
324.788487
 20
152.5999999999999
 30
0.0
 11
326.553114
 21
152.5999999999999
 31
0.0
  0
LINE
  5
4824714
330
48246F3
100
AcDbEntity
  8
0
 62
     0
100
AcDbLine
 10
317.4904849999999
 20
152.5999999999999
 30
0.0
 11
319.100457
 21
152.5999999999999
 31
0.0
  0
LINE
  5
4824715
330
48246F3
100
AcDbEntity
  8
0
 62
     0
100
AcDbLine
 10
322.941144
 20
152.5999999999999
 30
0.0
 11
323.750457
 21
152.5999999999999
 31
0.0
  0
LINE
  5
4824716
330
48246F3
100
AcDbEntity
  8
0
 62
     0
100
AcDbLine
 10
320.138487
 20
152.5999999999999
 30
0.0
 11
321.903114
 21
152.5999999999999
 31
0.0
  0
LINE
  5
4824717
330
48246F3
100
AcDbEntity
  8
0
 62
     0
100
AcDbLine
 10
313.0677079999999
 20
152.8
 30
0.0
 11
315.301306
 21
152.8
 31
0.0
  0
LINE
  5
4824718
330
48246F3
100
AcDbEntity
  8
0
 62
     0
100
AcDbLine
 10
327.538789
 20
152.8
 30
0.0
 11
329.432292
 21
152.8
 31
0.0
  0
LINE
  5
4824719
330
48246F3
100
AcDbEntity
  8
0
 62
     0
100
AcDbLine
 10
316.4161219999999
 20
152.8
 30
0.0
 11
316.4904849999999
 21
152.8
 31
0.0
  0
LINE
  5
482471A
330
48246F3
100
AcDbEntity
  8
0
 62
     0
100
AcDbLine
 10
324.873622
 20
152.8
 30
0.0
 11
326.467979
 21
152.8
 31
0.0
  0
LINE
  5
482471B
330
48246F3
100
AcDbEntity
  8
0
 62
     0
100
AcDbLine
 10
317.4904849999999
 20
152.8
 30
0.0
 11
319.152812
 21
152.8
 31
0.0
  0
LINE
  5
482471C
330
48246F3
100
AcDbEntity
  8
0
 62
     0
100
AcDbLine
 10
322.8887889999999
 20
152.8
 30
0.0
 11
323.802812
 21
152.8
 31
0.0
  0
LINE
  5
482471D
330
48246F3
100
AcDbEntity
  8
0
 62
     0
100
AcDbLine
 10
320.2236219999999
 20
152.8
 30
0.0
 11
321.8179789999999
 21
152.8
 31
0.0
  0
LINE
  5
482471E
330
48246F3
100
AcDbEntity
  8
0
 62
     0
100
AcDbLine
 10
313.101046
 20
153.0
 30
0.0
 11
315.399858
 21
153.0
 31
0.0
  0
LINE
  5
482471F
330
48246F3
100
AcDbEntity
  8
0
 62
     0
100
AcDbLine
 10
327.4716179999999
 20
153.0
 30
0.0
 11
329.398954
 21
153.0
 31
0.0
  0
LINE
  5
4824720
330
48246F3
100
AcDbEntity
  8
0
 62
     0
100
AcDbLine
 10
317.4904849999999
 20
153.0
 30
0.0
 11
319.219983
 21
153.0
 31
0.0
  0
LINE
  5
4824721
330
48246F3
100
AcDbEntity
  8
0
 62
     0
100
AcDbLine
 10
324.9949829999998
 20
153.0
 30
0.0
 11
326.3466189999999
 21
153.0
 31
0.0
  0
LINE
  5
4824722
330
48246F3
100
AcDbEntity
  8
0
 62
     0
100
AcDbLine
 10
320.344983
 20
153.0
 30
0.0
 11
321.6966189999999
 21
153.0
 31
0.0
  0
LINE
  5
4824723
330
48246F3
100
AcDbEntity
  8
0
 62
     0
100
AcDbLine
 10
322.8216179999999
 20
153.0
 30
0.0
 11
323.8699829999998
 21
153.0
 31
0.0
  0
LINE
  5
4824724
330
48246F3
100
AcDbEntity
  8
0
 62
     0
100
AcDbLine
 10
313.141236
 20
153.2
 30
0.0
 11
315.498411
 21
153.2
 31
0.0
  0
LINE
  5
4824725
330
48246F3
100
AcDbEntity
  8
0
 62
     0
100
AcDbLine
 10
327.385708
 20
153.2
 30
0.0
 11
329.358764
 21
153.2
 31
0.0
  0
LINE
  5
4824726
330
48246F3
100
AcDbEntity
  8
0
 62
     0
100
AcDbLine
 10
317.4904849999999
 20
153.2
 30
0.0
 11
319.305893
 21
153.2
 31
0.0
  0
LINE
  5
4824727
330
48246F3
100
AcDbEntity
  8
0
 62
     0
100
AcDbLine
 10
325.171263
 20
153.2
 30
0.0
 11
326.170339
 21
153.2
 31
0.0
  0
LINE
  5
4824728
330
48246F3
100
AcDbEntity
  8
0
 62
     0
100
AcDbLine
 10
320.5212629999999
 20
153.2
 30
0.0
 11
321.5203389999999
 21
153.2
 31
0.0
  0
LINE
  5
4824729
330
48246F3
100
AcDbEntity
  8
0
 62
     0
100
AcDbLine
 10
322.7357079999998
 20
153.2
 30
0.0
 11
323.955893
 21
153.2
 31
0.0
  0
LINE
  5
482472A
330
48246F3
100
AcDbEntity
  8
0
 62
     0
100
AcDbLine
 10
313.1884149999998
 20
153.3999999999998
 30
0.0
 11
315.596963
 21
153.3999999999998
 31
0.0
  0
LINE
  5
482472B
330
48246F3
100
AcDbEntity
  8
0
 62
     0
100
AcDbLine
 10
327.2785379999999
 20
153.3999999999998
 30
0.0
 11
329.3115849999999
 21
153.3999999999998
 31
0.0
  0
LINE
  5
482472C
330
48246F3
100
AcDbEntity
  8
0
 62
     0
100
AcDbLine
 10
317.4904849999999
 20
153.3999999999998
 30
0.0
 11
319.4130629999999
 21
153.3999999999998
 31
0.0
  0
LINE
  5
482472D
330
48246F3
100
AcDbEntity
  8
0
 62
     0
100
AcDbLine
 10
325.5060589999998
 20
153.3999999999998
 30
0.0
 11
325.835542
 21
153.3999999999998
 31
0.0
  0
LINE
  5
482472E
330
48246F3
100
AcDbEntity
  8
0
 62
     0
100
AcDbLine
 10
320.8560589999998
 20
153.3999999999998
 30
0.0
 11
321.185542
 21
153.3999999999998
 31
0.0
  0
LINE
  5
482472F
330
48246F3
100
AcDbEntity
  8
0
 62
     0
100
AcDbLine
 10
322.628538
 20
153.3999999999998
 30
0.0
 11
324.063063
 21
153.3999999999998
 31
0.0
  0
LINE
  5
4824730
330
48246F3
100
AcDbEntity
  8
0
 62
     0
100
AcDbLine
 10
313.2427509999998
 20
153.6
 30
0.0
 11
315.6955159999998
 21
153.6
 31
0.0
  0
LINE
  5
4824731
330
48246F3
100
AcDbEntity
  8
0
 62
     0
100
AcDbLine
 10
327.146836
 20
153.6
 30
0.0
 11
329.2572489999999
 21
153.6
 31
0.0
  0
LINE
  5
4824732
330
48246F3
100
AcDbEntity
  8
0
 62
     0
100
AcDbLine
 10
317.4904849999999
 20
153.6
 30
0.0
 11
319.5447649999999
 21
153.6
 31
0.0
  0
LINE
  5
4824733
330
48246F3
100
AcDbEntity
  8
0
 62
     0
100
AcDbLine
 10
322.4968359999999
 20
153.6
 30
0.0
 11
324.194765
 21
153.6
 31
0.0
  0
LINE
  5
4824734
330
48246F3
100
AcDbEntity
  8
0
 62
     0
100
AcDbLine
 10
313.3044449999999
 20
153.8
 30
0.0
 11
315.7940689999999
 21
153.8
 31
0.0
  0
LINE
  5
4824735
330
48246F3
100
AcDbEntity
  8
0
 62
     0
100
AcDbLine
 10
326.9841539999998
 20
153.8
 30
0.0
 11
329.1955549999999
 21
153.8
 31
0.0
  0
LINE
  5
4824736
330
48246F3
100
AcDbEntity
  8
0
 62
     0
100
AcDbLine
 10
317.4904849999999
 20
153.8
 30
0.0
 11
319.707447
 21
153.8
 31
0.0
  0
LINE
  5
4824737
330
48246F3
100
AcDbEntity
  8
0
 62
     0
100
AcDbLine
 10
322.334154
 20
153.8
 30
0.0
 11
324.3574469999999
 21
153.8
 31
0.0
  0
LINE
  5
4824738
330
48246F3
100
AcDbEntity
  8
0
 62
     0
100
AcDbLine
 10
313.3737319999998
 20
154.0
 30
0.0
 11
315.892621
 21
154.0
 31
0.0
  0
LINE
  5
4824739
330
48246F3
100
AcDbEntity
  8
0
 62
     0
100
AcDbLine
 10
326.773457
 20
154.0
 30
0.0
 11
329.1262679999999
 21
154.0
 31
0.0
  0
LINE
  5
482473A
330
48246F3
100
AcDbEntity
  8
0
 62
     0
100
AcDbLine
 10
317.4904849999999
 20
154.0
 30
0.0
 11
319.9181439999999
 21
154.0
 31
0.0
  0
LINE
  5
482473B
330
48246F3
100
AcDbEntity
  8
0
 62
     0
100
AcDbLine
 10
322.123457
 20
154.0
 30
0.0
 11
324.568144
 21
154.0
 31
0.0
  0
LINE
  5
482473C
330
48246F3
100
AcDbEntity
  8
0
 62
     0
100
AcDbLine
 10
313.450891
 20
154.1999999999999
 30
0.0
 11
315.991174
 21
154.1999999999999
 31
0.0
  0
LINE
  5
482473D
330
48246F3
100
AcDbEntity
  8
0
 62
     0
100
AcDbLine
 10
326.4853909999998
 20
154.1999999999999
 30
0.0
 11
329.0491089999998
 21
154.1999999999999
 31
0.0
  0
LINE
  5
482473E
330
48246F3
100
AcDbEntity
  8
0
 62
     0
100
AcDbLine
 10
317.4904849999999
 20
154.1999999999999
 30
0.0
 11
320.2062109999999
 21
154.1999999999999
 31
0.0
  0
LINE
  5
482473F
330
48246F3
100
AcDbEntity
  8
0
 62
     0
100
AcDbLine
 10
321.835391
 20
154.1999999999999
 30
0.0
 11
324.8562109999999
 21
154.1999999999999
 31
0.0
  0
LINE
  5
4824740
330
48246F3
100
AcDbEntity
  8
0
 62
     0
100
AcDbLine
 10
313.536246
 20
154.4
 30
0.0
 11
316.089726
 21
154.4
 31
0.0
  0
LINE
  5
4824741
330
48246F3
100
AcDbEntity
  8
0
 62
     0
100
AcDbLine
 10
325.942459
 20
154.4
 30
0.0
 11
328.963754
 21
154.4
 31
0.0
  0
LINE
  5
4824742
330
48246F3
100
AcDbEntity
  8
0
 62
     0
100
AcDbLine
 10
317.4904849999999
 20
154.4
 30
0.0
 11
320.749142
 21
154.4
 31
0.0
  0
LINE
  5
4824743
330
48246F3
100
AcDbEntity
  8
0
 62
     0
100
AcDbLine
 10
321.292459
 20
154.4
 30
0.0
 11
325.3991419999999
 21
154.4
 31
0.0
  0
LINE
  5
4824744
330
48246F3
100
AcDbEntity
  8
0
 62
     0
100
AcDbLine
 10
313.6301389999998
 20
154.6
 30
0.0
 11
328.869861
 21
154.6
 31
0.0
  0
LINE
  5
4824745
330
48246F3
100
AcDbEntity
  8
0
 62
     0
100
AcDbLine
 10
313.732031
 20
154.8
 30
0.0
 11
328.767969
 21
154.8
 31
0.0
  0
LINE
  5
4824746
330
48246F3
100
AcDbEntity
  8
0
 62
     0
100
AcDbLine
 10
313.8418919999999
 20
155.0
 30
0.0
 11
328.658108
 21
155.0
 31
0.0
  0
LINE
  5
4824747
330
48246F3
100
AcDbEntity
  8
0
 62
     0
100
AcDbLine
 10
313.960146
 20
155.1999999999999
 30
0.0
 11
328.539854
 21
155.1999999999999
 31
0.0
  0
LINE
  5
4824748
330
48246F3
100
AcDbEntity
  8
0
 62
     0
100
AcDbLine
 10
314.087283
 20
155.4
 30
0.0
 11
328.412717
 21
155.4
 31
0.0
  0
LINE
  5
4824749
330
48246F3
100
AcDbEntity
  8
0
 62
     0
100
AcDbLine
 10
314.223873
 20
155.6
 30
0.0
 11
328.2761269999999
 21
155.6
 31
0.0
  0
LINE
  5
482474A
330
48246F3
100
AcDbEntity
  8
0
 62
     0
100
AcDbLine
 10
314.370587
 20
155.8
 30
0.0
 11
328.129413
 21
155.8
 31
0.0
  0
LINE
  5
482474B
330
48246F3
100
AcDbEntity
  8
0
 62
     0
100
AcDbLine
 10
314.5282149999998
 20
156.0
 30
0.0
 11
327.971785
 21
156.0
 31
0.0
  0
LINE
  5
482474C
330
48246F3
100
AcDbEntity
  8
0
 62
     0
100
AcDbLine
 10
314.697701
 20
156.1999999999999
 30
0.0
 11
327.802299
 21
156.1999999999999
 31
0.0
  0
LINE
  5
482474D
330
48246F3
100
AcDbEntity
  8
0
 62
     0
100
AcDbLine
 10
314.8801879999999
 20
156.4
 30
0.0
 11
327.619812
 21
156.4
 31
0.0
  0
LINE
  5
482474E
330
48246F3
100
AcDbEntity
  8
0
 62
     0
100
AcDbLine
 10
315.0770759999999
 20
156.6
 30
0.0
 11
327.422924
 21
156.6
 31
0.0
  0
LINE
  5
482474F
330
48246F3
100
AcDbEntity
  8
0
 62
     0
100
AcDbLine
 10
315.2901100000001
 20
156.8
 30
0.0
 11
327.2098899999999
 21
156.8
 31
0.0
  0
LINE
  5
4824750
330
48246F3
100
AcDbEntity
  8
0
 62
     0
100
AcDbLine
 10
315.521268
 20
157.0
 30
0.0
 11
326.9787319999999
 21
157.0
 31
0.0
  0
LINE
  5
4824751
330
48246F3
100
AcDbEntity
  8
0
 62
     0
100
AcDbLine
 10
315.7712839999999
 20
157.1999999999999
 30
0.0
 11
326.728716
 21
157.1999999999999
 31
0.0
  0
LINE
  5
4824752
330
48246F3
100
AcDbEntity
  8
0
 62
     0
100
AcDbLine
 10
316.042707
 20
157.4
 30
0.0
 11
326.4572929999999
 21
157.4
 31
0.0
  0
LINE
  5
4824753
330
48246F3
100
AcDbEntity
  8
0
 62
     0
100
AcDbLine
 10
316.339424
 20
157.6
 30
0.0
 11
326.160576
 21
157.6
 31
0.0
  0
LINE
  5
4824754
330
48246F3
100
AcDbEntity
  8
0
 62
     0
100
AcDbLine
 10
316.6668529999999
 20
157.8
 30
0.0
 11
325.8331469999999
 21
157.8
 31
0.0
  0
LINE
  5
4824755
330
48246F3
100
AcDbEntity
  8
0
 62
     0
100
AcDbLine
 10
317.0329489999999
 20
158.0
 30
0.0
 11
325.4670509999999
 21
158.0
 31
0.0
  0
LINE
  5
4824756
330
48246F3
100
AcDbEntity
  8
0
 62
     0
100
AcDbLine
 10
317.4502889999998
 20
158.1999999999998
 30
0.0
 11
325.0497109999999
 21
158.1999999999998
 31
0.0
  0
LINE
  5
4824757
330
48246F3
100
AcDbEntity
  8
0
 62
     0
100
AcDbLine
 10
317.9410689999999
 20
158.4
 30
0.0
 11
324.5589309999999
 21
158.4
 31
0.0
  0
LINE
  5
4824758
330
48246F3
100
AcDbEntity
  8
0
 62
     0
100
AcDbLine
 10
318.5441579999999
 20
158.6
 30
0.0
 11
323.955842
 21
158.6
 31
0.0
  0
LINE
  5
4824759
330
48246F3
100
AcDbEntity
  8
0
 62
     0
100
AcDbLine
 10
319.3493509999999
 20
158.8
 30
0.0
 11
323.150649
 21
158.8
 31
0.0
  0
LINE
  5
482475A
330
48246F3
100
AcDbEntity
  8
0
 62
     0
100
AcDbLine
 10
313.0068899999999
 20
151.6
 30
0.0
 11
314.70999
 21
151.6
 31
0.0
  0
LINE
  5
482475B
330
48246F3
100
AcDbEntity
  8
0
 62
     0
100
AcDbLine
 10
327.6575509999998
 20
151.6
 30
0.0
 11
329.4931099999999
 21
151.6
 31
0.0
  0
LINE
  5
482475C
330
48246F3
100
AcDbEntity
  8
0
 62
     0
100
AcDbLine
 10
315.824806
 20
151.6
 30
0.0
 11
316.4904849999999
 21
151.6
 31
0.0
  0
LINE
  5
482475D
330
48246F3
100
AcDbEntity
  8
0
 62
     0
100
AcDbLine
 10
324.690125
 20
151.6
 30
0.0
 11
326.651476
 21
151.6
 31
0.0
  0
LINE
  5
482475E
330
48246F3
100
AcDbEntity
  8
0
 62
     0
100
AcDbLine
 10
317.4904849999999
 20
151.6
 30
0.0
 11
319.03405
 21
151.6
 31
0.0
  0
LINE
  5
482475F
330
48246F3
100
AcDbEntity
  8
0
 62
     0
100
AcDbLine
 10
323.0075509999999
 20
151.6
 30
0.0
 11
323.68405
 21
151.6
 31
0.0
  0
LINE
  5
4824760
330
48246F3
100
AcDbEntity
  8
0
 62
     0
100
AcDbLine
 10
320.040125
 20
151.6
 30
0.0
 11
322.0014759999999
 21
151.6
 31
0.0
  0
LINE
  5
4824761
330
48246F3
100
AcDbEntity
  8
0
 62
     0
100
AcDbLine
 10
313.019649
 20
151.4
 30
0.0
 11
314.611437
 21
151.4
 31
0.0
  0
LINE
  5
4824762
330
48246F3
100
AcDbEntity
  8
0
 62
     0
100
AcDbLine
 10
327.6329089999999
 20
151.4
 30
0.0
 11
329.4803509999999
 21
151.4
 31
0.0
  0
LINE
  5
4824763
330
48246F3
100
AcDbEntity
  8
0
 62
     0
100
AcDbLine
 10
315.726254
 20
151.4
 30
0.0
 11
316.4904849999999
 21
151.4
 31
0.0
  0
LINE
  5
4824764
330
48246F3
100
AcDbEntity
  8
0
 62
     0
100
AcDbLine
 10
324.7263119999999
 20
151.4
 30
0.0
 11
326.61529
 21
151.4
 31
0.0
  0
LINE
  5
4824765
330
48246F3
100
AcDbEntity
  8
0
 62
     0
100
AcDbLine
 10
317.4904849999999
 20
151.4
 30
0.0
 11
319.058692
 21
151.4
 31
0.0
  0
LINE
  5
4824766
330
48246F3
100
AcDbEntity
  8
0
 62
     0
100
AcDbLine
 10
322.9829089999999
 20
151.4
 30
0.0
 11
323.7086919999999
 21
151.4
 31
0.0
  0
LINE
  5
4824767
330
48246F3
100
AcDbEntity
  8
0
 62
     0
100
AcDbLine
 10
320.0763119999999
 20
151.4
 30
0.0
 11
321.9652899999999
 21
151.4
 31
0.0
  0
LINE
  5
4824768
330
48246F3
100
AcDbEntity
  8
0
 62
     0
100
AcDbLine
 10
313.0389879999999
 20
151.2
 30
0.0
 11
314.5511139999999
 21
151.2
 31
0.0
  0
LINE
  5
4824769
330
48246F3
100
AcDbEntity
  8
0
 62
     0
100
AcDbLine
 10
327.5952869999999
 20
151.2
 30
0.0
 11
329.4610119999999
 21
151.2
 31
0.0
  0
LINE
  5
482476A
330
48246F3
100
AcDbEntity
  8
0
 62
     0
100
AcDbLine
 10
318.3751809999999
 20
151.2
 30
0.0
 11
319.0963149999999
 21
151.2
 31
0.0
  0
LINE
  5
482476B
330
48246F3
100
AcDbEntity
  8
0
 62
     0
100
AcDbLine
 10
324.782216
 20
151.2
 30
0.0
 11
326.559385
 21
151.2
 31
0.0
  0
LINE
  5
482476C
330
48246F3
100
AcDbEntity
  8
0
 62
     0
100
AcDbLine
 10
320.1322160000001
 20
151.2
 30
0.0
 11
321.909385
 21
151.2
 31
0.0
  0
LINE
  5
482476D
330
48246F3
100
AcDbEntity
  8
0
 62
     0
100
AcDbLine
 10
322.945287
 20
151.2
 30
0.0
 11
323.7463149999999
 21
151.2
 31
0.0
  0
LINE
  5
482476E
330
48246F3
100
AcDbEntity
  8
0
 62
     0
100
AcDbLine
 10
313.064971
 20
151.0
 30
0.0
 11
314.5511139999999
 21
151.0
 31
0.0
  0
LINE
  5
482476F
330
48246F3
100
AcDbEntity
  8
0
 62
     0
100
AcDbLine
 10
327.5442049999999
 20
151.0
 30
0.0
 11
329.435029
 21
151.0
 31
0.0
  0
LINE
  5
4824770
330
48246F3
100
AcDbEntity
  8
0
 62
     0
100
AcDbLine
 10
318.3751809999999
 20
151.0
 30
0.0
 11
319.147396
 21
151.0
 31
0.0
  0
LINE
  5
4824771
330
48246F3
100
AcDbEntity
  8
0
 62
     0
100
AcDbLine
 10
324.864366
 20
151.0
 30
0.0
 11
326.477236
 21
151.0
 31
0.0
  0
LINE
  5
4824772
330
48246F3
100
AcDbEntity
  8
0
 62
     0
100
AcDbLine
 10
320.2143659999999
 20
151.0
 30
0.0
 11
321.8272359999999
 21
151.0
 31
0.0
  0
LINE
  5
4824773
330
48246F3
100
AcDbEntity
  8
0
 62
     0
100
AcDbLine
 10
322.894205
 20
151.0
 30
0.0
 11
323.797396
 21
151.0
 31
0.0
  0
LINE
  5
4824774
330
48246F3
100
AcDbEntity
  8
0
 62
     0
100
AcDbLine
 10
313.0976839999998
 20
150.8
 30
0.0
 11
314.5511139999999
 21
150.8
 31
0.0
  0
LINE
  5
4824775
330
48246F3
100
AcDbEntity
  8
0
 62
     0
100
AcDbLine
 10
327.478561
 20
150.8
 30
0.0
 11
329.402316
 21
150.8
 31
0.0
  0
LINE
  5
4824776
330
48246F3
100
AcDbEntity
  8
0
 62
     0
100
AcDbLine
 10
318.3751809999999
 20
150.8
 30
0.0
 11
319.2130399999999
 21
150.8
 31
0.0
  0
LINE
  5
4824777
330
48246F3
100
AcDbEntity
  8
0
 62
     0
100
AcDbLine
 10
324.982014
 20
150.8
 30
0.0
 11
326.3595869999999
 21
150.8
 31
0.0
  0
LINE
  5
4824778
330
48246F3
100
AcDbEntity
  8
0
 62
     0
100
AcDbLine
 10
320.332014
 20
150.8
 30
0.0
 11
321.709587
 21
150.8
 31
0.0
  0
LINE
  5
4824779
330
48246F3
100
AcDbEntity
  8
0
 62
     0
100
AcDbLine
 10
322.8285609999999
 20
150.8
 30
0.0
 11
323.86304
 21
150.8
 31
0.0
  0
LINE
  5
482477A
330
48246F3
100
AcDbEntity
  8
0
 62
     0
100
AcDbLine
 10
313.1372349999999
 20
150.6
 30
0.0
 11
314.5511139999999
 21
150.6
 31
0.0
  0
LINE
  5
482477B
330
48246F3
100
AcDbEntity
  8
0
 62
     0
100
AcDbLine
 10
327.394489
 20
150.6
 30
0.0
 11
329.3627649999999
 21
150.6
 31
0.0
  0
LINE
  5
482477C
330
48246F3
100
AcDbEntity
  8
0
 62
     0
100
AcDbLine
 10
318.3751809999999
 20
150.6
 30
0.0
 11
319.2971120000001
 21
150.6
 31
0.0
  0
LINE
  5
482477D
330
48246F3
100
AcDbEntity
  8
0
 62
     0
100
AcDbLine
 10
325.1511569999999
 20
150.6
 30
0.0
 11
326.190444
 21
150.6
 31
0.0
  0
LINE
  5
482477E
330
48246F3
100
AcDbEntity
  8
0
 62
     0
100
AcDbLine
 10
320.5011569999999
 20
150.6
 30
0.0
 11
321.5404439999999
 21
150.6
 31
0.0
  0
LINE
  5
482477F
330
48246F3
100
AcDbEntity
  8
0
 62
     0
100
AcDbLine
 10
322.744489
 20
150.6
 30
0.0
 11
323.947112
 21
150.6
 31
0.0
  0
LINE
  5
4824780
330
48246F3
100
AcDbEntity
  8
0
 62
     0
100
AcDbLine
 10
313.183763
 20
150.4
 30
0.0
 11
314.5511139999999
 21
150.4
 31
0.0
  0
LINE
  5
4824781
330
48246F3
100
AcDbEntity
  8
0
 62
     0
100
AcDbLine
 10
327.289399
 20
150.4
 30
0.0
 11
329.316237
 21
150.4
 31
0.0
  0
LINE
  5
4824782
330
48246F3
100
AcDbEntity
  8
0
 62
     0
100
AcDbLine
 10
318.3751809999999
 20
150.4
 30
0.0
 11
319.4022019999998
 21
150.4
 31
0.0
  0
LINE
  5
4824783
330
48246F3
100
AcDbEntity
  8
0
 62
     0
100
AcDbLine
 10
325.4520639999999
 20
150.4
 30
0.0
 11
325.889537
 21
150.4
 31
0.0
  0
LINE
  5
4824784
330
48246F3
100
AcDbEntity
  8
0
 62
     0
100
AcDbLine
 10
320.8020639999999
 20
150.4
 30
0.0
 11
321.2395369999999
 21
150.4
 31
0.0
  0
LINE
  5
4824785
330
48246F3
100
AcDbEntity
  8
0
 62
     0
100
AcDbLine
 10
322.639399
 20
150.4
 30
0.0
 11
324.052202
 21
150.4
 31
0.0
  0
LINE
  5
4824786
330
48246F3
100
AcDbEntity
  8
0
 62
     0
100
AcDbLine
 10
313.237431
 20
150.1999999999999
 30
0.0
 11
316.4904849999999
 21
150.1999999999999
 31
0.0
  0
LINE
  5
4824787
330
48246F3
100
AcDbEntity
  8
0
 62
     0
100
AcDbLine
 10
327.1601379999999
 20
150.1999999999999
 30
0.0
 11
329.2625689999999
 21
150.1999999999999
 31
0.0
  0
LINE
  5
4824788
330
48246F3
100
AcDbEntity
  8
0
 62
     0
100
AcDbLine
 10
317.432833
 20
150.1999999999999
 30
0.0
 11
319.5314629999999
 21
150.1999999999999
 31
0.0
  0
LINE
  5
4824789
330
48246F3
100
AcDbEntity
  8
0
 62
     0
100
AcDbLine
 10
322.5101379999999
 20
150.1999999999999
 30
0.0
 11
324.181463
 21
150.1999999999999
 31
0.0
  0
LINE
  5
482478A
330
48246F3
100
AcDbEntity
  8
0
 62
     0
100
AcDbLine
 10
313.298436
 20
150.0
 30
0.0
 11
316.4904849999999
 21
150.0
 31
0.0
  0
LINE
  5
482478B
330
48246F3
100
AcDbEntity
  8
0
 62
     0
100
AcDbLine
 10
327.0008919999999
 20
150.0
 30
0.0
 11
329.201564
 21
150.0
 31
0.0
  0
LINE
  5
482478C
330
48246F3
100
AcDbEntity
  8
0
 62
     0
100
AcDbLine
 10
317.432833
 20
150.0
 30
0.0
 11
319.69071
 21
150.0
 31
0.0
  0
LINE
  5
482478D
330
48246F3
100
AcDbEntity
  8
0
 62
     0
100
AcDbLine
 10
322.3508919999998
 20
150.0
 30
0.0
 11
324.34071
 21
150.0
 31
0.0
  0
LINE
  5
482478E
330
48246F3
100
AcDbEntity
  8
0
 62
     0
100
AcDbLine
 10
313.367011
 20
149.8
 30
0.0
 11
316.4904849999999
 21
149.8
 31
0.0
  0
LINE
  5
482478F
330
48246F3
100
AcDbEntity
  8
0
 62
     0
100
AcDbLine
 10
326.7955039999999
 20
149.8
 30
0.0
 11
329.132989
 21
149.8
 31
0.0
  0
LINE
  5
4824790
330
48246F3
100
AcDbEntity
  8
0
 62
     0
100
AcDbLine
 10
317.432833
 20
149.8
 30
0.0
 11
319.8960969999999
 21
149.8
 31
0.0
  0
LINE
  5
4824791
330
48246F3
100
AcDbEntity
  8
0
 62
     0
100
AcDbLine
 10
322.145504
 20
149.8
 30
0.0
 11
324.5460969999999
 21
149.8
 31
0.0
  0
LINE
  5
4824792
330
48246F3
100
AcDbEntity
  8
0
 62
     0
100
AcDbLine
 10
313.4434299999999
 20
149.5999999999999
 30
0.0
 11
316.4904849999999
 21
149.5999999999999
 31
0.0
  0
LINE
  5
4824793
330
48246F3
100
AcDbEntity
  8
0
 62
     0
100
AcDbLine
 10
326.516748
 20
149.5999999999999
 30
0.0
 11
329.05657
 21
149.5999999999999
 31
0.0
  0
LINE
  5
4824794
330
48246F3
100
AcDbEntity
  8
0
 62
     0
100
AcDbLine
 10
317.432833
 20
149.5999999999999
 30
0.0
 11
320.1748529999999
 21
149.5999999999999
 31
0.0
  0
LINE
  5
4824795
330
48246F3
100
AcDbEntity
  8
0
 62
     0
100
AcDbLine
 10
321.8667479999999
 20
149.5999999999999
 30
0.0
 11
324.8248529999999
 21
149.5999999999999
 31
0.0
  0
LINE
  5
4824796
330
48246F3
100
AcDbEntity
  8
0
 62
     0
100
AcDbLine
 10
313.5280129999998
 20
149.3999999999998
 30
0.0
 11
316.4904849999999
 21
149.3999999999998
 31
0.0
  0
LINE
  5
4824797
330
48246F3
100
AcDbEntity
  8
0
 62
     0
100
AcDbLine
 10
326.033331
 20
149.3999999999998
 30
0.0
 11
328.971987
 21
149.3999999999998
 31
0.0
  0
LINE
  5
4824798
330
48246F3
100
AcDbEntity
  8
0
 62
     0
100
AcDbLine
 10
317.432833
 20
149.3999999999998
 30
0.0
 11
320.65827
 21
149.3999999999998
 31
0.0
  0
LINE
  5
4824799
330
48246F3
100
AcDbEntity
  8
0
 62
     0
100
AcDbLine
 10
321.383331
 20
149.3999999999998
 30
0.0
 11
325.30827
 21
149.3999999999998
 31
0.0
  0
LINE
  5
482479A
330
48246F3
100
AcDbEntity
  8
0
 62
     0
100
AcDbLine
 10
313.621122
 20
149.1999999999999
 30
0.0
 11
328.8788779999998
 21
149.1999999999999
 31
0.0
  0
LINE
  5
482479B
330
48246F3
100
AcDbEntity
  8
0
 62
     0
100
AcDbLine
 10
313.722297
 20
149.0
 30
0.0
 11
328.7777029999999
 21
149.0
 31
0.0
  0
LINE
  5
482479C
330
48246F3
100
AcDbEntity
  8
0
 62
     0
100
AcDbLine
 10
313.831406
 20
148.8
 30
0.0
 11
328.6685939999999
 21
148.8
 31
0.0
  0
LINE
  5
482479D
330
48246F3
100
AcDbEntity
  8
0
 62
     0
100
AcDbLine
 10
313.948866
 20
148.5999999999999
 30
0.0
 11
328.5511339999998
 21
148.5999999999999
 31
0.0
  0
LINE
  5
482479E
330
48246F3
100
AcDbEntity
  8
0
 62
     0
100
AcDbLine
 10
314.0751599999999
 20
148.3999999999998
 30
0.0
 11
328.42484
 21
148.3999999999998
 31
0.0
  0
LINE
  5
482479F
330
48246F3
100
AcDbEntity
  8
0
 62
     0
100
AcDbLine
 10
314.2108519999998
 20
148.2
 30
0.0
 11
328.2891479999999
 21
148.2
 31
0.0
  0
LINE
  5
48247A0
330
48246F3
100
AcDbEntity
  8
0
 62
     0
100
AcDbLine
 10
314.3566
 20
148.0
 30
0.0
 11
328.1433999999998
 21
148.0
 31
0.0
  0
LINE
  5
48247A1
330
48246F3
100
AcDbEntity
  8
0
 62
     0
100
AcDbLine
 10
314.513183
 20
147.8
 30
0.0
 11
327.9868169999999
 21
147.8
 31
0.0
  0
LINE
  5
48247A2
330
48246F3
100
AcDbEntity
  8
0
 62
     0
100
AcDbLine
 10
314.68153
 20
147.5999999999999
 30
0.0
 11
327.81847
 21
147.5999999999999
 31
0.0
  0
LINE
  5
48247A3
330
48246F3
100
AcDbEntity
  8
0
 62
     0
100
AcDbLine
 10
314.862763
 20
147.4
 30
0.0
 11
327.637237
 21
147.4
 31
0.0
  0
LINE
  5
48247A4
330
48246F3
100
AcDbEntity
  8
0
 62
     0
100
AcDbLine
 10
315.0582539999999
 20
147.1999999999999
 30
0.0
 11
327.441746
 21
147.1999999999999
 31
0.0
  0
LINE
  5
48247A5
330
48246F3
100
AcDbEntity
  8
0
 62
     0
100
AcDbLine
 10
315.269714
 20
147.0
 30
0.0
 11
327.2302859999999
 21
147.0
 31
0.0
  0
LINE
  5
48247A6
330
48246F3
100
AcDbEntity
  8
0
 62
     0
100
AcDbLine
 10
315.49916
 20
146.8
 30
0.0
 11
327.00084
 21
146.8
 31
0.0
  0
LINE
  5
48247A7
330
48246F3
100
AcDbEntity
  8
0
 62
     0
100
AcDbLine
 10
315.7473589999999
 20
146.6
 30
0.0
 11
326.7526409999999
 21
146.6
 31
0.0
  0
LINE
  5
48247A8
330
48246F3
100
AcDbEntity
  8
0
 62
     0
100
AcDbLine
 10
316.016661
 20
146.4
 30
0.0
 11
326.483339
 21
146.4
 31
0.0
  0
LINE
  5
48247A9
330
48246F3
100
AcDbEntity
  8
0
 62
     0
100
AcDbLine
 10
316.3108449999999
 20
146.1999999999999
 30
0.0
 11
326.1891549999999
 21
146.1999999999999
 31
0.0
  0
LINE
  5
48247AA
330
48246F3
100
AcDbEntity
  8
0
 62
     0
100
AcDbLine
 10
316.6351539999999
 20
146.0
 30
0.0
 11
325.8648459999998
 21
146.0
 31
0.0
  0
LINE
  5
48247AB
330
48246F3
100
AcDbEntity
  8
0
 62
     0
100
AcDbLine
 10
316.997247
 20
145.8
 30
0.0
 11
325.502753
 21
145.8
 31
0.0
  0
LINE
  5
48247AC
330
48246F3
100
AcDbEntity
  8
0
 62
     0
100
AcDbLine
 10
317.4091329999999
 20
145.5999999999999
 30
0.0
 11
325.090867
 21
145.5999999999999
 31
0.0
  0
LINE
  5
48247AD
330
48246F3
100
AcDbEntity
  8
0
 62
     0
100
AcDbLine
 10
317.891745
 20
145.4
 30
0.0
 11
324.608255
 21
145.4
 31
0.0
  0
LINE
  5
48247AE
330
48246F3
100
AcDbEntity
  8
0
 62
     0
100
AcDbLine
 10
318.482341
 20
145.1999999999999
 30
0.0
 11
324.0176589999999
 21
145.1999999999999
 31
0.0
  0
LINE
  5
48247AF
330
48246F3
100
AcDbEntity
  8
0
 62
     0
100
AcDbLine
 10
319.260476
 20
145.0
 30
0.0
 11
323.239524
 21
145.0
 31
0.0
  0
LINE
  5
48247B0
330
48246F3
100
AcDbEntity
  8
0
 62
     0
100
AcDbLine
 10
320.829909
 20
144.8
 30
0.0
 11
321.670091
 21
144.8
 31
0.0
  0
ENDBLK
  5
48247B2
330
48246F3
100
AcDbEntity
  8
0
100
AcDbBlockEnd
  0
BLOCK
  5
48247BC
330
48247B3
100
AcDbEntity
  8
0
100
AcDbBlockBegin
  2
*X7
 70
     1
 10
0.0
 20
0.0
 30
0.0
  3
*X7
  1

  0
LINE
  5
48247B4
330
48247B3
100
AcDbEntity
  8
0
 62
     0
100
AcDbLine
 10
328.133593
 20
110.4
 30
0.0
 11
329.833593
 21
110.4
 31
0.0
  0
LINE
  5
48247B5
330
48247B3
100
AcDbEntity
  8
0
 62
     0
100
AcDbLine
 10
328.133593
 20
110.5999999999998
 30
0.0
 11
329.833593
 21
110.5999999999998
 31
0.0
  0
LINE
  5
48247B6
330
48247B3
100
AcDbEntity
  8
0
 62
     0
100
AcDbLine
 10
328.133593
 20
110.8
 30
0.0
 11
329.833593
 21
110.8
 31
0.0
  0
LINE
  5
48247B7
330
48247B3
100
AcDbEntity
  8
0
 62
     0
100
AcDbLine
 10
328.133593
 20
111.0
 30
0.0
 11
329.833593
 21
111.0
 31
0.0
  0
LINE
  5
48247B8
330
48247B3
100
AcDbEntity
  8
0
 62
     0
100
AcDbLine
 10
328.133593
 20
111.2
 30
0.0
 11
329.833593
 21
111.2
 31
0.0
  0
LINE
  5
48247B9
330
48247B3
100
AcDbEntity
  8
0
 62
     0
100
AcDbLine
 10
328.133593
 20
110.2
 30
0.0
 11
329.833593
 21
110.2
 31
0.0
  0
LINE
  5
48247BA
330
48247B3
100
AcDbEntity
  8
0
 62
     0
100
AcDbLine
 10
328.133593
 20
110.0
 30
0.0
 11
329.833593
 21
110.0
 31
0.0
  0
LINE
  5
48247BB
330
48247B3
100
AcDbEntity
  8
0
 62
     0
100
AcDbLine
 10
328.133593
 20
109.8
 30
0.0
 11
329.833593
 21
109.8
 31
0.0
  0
ENDBLK
  5
48247BD
330
48247B3
100
AcDbEntity
  8
0
100
AcDbBlockEnd
  0
BLOCK
  5
4824873
330
48247BE
100
AcDbEntity
  8
0
100
AcDbBlockBegin
  2
*X8
 70
     1
 10
0.0
 20
0.0
 30
0.0
  3
*X8
  1

  0
LINE
  5
48247BF
330
48247BE
100
AcDbEntity
  8
0
 62
     0
100
AcDbLine
 10
211.48028
 20
234.0
 30
0.0
 11
211.685202
 21
234.0
 31
0.0
  0
LINE
  5
48247C0
330
48247BE
100
AcDbEntity
  8
0
 62
     0
100
AcDbLine
 10
238.737119
 20
234.0
 30
0.0
 11
240.373369
 21
234.0
 31
0.0
  0
LINE
  5
48247C1
330
48247BE
100
AcDbEntity
  8
0
 62
     0
100
AcDbLine
 10
213.334641
 20
234.0
 30
0.0
 11
214.629873
 21
234.0
 31
0.0
  0
LINE
  5
48247C2
330
48247BE
100
AcDbEntity
  8
0
 62
     0
100
AcDbLine
 10
236.809764
 20
234.0
 30
0.0
 11
237.728514
 21
234.0
 31
0.0
  0
LINE
  5
48247C3
330
48247BE
100
AcDbEntity
  8
0
 62
     0
100
AcDbLine
 10
216.1941479999999
 20
234.0
 30
0.0
 11
216.399036
 21
234.0
 31
0.0
  0
LINE
  5
48247C4
330
48247BE
100
AcDbEntity
  8
0
 62
     0
100
AcDbLine
 10
233.9997059999999
 20
234.0
 30
0.0
 11
235.63887
 21
234.0
 31
0.0
  0
LINE
  5
48247C5
330
48247BE
100
AcDbEntity
  8
0
 62
     0
100
AcDbLine
 10
217.865512
 20
234.0
 30
0.0
 11
219.453372
 21
234.0
 31
0.0
  0
LINE
  5
48247C6
330
48247BE
100
AcDbEntity
  8
0
 62
     0
100
AcDbLine
 10
230.61935
 20
234.0
 30
0.0
 11
231.848658
 21
234.0
 31
0.0
  0
LINE
  5
48247C7
330
48247BE
100
AcDbEntity
  8
0
 62
     0
100
AcDbLine
 10
221.706621
 20
234.0
 30
0.0
 11
223.2944819999999
 21
234.0
 31
0.0
  0
LINE
  5
48247C8
330
48247BE
100
AcDbEntity
  8
0
 62
     0
100
AcDbLine
 10
228.1642529999998
 20
234.0
 30
0.0
 11
228.9780029999998
 21
234.0
 31
0.0
  0
LINE
  5
48247C9
330
48247BE
100
AcDbEntity
  8
0
 62
     0
100
AcDbLine
 10
224.0605029999999
 20
234.0
 30
0.0
 11
224.8830029999998
 21
234.0
 31
0.0
  0
LINE
  5
48247CA
330
48247BE
100
AcDbEntity
  8
0
 62
     0
100
AcDbLine
 10
225.726293
 20
234.0
 30
0.0
 11
227.563793
 21
234.0
 31
0.0
  0
LINE
  5
48247CB
330
48247BE
100
AcDbEntity
  8
0
 62
     0
100
AcDbLine
 10
211.4925749999999
 20
234.2
 30
0.0
 11
211.699662
 21
234.2
 31
0.0
  0
LINE
  5
48247CC
330
48247BE
100
AcDbEntity
  8
0
 62
     0
100
AcDbLine
 10
238.629802
 20
234.2
 30
0.0
 11
240.2660519999999
 21
234.2
 31
0.0
  0
LINE
  5
48247CD
330
48247BE
100
AcDbEntity
  8
0
 62
     0
100
AcDbLine
 10
213.0461679999999
 20
234.2
 30
0.0
 11
213.7005129999999
 21
234.2
 31
0.0
  0
LINE
  5
48247CE
330
48247BE
100
AcDbEntity
  8
0
 62
     0
100
AcDbLine
 10
236.909764
 20
234.2
 30
0.0
 11
237.828514
 21
234.2
 31
0.0
  0
LINE
  5
48247CF
330
48247BE
100
AcDbEntity
  8
0
 62
     0
100
AcDbLine
 10
216.177697
 20
234.2
 30
0.0
 11
216.3847839999998
 21
234.2
 31
0.0
  0
LINE
  5
48247D0
330
48247BE
100
AcDbEntity
  8
0
 62
     0
100
AcDbLine
 10
233.9860129999999
 20
234.2
 30
0.0
 11
235.630042
 21
234.2
 31
0.0
  0
LINE
  5
48247D1
330
48247BE
100
AcDbEntity
  8
0
 62
     0
100
AcDbLine
 10
217.878981
 20
234.2
 30
0.0
 11
219.4670649999999
 21
234.2
 31
0.0
  0
LINE
  5
48247D2
330
48247BE
100
AcDbEntity
  8
0
 62
     0
100
AcDbLine
 10
230.61935
 20
234.2
 30
0.0
 11
231.848658
 21
234.2
 31
0.0
  0
LINE
  5
48247D3
330
48247BE
100
AcDbEntity
  8
0
 62
     0
100
AcDbLine
 10
221.6929279999999
 20
234.2
 30
0.0
 11
223.2810119999999
 21
234.2
 31
0.0
  0
LINE
  5
48247D4
330
48247BE
100
AcDbEntity
  8
0
 62
     0
100
AcDbLine
 10
228.1642529999998
 20
234.2
 30
0.0
 11
228.9780029999998
 21
234.2
 31
0.0
  0
LINE
  5
48247D5
330
48247BE
100
AcDbEntity
  8
0
 62
     0
100
AcDbLine
 10
224.0605029999999
 20
234.2
 30
0.0
 11
224.8830029999998
 21
234.2
 31
0.0
  0
LINE
  5
48247D6
330
48247BE
100
AcDbEntity
  8
0
 62
     0
100
AcDbLine
 10
225.5614689999999
 20
234.2
 30
0.0
 11
227.398969
 21
234.2
 31
0.0
  0
LINE
  5
48247D7
330
48247BE
100
AcDbEntity
  8
0
 62
     0
100
AcDbLine
 10
211.5379979999999
 20
234.4
 30
0.0
 11
211.753581
 21
234.4
 31
0.0
  0
LINE
  5
48247D8
330
48247BE
100
AcDbEntity
  8
0
 62
     0
100
AcDbLine
 10
238.5224849999999
 20
234.4
 30
0.0
 11
240.158735
 21
234.4
 31
0.0
  0
LINE
  5
48247D9
330
48247BE
100
AcDbEntity
  8
0
 62
     0
100
AcDbLine
 10
212.894379
 20
234.4
 30
0.0
 11
213.275885
 21
234.4
 31
0.0
  0
LINE
  5
48247DA
330
48247BE
100
AcDbEntity
  8
0
 62
     0
100
AcDbLine
 10
237.009764
 20
234.4
 30
0.0
 11
237.9285139999999
 21
234.4
 31
0.0
  0
LINE
  5
48247DB
330
48247BE
100
AcDbEntity
  8
0
 62
     0
100
AcDbLine
 10
216.1237779999999
 20
234.4
 30
0.0
 11
216.3393609999999
 21
234.4
 31
0.0
  0
LINE
  5
48247DC
330
48247BE
100
AcDbEntity
  8
0
 62
     0
100
AcDbLine
 10
233.935132
 20
234.4
 30
0.0
 11
235.597804
 21
234.4
 31
0.0
  0
LINE
  5
48247DD
330
48247BE
100
AcDbEntity
  8
0
 62
     0
100
AcDbLine
 10
217.928984
 20
234.4
 30
0.0
 11
219.5179469999999
 21
234.4
 31
0.0
  0
LINE
  5
48247DE
330
48247BE
100
AcDbEntity
  8
0
 62
     0
100
AcDbLine
 10
230.61935
 20
234.4
 30
0.0
 11
231.848658
 21
234.4
 31
0.0
  0
LINE
  5
48247DF
330
48247BE
100
AcDbEntity
  8
0
 62
     0
100
AcDbLine
 10
221.642047
 20
234.4
 30
0.0
 11
223.2310099999998
 21
234.4
 31
0.0
  0
LINE
  5
48247E0
330
48247BE
100
AcDbEntity
  8
0
 62
     0
100
AcDbLine
 10
228.1642529999998
 20
234.4
 30
0.0
 11
228.9780029999998
 21
234.4
 31
0.0
  0
LINE
  5
48247E1
330
48247BE
100
AcDbEntity
  8
0
 62
     0
100
AcDbLine
 10
224.0605029999999
 20
234.4
 30
0.0
 11
224.8830029999998
 21
234.4
 31
0.0
  0
LINE
  5
48247E2
330
48247BE
100
AcDbEntity
  8
0
 62
     0
100
AcDbLine
 10
225.396645
 20
234.4
 30
0.0
 11
227.234145
 21
234.4
 31
0.0
  0
LINE
  5
48247E3
330
48247BE
100
AcDbEntity
  8
0
 62
     0
100
AcDbLine
 10
211.620597
 20
234.6
 30
0.0
 11
211.8538889999999
 21
234.6
 31
0.0
  0
LINE
  5
48247E4
330
48247BE
100
AcDbEntity
  8
0
 62
     0
100
AcDbLine
 10
238.4151679999999
 20
234.6
 30
0.0
 11
240.051418
 21
234.6
 31
0.0
  0
LINE
  5
48247E5
330
48247BE
100
AcDbEntity
  8
0
 62
     0
100
AcDbLine
 10
212.8221739999999
 20
234.6
 30
0.0
 11
213.137887
 21
234.6
 31
0.0
  0
LINE
  5
48247E6
330
48247BE
100
AcDbEntity
  8
0
 62
     0
100
AcDbLine
 10
237.109764
 20
234.6
 30
0.0
 11
238.028514
 21
234.6
 31
0.0
  0
LINE
  5
48247E7
330
48247BE
100
AcDbEntity
  8
0
 62
     0
100
AcDbLine
 10
216.02347
 20
234.6
 30
0.0
 11
216.256762
 21
234.6
 31
0.0
  0
LINE
  5
48247E8
330
48247BE
100
AcDbEntity
  8
0
 62
     0
100
AcDbLine
 10
233.841216
 20
234.6
 30
0.0
 11
235.54078
 21
234.6
 31
0.0
  0
LINE
  5
48247E9
330
48247BE
100
AcDbEntity
  8
0
 62
     0
100
AcDbLine
 10
218.0210419999999
 20
234.6
 30
0.0
 11
219.6118629999999
 21
234.6
 31
0.0
  0
LINE
  5
48247EA
330
48247BE
100
AcDbEntity
  8
0
 62
     0
100
AcDbLine
 10
230.61935
 20
234.6
 30
0.0
 11
231.848658
 21
234.6
 31
0.0
  0
LINE
  5
48247EB
330
48247BE
100
AcDbEntity
  8
0
 62
     0
100
AcDbLine
 10
221.548131
 20
234.6
 30
0.0
 11
223.138952
 21
234.6
 31
0.0
  0
LINE
  5
48247EC
330
48247BE
100
AcDbEntity
  8
0
 62
     0
100
AcDbLine
 10
228.1642529999998
 20
234.6
 30
0.0
 11
228.9780029999998
 21
234.6
 31
0.0
  0
LINE
  5
48247ED
330
48247BE
100
AcDbEntity
  8
0
 62
     0
100
AcDbLine
 10
224.0605029999999
 20
234.6
 30
0.0
 11
224.8830029999998
 21
234.6
 31
0.0
  0
LINE
  5
48247EE
330
48247BE
100
AcDbEntity
  8
0
 62
     0
100
AcDbLine
 10
225.2318209999998
 20
234.6
 30
0.0
 11
227.069321
 21
234.6
 31
0.0
  0
LINE
  5
48247EF
330
48247BE
100
AcDbEntity
  8
0
 62
     0
100
AcDbLine
 10
211.7445029999999
 20
234.8
 30
0.0
 11
212.0005069999999
 21
234.8
 31
0.0
  0
LINE
  5
48247F0
330
48247BE
100
AcDbEntity
  8
0
 62
     0
100
AcDbLine
 10
238.3078509999999
 20
234.8
 30
0.0
 11
239.9441009999999
 21
234.8
 31
0.0
  0
LINE
  5
48247F1
330
48247BE
100
AcDbEntity
  8
0
 62
     0
100
AcDbLine
 10
212.811821
 20
234.8
 30
0.0
 11
213.129333
 21
234.8
 31
0.0
  0
LINE
  5
48247F2
330
48247BE
100
AcDbEntity
  8
0
 62
     0
100
AcDbLine
 10
237.209764
 20
234.8
 30
0.0
 11
238.128514
 21
234.8
 31
0.0
  0
LINE
  5
48247F3
330
48247BE
100
AcDbEntity
  8
0
 62
     0
100
AcDbLine
 10
214.5302309999999
 20
234.8
 30
0.0
 11
215.2473279999999
 21
234.8
 31
0.0
  0
LINE
  5
48247F4
330
48247BE
100
AcDbEntity
  8
0
 62
     0
100
AcDbLine
 10
233.6895479999999
 20
234.8
 30
0.0
 11
235.45625
 21
234.8
 31
0.0
  0
LINE
  5
48247F5
330
48247BE
100
AcDbEntity
  8
0
 62
     0
100
AcDbLine
 10
215.876852
 20
234.8
 30
0.0
 11
216.132856
 21
234.8
 31
0.0
  0
LINE
  5
48247F6
330
48247BE
100
AcDbEntity
  8
0
 62
     0
100
AcDbLine
 10
230.61935
 20
234.8
 30
0.0
 11
231.848658
 21
234.8
 31
0.0
  0
LINE
  5
48247F7
330
48247BE
100
AcDbEntity
  8
0
 62
     0
100
AcDbLine
 10
218.1594009999999
 20
234.8
 30
0.0
 11
219.7635299999999
 21
234.8
 31
0.0
  0
LINE
  5
48247F8
330
48247BE
100
AcDbEntity
  8
0
 62
     0
100
AcDbLine
 10
228.1642529999998
 20
234.8
 30
0.0
 11
228.9780029999998
 21
234.8
 31
0.0
  0
LINE
  5
48247F9
330
48247BE
100
AcDbEntity
  8
0
 62
     0
100
AcDbLine
 10
221.3964629999999
 20
234.8
 30
0.0
 11
223.0005919999999
 21
234.8
 31
0.0
  0
LINE
  5
48247FA
330
48247BE
100
AcDbEntity
  8
0
 62
     0
100
AcDbLine
 10
225.066997
 20
234.8
 30
0.0
 11
226.9044969999999
 21
234.8
 31
0.0
  0
LINE
  5
48247FB
330
48247BE
100
AcDbEntity
  8
0
 62
     0
100
AcDbLine
 10
224.0605029999999
 20
234.8
 30
0.0
 11
224.8830029999998
 21
234.8
 31
0.0
  0
LINE
  5
48247FC
330
48247BE
100
AcDbEntity
  8
0
 62
     0
100
AcDbLine
 10
211.9080519999999
 20
235.0
 30
0.0
 11
212.2007179999999
 21
235.0
 31
0.0
  0
LINE
  5
48247FD
330
48247BE
100
AcDbEntity
  8
0
 62
     0
100
AcDbLine
 10
237.309764
 20
235.0
 30
0.0
 11
239.836783
 21
235.0
 31
0.0
  0
LINE
  5
48247FE
330
48247BE
100
AcDbEntity
  8
0
 62
     0
100
AcDbLine
 10
212.8714029999999
 20
235.0
 30
0.0
 11
213.246248
 21
235.0
 31
0.0
  0
LINE
  5
48247FF
330
48247BE
100
AcDbEntity
  8
0
 62
     0
100
AcDbLine
 10
233.435177
 20
235.0
 30
0.0
 11
235.3393849999999
 21
235.0
 31
0.0
  0
LINE
  5
4824800
330
48247BE
100
AcDbEntity
  8
0
 62
     0
100
AcDbLine
 10
214.6311109999998
 20
235.0
 30
0.0
 11
214.9986629999999
 21
235.0
 31
0.0
  0
LINE
  5
4824801
330
48247BE
100
AcDbEntity
  8
0
 62
     0
100
AcDbLine
 10
230.61935
 20
235.0
 30
0.0
 11
231.848658
 21
235.0
 31
0.0
  0
LINE
  5
4824802
330
48247BE
100
AcDbEntity
  8
0
 62
     0
100
AcDbLine
 10
215.6766409999999
 20
235.0
 30
0.0
 11
215.969308
 21
235.0
 31
0.0
  0
LINE
  5
4824803
330
48247BE
100
AcDbEntity
  8
0
 62
     0
100
AcDbLine
 10
228.1642529999998
 20
235.0
 30
0.0
 11
228.9780029999998
 21
235.0
 31
0.0
  0
LINE
  5
4824804
330
48247BE
100
AcDbEntity
  8
0
 62
     0
100
AcDbLine
 10
218.339495
 20
235.0
 30
0.0
 11
220.0179019999999
 21
235.0
 31
0.0
  0
LINE
  5
4824805
330
48247BE
100
AcDbEntity
  8
0
 62
     0
100
AcDbLine
 10
224.9021729999999
 20
235.0
 30
0.0
 11
226.739673
 21
235.0
 31
0.0
  0
LINE
  5
4824806
330
48247BE
100
AcDbEntity
  8
0
 62
     0
100
AcDbLine
 10
221.142092
 20
235.0
 30
0.0
 11
222.820499
 21
235.0
 31
0.0
  0
LINE
  5
4824807
330
48247BE
100
AcDbEntity
  8
0
 62
     0
100
AcDbLine
 10
224.0605029999999
 20
235.0
 30
0.0
 11
224.8830029999998
 21
235.0
 31
0.0
  0
LINE
  5
4824808
330
48247BE
100
AcDbEntity
  8
0
 62
     0
100
AcDbLine
 10
212.126627
 20
235.1999999999999
 30
0.0
 11
212.4877509999998
 21
235.1999999999999
 31
0.0
  0
LINE
  5
4824809
330
48247BE
100
AcDbEntity
  8
0
 62
     0
100
AcDbLine
 10
236.3542529999998
 20
235.1999999999999
 30
0.0
 11
239.729466
 21
235.1999999999999
 31
0.0
  0
LINE
  5
482480A
330
48247BE
100
AcDbEntity
  8
0
 62
     0
100
AcDbLine
 10
213.0162669999999
 20
235.1999999999999
 30
0.0
 11
213.5811499999999
 21
235.1999999999999
 31
0.0
  0
LINE
  5
482480B
330
48247BE
100
AcDbEntity
  8
0
 62
     0
100
AcDbLine
 10
230.004695
 20
235.1999999999999
 30
0.0
 11
235.1813869999999
 21
235.1999999999999
 31
0.0
  0
LINE
  5
482480C
330
48247BE
100
AcDbEntity
  8
0
 62
     0
100
AcDbLine
 10
214.2962089999998
 20
235.1999999999999
 30
0.0
 11
214.8596599999999
 21
235.1999999999999
 31
0.0
  0
LINE
  5
482480D
330
48247BE
100
AcDbEntity
  8
0
 62
     0
100
AcDbLine
 10
227.5430029999998
 20
235.1999999999999
 30
0.0
 11
229.5992529999999
 21
235.1999999999999
 31
0.0
  0
LINE
  5
482480E
330
48247BE
100
AcDbEntity
  8
0
 62
     0
100
AcDbLine
 10
215.3896079999999
 20
235.1999999999999
 30
0.0
 11
215.7507319999999
 21
235.1999999999999
 31
0.0
  0
LINE
  5
482480F
330
48247BE
100
AcDbEntity
  8
0
 62
     0
100
AcDbLine
 10
223.4480029999998
 20
235.1999999999999
 30
0.0
 11
226.574849
 21
235.1999999999999
 31
0.0
  0
LINE
  5
4824810
330
48247BE
100
AcDbEntity
  8
0
 62
     0
100
AcDbLine
 10
218.579358
 20
235.1999999999999
 30
0.0
 11
222.580635
 21
235.1999999999999
 31
0.0
  0
LINE
  5
4824811
330
48247BE
100
AcDbEntity
  8
0
 62
     0
100
AcDbLine
 10
212.4299859999999
 20
235.4
 30
0.0
 11
212.9273609999999
 21
235.4
 31
0.0
  0
LINE
  5
4824812
330
48247BE
100
AcDbEntity
  8
0
 62
     0
100
AcDbLine
 10
236.3542529999998
 20
235.4
 30
0.0
 11
239.622149
 21
235.4
 31
0.0
  0
LINE
  5
4824813
330
48247BE
100
AcDbEntity
  8
0
 62
     0
100
AcDbLine
 10
213.2772679999999
 20
235.4
 30
0.0
 11
214.600091
 21
235.4
 31
0.0
  0
LINE
  5
4824814
330
48247BE
100
AcDbEntity
  8
0
 62
     0
100
AcDbLine
 10
230.004695
 20
235.4
 30
0.0
 11
234.964129
 21
235.4
 31
0.0
  0
LINE
  5
4824815
330
48247BE
100
AcDbEntity
  8
0
 62
     0
100
AcDbLine
 10
214.9499979999999
 20
235.4
 30
0.0
 11
215.4473729999998
 21
235.4
 31
0.0
  0
LINE
  5
4824816
330
48247BE
100
AcDbEntity
  8
0
 62
     0
100
AcDbLine
 10
227.5430029999998
 20
235.4
 30
0.0
 11
229.5992529999999
 21
235.4
 31
0.0
  0
LINE
  5
4824817
330
48247BE
100
AcDbEntity
  8
0
 62
     0
100
AcDbLine
 10
218.913458
 20
235.4
 30
0.0
 11
222.2496669999999
 21
235.4
 31
0.0
  0
LINE
  5
4824818
330
48247BE
100
AcDbEntity
  8
0
 62
     0
100
AcDbLine
 10
223.4480029999998
 20
235.4
 30
0.0
 11
226.4100249999999
 21
235.4
 31
0.0
  0
LINE
  5
4824819
330
48247BE
100
AcDbEntity
  8
0
 62
     0
100
AcDbLine
 10
212.884676
 20
235.5999999999999
 30
0.0
 11
214.992683
 21
235.5999999999999
 31
0.0
  0
LINE
  5
482481A
330
48247BE
100
AcDbEntity
  8
0
 62
     0
100
AcDbLine
 10
236.3542529999998
 20
235.5999999999999
 30
0.0
 11
239.514832
 21
235.5999999999999
 31
0.0
  0
LINE
  5
482481B
330
48247BE
100
AcDbEntity
  8
0
 62
     0
100
AcDbLine
 10
219.413779
 20
235.5999999999999
 30
0.0
 11
221.7832259999999
 21
235.5999999999999
 31
0.0
  0
LINE
  5
482481C
330
48247BE
100
AcDbEntity
  8
0
 62
     0
100
AcDbLine
 10
230.004695
 20
235.5999999999999
 30
0.0
 11
234.637112
 21
235.5999999999999
 31
0.0
  0
LINE
  5
482481D
330
48247BE
100
AcDbEntity
  8
0
 62
     0
100
AcDbLine
 10
223.4480029999998
 20
235.5999999999999
 30
0.0
 11
226.2452
 21
235.5999999999999
 31
0.0
  0
LINE
  5
482481E
330
48247BE
100
AcDbEntity
  8
0
 62
     0
100
AcDbLine
 10
227.5430029999998
 20
235.5999999999999
 30
0.0
 11
229.5992529999999
 21
235.5999999999999
 31
0.0
  0
LINE
  5
482481F
330
48247BE
100
AcDbEntity
  8
0
 62
     0
100
AcDbLine
 10
211.50012
 20
233.8
 30
0.0
 11
211.708562
 21
233.8
 31
0.0
  0
LINE
  5
4824820
330
48247BE
100
AcDbEntity
  8
0
 62
     0
100
AcDbLine
 10
236.709764
 20
233.8
 30
0.0
 11
240.4806859999999
 21
233.8
 31
0.0
  0
LINE
  5
4824821
330
48247BE
100
AcDbEntity
  8
0
 62
     0
100
AcDbLine
 10
214.345656
 20
233.8
 30
0.0
 11
214.874899
 21
233.8
 31
0.0
  0
LINE
  5
4824822
330
48247BE
100
AcDbEntity
  8
0
 62
     0
100
AcDbLine
 10
233.9775949999999
 20
233.8
 30
0.0
 11
235.6246459999999
 21
233.8
 31
0.0
  0
LINE
  5
4824823
330
48247BE
100
AcDbEntity
  8
0
 62
     0
100
AcDbLine
 10
216.1827199999999
 20
233.8
 30
0.0
 11
216.3915279999999
 21
233.8
 31
0.0
  0
LINE
  5
4824824
330
48247BE
100
AcDbEntity
  8
0
 62
     0
100
AcDbLine
 10
230.61935
 20
233.8
 30
0.0
 11
231.848658
 21
233.8
 31
0.0
  0
LINE
  5
4824825
330
48247BE
100
AcDbEntity
  8
0
 62
     0
100
AcDbLine
 10
217.88726
 20
233.8
 30
0.0
 11
219.4754839999999
 21
233.8
 31
0.0
  0
LINE
  5
4824826
330
48247BE
100
AcDbEntity
  8
0
 62
     0
100
AcDbLine
 10
228.1642529999998
 20
233.8
 30
0.0
 11
228.9780029999998
 21
233.8
 31
0.0
  0
LINE
  5
4824827
330
48247BE
100
AcDbEntity
  8
0
 62
     0
100
AcDbLine
 10
221.68451
 20
233.8
 30
0.0
 11
223.2727339999999
 21
233.8
 31
0.0
  0
LINE
  5
4824828
330
48247BE
100
AcDbEntity
  8
0
 62
     0
100
AcDbLine
 10
225.891118
 20
233.8
 30
0.0
 11
227.728618
 21
233.8
 31
0.0
  0
LINE
  5
4824829
330
48247BE
100
AcDbEntity
  8
0
 62
     0
100
AcDbLine
 10
224.0605029999999
 20
233.8
 30
0.0
 11
224.8830029999998
 21
233.8
 31
0.0
  0
LINE
  5
482482A
330
48247BE
100
AcDbEntity
  8
0
 62
     0
100
AcDbLine
 10
211.553716
 20
233.5999999999999
 30
0.0
 11
211.772441
 21
233.5999999999999
 31
0.0
  0
LINE
  5
482482B
330
48247BE
100
AcDbEntity
  8
0
 62
     0
100
AcDbLine
 10
236.609764
 20
233.5999999999999
 30
0.0
 11
240.588003
 21
233.5999999999999
 31
0.0
  0
LINE
  5
482482C
330
48247BE
100
AcDbEntity
  8
0
 62
     0
100
AcDbLine
 10
214.646445
 20
233.5999999999999
 30
0.0
 11
215.0068049999999
 21
233.5999999999999
 31
0.0
  0
LINE
  5
482482D
330
48247BE
100
AcDbEntity
  8
0
 62
     0
100
AcDbLine
 10
233.9174069999998
 20
233.5999999999999
 30
0.0
 11
235.5867899999998
 21
233.5999999999999
 31
0.0
  0
LINE
  5
482482E
330
48247BE
100
AcDbEntity
  8
0
 62
     0
100
AcDbLine
 10
216.1213889999999
 20
233.5999999999999
 30
0.0
 11
216.342397
 21
233.5999999999999
 31
0.0
  0
LINE
  5
482482F
330
48247BE
100
AcDbEntity
  8
0
 62
     0
100
AcDbLine
 10
230.61935
 20
233.5999999999999
 30
0.0
 11
231.848658
 21
233.5999999999999
 31
0.0
  0
LINE
  5
4824830
330
48247BE
100
AcDbEntity
  8
0
 62
     0
100
AcDbLine
 10
217.9463829999999
 20
233.5999999999999
 30
0.0
 11
219.5356719999999
 21
233.5999999999999
 31
0.0
  0
LINE
  5
4824831
330
48247BE
100
AcDbEntity
  8
0
 62
     0
100
AcDbLine
 10
228.1642529999998
 20
233.5999999999999
 30
0.0
 11
228.9780029999998
 21
233.5999999999999
 31
0.0
  0
LINE
  5
4824832
330
48247BE
100
AcDbEntity
  8
0
 62
     0
100
AcDbLine
 10
221.6243219999999
 20
233.5999999999999
 30
0.0
 11
223.2136109999999
 21
233.5999999999999
 31
0.0
  0
LINE
  5
4824833
330
48247BE
100
AcDbEntity
  8
0
 62
     0
100
AcDbLine
 10
226.0559419999999
 20
233.5999999999999
 30
0.0
 11
227.893442
 21
233.5999999999999
 31
0.0
  0
LINE
  5
4824834
330
48247BE
100
AcDbEntity
  8
0
 62
     0
100
AcDbLine
 10
224.0605029999999
 20
233.5999999999999
 30
0.0
 11
224.8830029999998
 21
233.5999999999999
 31
0.0
  0
LINE
  5
4824835
330
48247BE
100
AcDbEntity
  8
0
 62
     0
100
AcDbLine
 10
211.646049
 20
233.4
 30
0.0
 11
211.8842679999999
 21
233.4
 31
0.0
  0
LINE
  5
4824836
330
48247BE
100
AcDbEntity
  8
0
 62
     0
100
AcDbLine
 10
236.509764
 20
233.4
 30
0.0
 11
240.69532
 21
233.4
 31
0.0
  0
LINE
  5
4824837
330
48247BE
100
AcDbEntity
  8
0
 62
     0
100
AcDbLine
 10
212.6300309999999
 20
233.4
 30
0.0
 11
213.3471279999999
 21
233.4
 31
0.0
  0
LINE
  5
4824838
330
48247BE
100
AcDbEntity
  8
0
 62
     0
100
AcDbLine
 10
233.8118479999998
 20
233.4
 30
0.0
 11
235.5236509999998
 21
233.4
 31
0.0
  0
LINE
  5
4824839
330
48247BE
100
AcDbEntity
  8
0
 62
     0
100
AcDbLine
 10
214.7517269999999
 20
233.4
 30
0.0
 11
215.061915
 21
233.4
 31
0.0
  0
LINE
  5
482483A
330
48247BE
100
AcDbEntity
  8
0
 62
     0
100
AcDbLine
 10
230.61935
 20
233.4
 30
0.0
 11
231.848658
 21
233.4
 31
0.0
  0
LINE
  5
482483B
330
48247BE
100
AcDbEntity
  8
0
 62
     0
100
AcDbLine
 10
216.002747
 20
233.4
 30
0.0
 11
216.2448379999999
 21
233.4
 31
0.0
  0
LINE
  5
482483C
330
48247BE
100
AcDbEntity
  8
0
 62
     0
100
AcDbLine
 10
228.1642529999998
 20
233.4
 30
0.0
 11
228.9780029999998
 21
233.4
 31
0.0
  0
LINE
  5
482483D
330
48247BE
100
AcDbEntity
  8
0
 62
     0
100
AcDbLine
 10
218.049754
 20
233.4
 30
0.0
 11
219.6412309999999
 21
233.4
 31
0.0
  0
LINE
  5
482483E
330
48247BE
100
AcDbEntity
  8
0
 62
     0
100
AcDbLine
 10
226.220766
 20
233.4
 30
0.0
 11
228.0582659999998
 21
233.4
 31
0.0
  0
LINE
  5
482483F
330
48247BE
100
AcDbEntity
  8
0
 62
     0
100
AcDbLine
 10
221.5187629999999
 20
233.4
 30
0.0
 11
223.11024
 21
233.4
 31
0.0
  0
LINE
  5
4824840
330
48247BE
100
AcDbEntity
  8
0
 62
     0
100
AcDbLine
 10
224.0605029999999
 20
233.4
 30
0.0
 11
224.8830029999998
 21
233.4
 31
0.0
  0
LINE
  5
4824841
330
48247BE
100
AcDbEntity
  8
0
 62
     0
100
AcDbLine
 10
211.7787669999999
 20
233.1999999999999
 30
0.0
 11
212.0416149999999
 21
233.1999999999999
 31
0.0
  0
LINE
  5
4824842
330
48247BE
100
AcDbEntity
  8
0
 62
     0
100
AcDbLine
 10
239.1663869999999
 20
233.1999999999999
 30
0.0
 11
240.8026369999999
 21
233.1999999999999
 31
0.0
  0
LINE
  5
4824843
330
48247BE
100
AcDbEntity
  8
0
 62
     0
100
AcDbLine
 10
212.825511
 20
233.1999999999999
 30
0.0
 11
213.144079
 21
233.1999999999999
 31
0.0
  0
LINE
  5
4824844
330
48247BE
100
AcDbEntity
  8
0
 62
     0
100
AcDbLine
 10
236.409764
 20
233.1999999999999
 30
0.0
 11
237.328514
 21
233.1999999999999
 31
0.0
  0
LINE
  5
4824845
330
48247BE
100
AcDbEntity
  8
0
 62
     0
100
AcDbLine
 10
214.7392809999999
 20
233.1999999999999
 30
0.0
 11
215.051849
 21
233.1999999999999
 31
0.0
  0
LINE
  5
4824846
330
48247BE
100
AcDbEntity
  8
0
 62
     0
100
AcDbLine
 10
233.642464
 20
233.1999999999999
 30
0.0
 11
235.4321109999999
 21
233.1999999999999
 31
0.0
  0
LINE
  5
4824847
330
48247BE
100
AcDbEntity
  8
0
 62
     0
100
AcDbLine
 10
215.8398279999999
 20
233.1999999999999
 30
0.0
 11
216.1060379999999
 21
233.1999999999999
 31
0.0
  0
LINE
  5
4824848
330
48247BE
100
AcDbEntity
  8
0
 62
     0
100
AcDbLine
 10
230.61935
 20
233.1999999999999
 30
0.0
 11
231.848658
 21
233.1999999999999
 31
0.0
  0
LINE
  5
4824849
330
48247BE
100
AcDbEntity
  8
0
 62
     0
100
AcDbLine
 10
218.197277
 20
233.1999999999999
 30
0.0
 11
219.810615
 21
233.1999999999999
 31
0.0
  0
LINE
  5
482484A
330
48247BE
100
AcDbEntity
  8
0
 62
     0
100
AcDbLine
 10
226.3855899999998
 20
233.1999999999999
 30
0.0
 11
228.9780029999998
 21
233.1999999999999
 31
0.0
  0
LINE
  5
482484B
330
48247BE
100
AcDbEntity
  8
0
 62
     0
100
AcDbLine
 10
221.349379
 20
233.1999999999999
 30
0.0
 11
222.962717
 21
233.1999999999999
 31
0.0
  0
LINE
  5
482484C
330
48247BE
100
AcDbEntity
  8
0
 62
     0
100
AcDbLine
 10
224.0605029999999
 20
233.1999999999999
 30
0.0
 11
224.8830029999998
 21
233.1999999999999
 31
0.0
  0
LINE
  5
482484D
330
48247BE
100
AcDbEntity
  8
0
 62
     0
100
AcDbLine
 10
211.953264
 20
233.0
 30
0.0
 11
212.25822
 21
233.0
 31
0.0
  0
LINE
  5
482484E
330
48247BE
100
AcDbEntity
  8
0
 62
     0
100
AcDbLine
 10
239.273704
 20
233.0
 30
0.0
 11
240.909954
 21
233.0
 31
0.0
  0
LINE
  5
482484F
330
48247BE
100
AcDbEntity
  8
0
 62
     0
100
AcDbLine
 10
212.9041589999999
 20
233.0
 30
0.0
 11
213.294869
 21
233.0
 31
0.0
  0
LINE
  5
4824850
330
48247BE
100
AcDbEntity
  8
0
 62
     0
100
AcDbLine
 10
236.3097639999999
 20
233.0
 30
0.0
 11
237.2285139999999
 21
233.0
 31
0.0
  0
LINE
  5
4824851
330
48247BE
100
AcDbEntity
  8
0
 62
     0
100
AcDbLine
 10
214.5829949999999
 20
233.0
 30
0.0
 11
214.9731999999999
 21
233.0
 31
0.0
  0
LINE
  5
4824852
330
48247BE
100
AcDbEntity
  8
0
 62
     0
100
AcDbLine
 10
233.3449019999999
 20
233.0
 30
0.0
 11
235.306647
 21
233.0
 31
0.0
  0
LINE
  5
4824853
330
48247BE
100
AcDbEntity
  8
0
 62
     0
100
AcDbLine
 10
215.619488
 20
233.0
 30
0.0
 11
215.926629
 21
233.0
 31
0.0
  0
LINE
  5
4824854
330
48247BE
100
AcDbEntity
  8
0
 62
     0
100
AcDbLine
 10
230.61935
 20
233.0
 30
0.0
 11
231.848658
 21
233.0
 31
0.0
  0
LINE
  5
4824855
330
48247BE
100
AcDbEntity
  8
0
 62
     0
100
AcDbLine
 10
218.389093
 20
233.0
 30
0.0
 11
220.108177
 21
233.0
 31
0.0
  0
LINE
  5
4824856
330
48247BE
100
AcDbEntity
  8
0
 62
     0
100
AcDbLine
 10
226.5504139999999
 20
233.0
 30
0.0
 11
228.9780029999998
 21
233.0
 31
0.0
  0
LINE
  5
4824857
330
48247BE
100
AcDbEntity
  8
0
 62
     0
100
AcDbLine
 10
221.0518169999998
 20
233.0
 30
0.0
 11
222.7709009999999
 21
233.0
 31
0.0
  0
LINE
  5
4824858
330
48247BE
100
AcDbEntity
  8
0
 62
     0
100
AcDbLine
 10
224.0605029999999
 20
233.0
 30
0.0
 11
224.8830029999998
 21
233.0
 31
0.0
  0
LINE
  5
4824859
330
48247BE
100
AcDbEntity
  8
0
 62
     0
100
AcDbLine
 10
212.188818
 20
232.8
 30
0.0
 11
212.5715919999999
 21
232.8
 31
0.0
  0
LINE
  5
482485A
330
48247BE
100
AcDbEntity
  8
0
 62
     0
100
AcDbLine
 10
238.7080029999999
 20
232.8
 30
0.0
 11
241.5780029999999
 21
232.8
 31
0.0
  0
LINE
  5
482485B
330
48247BE
100
AcDbEntity
  8
0
 62
     0
100
AcDbLine
 10
213.0637479999998
 20
232.8
 30
0.0
 11
213.816883
 21
232.8
 31
0.0
  0
LINE
  5
482485C
330
48247BE
100
AcDbEntity
  8
0
 62
     0
100
AcDbLine
 10
235.6367529999999
 20
232.8
 30
0.0
 11
237.789253
 21
232.8
 31
0.0
  0
LINE
  5
482485D
330
48247BE
100
AcDbEntity
  8
0
 62
     0
100
AcDbLine
 10
214.0604759999999
 20
232.8
 30
0.0
 11
214.8136109999999
 21
232.8
 31
0.0
  0
LINE
  5
482485E
330
48247BE
100
AcDbEntity
  8
0
 62
     0
100
AcDbLine
 10
230.004695
 20
232.8
 30
0.0
 11
235.137
 21
232.8
 31
0.0
  0
LINE
  5
482485F
330
48247BE
100
AcDbEntity
  8
0
 62
     0
100
AcDbLine
 10
215.3057669999999
 20
232.8
 30
0.0
 11
215.688547
 21
232.8
 31
0.0
  0
LINE
  5
4824860
330
48247BE
100
AcDbEntity
  8
0
 62
     0
100
AcDbLine
 10
226.715238
 20
232.8
 30
0.0
 11
228.9780029999998
 21
232.8
 31
0.0
  0
LINE
  5
4824861
330
48247BE
100
AcDbEntity
  8
0
 62
     0
100
AcDbLine
 10
218.6478619999999
 20
232.8
 30
0.0
 11
222.5121319999999
 21
232.8
 31
0.0
  0
LINE
  5
4824862
330
48247BE
100
AcDbEntity
  8
0
 62
     0
100
AcDbLine
 10
223.4480029999998
 20
232.8
 30
0.0
 11
225.495503
 21
232.8
 31
0.0
  0
LINE
  5
4824863
330
48247BE
100
AcDbEntity
  8
0
 62
     0
100
AcDbLine
 10
212.5171279999999
 20
232.6
 30
0.0
 11
213.082174
 21
232.6
 31
0.0
  0
LINE
  5
4824864
330
48247BE
100
AcDbEntity
  8
0
 62
     0
100
AcDbLine
 10
238.7080029999999
 20
232.6
 30
0.0
 11
241.5780029999999
 21
232.6
 31
0.0
  0
LINE
  5
4824865
330
48247BE
100
AcDbEntity
  8
0
 62
     0
100
AcDbLine
 10
213.3716179999999
 20
232.6
 30
0.0
 11
214.505741
 21
232.6
 31
0.0
  0
LINE
  5
4824866
330
48247BE
100
AcDbEntity
  8
0
 62
     0
100
AcDbLine
 10
235.6367529999999
 20
232.6
 30
0.0
 11
237.789253
 21
232.6
 31
0.0
  0
LINE
  5
4824867
330
48247BE
100
AcDbEntity
  8
0
 62
     0
100
AcDbLine
 10
214.795185
 20
232.6
 30
0.0
 11
215.360231
 21
232.6
 31
0.0
  0
LINE
  5
4824868
330
48247BE
100
AcDbEntity
  8
0
 62
     0
100
AcDbLine
 10
230.004695
 20
232.6
 30
0.0
 11
234.9010059999999
 21
232.6
 31
0.0
  0
LINE
  5
4824869
330
48247BE
100
AcDbEntity
  8
0
 62
     0
100
AcDbLine
 10
219.009195
 20
232.6
 30
0.0
 11
222.150799
 21
232.6
 31
0.0
  0
LINE
  5
482486A
330
48247BE
100
AcDbEntity
  8
0
 62
     0
100
AcDbLine
 10
226.8800619999999
 20
232.6
 30
0.0
 11
228.9780029999998
 21
232.6
 31
0.0
  0
LINE
  5
482486B
330
48247BE
100
AcDbEntity
  8
0
 62
     0
100
AcDbLine
 10
223.4480029999998
 20
232.6
 30
0.0
 11
225.495503
 21
232.6
 31
0.0
  0
LINE
  5
482486C
330
48247BE
100
AcDbEntity
  8
0
 62
     0
100
AcDbLine
 10
213.042202
 20
232.4
 30
0.0
 11
214.8351579999999
 21
232.4
 31
0.0
  0
LINE
  5
482486D
330
48247BE
100
AcDbEntity
  8
0
 62
     0
100
AcDbLine
 10
238.7080029999999
 20
232.4
 30
0.0
 11
241.5780029999999
 21
232.4
 31
0.0
  0
LINE
  5
482486E
330
48247BE
100
AcDbEntity
  8
0
 62
     0
100
AcDbLine
 10
219.588608
 20
232.4
 30
0.0
 11
221.571386
 21
232.4
 31
0.0
  0
LINE
  5
482486F
330
48247BE
100
AcDbEntity
  8
0
 62
     0
100
AcDbLine
 10
235.6367529999999
 20
232.4
 30
0.0
 11
237.789253
 21
232.4
 31
0.0
  0
LINE
  5
4824870
330
48247BE
100
AcDbEntity
  8
0
 62
     0
100
AcDbLine
 10
223.4480029999998
 20
232.4
 30
0.0
 11
225.495503
 21
232.4
 31
0.0
  0
LINE
  5
4824871
330
48247BE
100
AcDbEntity
  8
0
 62
     0
100
AcDbLine
 10
230.004695
 20
232.4
 30
0.0
 11
234.5281239999999
 21
232.4
 31
0.0
  0
LINE
  5
4824872
330
48247BE
100
AcDbEntity
  8
0
 62
     0
100
AcDbLine
 10
227.044886
 20
232.4
 30
0.0
 11
228.9780029999998
 21
232.4
 31
0.0
  0
ENDBLK
  5
4824874
330
48247BE
100
AcDbEntity
  8
0
100
AcDbBlockEnd
  0
ENDSEC
  0
SECTION
  2
ENTITIES
  0
INSERT
  5
7
330
4823B0C
100
AcDbEntity
  8
TEXT
100
AcDbBlockReference
  2
STDGX5
 10
370.865806
 20
2.374565
 30
0.0
  0
INSERT
  5
8
330
4823B0C
100
AcDbEntity
  8
TEXT
100
AcDbBlockReference
  2
STDGX5
 10
1520.591055
 20
494.796741
 30
0.0
  0
LWPOLYLINE
  5
48
330
4823B0C
100
AcDbEntity
  8
JISSEN
100
AcDbPolyline
 90
        8
 70
     1
 43
0.0
 10
47.383834
 20
328.093115
 10
195.383834
 20
328.093115
 42
-0.4142140000000001
 10
198.383834
 20
325.0931149999999
 10
198.383834
 20
133.0931149999999
 42
-0.4142140000000001
 10
195.383834
 20
130.0931149999999
 10
47.383834
 20
130.0931149999999
 42
-0.4142140000000001
 10
44.383834
 20
133.0931149999999
 10
44.383834
 20
325.0931149999999
 42
-0.4142140000000001
  0
LWPOLYLINE
  5
D1
330
4823B0C
100
AcDbEntity
  8
NITEN
100
AcDbPolyline
 90
        4
 70
     1
 43
0.0
 10
72.383834
 20
278.093115
 10
72.383834
 20
180.0931149999999
 10
170.383834
 20
180.0931149999999
 10
170.383834
 20
278.093115
  0
LWPOLYLINE
  5
D7
330
4823B0C
100
AcDbEntity
  8
JISSEN
100
AcDbPolyline
 90
        8
 70
     1
 43
0.0
 10
277.300228
 20
328.093115
 10
327.300228
 20
328.093115
 42
-0.4142140000000001
 10
330.300228
 20
325.0931149999999
 10
330.300228
 20
133.0931149999999
 42
-0.4142140000000001
 10
327.300228
 20
130.0931149999999
 10
277.300228
 20
130.0931149999999
 42
-0.4142140000000001
 10
274.300228
 20
133.0931149999999
 10
274.300228
 20
325.0931149999999
 42
-0.4142140000000001
  0
LINE
  5
E1
330
4823B0C
100
AcDbEntity
  8
JISSEN
100
AcDbLine
 10
319.3002279999999
 20
328.093115
 30
0.0
 11
319.3002279999999
 21
130.0931149999999
 31
0.0
  0
LINE
  5
E2
330
4823B0C
100
AcDbEntity
  8
JISSEN
100
AcDbLine
 10
306.532461
 20
242.860882
 30
0.0
 11
310.0679949999999
 21
239.3253479999999
 31
0.0
  0
LINE
  5
E3
330
4823B0C
100
AcDbEntity
  8
JISSEN
100
AcDbLine
 10
306.532461
 20
239.3253479999999
 30
0.0
 11
310.0679949999999
 21
242.860882
 31
0.0
  0
LINE
  5
E4
330
4823B0C
100
AcDbEntity
  8
JISSEN
100
AcDbLine
 10
306.532461
 20
215.325348
 30
0.0
 11
310.0679949999999
 21
218.8608819999999
 31
0.0
  0
CIRCLE
  5
E5
330
4823B0C
100
AcDbEntity
  8
JISSEN
100
AcDbCircle
 10
308.300228
 20
241.0931149999999
 30
0.0
 40
4.0
  0
CIRCLE
  5
E6
330
4823B0C
100
AcDbEntity
  8
JISSEN
100
AcDbCircle
 10
308.300228
 20
217.0931149999999
 30
0.0
 40
4.0
  0
CIRCLE
  5
E7
330
4823B0C
100
AcDbEntity
  8
JISSEN
100
AcDbCircle
 10
308.300228
 20
241.0931149999999
 30
0.0
 40
2.5
  0
CIRCLE
  5
E8
330
4823B0C
100
AcDbEntity
  8
JISSEN
100
AcDbCircle
 10
308.300228
 20
217.0931149999999
 30
0.0
 40
2.5
  0
LINE
  5
E9
330
4823B0C
100
AcDbEntity
  8
JISSEN
100
AcDbLine
 10
306.532461
 20
218.8608819999999
 30
0.0
 11
310.0679949999999
 21
215.325348
 31
0.0
  0
LINE
  5
EA
330
4823B0C
100
AcDbEntity
  8
ITTEN
100
AcDbLine
 10
308.300228
 20
223.0931149999999
 30
0.0
 11
308.300228
 21
211.0931149999999
 31
0.0
  0
LINE
  5
EB
330
4823B0C
100
AcDbEntity
  8
ITTEN
100
AcDbLine
 10
314.300228
 20
217.0931149999999
 30
0.0
 11
302.300228
 21
217.0931149999999
 31
0.0
  0
LINE
  5
EC
330
4823B0C
100
AcDbEntity
  8
ITTEN
100
AcDbLine
 10
308.300228
 20
247.0931149999999
 30
0.0
 11
308.300228
 21
235.093115
 31
0.0
  0
LINE
  5
ED
330
4823B0C
100
AcDbEntity
  8
ITTEN
100
AcDbLine
 10
314.300228
 20
241.0931149999999
 30
0.0
 11
302.300228
 21
241.0931149999999
 31
0.0
  0
LWPOLYLINE
  5
EE
330
4823B0C
100
AcDbEntity
  8
JISSEN
100
AcDbPolyline
 90
        8
 70
     1
 43
0.0
 10
194.383834
 20
260.093115
 10
194.383834
 20
198.0931149999999
 42
-0.4142140000000001
 10
190.383834
 20
194.0931149999999
 10
186.383834
 20
194.0931149999999
 42
-0.4142140000000001
 10
182.383834
 20
198.0931149999999
 10
182.383834
 20
260.093115
 42
-0.4142140000000001
 10
186.383834
 20
264.093115
 10
190.383834
 20
264.093115
 42
-0.4142140000000001
  0
LINE
  5
F8
330
4823B0C
100
AcDbEntity
  8
JISSEN
100
AcDbLine
 10
274.300228
 20
264.093115
 30
0.0
 11
255.3002279999999
 21
264.093115
 31
0.0
  0
LINE
  5
F9
330
4823B0C
100
AcDbEntity
  8
JISSEN
100
AcDbLine
 10
250.300228
 20
259.093115
 30
0.0
 11
250.300228
 21
199.0931149999999
 31
0.0
  0
LINE
  5
FA
330
4823B0C
100
AcDbEntity
  8
JISSEN
100
AcDbLine
 10
255.3002279999999
 20
194.0931149999999
 30
0.0
 11
274.300228
 21
194.0931149999999
 31
0.0
  0
LWPOLYLINE
  5
FB
330
4823B0C
100
AcDbEntity
  8
JISSEN
100
AcDbPolyline
 90
        6
 70
     0
 43
0.0
 10
274.300228
 20
254.093115
 10
262.800228
 20
254.093115
 42
0.4142140000000001
 10
260.300228
 20
251.5931149999999
 10
260.300228
 20
206.5931149999999
 42
0.4142140000000001
 10
262.800228
 20
204.093115
 10
274.300228
 20
204.093115
  0
LINE
  5
103
330
4823B0C
100
AcDbEntity
  8
JISSEN
100
AcDbLine
 10
44.383834
 20
430.818074
 30
0.0
 11
64.38383399999999
 21
430.818074
 31
0.0
  0
LWPOLYLINE
  5
104
330
4823B0C
100
AcDbEntity
  8
JISSEN
100
AcDbPolyline
 90
        8
 70
     1
 43
0.0
 10
47.383834
 20
458.818074
 10
195.383834
 20
458.818074
 42
-0.4142140000000001
 10
198.383834
 20
455.818074
 10
198.383834
 20
405.818074
 42
-0.4142140000000001
 10
195.383834
 20
402.818074
 10
47.383834
 20
402.818074
 42
-0.4142140000000001
 10
44.383834
 20
405.818074
 10
44.383834
 20
455.818074
 42
-0.4142140000000001
  0
CIRCLE
  5
10E
330
4823B0C
100
AcDbEntity
  8
JISSEN
100
AcDbCircle
 10
82.383834
 20
430.818074
 30
0.0
 40
18.0
  0
LINE
  5
10F
330
4823B0C
100
AcDbEntity
  8
JISSEN
100
AcDbLine
 10
100.3838339999999
 20
447.8180739999999
 30
0.0
 11
100.3838339999999
 21
430.818074
 31
0.0
  0
LWPOLYLINE
  5
110
330
4823B0C
100
AcDbEntity
  8
JISSEN
100
AcDbPolyline
 90
        4
 70
     0
 43
0.0
 10
97.860174
 20
440.00953
 42
0.428147
 10
98.38383399999999
 20
440.50897
 10
98.38383399999999
 20
447.8180739999999
 10
198.383834
 20
447.8180739999999
  0
TEXT
  5
122
330
4823B0C
100
AcDbEntity
  8
JISSEN
100
AcDbText
 10
80.55744200000001
 20
248.15922
 30
0.0
 40
7.5
  1
スプリンクラ－設備
  7
K
100
AcDbText
  0
TEXT
  5
123
330
4823B0C
100
AcDbEntity
  8
JISSEN
100
AcDbText
 10
95.09562
 20
230.171672
 30
0.0
 40
7.0
  1
末端試験装置
  7
K
100
AcDbText
  0
ARC
  5
14E
330
4823B0C
100
AcDbEntity
  8
JISSEN
100
AcDbCircle
 10
255.3002279999999
 20
199.0931149999999
 30
0.0
 40
5.0
100
AcDbArc
 50
180.0
 51
270.0
  0
ARC
  5
14F
330
4823B0C
100
AcDbEntity
  8
JISSEN
100
AcDbCircle
 10
255.3002279999999
 20
259.093115
 30
0.0
 40
5.0
100
AcDbArc
 50
90.0
 51
180.0
  0
LWPOLYLINE
  5
150
330
4823B0C
100
AcDbEntity
  8
JISSEN
100
AcDbPolyline
 90
        6
 70
     0
 43
0.0
 10
182.383834
 20
402.818074
 10
182.383834
 20
382.818074
 42
0.4142140000000001
 10
186.383834
 20
378.818074
 10
190.383834
 20
378.818074
 42
0.4142140000000001
 10
194.383834
 20
382.818074
 10
194.383834
 20
402.818074
  0
INSERT
  5
27BF
330
4823B0C
100
AcDbEntity
  8
JISSEN
100
AcDbBlockReference
  2
STDR12J
 10
0.0
 20
0.0
 30
0.0
  0
LWPOLYLINE
  5
48243D3
330
4823B0C
100
AcDbEntity
  8
WAKU
100
AcDbPolyline
 90
        4
 70
     1
 43
0.0
 10
361.999999
 20
0.0
 10
0.0
 20
0.0
 10
0.0
 20
546.0
 10
361.999999
 20
546.0
  0
LWPOLYLINE
  5
4824427
330
4823B0C
100
AcDbEntity
  8
WAKU
100
AcDbPolyline
 90
        4
 70
     1
 43
0.0
 10
723.999998
 20
0.0
 10
361.999999
 20
0.0
 10
361.999999
 20
546.0
 10
723.999998
 20
546.0
  0
LWPOLYLINE
  5
4824428
330
4823B0C
100
AcDbEntity
  8
JISSEN
100
AcDbPolyline
 90
        4
 70
     0
 43
0.0
 10
459.860173
 20
440.00953
 42
0.428147
 10
460.383833
 20
440.50897
 10
460.383833
 20
447.8180739999999
 10
560.383833
 20
447.8180739999999
  0
LWPOLYLINE
  5
4824429
330
4823B0C
100
AcDbEntity
  8
JISSEN
100
AcDbPolyline
 90
        8
 70
     1
 43
0.0
 10
409.3838329999999
 20
458.818074
 10
557.383833
 20
458.818074
 42
-0.4142140000000001
 10
560.383833
 20
455.818074
 10
560.383833
 20
405.818074
 42
-0.4142140000000001
 10
557.383833
 20
402.818074
 10
409.3838329999999
 20
402.818074
 42
-0.4142140000000001
 10
406.383833
 20
405.818074
 10
406.383833
 20
455.818074
 42
-0.4142140000000001
  0
LWPOLYLINE
  5
482442A
330
4823B0C
100
AcDbEntity
  8
JISSEN
100
AcDbPolyline
 90
        8
 70
     1
 43
0.0
 10
409.3838329999999
 20
328.093115
 10
557.383833
 20
328.093115
 42
-0.4142140000000001
 10
560.383833
 20
325.0931149999999
 10
560.383833
 20
133.0931149999999
 42
-0.4142140000000001
 10
557.383833
 20
130.0931149999999
 10
409.3838329999999
 20
130.0931149999999
 42
-0.4142140000000001
 10
406.383833
 20
133.0931149999999
 10
406.383833
 20
325.0931149999999
 42
-0.4142140000000001
  0
POLYLINE
  5
482442B
330
4823B0C
100
AcDbEntity
  8
NITEN
100
AcDb3dPolyline
 66
     1
 10
0.0
 20
0.0
 30
0.0
 70
     8
  0
VERTEX
  5
482442C
330
482442B
100
AcDbEntity
  8
NITEN
100
AcDbVertex
100
AcDb3dPolylineVertex
 10
467.9365559999999
 20
274.7314379999999
 30
0.0
 70
    32
  0
VERTEX
  5
482442D
330
482442B
100
AcDbEntity
  8
NITEN
100
AcDbVertex
100
AcDb3dPolylineVertex
 10
467.929756
 20
274.7124379999999
 30
0.0
 70
    32
  0
VERTEX
  5
482442E
330
482442B
100
AcDbEntity
  8
NITEN
100
AcDbVertex
100
AcDb3dPolylineVertex
 10
467.922856
 20
274.693438
 30
0.0
 70
    32
  0
VERTEX
  5
482442F
330
482442B
100
AcDbEntity
  8
NITEN
100
AcDbVertex
100
AcDb3dPolylineVertex
 10
467.916056
 20
274.675438
 30
0.0
 70
    32
  0
VERTEX
  5
4824430
330
482442B
100
AcDbEntity
  8
NITEN
100
AcDbVertex
100
AcDb3dPolylineVertex
 10
467.9091559999999
 20
274.6564379999999
 30
0.0
 70
    32
  0
VERTEX
  5
4824431
330
482442B
100
AcDbEntity
  8
NITEN
100
AcDbVertex
100
AcDb3dPolylineVertex
 10
467.902356
 20
274.6374379999999
 30
0.0
 70
    32
  0
VERTEX
  5
4824432
330
482442B
100
AcDbEntity
  8
NITEN
100
AcDbVertex
100
AcDb3dPolylineVertex
 10
467.895556
 20
274.6184379999999
 30
0.0
 70
    32
  0
VERTEX
  5
4824433
330
482442B
100
AcDbEntity
  8
NITEN
100
AcDbVertex
100
AcDb3dPolylineVertex
 10
467.8887559999999
 20
274.600438
 30
0.0
 70
    32
  0
VERTEX
  5
4824434
330
482442B
100
AcDbEntity
  8
NITEN
100
AcDbVertex
100
AcDb3dPolylineVertex
 10
467.881856
 20
274.581438
 30
0.0
 70
    32
  0
VERTEX
  5
4824435
330
482442B
100
AcDbEntity
  8
NITEN
100
AcDbVertex
100
AcDb3dPolylineVertex
 10
467.875056
 20
274.5624379999999
 30
0.0
 70
    32
  0
VERTEX
  5
4824436
330
482442B
100
AcDbEntity
  8
NITEN
100
AcDbVertex
100
AcDb3dPolylineVertex
 10
467.8682559999999
 20
274.544438
 30
0.0
 70
    32
  0
VERTEX
  5
4824437
330
482442B
100
AcDbEntity
  8
NITEN
100
AcDbVertex
100
AcDb3dPolylineVertex
 10
467.8614559999999
 20
274.5254379999999
 30
0.0
 70
    32
  0
VERTEX
  5
4824438
330
482442B
100
AcDbEntity
  8
NITEN
100
AcDbVertex
100
AcDb3dPolylineVertex
 10
467.8545559999999
 20
274.506438
 30
0.0
 70
    32
  0
VERTEX
  5
4824439
330
482442B
100
AcDbEntity
  8
NITEN
100
AcDbVertex
100
AcDb3dPolylineVertex
 10
467.847756
 20
274.4884379999999
 30
0.0
 70
    32
  0
VERTEX
  5
482443A
330
482442B
100
AcDbEntity
  8
NITEN
100
AcDbVertex
100
AcDb3dPolylineVertex
 10
467.840956
 20
274.4694379999999
 30
0.0
 70
    32
  0
VERTEX
  5
482443B
330
482442B
100
AcDbEntity
  8
NITEN
100
AcDbVertex
100
AcDb3dPolylineVertex
 10
467.8341559999999
 20
274.4504379999999
 30
0.0
 70
    32
  0
VERTEX
  5
482443C
330
482442B
100
AcDbEntity
  8
NITEN
100
AcDbVertex
100
AcDb3dPolylineVertex
 10
467.827356
 20
274.431438
 30
0.0
 70
    32
  0
VERTEX
  5
482443D
330
482442B
100
AcDbEntity
  8
NITEN
100
AcDbVertex
100
AcDb3dPolylineVertex
 10
467.820556
 20
274.4134379999999
 30
0.0
 70
    32
  0
VERTEX
  5
482443E
330
482442B
100
AcDbEntity
  8
NITEN
100
AcDbVertex
100
AcDb3dPolylineVertex
 10
467.813756
 20
274.3944379999999
 30
0.0
 70
    32
  0
VERTEX
  5
482443F
330
482442B
100
AcDbEntity
  8
NITEN
100
AcDbVertex
100
AcDb3dPolylineVertex
 10
467.8069559999999
 20
274.3754379999999
 30
0.0
 70
    32
  0
VERTEX
  5
4824440
330
482442B
100
AcDbEntity
  8
NITEN
100
AcDbVertex
100
AcDb3dPolylineVertex
 10
467.800156
 20
274.3564379999999
 30
0.0
 70
    32
  0
VERTEX
  5
4824441
330
482442B
100
AcDbEntity
  8
NITEN
100
AcDbVertex
100
AcDb3dPolylineVertex
 10
467.793356
 20
274.338438
 30
0.0
 70
    32
  0
VERTEX
  5
4824442
330
482442B
100
AcDbEntity
  8
NITEN
100
AcDbVertex
100
AcDb3dPolylineVertex
 10
467.786656
 20
274.3194379999999
 30
0.0
 70
    32
  0
VERTEX
  5
4824443
330
482442B
100
AcDbEntity
  8
NITEN
100
AcDbVertex
100
AcDb3dPolylineVertex
 10
467.779856
 20
274.3004379999999
 30
0.0
 70
    32
  0
VERTEX
  5
4824444
330
482442B
100
AcDbEntity
  8
NITEN
100
AcDbVertex
100
AcDb3dPolylineVertex
 10
467.7730559999999
 20
274.282438
 30
0.0
 70
    32
  0
VERTEX
  5
4824445
330
482442B
100
AcDbEntity
  8
NITEN
100
AcDbVertex
100
AcDb3dPolylineVertex
 10
467.7662559999999
 20
274.263438
 30
0.0
 70
    32
  0
VERTEX
  5
4824446
330
482442B
100
AcDbEntity
  8
NITEN
100
AcDbVertex
100
AcDb3dPolylineVertex
 10
467.7595559999999
 20
274.244438
 30
0.0
 70
    32
  0
VERTEX
  5
4824447
330
482442B
100
AcDbEntity
  8
NITEN
100
AcDbVertex
100
AcDb3dPolylineVertex
 10
467.7527559999999
 20
274.2254379999999
 30
0.0
 70
    32
  0
VERTEX
  5
4824448
330
482442B
100
AcDbEntity
  8
NITEN
100
AcDbVertex
100
AcDb3dPolylineVertex
 10
467.7459559999999
 20
274.2064379999999
 30
0.0
 70
    32
  0
VERTEX
  5
4824449
330
482442B
100
AcDbEntity
  8
NITEN
100
AcDbVertex
100
AcDb3dPolylineVertex
 10
467.739256
 20
274.1884379999999
 30
0.0
 70
    32
  0
VERTEX
  5
482444A
330
482442B
100
AcDbEntity
  8
NITEN
100
AcDbVertex
100
AcDb3dPolylineVertex
 10
467.732456
 20
274.169438
 30
0.0
 70
    32
  0
VERTEX
  5
482444B
330
482442B
100
AcDbEntity
  8
NITEN
100
AcDbVertex
100
AcDb3dPolylineVertex
 10
467.725756
 20
274.150438
 30
0.0
 70
    32
  0
VERTEX
  5
482444C
330
482442B
100
AcDbEntity
  8
NITEN
100
AcDbVertex
100
AcDb3dPolylineVertex
 10
467.718956
 20
274.1314379999999
 30
0.0
 70
    32
  0
VERTEX
  5
482444D
330
482442B
100
AcDbEntity
  8
NITEN
100
AcDbVertex
100
AcDb3dPolylineVertex
 10
467.7122559999999
 20
274.1134379999999
 30
0.0
 70
    32
  0
VERTEX
  5
482444E
330
482442B
100
AcDbEntity
  8
NITEN
100
AcDbVertex
100
AcDb3dPolylineVertex
 10
467.705456
 20
274.0944379999999
 30
0.0
 70
    32
  0
VERTEX
  5
482444F
330
482442B
100
AcDbEntity
  8
NITEN
100
AcDbVertex
100
AcDb3dPolylineVertex
 10
467.6987559999999
 20
274.0754379999999
 30
0.0
 70
    32
  0
VERTEX
  5
4824450
330
482442B
100
AcDbEntity
  8
NITEN
100
AcDbVertex
100
AcDb3dPolylineVertex
 10
467.692056
 20
274.056438
 30
0.0
 70
    32
  0
VERTEX
  5
4824451
330
482442B
100
AcDbEntity
  8
NITEN
100
AcDbVertex
100
AcDb3dPolylineVertex
 10
467.6852559999999
 20
274.0374379999999
 30
0.0
 70
    32
  0
VERTEX
  5
4824452
330
482442B
100
AcDbEntity
  8
NITEN
100
AcDbVertex
100
AcDb3dPolylineVertex
 10
467.6785559999999
 20
274.0194379999999
 30
0.0
 70
    32
  0
VERTEX
  5
4824453
330
482442B
100
AcDbEntity
  8
NITEN
100
AcDbVertex
100
AcDb3dPolylineVertex
 10
467.671856
 20
274.0004379999999
 30
0.0
 70
    32
  0
VERTEX
  5
4824454
330
482442B
100
AcDbEntity
  8
NITEN
100
AcDbVertex
100
AcDb3dPolylineVertex
 10
467.665156
 20
273.9814379999999
 30
0.0
 70
    32
  0
VERTEX
  5
4824455
330
482442B
100
AcDbEntity
  8
NITEN
100
AcDbVertex
100
AcDb3dPolylineVertex
 10
467.658456
 20
273.9624379999999
 30
0.0
 70
    32
  0
VERTEX
  5
4824456
330
482442B
100
AcDbEntity
  8
NITEN
100
AcDbVertex
100
AcDb3dPolylineVertex
 10
467.651656
 20
273.943438
 30
0.0
 70
    32
  0
VERTEX
  5
4824457
330
482442B
100
AcDbEntity
  8
NITEN
100
AcDbVertex
100
AcDb3dPolylineVertex
 10
467.644956
 20
273.9254379999999
 30
0.0
 70
    32
  0
VERTEX
  5
4824458
330
482442B
100
AcDbEntity
  8
NITEN
100
AcDbVertex
100
AcDb3dPolylineVertex
 10
467.638256
 20
273.9064379999999
 30
0.0
 70
    32
  0
VERTEX
  5
4824459
330
482442B
100
AcDbEntity
  8
NITEN
100
AcDbVertex
100
AcDb3dPolylineVertex
 10
467.6315559999999
 20
273.8874379999999
 30
0.0
 70
    32
  0
VERTEX
  5
482445A
330
482442B
100
AcDbEntity
  8
NITEN
100
AcDbVertex
100
AcDb3dPolylineVertex
 10
467.624956
 20
273.8684379999999
 30
0.0
 70
    32
  0
VERTEX
  5
482445B
330
482442B
100
AcDbEntity
  8
NITEN
100
AcDbVertex
100
AcDb3dPolylineVertex
 10
467.6182559999999
 20
273.8494379999999
 30
0.0
 70
    32
  0
VERTEX
  5
482445C
330
482442B
100
AcDbEntity
  8
NITEN
100
AcDbVertex
100
AcDb3dPolylineVertex
 10
467.611556
 20
273.830438
 30
0.0
 70
    32
  0
VERTEX
  5
482445D
330
482442B
100
AcDbEntity
  8
NITEN
100
AcDbVertex
100
AcDb3dPolylineVertex
 10
467.604856
 20
273.8124379999999
 30
0.0
 70
    32
  0
VERTEX
  5
482445E
330
482442B
100
AcDbEntity
  8
NITEN
100
AcDbVertex
100
AcDb3dPolylineVertex
 10
467.598156
 20
273.793438
 30
0.0
 70
    32
  0
VERTEX
  5
482445F
330
482442B
100
AcDbEntity
  8
NITEN
100
AcDbVertex
100
AcDb3dPolylineVertex
 10
467.5915559999999
 20
273.7744379999999
 30
0.0
 70
    32
  0
VERTEX
  5
4824460
330
482442B
100
AcDbEntity
  8
NITEN
100
AcDbVertex
100
AcDb3dPolylineVertex
 10
467.584856
 20
273.7554379999999
 30
0.0
 70
    32
  0
VERTEX
  5
4824461
330
482442B
100
AcDbEntity
  8
NITEN
100
AcDbVertex
100
AcDb3dPolylineVertex
 10
467.578156
 20
273.7364379999999
 30
0.0
 70
    32
  0
VERTEX
  5
4824462
330
482442B
100
AcDbEntity
  8
NITEN
100
AcDbVertex
100
AcDb3dPolylineVertex
 10
467.5715559999999
 20
273.717438
 30
0.0
 70
    32
  0
VERTEX
  5
4824463
330
482442B
100
AcDbEntity
  8
NITEN
100
AcDbVertex
100
AcDb3dPolylineVertex
 10
467.5648559999999
 20
273.6984379999999
 30
0.0
 70
    32
  0
VERTEX
  5
4824464
330
482442B
100
AcDbEntity
  8
NITEN
100
AcDbVertex
100
AcDb3dPolylineVertex
 10
467.558256
 20
273.6804379999999
 30
0.0
 70
    32
  0
VERTEX
  5
4824465
330
482442B
100
AcDbEntity
  8
NITEN
100
AcDbVertex
100
AcDb3dPolylineVertex
 10
467.551656
 20
273.6614379999999
 30
0.0
 70
    32
  0
VERTEX
  5
4824466
330
482442B
100
AcDbEntity
  8
NITEN
100
AcDbVertex
100
AcDb3dPolylineVertex
 10
467.544956
 20
273.6424379999999
 30
0.0
 70
    32
  0
VERTEX
  5
4824467
330
482442B
100
AcDbEntity
  8
NITEN
100
AcDbVertex
100
AcDb3dPolylineVertex
 10
467.538356
 20
273.6234379999999
 30
0.0
 70
    32
  0
VERTEX
  5
4824468
330
482442B
100
AcDbEntity
  8
NITEN
100
AcDbVertex
100
AcDb3dPolylineVertex
 10
467.531756
 20
273.604438
 30
0.0
 70
    32
  0
VERTEX
  5
4824469
330
482442B
100
AcDbEntity
  8
NITEN
100
AcDbVertex
100
AcDb3dPolylineVertex
 10
467.525056
 20
273.585438
 30
0.0
 70
    32
  0
VERTEX
  5
482446A
330
482442B
100
AcDbEntity
  8
NITEN
100
AcDbVertex
100
AcDb3dPolylineVertex
 10
467.5184559999999
 20
273.566438
 30
0.0
 70
    32
  0
VERTEX
  5
482446B
330
482442B
100
AcDbEntity
  8
NITEN
100
AcDbVertex
100
AcDb3dPolylineVertex
 10
467.511856
 20
273.5484379999999
 30
0.0
 70
    32
  0
VERTEX
  5
482446C
330
482442B
100
AcDbEntity
  8
NITEN
100
AcDbVertex
100
AcDb3dPolylineVertex
 10
467.505256
 20
273.5294379999999
 30
0.0
 70
    32
  0
VERTEX
  5
482446D
330
482442B
100
AcDbEntity
  8
NITEN
100
AcDbVertex
100
AcDb3dPolylineVertex
 10
467.4986559999999
 20
273.5104379999999
 30
0.0
 70
    32
  0
VERTEX
  5
482446E
330
482442B
100
AcDbEntity
  8
NITEN
100
AcDbVertex
100
AcDb3dPolylineVertex
 10
467.492056
 20
273.491438
 30
0.0
 70
    32
  0
VERTEX
  5
482446F
330
482442B
100
AcDbEntity
  8
NITEN
100
AcDbVertex
100
AcDb3dPolylineVertex
 10
467.4854559999999
 20
273.472438
 30
0.0
 70
    32
  0
VERTEX
  5
4824470
330
482442B
100
AcDbEntity
  8
NITEN
100
AcDbVertex
100
AcDb3dPolylineVertex
 10
467.478856
 20
273.4534379999999
 30
0.0
 70
    32
  0
VERTEX
  5
4824471
330
482442B
100
AcDbEntity
  8
NITEN
100
AcDbVertex
100
AcDb3dPolylineVertex
 10
467.472356
 20
273.434438
 30
0.0
 70
    32
  0
VERTEX
  5
4824472
330
482442B
100
AcDbEntity
  8
NITEN
100
AcDbVertex
100
AcDb3dPolylineVertex
 10
467.4657559999999
 20
273.415438
 30
0.0
 70
    32
  0
VERTEX
  5
4824473
330
482442B
100
AcDbEntity
  8
NITEN
100
AcDbVertex
100
AcDb3dPolylineVertex
 10
467.459156
 20
273.3964379999999
 30
0.0
 70
    32
  0
VERTEX
  5
4824474
330
482442B
100
AcDbEntity
  8
NITEN
100
AcDbVertex
100
AcDb3dPolylineVertex
 10
467.452556
 20
273.3774379999999
 30
0.0
 70
    32
  0
VERTEX
  5
4824475
330
482442B
100
AcDbEntity
  8
NITEN
100
AcDbVertex
100
AcDb3dPolylineVertex
 10
467.4460559999999
 20
273.3584379999999
 30
0.0
 70
    32
  0
VERTEX
  5
4824476
330
482442B
100
AcDbEntity
  8
NITEN
100
AcDbVertex
100
AcDb3dPolylineVertex
 10
467.439456
 20
273.340438
 30
0.0
 70
    32
  0
VERTEX
  5
4824477
330
482442B
100
AcDbEntity
  8
NITEN
100
AcDbVertex
100
AcDb3dPolylineVertex
 10
467.432956
 20
273.321438
 30
0.0
 70
    32
  0
VERTEX
  5
4824478
330
482442B
100
AcDbEntity
  8
NITEN
100
AcDbVertex
100
AcDb3dPolylineVertex
 10
467.4263559999999
 20
273.3024379999999
 30
0.0
 70
    32
  0
VERTEX
  5
4824479
330
482442B
100
AcDbEntity
  8
NITEN
100
AcDbVertex
100
AcDb3dPolylineVertex
 10
467.4198559999999
 20
273.2834379999999
 30
0.0
 70
    32
  0
VERTEX
  5
482447A
330
482442B
100
AcDbEntity
  8
NITEN
100
AcDbVertex
100
AcDb3dPolylineVertex
 10
467.413356
 20
273.2644379999999
 30
0.0
 70
    32
  0
VERTEX
  5
482447B
330
482442B
100
AcDbEntity
  8
NITEN
100
AcDbVertex
100
AcDb3dPolylineVertex
 10
467.406856
 20
273.2454379999999
 30
0.0
 70
    32
  0
VERTEX
  5
482447C
330
482442B
100
AcDbEntity
  8
NITEN
100
AcDbVertex
100
AcDb3dPolylineVertex
 10
467.4002559999999
 20
273.2264379999999
 30
0.0
 70
    32
  0
VERTEX
  5
482447D
330
482442B
100
AcDbEntity
  8
NITEN
100
AcDbVertex
100
AcDb3dPolylineVertex
 10
467.3937559999999
 20
273.2074379999999
 30
0.0
 70
    32
  0
VERTEX
  5
482447E
330
482442B
100
AcDbEntity
  8
NITEN
100
AcDbVertex
100
AcDb3dPolylineVertex
 10
467.3872559999999
 20
273.1884379999999
 30
0.0
 70
    32
  0
VERTEX
  5
482447F
330
482442B
100
AcDbEntity
  8
NITEN
100
AcDbVertex
100
AcDb3dPolylineVertex
 10
467.380756
 20
273.1694379999999
 30
0.0
 70
    32
  0
VERTEX
  5
4824480
330
482442B
100
AcDbEntity
  8
NITEN
100
AcDbVertex
100
AcDb3dPolylineVertex
 10
467.3742559999999
 20
273.150438
 30
0.0
 70
    32
  0
VERTEX
  5
4824481
330
482442B
100
AcDbEntity
  8
NITEN
100
AcDbVertex
100
AcDb3dPolylineVertex
 10
467.3677559999999
 20
273.131438
 30
0.0
 70
    32
  0
VERTEX
  5
4824482
330
482442B
100
AcDbEntity
  8
NITEN
100
AcDbVertex
100
AcDb3dPolylineVertex
 10
467.361256
 20
273.112438
 30
0.0
 70
    32
  0
VERTEX
  5
4824483
330
482442B
100
AcDbEntity
  8
NITEN
100
AcDbVertex
100
AcDb3dPolylineVertex
 10
467.354856
 20
273.0934379999999
 30
0.0
 70
    32
  0
VERTEX
  5
4824484
330
482442B
100
AcDbEntity
  8
NITEN
100
AcDbVertex
100
AcDb3dPolylineVertex
 10
467.348356
 20
273.0744379999999
 30
0.0
 70
    32
  0
VERTEX
  5
4824485
330
482442B
100
AcDbEntity
  8
NITEN
100
AcDbVertex
100
AcDb3dPolylineVertex
 10
467.3418559999999
 20
273.055438
 30
0.0
 70
    32
  0
VERTEX
  5
4824486
330
482442B
100
AcDbEntity
  8
NITEN
100
AcDbVertex
100
AcDb3dPolylineVertex
 10
467.3354559999999
 20
273.0364379999999
 30
0.0
 70
    32
  0
VERTEX
  5
4824487
330
482442B
100
AcDbEntity
  8
NITEN
100
AcDbVertex
100
AcDb3dPolylineVertex
 10
467.3289559999999
 20
273.0174379999999
 30
0.0
 70
    32
  0
VERTEX
  5
4824488
330
482442B
100
AcDbEntity
  8
NITEN
100
AcDbVertex
100
AcDb3dPolylineVertex
 10
467.322556
 20
272.9984379999999
 30
0.0
 70
    32
  0
VERTEX
  5
4824489
330
482442B
100
AcDbEntity
  8
NITEN
100
AcDbVertex
100
AcDb3dPolylineVertex
 10
467.316056
 20
272.979438
 30
0.0
 70
    32
  0
VERTEX
  5
482448A
330
482442B
100
AcDbEntity
  8
NITEN
100
AcDbVertex
100
AcDb3dPolylineVertex
 10
467.309656
 20
272.960438
 30
0.0
 70
    32
  0
VERTEX
  5
482448B
330
482442B
100
AcDbEntity
  8
NITEN
100
AcDbVertex
100
AcDb3dPolylineVertex
 10
467.303256
 20
272.941438
 30
0.0
 70
    32
  0
VERTEX
  5
482448C
330
482442B
100
AcDbEntity
  8
NITEN
100
AcDbVertex
100
AcDb3dPolylineVertex
 10
467.296856
 20
272.922438
 30
0.0
 70
    32
  0
VERTEX
  5
482448D
330
482442B
100
AcDbEntity
  8
NITEN
100
AcDbVertex
100
AcDb3dPolylineVertex
 10
467.2903559999999
 20
272.9034379999999
 30
0.0
 70
    32
  0
VERTEX
  5
482448E
330
482442B
100
AcDbEntity
  8
NITEN
100
AcDbVertex
100
AcDb3dPolylineVertex
 10
467.2839559999999
 20
272.8854379999999
 30
0.0
 70
    32
  0
VERTEX
  5
482448F
330
482442B
100
AcDbEntity
  8
NITEN
100
AcDbVertex
100
AcDb3dPolylineVertex
 10
467.2775559999999
 20
272.866438
 30
0.0
 70
    32
  0
VERTEX
  5
4824490
330
482442B
100
AcDbEntity
  8
NITEN
100
AcDbVertex
100
AcDb3dPolylineVertex
 10
467.271156
 20
272.847438
 30
0.0
 70
    32
  0
VERTEX
  5
4824491
330
482442B
100
AcDbEntity
  8
NITEN
100
AcDbVertex
100
AcDb3dPolylineVertex
 10
467.264756
 20
272.8274379999999
 30
0.0
 70
    32
  0
VERTEX
  5
4824492
330
482442B
100
AcDbEntity
  8
NITEN
100
AcDbVertex
100
AcDb3dPolylineVertex
 10
467.258456
 20
272.8084379999999
 30
0.0
 70
    32
  0
VERTEX
  5
4824493
330
482442B
100
AcDbEntity
  8
NITEN
100
AcDbVertex
100
AcDb3dPolylineVertex
 10
467.252056
 20
272.7894379999999
 30
0.0
 70
    32
  0
VERTEX
  5
4824494
330
482442B
100
AcDbEntity
  8
NITEN
100
AcDbVertex
100
AcDb3dPolylineVertex
 10
467.2456559999999
 20
272.770438
 30
0.0
 70
    32
  0
VERTEX
  5
4824495
330
482442B
100
AcDbEntity
  8
NITEN
100
AcDbVertex
100
AcDb3dPolylineVertex
 10
467.239356
 20
272.751438
 30
0.0
 70
    32
  0
VERTEX
  5
4824496
330
482442B
100
AcDbEntity
  8
NITEN
100
AcDbVertex
100
AcDb3dPolylineVertex
 10
467.232956
 20
272.732438
 30
0.0
 70
    32
  0
VERTEX
  5
4824497
330
482442B
100
AcDbEntity
  8
NITEN
100
AcDbVertex
100
AcDb3dPolylineVertex
 10
467.2266559999999
 20
272.7134379999999
 30
0.0
 70
    32
  0
VERTEX
  5
4824498
330
482442B
100
AcDbEntity
  8
NITEN
100
AcDbVertex
100
AcDb3dPolylineVertex
 10
467.220256
 20
272.6944379999999
 30
0.0
 70
    32
  0
VERTEX
  5
4824499
330
482442B
100
AcDbEntity
  8
NITEN
100
AcDbVertex
100
AcDb3dPolylineVertex
 10
467.2139559999999
 20
272.675438
 30
0.0
 70
    32
  0
VERTEX
  5
482449A
330
482442B
100
AcDbEntity
  8
NITEN
100
AcDbVertex
100
AcDb3dPolylineVertex
 10
467.207656
 20
272.6564379999999
 30
0.0
 70
    32
  0
VERTEX
  5
482449B
330
482442B
100
AcDbEntity
  8
NITEN
100
AcDbVertex
100
AcDb3dPolylineVertex
 10
467.2012559999999
 20
272.6374379999999
 30
0.0
 70
    32
  0
VERTEX
  5
482449C
330
482442B
100
AcDbEntity
  8
NITEN
100
AcDbVertex
100
AcDb3dPolylineVertex
 10
467.1949559999999
 20
272.6184379999999
 30
0.0
 70
    32
  0
VERTEX
  5
482449D
330
482442B
100
AcDbEntity
  8
NITEN
100
AcDbVertex
100
AcDb3dPolylineVertex
 10
467.188656
 20
272.5994379999999
 30
0.0
 70
    32
  0
VERTEX
  5
482449E
330
482442B
100
AcDbEntity
  8
NITEN
100
AcDbVertex
100
AcDb3dPolylineVertex
 10
467.1823559999999
 20
272.580438
 30
0.0
 70
    32
  0
VERTEX
  5
482449F
330
482442B
100
AcDbEntity
  8
NITEN
100
AcDbVertex
100
AcDb3dPolylineVertex
 10
467.176056
 20
272.561438
 30
0.0
 70
    32
  0
VERTEX
  5
48244A0
330
482442B
100
AcDbEntity
  8
NITEN
100
AcDbVertex
100
AcDb3dPolylineVertex
 10
467.169756
 20
272.542438
 30
0.0
 70
    32
  0
VERTEX
  5
48244A1
330
482442B
100
AcDbEntity
  8
NITEN
100
AcDbVertex
100
AcDb3dPolylineVertex
 10
467.163556
 20
272.5234379999999
 30
0.0
 70
    32
  0
VERTEX
  5
48244A2
330
482442B
100
AcDbEntity
  8
NITEN
100
AcDbVertex
100
AcDb3dPolylineVertex
 10
467.157256
 20
272.5044379999999
 30
0.0
 70
    32
  0
VERTEX
  5
48244A3
330
482442B
100
AcDbEntity
  8
NITEN
100
AcDbVertex
100
AcDb3dPolylineVertex
 10
467.150956
 20
272.485438
 30
0.0
 70
    32
  0
VERTEX
  5
48244A4
330
482442B
100
AcDbEntity
  8
NITEN
100
AcDbVertex
100
AcDb3dPolylineVertex
 10
467.144756
 20
272.4664379999999
 30
0.0
 70
    32
  0
VERTEX
  5
48244A5
330
482442B
100
AcDbEntity
  8
NITEN
100
AcDbVertex
100
AcDb3dPolylineVertex
 10
467.1384559999999
 20
272.4474379999999
 30
0.0
 70
    32
  0
VERTEX
  5
48244A6
330
482442B
100
AcDbEntity
  8
NITEN
100
AcDbVertex
100
AcDb3dPolylineVertex
 10
467.132256
 20
272.4284379999999
 30
0.0
 70
    32
  0
VERTEX
  5
48244A7
330
482442B
100
AcDbEntity
  8
NITEN
100
AcDbVertex
100
AcDb3dPolylineVertex
 10
467.126056
 20
272.4094379999999
 30
0.0
 70
    32
  0
VERTEX
  5
48244A8
330
482442B
100
AcDbEntity
  8
NITEN
100
AcDbVertex
100
AcDb3dPolylineVertex
 10
467.119756
 20
272.3904379999999
 30
0.0
 70
    32
  0
VERTEX
  5
48244A9
330
482442B
100
AcDbEntity
  8
NITEN
100
AcDbVertex
100
AcDb3dPolylineVertex
 10
467.113556
 20
272.370438
 30
0.0
 70
    32
  0
VERTEX
  5
48244AA
330
482442B
100
AcDbEntity
  8
NITEN
100
AcDbVertex
100
AcDb3dPolylineVertex
 10
467.1073559999999
 20
272.3514379999999
 30
0.0
 70
    32
  0
VERTEX
  5
48244AB
330
482442B
100
AcDbEntity
  8
NITEN
100
AcDbVertex
100
AcDb3dPolylineVertex
 10
467.101156
 20
272.3324379999999
 30
0.0
 70
    32
  0
SEQEND
  5
48244AC
330
482442B
100
AcDbEntity
  8
NITEN
  0
LINE
  5
48244AD
330
4823B0C
100
AcDbEntity
  8
NITEN
100
AcDbLine
 10
420.6338329999999
 20
277.441945
 30
0.0
 11
420.6338329999999
 21
272.3327429999999
 31
0.0
  0
LINE
  5
48244AE
330
4823B0C
100
AcDbEntity
  8
NITEN
100
AcDbLine
 10
469.6338329999999
 20
264.7648209999999
 30
0.0
 11
469.6338329999999
 21
273.2648209999999
 31
0.0
  0
LINE
  5
48244AF
330
4823B0C
100
AcDbEntity
  8
NITEN
100
AcDbLine
 10
480.6338329999999
 20
278.7648209999999
 30
0.0
 11
480.6338329999999
 21
252.664316
 31
0.0
  0
LINE
  5
48244B0
330
4823B0C
100
AcDbEntity
  8
NITEN
100
AcDbLine
 10
483.633833
 20
278.7648209999999
 30
0.0
 11
483.633833
 21
252.664316
 31
0.0
  0
LINE
  5
48244B1
330
4823B0C
100
AcDbEntity
  8
NITEN
100
AcDbLine
 10
480.133833
 20
264.7648209999999
 30
0.0
 11
480.133833
 21
274.264821
 31
0.0
  0
LINE
  5
48244B3
330
4823B0C
100
AcDbEntity
  8
NITEN
100
AcDbLine
 10
422.083833
 20
271.2648209999999
 30
0.0
 11
444.383833
 21
271.2648209999999
 31
0.0
  0
LINE
  5
48244B4
330
4823B0C
100
AcDbEntity
  8
NITEN
100
AcDbLine
 10
428.9097879999999
 20
238.1648209999999
 30
0.0
 11
430.785527
 21
238.1648209999999
 31
0.0
  0
LINE
  5
48244B5
330
4823B0C
100
AcDbEntity
  8
NITEN
100
AcDbLine
 10
428.9097879999999
 20
226.1885809999999
 30
0.0
 11
430.785527
 21
226.1885809999999
 31
0.0
  0
LINE
  5
48244B6
330
4823B0C
100
AcDbEntity
  8
NITEN
100
AcDbLine
 10
425.3838329999999
 20
225.2648209999999
 30
0.0
 11
444.383833
 21
225.2648209999999
 31
0.0
  0
LINE
  5
48244B7
330
4823B0C
100
AcDbEntity
  8
NITEN
100
AcDbLine
 10
422.742397
 20
253.6148209999999
 30
0.0
 11
444.383833
 21
253.6148209999999
 31
0.0
  0
LINE
  5
48244B8
330
4823B0C
100
AcDbEntity
  8
NITEN
100
AcDbLine
 10
424.837515
 20
251.7648209999999
 30
0.0
 11
444.383833
 21
251.7648209999999
 31
0.0
  0
LINE
  5
48244B9
330
4823B0C
100
AcDbEntity
  8
NITEN
100
AcDbLine
 10
425.20476
 20
244.764821
 30
0.0
 11
444.383833
 21
244.764821
 31
0.0
  0
LINE
  5
48244BA
330
4823B0C
100
AcDbEntity
  8
NITEN
100
AcDbLine
 10
426.1532139999999
 20
242.764821
 30
0.0
 11
444.383833
 21
242.764821
 31
0.0
  0
LINE
  5
48244BB
330
4823B0C
100
AcDbEntity
  8
NITEN
100
AcDbLine
 10
426.086656
 20
239.7648209999999
 30
0.0
 11
444.383833
 21
239.7648209999999
 31
0.0
  0
LWPOLYLINE
  5
48244BC
330
4823B0C
100
AcDbEntity
  8
TENSEN
100
AcDbPolyline
 90
        4
 70
     0
 43
0.0
 10
459.4731679999999
 20
217.2686319999999
 42
0.10594
 10
454.3838329999999
 20
215.7686319999999
 42
0.15
 10
434.3838329999999
 20
215.7686319999999
 42
0.10594
 10
429.2944979999999
 20
217.2686319999999
  0
LWPOLYLINE
  5
48244BD
330
4823B0C
100
AcDbEntity
  8
TENSEN
100
AcDbPolyline
 90
        4
 70
     0
 43
0.0
 10
429.2944979999999
 20
207.2686319999999
 42
0.10594
 10
434.3838329999999
 20
208.7686319999999
 42
0.15
 10
454.3838329999999
 20
208.7686319999999
 42
0.10594
 10
459.4731679999999
 20
207.2686319999999
  0
LWPOLYLINE
  5
48244BE
330
4823B0C
100
AcDbEntity
  8
TENSEN
100
AcDbPolyline
 90
        8
 70
     1
 43
0.0
 10
460.233369
 20
217.2686319999999
 10
464.383833
 20
215.7686319999999
 10
464.383833
 20
208.7686319999999
 10
460.233369
 20
207.2686319999999
 10
428.534296
 20
207.2686319999999
 10
424.3838329999999
 20
208.7686319999999
 10
424.3838329999999
 20
215.7686319999999
 10
428.534296
 20
217.2686319999999
  0
LWPOLYLINE
  5
48244BF
330
4823B0C
100
AcDbEntity
  8
HASEN
100
AcDbPolyline
 90
        4
 70
     0
 43
0.0
 10
427.383833
 20
103.3566089999999
 42
0.411765
 10
444.383833
 20
103.3566089999999
 42
-0.411765
 10
461.383833
 20
103.3566089999999
 42
-0.411765
 10
444.383833
 20
103.3566089999999
  0
LWPOLYLINE
  5
48244C0
330
4823B0C
100
AcDbEntity
  8
NITEN
100
AcDbPolyline
 90
        4
 70
     1
 43
0.0
 10
424.3838329999999
 20
197.768632
 10
464.383833
 20
197.768632
 10
464.383833
 20
155.768632
 10
424.3838329999999
 20
155.768632
  0
LINE
  5
48244C1
330
4823B0C
100
AcDbEntity
  8
NITEN
100
AcDbLine
 10
427.383833
 20
151.7686319999999
 30
0.0
 11
461.383833
 21
151.7686319999999
 31
0.0
  0
LINE
  5
48244C2
330
4823B0C
100
AcDbEntity
  8
NITEN
100
AcDbLine
 10
406.383833
 20
145.0931149999999
 30
0.0
 11
473.383833
 21
145.0931149999999
 31
0.0
  0
LINE
  5
48244C3
330
4823B0C
100
AcDbEntity
  8
NITEN
100
AcDbLine
 10
473.383833
 20
133.0931149999999
 30
0.0
 11
406.383833
 21
133.0931149999999
 31
0.0
  0
LINE
  5
48244C4
330
4823B0C
100
AcDbEntity
  8
NITEN
100
AcDbLine
 10
427.383833
 20
204.268632
 30
0.0
 11
461.383833
 21
204.268632
 31
0.0
  0
LINE
  5
48244C5
330
4823B0C
100
AcDbEntity
  8
NITEN
100
AcDbLine
 10
427.420751
 20
219.0934549999999
 30
0.0
 11
461.313443
 21
219.0934549999999
 31
0.0
  0
LINE
  5
48244C6
330
4823B0C
100
AcDbEntity
  8
NITEN
100
AcDbLine
 10
427.383833
 20
155.768632
 30
0.0
 11
427.383833
 21
103.3566089999999
 31
0.0
  0
CIRCLE
  5
48244C7
330
4823B0C
100
AcDbEntity
  8
TENSEN
100
AcDbCircle
 10
421.3838329999999
 20
139.0931149999999
 30
0.0
 40
6.0
  0
LINE
  5
48244C8
330
4823B0C
100
AcDbEntity
  8
NITEN
100
AcDbLine
 10
415.383833
 20
145.0931149999999
 30
0.0
 11
415.383833
 21
133.0931149999999
 31
0.0
  0
LINE
  5
48244C9
330
4823B0C
100
AcDbEntity
  8
TENSEN
100
AcDbLine
 10
418.201852
 20
142.275095
 30
0.0
 11
424.5658129999999
 21
135.911134
 31
0.0
  0
LINE
  5
48244CA
330
4823B0C
100
AcDbEntity
  8
TENSEN
100
AcDbLine
 10
418.201852
 20
135.911134
 30
0.0
 11
424.5658129999999
 21
142.275095
 31
0.0
  0
CIRCLE
  5
48244CB
330
4823B0C
100
AcDbEntity
  8
TENSEN
100
AcDbCircle
 10
421.3838329999999
 20
139.0931149999999
 30
0.0
 40
4.5
  0
LWPOLYLINE
  5
48244CC
330
4823B0C
100
AcDbEntity
  8
NITEN
100
AcDbPolyline
 90
        3
 70
     0
 43
0.0
 10
427.383833
 20
149.3851249999999
 10
429.3838329999999
 20
151.7686319999999
 10
429.3838329999999
 20
155.768632
  0
LINE
  5
48244CD
330
4823B0C
100
AcDbEntity
  8
NITEN
100
AcDbLine
 10
428.9097879999999
 20
226.1885809999999
 30
0.0
 11
428.9097879999999
 21
238.1648209999999
 31
0.0
  0
LINE
  5
48244CE
330
4823B0C
100
AcDbEntity
  8
NITEN
100
AcDbLine
 10
423.783833
 20
226.1885809999999
 30
0.0
 11
423.783833
 21
238.1648209999999
 31
0.0
  0
LWPOLYLINE
  5
48244CF
330
4823B0C
100
AcDbEntity
  8
NITEN
100
AcDbPolyline
 90
        3
 70
     0
 43
0.0
 10
429.6953399999999
 20
197.768632
 10
429.491141
 20
204.268632
 10
427.3968949999999
 20
207.2686319999999
  0
LWPOLYLINE
  5
48244D0
330
4823B0C
100
AcDbEntity
  8
NITEN
100
AcDbPolyline
 90
        2
 70
     0
 43
0.0
 10
427.383833
 20
207.6844159999999
 10
427.69534
 20
197.768632
  0
LWPOLYLINE
  5
48244D1
330
4823B0C
100
AcDbEntity
  8
TENSEN
100
AcDbPolyline
 90
        3
 70
     0
 43
0.0
 10
429.731002
 20
225.5534549999999
 10
429.5280589999999
 20
219.0934549999999
 10
428.1596679999999
 20
217.13324
  0
LWPOLYLINE
  5
48244D2
330
4823B0C
100
AcDbEntity
  8
TENSEN
100
AcDbPolyline
 90
        2
 70
     0
 43
0.0
 10
427.383833
 20
216.8528479999999
 10
427.657165
 20
225.5534549999999
  0
ARC
  5
48244D3
330
4823B0C
100
AcDbEntity
  8
NITEN
100
AcDbCircle
 10
426.3468099999999
 20
231.04231
 30
0.0
 40
5.488855
100
AcDbArc
 50
242.164019
 51
297.835981
  0
LINE
  5
48244D4
330
4823B0C
100
AcDbEntity
  8
NITEN
100
AcDbLine
 10
425.3838329999999
 20
225.2648209999999
 30
0.0
 11
423.783833
 21
226.1885809999999
 31
0.0
  0
ARC
  5
48244D5
330
4823B0C
100
AcDbEntity
  8
NITEN
100
AcDbCircle
 10
421.3838329999999
 20
250.936393
 30
0.0
 40
2.0
100
AcDbArc
 50
0.0
 51
45.0
  0
LINE
  5
48244D6
330
4823B0C
100
AcDbEntity
  8
NITEN
100
AcDbLine
 10
425.3838329999999
 20
241.936393
 30
0.0
 11
425.3838329999999
 21
240.593248
 31
0.0
  0
ARC
  5
48244D7
330
4823B0C
100
AcDbEntity
  8
NITEN
100
AcDbCircle
 10
426.3468099999999
 20
235.729186
 30
0.0
 40
3.535698999999999
100
AcDbArc
 50
43.540672
 51
136.459328
  0
LINE
  5
48244D8
330
4823B0C
100
AcDbEntity
  8
NITEN
100
AcDbLine
 10
424.7980459999999
 20
239.1790339999999
 30
0.0
 11
423.783833
 21
238.1648209999999
 31
0.0
  0
ARC
  5
48244D9
330
4823B0C
100
AcDbEntity
  8
NITEN
100
AcDbCircle
 10
423.383833
 20
240.593248
 30
0.0
 40
2.0
100
AcDbArc
 50
315.0
 51
0.0
  0
ARC
  5
48244DA
330
4823B0C
100
AcDbEntity
  8
NITEN
100
AcDbCircle
 10
425.3838329999999
 20
245.5932479999999
 30
0.0
 40
2.0
100
AcDbArc
 50
180.0
 51
225.0
  0
LINE
  5
48244DB
330
4823B0C
100
AcDbEntity
  8
NITEN
100
AcDbLine
 10
423.969619
 20
244.1790339999999
 30
0.0
 11
424.7980459999999
 21
243.3506069999999
 31
0.0
  0
ARC
  5
48244DC
330
4823B0C
100
AcDbEntity
  8
NITEN
100
AcDbCircle
 10
423.383833
 20
241.936393
 30
0.0
 40
2.0
100
AcDbArc
 50
0.0
 51
45.0
  0
LINE
  5
48244DD
330
4823B0C
100
AcDbEntity
  8
NITEN
100
AcDbLine
 10
423.383833
 20
250.936393
 30
0.0
 11
423.383833
 21
245.5932479999999
 31
0.0
  0
LINE
  5
48244DE
330
4823B0C
100
AcDbEntity
  8
NITEN
100
AcDbLine
 10
421.3838329999999
 20
270.000898
 30
0.0
 11
421.3838329999999
 21
254.5932479999999
 31
0.0
  0
ARC
  5
48244DF
330
4823B0C
100
AcDbEntity
  8
NITEN
100
AcDbCircle
 10
423.383833
 20
254.5932479999999
 30
0.0
 40
2.0
100
AcDbArc
 50
180.0
 51
225.0
  0
LINE
  5
48244E0
330
4823B0C
100
AcDbEntity
  8
NITEN
100
AcDbLine
 10
422.798046
 20
252.3506069999999
 30
0.0
 11
421.9696189999999
 21
253.1790339999999
 31
0.0
  0
ARC
  5
48244E1
330
4823B0C
100
AcDbEntity
  8
NITEN
100
AcDbCircle
 10
419.383833
 20
270.000898
 30
0.0
 40
2.0
100
AcDbArc
 50
0.0
 51
35.65908799999999
  0
ARC
  5
48244E2
330
4823B0C
100
AcDbEntity
  8
NITEN
100
AcDbCircle
 10
422.6338329999999
 20
272.3327429999999
 30
0.0
 40
2.0
100
AcDbArc
 50
180.0
 51
215.6590879999999
  0
LINE
  5
48244E3
330
4823B0C
100
AcDbEntity
  8
NITEN
100
AcDbLine
 10
486.2143889999999
 20
268.517597
 30
0.0
 11
490.0532759999999
 21
268.517597
 31
0.0
  0
LINE
  5
48244E4
330
4823B0C
100
AcDbEntity
  8
NITEN
100
AcDbLine
 10
486.2143889999999
 20
272.270374
 30
0.0
 11
490.0532759999999
 21
272.270374
 31
0.0
  0
LINE
  5
48244E5
330
4823B0C
100
AcDbEntity
  8
NITEN
100
AcDbLine
 10
486.2143889999999
 20
257.2592669999999
 30
0.0
 11
490.0532759999999
 21
257.2592669999999
 31
0.0
  0
LINE
  5
48244E6
330
4823B0C
100
AcDbEntity
  8
NITEN
100
AcDbLine
 10
486.2143889999999
 20
261.012044
 30
0.0
 11
490.0532759999999
 21
261.012044
 31
0.0
  0
LINE
  5
48244E7
330
4823B0C
100
AcDbEntity
  8
NITEN
100
AcDbLine
 10
483.562765
 20
245.5932479999999
 30
0.0
 11
495.780912
 21
232.940877
 31
0.0
  0
LINE
  5
48244E8
330
4823B0C
100
AcDbEntity
  8
NITEN
100
AcDbLine
 10
485.684085
 20
247.714568
 30
0.0
 11
499.375676
 21
236.0892259999999
 31
0.0
  0
LINE
  5
48244EB
330
4823B0C
100
AcDbEntity
  8
NITEN
100
AcDbLine
 10
461.383833
 20
155.768632
 30
0.0
 11
461.383833
 21
103.3566089999999
 31
0.0
  0
LINE
  5
48244EC
330
4823B0C
100
AcDbEntity
  8
NITEN
100
AcDbLine
 10
473.383833
 20
145.0931149999999
 30
0.0
 11
473.383833
 21
133.0931149999999
 31
0.0
  0
CIRCLE
  5
48244ED
330
4823B0C
100
AcDbEntity
  8
TENSEN
100
AcDbCircle
 10
467.3838329999999
 20
139.0931149999999
 30
0.0
 40
6.0
  0
LINE
  5
48244EE
330
4823B0C
100
AcDbEntity
  8
TENSEN
100
AcDbLine
 10
464.201852
 20
135.911134
 30
0.0
 11
470.5658129999999
 21
142.275095
 31
0.0
  0
LINE
  5
48244EF
330
4823B0C
100
AcDbEntity
  8
TENSEN
100
AcDbLine
 10
464.201852
 20
142.275095
 30
0.0
 11
470.5658129999999
 21
135.911134
 31
0.0
  0
CIRCLE
  5
48244F0
330
4823B0C
100
AcDbEntity
  8
TENSEN
100
AcDbCircle
 10
467.3838329999999
 20
139.0931149999999
 30
0.0
 40
4.5
  0
LWPOLYLINE
  5
48244F1
330
4823B0C
100
AcDbEntity
  8
NITEN
100
AcDbPolyline
 90
        3
 70
     0
 43
0.0
 10
461.383833
 20
149.3851249999999
 10
459.3838329999999
 20
151.7686319999999
 10
459.3838329999999
 20
155.768632
  0
LINE
  5
48244F2
330
4823B0C
100
AcDbEntity
  8
NITEN
100
AcDbLine
 10
465.8266189999999
 20
271.2648209999999
 30
0.0
 11
444.383833
 21
271.2648209999999
 31
0.0
  0
LINE
  5
48244F3
330
4823B0C
100
AcDbEntity
  8
NITEN
100
AcDbLine
 10
463.3838329999999
 20
225.2648209999999
 30
0.0
 11
444.383833
 21
225.2648209999999
 31
0.0
  0
LINE
  5
48244F4
330
4823B0C
100
AcDbEntity
  8
NITEN
100
AcDbLine
 10
459.857878
 20
226.1885809999999
 30
0.0
 11
457.982139
 21
226.1885809999999
 31
0.0
  0
LINE
  5
48244F5
330
4823B0C
100
AcDbEntity
  8
NITEN
100
AcDbLine
 10
466.025269
 20
253.6148209999999
 30
0.0
 11
444.383833
 21
253.6148209999999
 31
0.0
  0
LINE
  5
48244F6
330
4823B0C
100
AcDbEntity
  8
NITEN
100
AcDbLine
 10
462.614451
 20
242.764821
 30
0.0
 11
444.383833
 21
242.764821
 31
0.0
  0
LINE
  5
48244F7
330
4823B0C
100
AcDbEntity
  8
NITEN
100
AcDbLine
 10
463.562906
 20
244.764821
 30
0.0
 11
444.383833
 21
244.764821
 31
0.0
  0
LINE
  5
48244F8
330
4823B0C
100
AcDbEntity
  8
NITEN
100
AcDbLine
 10
464.437585
 20
251.7648209999999
 30
0.0
 11
444.383833
 21
251.7648209999999
 31
0.0
  0
LINE
  5
48244F9
330
4823B0C
100
AcDbEntity
  8
NITEN
100
AcDbLine
 10
462.68101
 20
239.7648209999999
 30
0.0
 11
444.383833
 21
239.7648209999999
 31
0.0
  0
LINE
  5
48244FA
330
4823B0C
100
AcDbEntity
  8
NITEN
100
AcDbLine
 10
459.857878
 20
238.1648209999999
 30
0.0
 11
457.982139
 21
238.1648209999999
 31
0.0
  0
LINE
  5
48244FB
330
4823B0C
100
AcDbEntity
  8
NITEN
100
AcDbLine
 10
457.982139
 20
226.1885809999999
 30
0.0
 11
457.982139
 21
238.1648209999999
 31
0.0
  0
LINE
  5
48244FC
330
4823B0C
100
AcDbEntity
  8
NITEN
100
AcDbLine
 10
443.057485
 20
226.1885809999999
 30
0.0
 11
443.057485
 21
238.1648209999999
 31
0.0
  0
LINE
  5
48244FD
330
4823B0C
100
AcDbEntity
  8
NITEN
100
AcDbLine
 10
445.710181
 20
226.1885809999999
 30
0.0
 11
445.710181
 21
238.1648209999999
 31
0.0
  0
LINE
  5
48244FE
330
4823B0C
100
AcDbEntity
  8
NITEN
100
AcDbLine
 10
430.785527
 20
226.1885809999999
 30
0.0
 11
430.785527
 21
238.1648209999999
 31
0.0
  0
LINE
  5
48244FF
330
4823B0C
100
AcDbEntity
  8
NITEN
100
AcDbLine
 10
444.383833
 20
226.1885809999999
 30
0.0
 11
443.057485
 21
226.1885809999999
 31
0.0
  0
TEXT
  5
4824500
330
4823B0C
100
AcDbEntity
  8
NITEN
100
AcDbText
 10
442.801939
 20
213.999027
 30
0.0
 40
3.5
  1
住
 50
270.0
  7
K
100
AcDbText
  0
CIRCLE
  5
4824501
330
4823B0C
100
AcDbEntity
  8
NITEN
100
AcDbCircle
 10
444.383833
 20
212.268632
 30
0.0
 40
2.5
  0
LINE
  5
4824502
330
4823B0C
100
AcDbEntity
  8
NITEN
100
AcDbLine
 10
434.3838329999999
 20
215.7686319999999
 30
0.0
 11
434.3838329999999
 21
208.7686319999999
 31
0.0
  0
ARC
  5
4824503
330
4823B0C
100
AcDbEntity
  8
NITEN
100
AcDbCircle
 10
436.921506
 20
255.5129149999999
 30
0.0
 40
29.959419
100
AcDbArc
 50
258.181642
 51
281.8183579999999
  0
LINE
  5
4824504
330
4823B0C
100
AcDbEntity
  8
NITEN
100
AcDbLine
 10
454.3838329999999
 20
215.7686319999999
 30
0.0
 11
454.3838329999999
 21
208.7686319999999
 31
0.0
  0
ARC
  5
4824505
330
4823B0C
100
AcDbEntity
  8
NITEN
100
AcDbCircle
 10
451.84616
 20
255.5129149999999
 30
0.0
 40
29.959419
100
AcDbArc
 50
258.181642
 51
281.8183579999999
  0
LINE
  5
4824506
330
4823B0C
100
AcDbEntity
  8
NITEN
100
AcDbLine
 10
445.710181
 20
226.1885809999999
 30
0.0
 11
444.383833
 21
226.1885809999999
 31
0.0
  0
TEXT
  5
4824507
330
4823B0C
100
AcDbEntity
  8
NITEN
100
AcDbText
 10
439.3950369999999
 20
265.6309831904761
 30
0.0
 40
10.0
  1
1
 50
270.0
  7
35FONT
 72
     1
 11
439.3950369999999
 21
264.4405069999999
 31
0.0
100
AcDbText
  0
LINE
  5
4824508
330
4823B0C
100
AcDbEntity
  8
NITEN
100
AcDbLine
 10
444.383833
 20
238.1648209999999
 30
0.0
 11
443.057485
 21
238.1648209999999
 31
0.0
  0
ARC
  5
4824509
330
4823B0C
100
AcDbEntity
  8
NITEN
100
AcDbCircle
 10
436.921506
 20
221.601075
 30
0.0
 40
17.663745
100
AcDbArc
 50
69.67303499999999
 51
110.3269649999999
  0
ARC
  5
482450A
330
4823B0C
100
AcDbEntity
  8
NITEN
100
AcDbCircle
 10
451.84616
 20
221.601075
 30
0.0
 40
17.663745
100
AcDbArc
 50
69.67303499999999
 51
110.3269649999999
  0
LINE
  5
482450B
330
4823B0C
100
AcDbEntity
  8
NITEN
100
AcDbLine
 10
445.710181
 20
238.1648209999999
 30
0.0
 11
444.383833
 21
238.1648209999999
 31
0.0
  0
LINE
  5
482450C
330
4823B0C
100
AcDbEntity
  8
NITEN
100
AcDbLine
 10
464.983833
 20
226.1885809999999
 30
0.0
 11
464.983833
 21
238.1648209999999
 31
0.0
  0
LINE
  5
482450D
330
4823B0C
100
AcDbEntity
  8
NITEN
100
AcDbLine
 10
459.857878
 20
226.1885809999999
 30
0.0
 11
459.857878
 21
238.1648209999999
 31
0.0
  0
LWPOLYLINE
  5
482450E
330
4823B0C
100
AcDbEntity
  8
NITEN
100
AcDbPolyline
 90
        2
 70
     0
 43
0.0
 10
461.0723249999999
 20
197.768632
 10
461.383833
 20
207.6844159999999
  0
LWPOLYLINE
  5
482450F
330
4823B0C
100
AcDbEntity
  8
NITEN
100
AcDbPolyline
 90
        3
 70
     0
 43
0.0
 10
459.0723249999999
 20
197.768632
 10
459.276525
 20
204.268632
 10
461.3707709999999
 20
207.2686319999999
  0
LWPOLYLINE
  5
4824510
330
4823B0C
100
AcDbEntity
  8
TENSEN
100
AcDbPolyline
 90
        3
 70
     0
 43
0.0
 10
459.1104999999999
 20
225.5534549999999
 10
459.313443
 20
219.0934549999999
 10
460.706748
 20
217.09755
  0
LWPOLYLINE
  5
4824511
330
4823B0C
100
AcDbEntity
  8
TENSEN
100
AcDbPolyline
 90
        2
 70
     0
 43
0.0
 10
461.1105
 20
225.5534549999999
 10
461.383833
 20
216.8528479999999
  0
ARC
  5
4824512
330
4823B0C
100
AcDbEntity
  8
NITEN
100
AcDbCircle
 10
462.420855
 20
231.04231
 30
0.0
 40
5.488855
100
AcDbArc
 50
242.164019
 51
297.835981
  0
ARC
  5
4824513
330
4823B0C
100
AcDbEntity
  8
NITEN
100
AcDbCircle
 10
462.420856
 20
231.04231
 30
0.0
 40
5.488855
100
AcDbArc
 50
242.164019
 51
297.835981
  0
LINE
  5
4824514
330
4823B0C
100
AcDbEntity
  8
NITEN
100
AcDbLine
 10
463.3838329999999
 20
225.2648209999999
 30
0.0
 11
464.983833
 21
226.1885809999999
 31
0.0
  0
LINE
  5
4824515
330
4823B0C
100
AcDbEntity
  8
NITEN
100
AcDbLine
 10
480.133833
 20
255.264821
 30
0.0
 11
470.633833
 21
255.264821
 31
0.0
  0
ARC
  5
4824516
330
4823B0C
100
AcDbEntity
  8
NITEN
100
AcDbCircle
 10
467.3838329999999
 20
250.936393
 30
0.0
 40
2.0
100
AcDbArc
 50
135.0
 51
180.0
  0
ARC
  5
4824517
330
4823B0C
100
AcDbEntity
  8
NITEN
100
AcDbCircle
 10
463.3838329999999
 20
245.5932479999999
 30
0.0
 40
2.0
100
AcDbArc
 50
315.0
 51
0.0
  0
LINE
  5
4824518
330
4823B0C
100
AcDbEntity
  8
NITEN
100
AcDbLine
 10
463.3838329999999
 20
241.936393
 30
0.0
 11
463.3838329999999
 21
240.593248
 31
0.0
  0
LINE
  5
4824519
330
4823B0C
100
AcDbEntity
  8
NITEN
100
AcDbLine
 10
463.3838329999999
 20
241.936393
 30
0.0
 11
463.3838329999999
 21
240.593248
 31
0.0
  0
ARC
  5
482451A
330
4823B0C
100
AcDbEntity
  8
NITEN
100
AcDbCircle
 10
462.420855
 20
235.729186
 30
0.0
 40
3.535698999999999
100
AcDbArc
 50
43.540672
 51
136.459328
  0
LINE
  5
482451B
330
4823B0C
100
AcDbEntity
  8
NITEN
100
AcDbLine
 10
463.9696189999999
 20
239.1790339999999
 30
0.0
 11
464.983833
 21
238.1648209999999
 31
0.0
  0
ARC
  5
482451C
330
4823B0C
100
AcDbEntity
  8
NITEN
100
AcDbCircle
 10
465.383833
 20
240.593248
 30
0.0
 40
2.0
100
AcDbArc
 50
180.0
 51
225.0
  0
LINE
  5
482451D
330
4823B0C
100
AcDbEntity
  8
NITEN
100
AcDbLine
 10
464.798046
 20
244.1790339999999
 30
0.0
 11
463.9696189999999
 21
243.3506069999999
 31
0.0
  0
ARC
  5
482451E
330
4823B0C
100
AcDbEntity
  8
NITEN
100
AcDbCircle
 10
465.383833
 20
241.936393
 30
0.0
 40
2.0
100
AcDbArc
 50
135.0
 51
180.0
  0
LINE
  5
482451F
330
4823B0C
100
AcDbEntity
  8
NITEN
100
AcDbLine
 10
465.383833
 20
250.936393
 30
0.0
 11
465.383833
 21
245.5932479999999
 31
0.0
  0
POLYLINE
  5
4824520
330
4823B0C
100
AcDbEntity
  8
NITEN
100
AcDb3dPolyline
 66
     1
 10
0.0
 20
0.0
 30
0.0
 70
     8
  0
VERTEX
  5
4824521
330
4824520
100
AcDbEntity
  8
NITEN
100
AcDbVertex
100
AcDb3dPolylineVertex
 10
466.886656
 20
255.3744379999999
 30
0.0
 70
    32
  0
VERTEX
  5
4824522
330
4824520
100
AcDbEntity
  8
NITEN
100
AcDbVertex
100
AcDb3dPolylineVertex
 10
466.8568559999999
 20
255.444438
 30
0.0
 70
    32
  0
VERTEX
  5
4824523
330
4824520
100
AcDbEntity
  8
NITEN
100
AcDbVertex
100
AcDb3dPolylineVertex
 10
466.827256
 20
255.5144379999999
 30
0.0
 70
    32
  0
VERTEX
  5
4824524
330
4824520
100
AcDbEntity
  8
NITEN
100
AcDbVertex
100
AcDb3dPolylineVertex
 10
466.7977559999999
 20
255.5854379999999
 30
0.0
 70
    32
  0
VERTEX
  5
4824525
330
4824520
100
AcDbEntity
  8
NITEN
100
AcDbVertex
100
AcDb3dPolylineVertex
 10
466.768456
 20
255.6554379999999
 30
0.0
 70
    32
  0
VERTEX
  5
4824526
330
4824520
100
AcDbEntity
  8
NITEN
100
AcDbVertex
100
AcDb3dPolylineVertex
 10
466.7393559999999
 20
255.7264379999999
 30
0.0
 70
    32
  0
VERTEX
  5
4824527
330
4824520
100
AcDbEntity
  8
NITEN
100
AcDbVertex
100
AcDb3dPolylineVertex
 10
466.710356
 20
255.796438
 30
0.0
 70
    32
  0
VERTEX
  5
4824528
330
4824520
100
AcDbEntity
  8
NITEN
100
AcDbVertex
100
AcDb3dPolylineVertex
 10
466.681456
 20
255.8674379999999
 30
0.0
 70
    32
  0
VERTEX
  5
4824529
330
4824520
100
AcDbEntity
  8
NITEN
100
AcDbVertex
100
AcDb3dPolylineVertex
 10
466.6528559999999
 20
255.938438
 30
0.0
 70
    32
  0
VERTEX
  5
482452A
330
4824520
100
AcDbEntity
  8
NITEN
100
AcDbVertex
100
AcDb3dPolylineVertex
 10
466.6243559999999
 20
256.0094379999999
 30
0.0
 70
    32
  0
VERTEX
  5
482452B
330
4824520
100
AcDbEntity
  8
NITEN
100
AcDbVertex
100
AcDb3dPolylineVertex
 10
466.596056
 20
256.0804379999999
 30
0.0
 70
    32
  0
VERTEX
  5
482452C
330
4824520
100
AcDbEntity
  8
NITEN
100
AcDbVertex
100
AcDb3dPolylineVertex
 10
466.5678559999999
 20
256.1514379999999
 30
0.0
 70
    32
  0
VERTEX
  5
482452D
330
4824520
100
AcDbEntity
  8
NITEN
100
AcDbVertex
100
AcDb3dPolylineVertex
 10
466.5398559999999
 20
256.2224379999999
 30
0.0
 70
    32
  0
VERTEX
  5
482452E
330
4824520
100
AcDbEntity
  8
NITEN
100
AcDbVertex
100
AcDb3dPolylineVertex
 10
466.512056
 20
256.2934379999999
 30
0.0
 70
    32
  0
VERTEX
  5
482452F
330
4824520
100
AcDbEntity
  8
NITEN
100
AcDbVertex
100
AcDb3dPolylineVertex
 10
466.484456
 20
256.365438
 30
0.0
 70
    32
  0
VERTEX
  5
4824530
330
4824520
100
AcDbEntity
  8
NITEN
100
AcDbVertex
100
AcDb3dPolylineVertex
 10
466.456956
 20
256.436438
 30
0.0
 70
    32
  0
VERTEX
  5
4824531
330
4824520
100
AcDbEntity
  8
NITEN
100
AcDbVertex
100
AcDb3dPolylineVertex
 10
466.429656
 20
256.508438
 30
0.0
 70
    32
  0
VERTEX
  5
4824532
330
4824520
100
AcDbEntity
  8
NITEN
100
AcDbVertex
100
AcDb3dPolylineVertex
 10
466.4025559999999
 20
256.5794379999999
 30
0.0
 70
    32
  0
VERTEX
  5
4824533
330
4824520
100
AcDbEntity
  8
NITEN
100
AcDbVertex
100
AcDb3dPolylineVertex
 10
466.375656
 20
256.651438
 30
0.0
 70
    32
  0
VERTEX
  5
4824534
330
4824520
100
AcDbEntity
  8
NITEN
100
AcDbVertex
100
AcDb3dPolylineVertex
 10
466.348856
 20
256.7234379999999
 30
0.0
 70
    32
  0
VERTEX
  5
4824535
330
4824520
100
AcDbEntity
  8
NITEN
100
AcDbVertex
100
AcDb3dPolylineVertex
 10
466.322356
 20
256.7954379999999
 30
0.0
 70
    32
  0
VERTEX
  5
4824536
330
4824520
100
AcDbEntity
  8
NITEN
100
AcDbVertex
100
AcDb3dPolylineVertex
 10
466.295956
 20
256.867438
 30
0.0
 70
    32
  0
VERTEX
  5
4824537
330
4824520
100
AcDbEntity
  8
NITEN
100
AcDbVertex
100
AcDb3dPolylineVertex
 10
466.269756
 20
256.9394379999999
 30
0.0
 70
    32
  0
VERTEX
  5
4824538
330
4824520
100
AcDbEntity
  8
NITEN
100
AcDbVertex
100
AcDb3dPolylineVertex
 10
466.2437559999999
 20
257.011438
 30
0.0
 70
    32
  0
VERTEX
  5
4824539
330
4824520
100
AcDbEntity
  8
NITEN
100
AcDbVertex
100
AcDb3dPolylineVertex
 10
466.217856
 20
257.0834379999999
 30
0.0
 70
    32
  0
VERTEX
  5
482453A
330
4824520
100
AcDbEntity
  8
NITEN
100
AcDbVertex
100
AcDb3dPolylineVertex
 10
466.1922559999999
 20
257.155438
 30
0.0
 70
    32
  0
VERTEX
  5
482453B
330
4824520
100
AcDbEntity
  8
NITEN
100
AcDbVertex
100
AcDb3dPolylineVertex
 10
466.1668559999999
 20
257.2284379999999
 30
0.0
 70
    32
  0
VERTEX
  5
482453C
330
4824520
100
AcDbEntity
  8
NITEN
100
AcDbVertex
100
AcDb3dPolylineVertex
 10
466.141556
 20
257.3004379999999
 30
0.0
 70
    32
  0
VERTEX
  5
482453D
330
4824520
100
AcDbEntity
  8
NITEN
100
AcDbVertex
100
AcDb3dPolylineVertex
 10
466.1165559999999
 20
257.3734379999999
 30
0.0
 70
    32
  0
VERTEX
  5
482453E
330
4824520
100
AcDbEntity
  8
NITEN
100
AcDbVertex
100
AcDb3dPolylineVertex
 10
466.091656
 20
257.4454379999999
 30
0.0
 70
    32
  0
VERTEX
  5
482453F
330
4824520
100
AcDbEntity
  8
NITEN
100
AcDbVertex
100
AcDb3dPolylineVertex
 10
466.066956
 20
257.518438
 30
0.0
 70
    32
  0
VERTEX
  5
4824540
330
4824520
100
AcDbEntity
  8
NITEN
100
AcDbVertex
100
AcDb3dPolylineVertex
 10
466.042556
 20
257.5914379999999
 30
0.0
 70
    32
  0
VERTEX
  5
4824541
330
4824520
100
AcDbEntity
  8
NITEN
100
AcDbVertex
100
AcDb3dPolylineVertex
 10
466.0182559999999
 20
257.6634379999999
 30
0.0
 70
    32
  0
VERTEX
  5
4824542
330
4824520
100
AcDbEntity
  8
NITEN
100
AcDbVertex
100
AcDb3dPolylineVertex
 10
465.994256
 20
257.7364379999999
 30
0.0
 70
    32
  0
VERTEX
  5
4824543
330
4824520
100
AcDbEntity
  8
NITEN
100
AcDbVertex
100
AcDb3dPolylineVertex
 10
465.9703559999999
 20
257.809438
 30
0.0
 70
    32
  0
VERTEX
  5
4824544
330
4824520
100
AcDbEntity
  8
NITEN
100
AcDbVertex
100
AcDb3dPolylineVertex
 10
465.946756
 20
257.8824379999999
 30
0.0
 70
    32
  0
VERTEX
  5
4824545
330
4824520
100
AcDbEntity
  8
NITEN
100
AcDbVertex
100
AcDb3dPolylineVertex
 10
465.9232559999999
 20
257.955438
 30
0.0
 70
    32
  0
VERTEX
  5
4824546
330
4824520
100
AcDbEntity
  8
NITEN
100
AcDbVertex
100
AcDb3dPolylineVertex
 10
465.9000559999999
 20
258.028438
 30
0.0
 70
    32
  0
VERTEX
  5
4824547
330
4824520
100
AcDbEntity
  8
NITEN
100
AcDbVertex
100
AcDb3dPolylineVertex
 10
465.876956
 20
258.102438
 30
0.0
 70
    32
  0
VERTEX
  5
4824548
330
4824520
100
AcDbEntity
  8
NITEN
100
AcDbVertex
100
AcDb3dPolylineVertex
 10
465.8541559999999
 20
258.175438
 30
0.0
 70
    32
  0
VERTEX
  5
4824549
330
4824520
100
AcDbEntity
  8
NITEN
100
AcDbVertex
100
AcDb3dPolylineVertex
 10
465.831556
 20
258.2484379999999
 30
0.0
 70
    32
  0
VERTEX
  5
482454A
330
4824520
100
AcDbEntity
  8
NITEN
100
AcDbVertex
100
AcDb3dPolylineVertex
 10
465.809156
 20
258.3224379999999
 30
0.0
 70
    32
  0
VERTEX
  5
482454B
330
4824520
100
AcDbEntity
  8
NITEN
100
AcDbVertex
100
AcDb3dPolylineVertex
 10
465.786956
 20
258.395438
 30
0.0
 70
    32
  0
VERTEX
  5
482454C
330
4824520
100
AcDbEntity
  8
NITEN
100
AcDbVertex
100
AcDb3dPolylineVertex
 10
465.765056
 20
258.4694379999999
 30
0.0
 70
    32
  0
VERTEX
  5
482454D
330
4824520
100
AcDbEntity
  8
NITEN
100
AcDbVertex
100
AcDb3dPolylineVertex
 10
465.743256
 20
258.542438
 30
0.0
 70
    32
  0
VERTEX
  5
482454E
330
4824520
100
AcDbEntity
  8
NITEN
100
AcDbVertex
100
AcDb3dPolylineVertex
 10
465.721756
 20
258.616438
 30
0.0
 70
    32
  0
VERTEX
  5
482454F
330
4824520
100
AcDbEntity
  8
NITEN
100
AcDbVertex
100
AcDb3dPolylineVertex
 10
465.700456
 20
258.6904379999999
 30
0.0
 70
    32
  0
VERTEX
  5
4824550
330
4824520
100
AcDbEntity
  8
NITEN
100
AcDbVertex
100
AcDb3dPolylineVertex
 10
465.6793559999999
 20
258.763438
 30
0.0
 70
    32
  0
VERTEX
  5
4824551
330
4824520
100
AcDbEntity
  8
NITEN
100
AcDbVertex
100
AcDb3dPolylineVertex
 10
465.6585559999999
 20
258.8374379999999
 30
0.0
 70
    32
  0
VERTEX
  5
4824552
330
4824520
100
AcDbEntity
  8
NITEN
100
AcDbVertex
100
AcDb3dPolylineVertex
 10
465.637956
 20
258.9114379999999
 30
0.0
 70
    32
  0
VERTEX
  5
4824553
330
4824520
100
AcDbEntity
  8
NITEN
100
AcDbVertex
100
AcDb3dPolylineVertex
 10
465.617556
 20
258.9854379999999
 30
0.0
 70
    32
  0
VERTEX
  5
4824554
330
4824520
100
AcDbEntity
  8
NITEN
100
AcDbVertex
100
AcDb3dPolylineVertex
 10
465.5973559999999
 20
259.059438
 30
0.0
 70
    32
  0
VERTEX
  5
4824555
330
4824520
100
AcDbEntity
  8
NITEN
100
AcDbVertex
100
AcDb3dPolylineVertex
 10
465.577356
 20
259.133438
 30
0.0
 70
    32
  0
VERTEX
  5
4824556
330
4824520
100
AcDbEntity
  8
NITEN
100
AcDbVertex
100
AcDb3dPolylineVertex
 10
465.557656
 20
259.2074379999999
 30
0.0
 70
    32
  0
VERTEX
  5
4824557
330
4824520
100
AcDbEntity
  8
NITEN
100
AcDbVertex
100
AcDb3dPolylineVertex
 10
465.5382559999999
 20
259.2814379999999
 30
0.0
 70
    32
  0
VERTEX
  5
4824558
330
4824520
100
AcDbEntity
  8
NITEN
100
AcDbVertex
100
AcDb3dPolylineVertex
 10
465.518956
 20
259.355438
 30
0.0
 70
    32
  0
VERTEX
  5
4824559
330
4824520
100
AcDbEntity
  8
NITEN
100
AcDbVertex
100
AcDb3dPolylineVertex
 10
465.499956
 20
259.429438
 30
0.0
 70
    32
  0
VERTEX
  5
482455A
330
4824520
100
AcDbEntity
  8
NITEN
100
AcDbVertex
100
AcDb3dPolylineVertex
 10
465.4811559999999
 20
259.504438
 30
0.0
 70
    32
  0
VERTEX
  5
482455B
330
4824520
100
AcDbEntity
  8
NITEN
100
AcDbVertex
100
AcDb3dPolylineVertex
 10
465.4626559999999
 20
259.578438
 30
0.0
 70
    32
  0
VERTEX
  5
482455C
330
4824520
100
AcDbEntity
  8
NITEN
100
AcDbVertex
100
AcDb3dPolylineVertex
 10
465.4443559999999
 20
259.6524379999999
 30
0.0
 70
    32
  0
VERTEX
  5
482455D
330
4824520
100
AcDbEntity
  8
NITEN
100
AcDbVertex
100
AcDb3dPolylineVertex
 10
465.426356
 20
259.7274379999999
 30
0.0
 70
    32
  0
VERTEX
  5
482455E
330
4824520
100
AcDbEntity
  8
NITEN
100
AcDbVertex
100
AcDb3dPolylineVertex
 10
465.4085559999999
 20
259.8014379999999
 30
0.0
 70
    32
  0
VERTEX
  5
482455F
330
4824520
100
AcDbEntity
  8
NITEN
100
AcDbVertex
100
AcDb3dPolylineVertex
 10
465.390956
 20
259.8764379999999
 30
0.0
 70
    32
  0
VERTEX
  5
4824560
330
4824520
100
AcDbEntity
  8
NITEN
100
AcDbVertex
100
AcDb3dPolylineVertex
 10
465.3736559999999
 20
259.9504379999999
 30
0.0
 70
    32
  0
VERTEX
  5
4824561
330
4824520
100
AcDbEntity
  8
NITEN
100
AcDbVertex
100
AcDb3dPolylineVertex
 10
465.3566559999999
 20
260.0254379999999
 30
0.0
 70
    32
  0
VERTEX
  5
4824562
330
4824520
100
AcDbEntity
  8
NITEN
100
AcDbVertex
100
AcDb3dPolylineVertex
 10
465.339756
 20
260.100438
 30
0.0
 70
    32
  0
VERTEX
  5
4824563
330
4824520
100
AcDbEntity
  8
NITEN
100
AcDbVertex
100
AcDb3dPolylineVertex
 10
465.323256
 20
260.1744379999999
 30
0.0
 70
    32
  0
VERTEX
  5
4824564
330
4824520
100
AcDbEntity
  8
NITEN
100
AcDbVertex
100
AcDb3dPolylineVertex
 10
465.306956
 20
260.2494379999999
 30
0.0
 70
    32
  0
VERTEX
  5
4824565
330
4824520
100
AcDbEntity
  8
NITEN
100
AcDbVertex
100
AcDb3dPolylineVertex
 10
465.2908559999999
 20
260.324438
 30
0.0
 70
    32
  0
VERTEX
  5
4824566
330
4824520
100
AcDbEntity
  8
NITEN
100
AcDbVertex
100
AcDb3dPolylineVertex
 10
465.275056
 20
260.3984379999999
 30
0.0
 70
    32
  0
VERTEX
  5
4824567
330
4824520
100
AcDbEntity
  8
NITEN
100
AcDbVertex
100
AcDb3dPolylineVertex
 10
465.2595559999999
 20
260.473438
 30
0.0
 70
    32
  0
VERTEX
  5
4824568
330
4824520
100
AcDbEntity
  8
NITEN
100
AcDbVertex
100
AcDb3dPolylineVertex
 10
465.2442559999999
 20
260.5484379999999
 30
0.0
 70
    32
  0
VERTEX
  5
4824569
330
4824520
100
AcDbEntity
  8
NITEN
100
AcDbVertex
100
AcDb3dPolylineVertex
 10
465.2292559999999
 20
260.6234379999999
 30
0.0
 70
    32
  0
VERTEX
  5
482456A
330
4824520
100
AcDbEntity
  8
NITEN
100
AcDbVertex
100
AcDb3dPolylineVertex
 10
465.2144559999999
 20
260.698438
 30
0.0
 70
    32
  0
VERTEX
  5
482456B
330
4824520
100
AcDbEntity
  8
NITEN
100
AcDbVertex
100
AcDb3dPolylineVertex
 10
465.199956
 20
260.773438
 30
0.0
 70
    32
  0
VERTEX
  5
482456C
330
4824520
100
AcDbEntity
  8
NITEN
100
AcDbVertex
100
AcDb3dPolylineVertex
 10
465.1857559999999
 20
260.8484379999999
 30
0.0
 70
    32
  0
VERTEX
  5
482456D
330
4824520
100
AcDbEntity
  8
NITEN
100
AcDbVertex
100
AcDb3dPolylineVertex
 10
465.171756
 20
260.9234379999999
 30
0.0
 70
    32
  0
VERTEX
  5
482456E
330
4824520
100
AcDbEntity
  8
NITEN
100
AcDbVertex
100
AcDb3dPolylineVertex
 10
465.158056
 20
260.9984379999999
 30
0.0
 70
    32
  0
VERTEX
  5
482456F
330
4824520
100
AcDbEntity
  8
NITEN
100
AcDbVertex
100
AcDb3dPolylineVertex
 10
465.144656
 20
261.073438
 30
0.0
 70
    32
  0
VERTEX
  5
4824570
330
4824520
100
AcDbEntity
  8
NITEN
100
AcDbVertex
100
AcDb3dPolylineVertex
 10
465.131456
 20
261.1484379999999
 30
0.0
 70
    32
  0
VERTEX
  5
4824571
330
4824520
100
AcDbEntity
  8
NITEN
100
AcDbVertex
100
AcDb3dPolylineVertex
 10
465.118556
 20
261.2234379999999
 30
0.0
 70
    32
  0
VERTEX
  5
4824572
330
4824520
100
AcDbEntity
  8
NITEN
100
AcDbVertex
100
AcDb3dPolylineVertex
 10
465.105956
 20
261.2984379999999
 30
0.0
 70
    32
  0
VERTEX
  5
4824573
330
4824520
100
AcDbEntity
  8
NITEN
100
AcDbVertex
100
AcDb3dPolylineVertex
 10
465.0936559999999
 20
261.3734379999999
 30
0.0
 70
    32
  0
VERTEX
  5
4824574
330
4824520
100
AcDbEntity
  8
NITEN
100
AcDbVertex
100
AcDb3dPolylineVertex
 10
465.0815559999999
 20
261.4484379999999
 30
0.0
 70
    32
  0
VERTEX
  5
4824575
330
4824520
100
AcDbEntity
  8
NITEN
100
AcDbVertex
100
AcDb3dPolylineVertex
 10
465.069756
 20
261.5244379999999
 30
0.0
 70
    32
  0
VERTEX
  5
4824576
330
4824520
100
AcDbEntity
  8
NITEN
100
AcDbVertex
100
AcDb3dPolylineVertex
 10
465.058256
 20
261.5994379999999
 30
0.0
 70
    32
  0
VERTEX
  5
4824577
330
4824520
100
AcDbEntity
  8
NITEN
100
AcDbVertex
100
AcDb3dPolylineVertex
 10
465.047056
 20
261.674438
 30
0.0
 70
    32
  0
VERTEX
  5
4824578
330
4824520
100
AcDbEntity
  8
NITEN
100
AcDbVertex
100
AcDb3dPolylineVertex
 10
465.036056
 20
261.749438
 30
0.0
 70
    32
  0
VERTEX
  5
4824579
330
4824520
100
AcDbEntity
  8
NITEN
100
AcDbVertex
100
AcDb3dPolylineVertex
 10
465.0254559999999
 20
261.8254379999999
 30
0.0
 70
    32
  0
VERTEX
  5
482457A
330
4824520
100
AcDbEntity
  8
NITEN
100
AcDbVertex
100
AcDb3dPolylineVertex
 10
465.015056
 20
261.900438
 30
0.0
 70
    32
  0
VERTEX
  5
482457B
330
4824520
100
AcDbEntity
  8
NITEN
100
AcDbVertex
100
AcDb3dPolylineVertex
 10
465.004956
 20
261.9754379999999
 30
0.0
 70
    32
  0
VERTEX
  5
482457C
330
4824520
100
AcDbEntity
  8
NITEN
100
AcDbVertex
100
AcDb3dPolylineVertex
 10
464.9951559999999
 20
262.0514379999999
 30
0.0
 70
    32
  0
VERTEX
  5
482457D
330
4824520
100
AcDbEntity
  8
NITEN
100
AcDbVertex
100
AcDb3dPolylineVertex
 10
464.9856559999999
 20
262.1264379999999
 30
0.0
 70
    32
  0
VERTEX
  5
482457E
330
4824520
100
AcDbEntity
  8
NITEN
100
AcDbVertex
100
AcDb3dPolylineVertex
 10
464.976456
 20
262.2014379999999
 30
0.0
 70
    32
  0
VERTEX
  5
482457F
330
4824520
100
AcDbEntity
  8
NITEN
100
AcDbVertex
100
AcDb3dPolylineVertex
 10
464.967556
 20
262.2774379999999
 30
0.0
 70
    32
  0
VERTEX
  5
4824580
330
4824520
100
AcDbEntity
  8
NITEN
100
AcDbVertex
100
AcDb3dPolylineVertex
 10
464.9589559999999
 20
262.352438
 30
0.0
 70
    32
  0
VERTEX
  5
4824581
330
4824520
100
AcDbEntity
  8
NITEN
100
AcDbVertex
100
AcDb3dPolylineVertex
 10
464.950556
 20
262.427438
 30
0.0
 70
    32
  0
VERTEX
  5
4824582
330
4824520
100
AcDbEntity
  8
NITEN
100
AcDbVertex
100
AcDb3dPolylineVertex
 10
464.942556
 20
262.503438
 30
0.0
 70
    32
  0
VERTEX
  5
4824583
330
4824520
100
AcDbEntity
  8
NITEN
100
AcDbVertex
100
AcDb3dPolylineVertex
 10
464.9348559999999
 20
262.578438
 30
0.0
 70
    32
  0
VERTEX
  5
4824584
330
4824520
100
AcDbEntity
  8
NITEN
100
AcDbVertex
100
AcDb3dPolylineVertex
 10
464.927356
 20
262.6544379999999
 30
0.0
 70
    32
  0
VERTEX
  5
4824585
330
4824520
100
AcDbEntity
  8
NITEN
100
AcDbVertex
100
AcDb3dPolylineVertex
 10
464.9202559999999
 20
262.729438
 30
0.0
 70
    32
  0
VERTEX
  5
4824586
330
4824520
100
AcDbEntity
  8
NITEN
100
AcDbVertex
100
AcDb3dPolylineVertex
 10
464.913456
 20
262.8044379999999
 30
0.0
 70
    32
  0
VERTEX
  5
4824587
330
4824520
100
AcDbEntity
  8
NITEN
100
AcDbVertex
100
AcDb3dPolylineVertex
 10
464.9068559999999
 20
262.8804379999999
 30
0.0
 70
    32
  0
VERTEX
  5
4824588
330
4824520
100
AcDbEntity
  8
NITEN
100
AcDbVertex
100
AcDb3dPolylineVertex
 10
464.900656
 20
262.955438
 30
0.0
 70
    32
  0
VERTEX
  5
4824589
330
4824520
100
AcDbEntity
  8
NITEN
100
AcDbVertex
100
AcDb3dPolylineVertex
 10
464.894756
 20
263.0314379999999
 30
0.0
 70
    32
  0
VERTEX
  5
482458A
330
4824520
100
AcDbEntity
  8
NITEN
100
AcDbVertex
100
AcDb3dPolylineVertex
 10
464.889156
 20
263.1064379999999
 30
0.0
 70
    32
  0
VERTEX
  5
482458B
330
4824520
100
AcDbEntity
  8
NITEN
100
AcDbVertex
100
AcDb3dPolylineVertex
 10
464.8838559999999
 20
263.1824379999999
 30
0.0
 70
    32
  0
VERTEX
  5
482458C
330
4824520
100
AcDbEntity
  8
NITEN
100
AcDbVertex
100
AcDb3dPolylineVertex
 10
464.8788559999999
 20
263.2574379999999
 30
0.0
 70
    32
  0
VERTEX
  5
482458D
330
4824520
100
AcDbEntity
  8
NITEN
100
AcDbVertex
100
AcDb3dPolylineVertex
 10
464.874256
 20
263.3334379999999
 30
0.0
 70
    32
  0
VERTEX
  5
482458E
330
4824520
100
AcDbEntity
  8
NITEN
100
AcDbVertex
100
AcDb3dPolylineVertex
 10
464.869856
 20
263.408438
 30
0.0
 70
    32
  0
VERTEX
  5
482458F
330
4824520
100
AcDbEntity
  8
NITEN
100
AcDbVertex
100
AcDb3dPolylineVertex
 10
464.865856
 20
263.483438
 30
0.0
 70
    32
  0
VERTEX
  5
4824590
330
4824520
100
AcDbEntity
  8
NITEN
100
AcDbVertex
100
AcDb3dPolylineVertex
 10
464.862156
 20
263.559438
 30
0.0
 70
    32
  0
VERTEX
  5
4824591
330
4824520
100
AcDbEntity
  8
NITEN
100
AcDbVertex
100
AcDb3dPolylineVertex
 10
464.858756
 20
263.634438
 30
0.0
 70
    32
  0
VERTEX
  5
4824592
330
4824520
100
AcDbEntity
  8
NITEN
100
AcDbVertex
100
AcDb3dPolylineVertex
 10
464.855656
 20
263.710438
 30
0.0
 70
    32
  0
VERTEX
  5
4824593
330
4824520
100
AcDbEntity
  8
NITEN
100
AcDbVertex
100
AcDb3dPolylineVertex
 10
464.8528559999999
 20
263.7854379999999
 30
0.0
 70
    32
  0
VERTEX
  5
4824594
330
4824520
100
AcDbEntity
  8
NITEN
100
AcDbVertex
100
AcDb3dPolylineVertex
 10
464.850456
 20
263.8604379999999
 30
0.0
 70
    32
  0
VERTEX
  5
4824595
330
4824520
100
AcDbEntity
  8
NITEN
100
AcDbVertex
100
AcDb3dPolylineVertex
 10
464.8483559999999
 20
263.9364379999999
 30
0.0
 70
    32
  0
VERTEX
  5
4824596
330
4824520
100
AcDbEntity
  8
NITEN
100
AcDbVertex
100
AcDb3dPolylineVertex
 10
464.846656
 20
264.0114379999999
 30
0.0
 70
    32
  0
VERTEX
  5
4824597
330
4824520
100
AcDbEntity
  8
NITEN
100
AcDbVertex
100
AcDb3dPolylineVertex
 10
464.8451559999999
 20
264.0874379999999
 30
0.0
 70
    32
  0
VERTEX
  5
4824598
330
4824520
100
AcDbEntity
  8
NITEN
100
AcDbVertex
100
AcDb3dPolylineVertex
 10
464.844056
 20
264.162438
 30
0.0
 70
    32
  0
VERTEX
  5
4824599
330
4824520
100
AcDbEntity
  8
NITEN
100
AcDbVertex
100
AcDb3dPolylineVertex
 10
464.8432559999999
 20
264.237438
 30
0.0
 70
    32
  0
VERTEX
  5
482459A
330
4824520
100
AcDbEntity
  8
NITEN
100
AcDbVertex
100
AcDb3dPolylineVertex
 10
464.842856
 20
264.3134379999999
 30
0.0
 70
    32
  0
VERTEX
  5
482459B
330
4824520
100
AcDbEntity
  8
NITEN
100
AcDbVertex
100
AcDb3dPolylineVertex
 10
464.842756
 20
264.388438
 30
0.0
 70
    32
  0
VERTEX
  5
482459C
330
4824520
100
AcDbEntity
  8
NITEN
100
AcDbVertex
100
AcDb3dPolylineVertex
 10
464.842956
 20
264.4634379999999
 30
0.0
 70
    32
  0
VERTEX
  5
482459D
330
4824520
100
AcDbEntity
  8
NITEN
100
AcDbVertex
100
AcDb3dPolylineVertex
 10
464.843456
 20
264.5394379999999
 30
0.0
 70
    32
  0
VERTEX
  5
482459E
330
4824520
100
AcDbEntity
  8
NITEN
100
AcDbVertex
100
AcDb3dPolylineVertex
 10
464.844356
 20
264.6144379999999
 30
0.0
 70
    32
  0
VERTEX
  5
482459F
330
4824520
100
AcDbEntity
  8
NITEN
100
AcDbVertex
100
AcDb3dPolylineVertex
 10
464.8456559999999
 20
264.6894379999999
 30
0.0
 70
    32
  0
VERTEX
  5
48245A0
330
4824520
100
AcDbEntity
  8
NITEN
100
AcDbVertex
100
AcDb3dPolylineVertex
 10
464.847256
 20
264.764438
 30
0.0
 70
    32
  0
SEQEND
  5
48245A1
330
4824520
100
AcDbEntity
  8
NITEN
  0
POLYLINE
  5
48245A2
330
4823B0C
100
AcDbEntity
  8
NITEN
100
AcDb3dPolyline
 66
     1
 10
0.0
 20
0.0
 30
0.0
 70
     8
  0
VERTEX
  5
48245A3
330
48245A2
100
AcDbEntity
  8
NITEN
100
AcDbVertex
100
AcDb3dPolylineVertex
 10
465.478456
 20
270.0144379999999
 30
0.0
 70
    32
  0
VERTEX
  5
48245A4
330
48245A2
100
AcDbEntity
  8
NITEN
100
AcDbVertex
100
AcDb3dPolylineVertex
 10
465.468256
 20
269.9734379999999
 30
0.0
 70
    32
  0
VERTEX
  5
48245A5
330
48245A2
100
AcDbEntity
  8
NITEN
100
AcDbVertex
100
AcDb3dPolylineVertex
 10
465.458056
 20
269.9324379999999
 30
0.0
 70
    32
  0
VERTEX
  5
48245A6
330
48245A2
100
AcDbEntity
  8
NITEN
100
AcDbVertex
100
AcDb3dPolylineVertex
 10
465.448056
 20
269.891438
 30
0.0
 70
    32
  0
VERTEX
  5
48245A7
330
48245A2
100
AcDbEntity
  8
NITEN
100
AcDbVertex
100
AcDb3dPolylineVertex
 10
465.4380559999999
 20
269.850438
 30
0.0
 70
    32
  0
VERTEX
  5
48245A8
330
48245A2
100
AcDbEntity
  8
NITEN
100
AcDbVertex
100
AcDb3dPolylineVertex
 10
465.428156
 20
269.809438
 30
0.0
 70
    32
  0
VERTEX
  5
48245A9
330
48245A2
100
AcDbEntity
  8
NITEN
100
AcDbVertex
100
AcDb3dPolylineVertex
 10
465.4183559999999
 20
269.768438
 30
0.0
 70
    32
  0
VERTEX
  5
48245AA
330
48245A2
100
AcDbEntity
  8
NITEN
100
AcDbVertex
100
AcDb3dPolylineVertex
 10
465.4085559999999
 20
269.7284379999999
 30
0.0
 70
    32
  0
VERTEX
  5
48245AB
330
48245A2
100
AcDbEntity
  8
NITEN
100
AcDbVertex
100
AcDb3dPolylineVertex
 10
465.398856
 20
269.687438
 30
0.0
 70
    32
  0
VERTEX
  5
48245AC
330
48245A2
100
AcDbEntity
  8
NITEN
100
AcDbVertex
100
AcDb3dPolylineVertex
 10
465.389256
 20
269.646438
 30
0.0
 70
    32
  0
VERTEX
  5
48245AD
330
48245A2
100
AcDbEntity
  8
NITEN
100
AcDbVertex
100
AcDb3dPolylineVertex
 10
465.379756
 20
269.605438
 30
0.0
 70
    32
  0
VERTEX
  5
48245AE
330
48245A2
100
AcDbEntity
  8
NITEN
100
AcDbVertex
100
AcDb3dPolylineVertex
 10
465.370256
 20
269.564438
 30
0.0
 70
    32
  0
VERTEX
  5
48245AF
330
48245A2
100
AcDbEntity
  8
NITEN
100
AcDbVertex
100
AcDb3dPolylineVertex
 10
465.360856
 20
269.523438
 30
0.0
 70
    32
  0
VERTEX
  5
48245B0
330
48245A2
100
AcDbEntity
  8
NITEN
100
AcDbVertex
100
AcDb3dPolylineVertex
 10
465.351556
 20
269.482438
 30
0.0
 70
    32
  0
VERTEX
  5
48245B1
330
48245A2
100
AcDbEntity
  8
NITEN
100
AcDbVertex
100
AcDb3dPolylineVertex
 10
465.342356
 20
269.4404379999999
 30
0.0
 70
    32
  0
VERTEX
  5
48245B2
330
48245A2
100
AcDbEntity
  8
NITEN
100
AcDbVertex
100
AcDb3dPolylineVertex
 10
465.333156
 20
269.3994379999999
 30
0.0
 70
    32
  0
VERTEX
  5
48245B3
330
48245A2
100
AcDbEntity
  8
NITEN
100
AcDbVertex
100
AcDb3dPolylineVertex
 10
465.3240559999999
 20
269.3584379999999
 30
0.0
 70
    32
  0
VERTEX
  5
48245B4
330
48245A2
100
AcDbEntity
  8
NITEN
100
AcDbVertex
100
AcDb3dPolylineVertex
 10
465.315056
 20
269.3174379999999
 30
0.0
 70
    32
  0
VERTEX
  5
48245B5
330
48245A2
100
AcDbEntity
  8
NITEN
100
AcDbVertex
100
AcDb3dPolylineVertex
 10
465.306156
 20
269.2764379999999
 30
0.0
 70
    32
  0
VERTEX
  5
48245B6
330
48245A2
100
AcDbEntity
  8
NITEN
100
AcDbVertex
100
AcDb3dPolylineVertex
 10
465.297256
 20
269.2354379999999
 30
0.0
 70
    32
  0
VERTEX
  5
48245B7
330
48245A2
100
AcDbEntity
  8
NITEN
100
AcDbVertex
100
AcDb3dPolylineVertex
 10
465.288456
 20
269.1944379999999
 30
0.0
 70
    32
  0
VERTEX
  5
48245B8
330
48245A2
100
AcDbEntity
  8
NITEN
100
AcDbVertex
100
AcDb3dPolylineVertex
 10
465.279756
 20
269.1534379999999
 30
0.0
 70
    32
  0
VERTEX
  5
48245B9
330
48245A2
100
AcDbEntity
  8
NITEN
100
AcDbVertex
100
AcDb3dPolylineVertex
 10
465.271156
 20
269.112438
 30
0.0
 70
    32
  0
VERTEX
  5
48245BA
330
48245A2
100
AcDbEntity
  8
NITEN
100
AcDbVertex
100
AcDb3dPolylineVertex
 10
465.2626559999999
 20
269.071438
 30
0.0
 70
    32
  0
VERTEX
  5
48245BB
330
48245A2
100
AcDbEntity
  8
NITEN
100
AcDbVertex
100
AcDb3dPolylineVertex
 10
465.2541559999999
 20
269.0294379999999
 30
0.0
 70
    32
  0
VERTEX
  5
48245BC
330
48245A2
100
AcDbEntity
  8
NITEN
100
AcDbVertex
100
AcDb3dPolylineVertex
 10
465.245756
 20
268.9884379999999
 30
0.0
 70
    32
  0
VERTEX
  5
48245BD
330
48245A2
100
AcDbEntity
  8
NITEN
100
AcDbVertex
100
AcDb3dPolylineVertex
 10
465.237456
 20
268.9474379999999
 30
0.0
 70
    32
  0
VERTEX
  5
48245BE
330
48245A2
100
AcDbEntity
  8
NITEN
100
AcDbVertex
100
AcDb3dPolylineVertex
 10
465.2292559999999
 20
268.906438
 30
0.0
 70
    32
  0
VERTEX
  5
48245BF
330
48245A2
100
AcDbEntity
  8
NITEN
100
AcDbVertex
100
AcDb3dPolylineVertex
 10
465.2210559999999
 20
268.865438
 30
0.0
 70
    32
  0
VERTEX
  5
48245C0
330
48245A2
100
AcDbEntity
  8
NITEN
100
AcDbVertex
100
AcDb3dPolylineVertex
 10
465.2130559999999
 20
268.823438
 30
0.0
 70
    32
  0
VERTEX
  5
48245C1
330
48245A2
100
AcDbEntity
  8
NITEN
100
AcDbVertex
100
AcDb3dPolylineVertex
 10
465.205056
 20
268.782438
 30
0.0
 70
    32
  0
VERTEX
  5
48245C2
330
48245A2
100
AcDbEntity
  8
NITEN
100
AcDbVertex
100
AcDb3dPolylineVertex
 10
465.1970559999999
 20
268.741438
 30
0.0
 70
    32
  0
VERTEX
  5
48245C3
330
48245A2
100
AcDbEntity
  8
NITEN
100
AcDbVertex
100
AcDb3dPolylineVertex
 10
465.189256
 20
268.7004379999999
 30
0.0
 70
    32
  0
VERTEX
  5
48245C4
330
48245A2
100
AcDbEntity
  8
NITEN
100
AcDbVertex
100
AcDb3dPolylineVertex
 10
465.181556
 20
268.6594379999999
 30
0.0
 70
    32
  0
VERTEX
  5
48245C5
330
48245A2
100
AcDbEntity
  8
NITEN
100
AcDbVertex
100
AcDb3dPolylineVertex
 10
465.173856
 20
268.617438
 30
0.0
 70
    32
  0
VERTEX
  5
48245C6
330
48245A2
100
AcDbEntity
  8
NITEN
100
AcDbVertex
100
AcDb3dPolylineVertex
 10
465.166256
 20
268.576438
 30
0.0
 70
    32
  0
VERTEX
  5
48245C7
330
48245A2
100
AcDbEntity
  8
NITEN
100
AcDbVertex
100
AcDb3dPolylineVertex
 10
465.158756
 20
268.535438
 30
0.0
 70
    32
  0
VERTEX
  5
48245C8
330
48245A2
100
AcDbEntity
  8
NITEN
100
AcDbVertex
100
AcDb3dPolylineVertex
 10
465.1513559999999
 20
268.494438
 30
0.0
 70
    32
  0
VERTEX
  5
48245C9
330
48245A2
100
AcDbEntity
  8
NITEN
100
AcDbVertex
100
AcDb3dPolylineVertex
 10
465.143956
 20
268.4524379999999
 30
0.0
 70
    32
  0
VERTEX
  5
48245CA
330
48245A2
100
AcDbEntity
  8
NITEN
100
AcDbVertex
100
AcDb3dPolylineVertex
 10
465.1367559999999
 20
268.411438
 30
0.0
 70
    32
  0
VERTEX
  5
48245CB
330
48245A2
100
AcDbEntity
  8
NITEN
100
AcDbVertex
100
AcDb3dPolylineVertex
 10
465.129556
 20
268.370438
 30
0.0
 70
    32
  0
VERTEX
  5
48245CC
330
48245A2
100
AcDbEntity
  8
NITEN
100
AcDbVertex
100
AcDb3dPolylineVertex
 10
465.122456
 20
268.3284379999999
 30
0.0
 70
    32
  0
VERTEX
  5
48245CD
330
48245A2
100
AcDbEntity
  8
NITEN
100
AcDbVertex
100
AcDb3dPolylineVertex
 10
465.115456
 20
268.287438
 30
0.0
 70
    32
  0
VERTEX
  5
48245CE
330
48245A2
100
AcDbEntity
  8
NITEN
100
AcDbVertex
100
AcDb3dPolylineVertex
 10
465.108456
 20
268.246438
 30
0.0
 70
    32
  0
VERTEX
  5
48245CF
330
48245A2
100
AcDbEntity
  8
NITEN
100
AcDbVertex
100
AcDb3dPolylineVertex
 10
465.101656
 20
268.2044379999999
 30
0.0
 70
    32
  0
VERTEX
  5
48245D0
330
48245A2
100
AcDbEntity
  8
NITEN
100
AcDbVertex
100
AcDb3dPolylineVertex
 10
465.0948559999999
 20
268.1634379999999
 30
0.0
 70
    32
  0
VERTEX
  5
48245D1
330
48245A2
100
AcDbEntity
  8
NITEN
100
AcDbVertex
100
AcDb3dPolylineVertex
 10
465.088156
 20
268.1224379999999
 30
0.0
 70
    32
  0
VERTEX
  5
48245D2
330
48245A2
100
AcDbEntity
  8
NITEN
100
AcDbVertex
100
AcDb3dPolylineVertex
 10
465.0815559999999
 20
268.080438
 30
0.0
 70
    32
  0
VERTEX
  5
48245D3
330
48245A2
100
AcDbEntity
  8
NITEN
100
AcDbVertex
100
AcDb3dPolylineVertex
 10
465.075056
 20
268.0394379999999
 30
0.0
 70
    32
  0
VERTEX
  5
48245D4
330
48245A2
100
AcDbEntity
  8
NITEN
100
AcDbVertex
100
AcDb3dPolylineVertex
 10
465.068656
 20
267.9984379999999
 30
0.0
 70
    32
  0
VERTEX
  5
48245D5
330
48245A2
100
AcDbEntity
  8
NITEN
100
AcDbVertex
100
AcDb3dPolylineVertex
 10
465.062256
 20
267.9564379999999
 30
0.0
 70
    32
  0
VERTEX
  5
48245D6
330
48245A2
100
AcDbEntity
  8
NITEN
100
AcDbVertex
100
AcDb3dPolylineVertex
 10
465.056056
 20
267.9154379999999
 30
0.0
 70
    32
  0
VERTEX
  5
48245D7
330
48245A2
100
AcDbEntity
  8
NITEN
100
AcDbVertex
100
AcDb3dPolylineVertex
 10
465.0498559999999
 20
267.8734379999999
 30
0.0
 70
    32
  0
VERTEX
  5
48245D8
330
48245A2
100
AcDbEntity
  8
NITEN
100
AcDbVertex
100
AcDb3dPolylineVertex
 10
465.043756
 20
267.8324379999999
 30
0.0
 70
    32
  0
VERTEX
  5
48245D9
330
48245A2
100
AcDbEntity
  8
NITEN
100
AcDbVertex
100
AcDb3dPolylineVertex
 10
465.0377559999999
 20
267.7914379999999
 30
0.0
 70
    32
  0
VERTEX
  5
48245DA
330
48245A2
100
AcDbEntity
  8
NITEN
100
AcDbVertex
100
AcDb3dPolylineVertex
 10
465.031856
 20
267.749438
 30
0.0
 70
    32
  0
VERTEX
  5
48245DB
330
48245A2
100
AcDbEntity
  8
NITEN
100
AcDbVertex
100
AcDb3dPolylineVertex
 10
465.025956
 20
267.708438
 30
0.0
 70
    32
  0
VERTEX
  5
48245DC
330
48245A2
100
AcDbEntity
  8
NITEN
100
AcDbVertex
100
AcDb3dPolylineVertex
 10
465.020256
 20
267.6664379999999
 30
0.0
 70
    32
  0
VERTEX
  5
48245DD
330
48245A2
100
AcDbEntity
  8
NITEN
100
AcDbVertex
100
AcDb3dPolylineVertex
 10
465.0145559999999
 20
267.6254379999999
 30
0.0
 70
    32
  0
VERTEX
  5
48245DE
330
48245A2
100
AcDbEntity
  8
NITEN
100
AcDbVertex
100
AcDb3dPolylineVertex
 10
465.008956
 20
267.584438
 30
0.0
 70
    32
  0
VERTEX
  5
48245DF
330
48245A2
100
AcDbEntity
  8
NITEN
100
AcDbVertex
100
AcDb3dPolylineVertex
 10
465.003456
 20
267.5424379999999
 30
0.0
 70
    32
  0
VERTEX
  5
48245E0
330
48245A2
100
AcDbEntity
  8
NITEN
100
AcDbVertex
100
AcDb3dPolylineVertex
 10
464.998056
 20
267.5014379999999
 30
0.0
 70
    32
  0
VERTEX
  5
48245E1
330
48245A2
100
AcDbEntity
  8
NITEN
100
AcDbVertex
100
AcDb3dPolylineVertex
 10
464.992756
 20
267.4594379999999
 30
0.0
 70
    32
  0
VERTEX
  5
48245E2
330
48245A2
100
AcDbEntity
  8
NITEN
100
AcDbVertex
100
AcDb3dPolylineVertex
 10
464.9875559999999
 20
267.4184379999999
 30
0.0
 70
    32
  0
VERTEX
  5
48245E3
330
48245A2
100
AcDbEntity
  8
NITEN
100
AcDbVertex
100
AcDb3dPolylineVertex
 10
464.9824559999999
 20
267.376438
 30
0.0
 70
    32
  0
VERTEX
  5
48245E4
330
48245A2
100
AcDbEntity
  8
NITEN
100
AcDbVertex
100
AcDb3dPolylineVertex
 10
464.9773559999999
 20
267.335438
 30
0.0
 70
    32
  0
VERTEX
  5
48245E5
330
48245A2
100
AcDbEntity
  8
NITEN
100
AcDbVertex
100
AcDb3dPolylineVertex
 10
464.972456
 20
267.294438
 30
0.0
 70
    32
  0
VERTEX
  5
48245E6
330
48245A2
100
AcDbEntity
  8
NITEN
100
AcDbVertex
100
AcDb3dPolylineVertex
 10
464.967556
 20
267.252438
 30
0.0
 70
    32
  0
VERTEX
  5
48245E7
330
48245A2
100
AcDbEntity
  8
NITEN
100
AcDbVertex
100
AcDb3dPolylineVertex
 10
464.9627559999999
 20
267.211438
 30
0.0
 70
    32
  0
VERTEX
  5
48245E8
330
48245A2
100
AcDbEntity
  8
NITEN
100
AcDbVertex
100
AcDb3dPolylineVertex
 10
464.958056
 20
267.169438
 30
0.0
 70
    32
  0
VERTEX
  5
48245E9
330
48245A2
100
AcDbEntity
  8
NITEN
100
AcDbVertex
100
AcDb3dPolylineVertex
 10
464.953456
 20
267.128438
 30
0.0
 70
    32
  0
VERTEX
  5
48245EA
330
48245A2
100
AcDbEntity
  8
NITEN
100
AcDbVertex
100
AcDb3dPolylineVertex
 10
464.948956
 20
267.0864379999999
 30
0.0
 70
    32
  0
VERTEX
  5
48245EB
330
48245A2
100
AcDbEntity
  8
NITEN
100
AcDbVertex
100
AcDb3dPolylineVertex
 10
464.944556
 20
267.0454379999999
 30
0.0
 70
    32
  0
VERTEX
  5
48245EC
330
48245A2
100
AcDbEntity
  8
NITEN
100
AcDbVertex
100
AcDb3dPolylineVertex
 10
464.940156
 20
267.003438
 30
0.0
 70
    32
  0
VERTEX
  5
48245ED
330
48245A2
100
AcDbEntity
  8
NITEN
100
AcDbVertex
100
AcDb3dPolylineVertex
 10
464.935956
 20
266.9624379999999
 30
0.0
 70
    32
  0
VERTEX
  5
48245EE
330
48245A2
100
AcDbEntity
  8
NITEN
100
AcDbVertex
100
AcDb3dPolylineVertex
 10
464.931756
 20
266.920438
 30
0.0
 70
    32
  0
VERTEX
  5
48245EF
330
48245A2
100
AcDbEntity
  8
NITEN
100
AcDbVertex
100
AcDb3dPolylineVertex
 10
464.9277559999999
 20
266.879438
 30
0.0
 70
    32
  0
VERTEX
  5
48245F0
330
48245A2
100
AcDbEntity
  8
NITEN
100
AcDbVertex
100
AcDb3dPolylineVertex
 10
464.923756
 20
266.8374379999999
 30
0.0
 70
    32
  0
VERTEX
  5
48245F1
330
48245A2
100
AcDbEntity
  8
NITEN
100
AcDbVertex
100
AcDb3dPolylineVertex
 10
464.919856
 20
266.7964379999999
 30
0.0
 70
    32
  0
VERTEX
  5
48245F2
330
48245A2
100
AcDbEntity
  8
NITEN
100
AcDbVertex
100
AcDb3dPolylineVertex
 10
464.916056
 20
266.7544379999999
 30
0.0
 70
    32
  0
VERTEX
  5
48245F3
330
48245A2
100
AcDbEntity
  8
NITEN
100
AcDbVertex
100
AcDb3dPolylineVertex
 10
464.912456
 20
266.7134379999999
 30
0.0
 70
    32
  0
VERTEX
  5
48245F4
330
48245A2
100
AcDbEntity
  8
NITEN
100
AcDbVertex
100
AcDb3dPolylineVertex
 10
464.908856
 20
266.672438
 30
0.0
 70
    32
  0
VERTEX
  5
48245F5
330
48245A2
100
AcDbEntity
  8
NITEN
100
AcDbVertex
100
AcDb3dPolylineVertex
 10
464.905256
 20
266.6304379999999
 30
0.0
 70
    32
  0
VERTEX
  5
48245F6
330
48245A2
100
AcDbEntity
  8
NITEN
100
AcDbVertex
100
AcDb3dPolylineVertex
 10
464.901856
 20
266.5894379999999
 30
0.0
 70
    32
  0
VERTEX
  5
48245F7
330
48245A2
100
AcDbEntity
  8
NITEN
100
AcDbVertex
100
AcDb3dPolylineVertex
 10
464.8985559999999
 20
266.547438
 30
0.0
 70
    32
  0
VERTEX
  5
48245F8
330
48245A2
100
AcDbEntity
  8
NITEN
100
AcDbVertex
100
AcDb3dPolylineVertex
 10
464.8953559999999
 20
266.506438
 30
0.0
 70
    32
  0
VERTEX
  5
48245F9
330
48245A2
100
AcDbEntity
  8
NITEN
100
AcDbVertex
100
AcDb3dPolylineVertex
 10
464.8921559999999
 20
266.4644379999999
 30
0.0
 70
    32
  0
VERTEX
  5
48245FA
330
48245A2
100
AcDbEntity
  8
NITEN
100
AcDbVertex
100
AcDb3dPolylineVertex
 10
464.889156
 20
266.4234379999999
 30
0.0
 70
    32
  0
VERTEX
  5
48245FB
330
48245A2
100
AcDbEntity
  8
NITEN
100
AcDbVertex
100
AcDb3dPolylineVertex
 10
464.886156
 20
266.381438
 30
0.0
 70
    32
  0
VERTEX
  5
48245FC
330
48245A2
100
AcDbEntity
  8
NITEN
100
AcDbVertex
100
AcDb3dPolylineVertex
 10
464.8833559999999
 20
266.340438
 30
0.0
 70
    32
  0
VERTEX
  5
48245FD
330
48245A2
100
AcDbEntity
  8
NITEN
100
AcDbVertex
100
AcDb3dPolylineVertex
 10
464.880556
 20
266.2984379999999
 30
0.0
 70
    32
  0
VERTEX
  5
48245FE
330
48245A2
100
AcDbEntity
  8
NITEN
100
AcDbVertex
100
AcDb3dPolylineVertex
 10
464.877956
 20
266.2574379999999
 30
0.0
 70
    32
  0
VERTEX
  5
48245FF
330
48245A2
100
AcDbEntity
  8
NITEN
100
AcDbVertex
100
AcDb3dPolylineVertex
 10
464.875356
 20
266.215438
 30
0.0
 70
    32
  0
VERTEX
  5
4824600
330
48245A2
100
AcDbEntity
  8
NITEN
100
AcDbVertex
100
AcDb3dPolylineVertex
 10
464.872856
 20
266.174438
 30
0.0
 70
    32
  0
VERTEX
  5
4824601
330
48245A2
100
AcDbEntity
  8
NITEN
100
AcDbVertex
100
AcDb3dPolylineVertex
 10
464.8704559999999
 20
266.1324379999999
 30
0.0
 70
    32
  0
VERTEX
  5
4824602
330
48245A2
100
AcDbEntity
  8
NITEN
100
AcDbVertex
100
AcDb3dPolylineVertex
 10
464.868256
 20
266.0914379999999
 30
0.0
 70
    32
  0
VERTEX
  5
4824603
330
48245A2
100
AcDbEntity
  8
NITEN
100
AcDbVertex
100
AcDb3dPolylineVertex
 10
464.866056
 20
266.049438
 30
0.0
 70
    32
  0
VERTEX
  5
4824604
330
48245A2
100
AcDbEntity
  8
NITEN
100
AcDbVertex
100
AcDb3dPolylineVertex
 10
464.863956
 20
266.008438
 30
0.0
 70
    32
  0
VERTEX
  5
4824605
330
48245A2
100
AcDbEntity
  8
NITEN
100
AcDbVertex
100
AcDb3dPolylineVertex
 10
464.8619559999999
 20
265.9664379999999
 30
0.0
 70
    32
  0
VERTEX
  5
4824606
330
48245A2
100
AcDbEntity
  8
NITEN
100
AcDbVertex
100
AcDb3dPolylineVertex
 10
464.860056
 20
265.9254379999999
 30
0.0
 70
    32
  0
VERTEX
  5
4824607
330
48245A2
100
AcDbEntity
  8
NITEN
100
AcDbVertex
100
AcDb3dPolylineVertex
 10
464.858256
 20
265.883438
 30
0.0
 70
    32
  0
VERTEX
  5
4824608
330
48245A2
100
AcDbEntity
  8
NITEN
100
AcDbVertex
100
AcDb3dPolylineVertex
 10
464.856556
 20
265.842438
 30
0.0
 70
    32
  0
VERTEX
  5
4824609
330
48245A2
100
AcDbEntity
  8
NITEN
100
AcDbVertex
100
AcDb3dPolylineVertex
 10
464.854956
 20
265.8004379999999
 30
0.0
 70
    32
  0
VERTEX
  5
482460A
330
48245A2
100
AcDbEntity
  8
NITEN
100
AcDbVertex
100
AcDb3dPolylineVertex
 10
464.8534559999999
 20
265.7594379999999
 30
0.0
 70
    32
  0
VERTEX
  5
482460B
330
48245A2
100
AcDbEntity
  8
NITEN
100
AcDbVertex
100
AcDb3dPolylineVertex
 10
464.852056
 20
265.717438
 30
0.0
 70
    32
  0
VERTEX
  5
482460C
330
48245A2
100
AcDbEntity
  8
NITEN
100
AcDbVertex
100
AcDb3dPolylineVertex
 10
464.8507559999999
 20
265.6764379999999
 30
0.0
 70
    32
  0
VERTEX
  5
482460D
330
48245A2
100
AcDbEntity
  8
NITEN
100
AcDbVertex
100
AcDb3dPolylineVertex
 10
464.849456
 20
265.6344379999999
 30
0.0
 70
    32
  0
VERTEX
  5
482460E
330
48245A2
100
AcDbEntity
  8
NITEN
100
AcDbVertex
100
AcDb3dPolylineVertex
 10
464.8483559999999
 20
265.593438
 30
0.0
 70
    32
  0
VERTEX
  5
482460F
330
48245A2
100
AcDbEntity
  8
NITEN
100
AcDbVertex
100
AcDb3dPolylineVertex
 10
464.847356
 20
265.5514379999999
 30
0.0
 70
    32
  0
VERTEX
  5
4824610
330
48245A2
100
AcDbEntity
  8
NITEN
100
AcDbVertex
100
AcDb3dPolylineVertex
 10
464.8464559999999
 20
265.5104379999999
 30
0.0
 70
    32
  0
VERTEX
  5
4824611
330
48245A2
100
AcDbEntity
  8
NITEN
100
AcDbVertex
100
AcDb3dPolylineVertex
 10
464.8456559999999
 20
265.4694379999999
 30
0.0
 70
    32
  0
VERTEX
  5
4824612
330
48245A2
100
AcDbEntity
  8
NITEN
100
AcDbVertex
100
AcDb3dPolylineVertex
 10
464.844956
 20
265.4274379999999
 30
0.0
 70
    32
  0
VERTEX
  5
4824613
330
48245A2
100
AcDbEntity
  8
NITEN
100
AcDbVertex
100
AcDb3dPolylineVertex
 10
464.8442559999999
 20
265.3864379999999
 30
0.0
 70
    32
  0
VERTEX
  5
4824614
330
48245A2
100
AcDbEntity
  8
NITEN
100
AcDbVertex
100
AcDb3dPolylineVertex
 10
464.8437559999999
 20
265.3444379999999
 30
0.0
 70
    32
  0
VERTEX
  5
4824615
330
48245A2
100
AcDbEntity
  8
NITEN
100
AcDbVertex
100
AcDb3dPolylineVertex
 10
464.8433559999999
 20
265.3034379999999
 30
0.0
 70
    32
  0
VERTEX
  5
4824616
330
48245A2
100
AcDbEntity
  8
NITEN
100
AcDbVertex
100
AcDb3dPolylineVertex
 10
464.843056
 20
265.261438
 30
0.0
 70
    32
  0
VERTEX
  5
4824617
330
48245A2
100
AcDbEntity
  8
NITEN
100
AcDbVertex
100
AcDb3dPolylineVertex
 10
464.842856
 20
265.220438
 30
0.0
 70
    32
  0
VERTEX
  5
4824618
330
48245A2
100
AcDbEntity
  8
NITEN
100
AcDbVertex
100
AcDb3dPolylineVertex
 10
464.842756
 20
265.1784379999999
 30
0.0
 70
    32
  0
VERTEX
  5
4824619
330
48245A2
100
AcDbEntity
  8
NITEN
100
AcDbVertex
100
AcDb3dPolylineVertex
 10
464.842756
 20
265.1374379999999
 30
0.0
 70
    32
  0
VERTEX
  5
482461A
330
48245A2
100
AcDbEntity
  8
NITEN
100
AcDbVertex
100
AcDb3dPolylineVertex
 10
464.842756
 20
265.096438
 30
0.0
 70
    32
  0
VERTEX
  5
482461B
330
48245A2
100
AcDbEntity
  8
NITEN
100
AcDbVertex
100
AcDb3dPolylineVertex
 10
464.842956
 20
265.0544379999999
 30
0.0
 70
    32
  0
VERTEX
  5
482461C
330
48245A2
100
AcDbEntity
  8
NITEN
100
AcDbVertex
100
AcDb3dPolylineVertex
 10
464.8432559999999
 20
265.013438
 30
0.0
 70
    32
  0
VERTEX
  5
482461D
330
48245A2
100
AcDbEntity
  8
NITEN
100
AcDbVertex
100
AcDb3dPolylineVertex
 10
464.843656
 20
264.9714379999999
 30
0.0
 70
    32
  0
VERTEX
  5
482461E
330
48245A2
100
AcDbEntity
  8
NITEN
100
AcDbVertex
100
AcDb3dPolylineVertex
 10
464.844156
 20
264.9304379999999
 30
0.0
 70
    32
  0
VERTEX
  5
482461F
330
48245A2
100
AcDbEntity
  8
NITEN
100
AcDbVertex
100
AcDb3dPolylineVertex
 10
464.844756
 20
264.8894379999999
 30
0.0
 70
    32
  0
VERTEX
  5
4824620
330
48245A2
100
AcDbEntity
  8
NITEN
100
AcDbVertex
100
AcDb3dPolylineVertex
 10
464.845456
 20
264.847438
 30
0.0
 70
    32
  0
VERTEX
  5
4824621
330
48245A2
100
AcDbEntity
  8
NITEN
100
AcDbVertex
100
AcDb3dPolylineVertex
 10
464.8462559999999
 20
264.806438
 30
0.0
 70
    32
  0
VERTEX
  5
4824622
330
48245A2
100
AcDbEntity
  8
NITEN
100
AcDbVertex
100
AcDb3dPolylineVertex
 10
464.847256
 20
264.764438
 30
0.0
 70
    32
  0
SEQEND
  5
4824623
330
48245A2
100
AcDbEntity
  8
NITEN
  0
LINE
  5
4824624
330
4823B0C
100
AcDbEntity
  8
NITEN
100
AcDbLine
 10
469.6338329999999
 20
264.7648209999999
 30
0.0
 11
469.6338329999999
 21
256.2648209999999
 31
0.0
  0
LINE
  5
4824625
330
4823B0C
100
AcDbEntity
  8
NITEN
100
AcDbLine
 10
468.901782
 20
254.2648209999999
 30
0.0
 11
468.636282
 21
254.2648209999999
 31
0.0
  0
ARC
  5
4824626
330
4823B0C
100
AcDbEntity
  8
NITEN
100
AcDbCircle
 10
468.636282
 20
252.2648209999999
 30
0.0
 40
2.0
100
AcDbArc
 50
90.0
 51
144.4011409999999
  0
LINE
  5
4824627
330
4823B0C
100
AcDbEntity
  8
NITEN
100
AcDbLine
 10
465.969619
 20
252.3506069999999
 30
0.0
 11
466.7980459999999
 21
253.1790339999999
 31
0.0
  0
ARC
  5
4824628
330
4823B0C
100
AcDbEntity
  8
NITEN
100
AcDbCircle
 10
465.383833
 20
254.5932479999999
 30
0.0
 40
2.0
100
AcDbArc
 50
315.0
 51
324.401141
  0
ARC
  5
4824629
330
4823B0C
100
AcDbEntity
  8
NITEN
100
AcDbCircle
 10
470.633833
 20
254.2648209999999
 30
0.0
 40
1.0
100
AcDbArc
 50
90.0
 51
150.0
  0
ARC
  5
482462A
330
4823B0C
100
AcDbEntity
  8
NITEN
100
AcDbCircle
 10
468.901782
 20
255.264821
 30
0.0
 40
1.0
100
AcDbArc
 50
270.0
 51
330.0
  0
ARC
  5
482462B
330
4823B0C
100
AcDbEntity
  8
NITEN
100
AcDbCircle
 10
465.413667
 20
273.05222
 30
0.0
 40
1.834481999999999
100
AcDbArc
 50
283.0090819999999
 51
336.9087819999999
  0
ARC
  5
482462C
330
4823B0C
100
AcDbEntity
  8
NITEN
100
AcDbCircle
 10
490.6338329999999
 20
252.664316
 30
0.0
 40
7.0
100
AcDbArc
 50
180.0
 51
225.0
  0
ARC
  5
482462D
330
4823B0C
100
AcDbEntity
  8
NITEN
100
AcDbCircle
 10
490.6338329999999
 20
252.664316
 30
0.0
 40
10.0
100
AcDbArc
 50
180.0
 51
225.0
  0
LINE
  5
482462E
330
4823B0C
100
AcDbEntity
  8
NITEN
100
AcDbLine
 10
483.562765
 20
245.5932479999999
 30
0.0
 11
485.684085
 21
247.714568
 31
0.0
  0
LINE
  5
482462F
330
4823B0C
100
AcDbEntity
  8
NITEN
100
AcDbLine
 10
485.6338329999999
 20
265.380846
 30
0.0
 11
483.633833
 21
261.916744
 31
0.0
  0
LINE
  5
4824630
330
4823B0C
100
AcDbEntity
  8
NITEN
100
AcDbLine
 10
480.133833
 20
264.7648209999999
 30
0.0
 11
480.133833
 21
255.264821
 31
0.0
  0
LINE
  5
4824631
330
4823B0C
100
AcDbEntity
  8
NITEN
100
AcDbLine
 10
485.6338329999999
 20
257.0648209999999
 30
0.0
 11
485.6338329999999
 21
272.4648209999999
 31
0.0
  0
ARC
  5
4824632
330
4823B0C
100
AcDbEntity
  8
NITEN
100
AcDbCircle
 10
498.053276
 20
264.7648209999999
 30
0.0
 40
12.419443
100
AcDbArc
 50
162.412046
 51
197.5879539999999
  0
LINE
  5
4824633
330
4823B0C
100
AcDbEntity
  8
NITEN
100
AcDbLine
 10
480.133833
 20
255.7648209999999
 30
0.0
 11
480.6338329999999
 21
255.7648209999999
 31
0.0
  0
LINE
  5
4824634
330
4823B0C
100
AcDbEntity
  8
NITEN
100
AcDbLine
 10
485.6338329999999
 20
257.0648209999999
 30
0.0
 11
483.633833
 21
257.0648209999999
 31
0.0
  0
ARC
  5
4824635
330
4823B0C
100
AcDbEntity
  8
NITEN
100
AcDbCircle
 10
488.956402
 20
259.1356549999999
 30
0.0
 40
3.322569999999999
100
AcDbArc
 50
145.615753
 51
214.384247
  0
LINE
  5
4824636
330
4823B0C
100
AcDbEntity
  8
NITEN
100
AcDbLine
 10
485.6338329999999
 20
258.2648209999999
 30
0.0
 11
486.2143889999999
 21
257.2592669999999
 31
0.0
  0
LINE
  5
4824637
330
4823B0C
100
AcDbEntity
  8
NITEN
100
AcDbLine
 10
485.6338329999999
 20
272.4648209999999
 30
0.0
 11
483.633833
 21
272.4648209999999
 31
0.0
  0
ARC
  5
4824638
330
4823B0C
100
AcDbEntity
  8
NITEN
100
AcDbCircle
 10
488.956402
 20
270.3939859999999
 30
0.0
 40
3.322569999999999
100
AcDbArc
 50
145.615753
 51
214.384247
  0
LINE
  5
4824639
330
4823B0C
100
AcDbEntity
  8
NITEN
100
AcDbLine
 10
485.6338329999999
 20
271.2648209999999
 30
0.0
 11
486.2143889999999
 21
272.270374
 31
0.0
  0
LINE
  5
482463A
330
4823B0C
100
AcDbEntity
  8
NITEN
100
AcDbLine
 10
485.6338329999999
 20
267.380846
 30
0.0
 11
483.633833
 21
263.916744
 31
0.0
  0
LINE
  5
482463B
330
4823B0C
100
AcDbEntity
  8
NITEN
100
AcDbLine
 10
496.6226709999999
 20
230.821197
 30
0.0
 11
495.6817389644824
 21
151.7886305610282
 31
0.0
  0
LINE
  5
482463C
330
4823B0C
100
AcDbEntity
  8
NITEN
100
AcDbLine
 10
501.491655
 20
231.597268
 30
0.0
 11
502.5789636437822
 21
151.7920675386747
 31
0.0
  0
ARC
  5
482463F
330
4823B0C
100
AcDbEntity
  8
NITEN
100
AcDbCircle
 10
495.4922119999999
 20
231.515529
 30
0.0
 40
6.0
100
AcDbArc
 50
0.78058
 51
49.665869
  0
ARC
  5
4824640
330
4823B0C
100
AcDbEntity
  8
NITEN
100
AcDbCircle
 10
493.622883
 20
230.856911
 30
0.0
 40
3.0
100
AcDbArc
 50
359.3178899999999
 51
43.999752
  0
LINE
  5
4824641
330
4823B0C
100
AcDbEntity
  8
NITEN
100
AcDbLine
 10
493.433833
 20
261.764821
 30
0.0
 11
493.433833
 21
264.7648209999999
 31
0.0
  0
LINE
  5
4824642
330
4823B0C
100
AcDbEntity
  8
NITEN
100
AcDbLine
 10
492.433833
 20
260.7648209999999
 30
0.0
 11
492.433833
 21
264.7648209999999
 31
0.0
  0
ARC
  5
4824643
330
4823B0C
100
AcDbEntity
  8
NITEN
100
AcDbCircle
 10
478.2143889999999
 20
264.7648209999999
 30
0.0
 40
12.419443
100
AcDbArc
 50
342.4120459999999
 51
17.587954
  0
LINE
  5
4824644
330
4823B0C
100
AcDbEntity
  8
NITEN
100
AcDbLine
 10
490.6338329999999
 20
258.2648209999999
 30
0.0
 11
490.6338329999999
 21
271.2648209999999
 31
0.0
  0
ARC
  5
4824645
330
4823B0C
100
AcDbEntity
  8
NITEN
100
AcDbCircle
 10
487.311263
 20
259.1356549999999
 30
0.0
 40
3.322569999999999
100
AcDbArc
 50
325.6157529999999
 51
34.38424699999999
  0
LINE
  5
4824646
330
4823B0C
100
AcDbEntity
  8
NITEN
100
AcDbLine
 10
490.6338329999999
 20
258.2648209999999
 30
0.0
 11
490.0532759999999
 21
257.2592669999999
 31
0.0
  0
LINE
  5
4824647
330
4823B0C
100
AcDbEntity
  8
NITEN
100
AcDbLine
 10
490.6338329999999
 20
260.7648209999999
 30
0.0
 11
492.433833
 21
260.7648209999999
 31
0.0
  0
LINE
  5
4824648
330
4823B0C
100
AcDbEntity
  8
NITEN
100
AcDbLine
 10
493.1338329999999
 20
261.4648209999999
 30
0.0
 11
490.6338329999999
 21
261.4648209999999
 31
0.0
  0
LINE
  5
4824649
330
4823B0C
100
AcDbEntity
  8
NITEN
100
AcDbLine
 10
492.433833
 20
260.7648209999999
 30
0.0
 11
493.433833
 21
261.764821
 31
0.0
  0
ARC
  5
482464A
330
4823B0C
100
AcDbEntity
  8
NITEN
100
AcDbCircle
 10
487.311263
 20
270.3939859999999
 30
0.0
 40
3.322569999999999
100
AcDbArc
 50
325.6157529999999
 51
34.38424699999999
  0
LINE
  5
482464B
330
4823B0C
100
AcDbEntity
  8
NITEN
100
AcDbLine
 10
490.6338329999999
 20
271.2648209999999
 30
0.0
 11
490.0532759999999
 21
272.270374
 31
0.0
  0
LINE
  5
482464C
330
4823B0C
100
AcDbEntity
  8
NITEN
100
AcDbLine
 10
490.6338329999999
 20
268.7648209999999
 30
0.0
 11
492.433833
 21
268.7648209999999
 31
0.0
  0
LINE
  5
482464D
330
4823B0C
100
AcDbEntity
  8
NITEN
100
AcDbLine
 10
493.1338329999999
 20
268.064821
 30
0.0
 11
490.6338329999999
 21
268.064821
 31
0.0
  0
LINE
  5
482464E
330
4823B0C
100
AcDbEntity
  8
NITEN
100
AcDbLine
 10
493.433833
 20
267.764821
 30
0.0
 11
493.433833
 21
264.7648209999999
 31
0.0
  0
LINE
  5
482464F
330
4823B0C
100
AcDbEntity
  8
NITEN
100
AcDbLine
 10
492.433833
 20
268.7648209999999
 30
0.0
 11
492.433833
 21
264.7648209999999
 31
0.0
  0
LINE
  5
4824650
330
4823B0C
100
AcDbEntity
  8
NITEN
100
AcDbLine
 10
492.433833
 20
268.7648209999999
 30
0.0
 11
493.433833
 21
267.764821
 31
0.0
  0
LINE
  5
4824651
330
4823B0C
100
AcDbEntity
  8
NITEN
100
AcDbLine
 10
428.9097879999999
 20
303.34106
 30
0.0
 11
430.785527
 21
303.34106
 31
0.0
  0
LINE
  5
4824652
330
4823B0C
100
AcDbEntity
  8
NITEN
100
AcDbLine
 10
419.6338329999999
 20
282.7648209999999
 30
0.0
 11
444.383833
 21
282.7648209999999
 31
0.0
  0
LINE
  5
4824653
330
4823B0C
100
AcDbEntity
  8
NITEN
100
AcDbLine
 10
420.6338329999999
 20
285.7648209999999
 30
0.0
 11
444.383833
 21
285.7648209999999
 31
0.0
  0
LINE
  5
4824654
330
4823B0C
100
AcDbEntity
  8
NITEN
100
AcDbLine
 10
421.133833
 20
278.7648209999999
 30
0.0
 11
444.383833
 21
278.7648209999999
 31
0.0
  0
LINE
  5
4824655
330
4823B0C
100
AcDbEntity
  8
NITEN
100
AcDbLine
 10
425.3838329999999
 20
304.2648209999999
 30
0.0
 11
444.383833
 21
304.2648209999999
 31
0.0
  0
CIRCLE
  5
4824656
330
4823B0C
100
AcDbEntity
  8
JISSEN
100
AcDbCircle
 10
444.383833
 20
430.818074
 30
0.0
 40
18.0
  0
LWPOLYLINE
  5
4824657
330
4823B0C
100
AcDbEntity
  8
HASEN
100
AcDbPolyline
 90
        4
 70
     0
 43
0.0
 10
427.383833
 20
354.140655
 42
-0.411765
 10
444.383833
 20
354.140655
 42
0.411765
 10
461.383833
 20
354.140655
 42
0.411765
 10
444.383833
 20
354.140655
  0
LINE
  5
4824658
330
4823B0C
100
AcDbEntity
  8
NITEN
100
AcDbLine
 10
473.383833
 20
313.093115
 30
0.0
 11
406.383833
 21
313.093115
 31
0.0
  0
LINE
  5
4824659
330
4823B0C
100
AcDbEntity
  8
NITEN
100
AcDbLine
 10
406.383833
 20
325.0931149999999
 30
0.0
 11
473.383833
 21
325.0931149999999
 31
0.0
  0
LINE
  5
482465A
330
4823B0C
100
AcDbEntity
  8
NITEN
100
AcDbLine
 10
427.383833
 20
308.2648209999999
 30
0.0
 11
461.383833
 21
308.2648209999999
 31
0.0
  0
LINE
  5
482465B
330
4823B0C
100
AcDbEntity
  8
NITEN
100
AcDbLine
 10
415.383833
 20
325.0931149999999
 30
0.0
 11
415.383833
 21
313.093115
 31
0.0
  0
CIRCLE
  5
482465C
330
4823B0C
100
AcDbEntity
  8
TENSEN
100
AcDbCircle
 10
421.3838329999999
 20
319.093115
 30
0.0
 40
4.5
  0
CIRCLE
  5
482465D
330
4823B0C
100
AcDbEntity
  8
TENSEN
100
AcDbCircle
 10
421.3838329999999
 20
319.093115
 30
0.0
 40
6.0
  0
LINE
  5
482465E
330
4823B0C
100
AcDbEntity
  8
NITEN
100
AcDbLine
 10
427.383833
 20
304.2648209999999
 30
0.0
 11
427.383833
 21
354.140655
 31
0.0
  0
LINE
  5
482465F
330
4823B0C
100
AcDbEntity
  8
NITEN
100
AcDbLine
 10
423.783833
 20
303.34106
 30
0.0
 11
423.783833
 21
287.7648209999999
 31
0.0
  0
LINE
  5
4824660
330
4823B0C
100
AcDbEntity
  8
NITEN
100
AcDbLine
 10
428.9097879999999
 20
303.34106
 30
0.0
 11
428.9097879999999
 21
287.7648209999999
 31
0.0
  0
ARC
  5
4824661
330
4823B0C
100
AcDbEntity
  8
NITEN
100
AcDbCircle
 10
421.783833
 20
287.7648209999999
 30
0.0
 40
2.0
100
AcDbArc
 50
270.0
 51
0.0
  0
LINE
  5
4824662
330
4823B0C
100
AcDbEntity
  8
NITEN
100
AcDbLine
 10
419.6338329999999
 20
284.764821
 30
0.0
 11
419.6338329999999
 21
282.7648209999999
 31
0.0
  0
LINE
  5
4824663
330
4823B0C
100
AcDbEntity
  8
NITEN
100
AcDbLine
 10
419.6338329999999
 20
282.7648209999999
 30
0.0
 11
419.6338329999999
 21
280.087696
 31
0.0
  0
ARC
  5
4824664
330
4823B0C
100
AcDbEntity
  8
NITEN
100
AcDbCircle
 10
418.6338329999999
 20
277.441945
 30
0.0
 40
2.0
100
AcDbArc
 50
0.0
 51
41.40962199999999
  0
ARC
  5
4824665
330
4823B0C
100
AcDbEntity
  8
NITEN
100
AcDbCircle
 10
421.633833
 20
280.087696
 30
0.0
 40
2.0
100
AcDbArc
 50
180.0
 51
221.409622
  0
LINE
  5
4824666
330
4823B0C
100
AcDbEntity
  8
NITEN
100
AcDbLine
 10
420.6338329999999
 20
285.7648209999999
 30
0.0
 11
420.8838329999999
 21
285.7648209999999
 31
0.0
  0
ARC
  5
4824667
330
4823B0C
100
AcDbEntity
  8
NITEN
100
AcDbCircle
 10
420.6338329999999
 20
284.764821
 30
0.0
 40
1.0
100
AcDbArc
 50
90.0
 51
180.0
  0
LWPOLYLINE
  5
4824668
330
4823B0C
100
AcDbEntity
  8
NITEN
100
AcDbPolyline
 90
        3
 70
     0
 43
0.0
 10
427.383833
 20
310.6483279999999
 10
429.3838329999999
 20
308.2648209999999
 10
429.3838329999999
 20
304.2648209999999
  0
ARC
  5
4824669
330
4823B0C
100
AcDbEntity
  8
NITEN
100
AcDbCircle
 10
426.3468099999999
 20
298.4873309999999
 30
0.0
 40
5.488855
100
AcDbArc
 50
62.16401900000001
 51
117.835981
  0
LINE
  5
482466A
330
4823B0C
100
AcDbEntity
  8
NITEN
100
AcDbLine
 10
425.3838329999999
 20
304.2648209999999
 30
0.0
 11
423.783833
 21
303.34106
 31
0.0
  0
LINE
  5
482466B
330
4823B0C
100
AcDbEntity
  8
TENSEN
100
AcDbLine
 10
418.201852
 20
315.9111339999999
 30
0.0
 11
424.5658129999999
 21
322.275095
 31
0.0
  0
LINE
  5
482466C
330
4823B0C
100
AcDbEntity
  8
TENSEN
100
AcDbLine
 10
418.201852
 20
322.275095
 30
0.0
 11
424.5658129999999
 21
315.9111339999999
 31
0.0
  0
LINE
  5
482466D
330
4823B0C
100
AcDbEntity
  8
JISSEN
100
AcDbLine
 10
406.383833
 20
430.818074
 30
0.0
 11
426.3838329999999
 21
430.818074
 31
0.0
  0
LINE
  5
482466E
330
4823B0C
100
AcDbEntity
  8
JISSEN
100
AcDbLine
 10
462.3838329999999
 20
447.8180739999999
 30
0.0
 11
462.3838329999999
 21
430.818074
 31
0.0
  0
LINE
  5
482466F
330
4823B0C
100
AcDbEntity
  8
NITEN
100
AcDbLine
 10
468.1338329999999
 20
285.7648209999999
 30
0.0
 11
444.383833
 21
285.7648209999999
 31
0.0
  0
LINE
  5
4824670
330
4823B0C
100
AcDbEntity
  8
NITEN
100
AcDbLine
 10
469.1338329999999
 20
282.7648209999999
 30
0.0
 11
444.383833
 21
282.7648209999999
 31
0.0
  0
LINE
  5
4824671
330
4823B0C
100
AcDbEntity
  8
NITEN
100
AcDbLine
 10
467.633833
 20
278.7648209999999
 30
0.0
 11
444.383833
 21
278.7648209999999
 31
0.0
  0
LINE
  5
4824672
330
4823B0C
100
AcDbEntity
  8
NITEN
100
AcDbLine
 10
463.3838329999999
 20
304.2648209999999
 30
0.0
 11
444.383833
 21
304.2648209999999
 31
0.0
  0
LINE
  5
4824673
330
4823B0C
100
AcDbEntity
  8
NITEN
100
AcDbLine
 10
459.857878
 20
303.34106
 30
0.0
 11
457.982139
 21
303.34106
 31
0.0
  0
LINE
  5
4824674
330
4823B0C
100
AcDbEntity
  8
NITEN
100
AcDbLine
 10
443.057485
 20
303.34106
 30
0.0
 11
444.383833
 21
303.34106
 31
0.0
  0
LINE
  5
4824675
330
4823B0C
100
AcDbEntity
  8
NITEN
100
AcDbLine
 10
443.057485
 20
303.34106
 30
0.0
 11
443.057485
 21
287.7648209999999
 31
0.0
  0
LINE
  5
4824676
330
4823B0C
100
AcDbEntity
  8
NITEN
100
AcDbLine
 10
430.785527
 20
303.34106
 30
0.0
 11
430.785527
 21
287.7648209999999
 31
0.0
  0
ARC
  5
4824677
330
4823B0C
100
AcDbEntity
  8
NITEN
100
AcDbCircle
 10
436.921506
 20
274.016726
 30
0.0
 40
29.959419
100
AcDbArc
 50
78.18164200000001
 51
101.8183579999999
  0
LINE
  5
4824678
330
4823B0C
100
AcDbEntity
  8
NITEN
100
AcDbLine
 10
445.710181
 20
303.34106
 30
0.0
 11
445.710181
 21
287.7648209999999
 31
0.0
  0
LINE
  5
4824679
330
4823B0C
100
AcDbEntity
  8
NITEN
100
AcDbLine
 10
457.982139
 20
303.34106
 30
0.0
 11
457.982139
 21
287.7648209999999
 31
0.0
  0
ARC
  5
482467A
330
4823B0C
100
AcDbEntity
  8
NITEN
100
AcDbCircle
 10
451.84616
 20
274.016726
 30
0.0
 40
29.959419
100
AcDbArc
 50
78.18164200000001
 51
101.8183579999999
  0
LINE
  5
482467B
330
4823B0C
100
AcDbEntity
  8
NITEN
100
AcDbLine
 10
445.710181
 20
303.34106
 30
0.0
 11
444.383833
 21
303.34106
 31
0.0
  0
LINE
  5
482467C
330
4823B0C
100
AcDbEntity
  8
NITEN
100
AcDbLine
 10
473.383833
 20
325.0931149999999
 30
0.0
 11
473.383833
 21
313.093115
 31
0.0
  0
CIRCLE
  5
482467D
330
4823B0C
100
AcDbEntity
  8
TENSEN
100
AcDbCircle
 10
467.3838329999999
 20
319.093115
 30
0.0
 40
6.0
  0
CIRCLE
  5
482467E
330
4823B0C
100
AcDbEntity
  8
TENSEN
100
AcDbCircle
 10
467.3838329999999
 20
319.093115
 30
0.0
 40
4.5
  0
LINE
  5
482467F
330
4823B0C
100
AcDbEntity
  8
NITEN
100
AcDbLine
 10
461.383833
 20
304.2648209999999
 30
0.0
 11
461.383833
 21
354.140655
 31
0.0
  0
LINE
  5
4824680
330
4823B0C
100
AcDbEntity
  8
NITEN
100
AcDbLine
 10
480.133833
 20
274.264821
 30
0.0
 11
470.633833
 21
274.264821
 31
0.0
  0
LINE
  5
4824681
330
4823B0C
100
AcDbEntity
  8
NITEN
100
AcDbLine
 10
459.857878
 20
303.34106
 30
0.0
 11
459.857878
 21
287.7648209999999
 31
0.0
  0
LINE
  5
4824682
330
4823B0C
100
AcDbEntity
  8
NITEN
100
AcDbLine
 10
464.983833
 20
303.34106
 30
0.0
 11
464.983833
 21
287.7648209999999
 31
0.0
  0
ARC
  5
4824683
330
4823B0C
100
AcDbEntity
  8
NITEN
100
AcDbCircle
 10
466.983833
 20
287.7648209999999
 30
0.0
 40
2.0
100
AcDbArc
 50
180.0
 51
270.0
  0
LINE
  5
4824684
330
4823B0C
100
AcDbEntity
  8
NITEN
100
AcDbLine
 10
469.1338329999999
 20
284.764821
 30
0.0
 11
469.1338329999999
 21
282.7648209999999
 31
0.0
  0
ARC
  5
4824685
330
4823B0C
100
AcDbEntity
  8
NITEN
100
AcDbCircle
 10
470.1338329999999
 20
277.0001539999999
 30
0.0
 40
2.0
100
AcDbArc
 50
180.0
 51
245.7522149999999
  0
ARC
  5
4824686
330
4823B0C
100
AcDbEntity
  8
NITEN
100
AcDbCircle
 10
467.133833
 20
280.087696
 30
0.0
 40
2.0
100
AcDbArc
 50
318.5903779999999
 51
0.0
  0
LINE
  5
4824687
330
4823B0C
100
AcDbEntity
  8
NITEN
100
AcDbLine
 10
468.1338329999999
 20
277.441945
 30
0.0
 11
468.1338329999999
 21
277.0001539999999
 31
0.0
  0
ARC
  5
4824688
330
4823B0C
100
AcDbEntity
  8
NITEN
100
AcDbCircle
 10
470.1338329999999
 20
277.441945
 30
0.0
 40
2.0
100
AcDbArc
 50
138.590378
 51
180.0
  0
LINE
  5
4824689
330
4823B0C
100
AcDbEntity
  8
NITEN
100
AcDbLine
 10
469.1338329999999
 20
282.7648209999999
 30
0.0
 11
469.1338329999999
 21
280.087696
 31
0.0
  0
ARC
  5
482468A
330
4823B0C
100
AcDbEntity
  8
NITEN
100
AcDbCircle
 10
470.633833
 20
275.2648209999999
 30
0.0
 40
1.0
100
AcDbArc
 50
210.0
 51
270.0
  0
ARC
  5
482468B
330
4823B0C
100
AcDbEntity
  8
NITEN
100
AcDbCircle
 10
468.901782
 20
274.264821
 30
0.0
 40
1.0
100
AcDbArc
 50
30.0
 51
65.75221500000001
  0
ARC
  5
482468C
330
4823B0C
100
AcDbEntity
  8
NITEN
100
AcDbCircle
 10
468.1338329999999
 20
284.764821
 30
0.0
 40
1.0
100
AcDbArc
 50
0.0
 51
90.0
  0
LINE
  5
482468D
330
4823B0C
100
AcDbEntity
  8
NITEN
100
AcDbLine
 10
468.1338329999999
 20
285.7648209999999
 30
0.0
 11
467.8838329999999
 21
285.7648209999999
 31
0.0
  0
LWPOLYLINE
  5
482468E
330
4823B0C
100
AcDbEntity
  8
NITEN
100
AcDbPolyline
 90
        3
 70
     0
 43
0.0
 10
461.383833
 20
310.6483279999999
 10
459.3838329999999
 20
308.2648209999999
 10
459.3838329999999
 20
304.2648209999999
  0
ARC
  5
482468F
330
4823B0C
100
AcDbEntity
  8
NITEN
100
AcDbCircle
 10
462.420855
 20
298.4873309999999
 30
0.0
 40
5.488855
100
AcDbArc
 50
62.16401900000001
 51
117.835981
  0
LINE
  5
4824690
330
4823B0C
100
AcDbEntity
  8
NITEN
100
AcDbLine
 10
463.3838329999999
 20
304.2648209999999
 30
0.0
 11
464.983833
 21
303.34106
 31
0.0
  0
LINE
  5
4824691
330
4823B0C
100
AcDbEntity
  8
NITEN
100
AcDbLine
 10
480.6338329999999
 20
278.7648209999999
 30
0.0
 11
483.633833
 21
278.7648209999999
 31
0.0
  0
LINE
  5
4824692
330
4823B0C
100
AcDbEntity
  8
NITEN
100
AcDbLine
 10
480.133833
 20
273.7648209999999
 30
0.0
 11
480.6338329999999
 21
273.7648209999999
 31
0.0
  0
LINE
  5
4824693
330
4823B0C
100
AcDbEntity
  8
TENSEN
100
AcDbLine
 10
464.201852
 20
322.275095
 30
0.0
 11
470.5658129999999
 21
315.9111339999999
 31
0.0
  0
LINE
  5
4824694
330
4823B0C
100
AcDbEntity
  8
TENSEN
100
AcDbLine
 10
464.201852
 20
315.9111339999999
 30
0.0
 11
470.5658129999999
 21
322.275095
 31
0.0
  0
LWPOLYLINE
  5
4824696
330
4823B0C
100
AcDbEntity
  8
JISSEN
100
AcDbPolyline
 90
        8
 70
     1
 43
0.0
 10
639.3002269999999
 20
328.093115
 10
689.3002269999999
 20
328.093115
 42
-0.4142140000000001
 10
692.3002269999999
 20
325.0931149999999
 10
692.3002269999999
 20
133.0931149999999
 42
-0.4142140000000001
 10
689.3002269999999
 20
130.0931149999999
 10
639.3002269999999
 20
130.0931149999999
 42
-0.4142140000000001
 10
636.3002269999999
 20
133.0931149999999
 10
636.3002269999999
 20
325.0931149999999
 42
-0.4142140000000001
  0
LWPOLYLINE
  5
4824699
330
4823B0C
100
AcDbEntity
  8
JISSEN
100
AcDbPolyline
 90
        6
 70
     0
 43
0.0
 10
636.3002269999999
 20
254.093115
 10
624.8002269999999
 20
254.093115
 42
0.4142140000000001
 10
622.3002269999999
 20
251.5931149999999
 10
622.3002269999999
 20
206.5931149999999
 42
0.4142140000000001
 10
624.8002269999999
 20
204.093115
 10
636.3002269999999
 20
204.093115
  0
LINE
  5
482469A
330
4823B0C
100
AcDbEntity
  8
JISSEN
100
AcDbLine
 10
617.3002269999999
 20
194.0931149999999
 30
0.0
 11
636.3002269999999
 21
194.0931149999999
 31
0.0
  0
LINE
  5
482469B
330
4823B0C
100
AcDbEntity
  8
JISSEN
100
AcDbLine
 10
636.3002269999999
 20
264.093115
 30
0.0
 11
617.3002269999999
 21
264.093115
 31
0.0
  0
LINE
  5
482469C
330
4823B0C
100
AcDbEntity
  8
JISSEN
100
AcDbLine
 10
612.3002269999999
 20
259.093115
 30
0.0
 11
612.3002269999999
 21
199.0931149999999
 31
0.0
  0
ARC
  5
482469D
330
4823B0C
100
AcDbEntity
  8
JISSEN
100
AcDbCircle
 10
617.3002269999999
 20
199.0931149999999
 30
0.0
 40
5.0
100
AcDbArc
 50
180.0
 51
270.0
  0
ARC
  5
482469E
330
4823B0C
100
AcDbEntity
  8
JISSEN
100
AcDbCircle
 10
617.3002269999999
 20
259.093115
 30
0.0
 40
5.0
100
AcDbArc
 50
90.0
 51
180.0
  0
LWPOLYLINE
  5
48246AB
330
4823B0C
100
AcDbEntity
  8
JISSEN
100
AcDbPolyline
 90
        6
 70
     0
 43
0.0
 10
544.383833
 20
402.818074
 10
544.383833
 20
382.818074
 42
0.4142140000000001
 10
548.383833
 20
378.818074
 10
552.383833
 20
378.818074
 42
0.4142140000000001
 10
556.383833
 20
382.818074
 10
556.383833
 20
402.818074
  0
LWPOLYLINE
  5
48246AC
330
4823B0C
100
AcDbEntity
  8
HASEN
100
AcDbPolyline
 90
        4
 70
     0
 43
0.0
 10
65.38383399999998
 20
354.140655
 42
-0.411765
 10
82.38383399999998
 20
354.140655
 42
0.411765
 10
99.38383399999999
 20
354.140655
 42
0.411765
 10
82.38383399999998
 20
354.140655
  0
LINE
  5
48246AD
330
4823B0C
100
AcDbEntity
  8
NITEN
100
AcDbLine
 10
65.38383399999998
 20
328.093115
 30
0.0
 11
65.38383399999998
 21
354.140655
 31
0.0
  0
LINE
  5
48246AE
330
4823B0C
100
AcDbEntity
  8
NITEN
100
AcDbLine
 10
99.38383399999999
 20
328.093115
 30
0.0
 11
99.38383399999999
 21
354.140655
 31
0.0
  0
LWPOLYLINE
  5
48246AF
330
4823B0C
100
AcDbEntity
  8
HASEN
100
AcDbPolyline
 90
        4
 70
     0
 43
0.0
 10
65.38383399999998
 20
103.3566089999999
 42
0.411765
 10
82.38383399999998
 20
103.3566089999999
 42
-0.411765
 10
99.38383399999999
 20
103.3566089999999
 42
-0.411765
 10
82.38383399999998
 20
103.3566089999999
  0
LINE
  5
48246B0
330
4823B0C
100
AcDbEntity
  8
NITEN
100
AcDbLine
 10
65.38383399999998
 20
130.0931149999999
 30
0.0
 11
65.38383399999998
 21
103.3566089999999
 31
0.0
  0
LINE
  5
48246B1
330
4823B0C
100
AcDbEntity
  8
NITEN
100
AcDbLine
 10
99.38383399999999
 20
130.0931149999999
 30
0.0
 11
99.38383399999999
 21
103.3566089999999
 31
0.0
  0
LWPOLYLINE
  5
48246B4
330
4823B0C
100
AcDbEntity
  8
HASEN
100
AcDbPolyline
 90
        4
 70
     0
 43
0.0
 10
647.3002269999999
 20
354.140655
 42
-0.411765
 10
664.3002269999999
 20
354.140655
 42
0.411765
 10
681.3002269999999
 20
354.140655
 42
0.411765
 10
664.3002269999999
 20
354.140655
  0
LINE
  5
48246B5
330
4823B0C
100
AcDbEntity
  8
NITEN
100
AcDbLine
 10
647.3002269999999
 20
304.2648209999999
 30
0.0
 11
647.3002269999999
 21
354.140655
 31
0.0
  0
LINE
  5
48246B6
330
4823B0C
100
AcDbEntity
  8
NITEN
100
AcDbLine
 10
681.3002269999999
 20
304.2648209999999
 30
0.0
 11
681.3002269999999
 21
354.140655
 31
0.0
  0
LINE
  5
48246B7
330
4823B0C
100
AcDbEntity
  8
NITEN
100
AcDbLine
 10
647.3002269999999
 20
308.2648209999999
 30
0.0
 11
681.3002269999999
 21
308.2648209999999
 31
0.0
  0
LWPOLYLINE
  5
48246B8
330
4823B0C
100
AcDbEntity
  8
NITEN
100
AcDbPolyline
 90
        3
 70
     0
 43
0.0
 10
647.3002269999999
 20
310.6483279999999
 10
649.3002269999999
 20
308.2648209999999
 10
649.3002269999999
 20
304.2648209999999
  0
LWPOLYLINE
  5
48246B9
330
4823B0C
100
AcDbEntity
  8
NITEN
100
AcDbPolyline
 90
        3
 70
     0
 43
0.0
 10
681.3002269999999
 20
310.6483279999999
 10
679.3002269999999
 20
308.2648209999999
 10
679.3002269999999
 20
304.2648209999999
  0
LWPOLYLINE
  5
48246BA
330
4823B0C
100
AcDbEntity
  8
HASEN
100
AcDbPolyline
 90
        4
 70
     0
 43
0.0
 10
647.3002269999999
 20
103.3566089999999
 42
0.411765
 10
664.3002269999999
 20
103.3566089999999
 42
-0.411765
 10
681.3002269999999
 20
103.3566089999999
 42
-0.411765
 10
664.3002269999999
 20
103.3566089999999
  0
LINE
  5
48246BB
330
4823B0C
100
AcDbEntity
  8
NITEN
100
AcDbLine
 10
647.3002269999999
 20
155.768632
 30
0.0
 11
647.3002269999999
 21
103.3566089999999
 31
0.0
  0
LINE
  5
48246BC
330
4823B0C
100
AcDbEntity
  8
NITEN
100
AcDbLine
 10
681.3002269999999
 20
155.768632
 30
0.0
 11
681.3002269999999
 21
103.3566089999999
 31
0.0
  0
LINE
  5
48246BD
330
4823B0C
100
AcDbEntity
  8
NITEN
100
AcDbLine
 10
647.3002269999999
 20
151.7686319999999
 30
0.0
 11
658.9606948963044
 21
151.7686319999999
 31
0.0
  0
LWPOLYLINE
  5
48246BE
330
4823B0C
100
AcDbEntity
  8
NITEN
100
AcDbPolyline
 90
        3
 70
     0
 43
0.0
 10
647.3002269999999
 20
149.3851249999999
 10
649.3002269999999
 20
151.7686319999999
 10
649.3002269999999
 20
155.768632
  0
LWPOLYLINE
  5
48246BF
330
4823B0C
100
AcDbEntity
  8
NITEN
100
AcDbPolyline
 90
        3
 70
     0
 43
0.0
 10
681.3002269999999
 20
149.3851249999999
 10
679.3002269999999
 20
151.7686319999999
 10
679.3002269999999
 20
155.768632
  0
LINE
  5
48249AC
330
4823B0C
100
AcDbEntity
  8
JISSEN
100
AcDbLine
 10
655.5502269999999
 20
235.3310639999999
 30
0.0
 11
655.5502269999999
 21
194.7648209999999
 31
0.0
  0
LINE
  5
48249AD
330
4823B0C
100
AcDbEntity
  8
JISSEN
100
AcDbLine
 10
677.0502269999999
 20
235.3310639999999
 30
0.0
 11
677.0502269999999
 21
194.7648209999999
 31
0.0
  0
ARC
  5
48249B0
330
4823B0C
100
AcDbEntity
  8
JISSEN
100
AcDbCircle
 10
640.550227
 20
284.764821
 30
0.0
 40
1.0
100
AcDbArc
 50
90.0
 51
180.0
  0
ARC
  5
48249B1
330
4823B0C
100
AcDbEntity
  8
JISSEN
100
AcDbCircle
 10
641.5502270000001
 20
280.087696
 30
0.0
 40
2.0
100
AcDbArc
 50
180.0
 51
221.4096220000029
  0
LINE
  5
48249B4
330
4823B0C
100
AcDbEntity
  8
JISSEN
100
AcDbLine
 10
639.5502269999999
 20
282.764821
 30
0.0
 11
664.3002269999999
 21
282.764821
 31
0.0
  0
LINE
  5
48249B7
330
4823B0C
100
AcDbEntity
  8
JISSEN
100
AcDbLine
 10
639.5502269999999
 20
284.764821
 30
0.0
 11
639.5502269999999
 21
282.764821
 31
0.0
  0
LINE
  5
48249B8
330
4823B0C
100
AcDbEntity
  8
JISSEN
100
AcDbLine
 10
639.5502269999999
 20
282.764821
 30
0.0
 11
639.5502269999999
 21
280.087696
 31
0.0
  0
LINE
  5
48249BA
330
4823B0C
100
AcDbEntity
  8
JISSEN
100
AcDbLine
 10
687.3002269999999
 20
270.0008979999998
 30
0.0
 11
687.3002269999999
 21
254.593248
 31
0.0
  0
ARC
  5
48249BB
330
4823B0C
100
AcDbEntity
  8
JISSEN
100
AcDbCircle
 10
664.3002270000001
 20
264.7648209999999
 30
0.0
 40
10.5
100
AcDbArc
 50
338.4898119999986
 51
21.51018800000139
  0
LINE
  5
48249BC
330
4823B0C
100
AcDbEntity
  8
JISSEN
100
AcDbLine
 10
679.3002269999999
 20
264.7648209999999
 30
0.0
 11
679.3002269999999
 21
261.9148209999998
 31
0.0
  0
CIRCLE
  5
48249BD
330
4823B0C
100
AcDbEntity
  8
JISSEN
100
AcDbCircle
 10
664.3002270000001
 20
264.7648209999999
 30
0.0
 40
4.0
  0
CIRCLE
  5
48249BE
330
4823B0C
100
AcDbEntity
  8
JISSEN
100
AcDbCircle
 10
664.3002270000001
 20
264.7648209999999
 30
0.0
 40
3.299999999999998
  0
ARC
  5
48249BF
330
4823B0C
100
AcDbEntity
  8
JISSEN
100
AcDbCircle
 10
664.3002270000001
 20
264.7648209999999
 30
0.0
 40
9.3
100
AcDbArc
 50
341.8998079999987
 51
108.1001919999972
  0
ARC
  5
48249C1
330
4823B0C
100
AcDbEntity
  8
JISSEN
100
AcDbCircle
 10
664.3002270000001
 20
264.7648209999999
 30
0.0
 40
10.5
100
AcDbArc
 50
162.2472099999976
 51
197.7527900000022
  0
LINE
  5
48249C2
330
4823B0C
100
AcDbEntity
  8
JISSEN
100
AcDbLine
 10
654.3002269999999
 20
274.7648209999999
 30
0.0
 11
654.3002269999999
 21
249.7648209999999
 31
0.0
  0
LINE
  5
48249C3
330
4823B0C
100
AcDbEntity
  8
JISSEN
100
AcDbLine
 10
641.3002269999999
 20
270.0008979999998
 30
0.0
 11
641.3002269999999
 21
254.593248
 31
0.0
  0
CIRCLE
  5
48249C4
330
4823B0C
100
AcDbEntity
  8
JISSEN
100
AcDbCircle
 10
664.3002270000001
 20
264.7648209999999
 30
0.0
 40
7.7
  0
CIRCLE
  5
48249C5
330
4823B0C
100
AcDbEntity
  8
JISSEN
100
AcDbCircle
 10
664.3002270000001
 20
264.7648209999999
 30
0.0
 40
6.5
  0
LWPOLYLINE
  5
48249C6
330
4823B0C
100
AcDbEntity
  8
JISSEN
100
AcDbPolyline
 90
        6
 70
     1
 43
0.0
 10
657.8002269999999
 20
268.517597
 10
657.8002269999999
 20
261.012044
 10
664.3002269999999
 20
257.259267
 10
670.8002269999999
 20
261.012044
 10
670.8002269999999
 20
268.517597
 10
664.3002269999999
 20
272.2703739999999
  0
LINE
  5
48249C7
330
4823B0C
100
AcDbEntity
  8
JISSEN
100
AcDbLine
 10
686.6002269999999
 20
271.2648210000001
 30
0.0
 11
673.2410709999999
 21
271.2648210000001
 31
0.0
  0
LINE
  5
48249C8
330
4823B0C
100
AcDbEntity
  8
JISSEN
100
AcDbLine
 10
683.3002269999999
 20
304.2648209999999
 30
0.0
 11
684.900227
 21
303.3410599999999
 31
0.0
  0
LINE
  5
48249C9
330
4823B0C
100
AcDbEntity
  8
JISSEN
100
AcDbLine
 10
688.050227
 20
285.7648210000001
 30
0.0
 11
664.3002269999999
 21
285.7648210000001
 31
0.0
  0
LINE
  5
48249CA
330
4823B0C
100
AcDbEntity
  8
JISSEN
100
AcDbLine
 10
689.0502269999999
 20
282.764821
 30
0.0
 11
664.3002269999999
 21
282.764821
 31
0.0
  0
LINE
  5
48249CB
330
4823B0C
100
AcDbEntity
  8
JISSEN
100
AcDbLine
 10
687.5502269999999
 20
278.764821
 30
0.0
 11
664.3002269999999
 21
278.764821
 31
0.0
  0
ARC
  5
48249CC
330
4823B0C
100
AcDbEntity
  8
JISSEN
100
AcDbCircle
 10
682.3372489999999
 20
298.4873309999997
 30
0.0
 40
5.488855
100
AcDbArc
 50
62.16401899999739
 51
117.8359810000026
  0
LINE
  5
48249CD
330
4823B0C
100
AcDbEntity
  8
JISSEN
100
AcDbLine
 10
677.898533
 20
303.3410599999999
 30
0.0
 11
677.898533
 21
287.7648209999999
 31
0.0
  0
LINE
  5
48249CE
330
4823B0C
100
AcDbEntity
  8
JISSEN
100
AcDbLine
 10
679.7742720000001
 20
303.3410599999999
 30
0.0
 11
679.7742720000001
 21
287.7648209999999
 31
0.0
  0
LINE
  5
48249CF
330
4823B0C
100
AcDbEntity
  8
JISSEN
100
AcDbLine
 10
665.626575
 20
303.3410599999999
 30
0.0
 11
665.626575
 21
287.7648209999999
 31
0.0
  0
LINE
  5
48249D0
330
4823B0C
100
AcDbEntity
  8
JISSEN
100
AcDbLine
 10
662.9738790000001
 20
303.3410599999999
 30
0.0
 11
662.9738790000001
 21
287.7648209999999
 31
0.0
  0
LINE
  5
48249D1
330
4823B0C
100
AcDbEntity
  8
JISSEN
100
AcDbLine
 10
648.8261819999999
 20
303.3410599999999
 30
0.0
 11
648.8261819999999
 21
287.7648209999999
 31
0.0
  0
LINE
  5
48249D2
330
4823B0C
100
AcDbEntity
  8
JISSEN
100
AcDbLine
 10
650.7019210000001
 20
303.3410599999999
 30
0.0
 11
650.7019210000001
 21
287.7648209999999
 31
0.0
  0
LINE
  5
48249D3
330
4823B0C
100
AcDbEntity
  8
JISSEN
100
AcDbLine
 10
643.700227
 20
303.3410599999999
 30
0.0
 11
643.700227
 21
287.7648209999999
 31
0.0
  0
ARC
  5
48249D4
330
4823B0C
100
AcDbEntity
  8
JISSEN
100
AcDbCircle
 10
656.8379000000001
 20
274.0167259999997
 30
0.0
 40
29.959419
100
AcDbArc
 50
78.18164199999943
 51
101.8183580000005
  0
LINE
  5
48249D6
330
4823B0C
100
AcDbEntity
  8
JISSEN
100
AcDbLine
 10
645.3002269999999
 20
304.2648209999999
 30
0.0
 11
643.700227
 21
303.3410599999999
 31
0.0
  0
ARC
  5
48249D7
330
4823B0C
100
AcDbEntity
  8
JISSEN
100
AcDbCircle
 10
646.2632040000002
 20
298.4873309999997
 30
0.0
 40
5.488855
100
AcDbArc
 50
62.16401899999739
 51
117.8359810000026
  0
LINE
  5
48249D8
330
4823B0C
100
AcDbEntity
  8
JISSEN
100
AcDbLine
 10
648.8261819999999
 20
303.3410599999999
 30
0.0
 11
650.7019210000001
 21
303.3410599999999
 31
0.0
  0
ARC
  5
48249D9
330
4823B0C
100
AcDbEntity
  8
JISSEN
100
AcDbCircle
 10
671.7625540000001
 20
274.0167259999997
 30
0.0
 40
29.959419
100
AcDbArc
 50
78.18164199999943
 51
101.8183580000005
  0
LINE
  5
48249DB
330
4823B0C
100
AcDbEntity
  8
JISSEN
100
AcDbLine
 10
665.626575
 20
303.3410599999999
 30
0.0
 11
664.3002269999999
 21
303.3410599999999
 31
0.0
  0
LINE
  5
48249DC
330
4823B0C
100
AcDbEntity
  8
JISSEN
100
AcDbLine
 10
662.9738790000001
 20
303.3410599999999
 30
0.0
 11
664.3002269999999
 21
303.3410599999999
 31
0.0
  0
LINE
  5
48249DD
330
4823B0C
100
AcDbEntity
  8
JISSEN
100
AcDbLine
 10
679.7742720000001
 20
303.3410599999999
 30
0.0
 11
677.898533
 21
303.3410599999999
 31
0.0
  0
ARC
  5
48249DE
330
4823B0C
100
AcDbEntity
  8
JISSEN
100
AcDbCircle
 10
664.3002270000001
 20
264.7648209999999
 30
0.0
 40
9.5
100
AcDbArc
 50
29.90056200000033
 51
111.5760340000015
  0
ARC
  5
48249DF
330
4823B0C
100
AcDbEntity
  8
JISSEN
100
AcDbCircle
 10
664.3002270000001
 20
264.7648209999999
 30
0.0
 40
10.5
100
AcDbArc
 50
21.51018800000139
 51
113.5781779999979
  0
LINE
  5
48249E0
330
4823B0C
100
AcDbEntity
  8
JISSEN
100
AcDbLine
 10
640.5502269999999
 20
285.7648210000001
 30
0.0
 11
664.3002269999999
 21
285.7648210000001
 31
0.0
  0
LINE
  5
48249E1
330
4823B0C
100
AcDbEntity
  8
JISSEN
100
AcDbLine
 10
641.0502269999999
 20
278.764821
 30
0.0
 11
664.3002269999999
 21
278.764821
 31
0.0
  0
ARC
  5
48249E2
330
4823B0C
100
AcDbEntity
  8
JISSEN
100
AcDbCircle
 10
658.300227
 20
274.7648209999999
 30
0.0
 40
4.0
100
AcDbArc
 50
90.0
 51
180.0
  0
ARC
  5
48249E3
330
4823B0C
100
AcDbEntity
  8
JISSEN
100
AcDbCircle
 10
641.700227
 20
287.7648209999999
 30
0.0
 40
2.0
100
AcDbArc
 50
270.0
 51
0.0
  0
LINE
  5
48249E4
330
4823B0C
100
AcDbEntity
  8
JISSEN
100
AcDbLine
 10
640.5502269999999
 20
285.7648210000001
 30
0.0
 11
640.8002269999999
 21
285.7648210000001
 31
0.0
  0
LINE
  5
48249E5
330
4823B0C
100
AcDbEntity
  8
JISSEN
100
AcDbLine
 10
642.000227
 20
271.2648210000001
 30
0.0
 11
654.3002269999999
 21
271.2648210000001
 31
0.0
  0
ARC
  5
48249E6
330
4823B0C
100
AcDbEntity
  8
JISSEN
100
AcDbCircle
 10
642.5502269999999
 20
272.3327429999998
 30
0.0
 40
2.0
100
AcDbArc
 50
180.0
 51
215.6590879999995
  0
LINE
  5
48249E7
330
4823B0C
100
AcDbEntity
  8
JISSEN
100
AcDbLine
 10
640.5502269999999
 20
277.441945
 30
0.0
 11
640.5502269999999
 21
272.3327429999999
 31
0.0
  0
ARC
  5
48249E8
330
4823B0C
100
AcDbEntity
  8
JISSEN
100
AcDbCircle
 10
638.5502269999999
 20
277.4419449999999
 30
0.0
 40
2.0
100
AcDbArc
 50
0.0
 51
41.40962200000283
  0
ARC
  5
48249E9
330
4823B0C
100
AcDbEntity
  8
JISSEN
100
AcDbCircle
 10
639.3002270000001
 20
270.0008979999997
 30
0.0
 40
2.0
100
AcDbArc
 50
0.0
 51
35.65908799999947
  0
LINE
  5
48249EA
330
4823B0C
100
AcDbEntity
  8
JISSEN
100
AcDbLine
 10
660.1002269999999
 20
277.7648210000001
 30
0.0
 11
660.1002269999999
 21
274.5551219999999
 31
0.0
  0
LINE
  5
48249EB
330
4823B0C
100
AcDbEntity
  8
JISSEN
100
AcDbLine
 10
658.3002269999999
 20
278.764821
 30
0.0
 11
659.1002269999998
 21
278.764821
 31
0.0
  0
ARC
  5
48249EC
330
4823B0C
100
AcDbEntity
  8
JISSEN
100
AcDbCircle
 10
659.1002269999998
 20
277.764821
 30
0.0
 40
1.0
100
AcDbArc
 50
0.0
 51
90.0
  0
ARC
  5
48249ED
330
4823B0C
100
AcDbEntity
  8
JISSEN
100
AcDbCircle
 10
661.1002269999999
 20
274.5551219999999
 30
0.0
 40
1.0
100
AcDbArc
 50
180.0
 51
288.1001920000002
  0
ARC
  5
48249EE
330
4823B0C
100
AcDbEntity
  8
JISSEN
100
AcDbCircle
 10
674.196533
 20
270.6148209999999
 30
0.0
 40
2.0
100
AcDbArc
 50
213.8584370000002
 51
270.0
  0
ARC
  5
48249EF
330
4823B0C
100
AcDbEntity
  8
JISSEN
100
AcDbCircle
 10
678.3002269999999
 20
267.6148209999998
 30
0.0
 40
1.0
100
AcDbArc
 50
0.0
 51
90.0
  0
LINE
  5
48249F0
330
4823B0C
100
AcDbEntity
  8
JISSEN
  6
CONTINUOUS
100
AcDbLine
 10
678.3002269999999
 20
268.6148209999998
 30
0.0
 11
674.068927
 21
268.6148209999998
 31
0.0
  0
LINE
  5
48249F1
330
4823B0C
100
AcDbEntity
  8
JISSEN
100
AcDbLine
 10
679.3002269999999
 20
264.7648209999999
 30
0.0
 11
679.3002269999999
 21
267.6148209999999
 31
0.0
  0
LINE
  5
48249F2
330
4823B0C
100
AcDbEntity
  8
JISSEN
100
AcDbLine
 10
684.900227
 20
303.3410599999999
 30
0.0
 11
684.900227
 21
287.7648209999999
 31
0.0
  0
ARC
  5
48249F3
330
4823B0C
100
AcDbEntity
  8
JISSEN
100
AcDbCircle
 10
687.0502270000001
 20
280.087696
 30
0.0
 40
2.0
100
AcDbArc
 50
318.590377999997
 51
0.0
  0
ARC
  5
48249F4
330
4823B0C
100
AcDbEntity
  8
JISSEN
100
AcDbCircle
 10
686.9002270000001
 20
287.7648209999999
 30
0.0
 40
2.0
100
AcDbArc
 50
180.0
 51
270.0
  0
LINE
  5
48249F5
330
4823B0C
100
AcDbEntity
  8
JISSEN
100
AcDbLine
 10
689.0502269999999
 20
284.764821
 30
0.0
 11
689.0502269999999
 21
282.764821
 31
0.0
  0
ARC
  5
48249F6
330
4823B0C
100
AcDbEntity
  8
JISSEN
100
AcDbCircle
 10
688.050227
 20
284.764821
 30
0.0
 40
1.0
100
AcDbArc
 50
0.0
 51
90.0
  0
LINE
  5
48249F7
330
4823B0C
100
AcDbEntity
  8
JISSEN
100
AcDbLine
 10
688.050227
 20
285.7648210000001
 30
0.0
 11
687.8002269999999
 21
285.7648210000001
 31
0.0
  0
LINE
  5
48249F8
330
4823B0C
100
AcDbEntity
  8
JISSEN
100
AcDbLine
 10
689.0502269999999
 20
282.764821
 30
0.0
 11
689.0502269999999
 21
280.087696
 31
0.0
  0
ARC
  5
48249F9
330
4823B0C
100
AcDbEntity
  8
JISSEN
100
AcDbCircle
 10
686.050227
 20
272.3327429999998
 30
0.0
 40
2.0
100
AcDbArc
 50
324.3409120000005
 51
0.0
  0
LINE
  5
48249FA
330
4823B0C
100
AcDbEntity
  8
JISSEN
100
AcDbLine
 10
688.050227
 20
277.441945
 30
0.0
 11
688.050227
 21
272.3327429999999
 31
0.0
  0
ARC
  5
48249FB
330
4823B0C
100
AcDbEntity
  8
JISSEN
100
AcDbCircle
 10
690.050227
 20
277.4419449999999
 30
0.0
 40
2.0
100
AcDbArc
 50
138.5903779999971
 51
180.0
  0
ARC
  5
48249FC
330
4823B0C
100
AcDbEntity
  8
JISSEN
100
AcDbCircle
 10
689.3002270000001
 20
270.0008979999997
 30
0.0
 40
2.0
100
AcDbArc
 50
144.3409120000005
 51
180.0
  0
LINE
  5
48249FD
330
4823B0C
100
AcDbEntity
  8
JISSEN
100
AcDbLine
 10
683.886013
 20
239.1790340000001
 30
0.0
 11
684.900227
 21
238.1648209999998
 31
0.0
  0
LINE
  5
48249FE
330
4823B0C
100
AcDbEntity
  8
JISSEN
100
AcDbLine
 10
683.3002269999999
 20
225.2648209999999
 30
0.0
 11
684.900227
 21
226.1885809999999
 31
0.0
  0
LINE
  5
48249FF
330
4823B0C
100
AcDbEntity
  8
JISSEN
100
AcDbLine
 10
684.7144399999999
 20
244.1790340000001
 30
0.0
 11
683.886013
 21
243.3506069999998
 31
0.0
  0
LINE
  5
4824A00
330
4823B0C
100
AcDbEntity
  8
JISSEN
100
AcDbLine
 10
684.353979
 20
251.764821
 30
0.0
 11
678.3002269999999
 21
251.764821
 31
0.0
  0
LINE
  5
4824A01
330
4823B0C
100
AcDbEntity
  8
JISSEN
100
AcDbLine
 10
685.9416630000001
 20
253.6148209999999
 30
0.0
 11
678.3002269999999
 21
253.6148209999999
 31
0.0
  0
ARC
  5
4824A02
330
4823B0C
100
AcDbEntity
  8
JISSEN
100
AcDbCircle
 10
682.3372489999999
 20
235.7291859999999
 30
0.0
 40
3.535698999999998
100
AcDbArc
 50
43.54067200000431
 51
136.4593279999957
  0
ARC
  5
4824A03
330
4823B0C
100
AcDbEntity
  8
JISSEN
100
AcDbCircle
 10
682.3372489999999
 20
231.0423099999998
 30
0.0
 40
5.488855
100
AcDbArc
 50
242.1640189999973
 51
297.8359810000026
  0
LINE
  5
4824A04
330
4823B0C
100
AcDbEntity
  8
JISSEN
100
AcDbLine
 10
677.898533
 20
226.1885809999999
 30
0.0
 11
677.898533
 21
238.1648209999998
 31
0.0
  0
LINE
  5
4824A05
330
4823B0C
100
AcDbEntity
  8
JISSEN
100
AcDbLine
 10
679.7742720000001
 20
226.1885809999999
 30
0.0
 11
679.7742720000001
 21
238.1648209999998
 31
0.0
  0
LINE
  5
4824A06
330
4823B0C
100
AcDbEntity
  8
JISSEN
100
AcDbLine
 10
650.7019210000001
 20
226.1885809999999
 30
0.0
 11
650.7019210000001
 21
238.1648209999998
 31
0.0
  0
LINE
  5
4824A07
330
4823B0C
100
AcDbEntity
  8
JISSEN
100
AcDbLine
 10
648.8261819999999
 20
226.1885809999999
 30
0.0
 11
648.8261819999999
 21
238.1648209999998
 31
0.0
  0
LINE
  5
4824A08
330
4823B0C
100
AcDbEntity
  8
JISSEN
100
AcDbLine
 10
643.700227
 20
226.1885809999999
 30
0.0
 11
643.700227
 21
238.1648209999998
 31
0.0
  0
LINE
  5
4824A09
330
4823B0C
100
AcDbEntity
  8
JISSEN
100
AcDbLine
 10
678.3002269999999
 20
249.7648209999999
 30
0.0
 11
654.3002269999999
 21
249.7648209999999
 31
0.0
  0
LINE
  5
4824A0A
330
4823B0C
100
AcDbEntity
  8
JISSEN
100
AcDbLine
 10
677.0502269999999
 20
235.3310639999999
 30
0.0
 11
655.5502269999999
 21
235.3310639999999
 31
0.0
  0
LINE
  5
4824A0B
330
4823B0C
100
AcDbEntity
  8
JISSEN
100
AcDbLine
 10
643.3002269999999
 20
250.9363929999999
 30
0.0
 11
643.3002269999999
 21
245.593248
 31
0.0
  0
LINE
  5
4824A0C
330
4823B0C
100
AcDbEntity
  8
JISSEN
100
AcDbLine
 10
655.5502269999999
 20
235.3310639999999
 30
0.0
 11
654.3002269999999
 21
249.7648209999999
 31
0.0
  0
LINE
  5
4824A0D
330
4823B0C
100
AcDbEntity
  8
JISSEN
100
AcDbLine
 10
642.6587910000001
 20
253.6148209999999
 30
0.0
 11
654.3002269999999
 21
253.6148209999999
 31
0.0
  0
LINE
  5
4824A0E
330
4823B0C
100
AcDbEntity
  8
JISSEN
100
AcDbLine
 10
644.753909
 20
251.764821
 30
0.0
 11
654.3002269999999
 21
251.764821
 31
0.0
  0
ARC
  5
4824A0F
330
4823B0C
100
AcDbEntity
  8
JISSEN
100
AcDbCircle
 10
641.300227
 20
250.9363929999998
 30
0.0
 40
2.0
100
AcDbArc
 50
0.0
 51
45.0
  0
ARC
  5
4824A10
330
4823B0C
100
AcDbEntity
  8
JISSEN
100
AcDbCircle
 10
643.3002270000001
 20
254.5932479999999
 30
0.0
 40
2.0
100
AcDbArc
 50
180.0
 51
225.0
  0
LINE
  5
4824A11
330
4823B0C
100
AcDbEntity
  8
JISSEN
100
AcDbLine
 10
642.7144399999999
 20
252.3506069999998
 30
0.0
 11
641.886013
 21
253.1790340000001
 31
0.0
  0
ARC
  5
4824A12
330
4823B0C
100
AcDbEntity
  8
JISSEN
100
AcDbCircle
 10
656.8379000000001
 20
221.6010749999999
 30
0.0
 40
17.66374499999999
100
AcDbArc
 50
95.26831600000111
 51
110.3269650000021
  0
LINE
  5
4824A13
330
4823B0C
100
AcDbEntity
  8
JISSEN
100
AcDbLine
 10
646.00305
 20
239.7648209999999
 30
0.0
 11
655.1662519999999
 21
239.7648209999999
 31
0.0
  0
LINE
  5
4824A14
330
4823B0C
100
AcDbEntity
  8
JISSEN
100
AcDbLine
 10
646.0696079999999
 20
242.764821
 30
0.0
 11
654.9064450000001
 21
242.764821
 31
0.0
  0
LINE
  5
4824A15
330
4823B0C
100
AcDbEntity
  8
JISSEN
100
AcDbLine
 10
645.1211539999999
 20
244.764821
 30
0.0
 11
654.73324
 21
244.764821
 31
0.0
  0
ARC
  5
4824A16
330
4823B0C
100
AcDbEntity
  8
JISSEN
100
AcDbCircle
 10
643.3002270000001
 20
240.5932479999999
 30
0.0
 40
2.0
100
AcDbArc
 50
315.0
 51
0.0
  0
ARC
  5
4824A17
330
4823B0C
100
AcDbEntity
  8
JISSEN
100
AcDbCircle
 10
643.3002270000001
 20
241.9363929999998
 30
0.0
 40
2.0
100
AcDbArc
 50
0.0
 51
45.0
  0
LINE
  5
4824A18
330
4823B0C
100
AcDbEntity
  8
JISSEN
100
AcDbLine
 10
643.8860130000001
 20
244.1790340000001
 30
0.0
 11
644.7144399999999
 21
243.3506069999998
 31
0.0
  0
ARC
  5
4824A19
330
4823B0C
100
AcDbEntity
  8
JISSEN
100
AcDbCircle
 10
645.300227
 20
245.5932479999999
 30
0.0
 40
2.0
100
AcDbArc
 50
180.0
 51
225.0
  0
LINE
  5
4824A1A
330
4823B0C
100
AcDbEntity
  8
JISSEN
  6
CONTINUOUS
100
AcDbLine
 10
645.3002269999999
 20
241.9363929999999
 30
0.0
 11
645.3002269999999
 21
240.593248
 31
0.0
  0
ARC
  5
4824A1B
330
4823B0C
100
AcDbEntity
  8
JISSEN
100
AcDbCircle
 10
646.2632040000002
 20
235.7291859999999
 30
0.0
 40
3.535698999999998
100
AcDbArc
 50
43.54067200000431
 51
136.4593279999957
  0
LINE
  5
4824A1C
330
4823B0C
100
AcDbEntity
  8
JISSEN
100
AcDbLine
 10
644.7144399999999
 20
239.1790340000001
 30
0.0
 11
643.700227
 21
238.1648209999998
 31
0.0
  0
LINE
  5
4824A1D
330
4823B0C
100
AcDbEntity
  8
JISSEN
100
AcDbLine
 10
648.8261819999999
 20
238.1648209999998
 30
0.0
 11
650.7019210000001
 21
238.1648209999998
 31
0.0
  0
LINE
  5
4824A1E
330
4823B0C
100
AcDbEntity
  8
JISSEN
100
AcDbLine
 10
678.3002269999999
 20
249.7648209999999
 30
0.0
 11
677.0502269999999
 21
235.3310639999999
 31
0.0
  0
ARC
  5
4824A1F
330
4823B0C
100
AcDbEntity
  8
JISSEN
100
AcDbCircle
 10
674.090528
 20
261.5648209999998
 30
0.0
 40
1.0
100
AcDbArc
 50
161.8998079999987
 51
270.0
  0
LINE
  5
4824A20
330
4823B0C
100
AcDbEntity
  8
JISSEN
100
AcDbLine
 10
678.3002269999999
 20
259.5648209999999
 30
0.0
 11
678.3002269999999
 21
249.7648209999999
 31
0.0
  0
ARC
  5
4824A21
330
4823B0C
100
AcDbEntity
  8
JISSEN
100
AcDbCircle
 10
678.3002269999999
 20
261.9148209999997
 30
0.0
 40
1.0
100
AcDbArc
 50
270.0
 51
0.0
  0
ARC
  5
4824A22
330
4823B0C
100
AcDbEntity
  8
JISSEN
100
AcDbCircle
 10
677.3002269999999
 20
259.5648209999998
 30
0.0
 40
1.0
100
AcDbArc
 50
0.0
 51
90.0
  0
LINE
  5
4824A23
330
4823B0C
100
AcDbEntity
  8
JISSEN
100
AcDbLine
 10
674.0905279999999
 20
260.5648209999999
 30
0.0
 11
677.3002269999999
 21
260.5648209999999
 31
0.0
  0
ARC
  5
4824A24
330
4823B0C
100
AcDbEntity
  8
JISSEN
100
AcDbCircle
 10
674.196533
 20
258.9148209999998
 30
0.0
 40
2.0
100
AcDbArc
 50
90.0
 51
111.2371450000006
  0
LINE
  5
4824A25
330
4823B0C
100
AcDbEntity
  8
JISSEN
  6
CONTINUOUS
100
AcDbLine
 10
678.3002269999999
 20
260.9148209999998
 30
0.0
 11
674.068927
 21
260.9148209999998
 31
0.0
  0
ARC
  5
4824A26
330
4823B0C
100
AcDbEntity
  8
JISSEN
100
AcDbCircle
 10
664.3002270000001
 20
264.7648209999999
 30
0.0
 40
10.5
100
AcDbArc
 50
336.4218220000019
 51
338.4898119999986
  0
ARC
  5
4824A28
330
4823B0C
100
AcDbEntity
  8
JISSEN
100
AcDbCircle
 10
685.3002270000001
 20
240.5932479999999
 30
0.0
 40
2.0
100
AcDbArc
 50
180.0
 51
225.0
  0
LINE
  5
4824A29
330
4823B0C
100
AcDbEntity
  8
JISSEN
100
AcDbLine
 10
682.5974040000001
 20
239.7648209999999
 30
0.0
 11
677.434201
 21
239.7648209999999
 31
0.0
  0
LINE
  5
4824A2A
330
4823B0C
100
AcDbEntity
  8
JISSEN
100
AcDbLine
 10
682.530845
 20
242.764821
 30
0.0
 11
677.694009
 21
242.764821
 31
0.0
  0
LINE
  5
4824A2B
330
4823B0C
100
AcDbEntity
  8
JISSEN
100
AcDbLine
 10
683.4792999999999
 20
244.764821
 30
0.0
 11
677.8672140000001
 21
244.764821
 31
0.0
  0
LINE
  5
4824A2C
330
4823B0C
100
AcDbEntity
  8
JISSEN
  6
CONTINUOUS
100
AcDbLine
 10
683.3002269999999
 20
241.9363929999999
 30
0.0
 11
683.3002269999999
 21
240.593248
 31
0.0
  0
ARC
  5
4824A2D
330
4823B0C
100
AcDbEntity
  8
JISSEN
100
AcDbCircle
 10
685.3002270000001
 20
241.9363929999998
 30
0.0
 40
2.0
100
AcDbArc
 50
134.9999999999999
 51
180.0
  0
LINE
  5
4824A2E
330
4823B0C
100
AcDbEntity
  8
JISSEN
100
AcDbLine
 10
679.7742720000001
 20
238.1648209999998
 30
0.0
 11
677.898533
 21
238.1648209999998
 31
0.0
  0
ARC
  5
4824A2F
330
4823B0C
100
AcDbEntity
  8
JISSEN
100
AcDbCircle
 10
671.7625540000001
 20
221.6010749999999
 30
0.0
 40
17.66374499999999
100
AcDbArc
 50
69.67303499999786
 51
71.68439399999853
  0
TEXT
  5
4824A30
330
4823B0C
100
AcDbEntity
  8
CORE
100
AcDbText
 10
659.6299240000002
 20
225.2967359999998
 30
0.0
 40
4.5
  1
O
  7
35FONT
100
AcDbText
  0
LWPOLYLINE
  5
4824A31
330
4823B0C
100
AcDbEntity
  8
CORE
100
AcDbPolyline
 90
       16
 70
     1
 43
0.0
 10
666.3002269999999
 20
204.2648209999999
 42
0.112617
 10
668.9625359999999
 20
204.8721679999998
 42
0.103264
 10
671.3206849999998
 20
206.6811899999998
 42
0.092308
 10
672.844977
 20
209.3035879999999
 42
0.085818
 10
673.4002270000001
 20
212.5148209999999
 42
0.085818
 10
672.844977
 20
215.7260529999998
 42
0.092308
 10
671.3206849999998
 20
218.3484509999998
 42
0.103264
 10
668.9625359999999
 20
220.157473
 42
0.112617
 10
666.3002269999999
 20
220.7648209999999
 42
0.112617
 10
663.6379179999998
 20
220.157473
 42
0.103264
 10
661.2797689999999
 20
218.3484509999998
 42
0.092308
 10
659.755476
 20
215.7260529999998
 42
0.085818
 10
659.200227
 20
212.5148209999999
 42
0.085818
 10
659.755476
 20
209.3035879999999
 42
0.092308
 10
661.2797689999999
 20
206.6811899999998
 42
0.103264
 10
663.6379179999998
 20
204.8721679999998
 42
0.112617
  0
INSERT
  5
4824A32
330
4823B0C
100
AcDbEntity
  8
SAISEN
100
AcDbBlockReference
  2
*X6
 10
514.4094580000001
 20
533.7648209999998
 30
0.0
 50
270.0
1001
ACAD
1000
HATCH
1002
{
1070
    16
1000
_U
1040
0.2
1040
0.0
1070
     0
1002
}
  0
ARC
  5
4824A33
330
4823B0C
100
AcDbEntity
  8
JISSEN
100
AcDbCircle
 10
656.8379000000001
 20
255.5129149999998
 30
0.0
 40
29.959419
100
AcDbArc
 50
258.1816419999994
 51
267.5366359999993
  0
LINE
  5
4824A34
330
4823B0C
100
AcDbEntity
  8
JISSEN
100
AcDbLine
 10
645.3002269999999
 20
225.2648209999999
 30
0.0
 11
655.5502269999999
 21
225.2648209999999
 31
0.0
  0
ARC
  5
4824A35
330
4823B0C
100
AcDbEntity
  8
JISSEN
100
AcDbCircle
 10
646.2632040000002
 20
231.0423099999998
 30
0.0
 40
5.488855
100
AcDbArc
 50
242.1640189999973
 51
297.8359810000026
  0
LINE
  5
4824A36
330
4823B0C
100
AcDbEntity
  8
JISSEN
100
AcDbLine
 10
645.3002269999999
 20
225.2648209999999
 30
0.0
 11
643.700227
 21
226.1885809999999
 31
0.0
  0
LINE
  5
4824A37
330
4823B0C
100
AcDbEntity
  8
JISSEN
100
AcDbLine
 10
648.8261819999999
 20
226.1885809999999
 30
0.0
 11
650.7019210000001
 21
226.1885809999999
 31
0.0
  0
LINE
  5
4824A38
330
4823B0C
100
AcDbEntity
  8
CORE
 62
     7
100
AcDbLine
 10
665.68704
 20
215.3896399999998
 30
0.0
 11
665.68704
 21
216.2743359999999
 31
0.0
  0
LINE
  5
4824A39
330
4823B0C
100
AcDbEntity
  8
CORE
 62
     7
100
AcDbLine
 10
664.68704
 20
215.3896399999998
 30
0.0
 11
664.68704
 21
216.331988
 31
0.0
  0
TEXT
  5
4824A3A
330
4823B0C
100
AcDbEntity
  8
CORE
100
AcDbText
 10
669.9705300000001
 20
225.2967359999998
 30
0.0
 40
4.5
  1
S
  7
35FONT
100
AcDbText
  0
LINE
  5
4824A3B
330
4823B0C
100
AcDbEntity
  8
CORE
100
AcDbLine
 10
667.5502269999999
 20
225.2648209999999
 30
0.0
 11
669.300227
 21
227.5148210000001
 31
0.0
  0
INSERT
  5
4824A3C
330
4823B0C
100
AcDbEntity
  8
SAISEN
100
AcDbBlockReference
  2
*X5
 10
445.016249
 20
407.4178229999997
 30
0.0
 50
270.0
1001
ACAD
1000
HATCH
1002
{
1070
    16
1000
_U
1040
0.2
1040
4.712388999999999
1070
     0
1002
}
  0
LINE
  5
4824A3D
330
4823B0C
100
AcDbEntity
  8
CORE
100
AcDbLine
 10
667.5502269999999
 20
229.7648210000001
 30
0.0
 11
669.300227
 21
227.5148210000001
 31
0.0
  0
LINE
  5
4824A3E
330
4823B0C
100
AcDbEntity
  8
CORE
100
AcDbLine
 10
665.0502269999999
 20
229.7648210000001
 30
0.0
 11
663.3002269999999
 21
227.5148210000001
 31
0.0
  0
LINE
  5
4824A3F
330
4823B0C
100
AcDbEntity
  8
CORE
100
AcDbLine
 10
665.0502269999999
 20
228.6148209999999
 30
0.0
 11
666.3002269999999
 21
228.6148209999999
 31
0.0
  0
LINE
  5
4824A40
330
4823B0C
100
AcDbEntity
  8
CORE
100
AcDbLine
 10
667.5502269999999
 20
228.6148209999999
 30
0.0
 11
666.3002269999999
 21
228.6148209999999
 31
0.0
  0
LINE
  5
4824A41
330
4823B0C
100
AcDbEntity
  8
CORE
  6
CONTINUOUS
100
AcDbLine
 10
667.5502269999999
 20
228.6148209999999
 30
0.0
 11
667.5502269999999
 21
229.7648210000001
 31
0.0
  0
LINE
  5
4824A42
330
4823B0C
100
AcDbEntity
  8
CORE
  6
CONTINUOUS
100
AcDbLine
 10
665.0502269999999
 20
228.6148209999999
 30
0.0
 11
665.0502269999999
 21
229.7648210000001
 31
0.0
  0
LINE
  5
4824A43
330
4823B0C
100
AcDbEntity
  8
CORE
100
AcDbLine
 10
665.0502269999999
 20
225.2648209999999
 30
0.0
 11
663.3002269999999
 21
227.5148210000001
 31
0.0
  0
LINE
  5
4824A44
330
4823B0C
100
AcDbEntity
  8
CORE
  6
CONTINUOUS
100
AcDbLine
 10
667.5502269999999
 20
226.4148209999998
 30
0.0
 11
667.5502269999999
 21
225.2648209999999
 31
0.0
  0
LINE
  5
4824A45
330
4823B0C
100
AcDbEntity
  8
CORE
  6
CONTINUOUS
100
AcDbLine
 10
665.0502269999999
 20
226.4148209999998
 30
0.0
 11
665.0502269999999
 21
225.2648209999999
 31
0.0
  0
LINE
  5
4824A46
330
4823B0C
100
AcDbEntity
  8
CORE
100
AcDbLine
 10
665.0502269999999
 20
226.4148209999998
 30
0.0
 11
666.3002269999999
 21
226.4148209999998
 31
0.0
  0
LINE
  5
4824A47
330
4823B0C
100
AcDbEntity
  8
CORE
100
AcDbLine
 10
667.5502269999999
 20
226.4148209999998
 30
0.0
 11
666.3002269999999
 21
226.4148209999998
 31
0.0
  0
LINE
  5
4824A48
330
4823B0C
100
AcDbEntity
  8
CORE
100
AcDbLine
 10
665.0502269999999
 20
225.2648209999999
 30
0.0
 11
665.0502269999999
 21
225.2648209999999
 31
0.0
  0
LINE
  5
4824A49
330
4823B0C
100
AcDbEntity
  8
CORE
 62
     7
100
AcDbLine
 10
668.8327870000001
 20
216.2743359999999
 30
0.0
 11
665.68704
 21
216.2743359999999
 31
0.0
  0
LINE
  5
4824A4A
330
4823B0C
100
AcDbEntity
  8
CORE
 62
     7
100
AcDbLine
 10
668.8327870000001
 20
217.6635979999998
 30
0.0
 11
665.68704
 21
219.2137060000001
 31
0.0
  0
LINE
  5
4824A4B
330
4823B0C
100
AcDbEntity
  8
CORE
 62
     7
100
AcDbLine
 10
665.68704
 20
219.2137060000001
 30
0.0
 11
664.68704
 21
219.2137060000001
 31
0.0
  0
LINE
  5
4824A4C
330
4823B0C
100
AcDbEntity
  8
CORE
 62
     7
100
AcDbLine
 10
665.68704
 20
218.09889
 30
0.0
 11
665.68704
 21
217.2743359999999
 31
0.0
  0
LINE
  5
4824A4D
330
4823B0C
100
AcDbEntity
  8
CORE
 62
     7
100
AcDbLine
 10
665.68704
 20
217.2743359999999
 30
0.0
 11
667.3603680000001
 21
217.2743359999999
 31
0.0
  0
LINE
  5
4824A4E
330
4823B0C
100
AcDbEntity
  8
CORE
 62
     7
100
AcDbLine
 10
667.3603680000001
 20
217.2743359999999
 30
0.0
 11
665.68704
 21
218.09889
 31
0.0
  0
LINE
  5
4824A4F
330
4823B0C
100
AcDbEntity
  8
CORE
 62
     7
100
AcDbLine
 10
664.68704
 20
217.2743359999999
 30
0.0
 11
664.68704
 21
219.2137060000001
 31
0.0
  0
LINE
  5
4824A50
330
4823B0C
100
AcDbEntity
  8
CORE
 62
     7
100
AcDbLine
 10
663.7676670000001
 20
217.2743359999999
 30
0.0
 11
663.7676670000001
 21
216.331988
 31
0.0
  0
LINE
  5
4824A51
330
4823B0C
100
AcDbEntity
  8
CORE
 62
     7
100
AcDbLine
 10
664.68704
 20
217.2743359999999
 30
0.0
 11
663.7676670000001
 21
217.2743359999999
 31
0.0
  0
LINE
  5
4824A52
330
4823B0C
100
AcDbEntity
  8
CORE
 62
     7
100
AcDbLine
 10
663.7676670000001
 20
216.331988
 30
0.0
 11
664.68704
 21
216.331988
 31
0.0
  0
LINE
  5
4824A54
330
4823B0C
100
AcDbEntity
  8
JISSEN
100
AcDbLine
 10
679.7742720000001
 20
226.1885809999999
 30
0.0
 11
677.898533
 21
226.1885809999999
 31
0.0
  0
LINE
  5
4824A55
330
4823B0C
100
AcDbEntity
  8
JISSEN
100
AcDbLine
 10
683.3002269999999
 20
225.2648209999999
 30
0.0
 11
677.0502269999999
 21
225.2648209999999
 31
0.0
  0
ARC
  5
4824A56
330
4823B0C
100
AcDbEntity
  8
JISSEN
100
AcDbCircle
 10
671.7625540000001
 20
255.5129149999998
 30
0.0
 40
29.959419
100
AcDbArc
 50
280.1656409999988
 51
281.8183580000005
  0
LWPOLYLINE
  5
4824A57
330
4823B0C
100
AcDbEntity
  8
CORE
 62
     7
100
AcDbPolyline
 90
       16
 70
     1
 43
0.0
 10
667.832787
 20
208.0940200000001
 42
0.121356
 10
667.7648960000001
 20
208.369619
 42
0.105209
 10
667.4712569999999
 20
208.7234429999998
 42
0.088303
 10
666.9833290000001
 20
208.985134
 42
0.0792
 10
666.3002269999999
 20
209.0940200000001
 42
0.0792
 10
665.6171249999999
 20
208.985134
 42
0.088303
 10
665.1291969999999
 20
208.7234429999998
 42
0.105209
 10
664.835558
 20
208.369619
 42
0.121356
 10
664.767667
 20
208.0940200000001
 42
0.121356
 10
664.835558
 20
207.81842
 42
0.105209
 10
665.1291969999999
 20
207.464597
 42
0.088303
 10
665.6171249999999
 20
207.2029059999999
 42
0.0792
 10
666.3002269999999
 20
207.0940200000001
 42
0.0792
 10
666.9833290000001
 20
207.2029059999999
 42
0.088303
 10
667.4712569999999
 20
207.464597
 42
0.105209
 10
667.7648960000001
 20
207.81842
 42
0.121356
  0
LWPOLYLINE
  5
4824A58
330
4823B0C
100
AcDbEntity
  8
CORE
 62
     7
100
AcDbPolyline
 90
       16
 70
     1
 43
0.0
 10
668.8327870000001
 20
208.0940200000001
 42
0.121356
 10
668.650472
 20
208.8341129999999
 42
0.105209
 10
668.0910169999999
 20
209.508233
 42
0.088303
 10
667.294229
 20
209.9355759999998
 42
0.0792
 10
666.3002269999999
 20
210.0940200000001
 42
0.0792
 10
665.306225
 20
209.9355759999998
 42
0.088303
 10
664.509436
 20
209.508233
 42
0.105209
 10
663.9499819999998
 20
208.8341129999999
 42
0.121356
 10
663.7676670000001
 20
208.0940200000001
 42
0.121356
 10
663.9499819999998
 20
207.3539260000001
 42
0.105209
 10
664.509436
 20
206.6798059999999
 42
0.088303
 10
665.306225
 20
206.2524629999999
 42
0.0792
 10
666.3002269999999
 20
206.09402
 42
0.0792
 10
667.294229
 20
206.2524629999999
 42
0.088303
 10
668.0910169999999
 20
206.6798059999999
 42
0.105209
 10
668.650472
 20
207.3539260000001
 42
0.121356
  0
LWPOLYLINE
  5
4824A59
330
4823B0C
100
AcDbEntity
  8
CORE
 62
     7
100
AcDbPolyline
 90
       16
 70
     1
 43
0.0
 10
667.832787
 20
212.7440199999998
 42
0.121356
 10
667.7648960000001
 20
213.019619
 42
0.105209
 10
667.4712569999999
 20
213.3734429999999
 42
0.088303
 10
666.9833290000001
 20
213.6351339999998
 42
0.0792
 10
666.3002269999999
 20
213.7440199999998
 42
0.0792
 10
665.6171249999999
 20
213.6351339999998
 42
0.088303
 10
665.1291969999999
 20
213.3734429999999
 42
0.105209
 10
664.835558
 20
213.019619
 42
0.121356
 10
664.767667
 20
212.7440199999998
 42
0.121356
 10
664.835558
 20
212.46842
 42
0.105209
 10
665.1291969999999
 20
212.1145969999998
 42
0.088303
 10
665.6171249999999
 20
211.8529060000001
 42
0.0792
 10
666.3002269999999
 20
211.7440199999998
 42
0.0792
 10
666.9833290000001
 20
211.8529060000001
 42
0.088303
 10
667.4712569999999
 20
212.1145969999998
 42
0.105209
 10
667.7648960000001
 20
212.46842
 42
0.121356
  0
LWPOLYLINE
  5
4824A5A
330
4823B0C
100
AcDbEntity
  8
CORE
 62
     7
100
AcDbPolyline
 90
       16
 70
     1
 43
0.0
 10
668.8327870000001
 20
212.7440199999998
 42
0.121356
 10
668.650472
 20
213.4841129999999
 42
0.105209
 10
668.0910169999999
 20
214.1582329999999
 42
0.088303
 10
667.294229
 20
214.5855759999999
 42
0.0792
 10
666.3002269999999
 20
214.7440199999998
 42
0.0792
 10
665.306225
 20
214.5855759999999
 42
0.088303
 10
664.509436
 20
214.1582329999999
 42
0.105209
 10
663.9499819999998
 20
213.4841129999999
 42
0.121356
 10
663.7676670000001
 20
212.7440199999998
 42
0.121356
 10
663.9499819999998
 20
212.0039259999998
 42
0.105209
 10
664.509436
 20
211.3298059999999
 42
0.088303
 10
665.306225
 20
210.9024629999999
 42
0.0792
 10
666.3002269999999
 20
210.7440199999998
 42
0.0792
 10
667.294229
 20
210.9024629999999
 42
0.088303
 10
668.0910169999999
 20
211.3298059999999
 42
0.105209
 10
668.650472
 20
212.0039259999998
 42
0.121356
  0
LINE
  5
4824A5C
330
4823B0C
100
AcDbEntity
  8
JISSEN
100
AcDbLine
 10
684.900227
 20
226.1885809999999
 30
0.0
 11
684.900227
 21
238.1648209999998
 31
0.0
  0
LINE
  5
4824A5D
330
4823B0C
100
AcDbEntity
  8
JISSEN
100
AcDbLine
 10
685.3002269999999
 20
250.9363929999999
 30
0.0
 11
685.3002269999999
 21
245.593248
 31
0.0
  0
ARC
  5
4824A5E
330
4823B0C
100
AcDbEntity
  8
JISSEN
100
AcDbCircle
 10
687.300227
 20
250.9363929999998
 30
0.0
 40
2.0
100
AcDbArc
 50
134.9999999999999
 51
180.0
  0
ARC
  5
4824A5F
330
4823B0C
100
AcDbEntity
  8
JISSEN
100
AcDbCircle
 10
685.3002270000001
 20
254.5932479999999
 30
0.0
 40
2.0
100
AcDbArc
 50
315.0
 51
0.0
  0
LINE
  5
4824A60
330
4823B0C
100
AcDbEntity
  8
JISSEN
100
AcDbLine
 10
685.886013
 20
252.3506069999998
 30
0.0
 11
686.7144399999999
 21
253.1790340000001
 31
0.0
  0
ARC
  5
4824A61
330
4823B0C
100
AcDbEntity
  8
JISSEN
100
AcDbCircle
 10
683.3002269999999
 20
245.5932479999999
 30
0.0
 40
2.0
100
AcDbArc
 50
315.0
 51
0.0
  0
LINE
  5
4824A63
330
4823B0C
100
AcDbEntity
  8
CORE
 62
     7
100
AcDbLine
 10
666.3002269999999
 20
169.1348209999999
 30
0.0
 11
666.3002269999999
 21
166.2648209999999
 31
0.0
  0
LINE
  5
4824A64
330
4823B0C
100
AcDbEntity
  8
CORE
 62
     7
100
AcDbLine
 10
666.9127269999998
 20
166.8773209999999
 30
0.0
 11
669.782727
 21
168.4173209999999
 31
0.0
  0
INSERT
  5
4824A65
330
4823B0C
100
AcDbEntity
  8
SAISEN
100
AcDbBlockReference
  2
*X8
 10
434.0162489999999
 20
407.8428229999999
 30
0.0
 50
270.0
1001
ACAD
1000
HATCH
1002
{
1070
    16
1000
_U
1040
0.2
1040
0.0
1070
     0
1002
}
  0
LINE
  5
4824A66
330
4823B0C
100
AcDbEntity
  8
JISSEN
100
AcDbLine
 10
677.0502269999999
 20
194.7648209999999
 30
0.0
 11
674.163716
 21
153.485795
 31
0.0
  0
LINE
  5
4824A67
330
4823B0C
100
AcDbEntity
  8
JISSEN
100
AcDbLine
 10
655.5502269999999
 20
194.7648209999999
 30
0.0
 11
658.4367380000001
 21
153.485795
 31
0.0
  0
LINE
  5
4824A68
330
4823B0C
100
AcDbEntity
  8
CORE
 62
     7
100
AcDbLine
 10
669.782727
 20
184.3948209999998
 30
0.0
 11
669.782727
 21
181.734821
 31
0.0
  0
LINE
  5
4824A69
330
4823B0C
100
AcDbEntity
  8
CORE
 62
     7
100
AcDbLine
 10
666.3002269999999
 20
184.3948209999998
 30
0.0
 11
666.3002269999999
 21
182.3473209999999
 31
0.0
  0
LINE
  5
4824A6A
330
4823B0C
100
AcDbEntity
  8
CORE
 62
     7
100
AcDbLine
 10
666.9127269999998
 20
184.3948209999998
 30
0.0
 11
666.9127269999998
 21
183.782321
 31
0.0
  0
LINE
  5
4824A6B
330
4823B0C
100
AcDbEntity
  8
CORE
 62
     7
100
AcDbLine
 10
669.170227
 20
184.3948209999998
 30
0.0
 11
669.170227
 21
183.782321
 31
0.0
  0
TEXT
  5
4824A6C
330
4823B0C
100
AcDbEntity
  8
CORE
 62
     7
100
AcDbText
 10
662.1068190000002
 20
194.9740369999999
 30
0.0
 40
2.2
  1
フルボール
 50
270.0
  7
35FONT
100
AcDbText
  0
LWPOLYLINE
  5
4824A6D
330
4823B0C
100
AcDbEntity
  8
CORE
 62
     7
100
AcDbPolyline
 90
       16
 70
     1
 43
0.0
 10
666.5029480000001
 20
193.9041439999998
 42
0.068921
 10
666.626944
 20
193.0088659999999
 42
0.080969
 10
666.9530179999999
 20
192.3105139999998
 42
0.107019
 10
667.5214379999999
 20
191.7711749999998
 42
0.159812
 10
668.039583
 20
191.6504119999999
 42
0.137335
 10
668.5940439999999
 20
191.8056329999999
 42
0.107019
 10
669.1261489999999
 20
192.3105139999998
 42
0.080969
 10
669.452223
 20
193.0088659999999
 42
0.068921
 10
669.576219
 20
193.9041439999998
 42
0.068921
 10
669.452223
 20
194.7994209999999
 42
0.080969
 10
669.1261489999999
 20
195.497773
 42
0.107019
 10
668.5940439999999
 20
196.0026550000001
 42
0.137335
 10
668.039583
 20
196.1578759999999
 42
0.137335
 10
667.4851229999999
 20
196.0026550000001
 42
0.107019
 10
666.9530179999999
 20
195.497773
 42
0.080969
 10
666.626944
 20
194.7994209999999
 42
0.068921
  0
LWPOLYLINE
  5
4824A6E
330
4823B0C
100
AcDbEntity
  8
CORE
 62
     7
100
AcDbPolyline
 90
       16
 70
     1
 43
0.0
 10
666.2980629999999
 20
193.9041439999998
 42
0.071469
 10
666.4379799999998
 20
192.930285
 42
0.082915
 10
666.808142
 20
192.1656389999998
 42
0.106741
 10
667.4487000000001
 20
191.578607
 42
0.155035
 10
668.039583
 20
191.4455269999998
 42
0.133064
 10
668.672301
 20
191.6169459999998
 42
0.106741
 10
669.2710239999999
 20
192.1656389999998
 42
0.082915
 10
669.6411869999999
 20
192.930285
 42
0.071469
 10
669.7811040000001
 20
193.9041439999998
 42
0.071469
 10
669.6411869999999
 20
194.8780029999999
 42
0.082915
 10
669.2710239999999
 20
195.642649
 42
0.106741
 10
668.672301
 20
196.191342
 42
0.133064
 10
668.039583
 20
196.3627609999998
 42
0.133064
 10
667.406866
 20
196.191342
 42
0.106741
 10
666.808142
 20
195.642649
 42
0.082915
 10
666.4379799999998
 20
194.8780029999999
 42
0.071469
  0
LWPOLYLINE
  5
4824A6F
330
4823B0C
100
AcDbEntity
  8
CORE
 62
     7
100
AcDbPolyline
 90
       13
 70
     0
 43
0.0
 10
667.222522
 20
195.018598
 42
0.077039
 10
667.0379959999999
 20
194.9510679999998
 42
0.10607
 10
666.7504859999999
 20
194.7009579999999
 42
0.085783
 10
666.5703699999999
 20
194.3484329999998
 42
0.075445
 10
666.5029480000001
 20
193.9041439999998
 42
0.075445
 10
666.5703699999999
 20
193.459855
 42
0.085783
 10
666.7504859999999
 20
193.1073289999999
 42
0.10607
 10
667.0379959999999
 20
192.8572189999999
 42
0.126822
 10
667.348097
 20
192.777278
 42
0.126822
 10
667.6581989999999
 20
192.8572189999999
 42
0.10607
 10
667.9457079999999
 20
193.1073289999999
 42
0.085783
 10
668.125825
 20
193.459855
 42
0.075445
 10
668.1932469999999
 20
193.9041439999998
 42
0.075445
  0
LWPOLYLINE
  5
4824A70
330
4823B0C
100
AcDbEntity
  8
CORE
 62
     7
100
AcDbPolyline
 90
        9
 70
     0
 43
0.0
 10
666.810275
 20
193.9041439999998
 42
0.066451
 10
666.8538519999999
 20
193.577702
 42
0.078999
 10
666.967799
 20
193.324642
 42
0.107159
 10
667.1679169999999
 20
193.12804
 42
0.164705
 10
667.348097
 20
193.084605
 42
0.141695
 10
667.5407870000001
 20
193.1403299999999
 42
0.107159
 10
667.7283949999998
 20
193.324642
 42
0.078999
 10
667.8423419999999
 20
193.577702
 42
0.066451
 10
667.8859199999999
 20
193.9041439999998
 42
0.066451
  0
LINE
  5
4824A71
330
4823B0C
100
AcDbEntity
  8
CORE
 62
     5
100
AcDbLine
 10
664.0502269999999
 20
196.0648209999999
 30
0.0
 11
664.0502269999999
 21
197.764821
 31
0.0
  0
LINE
  5
4824A72
330
4823B0C
100
AcDbEntity
  8
CORE
 62
     5
100
AcDbLine
 10
662.3502269999999
 20
197.764821
 30
0.0
 11
662.3502269999999
 21
196.0648209999999
 31
0.0
  0
INSERT
  5
4824A73
330
4823B0C
100
AcDbEntity
  8
CORE
 62
     5
100
AcDbBlockReference
  2
*X7
 10
552.7474330000001
 20
525.8984129999998
 30
0.0
 50
270.0
1001
ACAD
1000
HATCH
1002
{
1070
    16
1000
_U
1040
0.2
1040
0.0
1070
     0
1002
}
  0
LINE
  5
4824A74
330
4823B0C
100
AcDbEntity
  8
CORE
 62
     5
100
AcDbLine
 10
664.0502269999999
 20
197.764821
 30
0.0
 11
662.3502269999999
 21
197.764821
 31
0.0
  0
LINE
  5
4824A75
330
4823B0C
100
AcDbEntity
  8
CORE
 62
     5
100
AcDbLine
 10
662.3502269999999
 20
196.0648209999999
 30
0.0
 11
664.0502269999999
 21
196.0648209999999
 31
0.0
  0
LINE
  5
4824A76
330
4823B0C
100
AcDbEntity
  8
CORE
 62
     7
100
AcDbLine
 10
667.4259120000002
 20
194.495695
 30
0.0
 11
667.4259120000002
 21
195.2127919999999
 31
0.0
  0
LINE
  5
4824A77
330
4823B0C
100
AcDbEntity
  8
CORE
 62
     7
100
AcDbLine
 10
667.4259120000002
 20
195.2127919999999
 30
0.0
 11
667.221027
 21
195.2127919999999
 31
0.0
  0
LINE
  5
4824A78
330
4823B0C
100
AcDbEntity
  8
CORE
 62
     7
100
AcDbLine
 10
667.221027
 20
195.2127919999999
 30
0.0
 11
667.222522
 21
195.018598
 31
0.0
  0
LWPOLYLINE
  5
4824A79
330
4823B0C
100
AcDbEntity
  8
CORE
 62
     7
100
AcDbPolyline
 90
        5
 70
     0
 43
0.0
 10
667.221027
 20
194.7005799999999
 42
0.050879
 10
667.155407
 20
194.667957
 42
0.107159
 10
666.967799
 20
194.4836449999998
 42
0.078999
 10
666.8538519999999
 20
194.230586
 42
0.066451
 10
666.810275
 20
193.9041439999998
 42
0.066451
  0
LINE
  5
4824A7A
330
4823B0C
100
AcDbEntity
  8
CORE
 62
     7
100
AcDbLine
 10
667.221027
 20
194.7005799999999
 30
0.0
 11
667.221027
 21
194.495695
 31
0.0
  0
LINE
  5
4824A7B
330
4823B0C
100
AcDbEntity
  8
CORE
 62
     7
100
AcDbLine
 10
667.221027
 20
194.495695
 30
0.0
 11
667.4259120000002
 21
194.495695
 31
0.0
  0
LWPOLYLINE
  5
4824A7C
330
4823B0C
100
AcDbEntity
  8
CORE
 62
     7
100
AcDbPolyline
 90
        9
 70
     0
 43
0.0
 10
669.576219
 20
193.9041439999998
 42
0.075445
 10
669.5087969999999
 20
194.3484329999998
 42
0.085783
 10
669.32868
 20
194.7009579999999
 42
0.10607
 10
669.0203519999999
 20
194.9691789999999
 42
0.148081
 10
668.7310689999999
 20
195.03101
 42
0.126822
 10
668.4209679999999
 20
194.9510679999998
 42
0.10607
 10
668.133458
 20
194.7009579999999
 42
0.085783
 10
667.953342
 20
194.3484329999998
 42
0.075445
 10
667.8859199999999
 20
193.9041439999998
 42
0.075445
  0
LWPOLYLINE
  5
4824A7D
330
4823B0C
100
AcDbEntity
  8
CORE
 62
     7
100
AcDbPolyline
 90
       13
 70
     0
 43
0.0
 10
668.8581389999999
 20
193.107707
 42
0.050879
 10
668.923759
 20
193.1403299999999
 42
0.107159
 10
669.111367
 20
193.324642
 42
0.078999
 10
669.225314
 20
193.577702
 42
0.066451
 10
669.2688920000001
 20
193.9041439999998
 42
0.066451
 10
669.225314
 20
194.230586
 42
0.078999
 10
669.111367
 20
194.4836449999998
 42
0.107159
 10
668.923759
 20
194.667957
 42
0.141695
 10
668.7310689999999
 20
194.7236829999999
 42
0.141695
 10
668.5383799999999
 20
194.667957
 42
0.107159
 10
668.3507710000001
 20
194.4836449999998
 42
0.078999
 10
668.236824
 20
194.230586
 42
0.066451
 10
668.1932469999999
 20
193.9041439999998
 42
0.066451
  0
LWPOLYLINE
  5
4824A7E
330
4823B0C
100
AcDbEntity
  8
CORE
 62
     7
100
AcDbPolyline
 90
        2
 70
     0
 43
0.0
 10
668.1932469999999
 20
193.9041439999998
 42
0.003444
 10
668.1931050000001
 20
193.9247709999999
 42
0.085783
  0
LINE
  5
4824A7F
330
4823B0C
100
AcDbEntity
  8
CORE
 62
     7
100
AcDbLine
 10
668.8581389999999
 20
193.107707
 30
0.0
 11
668.8581389999999
 21
193.3125920000001
 31
0.0
  0
LINE
  5
4824A80
330
4823B0C
100
AcDbEntity
  8
CORE
 62
     7
100
AcDbLine
 10
668.8581389999999
 20
193.3125920000001
 30
0.0
 11
668.6532549999999
 21
193.3125920000001
 31
0.0
  0
LINE
  5
4824A81
330
4823B0C
100
AcDbEntity
  8
CORE
 62
     7
100
AcDbLine
 10
668.6532549999999
 20
193.3125920000001
 30
0.0
 11
668.6532549999999
 21
192.595495
 31
0.0
  0
LINE
  5
4824A82
330
4823B0C
100
AcDbEntity
  8
CORE
 62
     7
100
AcDbLine
 10
668.6532549999999
 20
192.595495
 30
0.0
 11
668.8581389999999
 21
192.595495
 31
0.0
  0
LINE
  5
4824A83
330
4823B0C
100
AcDbEntity
  8
CORE
 62
     7
100
AcDbLine
 10
668.8581389999999
 20
192.595495
 30
0.0
 11
668.8566439999999
 21
192.78969
 31
0.0
  0
LWPOLYLINE
  5
4824A84
330
4823B0C
100
AcDbEntity
  8
CORE
 62
     7
100
AcDbPolyline
 90
        5
 70
     0
 43
0.0
 10
668.8566439999999
 20
192.78969
 42
0.077039
 10
669.0411710000001
 20
192.8572189999999
 42
0.10607
 10
669.32868
 20
193.1073289999999
 42
0.085783
 10
669.5087969999999
 20
193.459855
 42
0.075445
 10
669.576219
 20
193.9041439999998
 42
0.075445
  0
CIRCLE
  5
4824A85
330
4823B0C
100
AcDbEntity
  8
CORE
 62
     7
100
AcDbCircle
 10
668.039583
 20
187.2628259999999
 30
0.0
 40
1.126865999999999
  0
LWPOLYLINE
  5
4824A86
330
4823B0C
100
AcDbEntity
  8
CORE
 62
     7
100
AcDbPolyline
 90
       16
 70
     1
 43
0.0
 10
668.039583
 20
184.5481029999998
 42
0.144324
 10
668.6608449999998
 20
184.731244
 42
0.107177
 10
669.2710239999999
 20
185.3432269999998
 42
0.077822
 10
669.680959
 20
186.2735229999998
 42
0.079586
 10
669.7811040000001
 20
187.262826
 42
0.065021
 10
669.639668
 20
188.345835
 42
0.077822
 10
669.2710239999999
 20
189.1824249999999
 42
0.107177
 10
668.6608449999998
 20
189.7944089999998
 42
0.144324
 10
668.039583
 20
189.9775489999999
 42
0.144324
 10
667.4183210000001
 20
189.7944089999998
 42
0.107177
 10
666.808142
 20
189.1824249999999
 42
0.077822
 10
666.4394979999999
 20
188.345835
 42
0.065021
 10
666.2980629999999
 20
187.262826
 42
0.065021
 10
666.4394979999999
 20
186.179818
 42
0.077822
 10
666.808142
 20
185.3432269999998
 42
0.107177
 10
667.4183210000001
 20
184.731244
 42
0.144324
  0
LINE
  5
4824A87
330
4823B0C
100
AcDbEntity
  8
CORE
 62
     7
100
AcDbLine
 10
666.9127269999998
 20
184.3948209999998
 30
0.0
 11
666.3002269999999
 21
184.3948209999998
 31
0.0
  0
LINE
  5
4824A88
330
4823B0C
100
AcDbEntity
  8
CORE
 62
     7
100
AcDbLine
 10
669.782727
 20
184.3948209999998
 30
0.0
 11
669.170227
 21
184.3948209999998
 31
0.0
  0
LINE
  5
4824A89
330
4823B0C
100
AcDbEntity
  8
CORE
 62
     7
100
AcDbLine
 10
669.7811040000001
 20
173.945318
 30
0.0
 11
669.7811040000001
 21
177.8381279999999
 31
0.0
  0
LINE
  5
4824A8A
330
4823B0C
100
AcDbEntity
  8
CORE
 62
     7
100
AcDbLine
 10
666.9127169999999
 20
175.994165
 30
0.0
 11
666.9127169999999
 21
174.9697409999998
 31
0.0
  0
LINE
  5
4824A8B
330
4823B0C
100
AcDbEntity
  8
CORE
 62
     7
100
AcDbLine
 10
666.2980629999999
 20
177.8381279999999
 30
0.0
 11
666.2980629999999
 21
173.945318
 31
0.0
  0
LINE
  5
4824A8C
330
4823B0C
100
AcDbEntity
  8
CORE
 62
     7
100
AcDbLine
 10
669.166449
 20
174.9697409999998
 30
0.0
 11
669.166449
 21
175.994165
 31
0.0
  0
TEXT
  5
4824A8D
330
4823B0C
100
AcDbEntity
  8
CORE
 62
     7
100
AcDbText
 10
662.1068190000002
 20
178.2724589999998
 30
0.0
 40
2.2
  1
JAPAN
 50
270.0
  7
35FONT
100
AcDbText
  0
LINE
  5
4824A8E
330
4823B0C
100
AcDbEntity
  8
CORE
 62
     7
100
AcDbLine
 10
669.03951
 20
182.959821
 30
0.0
 11
666.3002269999999
 21
180.7023209999999
 31
0.0
  0
LINE
  5
4824A8F
330
4823B0C
100
AcDbEntity
  8
CORE
 62
     7
100
AcDbLine
 10
666.9127269999998
 20
182.959821
 30
0.0
 11
669.03951
 21
182.959821
 31
0.0
  0
LINE
  5
4824A90
330
4823B0C
100
AcDbEntity
  8
CORE
 62
     7
100
AcDbLine
 10
666.9127269999998
 20
183.782321
 30
0.0
 11
669.170227
 21
183.782321
 31
0.0
  0
LINE
  5
4824A91
330
4823B0C
100
AcDbEntity
  8
CORE
 62
     7
100
AcDbLine
 10
669.166449
 20
175.994165
 30
0.0
 11
666.9127169999999
 21
175.994165
 31
0.0
  0
LINE
  5
4824A92
330
4823B0C
100
AcDbEntity
  8
CORE
 62
     7
100
AcDbLine
 10
669.166449
 20
177.2234739999998
 30
0.0
 11
666.9127169999999
 21
177.2234739999998
 31
0.0
  0
LINE
  5
4824A93
330
4823B0C
100
AcDbEntity
  8
CORE
 62
     7
100
AcDbLine
 10
669.170227
 20
178.864821
 30
0.0
 11
666.3002269999999
 21
178.864821
 31
0.0
  0
LINE
  5
4824A94
330
4823B0C
100
AcDbEntity
  8
CORE
 62
     7
100
AcDbLine
 10
669.170227
 20
179.678571
 30
0.0
 11
667.2876430000001
 21
179.678571
 31
0.0
  0
LINE
  5
4824A95
330
4823B0C
100
AcDbEntity
  8
CORE
 62
     7
100
AcDbLine
 10
667.2876430000001
 20
179.678571
 30
0.0
 11
669.782727
 21
181.734821
 31
0.0
  0
CIRCLE
  5
4824A96
330
4823B0C
100
AcDbEntity
  8
CORE
 62
     5
100
AcDbCircle
 10
663.2502269999999
 20
180.1989979999997
 30
0.0
 40
0.3
  0
LINE
  5
4824A97
330
4823B0C
100
AcDbEntity
  8
CORE
 62
     7
100
AcDbLine
 10
666.3002269999999
 20
178.864821
 30
0.0
 11
666.3002269999999
 21
180.7023209999999
 31
0.0
  0
LINE
  5
4824A98
330
4823B0C
100
AcDbEntity
  8
CORE
 62
     7
100
AcDbLine
 10
666.3002269999999
 20
182.3473209999999
 30
0.0
 11
666.9127269999998
 21
182.3473209999999
 31
0.0
  0
LINE
  5
4824A99
330
4823B0C
100
AcDbEntity
  8
CORE
 62
     7
100
AcDbLine
 10
666.9127269999998
 20
182.959821
 30
0.0
 11
666.9127269999998
 21
182.3473209999999
 31
0.0
  0
CIRCLE
  5
4824A9A
330
4823B0C
100
AcDbEntity
  8
CORE
 62
     5
100
AcDbCircle
 10
663.2502269999999
 20
180.1989979999997
 30
0.0
 40
0.15
  0
LINE
  5
4824A9B
330
4823B0C
100
AcDbEntity
  8
CORE
 62
     7
100
AcDbLine
 10
666.9127169999999
 20
177.8381279999999
 30
0.0
 11
666.2980629999999
 21
177.8381279999999
 31
0.0
  0
LINE
  5
4824A9C
330
4823B0C
100
AcDbEntity
  8
CORE
 62
     7
100
AcDbLine
 10
666.9127169999999
 20
177.2234739999998
 30
0.0
 11
666.9127169999999
 21
177.8381279999999
 31
0.0
  0
LINE
  5
4824A9D
330
4823B0C
100
AcDbEntity
  8
CORE
 62
     7
100
AcDbLine
 10
669.782727
 20
180.299821
 30
0.0
 11
669.782727
 21
178.2435709999999
 31
0.0
  0
LINE
  5
4824A9E
330
4823B0C
100
AcDbEntity
  8
CORE
 62
     7
100
AcDbLine
 10
669.170227
 20
180.299821
 30
0.0
 11
669.170227
 21
179.678571
 31
0.0
  0
LINE
  5
4824A9F
330
4823B0C
100
AcDbEntity
  8
CORE
 62
     7
100
AcDbLine
 10
669.782727
 20
180.299821
 30
0.0
 11
669.170227
 21
180.299821
 31
0.0
  0
LINE
  5
4824AA0
330
4823B0C
100
AcDbEntity
  8
CORE
 62
     7
100
AcDbLine
 10
669.170227
 20
178.864821
 30
0.0
 11
669.170227
 21
178.2435709999999
 31
0.0
  0
LINE
  5
4824AA1
330
4823B0C
100
AcDbEntity
  8
CORE
 62
     7
100
AcDbLine
 10
669.166449
 20
177.8381279999999
 30
0.0
 11
669.166449
 21
177.2234739999998
 31
0.0
  0
LINE
  5
4824AA2
330
4823B0C
100
AcDbEntity
  8
CORE
 62
     7
100
AcDbLine
 10
669.782727
 20
178.2435709999999
 30
0.0
 11
669.170227
 21
178.2435709999999
 31
0.0
  0
LINE
  5
4824AA3
330
4823B0C
100
AcDbEntity
  8
CORE
 62
     7
100
AcDbLine
 10
669.7811040000001
 20
177.8381279999999
 30
0.0
 11
669.166449
 21
177.8381279999999
 31
0.0
  0
ARC
  5
4824AA4
330
4823B0C
100
AcDbEntity
  8
CORE
 62
     7
100
AcDbCircle
 10
668.039583
 20
174.9697409999998
 30
0.0
 40
1.126865999999999
100
AcDbArc
 50
180.0
 51
0.0
  0
ARC
  5
4824AA5
330
4823B0C
100
AcDbEntity
  8
CORE
 62
     7
100
AcDbCircle
 10
668.039583
 20
173.9453179999999
 30
0.0
 40
1.74152
100
AcDbArc
 50
180.0
 51
0.0
  0
LINE
  5
4824AA6
330
4823B0C
100
AcDbEntity
  8
CORE
 62
     7
100
AcDbLine
 10
666.9127269999998
 20
171.584821
 30
0.0
 11
669.170227
 21
170.456071
 31
0.0
  0
LINE
  5
4824AA7
330
4823B0C
100
AcDbEntity
  8
CORE
 62
     7
100
AcDbLine
 10
666.9127269999998
 20
172.206071
 30
0.0
 11
666.9127269999998
 21
171.584821
 31
0.0
  0
LINE
  5
4824AA8
330
4823B0C
100
AcDbEntity
  8
CORE
 62
     7
100
AcDbLine
 10
666.3002269999999
 20
172.206071
 30
0.0
 11
666.3002269999999
 21
170.053571
 31
0.0
  0
LINE
  5
4824AA9
330
4823B0C
100
AcDbEntity
  8
CORE
 62
     7
100
AcDbLine
 10
666.3002269999999
 20
172.206071
 30
0.0
 11
666.9127269999998
 21
172.206071
 31
0.0
  0
LINE
  5
4824AAA
330
4823B0C
100
AcDbEntity
  8
CORE
 62
     7
100
AcDbLine
 10
667.218977
 20
170.5129459999998
 30
0.0
 11
667.218977
 21
168.6779
 31
0.0
  0
LINE
  5
4824AAB
330
4823B0C
100
AcDbEntity
  8
CORE
 62
     7
100
AcDbLine
 10
666.9127269999998
 20
170.6660709999998
 30
0.0
 11
666.9127269999998
 21
170.053571
 31
0.0
  0
LINE
  5
4824AAC
330
4823B0C
100
AcDbEntity
  8
CORE
 62
     7
100
AcDbLine
 10
666.9127269999998
 20
170.6660709999998
 30
0.0
 11
667.218977
 21
170.5129459999998
 31
0.0
  0
LINE
  5
4824AAD
330
4823B0C
100
AcDbEntity
  8
CORE
 62
     7
100
AcDbLine
 10
666.9127269999998
 20
169.1348209999999
 30
0.0
 11
666.9127269999998
 21
168.5135709999999
 31
0.0
  0
LINE
  5
4824AAE
330
4823B0C
100
AcDbEntity
  8
CORE
 62
     7
100
AcDbLine
 10
666.9127269999998
 20
170.053571
 30
0.0
 11
666.3002269999999
 21
170.053571
 31
0.0
  0
LINE
  5
4824AAF
330
4823B0C
100
AcDbEntity
  8
CORE
 62
     7
100
AcDbLine
 10
666.9127269999998
 20
169.1348209999999
 30
0.0
 11
666.3002269999999
 21
169.1348209999999
 31
0.0
  0
LINE
  5
4824AB0
330
4823B0C
100
AcDbEntity
  8
CORE
 62
     7
100
AcDbLine
 10
667.218977
 20
168.6779
 30
0.0
 11
666.9127269999998
 21
168.5135709999999
 31
0.0
  0
LINE
  5
4824AB1
330
4823B0C
100
AcDbEntity
  8
CORE
 62
     7
100
AcDbLine
 10
667.831477
 20
170.2066959999999
 30
0.0
 11
668.989256
 21
169.6278059999999
 31
0.0
  0
LINE
  5
4824AB2
330
4823B0C
100
AcDbEntity
  8
CORE
 62
     7
100
AcDbLine
 10
668.989256
 20
169.6278059999999
 30
0.0
 11
667.831477
 21
169.006558
 31
0.0
  0
LINE
  5
4824AB3
330
4823B0C
100
AcDbEntity
  8
CORE
 62
     7
100
AcDbLine
 10
667.831477
 20
169.006558
 30
0.0
 11
667.831477
 21
170.2066959999999
 31
0.0
  0
LINE
  5
4824AB4
330
4823B0C
100
AcDbEntity
  8
CORE
 62
     7
100
AcDbLine
 10
669.170227
 20
171.4885709999998
 30
0.0
 11
669.782727
 21
171.4885709999998
 31
0.0
  0
LINE
  5
4824AB5
330
4823B0C
100
AcDbEntity
  8
CORE
 62
     7
100
AcDbLine
 10
669.782727
 20
171.4885709999998
 30
0.0
 11
669.782727
 21
168.4173209999999
 31
0.0
  0
LINE
  5
4824AB6
330
4823B0C
100
AcDbEntity
  8
CORE
 62
     7
100
AcDbLine
 10
669.170227
 20
171.4885709999998
 30
0.0
 11
669.170227
 21
170.456071
 31
0.0
  0
ARC
  5
4824AB7
330
4823B0C
100
AcDbEntity
  8
JISSEN
100
AcDbCircle
 10
662.4269939999999
 20
153.7648209999999
 30
0.0
 40
4.0
100
AcDbArc
 50
184.000000000003
 51
270.0
  0
ARC
  5
4824AB8
330
4823B0C
100
AcDbEntity
  8
JISSEN
100
AcDbCircle
 10
670.17346
 20
153.7648209999999
 30
0.0
 40
4.0
100
AcDbArc
 50
270.0
 51
355.9999999999969
  0
LINE
  5
4824AB9
330
4823B0C
100
AcDbEntity
  8
CORE
 62
     7
100
AcDbLine
 10
666.9127269999998
 20
166.8773209999999
 30
0.0
 11
666.9127269999998
 21
166.2648209999999
 31
0.0
  0
LINE
  5
4824ABA
330
4823B0C
100
AcDbEntity
  8
CORE
 62
     7
100
AcDbLine
 10
666.3002269999999
 20
166.2648209999999
 30
0.0
 11
666.9127269999998
 21
166.2648209999999
 31
0.0
  0
LINE
  5
4824ABB
330
4823B0C
100
AcDbEntity
  8
CORE
 62
     5
100
AcDbLine
 10
662.3502269999999
 20
164.764821
 30
0.0
 11
664.0502269999999
 21
164.764821
 31
0.0
  0
LINE
  5
4824ABC
330
4823B0C
100
AcDbEntity
  8
CORE
 62
     5
100
AcDbLine
 10
664.0502269999999
 20
166.464821
 30
0.0
 11
662.3502269999999
 21
166.464821
 31
0.0
  0
LINE
  5
4824ABD
330
4823B0C
100
AcDbEntity
  8
CORE
 62
     5
100
AcDbLine
 10
664.0502269999999
 20
164.764821
 30
0.0
 11
664.0502269999999
 21
166.464821
 31
0.0
  0
INSERT
  5
4824ABE
330
4823B0C
100
AcDbEntity
  8
CORE
 62
     5
100
AcDbBlockReference
  2
*X7
 10
552.7474330000001
 20
494.5984129999998
 30
0.0
 50
270.0
1001
ACAD
1000
HATCH
1002
{
1070
    16
1000
_U
1040
0.2
1040
0.0
1070
     0
1002
}
  0
LINE
  5
4824ABF
330
4823B0C
100
AcDbEntity
  8
CORE
 62
     5
100
AcDbLine
 10
662.3502269999999
 20
166.464821
 30
0.0
 11
662.3502269999999
 21
164.764821
 31
0.0
  0
LINE
  5
4824AC0
330
4823B0C
100
AcDbEntity
  8
JISSEN
100
AcDbLine
 10
662.4269939999999
 20
149.7648209999999
 30
0.0
 11
670.1734599999999
 21
149.7648209999999
 31
0.0
  0
LINE
  5
4824AC2
330
4823B0C
100
AcDbEntity
  8
JISSEN
100
AcDbLine
 10
683.3002269999999
 20
304.2648209999999
 30
0.0
 11
645.3002269999999
 21
304.2648209999999
 31
0.0
  0
LINE
  5
4824AC3
330
4823B0C
100
AcDbEntity
  8
NITEN
100
AcDbLine
 10
500.5791492458616
 20
149.7648209999999
 30
0.0
 11
497.6815972356616
 21
149.7648209999999
 31
0.0
  0
ARC
  5
4824AC4
330
4823B0C
100
AcDbEntity
  8
NITEN
100
AcDbCircle
 10
497.6815972356616
 20
151.7648209999999
 30
0.0
 40
2.0
100
AcDbArc
 50
179.3178902079992
 51
270.0
  0
ARC
  5
4824AC5
330
4823B0C
100
AcDbEntity
  8
NITEN
100
AcDbCircle
 10
500.5791492458616
 20
151.7648209999999
 30
0.0
 40
2.0
100
AcDbArc
 50
270.0
 51
0.7805799825634927
  0
LWPOLYLINE
  5
4824AC6
330
4823B0C
100
AcDbEntity
  8
HASEN
100
AcDbPolyline
 90
        4
 70
     0
 43
0.0
 10
285.300228
 20
354.140655
 42
-0.411765
 10
302.300228
 20
354.140655
 42
0.411765
 10
319.3002279999999
 20
354.140655
 42
0.411765
 10
302.300228
 20
354.140655
  0
LINE
  5
4824AC7
330
4823B0C
100
AcDbEntity
  8
NITEN
100
AcDbLine
 10
285.300228
 20
328.093115
 30
0.0
 11
285.300228
 21
354.140655
 31
0.0
  0
LWPOLYLINE
  5
4824AC9
330
4823B0C
100
AcDbEntity
  8
HASEN
100
AcDbPolyline
 90
        4
 70
     0
 43
0.0
 10
285.300228
 20
103.3566089999999
 42
0.411765
 10
302.300228
 20
103.3566089999999
 42
-0.411765
 10
319.3002279999999
 20
103.3566089999999
 42
-0.411765
 10
302.300228
 20
103.3566089999999
  0
LINE
  5
4824ACA
330
4823B0C
100
AcDbEntity
  8
NITEN
100
AcDbLine
 10
285.300228
 20
130.0931149999999
 30
0.0
 11
285.300228
 21
103.3566089999999
 31
0.0
  0
LINE
  5
4824ACC
330
4823B0C
100
AcDbEntity
  8
NITEN
100
AcDbLine
 10
319.3002279999999
 20
328.093115
 30
0.0
 11
319.3002279999999
 21
354.140655
 31
0.0
  0
LINE
  5
4824ACD
330
4823B0C
100
AcDbEntity
  8
NITEN
100
AcDbLine
 10
319.3002279999999
 20
130.0931149999999
 30
0.0
 11
319.3002279999999
 21
103.3566089999999
 31
0.0
  0
LWPOLYLINE
  5
4824ACE
330
4823B0C
100
AcDbEntity
  8
TENSEN
100
AcDbPolyline
 90
        6
 70
     0
 43
0.0
 10
677.0502269999999
 20
217.2686319999999
 10
680.1497629999999
 20
217.2686319999999
 10
684.3002269999999
 20
215.7686319999999
 10
684.3002269999999
 20
208.7686319999999
 10
680.1497629999999
 20
207.2686319999999
 10
677.0502269999999
 20
207.2686319999999
  0
LINE
  5
4824ACF
330
4823B0C
100
AcDbEntity
  8
NITEN
100
AcDbLine
 10
647.337145
 20
219.0934549999999
 30
0.0
 11
655.5502269999999
 21
219.0934549999999
 31
0.0
  0
LINE
  5
4824AD0
330
4823B0C
100
AcDbEntity
  8
NITEN
100
AcDbLine
 10
647.3002269999999
 20
204.268632
 30
0.0
 11
655.5502269999999
 21
204.268632
 31
0.0
  0
LWPOLYLINE
  5
4824AD1
330
4823B0C
100
AcDbEntity
  8
TENSEN
100
AcDbPolyline
 90
        3
 70
     0
 43
0.0
 10
649.2108919999999
 20
207.2686319999999
 42
0.10594
 10
654.3002269999999
 20
208.7686319999999
 42
0.0095375699216785
 10
655.5502269999999
 20
208.4109405904521
 42
0.0095375699216785
  0
LWPOLYLINE
  5
4824AD2
330
4823B0C
100
AcDbEntity
  8
TENSEN
100
AcDbPolyline
 90
        2
 70
     0
 43
0.0
 10
679.3895619999999
 20
217.2686319999999
 42
0.0469648688624095
 10
677.0502269999999
 20
216.868545895536
 42
0.0469648688624095
  0
LINE
  5
4824AD3
330
4823B0C
100
AcDbEntity
  8
NITEN
100
AcDbLine
 10
654.3002269999999
 20
215.7686319999999
 30
0.0
 11
654.3002269999999
 21
208.7686319999999
 31
0.0
  0
LWPOLYLINE
  5
4824AD4
330
4823B0C
100
AcDbEntity
  8
NITEN
100
AcDbPolyline
 90
        3
 70
     0
 43
0.0
 10
649.6117339999999
 20
197.768632
 10
649.4075350000001
 20
204.268632
 10
647.3132889999999
 20
207.2686319999999
  0
LWPOLYLINE
  5
4824AD5
330
4823B0C
100
AcDbEntity
  8
NITEN
100
AcDbPolyline
 90
        2
 70
     0
 43
0.0
 10
647.3002269999999
 20
207.6844159999999
 10
647.611734
 20
197.768632
  0
LWPOLYLINE
  5
4824AD9
330
4823B0C
100
AcDbEntity
  8
NITEN
100
AcDbPolyline
 90
        3
 70
     0
 43
0.0
 10
678.9887189999999
 20
197.768632
 10
679.1929189999999
 20
204.268632
 10
681.2871649999999
 20
207.2686319999999
  0
LWPOLYLINE
  5
4824ADA
330
4823B0C
100
AcDbEntity
  8
NITEN
100
AcDbPolyline
 90
        2
 70
     0
 43
0.0
 10
680.9887189999999
 20
197.768632
 10
681.3002269999999
 20
207.6844159999999
  0
LWPOLYLINE
  5
4824ADB
330
4823B0C
100
AcDbEntity
  8
TENSEN
100
AcDbPolyline
 90
        2
 70
     0
 43
0.0
 10
681.026894
 20
225.5534549999999
 10
681.3002269999999
 20
216.8528479999999
  0
LWPOLYLINE
  5
4824ADC
330
4823B0C
100
AcDbEntity
  8
TENSEN
100
AcDbPolyline
 90
        3
 70
     0
 43
0.0
 10
679.0268939999999
 20
225.5534549999999
 10
679.229837
 20
219.0934549999999
 10
680.6231419999999
 20
217.09755
  0
LWPOLYLINE
  5
4824ADD
330
4823B0C
100
AcDbEntity
  8
TENSEN
100
AcDbPolyline
 90
        3
 70
     0
 43
0.0
 10
649.6473959999999
 20
225.5534549999999
 10
649.4444529999999
 20
219.0934549999999
 10
648.0760619999999
 20
217.13324
  0
LWPOLYLINE
  5
4824ADE
330
4823B0C
100
AcDbEntity
  8
TENSEN
100
AcDbPolyline
 90
        2
 70
     0
 43
0.0
 10
647.3002269999999
 20
216.8528479999999
 10
647.5735589999999
 20
225.5534549999999
  0
LWPOLYLINE
  5
4824ADF
330
4823B0C
100
AcDbEntity
  8
NITEN
100
AcDbPolyline
 90
        4
 70
     0
 43
0.0
 10
677.0502269999999
 20
197.768632
 10
684.3002269999999
 20
197.768632
 10
684.3002269999999
 20
155.768632
 10
674.3233475308337
 20
155.768632
  0
LINE
  5
4824AE0
330
4823B0C
100
AcDbEntity
  8
NITEN
100
AcDbLine
 10
647.3002269999999
 20
151.7686319999999
 30
0.0
 11
658.9606948963044
 21
151.7686319999999
 31
0.0
  0
LWPOLYLINE
  5
4824AE1
330
4823B0C
100
AcDbEntity
  8
NITEN
100
AcDbPolyline
 90
        3
 70
     0
 43
0.0
 10
647.3002269999999
 20
149.3851249999999
 10
649.3002269999999
 20
151.7686319999999
 10
649.3002269999999
 20
155.768632
  0
LWPOLYLINE
  5
4824AE2
330
4823B0C
100
AcDbEntity
  8
NITEN
100
AcDbPolyline
 90
        3
 70
     0
 43
0.0
 10
681.3002269999999
 20
149.3851249999999
 10
679.3002269999999
 20
151.7686319999999
 10
679.3002269999999
 20
155.768632
  0
LINE
  5
4824AE3
330
4823B0C
100
AcDbEntity
  8
NITEN
100
AcDbLine
 10
677.0502269999999
 20
219.0934549999999
 30
0.0
 11
681.2298369999999
 21
219.0934549999999
 31
0.0
  0
LWPOLYLINE
  5
4824AE4
330
4823B0C
100
AcDbEntity
  8
TENSEN
100
AcDbPolyline
 90
        3
 70
     0
 43
0.0
 10
655.5502269999999
 20
216.1263234095478
 42
0.0095375699216785
 10
654.3002269999999
 20
215.7686319999999
 42
0.10594
 10
649.2108919999999
 20
217.2686319999999
  0
LWPOLYLINE
  5
4824AE5
330
4823B0C
100
AcDbEntity
  8
TENSEN
100
AcDbPolyline
 90
        2
 70
     0
 43
0.0
 10
677.0502269999999
 20
207.6687181044639
 42
0.0469648688624093
 10
679.3895619999999
 20
207.2686319999999
  0
LWPOLYLINE
  5
4824AE6
330
4823B0C
100
AcDbEntity
  8
TENSEN
100
AcDbPolyline
 90
        6
 70
     0
 43
0.0
 10
655.5502269999999
 20
207.2686319999999
 10
648.4506899999999
 20
207.2686319999999
 10
644.300227
 20
208.7686319999999
 10
644.300227
 20
215.7686319999999
 10
648.4506899999999
 20
217.2686319999999
 10
655.5502269999999
 20
217.2686319999999
  0
LINE
  5
4824AE7
330
4823B0C
100
AcDbEntity
  8
JISSEN
100
AcDbLine
 10
668.8327870000001
 20
217.6635979999998
 30
0.0
 11
668.8327870000001
 21
216.2743359999999
 31
0.0
  0
LINE
  5
4824AE8
330
4823B0C
100
AcDbEntity
  8
NITEN
100
AcDbLine
 10
677.0502269999999
 20
204.268632
 30
0.0
 11
681.3002269999999
 21
204.268632
 31
0.0
  0
LWPOLYLINE
  5
4824AE9
330
4823B0C
100
AcDbEntity
  8
NITEN
100
AcDbPolyline
 90
        4
 70
     0
 43
0.0
 10
658.2771064691663
 20
155.768632
 10
644.300227
 20
155.768632
 10
644.300227
 20
197.768632
 10
655.5502269999999
 20
197.768632
  0
LINE
  5
4824AEA
330
4823B0C
100
AcDbEntity
  8
NITEN
100
AcDbLine
 10
673.6397591036954
 20
151.7686319999999
 30
0.0
 11
681.3002269999999
 21
151.7686319999999
 31
0.0
  0
LINE
  5
4824AEB
330
4823B0C
100
AcDbEntity
  8
NITEN
100
AcDbLine
 10
673.6397591036954
 20
151.7686319999999
 30
0.0
 11
681.3002269999999
 21
151.7686319999999
 31
0.0
  0
LINE
  5
4824AEC
330
4823B0C
100
AcDbEntity
  8
JISSEN
100
AcDbLine
 10
681.3002269999999
 20
155.768632
 30
0.0
 11
681.3002269999999
 21
130.0931149999999
 31
0.0
  0
LINE
  5
4824AED
330
4823B0C
100
AcDbEntity
  8
JISSEN
100
AcDbLine
 10
681.3002269999999
 20
328.093115
 30
0.0
 11
681.3002269999999
 21
304.2648209999999
 31
0.0
  0
TEXT
  5
4824AF6
330
4823B0C
100
AcDbEntity
  8
SUNPOU
100
AcDbText
 10
601.406339955887
 20
6.96674121372564
 30
0.0
 40
6.0
  1
A4 用紙、印刷尺度1/2
  7
K
100
AcDbText
  0
TEXT
  5
4824AF7
330
4823B0C
100
AcDbEntity
  8
SUNPOU
100
AcDbText
 10
601.406339955887
 20
17.46674121372564
 30
0.0
 40
6.0
  1
末端試験装置B用BOX断面 TC-B
  7
K
100
AcDbText
  0
TEXT
  5
4824AF8
330
4823B0C
100
AcDbEntity
  8
SUNPOU
100
AcDbText
 10
254.8667341084804
 20
6.96674121372564
 30
0.0
 40
6.0
  1
A4 用紙、印刷尺度1/2
  7
K
100
AcDbText
  0
TEXT
  5
4824AF9
330
4823B0C
100
AcDbEntity
  8
SUNPOU
100
AcDbText
 10
254.8667341084804
 20
17.46674121372564
 30
0.0
 40
6.0
  1
末端試験装置B用BOX TC-B
  7
K
100
AcDbText
  0
ENDSEC
  0
SECTION
  2
OBJECTS
  0
DICTIONARY
  5
4823B01
330
0
100
AcDbDictionary
  3
ACAD_GROUP
350
4823B02
  3
ACAD_LAYOUT
350
48243E1
  3
ACAD_MLINESTYLE
350
4823B0F
  3
ACAD_PLOTSETTINGS
350
48243E2
  3
ACAD_PLOTSTYLENAME
350
48243DF
  3
ACDBHEADERROUNDTRIPXREC
350
4824B80
  3
ACDBVARIABLEDICTIONARY
350
4824B7D
  0
DICTIONARY
  5
4824B20
330
4823B0C
100
AcDbDictionary
280
     1
  3
ACAD_LAYOUTSELFREF
360
4824BA2
  0
DICTIONARY
  5
4824B1E
330
4823B09
100
AcDbDictionary
280
     1
  3
ACAD_LAYOUTSELFREF
360
4824BA1
  0
DICTIONARY
  5
4823B02
102
{ACAD_REACTORS
330
4823B01
102
}
330
0
100
AcDbDictionary
  0
DICTIONARY
  5
48243E1
102
{ACAD_REACTORS
330
4823B01
102
}
330
4823B01
100
AcDbDictionary
  0
DICTIONARY
  5
4823B0F
102
{ACAD_REACTORS
330
4823B01
102
}
330
0
100
AcDbDictionary
  3
STANDARD
350
4823B10
  0
DICTIONARY
  5
48243E2
102
{ACAD_REACTORS
330
4823B01
102
}
330
4823B01
100
AcDbDictionary
  0
ACDBDICTIONARYWDFLT
  5
48243DF
102
{ACAD_REACTORS
330
4823B01
102
}
330
4823B01
100
AcDbDictionary
281
     1
  3
Normal
350
48243E0
100
AcDbDictionaryWithDefault
340
48243E0
  0
DICTIONARY
  5
4824B80
102
{ACAD_REACTORS
330
4823B01
102
}
330
4823B01
100
AcDbDictionary
  3
CEPSNTYPE
350
4824B8A
  3
DIMSTYLEDATA
350
4824B8E
  3
FINGERPRINTGUID
350
4824B8B
  3
HYPERLINKBASE
350
4824B83
  3
INSUNITS
350
4824B89
  3
LAYOUTDICT
350
4824B85
  3
LWETCUNION
350
4824B88
  3
PLOTSETDICT
350
4824B86
  3
PLOTSTYLNAMDICT
350
4824B87
  3
PSVPSCALE
350
4824B8D
  3
PUCSBASE
350
4824B91
  3
PUCSORGBACK
350
4824B97
  3
PUCSORGBOTTOM
350
4824B93
  3
PUCSORGFRONT
350
4824B96
  3
PUCSORGLEFT
350
4824B94
  3
PUCSORGRIGHT
350
4824B95
  3
PUCSORGTOP
350
4824B92
  3
PUCSORTHOREF
350
4824B8F
  3
PUCSORTHOVIEW
350
4824B90
  3
STYLESHEET
350
4824B84
  3
TSTACKALIGN
350
4824B81
  3
TSTACKSIZE
350
4824B82
  3
UCSBASE
350
4824B9A
  3
UCSORGBACK
350
4824BA0
  3
UCSORGBOTTOM
350
4824B9C
  3
UCSORGFRONT
350
4824B9F
  3
UCSORGLEFT
350
4824B9D
  3
UCSORGRIGHT
350
4824B9E
  3
UCSORGTOP
350
4824B9B
  3
UCSORTHOREF
350
4824B98
  3
UCSORTHOVIEW
350
4824B99
  3
VERSIONGUID
350
4824B8C
  0
DICTIONARY
  5
4824B7D
102
{ACAD_REACTORS
330
4823B01
102
}
330
4823B01
100
AcDbDictionary
  3
DIMASSOC
350
4824B7E
  0
XRECORD
  5
4824BA2
102
{ACAD_REACTORS
330
4824B20
102
}
330
4824B20
100
AcDbXrecord
340
4823B0C
  0
XRECORD
  5
4824BA1
102
{ACAD_REACTORS
330
4824B1E
102
}
330
4824B1E
100
AcDbXrecord
340
4823B09
  0
MLINESTYLE
  5
4823B10
102
{ACAD_REACTORS
330
4823B0F
102
}
330
0
100
AcDbMlineStyle
  2
STANDARD
 70
     0
  3

 62
   256
 51
90.0
 52
90.0
 71
     2
 49
0.5
 62
   256
  6
BYLAYER
 49
-0.5
 62
   256
  6
BYLAYER
  0
ACDBPLACEHOLDER
  5
48243E0
102
{ACAD_REACTORS
330
48243DF
102
}
330
48243DF
100
AcDbPlaceHolder
280
     0
  0
XRECORD
  5
4824B8A
102
{ACAD_REACTORS
330
4824B80
102
}
330
4824B80
100
AcDbXrecord
 90
        0
  0
XRECORD
  5
4824B8E
102
{ACAD_REACTORS
330
4824B80
102
}
330
4824B80
100
AcDbXrecord
1000
DSTYLE
1002
{
1070
   279
 70
     2
1070
   341
340
4823B11
1070
   342
340
4823B11
1002
}
  0
XRECORD
  5
4824B8B
102
{ACAD_REACTORS
330
4824B80
102
}
330
4824B80
100
AcDbXrecord
  1
{02D3749F-6B3D-42F4-920E-5AB9C9D99A12}
  0
XRECORD
  5
4824B83
102
{ACAD_REACTORS
330
4824B80
102
}
330
4824B80
100
AcDbXrecord
  1

  0
XRECORD
  5
4824B89
102
{ACAD_REACTORS
330
4824B80
102
}
330
4824B80
100
AcDbXrecord
 90
        0
  0
XRECORD
  5
4824B85
102
{ACAD_REACTORS
330
4824B80
102
}
330
4824B80
100
AcDbXrecord
340
48243E1
  0
XRECORD
  5
4824B88
102
{ACAD_REACTORS
330
4824B80
102
}
330
4824B80
100
AcDbXrecord
 90
    14877
  0
XRECORD
  5
4824B86
102
{ACAD_REACTORS
330
4824B80
102
}
330
4824B80
100
AcDbXrecord
340
48243E2
  0
XRECORD
  5
4824B87
102
{ACAD_REACTORS
330
4824B80
102
}
330
4824B80
100
AcDbXrecord
340
48243DF
  0
XRECORD
  5
4824B8D
102
{ACAD_REACTORS
330
4824B80
102
}
330
4824B80
100
AcDbXrecord
 40
0.0
  0
XRECORD
  5
4824B91
102
{ACAD_REACTORS
330
4824B80
102
}
330
4824B80
100
AcDbXrecord
340
0
  0
XRECORD
  5
4824B97
102
{ACAD_REACTORS
330
4824B80
102
}
330
4824B80
100
AcDbXrecord
 10
0.0
 20
0.0
 30
0.0
  0
XRECORD
  5
4824B93
102
{ACAD_REACTORS
330
4824B80
102
}
330
4824B80
100
AcDbXrecord
 10
0.0
 20
0.0
 30
0.0
  0
XRECORD
  5
4824B96
102
{ACAD_REACTORS
330
4824B80
102
}
330
4824B80
100
AcDbXrecord
 10
0.0
 20
0.0
 30
0.0
  0
XRECORD
  5
4824B94
102
{ACAD_REACTORS
330
4824B80
102
}
330
4824B80
100
AcDbXrecord
 10
0.0
 20
0.0
 30
0.0
  0
XRECORD
  5
4824B95
102
{ACAD_REACTORS
330
4824B80
102
}
330
4824B80
100
AcDbXrecord
 10
0.0
 20
0.0
 30
0.0
  0
XRECORD
  5
4824B92
102
{ACAD_REACTORS
330
4824B80
102
}
330
4824B80
100
AcDbXrecord
 10
0.0
 20
0.0
 30
0.0
  0
XRECORD
  5
4824B8F
102
{ACAD_REACTORS
330
4824B80
102
}
330
4824B80
100
AcDbXrecord
340
0
  0
XRECORD
  5
4824B90
102
{ACAD_REACTORS
330
4824B80
102
}
330
4824B80
100
AcDbXrecord
 70
     0
  0
XRECORD
  5
4824B84
102
{ACAD_REACTORS
330
4824B80
102
}
330
4824B80
100
AcDbXrecord
  1

  0
XRECORD
  5
4824B81
102
{ACAD_REACTORS
330
4824B80
102
}
330
4824B80
100
AcDbXrecord
 90
        1
  0
XRECORD
  5
4824B82
102
{ACAD_REACTORS
330
4824B80
102
}
330
4824B80
100
AcDbXrecord
 90
       70
  0
XRECORD
  5
4824B9A
102
{ACAD_REACTORS
330
4824B80
102
}
330
4824B80
100
AcDbXrecord
340
0
  0
XRECORD
  5
4824BA0
102
{ACAD_REACTORS
330
4824B80
102
}
330
4824B80
100
AcDbXrecord
 10
0.0
 20
0.0
 30
0.0
  0
XRECORD
  5
4824B9C
102
{ACAD_REACTORS
330
4824B80
102
}
330
4824B80
100
AcDbXrecord
 10
0.0
 20
0.0
 30
0.0
  0
XRECORD
  5
4824B9F
102
{ACAD_REACTORS
330
4824B80
102
}
330
4824B80
100
AcDbXrecord
 10
0.0
 20
0.0
 30
0.0
  0
XRECORD
  5
4824B9D
102
{ACAD_REACTORS
330
4824B80
102
}
330
4824B80
100
AcDbXrecord
 10
0.0
 20
0.0
 30
0.0
  0
XRECORD
  5
4824B9E
102
{ACAD_REACTORS
330
4824B80
102
}
330
4824B80
100
AcDbXrecord
 10
0.0
 20
0.0
 30
0.0
  0
XRECORD
  5
4824B9B
102
{ACAD_REACTORS
330
4824B80
102
}
330
4824B80
100
AcDbXrecord
 10
0.0
 20
0.0
 30
0.0
  0
XRECORD
  5
4824B98
102
{ACAD_REACTORS
330
4824B80
102
}
330
4824B80
100
AcDbXrecord
340
0
  0
XRECORD
  5
4824B99
102
{ACAD_REACTORS
330
4824B80
102
}
330
4824B80
100
AcDbXrecord
 70
     0
  0
XRECORD
  5
4824B8C
102
{ACAD_REACTORS
330
4824B80
102
}
330
4824B80
100
AcDbXrecord
  1
{9222EB2A-D564-4D78-86F5-67BE6EBC152E}
  0
DICTIONARYVAR
  5
4824B7E
102
{ACAD_REACTORS
330
4824B7D
102
}
330
4824B7D
100
DictionaryVariables
280
     0
  1
0
  0
ENDSEC
  0
EOF
