  0
SECTION
  2
HEADER
  9
$ACADVER
  1
AC1015
  9
$ACADMAINTVER
 70
    10
  9
$DWGCODEPAGE
  3
ANSI_932
  9
$INSBASE
 10
0.0
 20
0.0
 30
0.0
  9
$EXTMIN
 10
-0.0058240566324912
 20
-0.0086995331269009
 30
-0.0000000000112498
  9
$EXTMAX
 10
362.0144587286248
 20
546.036275044576
 30
0.0000000000002956
  9
$LIMMIN
 10
0.0
 20
0.0
  9
$LIMMAX
 10
362.0
 20
546.0
  9
$ORTHOMODE
 70
     1
  9
$REGENMODE
 70
     1
  9
$FILLMODE
 70
     1
  9
$QTEXTMODE
 70
     0
  9
$MIRRTEXT
 70
     0
  9
$LTSCALE
 40
10.0
  9
$ATTMODE
 70
     1
  9
$TEXTSIZE
 40
6.0
  9
$TRACEWID
 40
0.05
  9
$TEXTSTYLE
  7
ROMANS
  9
$CLAYER
  8
JISSEN
  9
$CELTYPE
  6
BYLAYER
  9
$CECOLOR
 62
   256
  9
$CELTSCALE
 40
1.0
  9
$DISPSILH
 70
     0
  9
$DIMSCALE
 40
2.0
  9
$DIMASZ
 40
1.5
  9
$DIMEXO
 40
1.0
  9
$DIMDLI
 40
6.0
  9
$DIMRND
 40
0.0
  9
$DIMDLE
 40
0.0
  9
$DIMEXE
 40
1.0
  9
$DIMTP
 40
495.0
  9
$DIMTM
 40
0.0
  9
$DIMTXT
 40
3.0
  9
$DIMCEN
 40
0.0
  9
$DIMTSZ
 40
0.0
  9
$DIMTOL
 70
     0
  9
$DIMLIM
 70
     0
  9
$DIMTIH
 70
     0
  9
$DIMTOH
 70
     0
  9
$DIMSE1
 70
     0
  9
$DIMSE2
 70
     0
  9
$DIMTAD
 70
     1
  9
$DIMZIN
 70
     8
  9
$DIMBLK
  1
ARROW
  9
$DIMASO
 70
     0
  9
$DIMSHO
 70
     0
  9
$DIMPOST
  1

  9
$DIMAPOST
  1

  9
$DIMALT
 70
     0
  9
$DIMALTD
 70
     2
  9
$DIMALTF
 40
25.4
  9
$DIMLFAC
 40
1.0
  9
$DIMTOFL
 70
     1
  9
$DIMTVP
 40
0.0
  9
$DIMTIX
 70
     1
  9
$DIMSOXD
 70
     0
  9
$DIMSAH
 70
     0
  9
$DIMBLK1
  1

  9
$DIMBLK2
  1

  9
$DIMSTYLE
  2
IMAO
  9
$DIMCLRD
 70
     0
  9
$DIMCLRE
 70
     0
  9
$DIMCLRT
 70
     0
  9
$DIMTFAC
 40
1.0
  9
$DIMGAP
 40
0.09
  9
$DIMJUST
 70
     0
  9
$DIMSD1
 70
     0
  9
$DIMSD2
 70
     0
  9
$DIMTOLJ
 70
     1
  9
$DIMTZIN
 70
     8
  9
$DIMALTZ
 70
     8
  9
$DIMALTTZ
 70
     8
  9
$DIMUPT
 70
     0
  9
$DIMDEC
 70
     2
  9
$DIMTDEC
 70
     2
  9
$DIMALTU
 70
     2
  9
$DIMALTTD
 70
     2
  9
$DIMTXSTY
  7
ROMANS
  9
$DIMAUNIT
 70
     0
  9
$DIMADEC
 70
     0
  9
$DIMALTRND
 40
0.0
  9
$DIMAZIN
 70
     0
  9
$DIMDSEP
 70
    46
  9
$DIMATFIT
 70
     3
  9
$DIMFRAC
 70
     0
  9
$DIMLDRBLK
  1
ARROW
  9
$DIMLUNIT
 70
     2
  9
$DIMLWD
 70
    -2
  9
$DIMLWE
 70
    -2
  9
$DIMTMOVE
 70
     0
  9
$LUNITS
 70
     2
  9
$LUPREC
 70
     2
  9
$SKETCHINC
 40
0.1
  9
$FILLETRAD
 40
3.0
  9
$AUNITS
 70
     0
  9
$AUPREC
 70
     2
  9
$MENU
  1
stdr12j
  9
$ELEVATION
 40
0.0
  9
$PELEVATION
 40
0.0
  9
$THICKNESS
 40
0.0
  9
$LIMCHECK
 70
     0
  9
$CHAMFERA
 40
0.0
  9
$CHAMFERB
 40
0.0
  9
$CHAMFERC
 40
0.0
  9
$CHAMFERD
 40
0.0
  9
$SKPOLY
 70
     0
  9
$TDCREATE
 40
2449876.477257986
  9
$TDUCREATE
 40
2449876.102257986
  9
$TDUPDATE
 40
2455133.474299294
  9
$TDUUPDATE
 40
2455133.099299294
  9
$TDINDWG
 40
0.1041193403
  9
$TDUSRTIMER
 40
0.1041192245
  9
$USRTIMER
 70
     1
  9
$ANGBASE
 50
0.0
  9
$ANGDIR
 70
     0
  9
$PDMODE
 70
     0
  9
$PDSIZE
 40
0.0
  9
$PLINEWID
 40
0.0
  9
$SPLFRAME
 70
     0
  9
$SPLINETYPE
 70
     6
  9
$SPLINESEGS
 70
     8
  9
$HANDSEED
  5
EA6E6088D
  9
$SURFTAB1
 70
     6
  9
$SURFTAB2
 70
     6
  9
$SURFTYPE
 70
     6
  9
$SURFU
 70
     6
  9
$SURFV
 70
     6
  9
$UCSBASE
  2

  9
$UCSNAME
  2

  9
$UCSORG
 10
0.0
 20
0.0
 30
0.0
  9
$UCSXDIR
 10
1.0
 20
0.0
 30
0.0
  9
$UCSYDIR
 10
0.0
 20
1.0
 30
0.0
  9
$UCSORTHOREF
  2

  9
$UCSORTHOVIEW
 70
     0
  9
$UCSORGTOP
 10
0.0
 20
0.0
 30
0.0
  9
$UCSORGBOTTOM
 10
0.0
 20
0.0
 30
0.0
  9
$UCSORGLEFT
 10
0.0
 20
0.0
 30
0.0
  9
$UCSORGRIGHT
 10
0.0
 20
0.0
 30
0.0
  9
$UCSORGFRONT
 10
0.0
 20
0.0
 30
0.0
  9
$UCSORGBACK
 10
0.0
 20
0.0
 30
0.0
  9
$PUCSBASE
  2

  9
$PUCSNAME
  2

  9
$PUCSORG
 10
0.0
 20
0.0
 30
0.0
  9
$PUCSXDIR
 10
1.0
 20
0.0
 30
0.0
  9
$PUCSYDIR
 10
0.0
 20
1.0
 30
0.0
  9
$PUCSORTHOREF
  2

  9
$PUCSORTHOVIEW
 70
     0
  9
$PUCSORGTOP
 10
0.0
 20
0.0
 30
0.0
  9
$PUCSORGBOTTOM
 10
0.0
 20
0.0
 30
0.0
  9
$PUCSORGLEFT
 10
0.0
 20
0.0
 30
0.0
  9
$PUCSORGRIGHT
 10
0.0
 20
0.0
 30
0.0
  9
$PUCSORGFRONT
 10
0.0
 20
0.0
 30
0.0
  9
$PUCSORGBACK
 10
0.0
 20
0.0
 30
0.0
  9
$USERI1
 70
     4
  9
$USERI2
 70
     1
  9
$USERI3
 70
     2
  9
$USERI4
 70
     2
  9
$USERI5
 70
     0
  9
$USERR1
 40
2.0
  9
$USERR2
 40
3.0
  9
$USERR3
 40
3.0
  9
$USERR4
 40
1.5
  9
$USERR5
 40
10.0
  9
$WORLDVIEW
 70
     1
  9
$SHADEDGE
 70
     3
  9
$SHADEDIF
 70
    70
  9
$TILEMODE
 70
     1
  9
$MAXACTVP
 70
    16
  9
$PINSBASE
 10
0.0
 20
0.0
 30
0.0
  9
$PLIMCHECK
 70
     0
  9
$PEXTMIN
 10
1.000000000000000E+20
 20
1.000000000000000E+20
 30
1.000000000000000E+20
  9
$PEXTMAX
 10
-1.000000000000000E+20
 20
-1.000000000000000E+20
 30
-1.000000000000000E+20
  9
$PLIMMIN
 10
0.0
 20
0.0
  9
$PLIMMAX
 10
12.0
 20
9.0
  9
$UNITMODE
 70
     0
  9
$VISRETAIN
 70
     0
  9
$PLINEGEN
 70
     0
  9
$PSLTSCALE
 70
     0
  9
$TREEDEPTH
 70
  3020
  9
$CMLSTYLE
  2
STANDARD
  9
$CMLJUST
 70
     0
  9
$CMLSCALE
 40
1.0
  9
$PROXYGRAPHICS
 70
     1
  9
$MEASUREMENT
 70
     0
  9
$CELWEIGHT
370
    -1
  9
$ENDCAPS
280
     0
  9
$JOINSTYLE
280
     0
  9
$LWDISPLAY
290
     0
  9
$INSUNITS
 70
     0
  9
$HYPERLINKBASE
  1

  9
$STYLESHEET
  1

  9
$XEDIT
290
     1
  9
$CEPSNTYPE
380
     0
  9
$PSTYLEMODE
290
     1
  9
$FINGERPRINTGUID
  2
{9ED4B7E8-4B02-4EC4-A908-0D7ADED925D2}
  9
$VERSIONGUID
  2
{C1972BB5-6BE8-43FA-A884-2CDD5F0074BC}
  9
$EXTNAMES
290
     1
  9
$PSVPSCALE
 40
0.0
  9
$OLESTARTUP
290
     0
  0
ENDSEC
  0
SECTION
  2
CLASSES
  0
CLASS
  1
LWPOLYLINE
  2
AcDbPolyline
  3
AutoCAD 2000
 90
    32768
280
     0
281
     1
  0
CLASS
  1
DICTIONARYVAR
  2
AcDbDictionaryVar
  3
AutoCAD 2000
 90
        0
280
     0
281
     0
  0
CLASS
  1
HATCH
  2
AcDbHatch
  3
AutoCAD 2000
 90
    32768
280
     0
281
     1
  0
CLASS
  1
ACDBDICTIONARYWDFLT
  2
AcDbDictionaryWithDefault
  3
AutoCAD 2000
 90
        0
280
     0
281
     0
  0
CLASS
  1
ACDBPLACEHOLDER
  2
AcDbPlaceHolder
  3
AutoCAD 2000
 90
        0
280
     0
281
     0
  0
CLASS
  1
LAYOUT
  2
AcDbLayout
  3
AutoCAD 2000
 90
        0
280
     0
281
     0
  0
CLASS
  1
LONG_TRANSACTION
  2
AcDbLongTransaction
  3
AutoCAD 2000
 90
    32768
280
     0
281
     0
  0
CLASS
  1
LWPOLYLINE
  2
AcDbPolyline
  3
AutoCAD 2000
 90
    32768
280
     0
281
     1
  0
CLASS
  1
HATCH
  2
AcDbHatch
  3
AutoCAD 2000
 90
    32768
280
     0
281
     1
  0
CLASS
  1
XRECORD
  2
AcDbXrecord
  3
AutoCAD 2000
 90
    32768
280
     0
281
     0
  0
CLASS
  1
LONG_TRANSACTION
  2
AcDbLongTransaction
  3
AutoCAD 2000
 90
    32768
280
     0
281
     0
  0
CLASS
  1
LWPOLYLINE
  2
AcDbPolyline
  3
AutoCAD 2000
 90
    32768
280
     0
281
     1
  0
CLASS
  1
HATCH
  2
AcDbHatch
  3
AutoCAD 2000
 90
    32768
280
     0
281
     1
  0
CLASS
  1
XRECORD
  2
AcDbXrecord
  3
AutoCAD 2000
 90
    32768
280
     0
281
     0
  0
CLASS
  1
LONG_TRANSACTION
  2
AcDbLongTransaction
  3
AutoCAD 2000
 90
    32768
280
     0
281
     0
  0
CLASS
  1
LWPOLYLINE
  2
AcDbPolyline
  3
AutoCAD 2000
 90
    32768
280
     0
281
     1
  0
CLASS
  1
HATCH
  2
AcDbHatch
  3
AutoCAD 2000
 90
    32768
280
     0
281
     1
  0
CLASS
  1
XRECORD
  2
AcDbXrecord
  3
AutoCAD 2000
 90
    32768
280
     0
281
     0
  0
CLASS
  1
LONG_TRANSACTION
  2
AcDbLongTransaction
  3
AutoCAD 2000
 90
    32768
280
     0
281
     0
  0
CLASS
  1
LWPOLYLINE
  2
AcDbPolyline
  3
AutoCAD 2000
 90
    32768
280
     0
281
     1
  0
CLASS
  1
HATCH
  2
AcDbHatch
  3
AutoCAD 2000
 90
    32768
280
     0
281
     1
  0
CLASS
  1
XRECORD
  2
AcDbXrecord
  3
AutoCAD 2000
 90
    32768
280
     0
281
     0
  0
CLASS
  1
LONG_TRANSACTION
  2
AcDbLongTransaction
  3
AutoCAD 2000
 90
    32768
280
     0
281
     0
  0
CLASS
  1
LWPOLYLINE
  2
AcDbPolyline
  3
AutoCAD 2000
 90
    32768
280
     0
281
     1
  0
CLASS
  1
HATCH
  2
AcDbHatch
  3
AutoCAD 2000
 90
    32768
280
     0
281
     1
  0
CLASS
  1
XRECORD
  2
AcDbXrecord
  3
AutoCAD 2000
 90
    32768
280
     0
281
     0
  0
CLASS
  1
PLOTSETTINGS
  2
AcDbPlotSettings
  3
AutoCAD 2000
 90
        0
280
     0
281
     0
  0
ENDSEC
  0
SECTION
  2
TABLES
  0
TABLE
  2
VPORT
  5
EA6E4DC83
330
0
100
AcDbSymbolTable
 70
    10
  0
VPORT
  5
EA6E4DCBB
330
EA6E4DC83
100
AcDbSymbolTableRecord
100
AcDbViewportTableRecord
  2
2
 70
     0
 10
0.5
 20
0.0
 11
1.0
 21
1.0
 12
0.924031
 22
1.052651
 13
0.0
 23
0.0
 14
1.0
 24
1.0
 15
10.0
 25
10.0
 16
0.0
 26
0.0
 36
1.0
 17
0.0
 27
0.0
 37
0.0
 40
2.105302
 41
0.877814
 42
50.0
 43
0.0
 44
0.0
 50
0.0
 51
0.0
 71
     0
 72
   500
 73
     1
 74
     1
 75
     0
 76
     0
 77
     0
 78
     0
281
     0
 65
     1
110
0.0
120
0.0
130
0.0
111
1.0
121
0.0
131
0.0
112
0.0
122
1.0
132
0.0
 79
     0
146
0.0
  0
VPORT
  5
EA6E4DCBC
330
EA6E4DC83
100
AcDbSymbolTableRecord
100
AcDbViewportTableRecord
  2
2
 70
     0
 10
0.0
 20
0.0
 11
0.5
 21
1.0
 12
0.924031
 22
1.052651
 13
0.0
 23
0.0
 14
1.0
 24
1.0
 15
10.0
 25
10.0
 16
0.0
 26
0.0
 36
1.0
 17
0.0
 27
0.0
 37
0.0
 40
2.105302
 41
0.877814
 42
50.0
 43
0.0
 44
0.0
 50
0.0
 51
0.0
 71
     0
 72
   500
 73
     1
 74
     1
 75
     0
 76
     0
 77
     0
 78
     0
281
     0
 65
     1
110
0.0
120
0.0
130
0.0
111
1.0
121
0.0
131
0.0
112
0.0
122
1.0
132
0.0
 79
     0
146
0.0
  0
VPORT
  5
EA6E4DCBD
330
EA6E4DC83
100
AcDbSymbolTableRecord
100
AcDbViewportTableRecord
  2
3
 70
     0
 10
0.0
 20
0.5
 11
1.0
 21
1.0
 12
2.832169999999998
 22
1.052651
 13
0.0
 23
0.0
 14
1.0
 24
1.0
 15
10.0
 25
10.0
 16
0.0
 26
0.0
 36
1.0
 17
0.0
 27
0.0
 37
0.0
 40
2.105302
 41
3.571429
 42
50.0
 43
0.0
 44
0.0
 50
0.0
 51
0.0
 71
     0
 72
   500
 73
     1
 74
     1
 75
     0
 76
     0
 77
     0
 78
     0
281
     0
 65
     1
110
0.0
120
0.0
130
0.0
111
1.0
121
0.0
131
0.0
112
0.0
122
1.0
132
0.0
 79
     0
146
0.0
  0
VPORT
  5
EA6E4DCBE
330
EA6E4DC83
100
AcDbSymbolTableRecord
100
AcDbViewportTableRecord
  2
3
 70
     0
 10
0.0
 20
0.0
 11
1.0
 21
0.5
 12
2.856741999999998
 22
1.052651
 13
0.0
 23
0.0
 14
1.0
 24
1.0
 15
10.0
 25
10.0
 16
0.0
 26
0.0
 36
1.0
 17
0.0
 27
0.0
 37
0.0
 40
2.105302
 41
3.594770999999998
 42
50.0
 43
0.0
 44
0.0
 50
0.0
 51
0.0
 71
     0
 72
   500
 73
     1
 74
     1
 75
     0
 76
     0
 77
     0
 78
     0
281
     0
 65
     1
110
0.0
120
0.0
130
0.0
111
1.0
121
0.0
131
0.0
112
0.0
122
1.0
132
0.0
 79
     0
146
0.0
  0
VPORT
  5
EA6E4DCBF
330
EA6E4DC83
100
AcDbSymbolTableRecord
100
AcDbViewportTableRecord
  2
4
 70
     0
 10
0.5
 20
0.0
 11
1.0
 21
0.5
 12
2.886858
 22
1.052651
 13
0.0
 23
0.0
 14
1.0
 24
1.0
 15
10.0
 25
10.0
 16
0.0
 26
0.0
 36
1.0
 17
0.0
 27
0.0
 37
0.0
 40
4.275206999999999
 41
1.784314
 42
50.0
 43
0.0
 44
0.0
 50
0.0
 51
0.0
 71
     0
 72
   500
 73
     1
 74
     1
 75
     0
 76
     0
 77
     0
 78
     0
281
     0
 65
     1
110
0.0
120
0.0
130
0.0
111
1.0
121
0.0
131
0.0
112
0.0
122
1.0
132
0.0
 79
     0
146
0.0
  0
VPORT
  5
EA6E4DCC0
330
EA6E4DC83
100
AcDbSymbolTableRecord
100
AcDbViewportTableRecord
  2
4
 70
     0
 10
0.5
 20
0.5
 11
1.0
 21
1.0
 12
2.86209
 22
1.052651
 13
0.0
 23
0.0
 14
1.0
 24
1.0
 15
10.0
 25
10.0
 16
0.0
 26
0.0
 36
1.0
 17
0.0
 27
0.0
 37
0.0
 40
4.275206999999999
 41
1.772726999999999
 42
50.0
 43
0.0
 44
0.0
 50
0.0
 51
0.0
 71
     0
 72
   500
 73
     1
 74
     1
 75
     0
 76
     0
 77
     0
 78
     0
281
     0
 65
     1
110
0.0
120
0.0
130
0.0
111
1.0
121
0.0
131
0.0
112
0.0
122
1.0
132
0.0
 79
     0
146
0.0
  0
VPORT
  5
EA6E4DCC1
330
EA6E4DC83
100
AcDbSymbolTableRecord
100
AcDbViewportTableRecord
  2
4
 70
     0
 10
0.0
 20
0.5
 11
0.5
 21
1.0
 12
2.86209
 22
1.052651
 13
0.0
 23
0.0
 14
1.0
 24
1.0
 15
10.0
 25
10.0
 16
0.0
 26
0.0
 36
1.0
 17
0.0
 27
0.0
 37
0.0
 40
4.275206999999999
 41
1.772726999999999
 42
50.0
 43
0.0
 44
0.0
 50
0.0
 51
0.0
 71
     0
 72
   500
 73
     1
 74
     1
 75
     0
 76
     0
 77
     0
 78
     0
281
     0
 65
     1
110
0.0
120
0.0
130
0.0
111
1.0
121
0.0
131
0.0
112
0.0
122
1.0
132
0.0
 79
     0
146
0.0
  0
VPORT
  5
EA6E4DCC2
330
EA6E4DC83
100
AcDbSymbolTableRecord
100
AcDbViewportTableRecord
  2
4
 70
     0
 10
0.0
 20
0.0
 11
0.5
 21
0.5
 12
2.886858
 22
1.052651
 13
0.0
 23
0.0
 14
1.0
 24
1.0
 15
10.0
 25
10.0
 16
0.0
 26
0.0
 36
1.0
 17
0.0
 27
0.0
 37
0.0
 40
4.275206999999999
 41
1.784314
 42
50.0
 43
0.0
 44
0.0
 50
0.0
 51
0.0
 71
     0
 72
   500
 73
     1
 74
     1
 75
     0
 76
     0
 77
     0
 78
     0
281
     0
 65
     1
110
0.0
120
0.0
130
0.0
111
1.0
121
0.0
131
0.0
112
0.0
122
1.0
132
0.0
 79
     0
146
0.0
  0
VPORT
  5
EA6E6088C
330
EA6E4DC83
100
AcDbSymbolTableRecord
100
AcDbViewportTableRecord
  2
*Active
 70
     0
 10
0.0
 20
0.0
 11
1.0
 21
1.0
 12
181.0043173359961
 22
273.0137877557246
 13
0.0
 23
0.0
 14
1.0
 24
1.0
 15
10.0
 25
10.0
 16
0.0
 26
0.0
 36
1.0
 17
0.0
 27
0.0
 37
0.0
 40
550.0453040617887
 41
1.537897310513447
 42
50.0
 43
0.0
 44
0.0
 50
0.0
 51
0.0
 71
     0
 72
   500
 73
     1
 74
     0
 75
     0
 76
     0
 77
     0
 78
     0
281
     0
 65
     1
110
0.0
120
0.0
130
0.0
111
1.0
121
0.0
131
0.0
112
0.0
122
1.0
132
0.0
 79
     0
146
0.0
  0
ENDTAB
  0
TABLE
  2
LTYPE
  5
EA6E4DC80
330
0
100
AcDbSymbolTable
 70
    26
  0
LTYPE
  5
EA6E4DC8C
330
EA6E4DC80
100
AcDbSymbolTableRecord
100
AcDbLinetypeTableRecord
  2
BYBLOCK
 70
     0
  3

 72
    65
 73
     0
 40
0.0
  0
LTYPE
  5
EA6E4DC8D
330
EA6E4DC80
100
AcDbSymbolTableRecord
100
AcDbLinetypeTableRecord
  2
BYLAYER
 70
     0
  3

 72
    65
 73
     0
 40
0.0
  0
LTYPE
  5
EA6E4DC8E
330
EA6E4DC80
100
AcDbSymbolTableRecord
100
AcDbLinetypeTableRecord
  2
CONTINUOUS
 70
     0
  3
実線
 72
    65
 73
     0
 40
0.0
  0
LTYPE
  5
EA6E4DCBA
330
EA6E4DC80
100
AcDbSymbolTableRecord
100
AcDbLinetypeTableRecord
  2
HIDDEN
 70
     0
  3
_ _ _ _ _ _ _ _ _ _ _ _ _ _ _ _ _ _ _ _ _ _ _
 72
    65
 73
     2
 40
0.375
 49
0.25
 74
     0
 49
-0.125
 74
     0
  0
LTYPE
  5
EA6E4E3D4
330
EA6E4DC80
100
AcDbSymbolTableRecord
100
AcDbLinetypeTableRecord
  2
CENTER
 70
     0
  3
____ _ ____ _ ____ _ ____ _ ____ _ ____ _ ____
 72
    65
 73
     4
 40
2.0
 49
1.25
 74
     0
 49
-0.25
 74
     0
 49
0.25
 74
     0
 49
-0.25
 74
     0
  0
LTYPE
  5
EA6E4F3EF
330
EA6E4DC80
100
AcDbSymbolTableRecord
100
AcDbLinetypeTableRecord
  2
DASHED
 70
     0
  3
Dashed __ __ __ __ __ __ __ __ __ __ __ __ __ _
 72
    65
 73
     2
 40
0.75
 49
0.5
 74
     0
 49
-0.25
 74
     0
  0
LTYPE
  5
EA6E4F3F0
330
EA6E4DC80
100
AcDbSymbolTableRecord
100
AcDbLinetypeTableRecord
  2
BREAK
 70
     0
  3
破線（通常）
 72
    65
 73
     2
 40
4.0
 49
3.0
 74
     0
 49
-1.0
 74
     0
  0
LTYPE
  5
EA6E4F3F1
330
EA6E4DC80
100
AcDbSymbolTableRecord
100
AcDbLinetypeTableRecord
  2
DASHDOT
 70
     0
  3
__ . __ . __ .
 72
    65
 73
     4
 40
7.81578947368421
 49
3.907894736842104
 74
     0
 49
-1.953947368421053
 74
     0
 49
0.0
 74
     0
 49
-1.953947368421053
 74
     0
  0
LTYPE
  5
EA6E4F3F2
330
EA6E4DC80
100
AcDbSymbolTableRecord
100
AcDbLinetypeTableRecord
  2
PHANTOM
 70
     0
  3
_____ _ _ _____ _ _ _____ _ _ _____ _ _ ____
 72
    65
 73
     6
 40
2.5
 49
1.25
 74
     0
 49
-0.25
 74
     0
 49
0.25
 74
     0
 49
-0.25
 74
     0
 49
0.25
 74
     0
 49
-0.25
 74
     0
  0
LTYPE
  5
EA6E4F3F3
330
EA6E4DC80
100
AcDbSymbolTableRecord
100
AcDbLinetypeTableRecord
  2
BORDER
 70
     0
  3
Border __ __ . __ __ . __ __ . __ __ . __ __ .
 72
    65
 73
     6
 40
1.75
 49
0.5
 74
     0
 49
-0.25
 74
     0
 49
0.5
 74
     0
 49
-0.25
 74
     0
 49
0.0
 74
     0
 49
-0.25
 74
     0
  0
LTYPE
  5
EA6E4F3F4
330
EA6E4DC80
100
AcDbSymbolTableRecord
100
AcDbLinetypeTableRecord
  2
BORDER2
 70
     0
  3
Border (.5x) __.__.__.__.__.__.__.__.__.__.__.
 72
    65
 73
     6
 40
0.875
 49
0.25
 74
     0
 49
-0.125
 74
     0
 49
0.25
 74
     0
 49
-0.125
 74
     0
 49
0.0
 74
     0
 49
-0.125
 74
     0
  0
LTYPE
  5
EA6E4F3F5
330
EA6E4DC80
100
AcDbSymbolTableRecord
100
AcDbLinetypeTableRecord
  2
BORDERX2
 70
     0
  3
Border (2x) ____  ____  .  ____  ____  .  ___
 72
    65
 73
     6
 40
3.5
 49
1.0
 74
     0
 49
-0.5
 74
     0
 49
1.0
 74
     0
 49
-0.5
 74
     0
 49
0.0
 74
     0
 49
-0.5
 74
     0
  0
LTYPE
  5
EA6E4F3F6
330
EA6E4DC80
100
AcDbSymbolTableRecord
100
AcDbLinetypeTableRecord
  2
CENTER2
 70
     0
  3
Center (.5x) ___ _ ___ _ ___ _ ___ _ ___ _ ___
 72
    65
 73
     4
 40
1.125
 49
0.75
 74
     0
 49
-0.125
 74
     0
 49
0.125
 74
     0
 49
-0.125
 74
     0
  0
LTYPE
  5
EA6E4F3F7
330
EA6E4DC80
100
AcDbSymbolTableRecord
100
AcDbLinetypeTableRecord
  2
CENTERX2
 70
     0
  3
Center (2x) ________  __  ________  __  _____
 72
    65
 73
     4
 40
4.0
 49
2.5
 74
     0
 49
-0.5
 74
     0
 49
0.5
 74
     0
 49
-0.5
 74
     0
  0
LTYPE
  5
EA6E4F3F8
330
EA6E4DC80
100
AcDbSymbolTableRecord
100
AcDbLinetypeTableRecord
  2
DASHDOT2
 70
     0
  3
Dash dot (.5x) _._._._._._._._._._._._._._._.
 72
    65
 73
     4
 40
0.5
 49
0.25
 74
     0
 49
-0.125
 74
     0
 49
0.0
 74
     0
 49
-0.125
 74
     0
  0
LTYPE
  5
EA6E4F3F9
330
EA6E4DC80
100
AcDbSymbolTableRecord
100
AcDbLinetypeTableRecord
  2
DASHDOTX2
 70
     0
  3
Dash dot (2x) ____  .  ____  .  ____  .  ___
 72
    65
 73
     4
 40
2.0
 49
1.0
 74
     0
 49
-0.5
 74
     0
 49
0.0
 74
     0
 49
-0.5
 74
     0
  0
LTYPE
  5
EA6E4F3FA
330
EA6E4DC80
100
AcDbSymbolTableRecord
100
AcDbLinetypeTableRecord
  2
DASHED2
 70
     0
  3
Dashed (.5x) _ _ _ _ _ _ _ _ _ _ _ _ _ _ _ _ _
 72
    65
 73
     2
 40
0.375
 49
0.25
 74
     0
 49
-0.125
 74
     0
  0
LTYPE
  5
EA6E4F3FB
330
EA6E4DC80
100
AcDbSymbolTableRecord
100
AcDbLinetypeTableRecord
  2
DASHEDX2
 70
     0
  3
Dashed (2x) ____  ____  ____  ____  ____  ___
 72
    65
 73
     2
 40
1.5
 49
1.0
 74
     0
 49
-0.5
 74
     0
  0
LTYPE
  5
EA6E4F3FC
330
EA6E4DC80
100
AcDbSymbolTableRecord
100
AcDbLinetypeTableRecord
  2
DIVIDE
 70
     0
  3
Divide ____ . . ____ . . ____ . . ____ . . ____
 72
    65
 73
     6
 40
1.25
 49
0.5
 74
     0
 49
-0.25
 74
     0
 49
0.0
 74
     0
 49
-0.25
 74
     0
 49
0.0
 74
     0
 49
-0.25
 74
     0
  0
LTYPE
  5
EA6E4F3FD
330
EA6E4DC80
100
AcDbSymbolTableRecord
100
AcDbLinetypeTableRecord
  2
DIVIDE2
 70
     0
  3
Divide (.5x) __..__..__..__..__..__..__..__.._
 72
    65
 73
     6
 40
0.625
 49
0.25
 74
     0
 49
-0.125
 74
     0
 49
0.0
 74
     0
 49
-0.125
 74
     0
 49
0.0
 74
     0
 49
-0.125
 74
     0
  0
LTYPE
  5
EA6E4F3FE
330
EA6E4DC80
100
AcDbSymbolTableRecord
100
AcDbLinetypeTableRecord
  2
DIVIDEX2
 70
     0
  3
Divide (2x) ________  .  .  ________  .  .  _
 72
    65
 73
     6
 40
2.5
 49
1.0
 74
     0
 49
-0.5
 74
     0
 49
0.0
 74
     0
 49
-0.5
 74
     0
 49
0.0
 74
     0
 49
-0.5
 74
     0
  0
LTYPE
  5
EA6E4F3FF
330
EA6E4DC80
100
AcDbSymbolTableRecord
100
AcDbLinetypeTableRecord
  2
DOT
 70
     0
  3
Dot . . . . . . . . . . . . . . . . . . . . . .
 72
    65
 73
     2
 40
0.25
 49
0.0
 74
     0
 49
-0.25
 74
     0
  0
LTYPE
  5
EA6E4F400
330
EA6E4DC80
100
AcDbSymbolTableRecord
100
AcDbLinetypeTableRecord
  2
DOT2
 70
     0
  3
Dot (.5x) .....................................
 72
    65
 73
     2
 40
0.125
 49
0.0
 74
     0
 49
-0.125
 74
     0
  0
LTYPE
  5
EA6E4F401
330
EA6E4DC80
100
AcDbSymbolTableRecord
100
AcDbLinetypeTableRecord
  2
DOTX2
 70
     0
  3
Dot (2x) .  .  .  .  .  .  .  .  .  .  .  .  . 
 72
    65
 73
     2
 40
0.5
 49
0.0
 74
     0
 49
-0.5
 74
     0
  0
LTYPE
  5
EA6E4F402
330
EA6E4DC80
100
AcDbSymbolTableRecord
100
AcDbLinetypeTableRecord
  2
HIDDEN2
 70
     0
  3
Hidden (.5x) _ _ _ _ _ _ _ _ _ _ _ _ _ _ _ _ _
 72
    65
 73
     2
 40
0.1875
 49
0.125
 74
     0
 49
-0.0625
 74
     0
  0
LTYPE
  5
EA6E4F403
330
EA6E4DC80
100
AcDbSymbolTableRecord
100
AcDbLinetypeTableRecord
  2
HIDDENX2
 70
     0
  3
Hidden (2x) ____ ____ ____ ____ ____ ____ ____
 72
    65
 73
     2
 40
0.75
 49
0.5
 74
     0
 49
-0.25
 74
     0
  0
LTYPE
  5
EA6E4F404
330
EA6E4DC80
100
AcDbSymbolTableRecord
100
AcDbLinetypeTableRecord
  2
PHANTOM2
 70
     0
  3
Phantom (.5x) ___ _ _ ___ _ _ ___ _ _ ___ _ _
 72
    65
 73
     6
 40
1.25
 49
0.625
 74
     0
 49
-0.125
 74
     0
 49
0.125
 74
     0
 49
-0.125
 74
     0
 49
0.125
 74
     0
 49
-0.125
 74
     0
  0
LTYPE
  5
EA6E4F405
330
EA6E4DC80
100
AcDbSymbolTableRecord
100
AcDbLinetypeTableRecord
  2
PHANTOMX2
 70
     0
  3
Phantom (2x) ____________    ____    ____   _
 72
    65
 73
     6
 40
5.0
 49
2.5
 74
     0
 49
-0.5
 74
     0
 49
0.5
 74
     0
 49
-0.5
 74
     0
 49
0.5
 74
     0
 49
-0.5
 74
     0
  0
ENDTAB
  0
TABLE
  2
LAYER
  5
EA6E4DC7D
102
{ACAD_XDICTIONARY
360
EA6E4E3D8
102
}
330
0
100
AcDbSymbolTable
 70
    30
  0
LAYER
  5
EA6E4DC89
330
EA6E4DC7D
100
AcDbSymbolTableRecord
100
AcDbLayerTableRecord
  2
0
 70
     0
 62
     6
  6
CONTINUOUS
370
    -3
390
EA6E4E123
  0
LAYER
  5
EA6E4DCCA
330
EA6E4DC7D
100
AcDbSymbolTableRecord
100
AcDbLayerTableRecord
  2
SUNPOU
 70
     0
 62
     3
  6
CONTINUOUS
370
    -3
390
EA6E4E123
  0
LAYER
  5
EA6E4DCCB
330
EA6E4DC7D
100
AcDbSymbolTableRecord
100
AcDbLayerTableRecord
  2
TEXT
 70
     0
 62
     3
  6
CONTINUOUS
370
    -3
390
EA6E4E123
  0
LAYER
  5
EA6E4DCCC
330
EA6E4DC7D
100
AcDbSymbolTableRecord
100
AcDbLayerTableRecord
  2
SAISEN
 70
     0
 62
     4
  6
CONTINUOUS
370
    -3
390
EA6E4E123
  0
LAYER
  5
EA6E4DCCD
330
EA6E4DC7D
100
AcDbSymbolTableRecord
100
AcDbLayerTableRecord
  2
JISSEN
 70
     0
 62
     7
  6
CONTINUOUS
370
    -3
390
EA6E4E123
  0
LAYER
  5
EA6E4DCCF
330
EA6E4DC7D
100
AcDbSymbolTableRecord
100
AcDbLayerTableRecord
  2
TENSEN
 70
     0
 62
     2
  6
HIDDEN
370
    -3
390
EA6E4E123
  0
LAYER
  5
EA6E4DCD1
330
EA6E4DC7D
100
AcDbSymbolTableRecord
100
AcDbLayerTableRecord
  2
WAKU
 70
     0
 62
     5
  6
CONTINUOUS
370
    -3
390
EA6E4E123
  0
LAYER
  5
EA6E4E3D5
330
EA6E4DC7D
100
AcDbSymbolTableRecord
100
AcDbLayerTableRecord
  2
ITTEN
 70
     0
 62
     1
  6
CENTER
370
    -3
390
EA6E4E123
  0
LAYER
  5
EA6E4E3D6
330
EA6E4DC7D
100
AcDbSymbolTableRecord
100
AcDbLayerTableRecord
  2
HATCH
 70
     0
 62
     4
  6
CONTINUOUS
370
    -3
390
EA6E4E123
  0
LAYER
  5
EA6E4F406
330
EA6E4DC7D
100
AcDbSymbolTableRecord
100
AcDbLayerTableRecord
  2
1
 70
     0
 62
     6
  6
CONTINUOUS
370
    -3
390
EA6E4E123
  0
LAYER
  5
EA6E4F407
330
EA6E4DC7D
100
AcDbSymbolTableRecord
100
AcDbLayerTableRecord
  2
Defpoints
 70
     0
 62
     7
  6
CONTINUOUS
290
     0
370
    -3
390
EA6E4E123
  0
LAYER
  5
EA6E4F408
102
{ACAD_XDICTIONARY
360
EA6E4F409
102
}
330
EA6E4DC7D
100
AcDbSymbolTableRecord
100
AcDbLayerTableRecord
  2
BORDER
 70
     0
 62
     5
  6
CONTINUOUS
370
    -3
390
EA6E4E123
  0
LAYER
  5
EA6E4F40C
102
{ACAD_XDICTIONARY
360
EA6E4F40D
102
}
330
EA6E4DC7D
100
AcDbSymbolTableRecord
100
AcDbLayerTableRecord
  2
HOJYO
 70
     0
 62
     7
  6
CONTINUOUS
370
    -3
390
EA6E4E123
  0
LAYER
  5
EA6E4F410
102
{ACAD_XDICTIONARY
360
EA6E4F411
102
}
330
EA6E4DC7D
100
AcDbSymbolTableRecord
100
AcDbLayerTableRecord
  2
CORE
 70
     0
 62
     4
  6
CONTINUOUS
370
    -3
390
EA6E4E123
  0
LAYER
  5
EA6E4F414
102
{ACAD_XDICTIONARY
360
EA6E4F415
102
}
330
EA6E4DC7D
100
AcDbSymbolTableRecord
100
AcDbLayerTableRecord
  2
CSLAYER1
 70
     0
 62
     7
  6
CONTINUOUS
370
    -3
390
EA6E4E123
  0
LAYER
  5
EA6E4F417
330
EA6E4DC7D
100
AcDbSymbolTableRecord
100
AcDbLayerTableRecord
  2
SCALE
 70
     0
 62
     7
  6
CONTINUOUS
370
    -3
390
EA6E4E123
  0
LAYER
  5
EA6E4F418
330
EA6E4DC7D
100
AcDbSymbolTableRecord
100
AcDbLayerTableRecord
  2
HOJO
 70
     0
 62
     6
  6
CONTINUOUS
370
    -3
390
EA6E4E123
  0
LAYER
  5
EA6E4F419
330
EA6E4DC7D
100
AcDbSymbolTableRecord
100
AcDbLayerTableRecord
  2
HASEN
 70
     0
 62
     2
  6
DASHED
370
    -3
390
EA6E4E123
  0
LAYER
  5
EA6E4F41A
330
EA6E4DC7D
100
AcDbSymbolTableRecord
100
AcDbLayerTableRecord
  2
NITEN
 70
     0
 62
     2
  6
PHANTOM
370
    -3
390
EA6E4E123
  0
LAYER
  5
EA6E4F41B
330
EA6E4DC7D
100
AcDbSymbolTableRecord
100
AcDbLayerTableRecord
  2
HOJOORG
 70
     0
 62
     9
  6
CONTINUOUS
370
    -3
390
EA6E4E123
  0
LAYER
  5
EA6E4F41C
330
EA6E4DC7D
100
AcDbSymbolTableRecord
100
AcDbLayerTableRecord
  2
POINT
 70
     0
 62
     7
  6
CONTINUOUS
370
    -3
390
EA6E4E123
  0
LAYER
  5
EA6E4F41D
330
EA6E4DC7D
100
AcDbSymbolTableRecord
100
AcDbLayerTableRecord
  2
CENTER
 70
     0
 62
     1
  6
CENTER
370
    -3
390
EA6E4E123
  0
LAYER
  5
EA6E4F41E
330
EA6E4DC7D
100
AcDbSymbolTableRecord
100
AcDbLayerTableRecord
  2
ASSIST
 70
     0
 62
     7
  6
CONTINUOUS
370
    -3
390
EA6E4E123
  0
LAYER
  5
EA6E4F41F
330
EA6E4DC7D
100
AcDbSymbolTableRecord
100
AcDbLayerTableRecord
  2
FRAME
 70
     0
 62
     7
  6
CONTINUOUS
370
    -3
390
EA6E4E123
  0
LAYER
  5
EA6E4F420
330
EA6E4DC7D
100
AcDbSymbolTableRecord
100
AcDbLayerTableRecord
  2
TXT1
 70
     0
 62
     7
  6
CONTINUOUS
370
    -3
390
EA6E4E123
  0
LAYER
  5
EA6E4F421
330
EA6E4DC7D
100
AcDbSymbolTableRecord
100
AcDbLayerTableRecord
  2
HIDDEN
 70
     0
 62
     7
  6
HIDDEN
370
    -3
390
EA6E4E123
  0
LAYER
  5
EA6E4F422
330
EA6E4DC7D
100
AcDbSymbolTableRecord
100
AcDbLayerTableRecord
  2
IMAGE
 70
     0
 62
     6
  6
PHANTOM
370
    -3
390
EA6E4E123
  0
LAYER
  5
EA6E4F423
330
EA6E4DC7D
100
AcDbSymbolTableRecord
100
AcDbLayerTableRecord
  2
ERROR
 70
     0
 62
     1
  6
HIDDEN
370
    -3
390
EA6E4E123
  0
LAYER
  5
EA6E4F424
330
EA6E4DC7D
100
AcDbSymbolTableRecord
100
AcDbLayerTableRecord
  2
TEMPORARY
 70
     0
 62
     5
  6
DASHED
370
    -3
390
EA6E4E123
  0
LAYER
  5
EA6E4F425
330
EA6E4DC7D
100
AcDbSymbolTableRecord
100
AcDbLayerTableRecord
  2
WINDOW
 70
     0
 62
     3
  6
CONTINUOUS
370
    -3
390
EA6E4E123
  0
ENDTAB
  0
TABLE
  2
STYLE
  5
EA6E4DC7E
330
0
100
AcDbSymbolTable
 70
    19
  0
STYLE
  5
EA6E4DC8A
330
EA6E4DC7E
100
AcDbSymbolTableRecord
100
AcDbTextStyleTableRecord
  2
STANDARD
 70
     0
 40
0.0
 41
1.0
 50
0.0
 71
     0
 42
0.2
  3
ROMANS
  4
EXTFONT
  0
STYLE
  5
EA6E4DCB2
330
EA6E4DC7E
100
AcDbSymbolTableRecord
100
AcDbTextStyleTableRecord
  2
K
 70
     0
 40
0.0
 41
1.0
 50
0.0
 71
     0
 42
6.0
  3
SIMPLEX
  4
BIGFONT.SHX
  0
STYLE
  5
EA6E4DCB3
330
EA6E4DC7E
100
AcDbSymbolTableRecord
100
AcDbTextStyleTableRecord
  2
ROMANS
 70
     0
 40
0.0
 41
0.8
 50
0.0
 71
     0
 42
6.0
  3
romans
  4

  0
STYLE
  5
EA6E4DCFB
330
EA6E4DC7E
100
AcDbSymbolTableRecord
100
AcDbTextStyleTableRecord
  2
DIMENSION
 70
     0
 40
0.0
 41
1.0
 50
0.0
 71
     0
 42
2.5
  3
TXT
  4

  0
STYLE
  5
EA6E4F426
330
EA6E4DC7E
100
AcDbSymbolTableRecord
100
AcDbTextStyleTableRecord
  2
35FONT
 70
     0
 40
3.5
 41
0.75
 50
15.0
 71
     0
 42
2.5
  3
SIMPLEX.shx
  4
BIGFONT.shx
  0
STYLE
  5
EA6E4F427
330
EA6E4DC7E
100
AcDbSymbolTableRecord
100
AcDbTextStyleTableRecord
  2
ｽﾀｲﾙ1
 70
     0
 40
0.0
 41
1.0
 50
0.0
 71
     0
 42
2.5
  3
MS PMincho.ttf
  4

1001
ACAD
1000
MS PMincho
1071
    32786
  0
STYLE
  5
EA6E4F428
330
EA6E4DC7E
100
AcDbSymbolTableRecord
100
AcDbTextStyleTableRecord
  2
SIMP
 70
     0
 40
0.0
 41
1.0
 50
0.0
 71
     0
 42
2.5
  3
SIMPLEX
  4
BIGFONT
  0
STYLE
  5
EA6E4F429
330
EA6E4DC7E
100
AcDbSymbolTableRecord
100
AcDbTextStyleTableRecord
  2
BIGFONT
 70
     0
 40
0.0
 41
1.0
 50
0.0
 71
     0
 42
2.0
  3
txt.shx
  4
bigfont
  0
STYLE
  5
EA6E4F42A
330
EA6E4DC7E
100
AcDbSymbolTableRecord
100
AcDbTextStyleTableRecord
  2
SCRIPTS
 70
     0
 40
0.0
 41
1.0
 50
0.0
 71
     0
 42
1.5
  3
scripts
  4

  0
STYLE
  5
EA6E4F42B
330
EA6E4DC7E
100
AcDbSymbolTableRecord
100
AcDbTextStyleTableRecord
  2
SCRIPTC
 70
     0
 40
0.0
 41
1.0
 50
0.0
 71
     0
 42
7.0
  3
scriptc
  4

  0
STYLE
  5
EA6E4F42C
330
EA6E4DC7E
100
AcDbSymbolTableRecord
100
AcDbTextStyleTableRecord
  2
NAME
 70
     0
 40
0.0
 41
2.5
 50
0.0
 71
     0
 42
2.5
  3
Arphic Gyokaisho Heavy JIS.ttf
  4

1001
ACAD
1000
Arphic Gyokaisho Heavy JIS
1071
    32817
  0
STYLE
  5
EA6E4F42D
330
EA6E4DC7E
100
AcDbSymbolTableRecord
100
AcDbTextStyleTableRecord
  2
CMP-SET
 70
     0
 40
0.0
 41
1.0
 50
0.0
 71
     0
 42
2.5
  3
COMPLEX
  4
BIGFONT
  0
STYLE
  5
EA6E4F42E
330
EA6E4DC7E
100
AcDbSymbolTableRecord
100
AcDbTextStyleTableRecord
  2
ITL-SET
 70
     0
 40
0.0
 41
1.0
 50
0.0
 71
     0
 42
2.5
  3
ITALIC
  4
BIGFONT
  0
STYLE
  5
EA6E4F42F
330
EA6E4DC7E
100
AcDbSymbolTableRecord
100
AcDbTextStyleTableRecord
  2
MONO-SET
 70
     0
 40
0.0
 41
1.0
 50
0.0
 71
     0
 42
2.5
  3
MONOTXT
  4
BIGFONT
  0
STYLE
  5
EA6E4F430
330
EA6E4DC7E
100
AcDbSymbolTableRecord
100
AcDbTextStyleTableRecord
  2
SMP-SET
 70
     0
 40
0.0
 41
1.0
 50
0.0
 71
     0
 42
2.5
  3
SIMPLEX
  4
BIGFONT
  0
STYLE
  5
EA6E4F431
330
EA6E4DC7E
100
AcDbSymbolTableRecord
100
AcDbTextStyleTableRecord
  2
STYLE1
 70
     0
 40
0.0
 41
1.0
 50
0.0
 71
     0
 42
2.5
  3
scripts.shx
  4
BIGFONT.shx
  0
STYLE
  5
EA6E4F432
330
EA6E4DC7E
100
AcDbSymbolTableRecord
100
AcDbTextStyleTableRecord
  2
GREEKS
 70
     0
 40
0.6
 41
1.0
 50
0.0
 71
     0
 42
0.6
  3
SIMPLEX
  4

  0
STYLE
  5
EA6E4F433
330
EA6E4DC7E
100
AcDbSymbolTableRecord
100
AcDbTextStyleTableRecord
  2
ITALICC
 70
     0
 40
0.0
 41
1.0
 50
0.0
 71
     0
 42
0.6
  3
italicc
  4

  0
STYLE
  5
EA6E4F434
330
EA6E4DC7E
100
AcDbSymbolTableRecord
100
AcDbTextStyleTableRecord
  2
ysk
 70
     0
 40
1.0
 41
1.0
 50
0.0
 71
     0
 42
1.0
  3
gothice.shx
  4
EXTFONT.shx
  0
ENDTAB
  0
TABLE
  2
VIEW
  5
EA6E4DC81
330
0
100
AcDbSymbolTable
 70
     0
  0
ENDTAB
  0
TABLE
  2
UCS
  5
EA6E4DC82
330
0
100
AcDbSymbolTable
 70
     0
  0
ENDTAB
  0
TABLE
  2
APPID
  5
EA6E4DC84
330
0
100
AcDbSymbolTable
 70
    11
  0
APPID
  5
EA6E4DC8B
330
EA6E4DC84
100
AcDbSymbolTableRecord
100
AcDbRegAppTableRecord
  2
ACAD
 70
     0
  0
APPID
  5
EA6E4E3D7
330
EA6E4DC84
100
AcDbSymbolTableRecord
100
AcDbRegAppTableRecord
  2
ASK_MEN_XD
 70
     0
  0
APPID
  5
EA6E4F43D
330
EA6E4DC84
100
AcDbSymbolTableRecord
100
AcDbRegAppTableRecord
  2
X_OBJNAME
 70
     0
  0
APPID
  5
EA6E4F43E
330
EA6E4DC84
100
AcDbSymbolTableRecord
100
AcDbRegAppTableRecord
  2
X_DEFINELIST
 70
     0
  0
APPID
  5
EA6E4F43F
330
EA6E4DC84
100
AcDbSymbolTableRecord
100
AcDbRegAppTableRecord
  2
ACAD_MLEADERVER
 70
     0
  0
APPID
  5
EA6E4F440
330
EA6E4DC84
100
AcDbSymbolTableRecord
100
AcDbRegAppTableRecord
  2
ACAD_PSEXT
 70
     0
  0
APPID
  5
EA6E4F441
330
EA6E4DC84
100
AcDbSymbolTableRecord
100
AcDbRegAppTableRecord
  2
CONTENTBLOCKICON
 70
     0
  0
APPID
  5
EA6E4F442
330
EA6E4DC84
100
AcDbSymbolTableRecord
100
AcDbRegAppTableRecord
  2
X_PARAM_BALLOON
 70
     0
  0
APPID
  5
EA6E4F443
330
EA6E4DC84
100
AcDbSymbolTableRecord
100
AcDbRegAppTableRecord
  2
X_PARAM_TXTPATERN
 70
     0
  0
APPID
  5
EA6E4F444
330
EA6E4DC84
100
AcDbSymbolTableRecord
100
AcDbRegAppTableRecord
  2
X_PARAM_CTXTPATERN
 70
     0
  0
APPID
  5
EA6E4F445
330
EA6E4DC84
100
AcDbSymbolTableRecord
100
AcDbRegAppTableRecord
  2
X_PARAM_SYSVAL
 70
     0
  0
ENDTAB
  0
TABLE
  2
DIMSTYLE
  5
EA6E4DC85
330
0
100
AcDbSymbolTable
 70
    10
100
AcDbDimStyleTable
 71
     0
  0
DIMSTYLE
105
EA6E4DCC5
330
EA6E4DC85
100
AcDbSymbolTableRecord
100
AcDbDimStyleTableRecord
  2
IMAO
 70
     0
 41
1.5
 42
1.0
 43
6.0
 44
1.0
 47
495.0
 73
     0
 74
     0
 77
     1
 78
     8
140
3.0
141
0.0
172
     1
174
     1
271
     2
272
     2
284
     8
285
     8
286
     8
340
EA6E4DCB3
  0
DIMSTYLE
105
EA6E4DCFC
330
EA6E4DC85
100
AcDbSymbolTableRecord
100
AcDbDimStyleTableRecord
  2
STANDARD
 70
     0
 40
2.0
 41
2.0
 42
0.1
 43
10.0
 44
1.5
 73
     0
 74
     0
 78
     8
140
3.0
145
1.0
147
0.1
172
     1
176
   256
177
   256
178
   256
271
     2
272
     2
284
     8
340
EA6E4DCFB
341
EA6E4DCF5
342
EA6E4DCF5
  0
DIMSTYLE
105
EA6E4F435
330
EA6E4DC85
100
AcDbSymbolTableRecord
100
AcDbDimStyleTableRecord
  2
ISO-25
 70
     0
 40
0.5
 41
2.5
 42
0.625
 43
3.75
 44
1.25
 73
     0
 74
     0
 77
     1
 78
     8
140
2.5
141
2.5
143
0.03937007874016
147
0.625
171
     3
172
     1
271
     2
272
     2
274
     3
278
    44
283
     0
284
     8
340
EA6E4DC8A
  0
DIMSTYLE
105
EA6E4F436
330
EA6E4DC85
100
AcDbSymbolTableRecord
100
AcDbDimStyleTableRecord
  2
ｺﾋﾟｰ - IMAO2
 70
     0
 40
0.4
 41
0.75
 42
0.0
 43
0.0
 44
0.3
 47
495.0
 73
     0
 74
     0
 77
     1
 78
     8
140
1.5
141
0.0
147
0.5
172
     1
176
     3
177
     3
178
     3
271
     1
272
     1
279
     2
284
     8
285
     8
286
     8
340
EA6E4DCB2
341
EA6E4E244
342
EA6E4EE8D
  0
DIMSTYLE
105
EA6E4F437
330
EA6E4DC85
100
AcDbSymbolTableRecord
100
AcDbDimStyleTableRecord
  2
IMAO_0.1
 70
     0
 40
0.1
 41
1.0
 42
1.0
 43
6.0
 44
1.0
 73
     0
 74
     0
 77
     3
 78
     8
140
3.0
141
1.0
147
1.0
172
     1
176
   256
177
   256
178
   256
340
EA6E4DCB2
341
EA6E4EE8D
342
EA6E4EE8D
371
    -1
372
    -1
  0
DIMSTYLE
105
EA6E4F438
330
EA6E4DC85
100
AcDbSymbolTableRecord
100
AcDbDimStyleTableRecord
  2
IMAO_0.2
 70
     0
 40
0.2
 41
1.5
 42
1.0
 43
6.0
 44
1.0
 73
     0
 74
     0
 77
     3
 78
     8
140
3.0
141
1.0
147
1.0
172
     1
176
   256
177
   256
178
   256
340
EA6E4DCB2
341
EA6E4EE8D
342
EA6E4EE8D
371
    -1
372
    -1
  0
DIMSTYLE
105
EA6E4F439
330
EA6E4DC85
100
AcDbSymbolTableRecord
100
AcDbDimStyleTableRecord
  2
ｺﾋﾟｰ - IMAO
 70
     0
 40
0.5
 41
1.5
 42
0.0
 43
1.5
 44
0.5
 47
495.0
 73
     0
 74
     0
 77
     1
 78
     8
140
1.5
141
0.0
147
0.5
172
     1
176
     3
177
     3
178
     3
271
     2
272
     2
279
     2
340
EA6E4DCB2
341
EA6E4EE8D
342
EA6E4EE8D
  0
DIMSTYLE
105
EA6E4F43A
330
EA6E4DC85
100
AcDbSymbolTableRecord
100
AcDbDimStyleTableRecord
  2
ｺﾋﾟｰ(2) - IMAO
 70
     0
 40
1.0
 41
1.199999999999999
 42
0.0
 43
0.6
 44
0.5
 47
495.0
 73
     0
 74
     0
 77
     1
 78
     8
140
1.199999999999999
141
0.0
147
0.3
172
     1
176
     3
177
     3
178
     3
179
     1
271
     2
272
     2
279
     2
340
EA6E4DC8A
341
EA6E4EE8D
342
EA6E4EE8D
  0
DIMSTYLE
105
EA6E4F43B
330
EA6E4DC85
100
AcDbSymbolTableRecord
100
AcDbDimStyleTableRecord
  2
ｺﾋﾟｰ - IMAO3
 70
     0
 41
4.5
 42
0.0
 43
0.0
 44
1.5
 47
495.0
 73
     0
 74
     0
 77
     1
 78
     8
140
4.5
141
0.0
147
1.5
172
     1
176
     3
177
     3
178
     3
271
     2
272
     2
279
     2
284
     8
285
     8
286
     8
340
EA6E4DCB2
341
EA6E4EE8D
342
EA6E4EE8D
  0
DIMSTYLE
105
EA6E4F43C
330
EA6E4DC85
100
AcDbSymbolTableRecord
100
AcDbDimStyleTableRecord
  2
ｺﾋﾟｰ(2) - IMAO3
 70
     0
 41
6.0
 42
0.0
 43
0.0
 44
1.0
 47
495.0
 73
     0
 74
     0
 77
     1
 78
     8
140
6.0
141
0.0
147
1.0
172
     1
176
     3
177
     3
178
     3
179
     1
271
     2
272
     2
279
     2
284
     8
285
     8
286
     8
340
EA6E4DCB2
341
EA6E4EE8D
342
EA6E4EE8D
  0
ENDTAB
  0
TABLE
  2
BLOCK_RECORD
  5
EA6E4DC7C
330
0
100
AcDbSymbolTable
 70
     6
  0
BLOCK_RECORD
  5
EA6E4DC92
102
{ACAD_XDICTIONARY
360
EA6E4E15C
102
}
330
EA6E4DC7C
100
AcDbSymbolTableRecord
100
AcDbBlockTableRecord
  2
*MODEL_SPACE
340
EA6E4EE67
  0
BLOCK_RECORD
  5
EA6E4DC8F
102
{ACAD_XDICTIONARY
360
EA6E4E15A
102
}
330
EA6E4DC7C
100
AcDbSymbolTableRecord
100
AcDbBlockTableRecord
  2
*PAPER_SPACE
340
EA6E4EE68
  0
BLOCK_RECORD
  5
EA6E4DC97
330
EA6E4DC7C
100
AcDbSymbolTableRecord
100
AcDbBlockTableRecord
  2
ARROW
340
0
  0
BLOCK_RECORD
  5
EA6E4DCF5
330
EA6E4DC7C
100
AcDbSymbolTableRecord
100
AcDbBlockTableRecord
  2
AR_OPEN
340
0
  0
BLOCK_RECORD
  5
EA6E4E244
330
EA6E4DC7C
100
AcDbSymbolTableRecord
100
AcDbBlockTableRecord
  2
ARROWANG
340
0
102
{BLKREFS
331
EA6E60783
331
EA6E60789
331
EA6E607D0
331
EA6E607FB
331
EA6E606B0
331
EA6E606F1
331
EA6E606F6
102
}
  0
BLOCK_RECORD
  5
EA6E4EE8D
330
EA6E4DC7C
100
AcDbSymbolTableRecord
100
AcDbBlockTableRecord
  2
_Open30
340
0
  0
BLOCK_RECORD
  5
EA6E4EE9A
330
EA6E4DC7C
100
AcDbSymbolTableRecord
100
AcDbBlockTableRecord
  2
_Open
340
0
102
{BLKREFS
331
EA6E60788
331
EA6E6078F
102
}
  0
BLOCK_RECORD
  5
EA6E6021F
330
EA6E4DC7C
100
AcDbSymbolTableRecord
100
AcDbBlockTableRecord
  2
*X5
340
0
102
{BLKREFS
331
EA6E60802
102
}
  0
ENDTAB
  0
ENDSEC
  0
SECTION
  2
BLOCKS
  0
BLOCK
  5
EA6E4DCD4
330
EA6E4DC92
100
AcDbEntity
  8
0
100
AcDbBlockBegin
  2
*MODEL_SPACE
 70
     0
 10
0.0
 20
0.0
 30
0.0
  3
*MODEL_SPACE
  1

  0
ENDBLK
  5
EA6E4DCD5
330
EA6E4DC92
100
AcDbEntity
  8
0
100
AcDbBlockEnd
  0
BLOCK
  5
EA6E4DCD2
330
EA6E4DC8F
100
AcDbEntity
 67
     1
  8
0
100
AcDbBlockBegin
  2
*PAPER_SPACE
 70
     0
 10
0.0
 20
0.0
 30
0.0
  3
*PAPER_SPACE
  1

  0
ENDBLK
  5
EA6E4DCD3
330
EA6E4DC8F
100
AcDbEntity
 67
     1
  8
0
100
AcDbBlockEnd
  0
BLOCK
  5
449
330
EA6E4DC97
100
AcDbEntity
  8
0
100
AcDbBlockBegin
  2
ARROW
 70
     0
 10
1.0
 20
0.5
 30
0.0
  3
ARROW
  1

  0
LINE
  5
44A
330
EA6E4DC97
100
AcDbEntity
  8
0
100
AcDbLine
 10
1.0
 20
0.5
 30
0.0
 11
-0.5
 21
0.098076
 31
0.0
  0
LINE
  5
44B
330
EA6E4DC97
100
AcDbEntity
  8
0
100
AcDbLine
 10
0.0
 20
0.5
 30
0.0
 11
1.0
 21
0.5
 31
0.0
  0
LINE
  5
44C
330
EA6E4DC97
100
AcDbEntity
  8
0
100
AcDbLine
 10
1.0
 20
0.5
 30
0.0
 11
-0.5
 21
0.9019239999999999
 31
0.0
  0
ENDBLK
  5
44D
330
EA6E4DC97
100
AcDbEntity
  8
0
100
AcDbBlockEnd
  0
BLOCK
  5
EA6E4DCF9
330
EA6E4DCF5
100
AcDbEntity
  8
0
100
AcDbBlockBegin
  2
AR_OPEN
 70
     0
 10
0.0
 20
0.0
 30
0.0
  3
AR_OPEN
  1

  0
LINE
  5
EA6E4DCF6
330
EA6E4DCF5
100
AcDbEntity
  8
0
 62
     0
100
AcDbLine
 10
-1.0
 20
0.0
 30
0.0
 11
0.0
 21
0.0
 31
0.0
  0
LINE
  5
EA6E4DCF7
330
EA6E4DCF5
100
AcDbEntity
  8
0
 62
     0
100
AcDbLine
 10
0.0
 20
0.0
 30
0.0
 11
-1.0
 21
0.267949
 31
0.0
  0
LINE
  5
EA6E4DCF8
330
EA6E4DCF5
100
AcDbEntity
  8
0
 62
     0
100
AcDbLine
 10
0.0
 20
0.0
 30
0.0
 11
-1.0
 21
-0.267949
 31
0.0
  0
ENDBLK
  5
EA6E4DCFA
330
EA6E4DCF5
100
AcDbEntity
  8
0
100
AcDbBlockEnd
  0
BLOCK
  5
EA6E4E247
330
EA6E4E244
100
AcDbEntity
  8
0
100
AcDbBlockBegin
  2
ARROWANG
 70
     0
 10
0.0
 20
0.0
 30
0.0
  3
ARROWANG
  1

  0
LINE
  5
EA6E4E245
330
EA6E4E244
100
AcDbEntity
  8
SUNPOU
100
AcDbLine
 10
0.0
 20
0.0
 30
0.0
 11
-1.499999999999956
 21
0.401923788646741
 31
0.0
  0
LINE
  5
EA6E4E246
330
EA6E4E244
100
AcDbEntity
  8
SUNPOU
100
AcDbLine
 10
0.0
 20
0.0
 30
0.0
 11
-1.500000000000027
 21
-0.4019237886467124
 31
0.0
  0
ENDBLK
  5
EA6E4E248
330
EA6E4E244
100
AcDbEntity
  8
0
100
AcDbBlockEnd
  0
BLOCK
  5
EA6E4EE91
330
EA6E4EE8D
100
AcDbEntity
  8
0
100
AcDbBlockBegin
  2
_Open30
 70
     0
 10
0.0
 20
0.0
 30
0.0
  3
_Open30
  1

  0
LINE
  5
EA6E4EE8E
330
EA6E4EE8D
100
AcDbEntity
  8
0
  6
ByBlock
 62
     0
370
    -2
100
AcDbLine
 10
-1.0
 20
0.26794919
 30
0.0
 11
0.0
 21
0.0
 31
0.0
  0
LINE
  5
EA6E4EE8F
330
EA6E4EE8D
100
AcDbEntity
  8
0
  6
ByBlock
 62
     0
370
    -2
100
AcDbLine
 10
0.0
 20
0.0
 30
0.0
 11
-1.0
 21
-0.26794919
 31
0.0
  0
LINE
  5
EA6E4EE90
330
EA6E4EE8D
100
AcDbEntity
  8
0
  6
ByBlock
 62
     0
370
    -2
100
AcDbLine
 10
0.0
 20
0.0
 30
0.0
 11
-1.0
 21
0.0
 31
0.0
  0
ENDBLK
  5
EA6E4EE92
330
EA6E4EE8D
100
AcDbEntity
  8
0
100
AcDbBlockEnd
  0
BLOCK
  5
EA6E4EE9E
330
EA6E4EE9A
100
AcDbEntity
  8
0
100
AcDbBlockBegin
  2
_Open
 70
     0
 10
0.0
 20
0.0
 30
0.0
  3
_Open
  1

  0
LINE
  5
EA6E4EE9B
330
EA6E4EE9A
100
AcDbEntity
  8
0
  6
ByBlock
 62
     0
370
    -2
100
AcDbLine
 10
-1.0
 20
0.1666666666666666
 30
0.0
 11
0.0
 21
0.0
 31
0.0
  0
LINE
  5
EA6E4EE9C
330
EA6E4EE9A
100
AcDbEntity
  8
0
  6
ByBlock
 62
     0
370
    -2
100
AcDbLine
 10
-1.0
 20
-0.1666666666666666
 30
0.0
 11
0.0
 21
0.0
 31
0.0
  0
LINE
  5
EA6E4EE9D
330
EA6E4EE9A
100
AcDbEntity
  8
0
  6
ByBlock
 62
     0
370
    -2
100
AcDbLine
 10
0.0
 20
0.0
 30
0.0
 11
-1.0
 21
0.0
 31
0.0
  0
ENDBLK
  5
EA6E4EE9F
330
EA6E4EE9A
100
AcDbEntity
  8
0
100
AcDbBlockEnd
  0
BLOCK
  5
EA6E603A8
330
EA6E6021F
100
AcDbEntity
  8
0
100
AcDbBlockBegin
  2
*X5
 70
     1
 10
0.0
 20
0.0
 30
0.0
  3
*X5
  1

  0
LINE
  5
EA6E60220
330
EA6E6021F
100
AcDbEntity
  8
0
 62
     0
100
AcDbLine
 10
13.0
 20
1.5
 30
0.0
 11
13.0
 21
3.0
 31
0.0
  0
LINE
  5
EA6E60221
330
EA6E6021F
100
AcDbEntity
  8
0
 62
     0
100
AcDbLine
 10
12.8
 20
0.5011846473685893
 30
0.0
 11
12.8
 21
1.501244022154416
 31
0.0
  0
LINE
  5
EA6E60222
330
EA6E6021F
100
AcDbEntity
  8
0
 62
     0
100
AcDbLine
 10
12.8
 20
16.49875597784558
 30
0.0
 11
12.8
 21
17.49881535263141
 31
0.0
  0
LINE
  5
EA6E60223
330
EA6E6021F
100
AcDbEntity
  8
0
 62
     0
100
AcDbLine
 10
12.8
 20
1.502736746385633
 30
0.0
 11
12.8
 21
3.003293554097716
 31
0.0
  0
LINE
  5
EA6E60224
330
EA6E6021F
100
AcDbEntity
  8
0
 62
     0
100
AcDbLine
 10
12.8
 20
14.99670644590227
 30
0.0
 11
12.8
 21
16.49726325361435
 31
0.0
  0
LINE
  5
EA6E60225
330
EA6E6021F
100
AcDbEntity
  8
0
 62
     0
100
AcDbLine
 10
12.8
 20
8.252736746385634
 30
0.0
 11
12.8
 21
9.753293554097712
 31
0.0
  0
LINE
  5
EA6E60226
330
EA6E6021F
100
AcDbEntity
  8
0
 62
     0
100
AcDbLine
 10
12.6
 20
0.5047390883533396
 30
0.0
 11
12.6
 21
1.504976666345426
 31
0.0
  0
LINE
  5
EA6E60227
330
EA6E6021F
100
AcDbEntity
  8
0
 62
     0
100
AcDbLine
 10
12.6
 20
16.49502333365457
 30
0.0
 11
12.6
 21
17.49526091164665
 31
0.0
  0
LINE
  5
EA6E60228
330
EA6E6021F
100
AcDbEntity
  8
0
 62
     0
100
AcDbLine
 10
12.6
 20
1.510953142904804
 30
0.0
 11
12.6
 21
3.013184954832298
 31
0.0
  0
LINE
  5
EA6E60229
330
EA6E6021F
100
AcDbEntity
  8
0
 62
     0
100
AcDbLine
 10
12.6
 20
14.9868150451677
 30
0.0
 11
12.6
 21
16.48904685709519
 31
0.0
  0
LINE
  5
EA6E6022A
330
EA6E6021F
100
AcDbEntity
  8
0
 62
     0
100
AcDbLine
 10
12.6
 20
8.260953142904803
 30
0.0
 11
12.6
 21
9.763184954832301
 31
0.0
  0
LINE
  5
EA6E6022B
330
EA6E6021F
100
AcDbEntity
  8
0
 62
     0
100
AcDbLine
 10
12.4
 20
0.5106648206422692
 30
0.0
 11
12.4
 21
1.511199667098658
 31
0.0
  0
LINE
  5
EA6E6022C
330
EA6E6021F
100
AcDbEntity
  8
0
 62
     0
100
AcDbLine
 10
12.4
 20
16.48880033290133
 30
0.0
 11
12.4
 21
17.48933517935772
 31
0.0
  0
LINE
  5
EA6E6022D
330
EA6E6021F
100
AcDbEntity
  8
0
 62
     0
100
AcDbLine
 10
12.4
 20
1.524667731119553
 30
0.0
 11
12.4
 21
3.029706593353226
 31
0.0
  0
LINE
  5
EA6E6022E
330
EA6E6021F
100
AcDbEntity
  8
0
 62
     0
100
AcDbLine
 10
12.4
 20
14.97029340664677
 30
0.0
 11
12.4
 21
16.47533226888044
 31
0.0
  0
LINE
  5
EA6E6022F
330
EA6E6021F
100
AcDbEntity
  8
0
 62
     0
100
AcDbLine
 10
12.4
 20
8.274667731119556
 30
0.0
 11
12.4
 21
9.779706593353227
 31
0.0
  0
LINE
  5
EA6E60230
330
EA6E6021F
100
AcDbEntity
  8
0
 62
     0
100
AcDbLine
 10
12.19999999999999
 20
0.5189643438906657
 30
0.0
 11
12.19999999999999
 21
1.51991591977186
 31
0.0
  0
LINE
  5
EA6E60231
330
EA6E6021F
100
AcDbEntity
  8
0
 62
     0
100
AcDbLine
 10
12.19999999999999
 20
16.48008408022814
 30
0.0
 11
12.19999999999999
 21
17.48103565610933
 31
0.0
  0
LINE
  5
EA6E60232
330
EA6E6021F
100
AcDbEntity
  8
0
 62
     0
100
AcDbLine
 10
12.19999999999999
 20
1.543911647054931
 30
0.0
 11
12.19999999999999
 21
3.052913047755091
 31
0.0
  0
LINE
  5
EA6E60233
330
EA6E6021F
100
AcDbEntity
  8
0
 62
     0
100
AcDbLine
 10
12.19999999999999
 20
14.94708695224491
 30
0.0
 11
12.19999999999999
 21
16.45608835294505
 31
0.0
  0
LINE
  5
EA6E60234
330
EA6E6021F
100
AcDbEntity
  8
0
 62
     0
100
AcDbLine
 10
12.19999999999999
 20
8.293911647054933
 30
0.0
 11
12.19999999999999
 21
9.802913047755092
 31
0.0
  0
LINE
  5
EA6E60235
330
EA6E6021F
100
AcDbEntity
  8
0
 62
     0
100
AcDbLine
 10
12.0
 20
0.5296411650021327
 30
0.0
 11
12.0
 21
1.531129487302989
 31
0.0
  0
LINE
  5
EA6E60236
330
EA6E6021F
100
AcDbEntity
  8
0
 62
     0
100
AcDbLine
 10
12.0
 20
16.468870512697
 30
0.0
 11
12.0
 21
17.47035883499786
 31
0.0
  0
LINE
  5
EA6E60237
330
EA6E6021F
100
AcDbEntity
  8
0
 62
     0
100
AcDbLine
 10
12.0
 20
1.568728977850376
 30
0.0
 11
12.0
 21
3.082881996483852
 31
0.0
  0
LINE
  5
EA6E60238
330
EA6E6021F
100
AcDbEntity
  8
0
 62
     0
100
AcDbLine
 10
12.0
 20
14.91711800351614
 30
0.0
 11
12.0
 21
16.43127102214962
 31
0.0
  0
LINE
  5
EA6E60239
330
EA6E6021F
100
AcDbEntity
  8
0
 62
     0
100
AcDbLine
 10
12.0
 20
8.318728977850376
 30
0.0
 11
12.0
 21
9.832881996483848
 31
0.0
  0
LINE
  5
EA6E6023A
330
EA6E6021F
100
AcDbEntity
  8
0
 62
     0
100
AcDbLine
 10
11.8
 20
0.5426998055585415
 30
0.0
 11
11.8
 21
1.544845609709006
 31
0.0
  0
LINE
  5
EA6E6023B
330
EA6E6021F
100
AcDbEntity
  8
0
 62
     0
100
AcDbLine
 10
11.8
 20
16.45515439029098
 30
0.0
 11
11.8
 21
17.45730019444144
 31
0.0
  0
LINE
  5
EA6E6023C
330
EA6E6021F
100
AcDbEntity
  8
0
 62
     0
100
AcDbLine
 10
11.8
 20
1.599177274433096
 30
0.0
 11
11.8
 21
3.119715547134022
 31
0.0
  0
LINE
  5
EA6E6023D
330
EA6E6021F
100
AcDbEntity
  8
0
 62
     0
100
AcDbLine
 10
11.8
 20
14.88028445286597
 30
0.0
 11
11.8
 21
16.4008227255669
 31
0.0
  0
LINE
  5
EA6E6023E
330
EA6E6021F
100
AcDbEntity
  8
0
 62
     0
100
AcDbLine
 10
11.8
 20
8.349177274433094
 30
0.0
 11
11.8
 21
9.869715547134024
 31
0.0
  0
LINE
  5
EA6E6023F
330
EA6E6021F
100
AcDbEntity
  8
0
 62
     0
100
AcDbLine
 10
11.59999999999999
 20
0.5581458114356864
 30
0.0
 11
11.59999999999999
 21
1.561070716387176
 31
0.0
  0
LINE
  5
EA6E60240
330
EA6E6021F
100
AcDbEntity
  8
0
 62
     0
100
AcDbLine
 10
11.59999999999999
 20
16.43892928361282
 30
0.0
 11
11.59999999999999
 21
17.44185418856431
 31
0.0
  0
LINE
  5
EA6E60241
330
EA6E6021F
100
AcDbEntity
  8
0
 62
     0
100
AcDbLine
 10
11.59999999999999
 20
1.635328234354861
 30
0.0
 11
11.59999999999999
 21
3.163542034954736
 31
0.0
  0
LINE
  5
EA6E60242
330
EA6E6021F
100
AcDbEntity
  8
0
 62
     0
100
AcDbLine
 10
11.59999999999999
 20
14.83645796504525
 30
0.0
 11
11.59999999999999
 21
16.36467176564513
 31
0.0
  0
LINE
  5
EA6E60243
330
EA6E6021F
100
AcDbEntity
  8
0
 62
     0
100
AcDbLine
 10
11.59999999999999
 20
8.385328234354862
 30
0.0
 11
11.59999999999999
 21
9.913542034954735
 31
0.0
  0
LINE
  5
EA6E60244
330
EA6E6021F
100
AcDbEntity
  8
0
 62
     0
100
AcDbLine
 10
11.4
 20
0.5759857646525575
 30
0.0
 11
11.4
 21
1.579812441286875
 31
0.0
  0
LINE
  5
EA6E60245
330
EA6E6021F
100
AcDbEntity
  8
0
 62
     0
100
AcDbLine
 10
11.4
 20
16.42018755871312
 30
0.0
 11
11.4
 21
17.42401423534744
 31
0.0
  0
LINE
  5
EA6E60246
330
EA6E6021F
100
AcDbEntity
  8
0
 62
     0
100
AcDbLine
 10
11.4
 20
1.677268574155954
 30
0.0
 11
11.4
 21
3.214520049132957
 31
0.0
  0
LINE
  5
EA6E60247
330
EA6E6021F
100
AcDbEntity
  8
0
 62
     0
100
AcDbLine
 10
11.4
 20
14.78547995086702
 30
0.0
 11
11.4
 21
16.32273142584404
 31
0.0
  0
LINE
  5
EA6E60248
330
EA6E6021F
100
AcDbEntity
  8
0
 62
     0
100
AcDbLine
 10
11.4
 20
8.427268574155956
 30
0.0
 11
11.4
 21
9.964520049132961
 31
0.0
  0
LINE
  5
EA6E60249
330
EA6E6021F
100
AcDbEntity
  8
0
 62
     0
100
AcDbLine
 10
11.19999999999999
 20
0.5962272975137566
 30
0.0
 11
11.19999999999999
 21
1.601079641035706
 31
0.0
  0
LINE
  5
EA6E6024A
330
EA6E6021F
100
AcDbEntity
  8
0
 62
     0
100
AcDbLine
 10
11.19999999999999
 20
16.39892035896429
 30
0.0
 11
11.19999999999999
 21
17.40377270248623
 31
0.0
  0
LINE
  5
EA6E6024B
330
EA6E6021F
100
AcDbEntity
  8
0
 62
     0
100
AcDbLine
 10
11.19999999999999
 20
1.725101116855704
 30
0.0
 11
11.19999999999999
 21
3.274470700593997
 31
0.0
  0
LINE
  5
EA6E6024C
330
EA6E6021F
100
AcDbEntity
  8
0
 62
     0
100
AcDbLine
 10
11.19999999999999
 20
14.72552929940599
 30
0.0
 11
11.19999999999999
 21
16.27489888314428
 31
0.0
  0
LINE
  5
EA6E6024D
330
EA6E6021F
100
AcDbEntity
  8
0
 62
     0
100
AcDbLine
 10
11.19999999999999
 20
8.475101116855702
 30
0.0
 11
11.19999999999999
 21
10.02447070059399
 31
0.0
  0
LINE
  5
EA6E6024E
330
EA6E6021F
100
AcDbEntity
  8
0
 62
     0
100
AcDbLine
 10
11.0
 20
0.6188791091165271
 30
0.0
 11
11.0
 21
1.624882416121604
 31
0.0
  0
LINE
  5
EA6E6024F
330
EA6E6021F
100
AcDbEntity
  8
0
 62
     0
100
AcDbLine
 10
11.0
 20
16.37511758387839
 30
0.0
 11
11.0
 21
17.38112089088347
 31
0.0
  0
LINE
  5
EA6E60250
330
EA6E6021F
100
AcDbEntity
  8
0
 62
     0
100
AcDbLine
 10
11.0
 20
1.778946127801587
 30
0.0
 11
11.0
 21
3.345224713883404
 31
0.0
  0
LINE
  5
EA6E60251
330
EA6E6021F
100
AcDbEntity
  8
0
 62
     0
100
AcDbLine
 10
11.0
 20
14.65477528611659
 30
0.0
 11
11.0
 21
16.22105387219841
 31
0.0
  0
LINE
  5
EA6E60252
330
EA6E6021F
100
AcDbEntity
  8
0
 62
     0
100
AcDbLine
 10
11.0
 20
8.528946127801587
 30
0.0
 11
11.0
 21
10.0952247138834
 31
0.0
  0
LINE
  5
EA6E60253
330
EA6E6021F
100
AcDbEntity
  8
0
 62
     0
100
AcDbLine
 10
10.8
 20
0.6439509843066205
 30
0.0
 11
10.8
 21
1.651232135250402
 31
0.0
  0
LINE
  5
EA6E60254
330
EA6E6021F
100
AcDbEntity
  8
0
 62
     0
100
AcDbLine
 10
10.8
 20
16.34876786474959
 30
0.0
 11
10.8
 21
17.35604901569336
 31
0.0
  0
LINE
  5
EA6E60255
330
EA6E6021F
100
AcDbEntity
  8
0
 62
     0
100
AcDbLine
 10
10.8
 20
1.838965527600105
 30
0.0
 11
10.8
 21
3.427362928229201
 31
0.0
  0
LINE
  5
EA6E60256
330
EA6E6021F
100
AcDbEntity
  8
0
 62
     0
100
AcDbLine
 10
10.8
 20
14.57263707177079
 30
0.0
 11
10.8
 21
16.16103447239989
 31
0.0
  0
LINE
  5
EA6E60257
330
EA6E6021F
100
AcDbEntity
  8
0
 62
     0
100
AcDbLine
 10
10.8
 20
8.588965527600102
 30
0.0
 11
10.8
 21
10.17736292822919
 31
0.0
  0
LINE
  5
EA6E60258
330
EA6E6021F
100
AcDbEntity
  8
0
 62
     0
100
AcDbLine
 10
10.6
 20
0.6714538151807618
 30
0.0
 11
10.6
 21
1.680141463018063
 31
0.0
  0
LINE
  5
EA6E60259
330
EA6E6021F
100
AcDbEntity
  8
0
 62
     0
100
AcDbLine
 10
10.6
 20
16.31985853698194
 30
0.0
 11
10.6
 21
17.32854618481924
 31
0.0
  0
LINE
  5
EA6E6025A
330
EA6E6021F
100
AcDbEntity
  8
0
 62
     0
100
AcDbLine
 10
10.6
 20
1.906497453997511
 30
0.0
 11
10.6
 21
3.521613256092562
 31
0.0
  0
LINE
  5
EA6E6025B
330
EA6E6021F
100
AcDbEntity
  8
0
 62
     0
100
AcDbLine
 10
10.6
 20
14.47838674390743
 30
0.0
 11
10.6
 21
16.09350254600249
 31
0.0
  0
LINE
  5
EA6E6025C
330
EA6E6021F
100
AcDbEntity
  8
0
 62
     0
100
AcDbLine
 10
10.6
 20
8.656497453997507
 30
0.0
 11
10.6
 21
10.27161325609256
 31
0.0
  0
LINE
  5
EA6E6025D
330
EA6E6021F
100
AcDbEntity
  8
0
 62
     0
100
AcDbLine
 10
10.4
 20
0.7013996252478309
 30
0.0
 11
10.4
 21
1.711624391057782
 31
0.0
  0
LINE
  5
EA6E6025E
330
EA6E6021F
100
AcDbEntity
  8
0
 62
     0
100
AcDbLine
 10
10.4
 20
16.28837560894221
 30
0.0
 11
10.4
 21
17.29860037475216
 31
0.0
  0
LINE
  5
EA6E6025F
330
EA6E6021F
100
AcDbEntity
  8
0
 62
     0
100
AcDbLine
 10
10.4
 20
1.982488280859818
 30
0.0
 11
10.4
 21
3.628889777131711
 31
0.0
  0
LINE
  5
EA6E60260
330
EA6E6021F
100
AcDbEntity
  8
0
 62
     0
100
AcDbLine
 10
10.4
 20
14.37111022286828
 30
0.0
 11
10.4
 21
16.01751171914017
 31
0.0
  0
LINE
  5
EA6E60261
330
EA6E6021F
100
AcDbEntity
  8
0
 62
     0
100
AcDbLine
 10
10.4
 20
8.732488280859815
 30
0.0
 11
10.4
 21
10.37888977713171
 31
0.0
  0
LINE
  5
EA6E60262
330
EA6E6021F
100
AcDbEntity
  8
0
 62
     0
100
AcDbLine
 10
10.2
 20
0.7338015963764449
 30
0.0
 11
10.2
 21
1.745696272844693
 31
0.0
  0
LINE
  5
EA6E60263
330
EA6E6021F
100
AcDbEntity
  8
0
 62
     0
100
AcDbLine
 10
10.2
 20
16.2543037271553
 30
0.0
 11
10.2
 21
17.26619840362355
 31
0.0
  0
LINE
  5
EA6E60264
330
EA6E6021F
100
AcDbEntity
  8
0
 62
     0
100
AcDbLine
 10
10.2
 20
2.067310355584581
 30
0.0
 11
10.2
 21
3.750348873208846
 31
0.0
  0
LINE
  5
EA6E60265
330
EA6E6021F
100
AcDbEntity
  8
0
 62
     0
100
AcDbLine
 10
10.2
 20
14.24965112679115
 30
0.0
 11
10.2
 21
15.93268964441541
 31
0.0
  0
LINE
  5
EA6E60266
330
EA6E6021F
100
AcDbEntity
  8
0
 62
     0
100
AcDbLine
 10
10.2
 20
8.817310355584577
 30
0.0
 11
10.2
 21
10.50034887320884
 31
0.0
  0
LINE
  5
EA6E60267
330
EA6E6021F
100
AcDbEntity
  8
0
 62
     0
100
AcDbLine
 10
10.0
 20
0.7686740986732376
 30
0.0
 11
10.0
 21
1.782373862365612
 31
0.0
  0
LINE
  5
EA6E60268
330
EA6E6021F
100
AcDbEntity
  8
0
 62
     0
100
AcDbLine
 10
10.0
 20
16.21762613763437
 30
0.0
 11
10.0
 21
17.23132590132675
 31
0.0
  0
LINE
  5
EA6E60269
330
EA6E6021F
100
AcDbEntity
  8
0
 62
     0
100
AcDbLine
 10
10.0
 20
2.16140561915966
 30
0.0
 11
10.0
 21
3.890156991938432
 31
0.0
  0
LINE
  5
EA6E6026A
330
EA6E6021F
100
AcDbEntity
  8
0
 62
     0
100
AcDbLine
 10
10.0
 20
14.10984300806157
 30
0.0
 11
10.0
 21
15.83859438084034
 31
0.0
  0
LINE
  5
EA6E6026B
330
EA6E6021F
100
AcDbEntity
  8
0
 62
     0
100
AcDbLine
 10
10.0
 20
5.004798018908181
 30
0.0
 11
10.0
 21
6.004798018908182
 31
0.0
  0
LINE
  5
EA6E6026C
330
EA6E6021F
100
AcDbEntity
  8
0
 62
     0
100
AcDbLine
 10
10.0
 20
8.911405619159657
 30
0.0
 11
10.0
 21
10.64015699193842
 31
0.0
  0
LINE
  5
EA6E6026D
330
EA6E6021F
100
AcDbEntity
  8
0
 62
     0
100
AcDbLine
 10
9.8
 20
0.8060327234544644
 30
0.0
 11
9.8
 21
1.821675356888276
 31
0.0
  0
LINE
  5
EA6E6026E
330
EA6E6021F
100
AcDbEntity
  8
0
 62
     0
100
AcDbLine
 10
9.8
 20
16.17832464311171
 30
0.0
 11
9.8
 21
17.19396727654553
 31
0.0
  0
LINE
  5
EA6E6026F
330
EA6E6021F
100
AcDbEntity
  8
0
 62
     0
100
AcDbLine
 10
9.8
 20
2.265299594642037
 30
0.0
 11
9.8
 21
4.056258282395599
 31
0.0
  0
LINE
  5
EA6E60270
330
EA6E6021F
100
AcDbEntity
  8
0
 62
     0
100
AcDbLine
 10
9.8
 20
13.9437417176044
 30
0.0
 11
9.8
 21
15.73470040535796
 31
0.0
  0
LINE
  5
EA6E60271
330
EA6E6021F
100
AcDbEntity
  8
0
 62
     0
100
AcDbLine
 10
9.8
 20
5.004798018908181
 30
0.0
 11
9.8
 21
6.004798018908182
 31
0.0
  0
LINE
  5
EA6E60272
330
EA6E6021F
100
AcDbEntity
  8
0
 62
     0
100
AcDbLine
 10
9.8
 20
9.015299594642034
 30
0.0
 11
9.8
 21
10.80625828239559
 31
0.0
  0
LINE
  5
EA6E60273
330
EA6E6021F
100
AcDbEntity
  8
0
 62
     0
100
AcDbLine
 10
9.599999999999999
 20
0.8458943194931476
 30
0.0
 11
9.599999999999999
 21
1.863620444093796
 31
0.0
  0
LINE
  5
EA6E60274
330
EA6E6021F
100
AcDbEntity
  8
0
 62
     0
100
AcDbLine
 10
9.599999999999999
 20
16.13637955590619
 30
0.0
 11
9.599999999999999
 21
17.15410568050685
 31
0.0
  0
LINE
  5
EA6E60275
330
EA6E6021F
100
AcDbEntity
  8
0
 62
     0
100
AcDbLine
 10
9.599999999999999
 20
2.379619810236111
 30
0.0
 11
9.599999999999999
 21
4.255129338783956
 31
0.0
  0
LINE
  5
EA6E60276
330
EA6E6021F
100
AcDbEntity
  8
0
 62
     0
100
AcDbLine
 10
9.599999999999999
 20
13.74487066121605
 30
0.0
 11
9.599999999999999
 21
15.62038018976388
 31
0.0
  0
LINE
  5
EA6E60277
330
EA6E6021F
100
AcDbEntity
  8
0
 62
     0
100
AcDbLine
 10
9.599999999999999
 20
5.004798018908181
 30
0.0
 11
9.600000000000003
 21
6.004798018908182
 31
0.0
  0
LINE
  5
EA6E60278
330
EA6E6021F
100
AcDbEntity
  8
0
 62
     0
100
AcDbLine
 10
9.599999999999999
 20
9.129619810236112
 30
0.0
 11
9.599999999999999
 21
11.00512933878394
 31
0.0
  0
LINE
  5
EA6E60279
330
EA6E6021F
100
AcDbEntity
  8
0
 62
     0
100
AcDbLine
 10
9.4
 20
0.8882770327457548
 30
0.0
 11
9.4
 21
1.908230353869035
 31
0.0
  0
LINE
  5
EA6E6027A
330
EA6E6021F
100
AcDbEntity
  8
0
 62
     0
100
AcDbLine
 10
9.4
 20
16.09176964613095
 30
0.0
 11
9.4
 21
17.11172296725424
 31
0.0
  0
LINE
  5
EA6E6027B
330
EA6E6021F
100
AcDbEntity
  8
0
 62
     0
100
AcDbLine
 10
9.4
 20
2.505120428334417
 30
0.0
 11
9.4
 21
4.497576932367894
 31
0.0
  0
LINE
  5
EA6E6027C
330
EA6E6021F
100
AcDbEntity
  8
0
 62
     0
100
AcDbLine
 10
9.4
 20
13.5024230676321
 30
0.0
 11
9.4
 21
15.49487957166558
 31
0.0
  0
LINE
  5
EA6E6027D
330
EA6E6021F
100
AcDbEntity
  8
0
 62
     0
100
AcDbLine
 10
9.4
 20
5.004798018908181
 30
0.0
 11
9.4
 21
6.004798018908182
 31
0.0
  0
LINE
  5
EA6E6027E
330
EA6E6021F
100
AcDbEntity
  8
0
 62
     0
100
AcDbLine
 10
9.4
 20
9.255120428334413
 30
0.0
 11
9.4
 21
11.24757693236789
 31
0.0
  0
LINE
  5
EA6E6027F
330
EA6E6021F
100
AcDbEntity
  8
0
 62
     0
100
AcDbLine
 10
9.199999999999999
 20
0.9332003497861832
 30
0.0
 11
9.199999999999999
 21
1.955527915091238
 31
0.0
  0
LINE
  5
EA6E60280
330
EA6E6021F
100
AcDbEntity
  8
0
 62
     0
100
AcDbLine
 10
9.199999999999999
 20
16.04447208490875
 30
0.0
 11
9.199999999999999
 21
17.06679965021381
 31
0.0
  0
LINE
  5
EA6E60281
330
EA6E6021F
100
AcDbEntity
  8
0
 62
     0
100
AcDbLine
 10
9.199999999999999
 20
2.642715771748799
 30
0.0
 11
9.199999999999999
 21
4.809644645891883
 31
0.0
  0
LINE
  5
EA6E60282
330
EA6E6021F
100
AcDbEntity
  8
0
 62
     0
100
AcDbLine
 10
9.199999999999999
 20
13.19035535410812
 30
0.0
 11
9.199999999999999
 21
15.3572842282512
 31
0.0
  0
LINE
  5
EA6E60283
330
EA6E6021F
100
AcDbEntity
  8
0
 62
     0
100
AcDbLine
 10
9.199999999999999
 20
5.004798018908181
 30
0.0
 11
9.199999999999999
 21
6.004798018908182
 31
0.0
  0
LINE
  5
EA6E60284
330
EA6E6021F
100
AcDbEntity
  8
0
 62
     0
100
AcDbLine
 10
9.199999999999999
 20
9.392715771748797
 30
0.0
 11
9.199999999999999
 21
11.55964464589189
 31
0.0
  0
LINE
  5
EA6E60285
330
EA6E6021F
100
AcDbEntity
  8
0
 62
     0
100
AcDbLine
 10
9.0
 20
0.9806851452009935
 30
0.0
 11
9.0
 21
2.005537617777612
 31
0.0
  0
LINE
  5
EA6E60286
330
EA6E6021F
100
AcDbEntity
  8
0
 62
     0
100
AcDbLine
 10
9.0
 20
15.99446238222238
 30
0.0
 11
9.0
 21
17.01931485479899
 31
0.0
  0
LINE
  5
EA6E60287
330
EA6E6021F
100
AcDbEntity
  8
0
 62
     0
100
AcDbLine
 10
9.0
 20
2.794145186405889
 30
0.0
 11
9.0
 21
6.004798018908182
 31
0.0
  0
LINE
  5
EA6E60288
330
EA6E6021F
100
AcDbEntity
  8
0
 62
     0
100
AcDbLine
 10
9.0
 20
9.5441451864059
 30
0.0
 11
9.0
 21
15.20604659134991
 31
0.0
  0
LINE
  5
EA6E60289
330
EA6E6021F
100
AcDbEntity
  8
0
 62
     0
100
AcDbLine
 10
8.8
 20
1.030753733228884
 30
0.0
 11
8.8
 21
2.058285681017128
 31
0.0
  0
LINE
  5
EA6E6028A
330
EA6E6021F
100
AcDbEntity
  8
0
 62
     0
100
AcDbLine
 10
8.8
 20
15.94171431898286
 30
0.0
 11
8.8
 21
16.96924626677111
 31
0.0
  0
LINE
  5
EA6E6028B
330
EA6E6021F
100
AcDbEntity
  8
0
 62
     0
100
AcDbLine
 10
8.8
 20
2.964241435429821
 30
0.0
 11
8.8
 21
6.004798018908182
 31
0.0
  0
LINE
  5
EA6E6028C
330
EA6E6021F
100
AcDbEntity
  8
0
 62
     0
100
AcDbLine
 10
8.8
 20
9.71424143542983
 30
0.0
 11
8.8
 21
15.03741403325012
 31
0.0
  0
LINE
  5
EA6E6028D
330
EA6E6021F
100
AcDbEntity
  8
0
 62
     0
100
AcDbLine
 10
8.599999999999999
 20
1.083429923959655
 30
0.0
 11
8.599999999999999
 21
2.113812192151339
 31
0.0
  0
LINE
  5
EA6E6028E
330
EA6E6021F
100
AcDbEntity
  8
0
 62
     0
100
AcDbLine
 10
8.599999999999999
 20
15.88618780784866
 30
0.0
 11
8.599999999999999
 21
16.91657007604034
 31
0.0
  0
LINE
  5
EA6E6028F
330
EA6E6021F
100
AcDbEntity
  8
0
 62
     0
100
AcDbLine
 10
8.599999999999999
 20
3.156508117249325
 30
0.0
 11
8.599999999999999
 21
6.004798018908182
 31
0.0
  0
LINE
  5
EA6E60290
330
EA6E6021F
100
AcDbEntity
  8
0
 62
     0
100
AcDbLine
 10
8.599999999999999
 20
9.906508117249334
 30
0.0
 11
8.599999999999999
 21
14.84847420540885
 31
0.0
  0
LINE
  5
EA6E60291
330
EA6E6021F
100
AcDbEntity
  8
0
 62
     0
100
AcDbLine
 10
8.4
 20
1.138739084443542
 30
0.0
 11
8.4
 21
2.172812631433949
 31
0.0
  0
LINE
  5
EA6E60292
330
EA6E6021F
100
AcDbEntity
  8
0
 62
     0
100
AcDbLine
 10
8.4
 20
15.82718736856604
 30
0.0
 11
8.4
 21
16.86126091555645
 31
0.0
  0
LINE
  5
EA6E60293
330
EA6E6021F
100
AcDbEntity
  8
0
 62
     0
100
AcDbLine
 10
8.4
 20
3.375383199960236
 30
0.0
 11
8.4
 21
6.004798018908182
 31
0.0
  0
LINE
  5
EA6E60294
330
EA6E6021F
100
AcDbEntity
  8
0
 62
     0
100
AcDbLine
 10
8.4
 20
10.12538319996024
 30
0.0
 11
8.4
 21
14.63557161972996
 31
0.0
  0
LINE
  5
EA6E60295
330
EA6E6021F
100
AcDbEntity
  8
0
 62
     0
100
AcDbLine
 10
8.200000000000001
 20
1.196733304907503
 30
0.0
 11
8.200000000000001
 21
2.235722402390244
 31
0.0
  0
LINE
  5
EA6E60296
330
EA6E6021F
100
AcDbEntity
  8
0
 62
     0
100
AcDbLine
 10
8.200000000000001
 20
15.76427759760974
 30
0.0
 11
8.200000000000001
 21
16.80326669509248
 31
0.0
  0
LINE
  5
EA6E60297
330
EA6E6021F
100
AcDbEntity
  8
0
 62
     0
100
AcDbLine
 10
8.200000000000001
 20
3.627508786341501
 30
0.0
 11
8.200000000000001
 21
6.004798018908182
 31
0.0
  0
LINE
  5
EA6E60298
330
EA6E6021F
100
AcDbEntity
  8
0
 62
     0
100
AcDbLine
 10
8.200000000000001
 20
10.3775087863415
 30
0.0
 11
8.200000000000001
 21
14.3934422666304
 31
0.0
  0
LINE
  5
EA6E60299
330
EA6E6021F
100
AcDbEntity
  8
0
 62
     0
100
AcDbLine
 10
8.0
 20
1.258070209803342
 30
0.0
 11
8.0
 21
2.302608253196726
 31
0.0
  0
LINE
  5
EA6E6029A
330
EA6E6021F
100
AcDbEntity
  8
0
 62
     0
100
AcDbLine
 10
8.0
 20
15.69739174680327
 30
0.0
 11
8.0
 21
16.74192979019665
 31
0.0
  0
LINE
  5
EA6E6029B
330
EA6E6021F
100
AcDbEntity
  8
0
 62
     0
100
AcDbLine
 10
8.0
 20
3.923649376593718
 30
0.0
 11
8.0
 21
6.004798018908182
 31
0.0
  0
LINE
  5
EA6E6029C
330
EA6E6021F
100
AcDbEntity
  8
0
 62
     0
100
AcDbLine
 10
8.0
 20
10.67364937659373
 30
0.0
 11
8.0
 21
14.11401235389756
 31
0.0
  0
LINE
  5
EA6E6029D
330
EA6E6021F
100
AcDbEntity
  8
0
 62
     0
100
AcDbLine
 10
7.799999999999999
 20
1.323072197862593
 30
0.0
 11
7.799999999999999
 21
2.373542828567604
 31
0.0
  0
LINE
  5
EA6E6029E
330
EA6E6021F
100
AcDbEntity
  8
0
 62
     0
100
AcDbLine
 10
7.799999999999999
 20
15.62645717143239
 30
0.0
 11
7.799999999999999
 21
16.6769278021374
 31
0.0
  0
LINE
  5
EA6E6029F
330
EA6E6021F
100
AcDbEntity
  8
0
 62
     0
100
AcDbLine
 10
7.799999999999999
 20
4.287684463111761
 30
0.0
 11
7.800000000000001
 21
6.004798018908182
 31
0.0
  0
LINE
  5
EA6E602A0
330
EA6E6021F
100
AcDbEntity
  8
0
 62
     0
100
AcDbLine
 10
7.799999999999999
 20
11.03768446311176
 30
0.0
 11
7.799999999999999
 21
13.78369552143277
 31
0.0
  0
LINE
  5
EA6E602A1
330
EA6E6021F
100
AcDbEntity
  8
0
 62
     0
100
AcDbLine
 10
7.599999999999999
 20
1.391799481934756
 30
0.0
 11
7.599999999999999
 21
2.448605117969133
 31
0.0
  0
LINE
  5
EA6E602A2
330
EA6E6021F
100
AcDbEntity
  8
0
 62
     0
100
AcDbLine
 10
7.599999999999999
 20
15.55139488203086
 30
0.0
 11
7.599999999999999
 21
16.60820051806523
 31
0.0
  0
LINE
  5
EA6E602A3
330
EA6E6021F
100
AcDbEntity
  8
0
 62
     0
100
AcDbLine
 10
7.599999999999999
 20
4.840055661165997
 30
0.0
 11
7.599999999999999
 21
6.004798018908182
 31
0.0
  0
LINE
  5
EA6E602A4
330
EA6E6021F
100
AcDbEntity
  8
0
 62
     0
100
AcDbLine
 10
7.599999999999999
 20
11.590055661166
 30
0.0
 11
7.599999999999999
 21
13.31037280736468
 31
0.0
  0
LINE
  5
EA6E602A5
330
EA6E6021F
100
AcDbEntity
  8
0
 62
     0
100
AcDbLine
 10
7.4
 20
1.464317169370111
 30
0.0
 11
7.4
 21
2.527880961894759
 31
0.0
  0
LINE
  5
EA6E602A6
330
EA6E6021F
100
AcDbEntity
  8
0
 62
     0
100
AcDbLine
 10
7.4
 20
15.47211903810524
 30
0.0
 11
7.4
 21
16.53568283062988
 31
0.0
  0
LINE
  5
EA6E602A7
330
EA6E6021F
100
AcDbEntity
  8
0
 62
     0
100
AcDbLine
 10
7.4
 20
5.010858141058445
 30
0.0
 11
7.4
 21
6.004798018908182
 31
0.0
  0
LINE
  5
EA6E602A8
330
EA6E6021F
100
AcDbEntity
  8
0
 62
     0
100
AcDbLine
 10
7.2
 20
1.54069561439672
 30
0.0
 11
7.2
 21
2.611463624641877
 31
0.0
  0
LINE
  5
EA6E602A9
330
EA6E6021F
100
AcDbEntity
  8
0
 62
     0
100
AcDbLine
 10
7.2
 20
15.38853637535811
 30
0.0
 11
7.2
 21
16.45930438560327
 31
0.0
  0
LINE
  5
EA6E602AA
330
EA6E6021F
100
AcDbEntity
  8
0
 62
     0
100
AcDbLine
 10
7.2
 20
5.009318556112756
 30
0.0
 11
7.2
 21
6.004798018908182
 31
0.0
  0
LINE
  5
EA6E602AB
330
EA6E6021F
100
AcDbEntity
  8
0
 62
     0
100
AcDbLine
 10
7.0
 20
1.621010812927075
 30
0.0
 11
7.0
 21
2.699454443607051
 31
0.0
  0
LINE
  5
EA6E602AC
330
EA6E6021F
100
AcDbEntity
  8
0
 62
     0
100
AcDbLine
 10
7.0
 20
15.30054555639295
 30
0.0
 11
7.0
 21
16.37898918707292
 31
0.0
  0
LINE
  5
EA6E602AD
330
EA6E6021F
100
AcDbEntity
  8
0
 62
     0
100
AcDbLine
 10
7.0
 20
5.007778971167066
 30
0.0
 11
7.0
 21
6.004798018908182
 31
0.0
  0
LINE
  5
EA6E602AE
330
EA6E6021F
100
AcDbEntity
  8
0
 62
     0
100
AcDbLine
 10
6.799999999999999
 20
1.705344845571651
 30
0.0
 11
6.799999999999999
 21
2.791963567034779
 31
0.0
  0
LINE
  5
EA6E602AF
330
EA6E6021F
100
AcDbEntity
  8
0
 62
     0
100
AcDbLine
 10
6.799999999999999
 20
15.20803643296522
 30
0.0
 11
6.799999999999999
 21
16.29465515442833
 31
0.0
  0
LINE
  5
EA6E602B0
330
EA6E6021F
100
AcDbEntity
  8
0
 62
     0
100
AcDbLine
 10
6.799999999999999
 20
5.006239386221376
 30
0.0
 11
6.800000000000001
 21
6.004798018908182
 31
0.0
  0
LINE
  5
EA6E602B1
330
EA6E6021F
100
AcDbEntity
  8
0
 62
     0
100
AcDbLine
 10
6.599999999999999
 20
1.793786375640561
 30
0.0
 11
6.599999999999999
 21
2.889110794503253
 31
0.0
  0
LINE
  5
EA6E602B2
330
EA6E6021F
100
AcDbEntity
  8
0
 62
     0
100
AcDbLine
 10
6.599999999999999
 20
15.11088920549675
 30
0.0
 11
6.599999999999999
 21
16.20621362435944
 31
0.0
  0
LINE
  5
EA6E602B3
330
EA6E6021F
100
AcDbEntity
  8
0
 62
     0
100
AcDbLine
 10
6.4
 20
1.886431210121016
 30
0.0
 11
6.4
 21
2.991026537321893
 31
0.0
  0
LINE
  5
EA6E602B4
330
EA6E6021F
100
AcDbEntity
  8
0
 62
     0
100
AcDbLine
 10
6.4
 20
15.00897346267811
 30
0.0
 11
6.4
 21
16.11356878987898
 31
0.0
  0
LINE
  5
EA6E602B5
330
EA6E6021F
100
AcDbEntity
  8
0
 62
     0
100
AcDbLine
 10
6.2
 20
1.983382933076159
 30
0.0
 11
6.2
 21
3.097852919598746
 31
0.0
  0
LINE
  5
EA6E602B6
330
EA6E6021F
100
AcDbEntity
  8
0
 62
     0
100
AcDbLine
 10
6.2
 20
14.90214708040125
 30
0.0
 11
6.2
 21
16.01661706692383
 31
0.0
  0
LINE
  5
EA6E602B7
330
EA6E6021F
100
AcDbEntity
  8
0
 62
     0
100
AcDbLine
 10
6.0
 20
2.084753622680731
 30
0.0
 11
6.0
 21
3.209745045204609
 31
0.0
  0
LINE
  5
EA6E602B8
330
EA6E6021F
100
AcDbEntity
  8
0
 62
     0
100
AcDbLine
 10
6.0
 20
14.79025495479539
 30
0.0
 11
6.0
 21
15.91524637731926
 31
0.0
  0
LINE
  5
EA6E602B9
330
EA6E6021F
100
AcDbEntity
  8
0
 62
     0
100
AcDbLine
 10
5.799999999999999
 20
2.190664665270343
 30
0.0
 11
5.799999999999999
 21
3.326872461473611
 31
0.0
  0
LINE
  5
EA6E602BA
330
EA6E6021F
100
AcDbEntity
  8
0
 62
     0
100
AcDbLine
 10
5.799999999999999
 20
14.67312753852638
 30
0.0
 11
5.799999999999999
 21
15.80933533472965
 31
0.0
  0
LINE
  5
EA6E602BB
330
EA6E6021F
100
AcDbEntity
  8
0
 62
     0
100
AcDbLine
 10
5.599999999999999
 20
2.301247682434635
 30
0.0
 11
5.599999999999999
 21
3.449420857581046
 31
0.0
  0
LINE
  5
EA6E602BC
330
EA6E6021F
100
AcDbEntity
  8
0
 62
     0
100
AcDbLine
 10
5.599999999999999
 20
14.55057914241896
 30
0.0
 11
5.599999999999999
 21
15.69875231756537
 31
0.0
  0
LINE
  5
EA6E602BD
330
EA6E6021F
100
AcDbEntity
  8
0
 62
     0
100
AcDbLine
 10
5.4
 20
2.416645590462048
 30
0.0
 11
5.4
 21
3.577594044593456
 31
0.0
  0
LINE
  5
EA6E602BE
330
EA6E6021F
100
AcDbEntity
  8
0
 62
     0
100
AcDbLine
 10
5.4
 20
14.42240595540654
 30
0.0
 11
5.4
 21
15.58335440953795
 31
0.0
  0
LINE
  5
EA6E602BF
330
EA6E6021F
100
AcDbEntity
  8
0
 62
     0
100
AcDbLine
 10
5.2
 20
2.53701381551804
 30
0.0
 11
5.2
 21
3.711630126781392
 31
0.0
  0
LINE
  5
EA6E602C0
330
EA6E6021F
100
AcDbEntity
  8
0
 62
     0
100
AcDbLine
 10
5.2
 20
14.28836987321861
 30
0.0
 11
5.2
 21
15.46298618448196
 31
0.0
  0
LINE
  5
EA6E602C1
330
EA6E6021F
100
AcDbEntity
  8
0
 62
     0
100
AcDbLine
 10
5.0
 20
2.662521693035724
 30
0.0
 11
5.0
 21
3.853216504577136
 31
0.0
  0
LINE
  5
EA6E602C2
330
EA6E6021F
100
AcDbEntity
  8
0
 62
     0
100
AcDbLine
 10
5.0
 20
14.14678349542286
 30
0.0
 11
5.0
 21
15.33747830696428
 31
0.0
  0
LINE
  5
EA6E602C3
330
EA6E6021F
100
AcDbEntity
  8
0
 62
     0
100
AcDbLine
 10
4.799999999999999
 20
2.793354086221263
 30
0.0
 11
4.799999999999999
 21
4.003783113073376
 31
0.0
  0
LINE
  5
EA6E602C4
330
EA6E6021F
100
AcDbEntity
  8
0
 62
     0
100
AcDbLine
 10
4.799999999999999
 20
13.99621688692662
 30
0.0
 11
4.799999999999999
 21
15.20664591377872
 31
0.0
  0
LINE
  5
EA6E602C5
330
EA6E6021F
100
AcDbEntity
  8
0
 62
     0
100
AcDbLine
 10
4.599999999999999
 20
2.929713266730669
 30
0.0
 11
4.599999999999999
 21
4.163951885275562
 31
0.0
  0
LINE
  5
EA6E602C6
330
EA6E6021F
100
AcDbEntity
  8
0
 62
     0
100
AcDbLine
 10
4.599999999999999
 20
13.83604811472443
 30
0.0
 11
4.599999999999999
 21
15.07028673326932
 31
0.0
  0
LINE
  5
EA6E602C7
330
EA6E6021F
100
AcDbEntity
  8
0
 62
     0
100
AcDbLine
 10
4.4
 20
3.072155023749401
 30
0.0
 11
4.4
 21
4.334449219425922
 31
0.0
  0
LINE
  5
EA6E602C8
330
EA6E6021F
100
AcDbEntity
  8
0
 62
     0
100
AcDbLine
 10
4.4
 20
13.66555078057407
 30
0.0
 11
4.4
 21
14.92784497625058
 31
0.0
  0
LINE
  5
EA6E602C9
330
EA6E6021F
100
AcDbEntity
  8
0
 62
     0
100
AcDbLine
 10
4.2
 20
3.222522228922893
 30
0.0
 11
4.2
 21
4.516131333158581
 31
0.0
  0
LINE
  5
EA6E602CA
330
EA6E6021F
100
AcDbEntity
  8
0
 62
     0
100
AcDbLine
 10
4.2
 20
13.4838686668414
 30
0.0
 11
4.2
 21
14.77747777107709
 31
0.0
  0
LINE
  5
EA6E602CB
330
EA6E6021F
100
AcDbEntity
  8
0
 62
     0
100
AcDbLine
 10
4.0
 20
3.381496362144701
 30
0.0
 11
4.0
 21
4.710018288129922
 31
0.0
  0
LINE
  5
EA6E602CC
330
EA6E6021F
100
AcDbEntity
  8
0
 62
     0
100
AcDbLine
 10
4.0
 20
13.28998171187007
 30
0.0
 11
4.0
 21
14.6185036378553
 31
0.0
  0
LINE
  5
EA6E602CD
330
EA6E6021F
100
AcDbEntity
  8
0
 62
     0
100
AcDbLine
 10
3.799999999999999
 20
3.549655387637881
 30
0.0
 11
3.799999999999999
 21
4.917340616816316
 31
0.0
  0
LINE
  5
EA6E602CE
330
EA6E6021F
100
AcDbEntity
  8
0
 62
     0
100
AcDbLine
 10
3.799999999999999
 20
13.08265938318368
 30
0.0
 11
3.799999999999999
 21
14.4503446123621
 31
0.0
  0
LINE
  5
EA6E602CF
330
EA6E6021F
100
AcDbEntity
  8
0
 62
     0
100
AcDbLine
 10
3.6
 20
3.727668483578981
 30
0.0
 11
3.6
 21
5.139604787888837
 31
0.0
  0
LINE
  5
EA6E602D0
330
EA6E6021F
100
AcDbEntity
  8
0
 62
     0
100
AcDbLine
 10
3.6
 20
12.86039521211116
 30
0.0
 11
3.6
 21
14.27233151642101
 31
0.0
  0
LINE
  5
EA6E602D1
330
EA6E6021F
100
AcDbEntity
  8
0
 62
     0
100
AcDbLine
 10
3.399999999999999
 20
3.916316932017076
 30
0.0
 11
3.399999999999999
 21
5.378687769154121
 31
0.0
  0
LINE
  5
EA6E602D2
330
EA6E6021F
100
AcDbEntity
  8
0
 62
     0
100
AcDbLine
 10
3.399999999999999
 20
12.62131223084586
 30
0.0
 11
3.399999999999999
 21
14.08368306798291
 31
0.0
  0
LINE
  5
EA6E602D3
330
EA6E6021F
100
AcDbEntity
  8
0
 62
     0
100
AcDbLine
 10
3.2
 20
4.116521701929555
 30
0.0
 11
3.2
 21
5.63697830289019
 31
0.0
  0
LINE
  5
EA6E602D4
330
EA6E6021F
100
AcDbEntity
  8
0
 62
     0
100
AcDbLine
 10
3.2
 20
12.36302169710981
 30
0.0
 11
3.2
 21
13.88347829807043
 31
0.0
  0
LINE
  5
EA6E602D5
330
EA6E6021F
100
AcDbEntity
  8
0
 62
     0
100
AcDbLine
 10
3.0
 20
4.329380554923221
 30
0.0
 11
3.0
 21
5.917596726934862
 31
0.0
  0
LINE
  5
EA6E602D6
330
EA6E6021F
100
AcDbEntity
  8
0
 62
     0
100
AcDbLine
 10
3.0
 20
12.08240327306513
 30
0.0
 11
3.0
 21
13.67061944507678
 31
0.0
  0
LINE
  5
EA6E602D7
330
EA6E6021F
100
AcDbEntity
  8
0
 62
     0
100
AcDbLine
 10
2.799999999999999
 20
4.556219039421013
 30
0.0
 11
2.799999999999999
 21
6.224754572119449
 31
0.0
  0
LINE
  5
EA6E602D8
330
EA6E6021F
100
AcDbEntity
  8
0
 62
     0
100
AcDbLine
 10
2.799999999999999
 20
11.77524542788054
 30
0.0
 11
2.799999999999999
 21
13.44378096057899
 31
0.0
  0
LINE
  5
EA6E602D9
330
EA6E6021F
100
AcDbEntity
  8
0
 62
     0
100
AcDbLine
 10
2.6
 20
4.798662328218999
 30
0.0
 11
2.6
 21
6.572120102877027
 31
0.0
  0
LINE
  5
EA6E602DA
330
EA6E6021F
100
AcDbEntity
  8
0
 62
     0
100
AcDbLine
 10
2.6
 20
11.42787989712297
 30
0.0
 11
2.6
 21
13.20133767178099
 31
0.0
  0
LINE
  5
EA6E602DB
330
EA6E6021F
100
AcDbEntity
  8
0
 62
     0
100
AcDbLine
 10
2.399999999999999
 20
5.058739397750326
 30
0.0
 11
2.399999999999999
 21
6.997568012831423
 31
0.0
  0
LINE
  5
EA6E602DC
330
EA6E6021F
100
AcDbEntity
  8
0
 62
     0
100
AcDbLine
 10
2.399999999999999
 20
11.00243198716857
 30
0.0
 11
2.399999999999999
 21
12.94126060224967
 31
0.0
  0
LINE
  5
EA6E602DD
330
EA6E6021F
100
AcDbEntity
  8
0
 62
     0
100
AcDbLine
 10
2.2
 20
5.339039409038378
 30
0.0
 11
2.2
 21
7.570011562418093
 31
0.0
  0
LINE
  5
EA6E602DE
330
EA6E6021F
100
AcDbEntity
  8
0
 62
     0
100
AcDbLine
 10
2.2
 20
10.4299884375819
 30
0.0
 11
2.2
 21
12.66096059096161
 31
0.0
  0
LINE
  5
EA6E602DF
330
EA6E6021F
100
AcDbEntity
  8
0
 62
     0
100
AcDbLine
 10
2.0
 20
5.642956437377446
 30
0.0
 11
2.0
 21
12.35704356262255
 31
0.0
  0
LINE
  5
EA6E602E0
330
EA6E6021F
100
AcDbEntity
  8
0
 62
     0
100
AcDbLine
 10
1.8
 20
5.97540056854588
 30
0.0
 11
1.8
 21
12.02459943145411
 31
0.0
  0
LINE
  5
EA6E602E1
330
EA6E6021F
100
AcDbEntity
  8
0
 62
     0
100
AcDbLine
 10
1.6
 20
6.357813161306637
 30
0.0
 11
1.6
 21
11.64218683869336
 31
0.0
  0
LINE
  5
EA6E602E2
330
EA6E6021F
100
AcDbEntity
  8
0
 62
     0
100
AcDbLine
 10
1.399999999999999
 20
6.824201098360354
 30
0.0
 11
1.399999999999999
 21
11.17579890163963
 31
0.0
  0
LINE
  5
EA6E602E3
330
EA6E6021F
100
AcDbEntity
  8
0
 62
     0
100
AcDbLine
 10
1.199999999999999
 20
7.448532813692753
 30
0.0
 11
1.199999999999999
 21
10.55146718630725
 31
0.0
  0
LINE
  5
EA6E602E4
330
EA6E6021F
100
AcDbEntity
  8
0
 62
     0
100
AcDbLine
 10
13.2
 20
0.5011846473685893
 30
0.0
 11
13.2
 21
1.501244022154416
 31
0.0
  0
LINE
  5
EA6E602E5
330
EA6E6021F
100
AcDbEntity
  8
0
 62
     0
100
AcDbLine
 10
13.2
 20
16.49875597784558
 30
0.0
 11
13.2
 21
17.49881535263141
 31
0.0
  0
LINE
  5
EA6E602E6
330
EA6E6021F
100
AcDbEntity
  8
0
 62
     0
100
AcDbLine
 10
13.2
 20
1.502736746385633
 30
0.0
 11
13.2
 21
3.003293554097711
 31
0.0
  0
LINE
  5
EA6E602E7
330
EA6E6021F
100
AcDbEntity
  8
0
 62
     0
100
AcDbLine
 10
13.2
 20
14.99670644590227
 30
0.0
 11
13.2
 21
16.49726325361435
 31
0.0
  0
LINE
  5
EA6E602E8
330
EA6E6021F
100
AcDbEntity
  8
0
 62
     0
100
AcDbLine
 10
13.2
 20
8.246706445902287
 30
0.0
 11
13.2
 21
9.747263253614363
 31
0.0
  0
LINE
  5
EA6E602E9
330
EA6E6021F
100
AcDbEntity
  8
0
 62
     0
100
AcDbLine
 10
13.4
 20
0.5047390883533467
 30
0.0
 11
13.4
 21
1.504976666345426
 31
0.0
  0
LINE
  5
EA6E602EA
330
EA6E6021F
100
AcDbEntity
  8
0
 62
     0
100
AcDbLine
 10
13.4
 20
16.49502333365457
 30
0.0
 11
13.4
 21
17.49526091164666
 31
0.0
  0
LINE
  5
EA6E602EB
330
EA6E6021F
100
AcDbEntity
  8
0
 62
     0
100
AcDbLine
 10
13.4
 20
1.510953142904803
 30
0.0
 11
13.4
 21
3.013184954832297
 31
0.0
  0
LINE
  5
EA6E602EC
330
EA6E6021F
100
AcDbEntity
  8
0
 62
     0
100
AcDbLine
 10
13.4
 20
14.9868150451677
 30
0.0
 11
13.4
 21
16.4890468570952
 31
0.0
  0
LINE
  5
EA6E602ED
330
EA6E6021F
100
AcDbEntity
  8
0
 62
     0
100
AcDbLine
 10
13.4
 20
8.236815045167702
 30
0.0
 11
13.4
 21
9.739046857095198
 31
0.0
  0
LINE
  5
EA6E602EE
330
EA6E6021F
100
AcDbEntity
  8
0
 62
     0
100
AcDbLine
 10
13.6
 20
0.5106648206422763
 30
0.0
 11
13.6
 21
1.511199667098658
 31
0.0
  0
LINE
  5
EA6E602EF
330
EA6E6021F
100
AcDbEntity
  8
0
 62
     0
100
AcDbLine
 10
13.6
 20
16.48880033290133
 30
0.0
 11
13.6
 21
17.48933517935772
 31
0.0
  0
LINE
  5
EA6E602F0
330
EA6E6021F
100
AcDbEntity
  8
0
 62
     0
100
AcDbLine
 10
13.6
 20
1.524667731119555
 30
0.0
 11
13.6
 21
3.029706593353223
 31
0.0
  0
LINE
  5
EA6E602F1
330
EA6E6021F
100
AcDbEntity
  8
0
 62
     0
100
AcDbLine
 10
13.6
 20
14.97029340664677
 30
0.0
 11
13.6
 21
16.47533226888044
 31
0.0
  0
LINE
  5
EA6E602F2
330
EA6E6021F
100
AcDbEntity
  8
0
 62
     0
100
AcDbLine
 10
13.6
 20
8.220293406646776
 30
0.0
 11
13.6
 21
9.725332268880443
 31
0.0
  0
LINE
  5
EA6E602F3
330
EA6E6021F
100
AcDbEntity
  8
0
 62
     0
100
AcDbLine
 10
13.8
 20
0.5189643438906657
 30
0.0
 11
13.8
 21
1.519915919771853
 31
0.0
  0
LINE
  5
EA6E602F4
330
EA6E6021F
100
AcDbEntity
  8
0
 62
     0
100
AcDbLine
 10
13.8
 20
16.48008408022814
 30
0.0
 11
13.8
 21
17.48103565610933
 31
0.0
  0
LINE
  5
EA6E602F5
330
EA6E6021F
100
AcDbEntity
  8
0
 62
     0
100
AcDbLine
 10
13.8
 20
1.543911647054934
 30
0.0
 11
13.8
 21
3.052913047755087
 31
0.0
  0
LINE
  5
EA6E602F6
330
EA6E6021F
100
AcDbEntity
  8
0
 62
     0
100
AcDbLine
 10
13.8
 20
14.94708695224491
 30
0.0
 11
13.8
 21
16.45608835294505
 31
0.0
  0
LINE
  5
EA6E602F7
330
EA6E6021F
100
AcDbEntity
  8
0
 62
     0
100
AcDbLine
 10
13.8
 20
8.197086952244912
 30
0.0
 11
13.8
 21
9.706088352945066
 31
0.0
  0
LINE
  5
EA6E602F8
330
EA6E6021F
100
AcDbEntity
  8
0
 62
     0
100
AcDbLine
 10
14.0
 20
0.5296411650021327
 30
0.0
 11
14.0
 21
1.531129487302989
 31
0.0
  0
LINE
  5
EA6E602F9
330
EA6E6021F
100
AcDbEntity
  8
0
 62
     0
100
AcDbLine
 10
14.0
 20
16.468870512697
 30
0.0
 11
14.0
 21
17.47035883499786
 31
0.0
  0
LINE
  5
EA6E602FA
330
EA6E6021F
100
AcDbEntity
  8
0
 62
     0
100
AcDbLine
 10
14.0
 20
1.568728977850379
 30
0.0
 11
14.0
 21
3.08288199648385
 31
0.0
  0
LINE
  5
EA6E602FB
330
EA6E6021F
100
AcDbEntity
  8
0
 62
     0
100
AcDbLine
 10
14.0
 20
14.91711800351614
 30
0.0
 11
14.0
 21
16.43127102214962
 31
0.0
  0
LINE
  5
EA6E602FC
330
EA6E6021F
100
AcDbEntity
  8
0
 62
     0
100
AcDbLine
 10
14.0
 20
8.167118003516151
 30
0.0
 11
14.0
 21
9.681271022149623
 31
0.0
  0
LINE
  5
EA6E602FD
330
EA6E6021F
100
AcDbEntity
  8
0
 62
     0
100
AcDbLine
 10
14.19999999999999
 20
0.5426998055585486
 30
0.0
 11
14.19999999999999
 21
1.544845609709006
 31
0.0
  0
LINE
  5
EA6E602FE
330
EA6E6021F
100
AcDbEntity
  8
0
 62
     0
100
AcDbLine
 10
14.19999999999999
 20
16.45515439029098
 30
0.0
 11
14.19999999999999
 21
17.45730019444144
 31
0.0
  0
LINE
  5
EA6E602FF
330
EA6E6021F
100
AcDbEntity
  8
0
 62
     0
100
AcDbLine
 10
14.19999999999999
 20
1.599177274433096
 30
0.0
 11
14.19999999999999
 21
3.119715547134022
 31
0.0
  0
LINE
  5
EA6E60300
330
EA6E6021F
100
AcDbEntity
  8
0
 62
     0
100
AcDbLine
 10
14.19999999999999
 20
14.88028445286597
 30
0.0
 11
14.19999999999999
 21
16.4008227255669
 31
0.0
  0
LINE
  5
EA6E60301
330
EA6E6021F
100
AcDbEntity
  8
0
 62
     0
100
AcDbLine
 10
14.19999999999999
 20
8.130284452865977
 30
0.0
 11
14.19999999999999
 21
9.650822725566902
 31
0.0
  0
LINE
  5
EA6E60302
330
EA6E6021F
100
AcDbEntity
  8
0
 62
     0
100
AcDbLine
 10
14.4
 20
0.5581458114356935
 30
0.0
 11
14.4
 21
1.561070716387185
 31
0.0
  0
LINE
  5
EA6E60303
330
EA6E6021F
100
AcDbEntity
  8
0
 62
     0
100
AcDbLine
 10
14.4
 20
16.43892928361282
 30
0.0
 11
14.4
 21
17.44185418856431
 31
0.0
  0
LINE
  5
EA6E60304
330
EA6E6021F
100
AcDbEntity
  8
0
 62
     0
100
AcDbLine
 10
14.4
 20
1.635328234354861
 30
0.0
 11
14.4
 21
3.163542034954738
 31
0.0
  0
LINE
  5
EA6E60305
330
EA6E6021F
100
AcDbEntity
  8
0
 62
     0
100
AcDbLine
 10
14.4
 20
14.83645796504525
 30
0.0
 11
14.4
 21
16.36467176564514
 31
0.0
  0
LINE
  5
EA6E60306
330
EA6E6021F
100
AcDbEntity
  8
0
 62
     0
100
AcDbLine
 10
14.4
 20
8.086457965045266
 30
0.0
 11
14.4
 21
9.614671765645139
 31
0.0
  0
LINE
  5
EA6E60307
330
EA6E6021F
100
AcDbEntity
  8
0
 62
     0
100
AcDbLine
 10
14.59999999999999
 20
0.5759857646525646
 30
0.0
 11
14.59999999999999
 21
1.579812441286875
 31
0.0
  0
LINE
  5
EA6E60308
330
EA6E6021F
100
AcDbEntity
  8
0
 62
     0
100
AcDbLine
 10
14.59999999999999
 20
16.42018755871312
 30
0.0
 11
14.59999999999999
 21
17.42401423534744
 31
0.0
  0
LINE
  5
EA6E60309
330
EA6E6021F
100
AcDbEntity
  8
0
 62
     0
100
AcDbLine
 10
14.59999999999999
 20
1.677268574155958
 30
0.0
 11
14.59999999999999
 21
3.214520049132959
 31
0.0
  0
LINE
  5
EA6E6030A
330
EA6E6021F
100
AcDbEntity
  8
0
 62
     0
100
AcDbLine
 10
14.59999999999999
 20
14.78547995086704
 30
0.0
 11
14.59999999999999
 21
16.32273142584404
 31
0.0
  0
LINE
  5
EA6E6030B
330
EA6E6021F
100
AcDbEntity
  8
0
 62
     0
100
AcDbLine
 10
14.59999999999999
 20
8.035479950867044
 30
0.0
 11
14.59999999999999
 21
9.572731425844038
 31
0.0
  0
LINE
  5
EA6E6030C
330
EA6E6021F
100
AcDbEntity
  8
0
 62
     0
100
AcDbLine
 10
14.8
 20
0.5962272975137566
 30
0.0
 11
14.8
 21
1.601079641035706
 31
0.0
  0
LINE
  5
EA6E6030D
330
EA6E6021F
100
AcDbEntity
  8
0
 62
     0
100
AcDbLine
 10
14.8
 20
16.39892035896429
 30
0.0
 11
14.8
 21
17.40377270248623
 31
0.0
  0
LINE
  5
EA6E6030E
330
EA6E6021F
100
AcDbEntity
  8
0
 62
     0
100
AcDbLine
 10
14.8
 20
1.725101116855706
 30
0.0
 11
14.8
 21
3.274470700593996
 31
0.0
  0
LINE
  5
EA6E6030F
330
EA6E6021F
100
AcDbEntity
  8
0
 62
     0
100
AcDbLine
 10
14.8
 20
14.72552929940599
 30
0.0
 11
14.8
 21
16.27489888314428
 31
0.0
  0
LINE
  5
EA6E60310
330
EA6E6021F
100
AcDbEntity
  8
0
 62
     0
100
AcDbLine
 10
14.8
 20
7.975529299406007
 30
0.0
 11
14.8
 21
9.524898883144292
 31
0.0
  0
LINE
  5
EA6E60311
330
EA6E6021F
100
AcDbEntity
  8
0
 62
     0
100
AcDbLine
 10
15.0
 20
0.6188791091165271
 30
0.0
 11
15.0
 21
1.624882416121606
 31
0.0
  0
LINE
  5
EA6E60312
330
EA6E6021F
100
AcDbEntity
  8
0
 62
     0
100
AcDbLine
 10
15.0
 20
16.37511758387839
 30
0.0
 11
15.0
 21
17.38112089088347
 31
0.0
  0
LINE
  5
EA6E60313
330
EA6E6021F
100
AcDbEntity
  8
0
 62
     0
100
AcDbLine
 10
15.0
 20
1.778946127801589
 30
0.0
 11
15.0
 21
3.345224713883408
 31
0.0
  0
LINE
  5
EA6E60314
330
EA6E6021F
100
AcDbEntity
  8
0
 62
     0
100
AcDbLine
 10
15.0
 20
14.65477528611659
 30
0.0
 11
15.0
 21
16.22105387219841
 31
0.0
  0
LINE
  5
EA6E60315
330
EA6E6021F
100
AcDbEntity
  8
0
 62
     0
100
AcDbLine
 10
15.0
 20
7.904775286116595
 30
0.0
 11
15.0
 21
9.471053872198412
 31
0.0
  0
LINE
  5
EA6E60316
330
EA6E6021F
100
AcDbEntity
  8
0
 62
     0
100
AcDbLine
 10
15.2
 20
0.6439509843066205
 30
0.0
 11
15.2
 21
1.651232135250402
 31
0.0
  0
LINE
  5
EA6E60317
330
EA6E6021F
100
AcDbEntity
  8
0
 62
     0
100
AcDbLine
 10
15.2
 20
16.34876786474959
 30
0.0
 11
15.2
 21
17.35604901569337
 31
0.0
  0
LINE
  5
EA6E60318
330
EA6E6021F
100
AcDbEntity
  8
0
 62
     0
100
AcDbLine
 10
15.2
 20
1.838965527600104
 30
0.0
 11
15.2
 21
3.427362928229201
 31
0.0
  0
LINE
  5
EA6E60319
330
EA6E6021F
100
AcDbEntity
  8
0
 62
     0
100
AcDbLine
 10
15.2
 20
14.5726370717708
 30
0.0
 11
15.2
 21
16.16103447239989
 31
0.0
  0
LINE
  5
EA6E6031A
330
EA6E6021F
100
AcDbEntity
  8
0
 62
     0
100
AcDbLine
 10
15.2
 20
7.822637071770802
 30
0.0
 11
15.2
 21
9.411034472399894
 31
0.0
  0
LINE
  5
EA6E6031B
330
EA6E6021F
100
AcDbEntity
  8
0
 62
     0
100
AcDbLine
 10
15.4
 20
0.6714538151807618
 30
0.0
 11
15.4
 21
1.680141463018063
 31
0.0
  0
LINE
  5
EA6E6031C
330
EA6E6021F
100
AcDbEntity
  8
0
 62
     0
100
AcDbLine
 10
15.4
 20
16.31985853698193
 30
0.0
 11
15.4
 21
17.32854618481924
 31
0.0
  0
LINE
  5
EA6E6031D
330
EA6E6021F
100
AcDbEntity
  8
0
 62
     0
100
AcDbLine
 10
15.4
 20
1.906497453997511
 30
0.0
 11
15.4
 21
3.521613256092558
 31
0.0
  0
LINE
  5
EA6E6031E
330
EA6E6021F
100
AcDbEntity
  8
0
 62
     0
100
AcDbLine
 10
15.4
 20
14.47838674390744
 30
0.0
 11
15.4
 21
16.09350254600248
 31
0.0
  0
LINE
  5
EA6E6031F
330
EA6E6021F
100
AcDbEntity
  8
0
 62
     0
100
AcDbLine
 10
15.4
 20
7.728386743907438
 30
0.0
 11
15.4
 21
9.343502546002484
 31
0.0
  0
LINE
  5
EA6E60320
330
EA6E6021F
100
AcDbEntity
  8
0
 62
     0
100
AcDbLine
 10
15.6
 20
0.701399625247838
 30
0.0
 11
15.6
 21
1.711624391057784
 31
0.0
  0
LINE
  5
EA6E60321
330
EA6E6021F
100
AcDbEntity
  8
0
 62
     0
100
AcDbLine
 10
15.6
 20
16.28837560894221
 30
0.0
 11
15.6
 21
17.29860037475216
 31
0.0
  0
LINE
  5
EA6E60322
330
EA6E6021F
100
AcDbEntity
  8
0
 62
     0
100
AcDbLine
 10
15.6
 20
1.982488280859824
 30
0.0
 11
15.6
 21
3.628889777131711
 31
0.0
  0
LINE
  5
EA6E60323
330
EA6E6021F
100
AcDbEntity
  8
0
 62
     0
100
AcDbLine
 10
15.6
 20
14.37111022286828
 30
0.0
 11
15.6
 21
16.01751171914017
 31
0.0
  0
LINE
  5
EA6E60324
330
EA6E6021F
100
AcDbEntity
  8
0
 62
     0
100
AcDbLine
 10
15.6
 20
7.621110222868287
 30
0.0
 11
15.6
 21
9.267511719140172
 31
0.0
  0
LINE
  5
EA6E60325
330
EA6E6021F
100
AcDbEntity
  8
0
 62
     0
100
AcDbLine
 10
15.8
 20
0.7338015963764449
 30
0.0
 11
15.8
 21
1.745696272844693
 31
0.0
  0
LINE
  5
EA6E60326
330
EA6E6021F
100
AcDbEntity
  8
0
 62
     0
100
AcDbLine
 10
15.8
 20
16.2543037271553
 30
0.0
 11
15.8
 21
17.26619840362355
 31
0.0
  0
LINE
  5
EA6E60327
330
EA6E6021F
100
AcDbEntity
  8
0
 62
     0
100
AcDbLine
 10
15.8
 20
2.067310355584581
 30
0.0
 11
15.8
 21
3.750348873208841
 31
0.0
  0
LINE
  5
EA6E60328
330
EA6E6021F
100
AcDbEntity
  8
0
 62
     0
100
AcDbLine
 10
15.8
 20
14.24965112679115
 30
0.0
 11
15.8
 21
15.9326896444154
 31
0.0
  0
LINE
  5
EA6E60329
330
EA6E6021F
100
AcDbEntity
  8
0
 62
     0
100
AcDbLine
 10
15.8
 20
7.499651126791158
 30
0.0
 11
15.8
 21
9.182689644415415
 31
0.0
  0
LINE
  5
EA6E6032A
330
EA6E6021F
100
AcDbEntity
  8
0
 62
     0
100
AcDbLine
 10
16.0
 20
0.7686740986732376
 30
0.0
 11
16.0
 21
1.78237386236562
 31
0.0
  0
LINE
  5
EA6E6032B
330
EA6E6021F
100
AcDbEntity
  8
0
 62
     0
100
AcDbLine
 10
16.0
 20
16.21762613763437
 30
0.0
 11
16.0
 21
17.23132590132675
 31
0.0
  0
LINE
  5
EA6E6032C
330
EA6E6021F
100
AcDbEntity
  8
0
 62
     0
100
AcDbLine
 10
16.0
 20
2.16140561915966
 30
0.0
 11
16.0
 21
3.88958648698698
 31
0.0
  0
LINE
  5
EA6E6032D
330
EA6E6021F
100
AcDbEntity
  8
0
 62
     0
100
AcDbLine
 10
16.0
 20
14.10984300806157
 30
0.0
 11
16.0
 21
15.83859438084033
 31
0.0
  0
LINE
  5
EA6E6032E
330
EA6E6021F
100
AcDbEntity
  8
0
 62
     0
100
AcDbLine
 10
16.0
 20
7.359843008061576
 30
0.0
 11
16.0
 21
9.088594380840335
 31
0.0
  0
LINE
  5
EA6E6032F
330
EA6E6021F
100
AcDbEntity
  8
0
 62
     0
100
AcDbLine
 10
16.0
 20
11.99520198109181
 30
0.0
 11
16.0
 21
12.99520198109181
 31
0.0
  0
LINE
  5
EA6E60330
330
EA6E6021F
100
AcDbEntity
  8
0
 62
     0
100
AcDbLine
 10
16.2
 20
0.8060327234544644
 30
0.0
 11
16.2
 21
1.821675356888281
 31
0.0
  0
LINE
  5
EA6E60331
330
EA6E6021F
100
AcDbEntity
  8
0
 62
     0
100
AcDbLine
 10
16.2
 20
16.17832464311171
 30
0.0
 11
16.2
 21
17.19396727654554
 31
0.0
  0
LINE
  5
EA6E60332
330
EA6E6021F
100
AcDbEntity
  8
0
 62
     0
100
AcDbLine
 10
16.2
 20
2.265299594642034
 30
0.0
 11
16.2
 21
4.053212394630294
 31
0.0
  0
LINE
  5
EA6E60333
330
EA6E6021F
100
AcDbEntity
  8
0
 62
     0
100
AcDbLine
 10
16.2
 20
13.9437417176044
 30
0.0
 11
16.2
 21
15.73470040535795
 31
0.0
  0
LINE
  5
EA6E60334
330
EA6E6021F
100
AcDbEntity
  8
0
 62
     0
100
AcDbLine
 10
16.2
 20
7.19374171760441
 30
0.0
 11
16.2
 21
8.984700405357962
 31
0.0
  0
LINE
  5
EA6E60335
330
EA6E6021F
100
AcDbEntity
  8
0
 62
     0
100
AcDbLine
 10
16.2
 20
11.99520198109181
 30
0.0
 11
16.2
 21
12.99520198109181
 31
0.0
  0
LINE
  5
EA6E60336
330
EA6E6021F
100
AcDbEntity
  8
0
 62
     0
100
AcDbLine
 10
16.39999999999999
 20
0.8458943194931476
 30
0.0
 11
16.39999999999999
 21
1.8636204440938
 31
0.0
  0
LINE
  5
EA6E60337
330
EA6E6021F
100
AcDbEntity
  8
0
 62
     0
100
AcDbLine
 10
16.39999999999999
 20
16.13637955590618
 30
0.0
 11
16.39999999999999
 21
17.15410568050685
 31
0.0
  0
LINE
  5
EA6E60338
330
EA6E6021F
100
AcDbEntity
  8
0
 62
     0
100
AcDbLine
 10
16.39999999999999
 20
2.379619810236118
 30
0.0
 11
16.39999999999999
 21
4.246668995439238
 31
0.0
  0
LINE
  5
EA6E60339
330
EA6E6021F
100
AcDbEntity
  8
0
 62
     0
100
AcDbLine
 10
16.39999999999999
 20
13.74487066121605
 30
0.0
 11
16.39999999999999
 21
15.62038018976386
 31
0.0
  0
LINE
  5
EA6E6033A
330
EA6E6021F
100
AcDbEntity
  8
0
 62
     0
100
AcDbLine
 10
16.39999999999999
 20
6.994870661216054
 30
0.0
 11
16.39999999999999
 21
8.87038018976388
 31
0.0
  0
LINE
  5
EA6E6033B
330
EA6E6021F
100
AcDbEntity
  8
0
 62
     0
100
AcDbLine
 10
16.39999999999999
 20
11.99520198109181
 30
0.0
 11
16.39999999999999
 21
12.99520198109181
 31
0.0
  0
LINE
  5
EA6E6033C
330
EA6E6021F
100
AcDbEntity
  8
0
 62
     0
100
AcDbLine
 10
16.6
 20
0.8882770327457619
 30
0.0
 11
16.6
 21
1.90823035386904
 31
0.0
  0
LINE
  5
EA6E6033D
330
EA6E6021F
100
AcDbEntity
  8
0
 62
     0
100
AcDbLine
 10
16.6
 20
16.09176964613094
 30
0.0
 11
16.6
 21
17.11172296725424
 31
0.0
  0
LINE
  5
EA6E6033E
330
EA6E6021F
100
AcDbEntity
  8
0
 62
     0
100
AcDbLine
 10
16.6
 20
2.505120428334421
 30
0.0
 11
16.6
 21
4.47863060090183
 31
0.0
  0
LINE
  5
EA6E6033F
330
EA6E6021F
100
AcDbEntity
  8
0
 62
     0
100
AcDbLine
 10
16.6
 20
13.50242306763211
 30
0.0
 11
16.6
 21
15.49487957166557
 31
0.0
  0
LINE
  5
EA6E60340
330
EA6E6021F
100
AcDbEntity
  8
0
 62
     0
100
AcDbLine
 10
16.6
 20
6.752423067632127
 30
0.0
 11
16.6
 21
8.744879571665576
 31
0.0
  0
LINE
  5
EA6E60341
330
EA6E6021F
100
AcDbEntity
  8
0
 62
     0
100
AcDbLine
 10
16.6
 20
11.99520198109181
 30
0.0
 11
16.6
 21
12.99520198109181
 31
0.0
  0
LINE
  5
EA6E60342
330
EA6E6021F
100
AcDbEntity
  8
0
 62
     0
100
AcDbLine
 10
16.8
 20
0.9332003497861903
 30
0.0
 11
16.8
 21
1.955527915091238
 31
0.0
  0
LINE
  5
EA6E60343
330
EA6E6021F
100
AcDbEntity
  8
0
 62
     0
100
AcDbLine
 10
16.8
 20
16.04447208490875
 30
0.0
 11
16.8
 21
17.06679965021381
 31
0.0
  0
LINE
  5
EA6E60344
330
EA6E6021F
100
AcDbEntity
  8
0
 62
     0
100
AcDbLine
 10
16.8
 20
2.642715771748798
 30
0.0
 11
16.8
 21
4.764933423039758
 31
0.0
  0
LINE
  5
EA6E60345
330
EA6E6021F
100
AcDbEntity
  8
0
 62
     0
100
AcDbLine
 10
16.8
 20
13.19035535410814
 30
0.0
 11
16.8
 21
15.35728422825119
 31
0.0
  0
LINE
  5
EA6E60346
330
EA6E6021F
100
AcDbEntity
  8
0
 62
     0
100
AcDbLine
 10
16.8
 20
6.440355354108133
 30
0.0
 11
16.8
 21
8.607284228251199
 31
0.0
  0
LINE
  5
EA6E60347
330
EA6E6021F
100
AcDbEntity
  8
0
 62
     0
100
AcDbLine
 10
16.8
 20
11.99520198109181
 30
0.0
 11
16.8
 21
12.99520198109181
 31
0.0
  0
LINE
  5
EA6E60348
330
EA6E6021F
100
AcDbEntity
  8
0
 62
     0
100
AcDbLine
 10
17.0
 20
0.9806851452009935
 30
0.0
 11
17.0
 21
2.005537617777616
 31
0.0
  0
LINE
  5
EA6E60349
330
EA6E6021F
100
AcDbEntity
  8
0
 62
     0
100
AcDbLine
 10
17.0
 20
15.99446238222238
 30
0.0
 11
17.0
 21
17.01931485479899
 31
0.0
  0
LINE
  5
EA6E6034A
330
EA6E6021F
100
AcDbEntity
  8
0
 62
     0
100
AcDbLine
 10
17.0
 20
2.794145186405881
 30
0.0
 11
17.0
 21
5.371692243973805
 31
0.0
  0
LINE
  5
EA6E6034B
330
EA6E6021F
100
AcDbEntity
  8
0
 62
     0
100
AcDbLine
 10
17.0
 20
11.99520198109181
 30
0.0
 11
17.0
 21
15.2058548135941
 31
0.0
  0
LINE
  5
EA6E6034C
330
EA6E6021F
100
AcDbEntity
  8
0
 62
     0
100
AcDbLine
 10
17.0
 20
5.625000103238273
 30
0.0
 11
17.0
 21
8.455854813594108
 31
0.0
  0
LINE
  5
EA6E6034D
330
EA6E6021F
100
AcDbEntity
  8
0
 62
     0
100
AcDbLine
 10
17.19999999999999
 20
1.030753733228884
 30
0.0
 11
17.19999999999999
 21
2.058285681017131
 31
0.0
  0
LINE
  5
EA6E6034E
330
EA6E6021F
100
AcDbEntity
  8
0
 62
     0
100
AcDbLine
 10
17.19999999999999
 20
15.94171431898286
 30
0.0
 11
17.19999999999999
 21
16.96924626677112
 31
0.0
  0
LINE
  5
EA6E6034F
330
EA6E6021F
100
AcDbEntity
  8
0
 62
     0
100
AcDbLine
 10
17.19999999999999
 20
2.964241435429824
 30
0.0
 11
17.19999999999999
 21
8.285758564570178
 31
0.0
  0
LINE
  5
EA6E60350
330
EA6E6021F
100
AcDbEntity
  8
0
 62
     0
100
AcDbLine
 10
17.19999999999999
 20
11.99520198109181
 30
0.0
 11
17.19999999999999
 21
15.03575856457016
 31
0.0
  0
LINE
  5
EA6E60351
330
EA6E6021F
100
AcDbEntity
  8
0
 62
     0
100
AcDbLine
 10
17.4
 20
1.083429923959662
 30
0.0
 11
17.4
 21
2.113812192151343
 31
0.0
  0
LINE
  5
EA6E60352
330
EA6E6021F
100
AcDbEntity
  8
0
 62
     0
100
AcDbLine
 10
17.4
 20
15.88618780784865
 30
0.0
 11
17.4
 21
16.91657007604034
 31
0.0
  0
LINE
  5
EA6E60353
330
EA6E6021F
100
AcDbEntity
  8
0
 62
     0
100
AcDbLine
 10
17.4
 20
3.156508117249323
 30
0.0
 11
17.4
 21
8.093491882750669
 31
0.0
  0
LINE
  5
EA6E60354
330
EA6E6021F
100
AcDbEntity
  8
0
 62
     0
100
AcDbLine
 10
17.4
 20
11.99520198109181
 30
0.0
 11
17.4
 21
14.84349188275065
 31
0.0
  0
LINE
  5
EA6E60355
330
EA6E6021F
100
AcDbEntity
  8
0
 62
     0
100
AcDbLine
 10
17.6
 20
1.138739084443542
 30
0.0
 11
17.6
 21
2.172812631433951
 31
0.0
  0
LINE
  5
EA6E60356
330
EA6E6021F
100
AcDbEntity
  8
0
 62
     0
100
AcDbLine
 10
17.6
 20
15.82718736856604
 30
0.0
 11
17.6
 21
16.86126091555646
 31
0.0
  0
LINE
  5
EA6E60357
330
EA6E6021F
100
AcDbEntity
  8
0
 62
     0
100
AcDbLine
 10
17.6
 20
3.375383199960236
 30
0.0
 11
17.6
 21
7.874616800039762
 31
0.0
  0
LINE
  5
EA6E60358
330
EA6E6021F
100
AcDbEntity
  8
0
 62
     0
100
AcDbLine
 10
17.6
 20
11.99520198109181
 30
0.0
 11
17.6
 21
14.62461680003975
 31
0.0
  0
LINE
  5
EA6E60359
330
EA6E6021F
100
AcDbEntity
  8
0
 62
     0
100
AcDbLine
 10
17.8
 20
1.196733304907507
 30
0.0
 11
17.8
 21
2.235722402390248
 31
0.0
  0
LINE
  5
EA6E6035A
330
EA6E6021F
100
AcDbEntity
  8
0
 62
     0
100
AcDbLine
 10
17.8
 20
15.76427759760974
 30
0.0
 11
17.8
 21
16.80326669509248
 31
0.0
  0
LINE
  5
EA6E6035B
330
EA6E6021F
100
AcDbEntity
  8
0
 62
     0
100
AcDbLine
 10
17.8
 20
3.627508786341501
 30
0.0
 11
17.8
 21
7.622491213658497
 31
0.0
  0
LINE
  5
EA6E6035C
330
EA6E6021F
100
AcDbEntity
  8
0
 62
     0
100
AcDbLine
 10
17.8
 20
11.99520198109181
 30
0.0
 11
17.8
 21
14.37249121365849
 31
0.0
  0
LINE
  5
EA6E6035D
330
EA6E6021F
100
AcDbEntity
  8
0
 62
     0
100
AcDbLine
 10
18.0
 20
1.258070209803346
 30
0.0
 11
18.0
 21
2.30260825319673
 31
0.0
  0
LINE
  5
EA6E6035E
330
EA6E6021F
100
AcDbEntity
  8
0
 62
     0
100
AcDbLine
 10
18.0
 20
15.69739174680327
 30
0.0
 11
18.0
 21
16.74192979019665
 31
0.0
  0
LINE
  5
EA6E6035F
330
EA6E6021F
100
AcDbEntity
  8
0
 62
     0
100
AcDbLine
 10
18.0
 20
3.923649376593703
 30
0.0
 11
18.0
 21
7.326350623406285
 31
0.0
  0
LINE
  5
EA6E60360
330
EA6E6021F
100
AcDbEntity
  8
0
 62
     0
100
AcDbLine
 10
18.0
 20
11.99520198109181
 30
0.0
 11
18.0
 21
14.07635062340627
 31
0.0
  0
LINE
  5
EA6E60361
330
EA6E6021F
100
AcDbEntity
  8
0
 62
     0
100
AcDbLine
 10
18.2
 20
1.323072197862596
 30
0.0
 11
18.2
 21
2.373542828567604
 31
0.0
  0
LINE
  5
EA6E60362
330
EA6E6021F
100
AcDbEntity
  8
0
 62
     0
100
AcDbLine
 10
18.2
 20
15.62645717143239
 30
0.0
 11
18.2
 21
16.67692780213741
 31
0.0
  0
LINE
  5
EA6E60363
330
EA6E6021F
100
AcDbEntity
  8
0
 62
     0
100
AcDbLine
 10
18.2
 20
4.287684463111763
 30
0.0
 11
18.2
 21
6.962315536888209
 31
0.0
  0
LINE
  5
EA6E60364
330
EA6E6021F
100
AcDbEntity
  8
0
 62
     0
100
AcDbLine
 10
18.2
 20
11.99520198109181
 30
0.0
 11
18.2
 21
13.71231553688823
 31
0.0
  0
LINE
  5
EA6E60365
330
EA6E6021F
100
AcDbEntity
  8
0
 62
     0
100
AcDbLine
 10
18.39999999999999
 20
1.391799481934761
 30
0.0
 11
18.39999999999999
 21
2.448605117969133
 31
0.0
  0
LINE
  5
EA6E60366
330
EA6E6021F
100
AcDbEntity
  8
0
 62
     0
100
AcDbLine
 10
18.39999999999999
 20
15.55139488203086
 30
0.0
 11
18.39999999999999
 21
16.60820051806523
 31
0.0
  0
LINE
  5
EA6E60367
330
EA6E6021F
100
AcDbEntity
  8
0
 62
     0
100
AcDbLine
 10
18.39999999999999
 20
4.840055661165976
 30
0.0
 11
18.39999999999999
 21
6.409944338833982
 31
0.0
  0
LINE
  5
EA6E60368
330
EA6E6021F
100
AcDbEntity
  8
0
 62
     0
100
AcDbLine
 10
18.39999999999999
 20
11.99520198109181
 30
0.0
 11
18.39999999999999
 21
13.15994433883402
 31
0.0
  0
LINE
  5
EA6E60369
330
EA6E6021F
100
AcDbEntity
  8
0
 62
     0
100
AcDbLine
 10
18.6
 20
1.464317169370115
 30
0.0
 11
18.6
 21
2.527880961894759
 31
0.0
  0
LINE
  5
EA6E6036A
330
EA6E6021F
100
AcDbEntity
  8
0
 62
     0
100
AcDbLine
 10
18.6
 20
15.47211903810524
 30
0.0
 11
18.6
 21
16.53568283062988
 31
0.0
  0
LINE
  5
EA6E6036B
330
EA6E6021F
100
AcDbEntity
  8
0
 62
     0
100
AcDbLine
 10
18.6
 20
11.99520198109181
 30
0.0
 11
18.6
 21
12.98914185894155
 31
0.0
  0
LINE
  5
EA6E6036C
330
EA6E6021F
100
AcDbEntity
  8
0
 62
     0
100
AcDbLine
 10
18.8
 20
1.540695614396724
 30
0.0
 11
18.8
 21
2.61146362464188
 31
0.0
  0
LINE
  5
EA6E6036D
330
EA6E6021F
100
AcDbEntity
  8
0
 62
     0
100
AcDbLine
 10
18.8
 20
15.38853637535811
 30
0.0
 11
18.8
 21
16.45930438560327
 31
0.0
  0
LINE
  5
EA6E6036E
330
EA6E6021F
100
AcDbEntity
  8
0
 62
     0
100
AcDbLine
 10
18.8
 20
11.99520198109181
 30
0.0
 11
18.8
 21
12.99068144388724
 31
0.0
  0
LINE
  5
EA6E6036F
330
EA6E6021F
100
AcDbEntity
  8
0
 62
     0
100
AcDbLine
 10
19.0
 20
1.621010812927077
 30
0.0
 11
19.0
 21
2.699454443607051
 31
0.0
  0
LINE
  5
EA6E60370
330
EA6E6021F
100
AcDbEntity
  8
0
 62
     0
100
AcDbLine
 10
19.0
 20
15.30054555639295
 30
0.0
 11
19.0
 21
16.37898918707292
 31
0.0
  0
LINE
  5
EA6E60371
330
EA6E6021F
100
AcDbEntity
  8
0
 62
     0
100
AcDbLine
 10
19.0
 20
11.99520198109181
 30
0.0
 11
19.0
 21
12.99222102883293
 31
0.0
  0
LINE
  5
EA6E60372
330
EA6E6021F
100
AcDbEntity
  8
0
 62
     0
100
AcDbLine
 10
19.19999999999999
 20
1.705344845571659
 30
0.0
 11
19.19999999999999
 21
2.791963567034783
 31
0.0
  0
LINE
  5
EA6E60373
330
EA6E6021F
100
AcDbEntity
  8
0
 62
     0
100
AcDbLine
 10
19.19999999999999
 20
15.20803643296521
 30
0.0
 11
19.19999999999999
 21
16.29465515442833
 31
0.0
  0
LINE
  5
EA6E60374
330
EA6E6021F
100
AcDbEntity
  8
0
 62
     0
100
AcDbLine
 10
19.19999999999999
 20
11.99520198109181
 30
0.0
 11
19.19999999999999
 21
12.99376061377861
 31
0.0
  0
LINE
  5
EA6E60375
330
EA6E6021F
100
AcDbEntity
  8
0
 62
     0
100
AcDbLine
 10
19.39999999999999
 20
1.793786375640563
 30
0.0
 11
19.39999999999999
 21
2.889110794503256
 31
0.0
  0
LINE
  5
EA6E60376
330
EA6E6021F
100
AcDbEntity
  8
0
 62
     0
100
AcDbLine
 10
19.39999999999999
 20
15.11088920549673
 30
0.0
 11
19.39999999999999
 21
16.20621362435944
 31
0.0
  0
LINE
  5
EA6E60377
330
EA6E6021F
100
AcDbEntity
  8
0
 62
     0
100
AcDbLine
 10
19.6
 20
1.88643121012102
 30
0.0
 11
19.6
 21
2.991026537321896
 31
0.0
  0
LINE
  5
EA6E60378
330
EA6E6021F
100
AcDbEntity
  8
0
 62
     0
100
AcDbLine
 10
19.6
 20
15.0089734626781
 30
0.0
 11
19.6
 21
16.11356878987898
 31
0.0
  0
LINE
  5
EA6E60379
330
EA6E6021F
100
AcDbEntity
  8
0
 62
     0
100
AcDbLine
 10
19.8
 20
1.983382933076164
 30
0.0
 11
19.8
 21
3.097852919598746
 31
0.0
  0
LINE
  5
EA6E6037A
330
EA6E6021F
100
AcDbEntity
  8
0
 62
     0
100
AcDbLine
 10
19.8
 20
14.90214708040125
 30
0.0
 11
19.8
 21
16.01661706692383
 31
0.0
  0
LINE
  5
EA6E6037B
330
EA6E6021F
100
AcDbEntity
  8
0
 62
     0
100
AcDbLine
 10
20.0
 20
2.084753622680735
 30
0.0
 11
20.0
 21
3.209745045204609
 31
0.0
  0
LINE
  5
EA6E6037C
330
EA6E6021F
100
AcDbEntity
  8
0
 62
     0
100
AcDbLine
 10
20.0
 20
14.79025495479539
 30
0.0
 11
20.0
 21
15.91524637731926
 31
0.0
  0
LINE
  5
EA6E6037D
330
EA6E6021F
100
AcDbEntity
  8
0
 62
     0
100
AcDbLine
 10
20.2
 20
2.190664665270349
 30
0.0
 11
20.2
 21
3.326872461473616
 31
0.0
  0
LINE
  5
EA6E6037E
330
EA6E6021F
100
AcDbEntity
  8
0
 62
     0
100
AcDbLine
 10
20.2
 20
14.67312753852637
 30
0.0
 11
20.2
 21
15.80933533472965
 31
0.0
  0
LINE
  5
EA6E6037F
330
EA6E6021F
100
AcDbEntity
  8
0
 62
     0
100
AcDbLine
 10
20.4
 20
2.301247682434638
 30
0.0
 11
20.4
 21
3.449420857581046
 31
0.0
  0
LINE
  5
EA6E60380
330
EA6E6021F
100
AcDbEntity
  8
0
 62
     0
100
AcDbLine
 10
20.4
 20
14.55057914241895
 30
0.0
 11
20.4
 21
15.69875231756536
 31
0.0
  0
LINE
  5
EA6E60381
330
EA6E6021F
100
AcDbEntity
  8
0
 62
     0
100
AcDbLine
 10
20.6
 20
2.416645590462052
 30
0.0
 11
20.6
 21
3.577594044593456
 31
0.0
  0
LINE
  5
EA6E60382
330
EA6E6021F
100
AcDbEntity
  8
0
 62
     0
100
AcDbLine
 10
20.6
 20
14.42240595540654
 30
0.0
 11
20.6
 21
15.58335440953795
 31
0.0
  0
LINE
  5
EA6E60383
330
EA6E6021F
100
AcDbEntity
  8
0
 62
     0
100
AcDbLine
 10
20.8
 20
2.537013815518043
 30
0.0
 11
20.8
 21
3.711626924269966
 31
0.0
  0
LINE
  5
EA6E60384
330
EA6E6021F
100
AcDbEntity
  8
0
 62
     0
100
AcDbLine
 10
20.8
 20
14.28836987321861
 30
0.0
 11
20.8
 21
15.46298618448195
 31
0.0
  0
LINE
  5
EA6E60385
330
EA6E6021F
100
AcDbEntity
  8
0
 62
     0
100
AcDbLine
 10
21.0
 20
2.662521693035727
 30
0.0
 11
21.0
 21
3.852872430645609
 31
0.0
  0
LINE
  5
EA6E60386
330
EA6E6021F
100
AcDbEntity
  8
0
 62
     0
100
AcDbLine
 10
21.0
 20
14.14678349542286
 30
0.0
 11
21.0
 21
15.33747830696426
 31
0.0
  0
LINE
  5
EA6E60387
330
EA6E6021F
100
AcDbEntity
  8
0
 62
     0
100
AcDbLine
 10
21.2
 20
2.793354086221266
 30
0.0
 11
21.2
 21
4.002485583831323
 31
0.0
  0
LINE
  5
EA6E60388
330
EA6E6021F
100
AcDbEntity
  8
0
 62
     0
100
AcDbLine
 10
21.2
 20
13.99621688692662
 30
0.0
 11
21.2
 21
15.20664591377872
 31
0.0
  0
LINE
  5
EA6E60389
330
EA6E6021F
100
AcDbEntity
  8
0
 62
     0
100
AcDbLine
 10
21.4
 20
2.929713266730676
 30
0.0
 11
21.4
 21
4.161002755664274
 31
0.0
  0
LINE
  5
EA6E6038A
330
EA6E6021F
100
AcDbEntity
  8
0
 62
     0
100
AcDbLine
 10
21.4
 20
13.83604811472443
 30
0.0
 11
21.4
 21
15.07028673326932
 31
0.0
  0
LINE
  5
EA6E6038B
330
EA6E6021F
100
AcDbEntity
  8
0
 62
     0
100
AcDbLine
 10
21.6
 20
3.072069018676471
 30
0.0
 11
21.6
 21
4.329043532935322
 31
0.0
  0
LINE
  5
EA6E6038C
330
EA6E6021F
100
AcDbEntity
  8
0
 62
     0
100
AcDbLine
 10
21.6
 20
13.66555078057407
 30
0.0
 11
21.6
 21
14.92784497625058
 31
0.0
  0
LINE
  5
EA6E6038D
330
EA6E6021F
100
AcDbEntity
  8
0
 62
     0
100
AcDbLine
 10
21.8
 20
3.221849785812719
 30
0.0
 11
21.8
 21
4.507329243428142
 31
0.0
  0
LINE
  5
EA6E6038E
330
EA6E6021F
100
AcDbEntity
  8
0
 62
     0
100
AcDbLine
 10
21.8
 20
13.48386866684141
 30
0.0
 11
21.8
 21
14.77747777107709
 31
0.0
  0
LINE
  5
EA6E6038F
330
EA6E6021F
100
AcDbEntity
  8
0
 62
     0
100
AcDbLine
 10
22.0
 20
3.379623332304386
 30
0.0
 11
22.0
 21
4.696707259147587
 31
0.0
  0
LINE
  5
EA6E60390
330
EA6E6021F
100
AcDbEntity
  8
0
 62
     0
100
AcDbLine
 10
22.0
 20
13.28998171187008
 30
0.0
 11
22.0
 21
14.6185036378553
 31
0.0
  0
LINE
  5
EA6E60391
330
EA6E6021F
100
AcDbEntity
  8
0
 62
     0
100
AcDbLine
 10
22.2
 20
3.545884748662356
 30
0.0
 11
22.2
 21
4.898183447570518
 31
0.0
  0
LINE
  5
EA6E60392
330
EA6E6021F
100
AcDbEntity
  8
0
 62
     0
100
AcDbLine
 10
22.2
 20
13.08265938318368
 30
0.0
 11
22.2
 21
14.4503446123621
 31
0.0
  0
LINE
  5
EA6E60393
330
EA6E6021F
100
AcDbEntity
  8
0
 62
     0
100
AcDbLine
 10
22.39999999999999
 20
3.721201084250884
 30
0.0
 11
22.39999999999999
 21
5.112966388577576
 31
0.0
  0
LINE
  5
EA6E60394
330
EA6E6021F
100
AcDbEntity
  8
0
 62
     0
100
AcDbLine
 10
22.39999999999999
 20
12.86039521211116
 30
0.0
 11
22.39999999999999
 21
14.27233151642101
 31
0.0
  0
LINE
  5
EA6E60395
330
EA6E6021F
100
AcDbEntity
  8
0
 62
     0
100
AcDbLine
 10
22.6
 20
3.906226422955006
 30
0.0
 11
22.6
 21
5.342529046644196
 31
0.0
  0
LINE
  5
EA6E60396
330
EA6E6021F
100
AcDbEntity
  8
0
 62
     0
100
AcDbLine
 10
22.6
 20
12.62131223084588
 30
0.0
 11
22.6
 21
14.08368306798291
 31
0.0
  0
LINE
  5
EA6E60397
330
EA6E6021F
100
AcDbEntity
  8
0
 62
     0
100
AcDbLine
 10
22.8
 20
4.10172135227376
 30
0.0
 11
22.8
 21
5.588697165049443
 31
0.0
  0
LINE
  5
EA6E60398
330
EA6E6021F
100
AcDbEntity
  8
0
 62
     0
100
AcDbLine
 10
22.8
 20
12.36302169710981
 30
0.0
 11
22.8
 21
13.88347829807043
 31
0.0
  0
LINE
  5
EA6E60399
330
EA6E6021F
100
AcDbEntity
  8
0
 62
     0
100
AcDbLine
 10
23.0
 20
4.308578503036796
 30
0.0
 11
23.0
 21
5.853780106921795
 31
0.0
  0
LINE
  5
EA6E6039A
330
EA6E6021F
100
AcDbEntity
  8
0
 62
     0
100
AcDbLine
 10
23.0
 20
12.08240327306514
 30
0.0
 11
23.0
 21
13.67061944507678
 31
0.0
  0
LINE
  5
EA6E6039B
330
EA6E6021F
100
AcDbEntity
  8
0
 62
     0
100
AcDbLine
 10
23.19999999999999
 20
4.527856652558535
 30
0.0
 11
23.19999999999999
 21
6.140772160743478
 31
0.0
  0
LINE
  5
EA6E6039C
330
EA6E6021F
100
AcDbEntity
  8
0
 62
     0
100
AcDbLine
 10
23.19999999999999
 20
11.77524542788055
 30
0.0
 11
23.19999999999999
 21
13.44378096057898
 31
0.0
  0
LINE
  5
EA6E6039D
330
EA6E6021F
100
AcDbEntity
  8
0
 62
     0
100
AcDbLine
 10
23.39999999999999
 20
4.760827195354785
 30
0.0
 11
23.39999999999999
 21
6.453677270303599
 31
0.0
  0
LINE
  5
EA6E6039E
330
EA6E6021F
100
AcDbEntity
  8
0
 62
     0
100
AcDbLine
 10
23.39999999999999
 20
11.42787989712297
 30
0.0
 11
23.39999999999999
 21
13.20133767178099
 31
0.0
  0
LINE
  5
EA6E6039F
330
EA6E6021F
100
AcDbEntity
  8
0
 62
     0
100
AcDbLine
 10
23.6
 20
5.009038964789643
 30
0.0
 11
23.6
 21
6.819150603315335
 31
0.0
  0
LINE
  5
EA6E603A0
330
EA6E6021F
100
AcDbEntity
  8
0
 62
     0
100
AcDbLine
 10
23.6
 20
11.00243198716859
 30
0.0
 11
23.6
 21
12.94126060224967
 31
0.0
  0
LINE
  5
EA6E603A1
330
EA6E6021F
100
AcDbEntity
  8
0
 62
     0
100
AcDbLine
 10
23.8
 20
5.274411151749196
 30
0.0
 11
23.8
 21
7.309696402547448
 31
0.0
  0
LINE
  5
EA6E603A2
330
EA6E6021F
100
AcDbEntity
  8
0
 62
     0
100
AcDbLine
 10
23.8
 20
10.42998843758188
 30
0.0
 11
23.8
 21
12.6609605909616
 31
0.0
  0
LINE
  5
EA6E603A3
330
EA6E6021F
100
AcDbEntity
  8
0
 62
     0
100
AcDbLine
 10
24.0
 20
5.559370859880237
 30
0.0
 11
24.0
 21
12.35704356262256
 31
0.0
  0
LINE
  5
EA6E603A4
330
EA6E6021F
100
AcDbEntity
  8
0
 62
     0
100
AcDbLine
 10
24.19999999999999
 20
5.867064768748309
 30
0.0
 11
24.19999999999999
 21
12.0245994314541
 31
0.0
  0
LINE
  5
EA6E603A5
330
EA6E6021F
100
AcDbEntity
  8
0
 62
     0
100
AcDbLine
 10
24.39999999999999
 20
6.2027592702858
 30
0.0
 11
24.39999999999999
 21
11.64218683869334
 31
0.0
  0
LINE
  5
EA6E603A6
330
EA6E6021F
100
AcDbEntity
  8
0
 62
     0
100
AcDbLine
 10
24.6
 20
6.603624720067712
 30
0.0
 11
24.6
 21
11.1757989016396
 31
0.0
  0
LINE
  5
EA6E603A7
330
EA6E6021F
100
AcDbEntity
  8
0
 62
     0
100
AcDbLine
 10
24.8
 20
7.137464332505552
 30
0.0
 11
24.8
 21
10.55146718630719
 31
0.0
  0
ENDBLK
  5
EA6E603A9
330
EA6E6021F
100
AcDbEntity
  8
0
100
AcDbBlockEnd
  0
ENDSEC
  0
SECTION
  2
ENTITIES
  0
LINE
  5
EA6E60615
330
EA6E4DC92
100
AcDbEntity
  8
JISSEN
100
AcDbLine
 10
-0.0000000836143954
 20
498.0000002442358
 30
0.0
 11
361.9999984683857
 21
498.0000002442358
 31
0.0
  0
LINE
  5
EA6E60616
330
EA6E4DC92
100
AcDbEntity
  8
JISSEN
100
AcDbLine
 10
-0.0000000836143954
 20
510.0000002442357
 30
0.0
 11
361.9999984683857
 21
510.0000002442357
 31
0.0
  0
LINE
  5
EA6E60617
330
EA6E4DC92
100
AcDbEntity
  8
JISSEN
100
AcDbLine
 10
-0.0000000836143954
 20
522.0000002442358
 30
0.0
 11
361.9999984683857
 21
522.0000002442358
 31
0.0
  0
LINE
  5
EA6E60618
330
EA6E4DC92
100
AcDbEntity
  8
JISSEN
100
AcDbLine
 10
-0.0000000836143954
 20
534.0000002442358
 30
0.0
 11
361.9999984683857
 21
534.0000002442358
 31
0.0
  0
LINE
  5
EA6E60619
330
EA6E4DC92
100
AcDbEntity
  8
JISSEN
100
AcDbLine
 10
138.9777728498229
 20
296.9559766906413
 30
0.0
 11
194.7277728498227
 21
296.9559766906413
 31
0.0
  0
LINE
  5
EA6E6061A
330
EA6E4DC92
100
AcDbEntity
  8
JISSEN
100
AcDbLine
 10
138.9777728498229
 20
313.9559766906411
 30
0.0
 11
194.7277728498227
 21
313.9559766906411
 31
0.0
  0
CIRCLE
  5
EA6E6061B
330
EA6E4DC92
100
AcDbEntity
  8
JISSEN
100
AcDbCircle
 10
219.7277728498227
 20
392.455976690641
 30
0.0
 40
42.0
  0
LINE
  5
EA6E6061C
330
EA6E4DC92
100
AcDbEntity
  8
JISSEN
 62
     3
100
AcDbLine
 10
170.5895782934985
 20
296.9559766906411
 30
0.0
 11
271.9668050272303
 21
169.5161540397913
 31
0.0
  0
LINE
  5
EA6E6061D
330
EA6E4DC92
100
AcDbEntity
  8
JISSEN
 62
     3
100
AcDbLine
 10
253.6017615313598
 20
168.7806208889834
 30
0.0
 11
127.4777728498229
 21
284.9586257505931
 31
0.0
  0
LINE
  5
EA6E6061E
330
EA6E4DC92
100
AcDbEntity
  8
JISSEN
 62
     3
100
AcDbLine
 10
128.2277728498229
 20
260.1604618672261
 30
0.0
 11
236.4490337597089
 21
168.5604501370876
 31
0.0
  0
LINE
  5
EA6E6061F
330
EA6E4DC92
100
AcDbEntity
  8
JISSEN
 62
     3
100
AcDbLine
 10
218.8425672415842
 20
167.6582215686699
 30
0.0
 11
156.1191265369452
 21
205.5588962495546
 31
0.0
  0
LINE
  5
EA6E60620
330
EA6E4DC92
100
AcDbEntity
  8
JISSEN
 62
     3
100
AcDbLine
 10
188.2323644154698
 20
163.2123875272071
 30
0.0
 11
126.7277728498229
 21
155.9068687441204
 31
0.0
  0
LWPOLYLINE
  5
EA6E60621
330
EA6E4DC92
100
AcDbEntity
  8
WAKU
100
AcDbPolyline
 90
        4
 70
     1
 43
0.0
 10
-0.0000000836143954
 20
0.0000002442359346
 10
361.9999999163856
 20
0.0000002442359346
 10
361.9999999163856
 20
546.0000002442359
 10
-0.0000000836143954
 20
546.0000002442359
  0
LWPOLYLINE
  5
EA6E60622
330
EA6E4DC92
100
AcDbEntity
  8
JISSEN
100
AcDbPolyline
 90
        2
 70
     0
 43
0.0
 10
123.7277728498229
 20
265.9959766906411
 10
123.4970411425058
 20
275.4559766906412
  0
LWPOLYLINE
  5
EA6E60623
330
EA6E4DC92
100
AcDbEntity
  8
JISSEN
100
AcDbPolyline
 90
        2
 70
     0
 43
0.0
 10
89.95850455714004
 20
275.4559766906412
 10
89.72777284982294
 20
265.9959766906411
  0
LWPOLYLINE
  5
EA6E60624
330
EA6E4DC92
100
AcDbEntity
  8
SAISEN
100
AcDbPolyline
 90
        3
 70
     0
 43
0.0
 10
123.7277728498229
 20
265.9959766906414
 10
121.654454429067
 20
268.9959766906413
 10
121.4969283920197
 20
275.4605994605733
  0
LWPOLYLINE
  5
EA6E60625
330
EA6E4DC92
100
AcDbEntity
  8
SAISEN
100
AcDbPolyline
 90
        3
 70
     0
 43
0.0
 10
89.72777284982294
 20
265.9959766906411
 10
91.8010912705788
 20
268.9959766906411
 10
91.95861730762613
 20
275.4605994605733
  0
LINE
  5
EA6E60626
330
EA6E4DC92
100
AcDbEntity
  8
JISSEN
100
AcDbLine
 10
161.9777728498229
 20
179.1337858326921
 30
0.0
 11
161.9777728498229
 21
92.51754256243277
 31
0.0
  0
LINE
  5
EA6E60627
330
EA6E4DC92
100
AcDbEntity
  8
JISSEN
100
AcDbLine
 10
167.9777728498229
 20
179.1337858326921
 30
0.0
 11
167.9777728498229
 21
92.51754256243277
 31
0.0
  0
HATCH
  5
EA6E60628
330
EA6E4DC92
100
AcDbEntity
  8
HATCH
100
AcDbHatch
 10
0.0
 20
0.0
 30
0.0
210
0.0
220
0.0
230
1.0
  2
SOLID
 70
     1
 71
     1
 91
        1
 92
        1
 93
        7
 72
     1
 10
100.2277728498229
 20
88.86453555648172
 11
106.7277728498229
 21
80.35785179892798
 72
     1
 10
106.7277728498229
 20
80.35785179892798
 11
113.2277728498229
 21
88.86453555648172
 72
     1
 10
113.2277728498229
 20
88.86453555648172
 11
111.2277728498229
 21
88.86453555648172
 72
     1
 10
111.2277728498229
 20
88.86453555648172
 11
111.2277728498229
 21
102.311706404312
 72
     1
 10
111.2277728498229
 20
102.311706404312
 11
102.2277728498229
 21
102.311706404312
 72
     1
 10
102.2277728498229
 20
102.311706404312
 11
102.2277728498229
 21
88.86453555648172
 72
     1
 10
102.2277728498229
 20
88.86453555648172
 11
100.2277728498229
 21
88.86453555648172
 97
        7
330
EA6E6062B
330
EA6E60629
330
EA6E6062F
330
EA6E6062E
330
EA6E6062A
330
EA6E6062C
330
EA6E6062D
 75
     0
 76
     1
 98
        1
 10
-19.9815888918298
 20
-9.849527801874273
  0
LINE
  5
EA6E60629
102
{ACAD_REACTORS
330
EA6E60628
102
}
330
EA6E4DC92
100
AcDbEntity
  8
HATCH
100
AcDbLine
 10
106.7277728498229
 20
80.35785179892798
 30
0.0
 11
113.2277728498229
 21
88.86453555648172
 31
0.0
  0
LINE
  5
EA6E6062A
102
{ACAD_REACTORS
330
EA6E60628
102
}
330
EA6E4DC92
100
AcDbEntity
  8
HATCH
100
AcDbLine
 10
111.2277728498229
 20
102.311706404312
 30
0.0
 11
102.2277728498229
 21
102.311706404312
 31
0.0
  0
LINE
  5
EA6E6062B
102
{ACAD_REACTORS
330
EA6E60628
102
}
330
EA6E4DC92
100
AcDbEntity
  8
HATCH
100
AcDbLine
 10
100.2277728498229
 20
88.86453555648172
 30
0.0
 11
106.7277728498229
 21
80.35785179892798
 31
0.0
  0
LINE
  5
EA6E6062C
102
{ACAD_REACTORS
330
EA6E60628
102
}
330
EA6E4DC92
100
AcDbEntity
  8
HATCH
100
AcDbLine
 10
102.2277728498229
 20
102.311706404312
 30
0.0
 11
102.2277728498229
 21
88.86453555648172
 31
0.0
  0
LINE
  5
EA6E6062D
102
{ACAD_REACTORS
330
EA6E60628
102
}
330
EA6E4DC92
100
AcDbEntity
  8
HATCH
100
AcDbLine
 10
102.2277728498229
 20
88.86453555648172
 30
0.0
 11
100.2277728498229
 21
88.86453555648172
 31
0.0
  0
LINE
  5
EA6E6062E
102
{ACAD_REACTORS
330
EA6E60628
102
}
330
EA6E4DC92
100
AcDbEntity
  8
HATCH
100
AcDbLine
 10
111.2277728498229
 20
88.86453555648172
 30
0.0
 11
111.2277728498229
 21
102.311706404312
 31
0.0
  0
LINE
  5
EA6E6062F
102
{ACAD_REACTORS
330
EA6E60628
102
}
330
EA6E4DC92
100
AcDbEntity
  8
HATCH
100
AcDbLine
 10
113.2277728498229
 20
88.86453555648172
 30
0.0
 11
111.2277728498229
 21
88.86453555648172
 31
0.0
  0
LINE
  5
EA6E60630
330
EA6E4DC92
100
AcDbEntity
  8
JISSEN
100
AcDbLine
 10
161.9777728498229
 20
92.51754256243277
 30
0.0
 11
167.9777728498229
 21
92.51754256243277
 31
0.0
  0
LWPOLYLINE
  5
EA6E60631
330
EA6E4DC92
100
AcDbEntity
  8
TENSEN
 48
2.0
100
AcDbPolyline
 90
        7
 70
     0
 43
0.0
 10
85.97777284982294
 20
111.629393111528
 42
-0.3373493975903584
 10
106.7277728498227
 20
111.629393111528
 42
0.3373493975903649
 10
127.4777728498229
 20
111.629393111528
 10
127.4777728498229
 20
141.571353920709
 10
85.97777284982294
 20
141.571353920709
 10
85.97777284982294
 20
111.629393111528
 42
0.3373493975903643
 10
106.7277728498229
 20
111.629393111528
 42
0.3373493975903643
  0
LINE
  5
EA6E60632
330
EA6E4DC92
100
AcDbEntity
  8
JISSEN
100
AcDbLine
 10
128.369208849823
 20
197.4175425624322
 30
0.0
 11
106.7277728498229
 21
197.4175425624322
 31
0.0
  0
LINE
  5
EA6E60633
330
EA6E4DC92
100
AcDbEntity
  8
JISSEN
100
AcDbLine
 10
126.7815248498229
 20
195.5675425624323
 30
0.0
 11
106.7277728498229
 21
195.5675425624323
 31
0.0
  0
LINE
  5
EA6E60634
330
EA6E4DC92
100
AcDbEntity
  8
JISSEN
100
AcDbLine
 10
124.9583908498229
 20
186.5675425624323
 30
0.0
 11
106.7277728498229
 21
186.5675425624323
 31
0.0
  0
LINE
  5
EA6E60635
330
EA6E4DC92
100
AcDbEntity
  8
JISSEN
100
AcDbLine
 10
125.9068458498229
 20
188.5675425624323
 30
0.0
 11
106.7277728498229
 21
188.5675425624323
 31
0.0
  0
LINE
  5
EA6E60636
330
EA6E4DC92
100
AcDbEntity
  8
JISSEN
100
AcDbLine
 10
125.0249498498228
 20
183.5675425624323
 30
0.0
 11
106.7277728498229
 21
183.5675425624323
 31
0.0
  0
LINE
  5
EA6E60637
330
EA6E4DC92
100
AcDbEntity
  8
JISSEN
100
AcDbLine
 10
125.7277728498229
 20
169.0675425624323
 30
0.0
 11
106.7277728498229
 21
169.0675425624323
 31
0.0
  0
ARC
  5
EA6E60638
330
EA6E4DC92
100
AcDbEntity
  8
JISSEN
100
AcDbCircle
 10
124.7647948498224
 20
174.8450315624326
 30
0.0
 40
5.488855
100
AcDbArc
 50
242.1640190000018
 51
297.8359809999981
  0
ARC
  5
EA6E60639
330
EA6E4DC92
100
AcDbEntity
  8
JISSEN
100
AcDbCircle
 10
124.7647948498224
 20
179.5319075624328
 30
0.0
 40
3.535698999999997
100
AcDbArc
 50
43.5406719999997
 51
136.4593280000003
  0
LINE
  5
EA6E6063A
330
EA6E4DC92
100
AcDbEntity
  8
JISSEN
100
AcDbLine
 10
125.7277728498229
 20
248.0675425624323
 30
0.0
 11
106.7277728498229
 21
248.0675425624323
 31
0.0
  0
LINE
  5
EA6E6063B
330
EA6E4DC92
100
AcDbEntity
  8
JISSEN
100
AcDbLine
 10
130.4777728498229
 20
229.5675425624323
 30
0.0
 11
106.7277728498229
 21
229.5675425624323
 31
0.0
  0
LINE
  5
EA6E6063C
330
EA6E4DC92
100
AcDbEntity
  8
JISSEN
100
AcDbLine
 10
129.9777728498229
 20
222.5675425624323
 30
0.0
 11
106.7277728498229
 21
222.5675425624323
 31
0.0
  0
LINE
  5
EA6E6063D
330
EA6E4DC92
100
AcDbEntity
  8
JISSEN
100
AcDbLine
 10
128.170558849823
 20
215.0675425624323
 30
0.0
 11
106.7277728498229
 21
215.0675425624323
 31
0.0
  0
LINE
  5
EA6E6063E
330
EA6E4DC92
100
AcDbEntity
  8
JISSEN
100
AcDbLine
 10
131.4777728498229
 20
226.5675425624323
 30
0.0
 11
106.7277728498229
 21
226.5675425624323
 31
0.0
  0
ARC
  5
EA6E6063F
330
EA6E4DC92
100
AcDbEntity
  8
JISSEN
100
AcDbCircle
 10
124.7647948498224
 20
242.2900525624326
 30
0.0
 40
5.488855
100
AcDbArc
 50
62.16401900000181
 51
117.8359809999981
  0
LWPOLYLINE
  5
EA6E60640
330
EA6E4DC92
100
AcDbEntity
  8
JISSEN
100
AcDbPolyline
 90
        4
 70
     1
 43
0.0
 10
85.22777284982295
 20
265.9959766906411
 10
128.2277728498229
 20
265.9959766906411
 10
128.2277728498229
 20
254.9959766906411
 10
85.22777284982295
 20
254.9959766906411
  0
LINE
  5
EA6E60641
330
EA6E4DC92
100
AcDbEntity
  8
JISSEN
100
AcDbLine
 10
122.5773094673666
 20
161.0713539207092
 30
0.0
 11
126.7277728498229
 21
159.5713539207091
 31
0.0
  0
LINE
  5
EA6E60642
330
EA6E4DC92
100
AcDbEntity
  8
JISSEN
100
AcDbLine
 10
122.5773094673666
 20
151.071353920709
 30
0.0
 11
126.7277728498229
 21
152.5713539207091
 31
0.0
  0
LINE
  5
EA6E60643
330
EA6E4DC92
100
AcDbEntity
  8
JISSEN
100
AcDbLine
 10
86.31355884982303
 20
187.9817555624324
 30
0.0
 11
87.14198584982296
 21
187.1533285624324
 31
0.0
  0
ARC
  5
EA6E60644
330
EA6E4DC92
100
AcDbEntity
  8
JISSEN
100
AcDbCircle
 10
90.68310537660295
 20
148.4462390456828
 30
0.0
 40
12.66120791411041
100
AcDbArc
 50
61.48320572768739
 51
85.67271988170821
  0
ARC
  5
EA6E60645
330
EA6E4DC92
100
AcDbEntity
  8
JISSEN
100
AcDbCircle
 10
90.68310537660295
 20
163.6964687957353
 30
0.0
 40
12.66120791411041
100
AcDbArc
 50
274.3272801182917
 51
298.5167942723126
  0
LWPOLYLINE
  5
EA6E60646
330
EA6E4DC92
100
AcDbEntity
  8
JISSEN
100
AcDbPolyline
 90
        2
 70
     0
 43
0.0
 10
122.5773094673666
 20
151.071353920709
 10
90.87823623227928
 20
151.071353920709
  0
LINE
  5
EA6E60647
330
EA6E4DC92
100
AcDbEntity
  8
JISSEN
100
AcDbLine
 10
89.72777284982294
 20
164.0713539207092
 30
0.0
 11
123.6204647909114
 21
164.0713539207092
 31
0.0
  0
LINE
  5
EA6E60648
330
EA6E4DC92
100
AcDbEntity
  8
JISSEN
100
AcDbLine
 10
89.72777284982294
 20
148.071353920709
 30
0.0
 11
123.7277728498229
 21
148.071353920709
 31
0.0
  0
LWPOLYLINE
  5
EA6E60649
330
EA6E4DC92
100
AcDbEntity
  8
JISSEN
100
AcDbPolyline
 90
        2
 70
     0
 43
0.0
 10
90.87823623227928
 20
161.0713539207091
 10
122.5773094673666
 20
161.0713539207091
  0
LINE
  5
EA6E6064A
330
EA6E4DC92
100
AcDbEntity
  8
JISSEN
100
AcDbLine
 10
87.72777284982295
 20
169.0675425624323
 30
0.0
 11
106.7277728498229
 21
169.0675425624323
 31
0.0
  0
ARC
  5
EA6E6064B
330
EA6E4DC92
100
AcDbEntity
  8
JISSEN
100
AcDbCircle
 10
99.26544584982275
 20
199.3156365624326
 30
0.0
 40
29.959419
100
AcDbArc
 50
258.1816419999999
 51
281.818358
  0
LINE
  5
EA6E6064C
330
EA6E4DC92
100
AcDbEntity
  8
JISSEN
100
AcDbLine
 10
88.49715384982301
 20
186.5675425624323
 30
0.0
 11
106.7277728498229
 21
186.5675425624323
 31
0.0
  0
LINE
  5
EA6E6064D
330
EA6E4DC92
100
AcDbEntity
  8
JISSEN
100
AcDbLine
 10
88.43059584982302
 20
183.5675425624323
 30
0.0
 11
106.7277728498229
 21
183.5675425624323
 31
0.0
  0
ARC
  5
EA6E6064E
330
EA6E4DC92
100
AcDbEntity
  8
JISSEN
100
AcDbCircle
 10
99.26544584982275
 20
165.4037965624328
 30
0.0
 40
17.66374499999999
100
AcDbArc
 50
69.67303500000157
 51
110.3269649999984
  0
LWPOLYLINE
  5
EA6E6064F
330
EA6E4DC92
100
AcDbEntity
  8
JISSEN
100
AcDbPolyline
 90
        2
 70
     0
 43
0.0
 10
89.72777284982294
 20
151.4871376331926
 10
90.03928071810037
 20
141.571353920709
  0
LWPOLYLINE
  5
EA6E60650
330
EA6E4DC92
100
AcDbEntity
  8
SAISEN
100
AcDbPolyline
 90
        3
 70
     0
 43
0.0
 10
92.03928071810038
 20
141.571353920709
 10
91.83508090873443
 20
148.071353920709
 10
89.74083484287325
 20
151.071353920709
  0
LWPOLYLINE
  5
EA6E60651
330
EA6E4DC92
100
AcDbEntity
  8
SAISEN
100
AcDbPolyline
 90
        3
 70
     0
 43
0.0
 10
91.99203794999538
 20
169.0675425624325
 10
91.83508090873443
 20
164.0713539207091
 10
89.74083484287325
 20
161.0713539207091
  0
LWPOLYLINE
  5
EA6E60652
330
EA6E4DC92
100
AcDbEntity
  8
JISSEN
100
AcDbPolyline
 90
        2
 70
     0
 43
0.0
 10
89.72777284982294
 20
160.6555702082255
 10
89.99203794999539
 20
169.0675425624325
  0
LINE
  5
EA6E60653
330
EA6E4DC92
100
AcDbEntity
  8
JISSEN
100
AcDbLine
 10
90.87823623227928
 20
161.0713539207092
 30
0.0
 11
86.72777284982293
 21
159.5713539207091
 31
0.0
  0
LINE
  5
EA6E60654
330
EA6E4DC92
100
AcDbEntity
  8
JISSEN
100
AcDbLine
 10
90.87823623227928
 20
151.071353920709
 30
0.0
 11
86.72777284982293
 21
152.5713539207091
 31
0.0
  0
LWPOLYLINE
  5
EA6E60655
330
EA6E4DC92
100
AcDbEntity
  8
JISSEN
100
AcDbPolyline
 90
        2
 70
     0
 43
0.0
 10
86.72777284982293
 20
152.5713539207091
 10
86.72777284982293
 20
159.5713539207091
  0
ARC
  5
EA6E60656
330
EA6E4DC92
100
AcDbEntity
  8
JISSEN
100
AcDbCircle
 10
88.69074984982285
 20
174.8450315624326
 30
0.0
 40
5.488855
100
AcDbArc
 50
242.1640190000018
 51
297.8359809999981
  0
ARC
  5
EA6E60657
330
EA6E4DC92
100
AcDbEntity
  8
JISSEN
100
AcDbCircle
 10
88.69074984982285
 20
179.5319075624328
 30
0.0
 40
3.535698999999997
100
AcDbArc
 50
43.5406719999997
 51
136.4593280000003
  0
LINE
  5
EA6E60658
330
EA6E4DC92
100
AcDbEntity
  8
JISSEN
100
AcDbLine
 10
86.1277728498228
 20
169.9913025624325
 30
0.0
 11
86.1277728498228
 21
181.9675425624324
 31
0.0
  0
LINE
  5
EA6E60659
330
EA6E4DC92
100
AcDbEntity
  8
JISSEN
100
AcDbLine
 10
87.72777284982295
 20
169.0675425624323
 30
0.0
 11
86.1277728498228
 21
169.9913025624325
 31
0.0
  0
ARC
  5
EA6E6065A
330
EA6E4DC92
100
AcDbEntity
  8
JISSEN
100
AcDbCircle
 10
85.7277728498227
 20
184.3959695624325
 30
0.0
 40
2.0
100
AcDbArc
 50
314.9999999999915
 51
0.0
  0
ARC
  5
EA6E6065B
330
EA6E4DC92
100
AcDbEntity
  8
JISSEN
100
AcDbCircle
 10
85.7277728498227
 20
185.7391145624328
 30
0.0
 40
2.0
100
AcDbArc
 50
0.0
 51
45.00000000000841
  0
LINE
  5
EA6E6065C
330
EA6E4DC92
100
AcDbEntity
  8
JISSEN
100
AcDbLine
 10
87.14198584982296
 20
182.9817555624323
 30
0.0
 11
86.1277728498228
 21
181.9675425624324
 31
0.0
  0
LINE
  5
EA6E6065D
330
EA6E4DC92
100
AcDbEntity
  8
JISSEN
100
AcDbLine
 10
87.72777284982295
 20
185.7391145624325
 30
0.0
 11
87.72777284982295
 21
184.3959695624322
 31
0.0
  0
LINE
  5
EA6E6065E
330
EA6E4DC92
100
AcDbEntity
  8
JISSEN
100
AcDbLine
 10
93.12946684982284
 20
169.9913025624325
 30
0.0
 11
93.12946684982307
 21
181.9675425624324
 31
0.0
  0
LINE
  5
EA6E6065F
330
EA6E4DC92
100
AcDbEntity
  8
JISSEN
100
AcDbLine
 10
91.25372784982301
 20
169.9913025624325
 30
0.0
 11
91.25372784982301
 21
181.9675425624324
 31
0.0
  0
LINE
  5
EA6E60660
330
EA6E4DC92
100
AcDbEntity
  8
JISSEN
100
AcDbLine
 10
91.25372784982301
 20
169.9913025624325
 30
0.0
 11
93.12946684982284
 21
169.9913025624325
 31
0.0
  0
LINE
  5
EA6E60661
330
EA6E4DC92
100
AcDbEntity
  8
JISSEN
100
AcDbLine
 10
91.25372784982301
 20
181.9675425624324
 30
0.0
 11
93.12946684982307
 21
181.9675425624324
 31
0.0
  0
LWPOLYLINE
  5
EA6E60662
330
EA6E4DC92
100
AcDbEntity
  8
SAISEN
100
AcDbPolyline
 90
        3
 70
     0
 43
0.0
 10
121.4162649815455
 20
141.571353920709
 10
121.6204647909114
 20
148.071353920709
 10
123.7147108567726
 20
151.071353920709
  0
LWPOLYLINE
  5
EA6E60663
330
EA6E4DC92
100
AcDbEntity
  8
JISSEN
100
AcDbPolyline
 90
        2
 70
     0
 43
0.0
 10
123.4162649815455
 20
141.571353920709
 10
123.7277728498229
 20
151.4871376331926
  0
ARC
  5
EA6E60664
330
EA6E4DC92
100
AcDbEntity
  8
JISSEN
100
AcDbCircle
 10
114.1900998498226
 20
199.3156365624326
 30
0.0
 40
29.959419
100
AcDbArc
 50
258.1816419999999
 51
281.818358
  0
ARC
  5
EA6E60665
330
EA6E4DC92
100
AcDbEntity
  8
JISSEN
100
AcDbCircle
 10
114.1900998498226
 20
165.4037965624328
 30
0.0
 40
17.66374499999999
100
AcDbArc
 50
69.67303500000157
 51
110.3269649999984
  0
ARC
  5
EA6E60666
330
EA6E4DC92
100
AcDbEntity
  8
JISSEN
100
AcDbCircle
 10
106.7277728498229
 20
126.9880205873757
 30
0.0
 40
34.0833333333334
100
AcDbArc
 50
72.93846878010295
 51
107.061531219897
  0
ARC
  5
EA6E60667
330
EA6E4DC92
100
AcDbEntity
  8
JISSEN
100
AcDbCircle
 10
106.7277728498229
 20
185.1546872540417
 30
0.0
 40
34.0833333333328
100
AcDbArc
 50
252.9384687801029
 51
287.061531219897
  0
LINE
  5
EA6E60668
330
EA6E4DC92
100
AcDbEntity
  8
JISSEN
100
AcDbLine
 10
96.72777284982295
 20
159.5713539207091
 30
0.0
 11
96.72777284982295
 21
152.5713539207091
 31
0.0
  0
TEXT
  5
EA6E60669
330
EA6E4DC92
100
AcDbEntity
  8
TEXT
 62
     7
100
AcDbText
 10
105.3807550260983
 20
159.0792499673597
 30
0.0
 40
2.499982967592715
  1
K43
 50
270.0
  7
K
 72
     4
 11
106.6307465098947
 21
155.8054627478931
 31
0.0
100
AcDbText
  0
LINE
  5
EA6E6066A
330
EA6E4DC92
100
AcDbEntity
  8
JISSEN
100
AcDbLine
 10
105.4014248498228
 20
169.9913025624325
 30
0.0
 11
105.4014248498228
 21
181.9675425624324
 31
0.0
  0
LINE
  5
EA6E6066B
330
EA6E4DC92
100
AcDbEntity
  8
JISSEN
100
AcDbLine
 10
108.0541208498227
 20
169.9913025624325
 30
0.0
 11
108.0541208498229
 21
181.9675425624324
 31
0.0
  0
LINE
  5
EA6E6066C
330
EA6E4DC92
100
AcDbEntity
  8
JISSEN
100
AcDbLine
 10
108.0541208498227
 20
169.9913025624325
 30
0.0
 11
106.7277728498229
 21
169.9913025624325
 31
0.0
  0
LINE
  5
EA6E6066D
330
EA6E4DC92
100
AcDbEntity
  8
JISSEN
100
AcDbLine
 10
106.7277728498229
 20
169.9913025624325
 30
0.0
 11
105.4014248498228
 21
169.9913025624325
 31
0.0
  0
LINE
  5
EA6E6066E
330
EA6E4DC92
100
AcDbEntity
  8
JISSEN
100
AcDbLine
 10
108.0541208498229
 20
181.9675425624324
 30
0.0
 11
106.7277728498229
 21
181.9675425624324
 31
0.0
  0
LINE
  5
EA6E6066F
330
EA6E4DC92
100
AcDbEntity
  8
JISSEN
100
AcDbLine
 10
106.7277728498229
 20
181.9675425624324
 30
0.0
 11
105.4014248498228
 21
181.9675425624324
 31
0.0
  0
LWPOLYLINE
  5
EA6E60670
330
EA6E4DC92
100
AcDbEntity
  8
JISSEN
100
AcDbPolyline
 90
        2
 70
     0
 43
0.0
 10
123.4635077496504
 20
169.0675425624325
 10
123.7277728498229
 20
160.6555702082255
  0
LWPOLYLINE
  5
EA6E60671
330
EA6E4DC92
100
AcDbEntity
  8
SAISEN
100
AcDbPolyline
 90
        3
 70
     0
 43
0.0
 10
121.4635077496504
 20
169.0675425624325
 10
121.6204647909114
 20
164.0713539207091
 10
123.7147108567726
 20
161.0713539207091
  0
ARC
  5
EA6E60672
330
EA6E4DC92
100
AcDbEntity
  8
JISSEN
100
AcDbCircle
 10
122.7724403230429
 20
148.4462390456829
 30
0.0
 40
12.66120791411041
100
AcDbArc
 50
94.32728011829174
 51
118.5167942723126
  0
ARC
  5
EA6E60673
330
EA6E4DC92
100
AcDbEntity
  8
JISSEN
100
AcDbCircle
 10
122.7724403230429
 20
163.6964687957353
 30
0.0
 40
12.66120791411041
100
AcDbArc
 50
241.4832057276873
 51
265.6727198817082
  0
LINE
  5
EA6E60674
330
EA6E4DC92
100
AcDbEntity
  8
JISSEN
100
AcDbLine
 10
116.7277728498229
 20
159.5713539207091
 30
0.0
 11
116.7277728498229
 21
152.5713539207091
 31
0.0
  0
LINE
  5
EA6E60675
330
EA6E4DC92
100
AcDbEntity
  8
JISSEN
100
AcDbLine
 10
120.3260788498228
 20
169.9913025624325
 30
0.0
 11
120.326078849823
 21
181.9675425624324
 31
0.0
  0
LINE
  5
EA6E60676
330
EA6E4DC92
100
AcDbEntity
  8
JISSEN
100
AcDbLine
 10
122.2018178498228
 20
169.9913025624325
 30
0.0
 11
122.2018178498228
 21
181.9675425624324
 31
0.0
  0
LINE
  5
EA6E60677
330
EA6E4DC92
100
AcDbEntity
  8
JISSEN
100
AcDbLine
 10
122.2018178498228
 20
169.9913025624325
 30
0.0
 11
120.3260788498228
 21
169.9913025624325
 31
0.0
  0
LINE
  5
EA6E60678
330
EA6E4DC92
100
AcDbEntity
  8
JISSEN
100
AcDbLine
 10
122.2018178498228
 20
181.9675425624324
 30
0.0
 11
120.326078849823
 21
181.9675425624324
 31
0.0
  0
LINE
  5
EA6E60679
330
EA6E4DC92
100
AcDbEntity
  8
JISSEN
100
AcDbLine
 10
87.54869984982292
 20
188.5675425624323
 30
0.0
 11
106.7277728498229
 21
188.5675425624323
 31
0.0
  0
LINE
  5
EA6E6067A
330
EA6E4DC92
100
AcDbEntity
  8
JISSEN
100
AcDbLine
 10
87.18145484982278
 20
195.5675425624323
 30
0.0
 11
106.7277728498229
 21
195.5675425624323
 31
0.0
  0
LINE
  5
EA6E6067B
330
EA6E4DC92
100
AcDbEntity
  8
JISSEN
100
AcDbLine
 10
85.08633684982305
 20
197.4175425624322
 30
0.0
 11
106.7277728498229
 21
197.4175425624322
 31
0.0
  0
LINE
  5
EA6E6067C
330
EA6E4DC92
100
AcDbEntity
  8
JISSEN
100
AcDbLine
 10
84.42777284982275
 20
215.0675425624323
 30
0.0
 11
106.7277728498229
 21
215.0675425624323
 31
0.0
  0
LINE
  5
EA6E6067D
330
EA6E4DC92
100
AcDbEntity
  8
JISSEN
100
AcDbLine
 10
83.47777284982294
 20
222.5675425624323
 30
0.0
 11
106.7277728498229
 21
222.5675425624323
 31
0.0
  0
LINE
  5
EA6E6067E
330
EA6E4DC92
100
AcDbEntity
  8
JISSEN
100
AcDbLine
 10
82.97777284982293
 20
229.5675425624323
 30
0.0
 11
106.7277728498229
 21
229.5675425624323
 31
0.0
  0
LINE
  5
EA6E6067F
330
EA6E4DC92
100
AcDbEntity
  8
JISSEN
100
AcDbLine
 10
81.97777284982294
 20
226.5675425624323
 30
0.0
 11
106.7277728498229
 21
226.5675425624323
 31
0.0
  0
LINE
  5
EA6E60680
330
EA6E4DC92
100
AcDbEntity
  8
JISSEN
100
AcDbLine
 10
87.72777284982295
 20
248.0675425624323
 30
0.0
 11
106.7277728498229
 21
248.0675425624323
 31
0.0
  0
ARC
  5
EA6E60681
330
EA6E4DC92
100
AcDbEntity
  8
JISSEN
100
AcDbCircle
 10
99.26544584982275
 20
217.8194475624326
 30
0.0
 40
29.959419
100
AcDbArc
 50
78.18164199999992
 51
101.818358
  0
LINE
  5
EA6E60682
330
EA6E4DC92
100
AcDbEntity
  8
JISSEN
100
AcDbLine
 10
89.80094358153042
 20
268.995976690641
 30
0.0
 11
123.6546021181156
 21
268.995976690641
 31
0.0
  0
LINE
  5
EA6E60683
330
EA6E4DC92
100
AcDbEntity
  8
JISSEN
100
AcDbLine
 10
89.80094358153042
 20
251.9959766906412
 30
0.0
 11
123.6546021181156
 21
251.995976690641
 31
0.0
  0
ARC
  5
EA6E60684
330
EA6E4DC92
100
AcDbEntity
  8
JISSEN
100
AcDbCircle
 10
84.12777284982281
 20
231.5675425624326
 30
0.0
 40
2.0
100
AcDbArc
 50
270.0
 51
0.0
  0
ARC
  5
EA6E60685
330
EA6E4DC92
100
AcDbEntity
  8
JISSEN
100
AcDbCircle
 10
83.97777284982272
 20
223.8904175624329
 30
0.0
 40
2.0
100
AcDbArc
 50
180.0
 51
221.4096219999983
  0
ARC
  5
EA6E60686
330
EA6E4DC92
100
AcDbEntity
  8
JISSEN
100
AcDbCircle
 10
82.97777284982272
 20
228.5675425624325
 30
0.0
 40
1.0
100
AcDbArc
 50
90.0
 51
180.0
  0
LINE
  5
EA6E60687
330
EA6E4DC92
100
AcDbEntity
  8
JISSEN
100
AcDbLine
 10
81.97777284982294
 20
226.5675425624323
 30
0.0
 11
81.97777284982294
 21
223.8904175624326
 31
0.0
  0
LINE
  5
EA6E60688
330
EA6E4DC92
100
AcDbEntity
  8
JISSEN
100
AcDbLine
 10
81.97777284982294
 20
228.5675425624323
 30
0.0
 11
81.97777284982294
 21
226.5675425624323
 31
0.0
  0
LINE
  5
EA6E60689
330
EA6E4DC92
100
AcDbEntity
  8
JISSEN
100
AcDbLine
 10
83.72777284982294
 20
213.8036195624323
 30
0.0
 11
83.72777284982294
 21
198.3959695624323
 31
0.0
  0
ARC
  5
EA6E6068A
330
EA6E4DC92
100
AcDbEntity
  8
JISSEN
100
AcDbCircle
 10
85.7277728498227
 20
198.3959695624325
 30
0.0
 40
2.0
100
AcDbArc
 50
180.0
 51
225.0000000000084
  0
ARC
  5
EA6E6068B
330
EA6E4DC92
100
AcDbEntity
  8
JISSEN
100
AcDbCircle
 10
83.72777284982271
 20
194.7391145624328
 30
0.0
 40
2.0
100
AcDbArc
 50
0.0
 51
45.00000000000841
  0
LINE
  5
EA6E6068C
330
EA6E4DC92
100
AcDbEntity
  8
JISSEN
100
AcDbLine
 10
85.14198584982295
 20
196.1533285624324
 30
0.0
 11
84.31355884982281
 21
196.9817555624324
 31
0.0
  0
LINE
  5
EA6E6068D
330
EA6E4DC92
100
AcDbEntity
  8
JISSEN
100
AcDbLine
 10
85.72777284982294
 20
194.7391145624325
 30
0.0
 11
85.72777284982294
 21
189.3959695624323
 31
0.0
  0
ARC
  5
EA6E6068E
330
EA6E4DC92
100
AcDbEntity
  8
JISSEN
100
AcDbCircle
 10
87.72777284982272
 20
189.3959695624325
 30
0.0
 40
2.0
100
AcDbArc
 50
180.0
 51
225.0000000000084
  0
LINE
  5
EA6E6068F
330
EA6E4DC92
100
AcDbEntity
  8
JISSEN
100
AcDbLine
 10
82.97777284982293
 20
221.2446665624326
 30
0.0
 11
82.97777284982293
 21
216.1354645624325
 31
0.0
  0
ARC
  5
EA6E60690
330
EA6E4DC92
100
AcDbEntity
  8
JISSEN
100
AcDbCircle
 10
84.97777284982271
 20
216.1354645624327
 30
0.0
 40
2.0
100
AcDbArc
 50
180.0
 51
215.6590879999936
  0
ARC
  5
EA6E60691
330
EA6E4DC92
100
AcDbEntity
  8
JISSEN
100
AcDbCircle
 10
81.72777284982272
 20
213.8036195624326
 30
0.0
 40
2.0
100
AcDbArc
 50
0.0
 51
35.65908799999362
  0
ARC
  5
EA6E60692
330
EA6E4DC92
100
AcDbEntity
  8
JISSEN
100
AcDbCircle
 10
80.97777284982271
 20
221.2446665624328
 30
0.0
 40
2.0
100
AcDbArc
 50
0.0
 51
41.40962199999837
  0
LINE
  5
EA6E60693
330
EA6E4DC92
100
AcDbEntity
  8
JISSEN
100
AcDbLine
 10
82.97777284982293
 20
229.5675425624323
 30
0.0
 11
83.22777284982294
 21
229.5675425624323
 31
0.0
  0
LWPOLYLINE
  5
EA6E60694
330
EA6E4DC92
100
AcDbEntity
  8
JISSEN
100
AcDbPolyline
 90
        2
 70
     0
 43
0.0
 10
89.89675904807199
 20
248.0675425624324
 10
89.72777284982294
 20
254.9959766906411
  0
LWPOLYLINE
  5
EA6E60695
330
EA6E4DC92
100
AcDbEntity
  8
SAISEN
100
AcDbPolyline
 90
        3
 70
     0
 43
0.0
 10
89.72777284982294
 20
254.9959766906412
 10
91.8010912705788
 20
251.9959766906412
 10
91.8968169891616
 20
248.0675425624324
  0
ARC
  5
EA6E60696
330
EA6E4DC92
100
AcDbEntity
  8
JISSEN
100
AcDbCircle
 10
88.69074984982285
 20
242.2900525624326
 30
0.0
 40
5.488855
100
AcDbArc
 50
62.16401900000181
 51
117.8359809999981
  0
LINE
  5
EA6E60697
330
EA6E4DC92
100
AcDbEntity
  8
JISSEN
100
AcDbLine
 10
86.1277728498228
 20
247.1437815624323
 30
0.0
 11
86.1277728498228
 21
231.5675425624323
 31
0.0
  0
LINE
  5
EA6E60698
330
EA6E4DC92
100
AcDbEntity
  8
JISSEN
100
AcDbLine
 10
87.72777284982295
 20
248.0675425624323
 30
0.0
 11
86.1277728498228
 21
247.1437815624323
 31
0.0
  0
LINE
  5
EA6E60699
330
EA6E4DC92
100
AcDbEntity
  8
JISSEN
100
AcDbLine
 10
93.12946684982307
 20
247.1437815624323
 30
0.0
 11
93.12946684982307
 21
231.5675425624323
 31
0.0
  0
LINE
  5
EA6E6069A
330
EA6E4DC92
100
AcDbEntity
  8
JISSEN
100
AcDbLine
 10
91.25372784982301
 20
247.1437815624323
 30
0.0
 11
91.25372784982301
 21
231.5675425624323
 31
0.0
  0
LINE
  5
EA6E6069B
330
EA6E4DC92
100
AcDbEntity
  8
JISSEN
100
AcDbLine
 10
91.25372784982301
 20
247.1437815624323
 30
0.0
 11
93.12946684982307
 21
247.1437815624323
 31
0.0
  0
LINE
  5
EA6E6069C
330
EA6E4DC92
100
AcDbEntity
  8
JISSEN
100
AcDbLine
 10
95.72777284982294
 20
265.995976690641
 30
0.0
 11
95.72777284982294
 21
254.995976690641
 31
0.0
  0
TEXT
  5
EA6E6069D
330
EA6E4DC92
100
AcDbEntity
  8
JISSEN
100
AcDbText
 10
101.7389768498228
 20
209.4337047529088
 30
0.0
 40
10.0
  1
1
 50
270.0
  7
35FONT
 72
     1
 11
101.7389768498228
 21
208.2432285624326
 31
0.0
100
AcDbText
  0
ARC
  5
EA6E6069E
330
EA6E4DC92
100
AcDbEntity
  8
JISSEN
100
AcDbCircle
 10
114.1900998498226
 20
217.8194475624326
 30
0.0
 40
29.959419
100
AcDbArc
 50
78.18164199999992
 51
101.818358
  0
LINE
  5
EA6E6069F
330
EA6E4DC92
100
AcDbEntity
  8
JISSEN
100
AcDbLine
 10
105.4014248498228
 20
247.1437815624323
 30
0.0
 11
105.4014248498228
 21
231.5675425624323
 31
0.0
  0
LINE
  5
EA6E606A0
330
EA6E4DC92
100
AcDbEntity
  8
JISSEN
100
AcDbLine
 10
108.0541208498229
 20
247.1437815624323
 30
0.0
 11
108.0541208498229
 21
231.5675425624323
 31
0.0
  0
LINE
  5
EA6E606A1
330
EA6E4DC92
100
AcDbEntity
  8
JISSEN
100
AcDbLine
 10
108.0541208498229
 20
247.1437815624323
 30
0.0
 11
106.7277728498229
 21
247.1437815624323
 31
0.0
  0
LINE
  5
EA6E606A2
330
EA6E4DC92
100
AcDbEntity
  8
JISSEN
100
AcDbLine
 10
105.4014248498228
 20
247.1437815624323
 30
0.0
 11
106.7277728498229
 21
247.1437815624323
 31
0.0
  0
LWPOLYLINE
  5
EA6E606A3
330
EA6E4DC92
100
AcDbEntity
  8
SAISEN
100
AcDbPolyline
 90
        3
 70
     0
 43
0.0
 10
123.7277728498229
 20
254.9959766906411
 10
121.654454429067
 20
251.9959766906411
 10
121.5587287104842
 20
248.0675425624324
  0
LWPOLYLINE
  5
EA6E606A4
330
EA6E4DC92
100
AcDbEntity
  8
JISSEN
100
AcDbPolyline
 90
        2
 70
     0
 43
0.0
 10
123.7277728498229
 20
254.9959766906411
 10
123.5587866515741
 20
248.0675425624324
  0
LINE
  5
EA6E606A5
330
EA6E4DC92
100
AcDbEntity
  8
JISSEN
100
AcDbLine
 10
120.326078849823
 20
247.1437815624323
 30
0.0
 11
120.326078849823
 21
231.5675425624323
 31
0.0
  0
LINE
  5
EA6E606A6
330
EA6E4DC92
100
AcDbEntity
  8
JISSEN
100
AcDbLine
 10
122.2018178498228
 20
247.1437815624323
 30
0.0
 11
122.2018178498228
 21
231.5675425624323
 31
0.0
  0
LINE
  5
EA6E606A7
330
EA6E4DC92
100
AcDbEntity
  8
JISSEN
100
AcDbLine
 10
122.2018178498228
 20
247.1437815624323
 30
0.0
 11
120.326078849823
 21
247.1437815624323
 31
0.0
  0
LINE
  5
EA6E606A8
330
EA6E4DC92
100
AcDbEntity
  8
JISSEN
100
AcDbLine
 10
117.7277728498229
 20
265.995976690641
 30
0.0
 11
117.7277728498229
 21
254.995976690641
 31
0.0
  0
LINE
  5
EA6E606A9
330
EA6E4DC92
100
AcDbEntity
  8
JISSEN
100
AcDbLine
 10
158.0550450490125
 20
186.8834013417487
 30
0.0
 11
147.4777728498229
 21
192.9901922932428
 31
0.0
  0
LINE
  5
EA6E606AA
330
EA6E4DC92
100
AcDbEntity
  8
JISSEN
100
AcDbLine
 10
127.1419858498229
 20
187.9817555624324
 30
0.0
 11
126.313558849823
 21
187.1533285624324
 31
0.0
  0
LINE
  5
EA6E606AB
330
EA6E4DC92
100
AcDbEntity
  8
JISSEN
100
AcDbLine
 10
152.0550450490127
 20
186.8834013417487
 30
0.0
 11
145.9777728498229
 21
190.3921160818897
 31
0.0
  0
LINE
  5
EA6E606AC
330
EA6E4DC92
100
AcDbEntity
  8
TENSEN
  6
BREAK
100
AcDbLine
 10
152.9628770969127
 20
189.8233658796522
 30
0.0
 11
151.4628770969127
 21
187.2252896682991
 31
0.0
  0
LINE
  5
EA6E606AD
330
EA6E4DC92
100
AcDbEntity
  8
JISSEN
100
AcDbLine
 10
149.0550450490127
 20
186.8834013417487
 30
0.0
 11
161.7277728498229
 21
179.5667985345841
 31
0.0
  0
LINE
  5
EA6E606AE
330
EA6E4DC92
100
AcDbEntity
  8
JISSEN
100
AcDbLine
 10
161.0550450490127
 20
186.8834013417487
 30
0.0
 11
149.0550450490127
 21
186.8834013417487
 31
0.0
  0
LWPOLYLINE
  5
EA6E606AF
330
EA6E4DC92
100
AcDbEntity
  8
JISSEN
100
AcDbPolyline
 90
        2
 70
     0
 43
0.0
 10
126.7277728498229
 20
159.5713539207091
 10
126.7277728498229
 20
152.5713539207091
  0
INSERT
  5
EA6E606B0
330
EA6E4DC92
100
AcDbEntity
  8
SUNPOU
100
AcDbBlockReference
  2
ARROWANG
 10
126.7277728498229
 20
155.9068687441204
 30
0.0
 41
2.999999999999955
 42
3.0
 43
3.0
 50
186.773858052235
1001
ACAD
1000
DSTYLE
1002
{
1070
   147
1040
1.0
1070
    77
1070
     0
1002
}
  0
LINE
  5
EA6E606B1
330
EA6E4DC92
100
AcDbEntity
  8
JISSEN
100
AcDbLine
 10
127.3277728498228
 20
169.9913025624325
 30
0.0
 11
127.3277728498228
 21
181.9675425624324
 31
0.0
  0
LINE
  5
EA6E606B2
330
EA6E4DC92
100
AcDbEntity
  8
JISSEN
100
AcDbLine
 10
125.7277728498229
 20
169.0675425624323
 30
0.0
 11
127.3277728498228
 21
169.9913025624325
 31
0.0
  0
LINE
  5
EA6E606B3
330
EA6E4DC92
100
AcDbEntity
  8
JISSEN
100
AcDbLine
 10
125.7277728498229
 20
185.7391145624325
 30
0.0
 11
125.7277728498229
 21
184.3959695624322
 31
0.0
  0
LINE
  5
EA6E606B4
330
EA6E4DC92
100
AcDbEntity
  8
JISSEN
  6
Continuous
100
AcDbLine
 10
125.7277728498229
 20
185.7391145624325
 30
0.0
 11
125.7277728498229
 21
184.3959695624322
 31
0.0
  0
LINE
  5
EA6E606B5
330
EA6E4DC92
100
AcDbEntity
  8
JISSEN
100
AcDbLine
 10
126.313558849823
 20
182.9817555624323
 30
0.0
 11
127.3277728498228
 21
181.9675425624324
 31
0.0
  0
ARC
  5
EA6E606B6
330
EA6E4DC92
100
AcDbEntity
  8
JISSEN
100
AcDbCircle
 10
127.7277728498227
 20
184.3959695624325
 30
0.0
 40
2.0
100
AcDbArc
 50
180.0
 51
225.0000000000084
  0
ARC
  5
EA6E606B7
330
EA6E4DC92
100
AcDbEntity
  8
JISSEN
100
AcDbCircle
 10
127.7277728498227
 20
185.7391145624328
 30
0.0
 40
2.0
100
AcDbArc
 50
134.9999999999915
 51
180.0
  0
ARC
  5
EA6E606B8
330
EA6E4DC92
100
AcDbEntity
  8
JISSEN
100
AcDbCircle
 10
161.4777728498229
 20
179.1337858326921
 30
0.0
 40
6.5
100
AcDbArc
 50
0.0
 51
59.99999999999664
  0
LINE
  5
EA6E606B9
330
EA6E4DC92
100
AcDbEntity
  8
JISSEN
100
AcDbLine
 10
161.0550450490127
 20
186.8834013417487
 30
0.0
 11
164.7277728498229
 21
184.7629509572909
 31
0.0
  0
ARC
  5
EA6E606BA
330
EA6E4DC92
100
AcDbEntity
  8
JISSEN
100
AcDbCircle
 10
161.4777728498229
 20
179.1337858326921
 30
0.0
 40
0.5
100
AcDbArc
 50
0.0
 51
59.99999999999664
  0
LINE
  5
EA6E606BB
330
EA6E4DC92
100
AcDbEntity
  8
JISSEN
100
AcDbLine
 10
149.0583294334237
 20
201.0619890629675
 30
0.0
 11
152.8972162662223
 21
201.0619890629675
 31
0.0
  0
LINE
  5
EA6E606BC
330
EA6E4DC92
100
AcDbEntity
  8
JISSEN
100
AcDbLine
 10
149.0583294334237
 20
212.320319312165
 30
0.0
 11
152.8972162662223
 21
212.320319312165
 31
0.0
  0
LINE
  5
EA6E606BD
330
EA6E4DC92
100
AcDbEntity
  8
JISSEN
100
AcDbLine
 10
149.0583294334237
 20
204.8147658126997
 30
0.0
 11
152.8972162662223
 21
204.8147658126997
 31
0.0
  0
LINE
  5
EA6E606BE
330
EA6E4DC92
100
AcDbEntity
  8
JISSEN
100
AcDbLine
 10
149.0583294334237
 20
216.0730960618977
 30
0.0
 11
152.8972162662223
 21
216.0730960618977
 31
0.0
  0
ARC
  5
EA6E606BF
330
EA6E4DC92
100
AcDbEntity
  8
JISSEN
100
AcDbCircle
 10
129.3277728498228
 20
231.5675425624326
 30
0.0
 40
2.0
100
AcDbArc
 50
180.0
 51
270.0
  0
LINE
  5
EA6E606C0
330
EA6E4DC92
100
AcDbEntity
  8
JISSEN
100
AcDbLine
 10
142.4777728498229
 20
199.0675425624323
 30
0.0
 11
132.9777728498229
 21
199.0675425624323
 31
0.0
  0
LINE
  5
EA6E606C1
330
EA6E4DC92
100
AcDbEntity
  8
JISSEN
100
AcDbLine
 10
142.4777728498229
 20
218.0675425624323
 30
0.0
 11
132.9777728498229
 21
218.0675425624323
 31
0.0
  0
SPLINE
  5
EA6E606C2
330
EA6E4DC92
100
AcDbEntity
  8
JISSEN
100
AcDbSpline
210
0.0
220
0.0
230
1.0
 70
     8
 71
     3
 72
     8
 73
     4
 74
     0
 42
0.0000000001
 43
0.0000000001
 40
5.526513857442442
 40
5.526513857442442
 40
5.526513857442442
 40
5.526513857442442
 40
10.80205680575085
 40
10.80205680575085
 40
10.80205680575085
 40
10.80205680575085
 10
127.822369064364
 20
213.8170954083942
 30
0.0
 10
127.3889879388552
 20
212.0869957810971
 30
0.0
 10
127.1502969695895
 20
210.3190849930381
 30
0.0
 10
127.1911546397243
 20
208.5675420778314
 30
0.0
  0
LINE
  5
EA6E606C3
330
EA6E4DC92
100
AcDbEntity
  8
JISSEN
100
AcDbLine
 10
131.9777728498229
 20
208.5675425624323
 30
0.0
 11
131.9777728498229
 21
217.0675425624323
 31
0.0
  0
ARC
  5
EA6E606C4
330
EA6E4DC92
100
AcDbEntity
  8
JISSEN
100
AcDbCircle
 10
131.2457218498227
 20
199.0675425624326
 30
0.0
 40
1.0
100
AcDbArc
 50
270.0
 51
330.000000000002
  0
ARC
  5
EA6E606C5
330
EA6E4DC92
100
AcDbEntity
  8
JISSEN
100
AcDbCircle
 10
129.7277728498227
 20
194.7391145624328
 30
0.0
 40
2.0
100
AcDbArc
 50
134.9999999999915
 51
180.0
  0
LINE
  5
EA6E606C6
330
EA6E4DC92
100
AcDbEntity
  8
JISSEN
100
AcDbLine
 10
127.7277728498229
 20
194.7391145624325
 30
0.0
 11
127.7277728498229
 21
189.3959695624323
 31
0.0
  0
ARC
  5
EA6E606C7
330
EA6E4DC92
100
AcDbEntity
  8
JISSEN
100
AcDbCircle
 10
125.7277728498227
 20
189.3959695624325
 30
0.0
 40
2.0
100
AcDbArc
 50
314.9999999999915
 51
0.0
  0
ARC
  5
EA6E606C8
330
EA6E4DC92
100
AcDbEntity
  8
JISSEN
100
AcDbCircle
 10
130.9802218498225
 20
196.0675425624326
 30
0.0
 40
2.0
100
AcDbArc
 50
90.0
 51
144.4011410000033
  0
ARC
  5
EA6E606C9
330
EA6E4DC92
100
AcDbEntity
  8
JISSEN
100
AcDbCircle
 10
127.7277728498227
 20
198.3959695624325
 30
0.0
 40
2.0
100
AcDbArc
 50
314.9999999999915
 51
324.4011410000034
  0
LINE
  5
EA6E606CA
330
EA6E4DC92
100
AcDbEntity
  8
JISSEN
100
AcDbLine
 10
128.313558849823
 20
196.1533285624324
 30
0.0
 11
129.1419858498229
 21
196.9817555624324
 31
0.0
  0
LINE
  5
EA6E606CB
330
EA6E4DC92
100
AcDbEntity
  8
JISSEN
100
AcDbLine
 10
131.2457218498229
 20
198.0675425624323
 30
0.0
 11
130.9802218498227
 21
198.0675425624323
 31
0.0
  0
SPLINE
  5
EA6E606CC
330
EA6E4DC92
100
AcDbEntity
  8
JISSEN
100
AcDbSpline
210
0.0
220
0.0
230
1.0
 70
     8
 71
     3
 72
     8
 73
     4
 74
     0
 42
0.0000000001
 43
0.0000000001
 40
1.210314090895789
 40
1.210314090895789
 40
1.210314090895789
 40
1.210314090895789
 40
10.80205680575085
 40
10.80205680575085
 40
10.80205680575085
 40
10.80205680575085
 10
129.2305736449627
 20
199.1771322023449
 30
0.0
 10
127.9666818176929
 20
202.1442901393064
 30
0.0
 10
127.1168691559926
 20
205.3829695776538
 30
0.0
 10
127.1911546397243
 20
208.5675420778314
 30
0.0
  0
LINE
  5
EA6E606CD
330
EA6E4DC92
100
AcDbEntity
  8
JISSEN
100
AcDbLine
 10
131.9777728498229
 20
208.5675425624323
 30
0.0
 11
131.9777728498229
 21
200.0675425624323
 31
0.0
  0
ARC
  5
EA6E606CE
330
EA6E4DC92
100
AcDbEntity
  8
JISSEN
100
AcDbCircle
 10
132.9777728498227
 20
198.0675425624326
 30
0.0
 40
1.0
100
AcDbArc
 50
90.0
 51
150.000000000002
  0
ARC
  5
EA6E606CF
330
EA6E4DC92
100
AcDbEntity
  8
JISSEN
100
AcDbCircle
 10
132.4777728498224
 20
220.8028755624326
 30
0.0
 40
2.0
100
AcDbArc
 50
180.0
 51
245.7522149999956
  0
ARC
  5
EA6E606D0
330
EA6E4DC92
100
AcDbEntity
  8
JISSEN
100
AcDbCircle
 10
129.4777728498227
 20
223.8904175624329
 30
0.0
 40
2.0
100
AcDbArc
 50
318.5903780000016
 51
0.0
  0
ARC
  5
EA6E606D1
330
EA6E4DC92
100
AcDbEntity
  8
JISSEN
100
AcDbCircle
 10
130.4777728498227
 20
228.5675425624325
 30
0.0
 40
1.0
100
AcDbArc
 50
0.0
 51
90.0
  0
SPLINE
  5
EA6E606D2
330
EA6E4DC92
100
AcDbEntity
  8
JISSEN
100
AcDbSpline
210
0.0
220
0.0
230
1.0
 70
     8
 71
     3
 72
     8
 73
     4
 74
     0
 42
0.0000000001
 43
0.0000000001
 40
0.5678758884252421
 40
0.5678758884252421
 40
0.5678758884252421
 40
0.5678758884252421
 40
3.08188610348608
 40
3.08188610348608
 40
3.08188610348608
 40
3.08188610348608
 10
130.2805113580386
 20
218.5336821691283
 30
0.0
 10
129.9906718667625
 20
217.7435545380392
 30
0.0
 10
129.7074611696737
 20
216.9433356233156
 30
0.0
 10
129.4451133308675
 20
216.1354643740513
 30
0.0
  0
ARC
  5
EA6E606D3
330
EA6E4DC92
100
AcDbEntity
  8
JISSEN
100
AcDbCircle
 10
127.7576068498228
 20
216.8549415624328
 30
0.0
 40
1.834481999999999
100
AcDbArc
 50
283.0090819999967
 51
336.9087820000024
  0
LINE
  5
EA6E606D4
330
EA6E4DC92
100
AcDbEntity
  8
JISSEN
100
AcDbLine
 10
131.4777728498229
 20
226.5675425624323
 30
0.0
 11
131.4777728498229
 21
223.8904175624326
 31
0.0
  0
ARC
  5
EA6E606D5
330
EA6E4DC92
100
AcDbEntity
  8
JISSEN
100
AcDbCircle
 10
132.4777728498224
 20
221.2446665624328
 30
0.0
 40
2.0
100
AcDbArc
 50
138.5903780000016
 51
180.0
  0
LINE
  5
EA6E606D6
330
EA6E4DC92
100
AcDbEntity
  8
JISSEN
100
AcDbLine
 10
130.4777728498229
 20
221.2446665624326
 30
0.0
 11
130.4777728498229
 21
220.8028755624324
 31
0.0
  0
LINE
  5
EA6E606D7
330
EA6E4DC92
100
AcDbEntity
  8
JISSEN
100
AcDbLine
 10
130.4777728498229
 20
229.5675425624323
 30
0.0
 11
130.2277728498227
 21
229.5675425624323
 31
0.0
  0
LINE
  5
EA6E606D8
330
EA6E4DC92
100
AcDbEntity
  8
JISSEN
100
AcDbLine
 10
131.4777728498229
 20
228.5675425624323
 30
0.0
 11
131.4777728498229
 21
226.5675425624323
 31
0.0
  0
ARC
  5
EA6E606D9
330
EA6E4DC92
100
AcDbEntity
  8
JISSEN
100
AcDbCircle
 10
131.2457218498227
 20
218.0675425624325
 30
0.0
 40
1.0
100
AcDbArc
 50
29.99999999999794
 51
65.75221499999567
  0
ARC
  5
EA6E606DA
330
EA6E4DC92
100
AcDbEntity
  8
JISSEN
100
AcDbCircle
 10
132.9777728498227
 20
219.0675425624326
 30
0.0
 40
1.0
100
AcDbArc
 50
209.9999999999979
 51
270.0
  0
LINE
  5
EA6E606DB
330
EA6E4DC92
100
AcDbEntity
  8
JISSEN
100
AcDbLine
 10
146.4777728498229
 20
223.5675425624323
 30
0.0
 11
146.4777728498229
 21
194.7222431008119
 31
0.0
  0
LINE
  5
EA6E606DC
330
EA6E4DC92
100
AcDbEntity
  8
JISSEN
100
AcDbLine
 10
143.4777728498229
 20
223.5675425624323
 30
0.0
 11
143.4777728498229
 21
194.7222431008119
 31
0.0
  0
LINE
  5
EA6E606DD
330
EA6E4DC92
100
AcDbEntity
  8
JISSEN
100
AcDbLine
 10
148.4777728498229
 20
200.8675425624325
 30
0.0
 11
148.4777728498229
 21
216.2675425624326
 31
0.0
  0
LINE
  5
EA6E606DE
330
EA6E4DC92
100
AcDbEntity
  8
JISSEN
100
AcDbLine
 10
142.4777728498229
 20
208.5675425624323
 30
0.0
 11
142.4777728498229
 21
218.0675425624323
 31
0.0
  0
ARC
  5
EA6E606DF
330
EA6E4DC92
100
AcDbEntity
  8
JISSEN
100
AcDbCircle
 10
160.8972162662216
 20
208.5675425624326
 30
0.0
 40
12.41944341639882
100
AcDbArc
 50
162.4120462260086
 51
197.5879537739913
  0
LINE
  5
EA6E606E0
330
EA6E4DC92
100
AcDbEntity
  8
JISSEN
100
AcDbLine
 10
148.4777728498229
 20
209.1835679662169
 30
0.0
 11
146.4777728498229
 21
205.7194663510792
 31
0.0
  0
LINE
  5
EA6E606E1
330
EA6E4DC92
100
AcDbEntity
  8
JISSEN
100
AcDbLine
 10
148.4777728498229
 20
211.1835679662169
 30
0.0
 11
146.4777728498229
 21
207.7194663510792
 31
0.0
  0
ARC
  5
EA6E606E2
330
EA6E4DC92
100
AcDbEntity
  8
JISSEN
100
AcDbCircle
 10
148.4777728498229
 20
194.7222431008121
 30
0.0
 40
5.0
100
AcDbArc
 50
180.0
 51
239.9999999999966
  0
LINE
  5
EA6E606E3
330
EA6E4DC92
100
AcDbEntity
  8
JISSEN
100
AcDbLine
 10
142.4777728498229
 20
208.5675425624323
 30
0.0
 11
142.4777728498229
 21
199.0675425624323
 31
0.0
  0
LINE
  5
EA6E606E4
330
EA6E4DC92
100
AcDbEntity
  8
JISSEN
100
AcDbLine
 10
142.4777728498229
 20
199.5675425624323
 30
0.0
 11
143.4777728498229
 21
199.5675425624323
 31
0.0
  0
LINE
  5
EA6E606E5
330
EA6E4DC92
100
AcDbEntity
  8
TENSEN
  6
BREAK
100
AcDbLine
 10
148.6327500779907
 20
192.3233658796522
 30
0.0
 11
147.1327500779907
 21
189.7252896682991
 31
0.0
  0
ARC
  5
EA6E606E6
330
EA6E4DC92
100
AcDbEntity
  8
JISSEN
100
AcDbCircle
 10
148.4777728498229
 20
194.7222431008121
 30
0.0
 40
2.0
100
AcDbArc
 50
180.0
 51
239.9999999999966
  0
ARC
  5
EA6E606E7
330
EA6E4DC92
100
AcDbEntity
  8
JISSEN
100
AcDbCircle
 10
151.8003424227726
 20
202.9383774378338
 30
0.0
 40
3.322569572950068
100
AcDbArc
 50
145.6157525319557
 51
214.3842474680354
  0
LINE
  5
EA6E606E8
330
EA6E4DC92
100
AcDbEntity
  8
JISSEN
100
AcDbLine
 10
148.4777728498231
 20
202.0675425624324
 30
0.0
 11
149.0583294334237
 21
201.0619890629675
 31
0.0
  0
LINE
  5
EA6E606E9
330
EA6E4DC92
100
AcDbEntity
  8
JISSEN
100
AcDbLine
 10
148.4777728498229
 20
200.8675425624325
 30
0.0
 11
146.4777728498229
 21
200.8675425624325
 31
0.0
  0
LINE
  5
EA6E606EA
330
EA6E4DC92
100
AcDbEntity
  8
JISSEN
100
AcDbLine
 10
146.4777728498229
 20
223.5675425624323
 30
0.0
 11
143.4777728498229
 21
223.5675425624323
 31
0.0
  0
LINE
  5
EA6E606EB
330
EA6E4DC92
100
AcDbEntity
  8
JISSEN
100
AcDbLine
 10
142.4777728498229
 20
217.5675425624323
 30
0.0
 11
143.4777728498229
 21
217.5675425624323
 31
0.0
  0
ARC
  5
EA6E606EC
330
EA6E4DC92
100
AcDbEntity
  8
JISSEN
100
AcDbCircle
 10
151.8003424227726
 20
214.1967076870313
 30
0.0
 40
3.322569572950015
100
AcDbArc
 50
145.6157525319557
 51
214.3842474680354
  0
LINE
  5
EA6E606ED
330
EA6E4DC92
100
AcDbEntity
  8
JISSEN
100
AcDbLine
 10
148.4777728498231
 20
215.0675425624323
 30
0.0
 11
149.0583294334237
 21
216.0730960618977
 31
0.0
  0
LINE
  5
EA6E606EE
330
EA6E4DC92
100
AcDbEntity
  8
JISSEN
100
AcDbLine
 10
148.4777728498229
 20
216.2675425624326
 30
0.0
 11
146.4777728498229
 21
216.2675425624326
 31
0.0
  0
LINE
  5
EA6E606EF
330
EA6E4DC92
100
AcDbEntity
  8
JISSEN
100
AcDbLine
 10
127.3277728498228
 20
247.1437815624323
 30
0.0
 11
127.3277728498228
 21
231.5675425624323
 31
0.0
  0
LINE
  5
EA6E606F0
330
EA6E4DC92
100
AcDbEntity
  8
JISSEN
100
AcDbLine
 10
125.7277728498229
 20
248.0675425624323
 30
0.0
 11
127.3277728498228
 21
247.1437815624323
 31
0.0
  0
INSERT
  5
EA6E606F1
330
EA6E4DC92
100
AcDbEntity
  8
SUNPOU
100
AcDbBlockReference
  2
ARROWANG
 10
128.2277728498229
 20
260.1604618672261
 30
0.0
 41
2.999999999999936
 42
3.0
 43
3.0
 50
139.7549497692892
1001
ACAD
1000
DSTYLE
1002
{
1070
   147
1040
1.0
1070
    77
1070
     0
1002
}
  0
LINE
  5
EA6E606F2
330
EA6E4DC92
100
AcDbEntity
  8
JISSEN
100
AcDbLine
 10
153.4777728498231
 20
202.0675425624324
 30
0.0
 11
153.4777728498229
 21
215.0675425624323
 31
0.0
  0
ARC
  5
EA6E606F3
330
EA6E4DC92
100
AcDbEntity
  8
JISSEN
100
AcDbCircle
 10
141.0583294334239
 20
208.5675425624326
 30
0.0
 40
12.41944341639882
100
AcDbArc
 50
342.4120462260086
 51
17.58795377399135
  0
LINE
  5
EA6E606F4
330
EA6E4DC92
100
AcDbEntity
  8
JISSEN
100
AcDbLine
 10
155.127772849823
 20
212.5675425624328
 30
0.0
 11
155.1277728498234
 21
208.5675425624328
 31
0.0
  0
LINE
  5
EA6E606F5
330
EA6E4DC92
100
AcDbEntity
  8
JISSEN
100
AcDbLine
 10
155.627772849823
 20
209.0675425624323
 30
0.0
 11
155.627772849823
 21
208.5675425624328
 31
0.0
  0
INSERT
  5
EA6E606F6
330
EA6E4DC92
100
AcDbEntity
  8
SUNPOU
100
AcDbBlockReference
  2
ARROWANG
 10
156.1296878123302
 20
205.5459540416074
 30
0.0
 41
3.000000000000027
 42
3.0
 43
3.0
 50
148.9127205683848
1001
ACAD
1000
DSTYLE
1002
{
1070
   147
1040
1.0
1070
    77
1070
     0
1002
}
  0
LINE
  5
EA6E606F7
330
EA6E4DC92
100
AcDbEntity
  8
JISSEN
100
AcDbLine
 10
153.4777728498231
 20
204.5675425624328
 30
0.0
 11
155.127772849823
 21
204.5675425624328
 31
0.0
  0
LINE
  5
EA6E606F8
330
EA6E4DC92
100
AcDbEntity
  8
JISSEN
100
AcDbLine
 10
155.8277728498232
 20
205.2675425624326
 30
0.0
 11
153.4777728498231
 21
205.2675425624326
 31
0.0
  0
ARC
  5
EA6E606F9
330
EA6E4DC92
100
AcDbEntity
  8
JISSEN
100
AcDbCircle
 10
150.1552032768729
 20
202.9383774378338
 30
0.0
 40
3.322569572950068
100
AcDbArc
 50
325.6157525319557
 51
34.38424746803551
  0
LINE
  5
EA6E606FA
330
EA6E4DC92
100
AcDbEntity
  8
JISSEN
100
AcDbLine
 10
153.4777728498231
 20
202.0675425624324
 30
0.0
 11
152.8972162662223
 21
201.0619890629675
 31
0.0
  0
LINE
  5
EA6E606FB
330
EA6E4DC92
100
AcDbEntity
  8
JISSEN
100
AcDbLine
 10
155.127772849823
 20
204.5675425624328
 30
0.0
 11
155.1277728498234
 21
208.5675425624328
 31
0.0
  0
LINE
  5
EA6E606FC
330
EA6E4DC92
100
AcDbEntity
  8
JISSEN
100
AcDbLine
 10
156.127772849823
 20
205.5675425624328
 30
0.0
 11
156.127772849823
 21
208.0675425624323
 31
0.0
  0
LINE
  5
EA6E606FD
330
EA6E4DC92
100
AcDbEntity
  8
JISSEN
100
AcDbLine
 10
155.627772849823
 20
208.0675425624323
 30
0.0
 11
155.627772849823
 21
208.5675425624328
 31
0.0
  0
LINE
  5
EA6E606FE
330
EA6E4DC92
100
AcDbEntity
  8
JISSEN
100
AcDbLine
 10
155.627772849823
 20
208.0675425624323
 30
0.0
 11
156.127772849823
 21
208.0675425624323
 31
0.0
  0
LINE
  5
EA6E606FF
330
EA6E4DC92
100
AcDbEntity
  8
JISSEN
100
AcDbLine
 10
155.127772849823
 20
204.5675425624328
 30
0.0
 11
156.1277728497714
 21
205.5675425623809
 31
0.0
  0
LINE
  5
EA6E60700
330
EA6E4DC92
100
AcDbEntity
  8
JISSEN
100
AcDbLine
 10
155.8277728498232
 20
211.8675425624325
 30
0.0
 11
153.4777728498231
 21
211.8675425624325
 31
0.0
  0
LINE
  5
EA6E60701
330
EA6E4DC92
100
AcDbEntity
  8
JISSEN
100
AcDbLine
 10
153.4777728498231
 20
212.5675425624328
 30
0.0
 11
155.127772849823
 21
212.5675425624328
 31
0.0
  0
ARC
  5
EA6E60702
330
EA6E4DC92
100
AcDbEntity
  8
JISSEN
100
AcDbCircle
 10
150.1552032768727
 20
214.1967076870313
 30
0.0
 40
3.322569572950015
100
AcDbArc
 50
325.6157525319557
 51
34.38424746803551
  0
LINE
  5
EA6E60703
330
EA6E4DC92
100
AcDbEntity
  8
JISSEN
100
AcDbLine
 10
153.4777728498229
 20
215.0675425624323
 30
0.0
 11
152.8972162662221
 21
216.0730960618977
 31
0.0
  0
LINE
  5
EA6E60704
330
EA6E4DC92
100
AcDbEntity
  8
JISSEN
100
AcDbLine
 10
155.127772849823
 20
212.5675425624328
 30
0.0
 11
156.1277728497714
 21
211.5675425624842
 31
0.0
  0
LINE
  5
EA6E60705
330
EA6E4DC92
100
AcDbEntity
  8
JISSEN
100
AcDbLine
 10
156.127772849823
 20
211.5675425624328
 30
0.0
 11
156.127772849823
 21
209.0675425624323
 31
0.0
  0
LINE
  5
EA6E60706
330
EA6E4DC92
100
AcDbEntity
  8
JISSEN
100
AcDbLine
 10
155.627772849823
 20
209.0675425624323
 30
0.0
 11
156.127772849823
 21
209.0675425624323
 31
0.0
  0
TEXT
  5
EA6E60707
330
EA6E4DC92
100
AcDbEntity
  8
TEXT
100
AcDbText
 10
29.1999999163856
 20
501.0000002442358
 30
0.0
 40
6.0
  1
六角ニップル
  7
K
 72
     4
 11
49.9999999163856
 21
504.0000002442358
 31
0.0
100
AcDbText
  0
TEXT
  5
EA6E60708
330
EA6E4DC92
100
AcDbEntity
  8
TEXT
100
AcDbText
 10
28.9999999163856
 20
512.8000002442357
 30
0.0
 40
6.0
  1
ボールバルブ
  7
K
 72
     4
 11
49.9999999163856
 21
516.0000002442358
 31
0.0
100
AcDbText
  0
TEXT
  5
EA6E60709
330
EA6E4DC92
100
AcDbEntity
  8
TEXT
100
AcDbText
 10
30.7999999163856
 20
476.8000002442359
 30
0.0
 40
6.0
  1
ニ ッ プ ル
  7
K
 72
     4
 11
49.9999999163856
 21
480.0000002442359
 31
0.0
100
AcDbText
  0
LINE
  5
EA6E6070A
330
EA6E4DC92
100
AcDbEntity
  8
JISSEN
100
AcDbLine
 10
0.0000013643855254
 20
486.0000002442359
 30
0.0
 11
178.9999999163855
 21
486.0000002442359
 31
0.0
  0
LINE
  5
EA6E6070B
330
EA6E4DC92
100
AcDbEntity
  8
JISSEN
100
AcDbLine
 10
0.0000013643855254
 20
474.0000002442359
 30
0.0
 11
178.9999999163855
 21
474.0000002442358
 31
0.0
  0
TEXT
  5
EA6E6070C
330
EA6E4DC92
100
AcDbEntity
  8
TEXT
100
AcDbText
 10
7.857142773528462
 20
489.0000002442357
 30
0.0
 40
6.0
  1
4
  7
K
 72
     4
 11
9.999999916385604
 21
492.0000002442358
 31
0.0
100
AcDbText
  0
TEXT
  5
EA6E6070D
330
EA6E4DC92
100
AcDbEntity
  8
TEXT
100
AcDbText
 10
7.999999916385605
 20
501.0000002442358
 30
0.0
 40
6.0
  1
3
  7
K
 72
     4
 11
9.999999916385604
 21
504.0000002442358
 31
0.0
100
AcDbText
  0
TEXT
  5
EA6E6070E
330
EA6E4DC92
100
AcDbEntity
  8
TEXT
100
AcDbText
 10
7.999999916385604
 20
513.0000002442358
 30
0.0
 40
6.0
  1
2
  7
K
 72
     4
 11
9.999999916385604
 21
516.0000002442358
 31
0.0
100
AcDbText
  0
TEXT
  5
EA6E6070F
330
EA6E4DC92
100
AcDbEntity
  8
TEXT
100
AcDbText
 10
3.599999916385606
 20
537.0000002442358
 30
0.0
 40
6.0
  1
番号
  7
K
 72
     4
 11
9.999999916385604
 21
540.0000002442358
 31
0.0
100
AcDbText
  0
TEXT
  5
EA6E60710
330
EA6E4DC92
100
AcDbEntity
  8
TEXT
100
AcDbText
 10
8.043643160102192
 20
477.0000002442359
 30
0.0
 40
6.0
  1
5
  7
K
 72
     4
 11
10.04364316010219
 21
480.0000002442359
 31
0.0
100
AcDbText
  0
TEXT
  5
EA6E60711
330
EA6E4DC92
100
AcDbEntity
  8
TEXT
100
AcDbText
 10
9.285714202099891
 20
525.0000002442358
 30
0.0
 40
6.0
  1
1
  7
K
 72
     4
 11
9.999999916385604
 21
528.0000002442358
 31
0.0
100
AcDbText
  0
TEXT
  5
EA6E60712
330
EA6E4DC92
100
AcDbEntity
  8
TEXT
100
AcDbText
 10
32.39999991638561
 20
524.8000002442357
 30
0.0
 40
6.0
  1
ノ　ズ　ル
  7
K
 72
     4
 11
49.9999999163856
 21
528.0000002442358
 31
0.0
100
AcDbText
  0
LINE
  5
EA6E60713
330
EA6E4DC92
100
AcDbEntity
  8
JISSEN
100
AcDbLine
 10
19.9999999163856
 20
546.0000002442358
 30
0.0
 11
19.9999999163856
 21
474.0000002442359
 31
0.0
  0
TEXT
  5
EA6E60714
330
EA6E4DC92
100
AcDbEntity
  8
TEXT
100
AcDbText
 10
32.79999991638561
 20
489.0000002442357
 30
0.0
 40
6.0
  1
違径チーズ
  7
K
 72
     4
 11
49.9999999163856
 21
492.0000002442358
 31
0.0
100
AcDbText
  0
TEXT
  5
EA6E60715
330
EA6E4DC92
100
AcDbEntity
  8
TEXT
100
AcDbText
 10
32.7999999163856
 20
537.0000002442358
 30
0.0
 40
6.0
  1
名      称
  7
K
 72
     4
 11
49.9999999163856
 21
540.0000002442358
 31
0.0
100
AcDbText
  0
LINE
  5
EA6E60716
330
EA6E4DC92
100
AcDbEntity
  8
TENSEN
 48
2.0
100
AcDbLine
 10
89.72777284982294
 20
419.8490335887817
 30
0.0
 11
89.72777284982294
 21
447.2374677169907
 31
0.0
  0
LINE
  5
EA6E60717
330
EA6E4DC92
100
AcDbEntity
  8
TENSEN
 48
2.0
100
AcDbLine
 10
123.7277728498229
 20
419.8490335887817
 30
0.0
 11
123.7277728498229
 21
447.2374677169907
 31
0.0
  0
LWPOLYLINE
  5
EA6E60718
330
EA6E4DC92
100
AcDbEntity
  8
JISSEN
100
AcDbPolyline
 90
        4
 70
     1
 43
0.0
 10
85.22777284982295
 20
353.3844108188498
 10
128.2277728498229
 20
353.3844108188498
 10
128.2277728498229
 20
342.3844108188498
 10
85.22777284982295
 20
342.3844108188498
  0
LINE
  5
EA6E60719
330
EA6E4DC92
100
AcDbEntity
  8
JISSEN
100
AcDbLine
 10
128.9277628498227
 20
362.8490335887819
 30
0.0
 11
110.2235331420224
 21
362.8490335887819
 31
0.0
  0
LINE
  5
EA6E6071A
330
EA6E4DC92
100
AcDbEntity
  8
JISSEN
100
AcDbLine
 10
128.927762849823
 20
419.849033588782
 30
0.0
 11
110.2235331420226
 21
419.8490335887822
 31
0.0
  0
ARC
  5
EA6E6071B
330
EA6E4DC92
100
AcDbEntity
  8
JISSEN
100
AcDbCircle
 10
106.7277728498229
 20
391.349033588782
 30
0.0
 40
20.57142857142856
100
AcDbArc
 50
322.2320594573182
 51
352.767940542681
  0
ARC
  5
EA6E6071C
330
EA6E4DC92
100
AcDbEntity
  8
JISSEN
100
AcDbCircle
 10
106.7277728498229
 20
391.349033588782
 30
0.0
 40
20.57142857142856
100
AcDbArc
 50
7.232059457317348
 51
37.7679405426818
  0
CIRCLE
  5
EA6E6071D
330
EA6E4DC92
100
AcDbEntity
  8
JISSEN
100
AcDbCircle
 10
106.7277728498229
 20
391.349033588782
 30
0.0
 40
18.85714285714285
  0
ARC
  5
EA6E6071E
330
EA6E4DC92
100
AcDbEntity
  8
JISSEN
100
AcDbCircle
 10
106.7277728498229
 20
391.349033588782
 30
0.0
 40
17.14285714285714
100
AcDbArc
 50
282.1983783630567
 51
347.8016216369352
  0
ARC
  5
EA6E6071F
330
EA6E4DC92
100
AcDbEntity
  8
JISSEN
100
AcDbCircle
 10
106.7277728498229
 20
391.349033588782
 30
0.0
 40
17.14285714285714
100
AcDbArc
 50
12.19837836306467
 51
77.80162163694324
  0
ARC
  5
EA6E60720
330
EA6E4DC92
100
AcDbEntity
  8
JISSEN
100
AcDbCircle
 10
124.607472888397
 20
373.4693335502078
 30
0.0
 40
4.714285714285714
100
AcDbArc
 50
224.9999999999952
 51
44.99999999999517
  0
ARC
  5
EA6E60721
330
EA6E4DC92
100
AcDbEntity
  8
JISSEN
100
AcDbCircle
 10
123.9437376812868
 20
374.1330687573181
 30
0.0
 40
4.714285714285714
100
AcDbArc
 50
44.99999999999517
 51
224.9999999999952
  0
ARC
  5
EA6E60722
330
EA6E4DC92
100
AcDbEntity
  8
JISSEN
100
AcDbCircle
 10
124.607472888397
 20
409.2287336273561
 30
0.0
 40
4.714285714285714
100
AcDbArc
 50
315.0000000000048
 51
135.0000000000048
  0
ARC
  5
EA6E60723
330
EA6E4DC92
100
AcDbEntity
  8
JISSEN
100
AcDbCircle
 10
123.9437376812868
 20
408.5649984202459
 30
0.0
 40
4.714285714285714
100
AcDbArc
 50
135.0000000000048
 51
315.0000000000048
  0
ARC
  5
EA6E60724
330
EA6E4DC92
100
AcDbEntity
  8
JISSEN
100
AcDbCircle
 10
126.7076570638871
 20
439.5847410330197
 30
0.0
 40
25.71428571428571
100
AcDbArc
 50
228.9577090914058
 51
266.042290908596
  0
ARC
  5
EA6E60725
330
EA6E4DC92
100
AcDbEntity
  8
JISSEN
100
AcDbCircle
 10
126.7076570638869
 20
343.1133261445444
 30
0.0
 40
25.71428571428571
100
AcDbArc
 50
93.9577090914039
 51
131.0422909085936
  0
LWPOLYLINE
  5
EA6E60726
330
EA6E4DC92
100
AcDbEntity
  8
JISSEN
100
AcDbPolyline
 90
        8
 70
     1
 43
0.0
 10
127.4777728498229
 20
293.4559766906411
 10
138.9777728498229
 20
293.4559766906411
 10
138.9777728498229
 20
317.4559766906412
 10
127.4777728498229
 20
317.4559766906412
 10
127.4777728498229
 20
335.4559766906412
 10
85.97777284982294
 20
335.4559766906412
 10
85.97777284982294
 20
275.4559766906412
 10
127.4777728498229
 20
275.4559766906412
  0
LWPOLYLINE
  5
EA6E60727
330
EA6E4DC92
100
AcDbEntity
  8
SAISEN
100
AcDbPolyline
 90
        3
 70
     0
 43
0.0
 10
123.7277728498229
 20
353.3844108188501
 10
121.654454429067
 20
356.38441081885
 10
121.4969283920197
 20
362.8490335887821
  0
LWPOLYLINE
  5
EA6E60728
330
EA6E4DC92
100
AcDbEntity
  8
JISSEN
100
AcDbPolyline
 90
        2
 70
     0
 43
0.0
 10
123.7277728498229
 20
353.3844108188498
 10
123.4970411425058
 20
362.8444108188499
  0
LWPOLYLINE
  5
EA6E60729
330
EA6E4DC92
100
AcDbEntity
  8
SAISEN
100
AcDbPolyline
 90
        3
 70
     0
 43
0.0
 10
89.72777284982294
 20
353.3844108188498
 10
91.8010912705788
 20
356.3844108188498
 10
91.95861730762613
 20
362.8490335887819
  0
LWPOLYLINE
  5
EA6E6072A
330
EA6E4DC92
100
AcDbEntity
  8
JISSEN
100
AcDbPolyline
 90
        2
 70
     0
 43
0.0
 10
89.95850455714004
 20
362.8444108188499
 10
89.72777284982294
 20
353.3844108188498
  0
LINE
  5
EA6E6072B
330
EA6E4DC92
100
AcDbEntity
  8
JISSEN
100
AcDbLine
 10
89.80094358153042
 20
339.3844108188499
 30
0.0
 11
123.6546021181156
 21
339.3844108188497
 31
0.0
  0
LINE
  5
EA6E6072C
330
EA6E4DC92
100
AcDbEntity
  8
JISSEN
100
AcDbLine
 10
89.80094358153042
 20
356.3844108188497
 30
0.0
 11
123.6546021181156
 21
356.3844108188497
 31
0.0
  0
LWPOLYLINE
  5
EA6E6072D
330
EA6E4DC92
100
AcDbEntity
  8
SAISEN
100
AcDbPolyline
 90
        3
 70
     0
 43
0.0
 10
89.72777284982294
 20
342.3844108188499
 10
91.8010912705788
 20
339.3844108188499
 10
91.8968169891616
 20
335.4559766906412
  0
LWPOLYLINE
  5
EA6E6072E
330
EA6E4DC92
100
AcDbEntity
  8
JISSEN
100
AcDbPolyline
 90
        2
 70
     0
 43
0.0
 10
89.89675904807199
 20
335.4559766906412
 10
89.72777284982294
 20
342.3844108188498
  0
LINE
  5
EA6E6072F
330
EA6E4DC92
100
AcDbEntity
  8
JISSEN
100
AcDbLine
 10
95.72777284982294
 20
353.3844108188497
 30
0.0
 11
95.72777284982294
 21
342.3844108188497
 31
0.0
  0
LWPOLYLINE
  5
EA6E60730
330
EA6E4DC92
100
AcDbEntity
  8
JISSEN
100
AcDbPolyline
 90
        2
 70
     0
 43
0.0
 10
123.7277728498229
 20
342.3844108188498
 10
123.5587866515741
 20
335.4559766906412
  0
LWPOLYLINE
  5
EA6E60731
330
EA6E4DC92
100
AcDbEntity
  8
SAISEN
100
AcDbPolyline
 90
        3
 70
     0
 43
0.0
 10
123.7277728498229
 20
342.3844108188498
 10
121.654454429067
 20
339.3844108188498
 10
121.5587287104842
 20
335.4559766906412
  0
LINE
  5
EA6E60732
330
EA6E4DC92
100
AcDbEntity
  8
JISSEN
100
AcDbLine
 10
117.7277728498229
 20
353.3844108188497
 30
0.0
 11
117.7277728498229
 21
342.3844108188497
 31
0.0
  0
LINE
  5
EA6E60733
330
EA6E4DC92
100
AcDbEntity
  8
TENSEN
 48
2.0
100
AcDbLine
 10
89.72777284982294
 20
422.8490335887817
 30
0.0
 11
123.7277728498229
 21
422.8490335887818
 31
0.0
  0
LINE
  5
EA6E60734
330
EA6E4DC92
100
AcDbEntity
  8
JISSEN
100
AcDbLine
 10
84.52778284982287
 20
362.8490335887819
 30
0.0
 11
103.2320125576234
 21
362.8490335887819
 31
0.0
  0
LINE
  5
EA6E60735
330
EA6E4DC92
100
AcDbEntity
  8
JISSEN
100
AcDbLine
 10
92.72777284982295
 20
399.431943588782
 30
0.0
 11
102.553182849823
 21
405.104646588782
 31
0.0
  0
LINE
  5
EA6E60736
330
EA6E4DC92
100
AcDbEntity
  8
JISSEN
100
AcDbLine
 10
84.5277828498231
 20
419.849033588782
 30
0.0
 11
103.2320125576234
 21
419.849033588782
 31
0.0
  0
LINE
  5
EA6E60737
330
EA6E4DC92
100
AcDbEntity
  8
JISSEN
100
AcDbLine
 10
92.72777284982295
 20
383.2661235887821
 30
0.0
 11
102.553182849823
 21
377.5934205887821
 31
0.0
  0
ARC
  5
EA6E60738
330
EA6E4DC92
100
AcDbEntity
  8
JISSEN
100
AcDbCircle
 10
106.7277728498229
 20
391.349033588782
 30
0.0
 40
20.57142857142856
100
AcDbArc
 50
97.23205945732207
 51
127.7679405426785
  0
ARC
  5
EA6E60739
330
EA6E4DC92
100
AcDbEntity
  8
JISSEN
100
AcDbCircle
 10
106.7277728498229
 20
391.349033588782
 30
0.0
 40
20.57142857142856
100
AcDbArc
 50
232.2320594573214
 51
262.7679405426779
  0
ARC
  5
EA6E6073A
330
EA6E4DC92
100
AcDbEntity
  8
JISSEN
100
AcDbCircle
 10
106.7277728498229
 20
391.349033588782
 30
0.0
 40
17.14285714285714
100
AcDbArc
 50
102.1983783630567
 51
167.8016216369353
  0
ARC
  5
EA6E6073B
330
EA6E4DC92
100
AcDbEntity
  8
JISSEN
100
AcDbCircle
 10
106.7277728498229
 20
391.349033588782
 30
0.0
 40
17.14285714285714
100
AcDbArc
 50
192.1983783630646
 51
257.8016216369299
  0
ARC
  5
EA6E6073C
330
EA6E4DC92
100
AcDbEntity
  8
JISSEN
100
AcDbCircle
 10
89.51180801835903
 20
408.564998420246
 30
0.0
 40
4.714285714285714
100
AcDbArc
 50
225.0000000000043
 51
45.00000000000439
  0
ARC
  5
EA6E6073D
330
EA6E4DC92
100
AcDbEntity
  8
JISSEN
100
AcDbCircle
 10
89.51180801835903
 20
374.1330687573183
 30
0.0
 40
4.714285714285714
100
AcDbArc
 50
315.0000000000048
 51
135.0000000000048
  0
ARC
  5
EA6E6073E
330
EA6E4DC92
100
AcDbEntity
  8
JISSEN
100
AcDbCircle
 10
106.7277728498231
 20
391.349033588782
 30
0.0
 40
24.42857142857143
100
AcDbArc
 50
101.0912290721259
 51
123.9087709278739
  0
ARC
  5
EA6E6073F
330
EA6E4DC92
100
AcDbEntity
  8
JISSEN
100
AcDbCircle
 10
86.74788863575917
 20
439.5847410330199
 30
0.0
 40
25.71428571428571
100
AcDbArc
 50
273.9577090914039
 51
311.042290908594
  0
ARC
  5
EA6E60740
330
EA6E4DC92
100
AcDbEntity
  8
JISSEN
100
AcDbCircle
 10
106.7277728498231
 20
391.3490335887822
 30
0.0
 40
24.42857142857143
100
AcDbArc
 50
236.0912290721258
 51
258.9087709278739
  0
ARC
  5
EA6E60741
330
EA6E4DC92
100
AcDbEntity
  8
JISSEN
100
AcDbCircle
 10
86.74788863575873
 20
343.1133261445447
 30
0.0
 40
25.71428571428571
100
AcDbArc
 50
48.9577090914059
 51
86.04229090859607
  0
LINE
  5
EA6E60742
330
EA6E4DC92
100
AcDbEntity
  8
JISSEN
100
AcDbLine
 10
89.97196927839468
 20
394.9712701487143
 30
0.0
 11
96.87234783088593
 21
394.9712701487143
 31
0.0
  0
LINE
  5
EA6E60743
330
EA6E4DC92
100
AcDbEntity
  8
JISSEN
100
AcDbLine
 10
89.97196927839445
 20
387.72679702885
 30
0.0
 11
96.8723478308857
 21
387.7267970288498
 31
0.0
  0
ARC
  5
EA6E60744
330
EA6E4DC92
100
AcDbEntity
  8
JISSEN
100
AcDbCircle
 10
106.7277728498229
 20
391.349033588782
 30
0.0
 40
20.57142857142856
100
AcDbArc
 50
142.2320594573182
 51
172.767940542681
  0
ARC
  5
EA6E60745
330
EA6E4DC92
100
AcDbEntity
  8
JISSEN
100
AcDbCircle
 10
106.7277728498231
 20
391.349033588782
 30
0.0
 40
24.42857142857143
100
AcDbArc
 50
146.0912290721225
 51
168.9087709278745
  0
ARC
  5
EA6E60746
330
EA6E4DC92
100
AcDbEntity
  8
JISSEN
100
AcDbCircle
 10
58.49206540558566
 20
411.3289178028464
 30
0.0
 40
25.71428571428571
100
AcDbArc
 50
318.9577090914088
 51
356.042290908596
  0
LINE
  5
EA6E60747
330
EA6E4DC92
100
AcDbEntity
  8
JISSEN
100
AcDbLine
 10
81.44205856410872
 20
396.0633193030677
 30
0.0
 11
82.3807218958284
 21
396.0633193030677
 31
0.0
  0
LINE
  5
EA6E60748
330
EA6E4DC92
100
AcDbEntity
  8
JISSEN
100
AcDbLine
 10
81.44205856410872
 20
386.6347478744964
 30
0.0
 11
82.3807218958284
 21
386.6347478744964
 31
0.0
  0
ARC
  5
EA6E60749
330
EA6E4DC92
100
AcDbEntity
  8
JISSEN
100
AcDbCircle
 10
58.49206540558566
 20
371.369149374718
 30
0.0
 40
25.71428571428571
100
AcDbArc
 50
3.95770909140394
 51
41.04229090859115
  0
ARC
  5
EA6E6074A
330
EA6E4DC92
100
AcDbEntity
  8
JISSEN
100
AcDbCircle
 10
81.44205856410872
 20
391.3490335887822
 30
0.0
 40
4.714285714285714
100
AcDbArc
 50
90.0
 51
270.0
  0
ARC
  5
EA6E6074B
330
EA6E4DC92
100
AcDbEntity
  8
JISSEN
100
AcDbCircle
 10
106.7277728498229
 20
391.349033588782
 30
0.0
 40
20.57142857142856
100
AcDbArc
 50
187.2320594573173
 51
217.7679405426818
  0
ARC
  5
EA6E6074C
330
EA6E4DC92
100
AcDbEntity
  8
JISSEN
100
AcDbCircle
 10
106.7277728498231
 20
391.349033588782
 30
0.0
 40
24.42857142857143
100
AcDbArc
 50
191.0912290721254
 51
213.9087709278774
  0
ARC
  5
EA6E6074D
330
EA6E4DC92
100
AcDbEntity
  8
JISSEN
100
AcDbCircle
 10
88.84807281124881
 20
373.469333550208
 30
0.0
 40
4.714285714285714
100
AcDbArc
 50
135.0000000000048
 51
315.0000000000048
  0
LINE
  5
EA6E6074E
330
EA6E4DC92
100
AcDbEntity
  8
JISSEN
100
AcDbLine
 10
84.52778284982287
 20
371.582647448833
 30
0.0
 11
84.52778284982287
 21
362.8490335887819
 31
0.0
  0
LINE
  5
EA6E6074F
330
EA6E4DC92
100
AcDbEntity
  8
JISSEN
100
AcDbLine
 10
85.51456941422634
 20
376.8028369472303
 30
0.0
 11
86.17830462133657
 21
377.4665721543405
 31
0.0
  0
LINE
  5
EA6E60750
330
EA6E4DC92
100
AcDbEntity
  8
JISSEN
100
AcDbLine
 10
91.03777284982289
 20
368.4672485871539
 30
0.0
 11
91.03777284982289
 21
362.8490335887819
 31
0.0
  0
LINE
  5
EA6E60751
330
EA6E4DC92
100
AcDbEntity
  8
JISSEN
100
AcDbLine
 10
92.18157620827104
 20
370.1358301531858
 30
0.0
 11
92.84531141538128
 21
370.799565360296
 31
0.0
  0
ARC
  5
EA6E60752
330
EA6E4DC92
100
AcDbEntity
  8
JISSEN
100
AcDbCircle
 10
82.3807218958284
 20
391.3490335887822
 30
0.0
 40
4.714285714285714
100
AcDbArc
 50
270.0
 51
90.0
  0
LINE
  5
EA6E60753
330
EA6E4DC92
100
AcDbEntity
  8
JISSEN
100
AcDbLine
 10
92.72777284982295
 20
387.187447588782
 30
0.0
 11
92.72777284982295
 21
383.2661215887821
 31
0.0
  0
LINE
  5
EA6E60754
330
EA6E4DC92
100
AcDbEntity
  8
JISSEN
100
AcDbLine
 10
92.72777284982295
 20
395.5106195887821
 30
0.0
 11
92.72777284982295
 21
399.431945588782
 31
0.0
  0
LWPOLYLINE
  5
EA6E60755
330
EA6E4DC92
100
AcDbEntity
  8
TENSEN
 48
2.0
100
AcDbPolyline
 90
        3
 70
     0
 43
0.0
 10
89.72777284982294
 20
425.2325407739702
 10
91.72777284982293
 20
422.8490335887818
 10
91.72777284982293
 20
419.8490335887817
  0
ARC
  5
EA6E60756
330
EA6E4DC92
100
AcDbEntity
  8
JISSEN
100
AcDbCircle
 10
88.84807281124881
 20
409.2287336273563
 30
0.0
 40
4.714285714285714
100
AcDbArc
 50
45.00000000000439
 51
225.0000000000043
  0
LINE
  5
EA6E60757
330
EA6E4DC92
100
AcDbEntity
  8
JISSEN
100
AcDbLine
 10
84.5277828498231
 20
411.1154197287311
 30
0.0
 11
84.5277828498231
 21
419.849033588782
 31
0.0
  0
LINE
  5
EA6E60758
330
EA6E4DC92
100
AcDbEntity
  8
JISSEN
100
AcDbLine
 10
85.51456941422657
 20
405.8952302303338
 30
0.0
 11
86.1783046213368
 21
405.2314950232236
 31
0.0
  0
LINE
  5
EA6E60759
330
EA6E4DC92
100
AcDbEntity
  8
JISSEN
100
AcDbLine
 10
92.18157620827128
 20
412.5622370243785
 30
0.0
 11
92.84531141538151
 21
411.8985018172684
 31
0.0
  0
LINE
  5
EA6E6075A
330
EA6E4DC92
100
AcDbEntity
  8
JISSEN
100
AcDbLine
 10
91.03777284982312
 20
414.2308185904104
 30
0.0
 11
91.03777284982312
 21
419.849033588782
 31
0.0
  0
LINE
  5
EA6E6075B
330
EA6E4DC92
100
AcDbEntity
  8
JISSEN
100
AcDbLine
 10
120.7277728498229
 20
399.4319465887821
 30
0.0
 11
110.9023618498229
 21
405.1046585887822
 31
0.0
  0
CIRCLE
  5
EA6E6075C
330
EA6E4DC92
100
AcDbEntity
  8
JISSEN
100
AcDbCircle
 10
106.7277728498227
 20
391.349033588782
 30
0.0
 40
10.5
  0
LINE
  5
EA6E6075D
330
EA6E4DC92
100
AcDbEntity
  8
JISSEN
100
AcDbLine
 10
106.7277728498229
 20
385.5755305887821
 30
0.0
 11
111.7277728498229
 21
388.462282588782
 31
0.0
  0
LINE
  5
EA6E6075E
330
EA6E4DC92
100
AcDbEntity
  8
JISSEN
100
AcDbLine
 10
111.7277728498229
 20
394.235784588782
 30
0.0
 11
106.7277728498229
 21
397.1225365887821
 31
0.0
  0
CIRCLE
  5
EA6E6075F
330
EA6E4DC92
100
AcDbEntity
  8
JISSEN
100
AcDbCircle
 10
106.7277728498229
 20
391.349033588782
 30
0.0
 40
4.9
  0
ARC
  5
EA6E60760
330
EA6E4DC92
100
AcDbEntity
  8
JISSEN
100
AcDbCircle
 10
106.7277728498229
 20
391.349033588782
 30
0.0
 40
20.57142857142856
100
AcDbArc
 50
277.232059457322
 51
307.7679405426786
  0
ARC
  5
EA6E60761
330
EA6E4DC92
100
AcDbEntity
  8
JISSEN
100
AcDbCircle
 10
106.7277728498229
 20
366.0633193030677
 30
0.0
 40
4.714285714285714
100
AcDbArc
 50
180.0
 51
0.0
  0
ARC
  5
EA6E60762
330
EA6E4DC92
100
AcDbEntity
  8
JISSEN
100
AcDbCircle
 10
106.7277728498229
 20
367.0019826347876
 30
0.0
 40
4.714285714285714
100
AcDbArc
 50
0.0
 51
180.0
  0
LINE
  5
EA6E60763
330
EA6E4DC92
100
AcDbEntity
  8
JISSEN
100
AcDbLine
 10
103.1055362898907
 20
374.5932300173537
 30
0.0
 11
103.1055362898907
 21
381.493608569845
 31
0.0
  0
LINE
  5
EA6E60764
330
EA6E4DC92
100
AcDbEntity
  8
JISSEN
100
AcDbLine
 10
102.0134871355371
 20
366.0633193030677
 30
0.0
 11
102.0134871355371
 21
367.0019826347876
 31
0.0
  0
LINE
  5
EA6E60765
330
EA6E4DC92
100
AcDbEntity
  8
JISSEN
100
AcDbLine
 10
106.7277728498229
 20
397.1225365887821
 30
0.0
 11
101.7277728498229
 21
394.235784588782
 31
0.0
  0
LINE
  5
EA6E60766
330
EA6E4DC92
100
AcDbEntity
  8
JISSEN
100
AcDbLine
 10
101.7277728498229
 20
388.462282588782
 30
0.0
 11
106.7277728498229
 21
385.5755305887821
 31
0.0
  0
LINE
  5
EA6E60767
330
EA6E4DC92
100
AcDbEntity
  8
JISSEN
100
AcDbLine
 10
101.7277728498229
 20
394.235784588782
 30
0.0
 11
101.7277728498229
 21
388.462282588782
 31
0.0
  0
CIRCLE
  5
EA6E60768
330
EA6E4DC92
100
AcDbEntity
  8
JISSEN
100
AcDbCircle
 10
106.7277728498229
 20
391.349033588782
 30
0.0
 40
2.399999999999999
  0
CIRCLE
  5
EA6E60769
330
EA6E4DC92
100
AcDbEntity
  8
JISSEN
100
AcDbCircle
 10
106.7277728498229
 20
391.349033588782
 30
0.0
 40
3.0
  0
LINE
  5
EA6E6076A
330
EA6E4DC92
100
AcDbEntity
  8
JISSEN
100
AcDbLine
 10
120.7277728498229
 20
383.266120588782
 30
0.0
 11
110.9023618498229
 21
377.5934085887822
 31
0.0
  0
LINE
  5
EA6E6076B
330
EA6E4DC92
100
AcDbEntity
  8
JISSEN
100
AcDbLine
 10
110.3500094097553
 20
374.5932300173537
 30
0.0
 11
110.3500094097553
 21
381.4936085698452
 31
0.0
  0
ARC
  5
EA6E6076C
330
EA6E4DC92
100
AcDbEntity
  8
JISSEN
100
AcDbCircle
 10
106.7277728498231
 20
391.3490335887824
 30
0.0
 40
24.42857142857143
100
AcDbArc
 50
281.091229072126
 51
303.9087709278739
  0
LINE
  5
EA6E6076D
330
EA6E4DC92
100
AcDbEntity
  8
JISSEN
100
AcDbLine
 10
111.4420585641084
 20
366.0633193030677
 30
0.0
 11
111.4420585641084
 21
367.0019826347876
 31
0.0
  0
LINE
  5
EA6E6076E
330
EA6E4DC92
100
AcDbEntity
  8
JISSEN
100
AcDbLine
 10
122.417772849823
 20
368.4672485871537
 30
0.0
 11
122.417772849823
 21
362.8490335887819
 31
0.0
  0
LINE
  5
EA6E6076F
330
EA6E4DC92
100
AcDbEntity
  8
JISSEN
100
AcDbLine
 10
121.2739694913746
 20
370.1358301531856
 30
0.0
 11
120.6102342842643
 21
370.7995653602958
 31
0.0
  0
LINE
  5
EA6E60770
330
EA6E4DC92
100
AcDbEntity
  8
JISSEN
100
AcDbLine
 10
123.4835764212514
 20
387.72679702885
 30
0.0
 11
116.5831978687599
 21
387.72679702885
 31
0.0
  0
LINE
  5
EA6E60771
330
EA6E4DC92
100
AcDbEntity
  8
JISSEN
100
AcDbLine
 10
123.4835764212516
 20
394.9712701487143
 30
0.0
 11
116.5831978687599
 21
394.9712701487143
 31
0.0
  0
LINE
  5
EA6E60772
330
EA6E4DC92
100
AcDbEntity
  8
JISSEN
100
AcDbLine
 10
111.7277728498229
 20
388.462282588782
 30
0.0
 11
111.7277728498229
 21
394.235784588782
 31
0.0
  0
LINE
  5
EA6E60773
330
EA6E4DC92
100
AcDbEntity
  8
JISSEN
100
AcDbLine
 10
120.7277728498229
 20
387.187447588782
 30
0.0
 11
120.7277728498229
 21
383.2661215887821
 31
0.0
  0
LINE
  5
EA6E60774
330
EA6E4DC92
100
AcDbEntity
  8
JISSEN
100
AcDbLine
 10
120.7277728498229
 20
395.5106195887821
 30
0.0
 11
120.7277728498229
 21
399.431945588782
 31
0.0
  0
ARC
  5
EA6E60775
330
EA6E4DC92
100
AcDbEntity
  8
JISSEN
100
AcDbCircle
 10
106.7277728498231
 20
416.6347478744964
 30
0.0
 40
4.714285714285714
100
AcDbArc
 50
0.0
 51
180.0
  0
ARC
  5
EA6E60776
330
EA6E4DC92
100
AcDbEntity
  8
JISSEN
100
AcDbCircle
 10
106.7277728498229
 20
391.349033588782
 30
0.0
 40
20.57142857142856
100
AcDbArc
 50
52.23205945732143
 51
82.76794054267794
  0
ARC
  5
EA6E60777
330
EA6E4DC92
100
AcDbEntity
  8
JISSEN
100
AcDbCircle
 10
106.7277728498231
 20
415.6960845427767
 30
0.0
 40
4.714285714285714
100
AcDbArc
 50
180.0
 51
0.0
  0
LINE
  5
EA6E60778
330
EA6E4DC92
100
AcDbEntity
  8
JISSEN
100
AcDbLine
 10
103.1055362898907
 20
408.1048371602107
 30
0.0
 11
103.1055362898907
 21
401.2044586077192
 31
0.0
  0
LINE
  5
EA6E60779
330
EA6E4DC92
100
AcDbEntity
  8
JISSEN
100
AcDbLine
 10
102.0134871355373
 20
416.6347478744964
 30
0.0
 11
102.0134871355373
 21
415.6960845427767
 31
0.0
  0
LWPOLYLINE
  5
EA6E6077A
330
EA6E4DC92
100
AcDbEntity
  8
TENSEN
 48
2.0
100
AcDbPolyline
 90
        3
 70
     0
 43
0.0
 10
123.7277728498229
 20
425.2325407739702
 10
121.7277728498229
 20
422.8490335887818
 10
121.7277728498229
 20
419.8490335887817
  0
ARC
  5
EA6E6077B
330
EA6E4DC92
100
AcDbEntity
  8
JISSEN
100
AcDbCircle
 10
106.7277728498229
 20
391.349033588782
 30
0.0
 40
24.42857142857143
100
AcDbArc
 50
56.0912290721258
 51
78.90877092787397
  0
LINE
  5
EA6E6077C
330
EA6E4DC92
100
AcDbEntity
  8
JISSEN
100
AcDbLine
 10
110.3500094097553
 20
408.1048371602107
 30
0.0
 11
110.3500094097553
 21
401.2044586077189
 31
0.0
  0
LINE
  5
EA6E6077D
330
EA6E4DC92
100
AcDbEntity
  8
JISSEN
100
AcDbLine
 10
111.4420585641087
 20
416.6347478744964
 30
0.0
 11
111.4420585641087
 21
415.6960845427767
 31
0.0
  0
LINE
  5
EA6E6077E
330
EA6E4DC92
100
AcDbEntity
  8
JISSEN
100
AcDbLine
 10
121.2739694913748
 20
412.5622370243783
 30
0.0
 11
120.6102342842646
 21
411.8985018172681
 31
0.0
  0
LINE
  5
EA6E6077F
330
EA6E4DC92
100
AcDbEntity
  8
JISSEN
100
AcDbLine
 10
122.417772849823
 20
414.2308185904104
 30
0.0
 11
122.417772849823
 21
419.849033588782
 31
0.0
  0
TEXT
  5
EA6E60780
330
EA6E4DC92
100
AcDbEntity
  8
SUNPOU
100
AcDbText
 10
164.2981232477411
 20
356.7679863854406
 30
0.0
 40
6.0
  1
8
  7
K
 72
     4
 11
166.2981232477411
 21
359.7679863854406
 31
0.0
100
AcDbText
  0
CIRCLE
  5
EA6E60781
330
EA6E4DC92
100
AcDbEntity
  8
SUNPOU
100
AcDbCircle
 10
166.2981232477411
 20
359.7679863854406
 30
0.0
 40
7.0
  0
LINE
  5
EA6E60782
330
EA6E4DC92
100
AcDbEntity
  8
SUNPOU
100
AcDbLine
 10
159.3982829195183
 20
340.9479030964974
 30
0.0
 11
128.2277728498229
 21
346.2782591589354
 31
0.0
  0
INSERT
  5
EA6E60783
330
EA6E4DC92
100
AcDbEntity
  8
SUNPOU
100
AcDbBlockReference
  2
ARROWANG
 10
127.4777728498229
 20
284.9586257505933
 30
0.0
 41
2.999999999999972
 42
3.0
 43
3.0
 50
137.3505508617194
1001
ACAD
1000
DSTYLE
1002
{
1070
   147
1040
1.0
1070
    77
1070
     0
1002
}
  0
CIRCLE
  5
EA6E60784
330
EA6E4DC92
100
AcDbEntity
  8
JISSEN
 62
     3
100
AcDbCircle
 10
127.4777728498229
 20
284.9586257505933
 30
0.0
 40
0.0000000000003216
  0
LINE
  5
EA6E60785
330
EA6E4DC92
100
AcDbEntity
  8
JISSEN
100
AcDbLine
 10
142.9777728498229
 20
313.9559766906413
 30
0.0
 11
142.9777728498229
 21
296.9559766906413
 31
0.0
  0
LWPOLYLINE
  5
EA6E60786
330
EA6E4DC92
100
AcDbEntity
  8
SAISEN
100
AcDbPolyline
 90
        3
 70
     0
 43
0.0
 10
138.9777728498229
 20
298.9559766906413
 10
142.9777728498229
 20
298.9559766906413
 10
144.9777728498229
 20
296.9559766906413
  0
LWPOLYLINE
  5
EA6E60787
330
EA6E4DC92
100
AcDbEntity
  8
SAISEN
100
AcDbPolyline
 90
        3
 70
     0
 43
0.0
 10
138.9777728498229
 20
311.9559766906411
 10
142.9777728498229
 20
311.9559766906411
 10
144.9777728498229
 20
313.9559766906411
  0
INSERT
  5
EA6E60788
330
EA6E4DC92
100
AcDbEntity
  8
SAISEN
 62
     3
100
AcDbBlockReference
  2
_Open
 10
128.2277728498229
 20
346.2782591589354
 30
0.0
 41
3.999999999999969
 42
4.0
 43
4.0
 50
170.2959223467468
  0
INSERT
  5
EA6E60789
330
EA6E4DC92
100
AcDbEntity
  8
SUNPOU
100
AcDbBlockReference
  2
ARROWANG
 10
170.5895782934985
 20
296.9559766906413
 30
0.0
 41
2.999999999999987
 42
3.0
 43
3.0
 50
128.5019315077516
1001
ACAD
1000
DSTYLE
1002
{
1070
   147
1040
1.0
1070
    77
1070
     0
1002
}
  0
TEXT
  5
EA6E6078A
330
EA6E4DC92
100
AcDbEntity
  8
SUNPOU
100
AcDbText
 10
164.2981232477411
 20
336.7679863854406
 30
0.0
 40
6.0
  1
3
  7
K
 72
     4
 11
166.2981232477411
 21
339.7679863854406
 31
0.0
100
AcDbText
  0
CIRCLE
  5
EA6E6078B
330
EA6E4DC92
100
AcDbEntity
  8
SUNPOU
100
AcDbCircle
 10
166.2981232477411
 20
339.7679863854406
 30
0.0
 40
7.0
  0
LINE
  5
EA6E6078C
330
EA6E4DC92
100
AcDbEntity
  8
SUNPOU
100
AcDbLine
 10
161.4643738929307
 20
364.8310750845325
 30
0.0
 11
136.69302558254
 21
390.7777108087872
 31
0.0
  0
ARC
  5
EA6E6078D
330
EA6E4DC92
100
AcDbEntity
  8
JISSEN
100
AcDbCircle
 10
106.7277728498229
 20
391.3490335887822
 30
0.0
 40
24.42857142857143
100
AcDbArc
 50
11.09122907212247
 51
33.90877092787472
  0
ARC
  5
EA6E6078E
330
EA6E4DC92
100
AcDbEntity
  8
JISSEN
100
AcDbCircle
 10
154.9634802940606
 20
411.3289178028459
 30
0.0
 40
25.71428571428571
100
AcDbArc
 50
183.9577090914039
 51
221.0422909085911
  0
INSERT
  5
EA6E6078F
330
EA6E4DC92
100
AcDbEntity
  8
SAISEN
 62
     3
100
AcDbBlockReference
  2
_Open
 10
136.6930255825397
 20
390.7777108087874
 30
0.0
 41
3.999999999999893
 42
4.0
 43
4.0
 50
133.6725229661616
  0
ARC
  5
EA6E60790
330
EA6E4DC92
100
AcDbEntity
  8
JISSEN
100
AcDbCircle
 10
106.7277728498229
 20
391.3490335887822
 30
0.0
 40
24.42857142857143
100
AcDbArc
 50
326.0912290721216
 51
348.9087709278791
  0
ARC
  5
EA6E60791
330
EA6E4DC92
100
AcDbEntity
  8
JISSEN
100
AcDbCircle
 10
154.9634802940606
 20
371.369149374718
 30
0.0
 40
25.71428571428571
100
AcDbArc
 50
138.9577090914088
 51
176.042290908596
  0
LINE
  5
EA6E60792
330
EA6E4DC92
100
AcDbEntity
  8
JISSEN
100
AcDbLine
 10
128.9277628498227
 20
371.582647448833
 30
0.0
 11
128.9277628498227
 21
362.8490335887819
 31
0.0
  0
LINE
  5
EA6E60793
330
EA6E4DC92
100
AcDbEntity
  8
JISSEN
100
AcDbLine
 10
127.9409762854193
 20
376.80283694723
 30
0.0
 11
127.277241078309
 21
377.4665721543403
 31
0.0
  0
LINE
  5
EA6E60794
330
EA6E4DC92
100
AcDbEntity
  8
JISSEN
100
AcDbLine
 10
132.0134871355371
 20
386.6347478744962
 30
0.0
 11
131.0748238038174
 21
386.6347478744962
 31
0.0
  0
LINE
  5
EA6E60795
330
EA6E4DC92
100
AcDbEntity
  8
JISSEN
100
AcDbLine
 10
132.0134871355371
 20
396.0633193030677
 30
0.0
 11
131.0748238038174
 21
396.0633193030677
 31
0.0
  0
ARC
  5
EA6E60796
330
EA6E4DC92
100
AcDbEntity
  8
JISSEN
100
AcDbCircle
 10
131.0748238038174
 20
391.349033588782
 30
0.0
 40
4.714285714285714
100
AcDbArc
 50
90.0
 51
270.0
  0
ARC
  5
EA6E60797
330
EA6E4DC92
100
AcDbEntity
  8
JISSEN
100
AcDbCircle
 10
132.0134871355371
 20
391.349033588782
 30
0.0
 40
4.714285714285714
100
AcDbArc
 50
270.0
 51
90.0
  0
LINE
  5
EA6E60798
330
EA6E4DC92
100
AcDbEntity
  8
JISSEN
100
AcDbLine
 10
128.927762849823
 20
411.1154197287311
 30
0.0
 11
128.927762849823
 21
419.849033588782
 31
0.0
  0
LINE
  5
EA6E60799
330
EA6E4DC92
100
AcDbEntity
  8
JISSEN
100
AcDbLine
 10
127.9409762854195
 20
405.8952302303338
 30
0.0
 11
127.2772410783093
 21
405.2314950232236
 31
0.0
  0
TEXT
  5
EA6E6079A
330
EA6E4DC92
100
AcDbEntity
  8
TEXT
100
AcDbText
 10
87.7857142020999
 20
525.0000002442358
 30
0.0
 40
6.0
  1
C3604
  7
K
 72
     4
 11
101.4999999163856
 21
528.0000002442358
 31
0.0
100
AcDbText
  0
LINE
  5
EA6E6079B
330
EA6E4DC92
100
AcDbEntity
  8
JISSEN
100
AcDbLine
 10
122.9999999163856
 20
474.0000002442359
 30
0.0
 11
122.9999999163856
 21
546.0000002442358
 31
0.0
  0
LINE
  5
EA6E6079C
330
EA6E4DC92
100
AcDbEntity
  8
JISSEN
100
AcDbLine
 10
79.9999999163856
 20
546.0000002442358
 30
0.0
 11
79.9999999163856
 21
474.0000002442359
 31
0.0
  0
ARC
  5
EA6E6079D
330
EA6E4DC92
100
AcDbEntity
  8
TENSEN
 48
2.0
100
AcDbCircle
 10
98.22777284982294
 20
438.6660391455621
 30
0.0
 40
12.07142857142856
100
AcDbArc
 50
45.23972989608338
 51
134.7602701039166
  0
TEXT
  5
EA6E6079E
330
EA6E4DC92
100
AcDbEntity
  8
TEXT
100
AcDbText
 10
90.49999991638561
 20
489.0000002442357
 30
0.0
 40
6.0
  1
FCMB
  7
K
 72
     4
 11
101.4999999163856
 21
492.0000002442358
 31
0.0
100
AcDbText
  0
TEXT
  5
EA6E6079F
330
EA6E4DC92
100
AcDbEntity
  8
TEXT
100
AcDbText
 10
90.49999991638561
 20
501.0000002442358
 30
0.0
 40
6.0
  1
FCMB
  7
K
 72
     4
 11
101.4999999163856
 21
504.0000002442358
 31
0.0
100
AcDbText
  0
TEXT
  5
EA6E607A0
330
EA6E4DC92
100
AcDbEntity
  8
TEXT
100
AcDbText
 10
89.21428563067133
 20
513.0000002442358
 30
0.0
 40
6.0
  1
C3771
  7
K
 72
     4
 11
101.4999999163856
 21
516.0000002442358
 31
0.0
100
AcDbText
  0
TEXT
  5
EA6E607A1
330
EA6E4DC92
100
AcDbEntity
  8
TEXT
100
AcDbText
 10
93.64285705924274
 20
477.0000002442359
 30
0.0
 40
6.0
  1
SGP
  7
K
 72
     4
 11
101.4999999163856
 21
480.0000002442359
 31
0.0
100
AcDbText
  0
ARC
  5
EA6E607A2
330
EA6E4DC92
100
AcDbEntity
  8
TENSEN
 48
2.0
100
AcDbCircle
 10
115.2277728498229
 20
438.6660391455621
 30
0.0
 40
12.07142857142856
100
AcDbArc
 50
45.23972989608338
 51
134.7602701039166
  0
ARC
  5
EA6E607A3
330
EA6E4DC92
100
AcDbEntity
  8
TENSEN
 48
2.0
100
AcDbCircle
 10
115.2277728498229
 20
455.8088962884194
 30
0.0
 40
12.07142857142859
100
AcDbArc
 50
225.2397298960834
 51
314.7602701039165
  0
TEXT
  5
EA6E607A4
330
EA6E4DC92
100
AcDbEntity
  8
TEXT
100
AcDbText
 10
87.89999991638561
 20
537.0000002442358
 30
0.0
 40
6.0
  1
材    質
  7
K
 72
     4
 11
101.4999999163856
 21
540.0000002442358
 31
0.0
100
AcDbText
  0
TEXT
  5
EA6E607A5
330
EA6E4DC92
100
AcDbEntity
  8
TEXT
100
AcDbText
 10
153.9999999163855
 20
525.0000002442358
 30
0.0
 40
6.0
  1
25A
  7
K
 72
     4
 11
161.9999999163856
 21
528.0000002442358
 31
0.0
100
AcDbText
  0
TEXT
  5
EA6E607A6
330
EA6E4DC92
100
AcDbEntity
  8
TEXT
100
AcDbText
 10
133.2857142020998
 20
525.0000002442358
 30
0.0
 40
6.0
  1
1
  7
K
 72
     4
 11
133.9999999163856
 21
528.0000002442358
 31
0.0
100
AcDbText
  0
LINE
  5
EA6E607A7
330
EA6E4DC92
100
AcDbEntity
  8
JISSEN
100
AcDbLine
 10
144.9999999163856
 20
546.0000002442358
 30
0.0
 11
144.9999999163856
 21
474.0000002442359
 31
0.0
  0
LINE
  5
EA6E607A8
330
EA6E4DC92
100
AcDbEntity
  8
JISSEN
100
AcDbLine
 10
178.9999999163855
 20
474.0000002442359
 30
0.0
 11
178.9999999163855
 21
546.0000002442358
 31
0.0
  0
TEXT
  5
EA6E607A9
330
EA6E4DC92
100
AcDbEntity
  8
TEXT
100
AcDbText
 10
145.5421791866683
 20
489.0000002442357
 30
0.0
 40
6.0
  1
25A×10A
 41
0.8045977011494251
  7
K
 72
     5
 11
177.5421791866683
 21
489.0000002442357
 31
0.0
100
AcDbText
  0
TEXT
  5
EA6E607AA
330
EA6E4DC92
100
AcDbEntity
  8
TEXT
100
AcDbText
 10
146.9314284878141
 20
477.0000002442359
 30
0.0
 40
6.0
  1
10A×75
 41
0.9
  7
K
 72
     4
 11
161.9999999163856
 21
480.0000002442359
 31
0.0
100
AcDbText
  0
TEXT
  5
EA6E607AB
330
EA6E4DC92
100
AcDbEntity
  8
TEXT
100
AcDbText
 10
133.2857142020998
 20
477.0000002442359
 30
0.0
 40
6.0
  1
1
  7
K
 72
     4
 11
133.9999999163856
 21
480.0000002442359
 31
0.0
100
AcDbText
  0
TEXT
  5
EA6E607AC
330
EA6E4DC92
100
AcDbEntity
  8
TEXT
100
AcDbText
 10
133.2857142020998
 20
489.0000002442357
 30
0.0
 40
6.0
  1
1
  7
K
 72
     4
 11
133.9999999163856
 21
492.0000002442358
 31
0.0
100
AcDbText
  0
TEXT
  5
EA6E607AD
330
EA6E4DC92
100
AcDbEntity
  8
TEXT
100
AcDbText
 10
131.9999999163856
 20
501.0000002442358
 30
0.0
 40
6.0
  1
2
  7
K
 72
     4
 11
133.9999999163856
 21
504.0000002442358
 31
0.0
100
AcDbText
  0
TEXT
  5
EA6E607AE
330
EA6E4DC92
100
AcDbEntity
  8
TEXT
100
AcDbText
 10
133.2857142020998
 20
513.0000002442358
 30
0.0
 40
6.0
  1
1
  7
K
 72
     4
 11
133.9999999163856
 21
516.0000002442358
 31
0.0
100
AcDbText
  0
TEXT
  5
EA6E607AF
330
EA6E4DC92
100
AcDbEntity
  8
TEXT
100
AcDbText
 10
153.9999999163855
 20
501.0000002442358
 30
0.0
 40
6.0
  1
25A
  7
K
 72
     4
 11
161.9999999163856
 21
504.0000002442358
 31
0.0
100
AcDbText
  0
TEXT
  5
EA6E607B0
330
EA6E4DC92
100
AcDbEntity
  8
TEXT
100
AcDbText
 10
153.9999999163855
 20
513.0000002442358
 30
0.0
 40
6.0
  1
25A
  7
K
 72
     4
 11
161.9999999163856
 21
516.0000002442358
 31
0.0
100
AcDbText
  0
TEXT
  5
EA6E607B1
330
EA6E4DC92
100
AcDbEntity
  8
TEXT
100
AcDbText
 10
148.3999999163856
 20
537.0000002442358
 30
0.0
 40
6.0
  1
備    考
  7
K
 72
     4
 11
161.9999999163856
 21
540.0000002442358
 31
0.0
100
AcDbText
  0
TEXT
  5
EA6E607B2
330
EA6E4DC92
100
AcDbEntity
  8
TEXT
100
AcDbText
 10
127.5999999163855
 20
537.0000002442358
 30
0.0
 40
6.0
  1
個数
  7
K
 72
     4
 11
133.9999999163856
 21
540.0000002442358
 31
0.0
100
AcDbText
  0
LWPOLYLINE
  5
EA6E607B3
330
EA6E4DC92
100
AcDbEntity
  8
SUNPOU
100
AcDbPolyline
 90
        2
 70
     0
 43
0.0
 10
235.1770342446145
 20
353.4006272189573
 10
307.5089777558669
 20
170.547268756761
1001
ACAD
1000
DSTYLE
1002
{
1070
   147
1040
1.0
1070
    77
1070
     0
1002
}
  0
LINE
  5
EA6E607B4
330
EA6E4DC92
100
AcDbEntity
  8
JISSEN
 62
     3
100
AcDbLine
 10
290.438301175096
 20
170.1228372017565
 30
0.0
 11
219.7277728498229
 21
294.4559766906406
 31
0.0
  0
TEXT
  5
EA6E607B5
330
EA6E4DC92
100
AcDbEntity
  8
TEXT
100
AcDbText
 10
291.9830619177769
 20
161.0188212226799
 30
0.0
 40
6.0
  1
7
  7
K
100
AcDbText
  0
CIRCLE
  5
EA6E607B6
330
EA6E4DC92
100
AcDbEntity
  8
SUNPOU
100
AcDbCircle
 10
293.8988343425869
 20
164.0380438448136
 30
0.0
 40
7.0
  0
TEXT
  5
EA6E607B7
330
EA6E4DC92
100
AcDbEntity
  8
SUNPOU
100
AcDbText
 10
265.6376971982467
 20
4.316525016106197
 30
0.0
 40
6.0
  1
A4 用紙、印刷尺度 1/2
100
AcDbText
  0
TEXT
  5
EA6E607B8
330
EA6E4DC92
100
AcDbEntity
  8
SUNPOU
100
AcDbText
 10
265.6376971982467
 20
14.31652501610619
 30
0.0
 40
6.0
  1
試験装置 SR43 V付
100
AcDbText
  0
CIRCLE
  5
EA6E607B9
330
EA6E4DC92
100
AcDbEntity
  8
SUNPOU
100
AcDbCircle
 10
241.7920517577697
 20
164.0380438448136
 30
0.0
 40
7.0
  0
CIRCLE
  5
EA6E607BA
330
EA6E4DC92
100
AcDbEntity
  8
SUNPOU
100
AcDbCircle
 10
195.1835004122112
 20
164.0380438448136
 30
0.0
 40
7.0
  0
TEXT
  5
EA6E607BB
330
EA6E4DC92
100
AcDbEntity
  8
SUNPOU
100
AcDbText
 10
193.6344552371481
 20
160.9865668258704
 30
0.0
 40
6.0
  1
1
  7
K
 72
     4
 11
194.3487409514339
 21
163.9865668258704
 31
0.0
100
AcDbText
  0
CIRCLE
  5
EA6E607BC
330
EA6E4DC92
100
AcDbEntity
  8
SUNPOU
100
AcDbCircle
 10
224.8337535387788
 20
164.0380438448136
 30
0.0
 40
7.0
  0
TEXT
  5
EA6E607BD
330
EA6E4DC92
100
AcDbEntity
  8
TEXT
100
AcDbText
 10
222.6090363925818
 20
161.2275741983254
 30
0.0
 40
6.0
  1
2
  7
K
100
AcDbText
  0
TEXT
  5
EA6E607BE
330
EA6E4DC92
100
AcDbEntity
  8
TEXT
100
AcDbText
 10
239.7939356405054
 20
160.5665231087813
 30
0.0
 40
6.0
  1
3
  7
K
100
AcDbText
  0
TEXT
  5
EA6E607BF
330
EA6E4DC92
100
AcDbEntity
  8
TEXT
100
AcDbText
 10
256.2391232573372
 20
161.0014251413761
 30
0.0
 40
6.0
  1
4
  7
K
100
AcDbText
  0
CIRCLE
  5
EA6E607C0
330
EA6E4DC92
100
AcDbEntity
  8
SUNPOU
100
AcDbCircle
 10
258.7503499767606
 20
164.0380438448136
 30
0.0
 40
7.0
  0
CIRCLE
  5
EA6E607C1
330
EA6E4DC92
100
AcDbEntity
  8
SUNPOU
100
AcDbCircle
 10
276.3245921596728
 20
164.0380438448136
 30
0.0
 40
7.0
  0
TEXT
  5
EA6E607C2
330
EA6E4DC92
100
AcDbEntity
  8
TEXT
100
AcDbText
 10
274.2391196006296
 20
160.8796525722496
 30
0.0
 40
6.0
  1
5
  7
K
100
AcDbText
  0
CIRCLE
  5
EA6E607C3
330
EA6E4DC92
100
AcDbEntity
  8
SUNPOU
100
AcDbCircle
 10
310.0838546549989
 20
164.0380438448136
 30
0.0
 40
7.0
  0
TEXT
  5
EA6E607C4
330
EA6E4DC92
100
AcDbEntity
  8
TEXT
100
AcDbText
 10
308.0817283382748
 20
160.5317309461738
 30
0.0
 40
6.0
  1
6
  7
K
100
AcDbText
  0
LINE
  5
EA6E607C5
330
EA6E4DC92
100
AcDbEntity
  8
TEXT
100
AcDbLine
 10
295.9999984683856
 20
528.0000002442358
 30
0.0
 11
272.9999984683854
 21
528.0000002442358
 31
0.0
  0
TEXT
  5
EA6E607C6
330
EA6E4DC92
100
AcDbEntity
  8
TEXT
100
AcDbText
 10
272.2142841826713
 20
513.0000002442358
 30
0.0
 40
6.0
  1
C3771
  7
K
 72
     4
 11
284.4999984683856
 21
516.0000002442358
 31
0.0
100
AcDbText
  0
TEXT
  5
EA6E607C7
330
EA6E4DC92
100
AcDbEntity
  8
TEXT
100
AcDbText
 10
270.8999984683856
 20
537.0000002442358
 30
0.0
 40
6.0
  1
材    質
  7
K
 72
     4
 11
284.4999984683856
 21
540.0000002442358
 31
0.0
100
AcDbText
  0
TEXT
  5
EA6E607C8
330
EA6E4DC92
100
AcDbEntity
  8
TEXT
100
AcDbText
 10
269.4999999163856
 20
501.0000002442359
 30
0.0
 40
6.0
  1
CAC911
  7
K
 72
     4
 11
284.4999999163856
 21
504.0000002442359
 31
0.0
100
AcDbText
  0
LINE
  5
EA6E607C9
330
EA6E4DC92
100
AcDbEntity
  8
JISSEN
100
AcDbLine
 10
237.3401220537764
 20
297.3859408747711
 30
0.0
 11
240.1797768856693
 21
281.281458052668
 31
0.0
  0
LINE
  5
EA6E607CA
330
EA6E4DC92
100
AcDbEntity
  8
JISSEN
100
AcDbLine
 10
233.8277728498226
 20
313.455976690641
 30
0.0
 11
238.8275313621245
 21
313.455976690641
 31
0.0
  0
CIRCLE
  5
EA6E607CB
330
EA6E4DC92
100
AcDbEntity
  8
JISSEN
  6
Continuous
100
AcDbCircle
 10
219.7277728498227
 20
392.455976690641
 30
0.0
 40
37.5
  0
CIRCLE
  5
EA6E607CC
330
EA6E4DC92
100
AcDbEntity
  8
JISSEN
100
AcDbCircle
 10
219.7277728498227
 20
392.455976690641
 30
0.0
 40
35.0
  0
LINE
  5
EA6E607CD
330
EA6E4DC92
100
AcDbEntity
  8
JISSEN
100
AcDbLine
 10
237.3078075425078
 20
374.6812086132797
 30
0.0
 11
239.4515142229531
 21
372.5820232277304
 31
0.0
  0
ARC
  5
EA6E607CE
330
EA6E4DC92
100
AcDbEntity
  8
JISSEN
100
AcDbCircle
 10
219.727772849824
 20
392.4559766906505
 30
0.0
 40
28.00000000000125
100
AcDbArc
 50
314.7826520576677
 51
180.0000000000195
  0
ARC
  5
EA6E607CF
330
EA6E4DC92
100
AcDbEntity
  8
JISSEN
100
AcDbCircle
 10
219.7277728498229
 20
392.455976690641
 30
0.0
 40
25.00000000000005
100
AcDbArc
 50
314.6844194460202
 51
90.0
  0
INSERT
  5
EA6E607D0
330
EA6E4DC92
100
AcDbEntity
  8
SUNPOU
100
AcDbBlockReference
  2
ARROWANG
 10
235.1770342446148
 20
353.4006272189569
 30
0.0
 41
2.999999999999958
 42
3.0
 43
3.0
 50
111.5824387273618
1001
ACAD
1000
DSTYLE
1002
{
1070
   147
1040
1.0
1070
    77
1070
     0
1002
}
  0
LINE
  5
EA6E607D1
330
EA6E4DC92
100
AcDbEntity
  8
JISSEN
100
AcDbLine
 10
230.4777728498231
 20
322.455976690641
 30
0.0
 11
208.9777728498231
 21
322.455976690641
 31
0.0
  0
ARC
  5
EA6E607D2
330
EA6E4DC92
100
AcDbEntity
  8
JISSEN
100
AcDbCircle
 10
210.0531586205709
 20
316.2898238492695
 30
0.0
 40
5.879349232940107
100
AcDbArc
 50
71.91219460926667
 51
108.0878053907197
  0
LINE
  5
EA6E607D3
330
EA6E4DC92
100
AcDbEntity
  8
JISSEN
100
AcDbLine
 10
209.2777728498233
 20
331.455976690641
 30
0.0
 11
219.7277728498231
 21
331.455976690641
 31
0.0
  0
LINE
  5
EA6E607D4
330
EA6E4DC92
100
AcDbEntity
  8
JISSEN
  6
Continuous
100
AcDbLine
 10
208.9777728498227
 20
294.455976690641
 30
0.0
 11
230.4777728498227
 21
294.4559766906406
 31
0.0
  0
ARC
  5
EA6E607D5
330
EA6E4DC92
100
AcDbEntity
  8
JISSEN
100
AcDbCircle
 10
202.5812169166135
 20
305.4559766906411
 30
0.0
 40
11.75559126999714
100
AcDbArc
 50
30.62571585058996
 51
58.75041058843679
  0
ARC
  5
EA6E607D6
330
EA6E4DC92
100
AcDbEntity
  8
JISSEN
100
AcDbCircle
 10
210.1873742948116
 20
299.1277453281194
 30
0.0
 40
4.671789972964431
100
AcDbArc
 50
241.7631501484924
 51
305.4499895236028
  0
ARC
  5
EA6E607D7
330
EA6E4DC92
100
AcDbEntity
  8
JISSEN
100
AcDbCircle
 10
202.5812169166135
 20
305.4559766906411
 30
0.0
 40
11.75559126999714
100
AcDbArc
 50
300.4302842044955
 51
328.3121121663188
  0
LINE
  5
EA6E607D8
330
EA6E4DC92
100
AcDbEntity
  8
JISSEN
  6
Continuous
100
AcDbLine
 10
208.7277728498227
 20
300.455976690641
 30
0.0
 11
213.3368081866108
 21
300.455976690641
 31
0.0
  0
LINE
  5
EA6E607D9
330
EA6E4DC92
100
AcDbEntity
  8
JISSEN
  6
Continuous
100
AcDbLine
 10
208.7277728498227
 20
310.455976690641
 30
0.0
 11
213.3368081866108
 21
310.455976690641
 31
0.0
  0
ARC
  5
EA6E607DA
330
EA6E4DC92
100
AcDbEntity
  8
JISSEN
100
AcDbCircle
 10
210.0531586205709
 20
324.3334543974155
 30
0.0
 40
5.879349232938483
100
AcDbArc
 50
251.9121946092666
 51
288.0878053907333
  0
ARC
  5
EA6E607DB
330
EA6E4DC92
100
AcDbEntity
  8
JISSEN
100
AcDbCircle
 10
210.1873742948116
 20
313.7842080531624
 30
0.0
 40
4.671789972964431
100
AcDbArc
 50
54.55001047639354
 51
114.5500104764499
  0
LINE
  5
EA6E607DC
330
EA6E4DC92
100
AcDbEntity
  8
JISSEN
100
AcDbLine
 10
208.9777728498231
 20
318.455976690641
 30
0.0
 11
219.7277728498231
 21
318.455976690641
 31
0.0
  0
LINE
  5
EA6E607DD
330
EA6E4DC92
100
AcDbEntity
  8
JISSEN
100
AcDbLine
 10
195.2277728498227
 20
316.205976690641
 30
0.0
 11
195.2277728498227
 21
305.4559766906411
 31
0.0
  0
LINE
  5
EA6E607DE
330
EA6E4DC92
100
AcDbEntity
  8
JISSEN
100
AcDbLine
 10
194.7277728498227
 20
315.705976690641
 30
0.0
 11
194.7277728498227
 21
305.4559766906411
 31
0.0
  0
LINE
  5
EA6E607DF
330
EA6E4DC92
100
AcDbEntity
  8
JISSEN
100
AcDbLine
 10
194.7277728498227
 20
295.205976690641
 30
0.0
 11
195.2277728498227
 21
294.705976690641
 31
0.0
  0
LINE
  5
EA6E607E0
330
EA6E4DC92
100
AcDbEntity
  8
JISSEN
100
AcDbLine
 10
194.7277728498227
 20
295.205976690641
 30
0.0
 11
194.7277728498227
 21
305.4559766906411
 31
0.0
  0
LINE
  5
EA6E607E1
330
EA6E4DC92
100
AcDbEntity
  8
JISSEN
100
AcDbLine
 10
190.7277728498229
 20
313.9559766906413
 30
0.0
 11
190.7277728498229
 21
296.9559766906413
 31
0.0
  0
LWPOLYLINE
  5
EA6E607E2
330
EA6E4DC92
100
AcDbEntity
  8
SAISEN
100
AcDbPolyline
 90
        3
 70
     0
 43
0.0
 10
188.7277728498229
 20
296.9559766906413
 10
190.7277728498229
 20
298.9559766906413
 10
194.7277728498229
 20
298.9559766906413
  0
LWPOLYLINE
  5
EA6E607E3
330
EA6E4DC92
100
AcDbEntity
  8
SAISEN
100
AcDbPolyline
 90
        3
 70
     0
 43
0.0
 10
188.7277728498229
 20
313.9559766906411
 10
190.7277728498229
 20
311.9559766906411
 10
194.7277728498227
 20
311.9559766906411
  0
LINE
  5
EA6E607E4
330
EA6E4DC92
100
AcDbEntity
  8
JISSEN
  6
Continuous
100
AcDbLine
 10
195.2277728498227
 20
294.705976690641
 30
0.0
 11
208.5447601479306
 21
294.705976690641
 31
0.0
  0
LINE
  5
EA6E607E5
330
EA6E4DC92
100
AcDbEntity
  8
JISSEN
100
AcDbLine
 10
195.2277728498227
 20
294.705976690641
 30
0.0
 11
195.2277728498227
 21
305.4559766906411
 31
0.0
  0
LINE
  5
EA6E607E6
330
EA6E4DC92
100
AcDbEntity
  8
JISSEN
  6
Continuous
100
AcDbLine
 10
207.7277728498227
 20
305.4559766906411
 30
0.0
 11
207.7277728498227
 21
301.4559766906411
 31
0.0
  0
LINE
  5
EA6E607E7
330
EA6E4DC92
100
AcDbEntity
  8
JISSEN
100
AcDbLine
 10
208.9777728498227
 20
294.455976690641
 30
0.0
 11
208.5447601479306
 21
294.705976690641
 31
0.0
  0
ARC
  5
EA6E607E8
330
EA6E4DC92
100
AcDbEntity
  8
JISSEN
  6
Continuous
100
AcDbCircle
 10
208.7277728498227
 20
301.4559766906408
 30
0.0
 40
1.0
100
AcDbArc
 50
180.0
 51
270.0
  0
LINE
  5
EA6E607E9
330
EA6E4DC92
100
AcDbEntity
  8
JISSEN
  6
Continuous
100
AcDbLine
 10
207.7277728498227
 20
305.4559766906411
 30
0.0
 11
207.7277728498227
 21
309.455976690641
 31
0.0
  0
ARC
  5
EA6E607EA
330
EA6E4DC92
100
AcDbEntity
  8
JISSEN
  6
Continuous
100
AcDbCircle
 10
208.7277728498227
 20
309.455976690641
 30
0.0
 40
1.0
100
AcDbArc
 50
90.0
 51
180.0
  0
LINE
  5
EA6E607EB
330
EA6E4DC92
100
AcDbEntity
  8
JISSEN
100
AcDbLine
 10
194.7277728498227
 20
315.705976690641
 30
0.0
 11
195.2277728498227
 21
316.205976690641
 31
0.0
  0
LINE
  5
EA6E607EC
330
EA6E4DC92
100
AcDbEntity
  8
JISSEN
  6
Continuous
100
AcDbLine
 10
195.2277728498227
 20
316.205976690641
 30
0.0
 11
207.4777728498227
 21
316.205976690641
 31
0.0
  0
LINE
  5
EA6E607ED
330
EA6E4DC92
100
AcDbEntity
  8
JISSEN
100
AcDbLine
 10
208.9777728498231
 20
322.455976690641
 30
0.0
 11
208.9777728498231
 21
331.1559766906413
 31
0.0
  0
LINE
  5
EA6E607EE
330
EA6E4DC92
100
AcDbEntity
  8
JISSEN
100
AcDbLine
 10
208.9777728498231
 20
322.3116391233431
 30
0.0
 11
208.2277728498231
 21
321.878626421451
 31
0.0
  0
LINE
  5
EA6E607EF
330
EA6E4DC92
100
AcDbEntity
  8
JISSEN
100
AcDbLine
 10
208.2277728498231
 20
321.878626421451
 30
0.0
 11
208.2277728498231
 21
318.7446518252356
 31
0.0
  0
LINE
  5
EA6E607F0
330
EA6E4DC92
100
AcDbEntity
  8
JISSEN
100
AcDbLine
 10
208.9777728498231
 20
318.3116391233431
 30
0.0
 11
208.2277728498231
 21
318.7446518252356
 31
0.0
  0
LINE
  5
EA6E607F1
330
EA6E4DC92
100
AcDbEntity
  8
JISSEN
100
AcDbLine
 10
208.9777728498227
 20
318.455976690641
 30
0.0
 11
207.4777728498227
 21
317.5899512868565
 31
0.0
  0
LINE
  5
EA6E607F2
330
EA6E4DC92
100
AcDbEntity
  8
JISSEN
100
AcDbLine
 10
207.4777728498227
 20
316.205976690641
 30
0.0
 11
207.4777728498227
 21
317.5899512868565
 31
0.0
  0
LINE
  5
EA6E607F3
330
EA6E4DC92
100
AcDbEntity
  8
JISSEN
100
AcDbLine
 10
207.4777728498227
 20
316.455976690641
 30
0.0
 11
207.4777728498227
 21
317.5899512868565
 31
0.0
  0
LINE
  5
EA6E607F4
330
EA6E4DC92
100
AcDbEntity
  8
JISSEN
100
AcDbLine
 10
208.9777728498231
 20
331.1559766906413
 30
0.0
 11
209.2777728498233
 21
331.455976690641
 31
0.0
  0
LINE
  5
EA6E607F5
330
EA6E4DC92
100
AcDbEntity
  8
JISSEN
100
AcDbLine
 10
214.3368081866108
 20
317.5899512868565
 30
0.0
 11
214.3368081866108
 21
311.455976690641
 31
0.0
  0
LINE
  5
EA6E607F6
330
EA6E4DC92
100
AcDbEntity
  8
JISSEN
100
AcDbLine
 10
212.8969757398001
 20
317.5899512868565
 30
0.0
 11
212.8969757398001
 21
312.6596489524567
 31
0.0
  0
LINE
  5
EA6E607F7
330
EA6E4DC92
100
AcDbEntity
  8
JISSEN
100
AcDbLine
 10
226.5585699598457
 20
317.5899512868565
 30
0.0
 11
226.5585699598452
 21
295.3220020944251
 31
0.0
  0
LINE
  5
EA6E607F8
330
EA6E4DC92
100
AcDbEntity
  8
JISSEN
100
AcDbLine
 10
225.118737513035
 20
317.5899512868565
 30
0.0
 11
225.1187375130346
 21
295.3220020944251
 31
0.0
  0
LINE
  5
EA6E607F9
330
EA6E4DC92
100
AcDbEntity
  8
JISSEN
100
AcDbLine
 10
231.9777728498227
 20
312.4559766906406
 30
0.0
 11
231.9777728498227
 21
317.5899512868563
 31
0.0
  0
ARC
  5
EA6E607FA
330
EA6E4DC92
100
AcDbEntity
  8
JISSEN
100
AcDbCircle
 10
219.7277728498227
 20
311.668231590858
 30
0.0
 40
17.2122549002172
100
AcDbArc
 50
251.7475134716357
 51
288.2524865283642
  0
INSERT
  5
EA6E607FB
330
EA6E4DC92
100
AcDbEntity
  8
SUNPOU
100
AcDbBlockReference
  2
ARROWANG
 10
219.7277728498229
 20
294.4559766906408
 30
0.0
 41
3.000000000000005
 42
3.0
 43
3.0
 50
119.6276808527504
1001
ACAD
1000
DSTYLE
1002
{
1070
   147
1040
1.0
1070
    77
1070
     0
1002
}
  0
ARC
  5
EA6E607FC
330
EA6E4DC92
100
AcDbEntity
  8
JISSEN
100
AcDbCircle
 10
213.3368081866103
 20
299.4559766906408
 30
0.0
 40
1.0
100
AcDbArc
 50
0.0
 51
90.0
  0
LINE
  5
EA6E607FD
330
EA6E4DC92
100
AcDbEntity
  8
JISSEN
100
AcDbLine
 10
212.8969757398001
 20
298.6941097415028
 30
0.0
 11
212.8969757398001
 21
295.3220020944256
 31
0.0
  0
LINE
  5
EA6E607FE
330
EA6E4DC92
100
AcDbEntity
  8
JISSEN
100
AcDbLine
 10
212.8969757398001
 20
295.3220020944256
 30
0.0
 11
214.3368081866108
 21
295.3220020944256
 31
0.0
  0
LINE
  5
EA6E607FF
330
EA6E4DC92
100
AcDbEntity
  8
JISSEN
100
AcDbLine
 10
214.3368081866108
 20
299.4559766906411
 30
0.0
 11
214.3368081866103
 21
295.3220020944256
 31
0.0
  0
ARC
  5
EA6E60800
330
EA6E4DC92
100
AcDbEntity
  8
JISSEN
100
AcDbCircle
 10
213.3368081866108
 20
311.4559766906408
 30
0.0
 40
1.0
100
AcDbArc
 50
270.0
 51
0.0
  0
LWPOLYLINE
  5
EA6E60801
330
EA6E4DC92
100
AcDbEntity
  8
JISSEN
100
AcDbPolyline
 90
       16
 70
     1
 43
0.0
 10
217.0872304063798
 20
305.4567586732447
 42
0.0689212726861089
 10
217.2997954935483
 20
303.9219976001274
 42
0.0809685170767006
 10
217.8587792424079
 20
302.7248226327525
 42
0.1070187297923515
 10
218.8332145144461
 20
301.8002415970331
 42
0.1598118359516122
 10
219.7214629063799
 20
301.5932176732448
 42
0.1373351888463599
 10
220.671966430845
 20
301.8593116210424
 42
0.1070187297923511
 10
221.5841465703522
 20
302.7248226327525
 42
0.0809685170767004
 10
222.1431303192114
 20
303.9219976001274
 42
0.068921272686109
 10
222.3556954063799
 20
305.4567586732447
 42
0.0689212726861093
 10
222.1431303192114
 20
306.9915197463621
 42
0.0809685170767009
 10
221.5841465703522
 20
308.188694713737
 42
0.1070187297923514
 10
220.671966430845
 20
309.0542057254471
 42
0.1373351888463605
 10
219.7214629063799
 20
309.3202996732449
 42
0.1373351888463604
 10
218.7709593819147
 20
309.0542057254471
 42
0.1070187297923513
 10
217.8587792424079
 20
308.188694713737
 42
0.0809685170767004
 10
217.2997954935483
 20
306.9915197463621
 42
0.0689212726861086
  0
INSERT
  5
EA6E60802
330
EA6E4DC92
100
AcDbEntity
  8
JISSEN
100
AcDbBlockReference
  2
*X5
 10
216.5603839063799
 20
310.0227616732449
 30
0.0
 41
0.3512309999999843
 42
0.3512309999999843
 43
0.3512309999999999
 50
270.0
  0
LWPOLYLINE
  5
EA6E60803
330
EA6E4DC92
100
AcDbEntity
  8
JISSEN
100
AcDbPolyline
 90
       16
 70
     1
 43
0.0
 10
216.7359994063801
 20
305.4567586732447
 42
0.0714693076283245
 10
216.9758566149719
 20
303.7872864270063
 42
0.0829154742493596
 10
217.6104214205449
 20
302.4764648108895
 42
0.1067406714191292
 10
218.7085205699647
 20
301.4701243698586
 42
0.1550349022404454
 10
219.7214629063799
 20
301.2419866732447
 42
0.1330639172301401
 10
220.8061210411162
 20
301.5358474952701
 42
0.1067406714191296
 10
221.8325043922147
 20
302.4764648108895
 42
0.0829154742493594
 10
222.4670691977883
 20
303.7872864270063
 42
0.0714693076283241
 10
222.70692640638
 20
305.4567586732447
 42
0.0714693076283252
 10
222.4670691977883
 20
307.1262309194835
 42
0.0829154742493602
 10
221.8325043922147
 20
308.4370525356
 42
0.1067406714191293
 10
220.8061210411162
 20
309.3776698512196
 42
0.1330639172301401
 10
219.7214629063799
 20
309.6715306732448
 42
0.1330639172301399
 10
218.6368047716439
 20
309.3776698512196
 42
0.1067406714191293
 10
217.6104214205449
 20
308.4370525356
 42
0.0829154742493597
 10
216.9758566149719
 20
307.1262309194835
 42
0.0714693076283244
  0
LWPOLYLINE
  5
EA6E60804
330
EA6E4DC92
100
AcDbEntity
  8
JISSEN
100
AcDbPolyline
 90
       13
 70
     0
 43
0.0
 10
218.320786794309
 20
307.3672510739083
 42
0.0770392472783632
 10
218.004455351898
 20
307.2514867214701
 42
0.1060700219635834
 10
217.5115822661953
 20
306.8227266934909
 42
0.085782807107608
 10
217.2028113385442
 20
306.218397236349
 42
0.0754446162298052
 10
217.0872304063798
 20
305.4567586732447
 42
0.0754446162298049
 10
217.2028113385442
 20
304.6951201101405
 42
0.085782807107608
 10
217.5115822661953
 20
304.0907906529986
 42
0.1060700219635838
 10
218.004455351898
 20
303.6620306250196
 42
0.1268223572478406
 10
218.5360582813798
 20
303.5249881732449
 42
0.1268223572478391
 10
219.0676612108616
 20
303.6620306250196
 42
0.1060700219635831
 10
219.5605342965648
 20
304.0907906529986
 42
0.085782807107608
 10
219.8693052242158
 20
304.6951201101405
 42
0.075444616229805
 10
219.9848861563798
 20
305.4567586732447
 42
0.0754446162298053
  0
LWPOLYLINE
  5
EA6E60805
330
EA6E4DC92
100
AcDbEntity
  8
JISSEN
100
AcDbPolyline
 90
        9
 70
     0
 43
0.0
 10
217.6140769063802
 20
305.4567586732447
 42
0.0664511817867678
 10
217.6887809589445
 20
304.8971435134346
 42
0.078999187702239
 10
217.8841189989896
 20
304.4633273857932
 42
0.107159147534158
 10
218.227177736592
 20
304.1262955957608
 42
0.1647051743017312
 10
218.5360582813798
 20
304.0518346732446
 42
0.1416952503384066
 10
218.8663837402425
 20
304.1473637598548
 42
0.1071591475341562
 10
219.18799756377
 20
304.4633273857932
 42
0.0789991877022394
 10
219.3833356038155
 20
304.8971435134346
 42
0.0664511817867652
 10
219.4580396563799
 20
305.4567586732447
 42
0.0664511817867667
  0
LWPOLYLINE
  5
EA6E60806
330
EA6E4DC92
100
AcDbEntity
  8
JISSEN
100
AcDbPolyline
 90
        5
 70
     0
 43
0.0
 10
221.1221390184507
 20
303.5462662725812
 42
0.0770392472783639
 10
221.4384704608617
 20
303.6620306250196
 42
0.1060700219635831
 10
221.9313435465644
 20
304.0907906529986
 42
0.085782807107608
 10
222.2401144742159
 20
304.6951201101405
 42
0.075444616229805
 10
222.3556954063799
 20
305.4567586732447
 42
0.0754446162298053
  0
LWPOLYLINE
  5
EA6E60807
330
EA6E4DC92
100
AcDbEntity
  8
JISSEN
100
AcDbPolyline
 90
       13
 70
     0
 43
0.0
 10
221.1247016934009
 20
304.091439120945
 42
0.0508792192586602
 10
221.2371929902426
 20
304.1473637598548
 42
0.1071591475341562
 10
221.5588068137701
 20
304.4633273857932
 42
0.0789991877022394
 10
221.7541448538152
 20
304.8971435134346
 42
0.0664511817867662
 10
221.82884890638
 20
305.4567586732447
 42
0.0664511817867667
 10
221.7541448538152
 20
306.0163738330549
 42
0.0789991877022392
 10
221.5588068137701
 20
306.4501899606966
 42
0.1071591475341592
 10
221.2371929902426
 20
306.7661535866347
 42
0.141695250338409
 10
220.9068675313799
 20
306.8616826732449
 42
0.1416952503384097
 10
220.5765420725172
 20
306.7661535866347
 42
0.1071591475341602
 10
220.2549282489897
 20
306.4501899606966
 42
0.0789991877022377
 10
220.0595902089446
 20
306.0163738330549
 42
0.0664511817867672
 10
219.9848861563798
 20
305.4567586732447
 42
0.0664511817867678
  0
LINE
  5
EA6E60808
330
EA6E4DC92
100
AcDbEntity
  8
JISSEN
100
AcDbLine
 10
221.1247016934009
 20
304.091439120945
 30
0.0
 11
221.1247016934009
 21
304.4426701209451
 31
0.0
  0
LINE
  5
EA6E60809
330
EA6E4DC92
100
AcDbEntity
  8
JISSEN
100
AcDbLine
 10
220.7734706934008
 20
304.4426701209451
 30
0.0
 11
220.7734706934008
 21
303.213361620945
 31
0.0
  0
LINE
  5
EA6E6080A
330
EA6E4DC92
100
AcDbEntity
  8
JISSEN
100
AcDbLine
 10
221.1247016934009
 20
304.4426701209451
 30
0.0
 11
220.7734706934008
 21
304.4426701209451
 31
0.0
  0
LINE
  5
EA6E6080B
330
EA6E4DC92
100
AcDbEntity
  8
JISSEN
100
AcDbLine
 10
220.7734706934008
 20
303.213361620945
 30
0.0
 11
221.1247016934009
 21
303.213361620945
 31
0.0
  0
LINE
  5
EA6E6080C
330
EA6E4DC92
100
AcDbEntity
  8
JISSEN
100
AcDbLine
 10
221.1247016934009
 20
303.213361620945
 30
0.0
 11
221.1221390184507
 21
303.5462662725814
 31
0.0
  0
LWPOLYLINE
  5
EA6E6080D
330
EA6E4DC92
100
AcDbEntity
  8
JISSEN
100
AcDbPolyline
 90
        9
 70
     0
 43
0.0
 10
222.3556954063799
 20
305.4567586732447
 42
0.0754446162298053
 10
222.2401144742159
 20
306.218397236349
 42
0.0857828071076088
 10
221.9313435465644
 20
306.8227266934909
 42
0.1060700219635837
 10
221.4027812324382
 20
307.2825334858832
 42
0.1480812953266344
 10
220.9068675313799
 20
307.3885291732446
 42
0.1268223572478397
 10
220.3752646018981
 20
307.2514867214701
 42
0.1060700219635834
 10
219.8823915161954
 20
306.8227266934909
 42
0.085782807107608
 10
219.5736205885439
 20
306.218397236349
 42
0.0754446162298056
 10
219.4580396563799
 20
305.4567586732447
 42
0.0754446162298049
  0
LINE
  5
EA6E6080E
330
EA6E4DC92
100
AcDbEntity
  8
JISSEN
100
AcDbLine
 10
218.3182241193592
 20
306.4708472255446
 30
0.0
 11
218.6694551193593
 21
306.4708472255446
 31
0.0
  0
LWPOLYLINE
  5
EA6E6080F
330
EA6E4DC92
100
AcDbEntity
  8
JISSEN
100
AcDbPolyline
 90
        5
 70
     0
 43
0.0
 10
218.3182241193592
 20
306.8220782255445
 42
0.0508792192586596
 10
218.2057328225175
 20
306.7661535866347
 42
0.1071591475341602
 10
217.8841189989896
 20
306.4501899606966
 42
0.0789991877022377
 10
217.6887809589445
 20
306.0163738330549
 42
0.0664511817867672
 10
217.6140769063802
 20
305.4567586732447
 42
0.0664511817867678
  0
LINE
  5
EA6E60810
330
EA6E4DC92
100
AcDbEntity
  8
JISSEN
100
AcDbLine
 10
218.3182241193592
 20
306.8220782255445
 30
0.0
 11
218.3182241193592
 21
306.4708472255446
 31
0.0
  0
LINE
  5
EA6E60811
330
EA6E4DC92
100
AcDbEntity
  8
JISSEN
100
AcDbLine
 10
218.6694551193593
 20
307.7001557255445
 30
0.0
 11
218.3182241193592
 21
307.7001557255445
 31
0.0
  0
LINE
  5
EA6E60812
330
EA6E4DC92
100
AcDbEntity
  8
JISSEN
100
AcDbLine
 10
218.3182241193592
 20
307.7001557255445
 30
0.0
 11
218.3207867943094
 21
307.3672510739085
 31
0.0
  0
LINE
  5
EA6E60813
330
EA6E4DC92
100
AcDbEntity
  8
JISSEN
100
AcDbLine
 10
218.6694551193593
 20
306.4708472255446
 30
0.0
 11
218.6694551193593
 21
307.7001557255445
 31
0.0
  0
LWPOLYLINE
  5
EA6E60814
330
EA6E4DC92
100
AcDbEntity
  8
JISSEN
100
AcDbPolyline
 90
        2
 70
     0
 43
0.0
 10
219.9848861563798
 20
305.4567586732447
 42
0.003443646303572
 10
219.9846426073757
 20
305.4921203356706
 42
0.0857828071076088
  0
ARC
  5
EA6E60815
330
EA6E4DC92
100
AcDbEntity
  8
JISSEN
100
AcDbCircle
 10
229.2681714048337
 20
299.1277453281192
 30
0.0
 40
4.671789972964431
100
AcDbArc
 50
234.5500104763971
 51
294.5500104764357
  0
LINE
  5
EA6E60816
330
EA6E4DC92
100
AcDbEntity
  8
JISSEN
100
AcDbLine
 10
230.4777728498227
 20
294.4559766906406
 30
0.0
 11
231.9777728498227
 21
295.3220020944251
 31
0.0
  0
ARC
  5
EA6E60817
330
EA6E4DC92
100
AcDbEntity
  8
JISSEN
100
AcDbCircle
 10
236.4117892724241
 20
305.4559766906406
 30
0.0
 40
7.157736980972463
100
AcDbArc
 50
132.0791917640714
 51
226.6754408424862
  0
LINE
  5
EA6E60818
330
EA6E4DC92
100
AcDbEntity
  8
JISSEN
100
AcDbLine
 10
226.5585699598457
 20
295.3220020944251
 30
0.0
 11
225.118737513035
 21
295.3220020944251
 31
0.0
  0
LINE
  5
EA6E60819
330
EA6E4DC92
100
AcDbEntity
  8
JISSEN
100
AcDbLine
 10
233.3277728498226
 20
297.9473253221987
 30
0.0
 11
233.327772849823
 21
305.4559766906411
 31
0.0
  0
LINE
  5
EA6E6081A
330
EA6E4DC92
100
AcDbEntity
  8
JISSEN
100
AcDbLine
 10
233.8190466466041
 20
297.4474014746208
 30
0.0
 11
237.3401220537764
 21
297.3859408747711
 31
0.0
  0
ARC
  5
EA6E6081B
330
EA6E4DC92
100
AcDbEntity
  8
JISSEN
100
AcDbCircle
 10
233.4777728498227
 20
298.4559766906408
 30
0.0
 40
1.5
100
AcDbArc
 50
95.73917047726149
 51
180.0
  0
LINE
  5
EA6E6081C
330
EA6E4DC92
100
AcDbEntity
  8
JISSEN
100
AcDbLine
 10
231.9777728498227
 20
298.455976690641
 30
0.0
 11
231.9777728498227
 21
295.3220020944251
 31
0.0
  0
ARC
  5
EA6E6081D
330
EA6E4DC92
100
AcDbEntity
  8
JISSEN
100
AcDbCircle
 10
233.8277728498226
 20
297.9473253221987
 30
0.0
 40
0.5
100
AcDbArc
 50
180.0
 51
268.9999999999982
  0
LINE
  5
EA6E6081E
330
EA6E4DC92
100
AcDbEntity
  8
JISSEN
100
AcDbLine
 10
233.3277728498226
 20
312.9646280590829
 30
0.0
 11
233.327772849823
 21
305.4559766906411
 31
0.0
  0
ARC
  5
EA6E6081F
330
EA6E4DC92
100
AcDbEntity
  8
JISSEN
100
AcDbCircle
 10
233.4777728498227
 20
312.4559766906406
 30
0.0
 40
1.5
100
AcDbArc
 50
180.0
 51
264.2608295227253
  0
ARC
  5
EA6E60820
330
EA6E4DC92
100
AcDbEntity
  8
JISSEN
100
AcDbCircle
 10
233.8277728498226
 20
312.9559766906408
 30
0.0
 40
0.5
100
AcDbArc
 50
90.0
 51
180.0
  0
LINE
  5
EA6E60821
330
EA6E4DC92
100
AcDbEntity
  8
JISSEN
100
AcDbLine
 10
230.1777728498229
 20
331.455976690641
 30
0.0
 11
219.7277728498231
 21
331.455976690641
 31
0.0
  0
LINE
  5
EA6E60822
330
EA6E4DC92
100
AcDbEntity
  8
JISSEN
100
AcDbLine
 10
227.5770013083272
 20
322.022963988749
 30
0.0
 11
223.0818748160729
 21
322.022963988749
 31
0.0
  0
ARC
  5
EA6E60823
330
EA6E4DC92
100
AcDbEntity
  8
JISSEN
100
AcDbCircle
 10
219.7277728498227
 20
301.2437217904236
 30
0.0
 40
17.2122549002172
100
AcDbArc
 50
71.74751347163574
 51
108.2524865283642
  0
LINE
  5
EA6E60824
330
EA6E4DC92
100
AcDbEntity
  8
JISSEN
100
AcDbLine
 10
230.4777728498231
 20
318.455976690641
 30
0.0
 11
219.7277728498231
 21
318.4559766906413
 31
0.0
  0
LINE
  5
EA6E60825
330
EA6E4DC92
100
AcDbEntity
  8
JISSEN
100
AcDbLine
 10
227.5770013083272
 20
318.8889893925335
 30
0.0
 11
223.0818748160729
 21
318.8889893925335
 31
0.0
  0
ARC
  5
EA6E60826
330
EA6E4DC92
100
AcDbEntity
  8
JISSEN
100
AcDbCircle
 10
219.7277728498227
 20
359.518476690641
 30
0.0
 40
19.06249999999997
100
AcDbArc
 50
243.5189601696198
 51
296.4810398303662
  0
LINE
  5
EA6E60827
330
EA6E4DC92
100
AcDbEntity
  8
JISSEN
100
AcDbLine
 10
211.2277728498227
 20
340.455976690641
 30
0.0
 11
228.2277728498227
 21
340.455976690641
 31
0.0
  0
LINE
  5
EA6E60828
330
EA6E4DC92
100
AcDbEntity
  8
JISSEN
100
AcDbLine
 10
212.2571846145287
 20
331.4559766906413
 30
0.0
 11
227.1983610851168
 21
331.455976690641
 31
0.0
  0
LINE
  5
EA6E60829
330
EA6E4DC92
100
AcDbEntity
  8
JISSEN
100
AcDbLine
 10
212.8471485184068
 20
338.455976690641
 30
0.0
 11
226.6083971812388
 21
338.455976690641
 31
0.0
  0
LINE
  5
EA6E6082A
330
EA6E4DC92
100
AcDbEntity
  8
JISSEN
100
AcDbLine
 10
211.7277728498227
 20
340.455976690641
 30
0.0
 11
212.2571846145285
 21
331.455976690641
 31
0.0
  0
LINE
  5
EA6E6082B
330
EA6E4DC92
100
AcDbEntity
  8
HATCH
100
AcDbLine
 10
212.8471485184068
 20
338.455976690641
 30
0.0
 11
213.258913224289
 21
331.455976690641
 31
0.0
  0
LINE
  5
EA6E6082C
330
EA6E4DC92
100
AcDbEntity
  8
JISSEN
100
AcDbLine
 10
211.8785443913191
 20
322.022963988749
 30
0.0
 11
216.3736708835733
 21
322.022963988749
 31
0.0
  0
LINE
  5
EA6E6082D
330
EA6E4DC92
100
AcDbEntity
  8
JISSEN
100
AcDbLine
 10
211.8785443913191
 20
318.8889893925335
 30
0.0
 11
216.3736708835733
 21
318.8889893925335
 31
0.0
  0
LINE
  5
EA6E6082E
330
EA6E4DC92
100
AcDbEntity
  8
JISSEN
100
AcDbLine
 10
211.8785443913191
 20
322.022963988749
 30
0.0
 11
211.8785443913191
 21
318.8889893925335
 31
0.0
  0
LINE
  5
EA6E6082F
330
EA6E4DC92
100
AcDbEntity
  8
JISSEN
100
AcDbLine
 10
212.8969757398001
 20
317.5899512868565
 30
0.0
 11
214.3368081866108
 21
317.5899512868565
 31
0.0
  0
ARC
  5
EA6E60830
330
EA6E4DC92
100
AcDbEntity
  8
JISSEN
100
AcDbCircle
 10
219.7277728498231
 20
302.6817299708968
 30
0.0
 40
19.62990915244717
100
AcDbArc
 50
80.16177301475156
 51
90.0
  0
ARC
  5
EA6E60831
330
EA6E4DC92
100
AcDbEntity
  8
JISSEN
100
AcDbCircle
 10
219.7277728498231
 20
338.2302234103817
 30
0.0
 40
19.62990915244282
100
AcDbArc
 50
270.0
 51
279.8382269852484
  0
ARC
  5
EA6E60832
330
EA6E4DC92
100
AcDbEntity
  8
JISSEN
100
AcDbCircle
 10
219.7277728498231
 20
302.6817299708968
 30
0.0
 40
19.62990915244717
100
AcDbArc
 50
90.0
 51
99.83822698523521
  0
LINE
  5
EA6E60833
330
EA6E4DC92
100
AcDbEntity
  8
JISSEN
100
AcDbLine
 10
216.3736708835733
 20
322.022963988749
 30
0.0
 11
216.3736708835733
 21
318.8889893925335
 31
0.0
  0
ARC
  5
EA6E60834
330
EA6E4DC92
100
AcDbEntity
  8
JISSEN
100
AcDbCircle
 10
219.7277728498231
 20
338.2302234103817
 30
0.0
 40
19.62990915244282
100
AcDbArc
 50
260.1617730147515
 51
270.0
  0
LINE
  5
EA6E60835
330
EA6E4DC92
100
AcDbEntity
  8
JISSEN
100
AcDbLine
 10
223.0818748160729
 20
322.022963988749
 30
0.0
 11
223.0818748160729
 21
318.8889893925335
 31
0.0
  0
LINE
  5
EA6E60836
330
EA6E4DC92
100
AcDbEntity
  8
JISSEN
100
AcDbLine
 10
211.2277728498227
 20
351.3250880544835
 30
0.0
 11
211.2277728498227
 21
340.455976690641
 31
0.0
  0
LINE
  5
EA6E60837
330
EA6E4DC92
100
AcDbEntity
  8
HATCH
100
AcDbLine
 10
211.7277728498227
 20
340.455976690641
 30
0.0
 11
212.8471485184068
 21
338.455976690641
 31
0.0
  0
LINE
  5
EA6E60838
330
EA6E4DC92
100
AcDbEntity
  8
JISSEN
100
AcDbLine
 10
227.1983610851168
 20
331.455976690641
 30
0.0
 11
227.7277728498227
 21
340.455976690641
 31
0.0
  0
LINE
  5
EA6E60839
330
EA6E4DC92
100
AcDbEntity
  8
HATCH
100
AcDbLine
 10
226.1966324753566
 20
331.455976690641
 30
0.0
 11
226.6083971812388
 21
338.455976690641
 31
0.0
  0
ARC
  5
EA6E6083A
330
EA6E4DC92
100
AcDbEntity
  8
JISSEN
100
AcDbCircle
 10
229.4023870790749
 20
316.4341614165675
 30
0.0
 40
5.879349232940107
100
AcDbArc
 50
71.91219460926667
 51
108.0878053907197
  0
LINE
  5
EA6E6083B
330
EA6E4DC92
100
AcDbEntity
  8
JISSEN
100
AcDbLine
 10
230.4777728498231
 20
322.455976690641
 30
0.0
 11
231.2277728498231
 21
322.022963988749
 31
0.0
  0
ARC
  5
EA6E6083C
330
EA6E4DC92
100
AcDbEntity
  8
JISSEN
100
AcDbCircle
 10
229.4023870790749
 20
324.4777919647137
 30
0.0
 40
5.879349232938483
100
AcDbArc
 50
251.9121946092666
 51
288.0878053907197
  0
ARC
  5
EA6E6083D
330
EA6E4DC92
100
AcDbEntity
  8
JISSEN
100
AcDbCircle
 10
229.2681714048337
 20
313.7842080531622
 30
0.0
 40
4.671789972964431
100
AcDbArc
 50
65.4499895235501
 51
125.4499895236028
  0
LINE
  5
EA6E6083E
330
EA6E4DC92
100
AcDbEntity
  8
JISSEN
100
AcDbLine
 10
230.4777728498231
 20
318.455976690641
 30
0.0
 11
231.2277728498231
 21
318.8889893925335
 31
0.0
  0
LINE
  5
EA6E6083F
330
EA6E4DC92
100
AcDbEntity
  8
JISSEN
100
AcDbLine
 10
230.4777728498227
 20
318.4559766906406
 30
0.0
 11
231.9777728498227
 21
317.5899512868563
 31
0.0
  0
LINE
  5
EA6E60840
330
EA6E4DC92
100
AcDbEntity
  8
JISSEN
100
AcDbLine
 10
230.4777728498231
 20
322.455976690641
 30
0.0
 11
230.4777728498231
 21
331.1559766906413
 31
0.0
  0
LINE
  5
EA6E60841
330
EA6E4DC92
100
AcDbEntity
  8
JISSEN
100
AcDbLine
 10
226.5585699598457
 20
317.5899512868565
 30
0.0
 11
225.118737513035
 21
317.5899512868565
 31
0.0
  0
LINE
  5
EA6E60842
330
EA6E4DC92
100
AcDbEntity
  8
JISSEN
100
AcDbLine
 10
227.5770013083272
 20
322.022963988749
 30
0.0
 11
227.5770013083272
 21
318.8889893925335
 31
0.0
  0
LINE
  5
EA6E60843
330
EA6E4DC92
100
AcDbEntity
  8
JISSEN
100
AcDbLine
 10
230.4777728498231
 20
331.1559766906413
 30
0.0
 11
230.1777728498229
 21
331.455976690641
 31
0.0
  0
LINE
  5
EA6E60844
330
EA6E4DC92
100
AcDbEntity
  8
JISSEN
100
AcDbLine
 10
231.2277728498231
 20
322.022963988749
 30
0.0
 11
231.2277728498231
 21
318.8889893925335
 31
0.0
  0
LINE
  5
EA6E60845
330
EA6E4DC92
100
AcDbEntity
  8
JISSEN
100
AcDbLine
 10
228.2277728498227
 20
340.455976690641
 30
0.0
 11
228.2277728498227
 21
351.3250880544835
 31
0.0
  0
LINE
  5
EA6E60846
330
EA6E4DC92
100
AcDbEntity
  8
HATCH
100
AcDbLine
 10
226.6083971812388
 20
338.455976690641
 30
0.0
 11
227.7277728498227
 21
340.455976690641
 31
0.0
  0
LINE
  5
EA6E60847
330
EA6E4DC92
100
AcDbEntity
  8
JISSEN
100
AcDbLine
 10
196.9881001942406
 20
369.7163040350564
 30
0.0
 11
218.0719220155631
 21
389.3859122940088
 31
0.0
  0
LINE
  5
EA6E60848
330
EA6E4DC92
100
AcDbEntity
  8
JISSEN
100
AcDbLine
 10
196.9881001942394
 20
369.7163040350578
 30
0.0
 11
216.6491731999974
 21
390.7909769320537
 31
0.0
  0
ARC
  5
EA6E60849
330
EA6E4DC92
100
AcDbEntity
  8
JISSEN
100
AcDbCircle
 10
219.7277728498227
 20
392.455976690641
 30
0.0
 40
25.0
100
AcDbArc
 50
90.0
 51
224.6844194460194
  0
ARC
  5
EA6E6084A
330
EA6E4DC92
100
AcDbEntity
  8
JISSEN
100
AcDbCircle
 10
219.7277728498229
 20
392.4559766906395
 30
0.0
 40
28.00000000000017
100
AcDbArc
 50
179.9999999999967
 51
225.2173479423138
  0
LINE
  5
EA6E6084B
330
EA6E4DC92
100
AcDbEntity
  8
JISSEN
100
AcDbLine
 10
202.1477381571376
 20
374.6812086132797
 30
0.0
 11
200.0040314766924
 21
372.5820232277304
 31
0.0
  0
LINE
  5
EA6E6084C
330
EA6E4DC92
100
AcDbEntity
  8
JISSEN
100
AcDbLine
 10
222.9143845446888
 20
393.9035629250822
 30
0.0
 11
231.688838115358
 21
402.0894632748404
 31
0.0
  0
LINE
  5
EA6E6084D
330
EA6E4DC92
100
AcDbEntity
  8
JISSEN
100
AcDbLine
 10
221.1753590842638
 20
395.6425883855071
 30
0.0
 11
229.361259434022
 21
404.4170419561764
 31
0.0
  0
CIRCLE
  5
EA6E6084E
330
EA6E4DC92
100
AcDbEntity
  8
JISSEN
100
AcDbCircle
 10
219.7277728498227
 20
392.455976690641
 30
0.0
 40
3.5
  0
CIRCLE
  5
EA6E6084F
330
EA6E4DC92
100
AcDbEntity
  8
JISSEN
100
AcDbCircle
 10
219.7277728498227
 20
392.455976690641
 30
0.0
 40
2.5
  0
LINE
  5
EA6E60850
330
EA6E4DC92
100
AcDbEntity
  8
JISSEN
100
AcDbLine
 10
229.7123269814196
 20
402.4405308222378
 30
0.0
 11
231.688838115358
 21
402.0894632748404
 31
0.0
  0
LINE
  5
EA6E60851
330
EA6E4DC92
100
AcDbEntity
  8
JISSEN
100
AcDbLine
 10
229.361259434022
 20
404.4170419561764
 30
0.0
 11
229.7123269814196
 21
402.4405308222378
 31
0.0
  0
LINE
  5
EA6E60852
330
EA6E4DC92
100
AcDbEntity
  8
JISSEN
100
AcDbLine
 10
248.827772849823
 20
281.6877898899362
 30
0.0
 11
248.8277728498226
 21
305.4559766906411
 31
0.0
  0
LINE
  5
EA6E60853
330
EA6E4DC92
100
AcDbEntity
  8
JISSEN
100
AcDbLine
 10
241.1994841353841
 20
280.4557154033156
 30
0.0
 11
247.8626723465256
 21
280.688399062917
 31
0.0
  0
ARC
  5
EA6E60854
330
EA6E4DC92
100
AcDbEntity
  8
JISSEN
100
AcDbCircle
 10
241.1645846386816
 20
281.4551062303345
 30
0.0
 40
1.0
100
AcDbArc
 50
189.9999999999975
 51
271.9999999999906
  0
ARC
  5
EA6E60855
330
EA6E4DC92
100
AcDbEntity
  8
JISSEN
100
AcDbCircle
 10
247.8277728498226
 20
281.687789889936
 30
0.0
 40
1.0
100
AcDbArc
 50
271.9999999999906
 51
0.0
  0
LINE
  5
EA6E60856
330
EA6E4DC92
100
AcDbEntity
  8
JISSEN
100
AcDbLine
 10
239.3275313621245
 20
311.6043489577143
 30
0.0
 11
247.8277728498226
 21
311.455976690641
 31
0.0
  0
LINE
  5
EA6E60857
330
EA6E4DC92
100
AcDbEntity
  8
JISSEN
100
AcDbLine
 10
239.3275313621245
 20
299.3076044235674
 30
0.0
 11
247.827772849823
 21
299.4559766906411
 31
0.0
  0
LINE
  5
EA6E60858
330
EA6E4DC92
100
AcDbEntity
  8
JISSEN
100
AcDbLine
 10
239.3275313621245
 20
298.652401029845
 30
0.0
 11
239.3275313621245
 21
305.4559766906411
 31
0.0
  0
ARC
  5
EA6E60859
330
EA6E4DC92
100
AcDbEntity
  8
JISSEN
100
AcDbCircle
 10
238.140150004727
 20
298.8155393269973
 30
0.0
 40
1.198536020273432
100
AcDbArc
 50
265.891233838159
 51
352.1769210358581
  0
LINE
  5
EA6E6085A
330
EA6E4DC92
100
AcDbEntity
  8
JISSEN
100
AcDbLine
 10
239.3275313621245
 20
312.955976690641
 30
0.0
 11
239.3275313621245
 21
305.4559766906411
 31
0.0
  0
ARC
  5
EA6E6085B
330
EA6E4DC92
100
AcDbEntity
  8
JISSEN
100
AcDbCircle
 10
238.8275313621245
 20
312.9559766906408
 30
0.0
 40
0.5
100
AcDbArc
 50
0.0
 51
90.0
  0
ARC
  5
EA6E6085C
330
EA6E4DC92
100
AcDbEntity
  8
JISSEN
100
AcDbCircle
 10
220.3277728498226
 20
305.4559766906408
 30
0.0
 40
30.0
100
AcDbArc
 50
351.2257103521542
 51
0.0
  0
ARC
  5
EA6E6085D
330
EA6E4DC92
100
AcDbEntity
  8
JISSEN
100
AcDbCircle
 10
247.8277728498226
 20
300.4559766906408
 30
0.0
 40
1.0
100
AcDbArc
 50
270.0
 51
315.3757911071985
  0
LWPOLYLINE
  5
EA6E6085E
330
EA6E4DC92
100
AcDbEntity
  8
JISSEN
100
AcDbPolyline
 90
        2
 70
     0
 43
0.0
 10
248.8277728498226
 20
300.9559778616863
 10
248.8277728498226
 20
297.9559766906409
  0
LINE
  5
EA6E6085F
330
EA6E4DC92
100
AcDbEntity
  8
JISSEN
100
AcDbLine
 10
248.8277728498226
 20
300.955976690641
 30
0.0
 11
248.8277728498226
 21
300.455976690641
 31
0.0
  0
ARC
  5
EA6E60860
330
EA6E4DC92
100
AcDbEntity
  8
JISSEN
100
AcDbCircle
 10
249.482532324049
 20
300.9559766906408
 30
0.0
 40
0.5
100
AcDbArc
 50
270.0
 51
351.2257103521542
  0
LINE
  5
EA6E60861
330
EA6E4DC92
100
AcDbEntity
  8
JISSEN
100
AcDbLine
 10
248.8277728498226
 20
300.455976690641
 30
0.0
 11
249.4825323240495
 21
300.455976690641
 31
0.0
  0
ARC
  5
EA6E60862
330
EA6E4DC92
100
AcDbEntity
  8
JISSEN
100
AcDbCircle
 10
247.8277728498226
 20
310.4559766906408
 30
0.0
 40
1.0
100
AcDbArc
 50
0.0
 51
90.0
  0
LINE
  5
EA6E60863
330
EA6E4DC92
100
AcDbEntity
  8
JISSEN
100
AcDbLine
 10
248.8277728498226
 20
310.455976690641
 30
0.0
 11
248.8277728498226
 21
305.4559766906411
 31
0.0
  0
ARC
  5
EA6E60864
330
EA6E4DC92
100
AcDbEntity
  8
JISSEN
100
AcDbCircle
 10
220.3277728498226
 20
305.4559766906408
 30
0.0
 40
30.0
100
AcDbArc
 50
0.0
 51
8.774289647845732
  0
ARC
  5
EA6E60865
330
EA6E4DC92
100
AcDbEntity
  8
JISSEN
100
AcDbCircle
 10
249.482532324049
 20
309.9559766906408
 30
0.0
 40
0.5
100
AcDbArc
 50
8.774289647845732
 51
90.0
  0
LINE
  5
EA6E60866
330
EA6E4DC92
100
AcDbEntity
  8
JISSEN
100
AcDbLine
 10
248.8277728498226
 20
310.455976690641
 30
0.0
 11
249.4825323240495
 21
310.455976690641
 31
0.0
  0
TEXT
  5
EA6E60867
330
EA6E4DC92
100
AcDbEntity
  8
TEXT
100
AcDbText
 10
209.7839813814497
 20
501.0000002442359
 30
0.0
 40
6.0
  1
スリース弁
  7
K
 72
     4
 11
227.1839813814497
 21
504.0000002442359
 31
0.0
100
AcDbText
  0
TEXT
  5
EA6E60868
330
EA6E4DC92
100
AcDbEntity
  8
TEXT
100
AcDbText
 10
215.7999984683856
 20
513.0000002442358
 30
0.0
 40
6.0
  1
アングル弁
  7
K
 72
     4
 11
232.9999984683857
 21
516.0000002442358
 31
0.0
100
AcDbText
  0
TEXT
  5
EA6E60869
330
EA6E4DC92
100
AcDbEntity
  8
TEXT
100
AcDbText
 10
215.7999984683856
 20
525.0000002442358
 30
0.0
 40
6.0
  1
圧　力　計
  7
K
 72
     4
 11
232.9999984683857
 21
528.0000002442358
 31
0.0
100
AcDbText
  0
TEXT
  5
EA6E6086A
330
EA6E4DC92
100
AcDbEntity
  8
TEXT
100
AcDbText
 10
215.7999984683856
 20
537.0000002442358
 30
0.0
 40
6.0
  1
名      称
  7
K
 72
     4
 11
232.9999984683857
 21
540.0000002442358
 31
0.0
100
AcDbText
  0
LINE
  5
EA6E6086B
330
EA6E4DC92
100
AcDbEntity
  8
JISSEN
100
AcDbLine
 10
202.9999984683856
 20
546.0000002442358
 30
0.0
 11
202.9999984683856
 21
498.0000002442359
 31
0.0
  0
TEXT
  5
EA6E6086C
330
EA6E4DC92
100
AcDbEntity
  8
TEXT
100
AcDbText
 10
189.1428563352426
 20
525.0000002442358
 30
0.0
 40
6.0
  1
6
  7
K
 72
     4
 11
190.9999991923855
 21
528.0000002442358
 31
0.0
100
AcDbText
  0
TEXT
  5
EA6E6086D
330
EA6E4DC92
100
AcDbEntity
  8
TEXT
100
AcDbText
 10
189.0000006403854
 20
501.0000002442359
 30
0.0
 40
6.0
  1
8
  7
K
 72
     4
 11
191.0000006403854
 21
504.0000002442359
 31
0.0
100
AcDbText
  0
TEXT
  5
EA6E6086E
330
EA6E4DC92
100
AcDbEntity
  8
TEXT
100
AcDbText
 10
188.9999991923855
 20
513.0000002442358
 30
0.0
 40
6.0
  1
7
  7
K
 72
     4
 11
190.9999991923855
 21
516.0000002442358
 31
0.0
100
AcDbText
  0
TEXT
  5
EA6E6086F
330
EA6E4DC92
100
AcDbEntity
  8
TEXT
100
AcDbText
 10
184.5999991923855
 20
537.0000002442358
 30
0.0
 40
6.0
  1
番号
  7
K
 72
     4
 11
190.9999991923855
 21
540.0000002442358
 31
0.0
100
AcDbText
  0
LINE
  5
EA6E60870
330
EA6E4DC92
100
AcDbEntity
  8
JISSEN
100
AcDbLine
 10
262.9999984683856
 20
546.0000002442358
 30
0.0
 11
262.9999984683856
 21
498.0000002442359
 31
0.0
  0
TEXT
  5
EA6E60871
330
EA6E4DC92
100
AcDbEntity
  8
TEXT
100
AcDbText
 10
249.2760146648766
 20
500.7733113434191
 30
0.0
 40
5.0
  1
※1
 41
0.9
  7
K
 72
     4
 11
252.6617289505909
 21
503.2733113434192
 31
0.0
100
AcDbText
  0
TEXT
  5
EA6E60872
330
EA6E4DC92
100
AcDbEntity
  8
TEXT
100
AcDbText
 10
337.7999984683857
 20
501.0000002442359
 30
0.0
 40
6.0
  1
25A
 41
0.9
  7
K
 72
     4
 11
344.9999984683856
 21
504.0000002442359
 31
0.0
100
AcDbText
  0
TEXT
  5
EA6E60873
330
EA6E4DC92
100
AcDbEntity
  8
TEXT
100
AcDbText
 10
329.3506051765597
 20
525.0000002442358
 30
0.0
 40
6.0
  1
2MPa φ75
 41
0.7
  7
K
 72
     4
 11
344.9306051765597
 21
528.0000002442358
 31
0.0
100
AcDbText
  0
TEXT
  5
EA6E60874
330
EA6E4DC92
100
AcDbEntity
  8
TEXT
100
AcDbText
 10
337.5714270398142
 20
513.0000002442358
 30
0.0
 40
6.0
  1
10A
  7
K
 72
     4
 11
344.9999984683856
 21
516.0000002442358
 31
0.0
100
AcDbText
  0
TEXT
  5
EA6E60875
330
EA6E4DC92
100
AcDbEntity
  8
TEXT
100
AcDbText
 10
331.3999984683856
 20
537.0000002442358
 30
0.0
 40
6.0
  1
備    考
  7
K
 72
     4
 11
344.9999984683856
 21
540.0000002442358
 31
0.0
100
AcDbText
  0
LINE
  5
EA6E60876
330
EA6E4DC92
100
AcDbEntity
  8
JISSEN
100
AcDbLine
 10
327.9999984683856
 20
546.0000002442358
 30
0.0
 11
327.9999984683856
 21
498.0000002442359
 31
0.0
  0
LINE
  5
EA6E60877
330
EA6E4DC92
100
AcDbEntity
  8
JISSEN
100
AcDbLine
 10
305.9999984683857
 20
498.0000002442359
 30
0.0
 11
305.9999984683857
 21
546.0000002442358
 31
0.0
  0
TEXT
  5
EA6E60878
330
EA6E4DC92
100
AcDbEntity
  8
TEXT
100
AcDbText
 10
316.2857127540999
 20
525.0000002442358
 30
0.0
 40
6.0
  1
1
  7
K
 72
     4
 11
316.9999984683856
 21
528.0000002442358
 31
0.0
100
AcDbText
  0
TEXT
  5
EA6E60879
330
EA6E4DC92
100
AcDbEntity
  8
TEXT
100
AcDbText
 10
316.2857142020998
 20
501.0000002442359
 30
0.0
 40
6.0
  1
1
  7
K
 72
     4
 11
316.9999999163856
 21
504.0000002442359
 31
0.0
100
AcDbText
  0
TEXT
  5
EA6E6087A
330
EA6E4DC92
100
AcDbEntity
  8
TEXT
100
AcDbText
 10
316.2857127540999
 20
513.0000002442358
 30
0.0
 40
6.0
  1
1
  7
K
 72
     4
 11
316.9999984683856
 21
516.0000002442358
 31
0.0
100
AcDbText
  0
TEXT
  5
EA6E6087B
330
EA6E4DC92
100
AcDbEntity
  8
TEXT
100
AcDbText
 10
310.5999984683857
 20
537.0000002442358
 30
0.0
 40
6.0
  1
個数
  7
K
 72
     4
 11
316.9999984683856
 21
540.0000002442358
 31
0.0
100
AcDbText
  0
ENDSEC
  0
SECTION
  2
OBJECTS
  0
DICTIONARY
  5
EA6E4DC87
330
0
100
AcDbDictionary
281
     1
  3
ACAD_GROUP
350
EA6E4DC88
  3
ACAD_LAYOUT
350
EA6E4E124
  3
ACAD_MLINESTYLE
350
EA6E4DC95
  3
ACAD_PLOTSETTINGS
350
EA6E4E125
  3
ACAD_PLOTSTYLENAME
350
EA6E4E122
  3
ACDBVARIABLEDICTIONARY
350
EA6E4DCDF
  0
DICTIONARY
  5
EA6E4E3D8
330
EA6E4DC7D
100
AcDbDictionary
280
     1
281
     1
  3
ACAD_LAYERFILTERS
360
EA6E4EE6A
  3
ACAD_LAYERSTATES
360
EA6E4E3D9
  0
DICTIONARY
  5
EA6E4F409
330
EA6E4F408
100
AcDbDictionary
280
     1
281
     1
  3
ACAD_XREC_ROUNDTRIP
360
EA6E4F40A
  3
ADSK_XREC_LAYER_RECONCILED
360
EA6E4F40B
  0
DICTIONARY
  5
EA6E4F40D
330
EA6E4F40C
100
AcDbDictionary
280
     1
281
     1
  3
ACAD_XREC_ROUNDTRIP
360
EA6E4F40E
  3
ADSK_XREC_LAYER_RECONCILED
360
EA6E4F40F
  0
DICTIONARY
  5
EA6E4F411
330
EA6E4F410
100
AcDbDictionary
280
     1
281
     1
  3
ACAD_XREC_ROUNDTRIP
360
EA6E4F412
  3
ADSK_XREC_LAYER_RECONCILED
360
EA6E4F413
  0
DICTIONARY
  5
EA6E4F415
330
EA6E4F414
100
AcDbDictionary
280
     1
281
     1
  3
ACAD_XREC_ROUNDTRIP
360
EA6E4F416
  0
DICTIONARY
  5
EA6E4E15C
330
EA6E4DC92
100
AcDbDictionary
280
     1
281
     1
  3
ACAD_LAYOUTSELFREF
360
EA6E4EE60
  0
DICTIONARY
  5
EA6E4E15A
330
EA6E4DC8F
100
AcDbDictionary
280
     1
281
     1
  3
ACAD_LAYOUTSELFREF
360
EA6E4EE5F
  0
DICTIONARY
  5
EA6E4DC88
102
{ACAD_REACTORS
330
EA6E4DC87
102
}
330
EA6E4DC87
100
AcDbDictionary
281
     1
  3
*A1
350
EA6E4F446
  3
*A10
350
EA6E54BB1
  3
*A100
350
EA6E54BFB
  3
*A101
350
EA6E4F486
  3
*A102
350
EA6E4F4BF
  3
*A103
350
EA6E54BFC
  3
*A104
350
EA6E54BFD
  3
*A105
350
EA6E54BFE
  3
*A106
350
EA6E54BFF
  3
*A107
350
EA6E54C00
  3
*A108
350
EA6E54C01
  3
*A109
350
EA6E54C02
  3
*A11
350
EA6E54BB2
  3
*A110
350
EA6E54C03
  3
*A111
350
EA6E54C04
  3
*A112
350
EA6E4F4B0
  3
*A113
350
EA6E4F487
  3
*A114
350
EA6E54C05
  3
*A115
350
EA6E4F4C0
  3
*A116
350
EA6E54C06
  3
*A117
350
EA6E54C07
  3
*A118
350
EA6E54C08
  3
*A119
350
EA6E54C09
  3
*A12
350
EA6E54BB3
  3
*A120
350
EA6E54C0A
  3
*A121
350
EA6E54C0B
  3
*A122
350
EA6E54C0C
  3
*A123
350
EA6E54C0D
  3
*A124
350
EA6E4F488
  3
*A125
350
EA6E54C0E
  3
*A126
350
EA6E54C0F
  3
*A127
350
EA6E4F4C1
  3
*A128
350
EA6E54C10
  3
*A129
350
EA6E54C11
  3
*A13
350
EA6E4F480
  3
*A130
350
EA6E54C12
  3
*A131
350
EA6E54C13
  3
*A132
350
EA6E54C14
  3
*A133
350
EA6E54C15
  3
*A134
350
EA6E54C16
  3
*A135
350
EA6E4F489
  3
*A136
350
EA6E54C17
  3
*A137
350
EA6E54C18
  3
*A138
350
EA6E54C19
  3
*A139
350
EA6E4F4A9
  3
*A14
350
EA6E54BB4
  3
*A140
350
EA6E4F4C2
  3
*A141
350
EA6E54C1A
  3
*A142
350
EA6E54C1B
  3
*A143
350
EA6E54C1C
  3
*A144
350
EA6E54C1D
  3
*A145
350
EA6E54C1E
  3
*A146
350
EA6E4F48A
  3
*A147
350
EA6E54C1F
  3
*A148
350
EA6E54C20
  3
*A149
350
EA6E54C21
  3
*A15
350
EA6E54BB5
  3
*A150
350
EA6E54C22
  3
*A151
350
EA6E54C23
  3
*A152
350
EA6E4F4C3
  3
*A153
350
EA6E54C24
  3
*A154
350
EA6E54C25
  3
*A155
350
EA6E54C26
  3
*A156
350
EA6E54C27
  3
*A157
350
EA6E4F4B2
  3
*A158
350
EA6E54C28
  3
*A159
350
EA6E54C29
  3
*A16
350
EA6E4F44F
  3
*A160
350
EA6E54C2A
  3
*A161
350
EA6E54C2B
  3
*A162
350
EA6E54C2C
  3
*A163
350
EA6E54C2D
  3
*A164
350
EA6E4F4C4
  3
*A165
350
EA6E54C2E
  3
*A166
350
EA6E54C2F
  3
*A167
350
EA6E54C30
  3
*A168
350
EA6E4F44C
  3
*A169
350
EA6E54C31
  3
*A17
350
EA6E4F4B9
  3
*A170
350
EA6E54C32
  3
*A171
350
EA6E54C33
  3
*A172
350
EA6E54C34
  3
*A173
350
EA6E54C35
  3
*A174
350
EA6E54C36
  3
*A175
350
EA6E54C37
  3
*A176
350
EA6E4F4C5
  3
*A177
350
EA6E54C38
  3
*A178
350
EA6E54C39
  3
*A179
350
EA6E4F48B
  3
*A18
350
EA6E54BB6
  3
*A180
350
EA6E54C3A
  3
*A181
350
EA6E54C3B
  3
*A182
350
EA6E54C3C
  3
*A183
350
EA6E54C3D
  3
*A184
350
EA6E54C3E
  3
*A185
350
EA6E54C3F
  3
*A186
350
EA6E54C40
  3
*A187
350
EA6E54C41
  3
*A188
350
EA6E4F4C6
  3
*A189
350
EA6E54C42
  3
*A19
350
EA6E54BB7
  3
*A190
350
EA6E4F48C
  3
*A191
350
EA6E54C43
  3
*A192
350
EA6E54C44
  3
*A193
350
EA6E54C45
  3
*A194
350
EA6E54C46
  3
*A195
350
EA6E54C47
  3
*A196
350
EA6E54C48
  3
*A197
350
EA6E54C49
  3
*A198
350
EA6E54C4A
  3
*A199
350
EA6E54C4B
  3
*A2
350
EA6E4F47F
  3
*A20
350
EA6E54BB8
  3
*A200
350
EA6E4F452
  3
*A201
350
EA6E4F48D
  3
*A202
350
EA6E54C4C
  3
*A203
350
EA6E54C4D
  3
*A204
350
EA6E54C4E
  3
*A205
350
EA6E54C4F
  3
*A206
350
EA6E54C50
  3
*A207
350
EA6E54C51
  3
*A208
350
EA6E54C52
  3
*A209
350
EA6E54C53
  3
*A21
350
EA6E54BB9
  3
*A210
350
EA6E54C54
  3
*A211
350
EA6E54C55
  3
*A212
350
EA6E4F48E
  3
*A213
350
EA6E4F4C7
  3
*A214
350
EA6E54C56
  3
*A215
350
EA6E54C57
  3
*A216
350
EA6E54C58
  3
*A217
350
EA6E54C59
  3
*A218
350
EA6E54C5A
  3
*A219
350
EA6E54C5B
  3
*A22
350
EA6E54BBA
  3
*A220
350
EA6E54C5C
  3
*A221
350
EA6E54C5D
  3
*A222
350
EA6E54C5E
  3
*A223
350
EA6E4F478
  3
*A224
350
EA6E4F48F
  3
*A225
350
EA6E54C5F
  3
*A226
350
EA6E4F4C8
  3
*A227
350
EA6E54C60
  3
*A228
350
EA6E54C61
  3
*A229
350
EA6E54C62
  3
*A23
350
EA6E54BBB
  3
*A230
350
EA6E54C63
  3
*A231
350
EA6E54C64
  3
*A232
350
EA6E54C65
  3
*A233
350
EA6E54C66
  3
*A234
350
EA6E54C67
  3
*A235
350
EA6E4F490
  3
*A236
350
EA6E54C68
  3
*A237
350
EA6E54C69
  3
*A238
350
EA6E4F4C9
  3
*A239
350
EA6E54C6A
  3
*A24
350
EA6E4F44B
  3
*A240
350
EA6E54C6B
  3
*A241
350
EA6E54C6C
  3
*A242
350
EA6E54C6D
  3
*A243
350
EA6E54C6E
  3
*A244
350
EA6E54C6F
  3
*A245
350
EA6E54C70
  3
*A246
350
EA6E4F491
  3
*A247
350
EA6E54C71
  3
*A248
350
EA6E54C72
  3
*A249
350
EA6E54C73
  3
*A25
350
EA6E54BBC
  3
*A250
350
EA6E4F4CA
  3
*A251
350
EA6E54C74
  3
*A252
350
EA6E54C75
  3
*A253
350
EA6E54C76
  3
*A254
350
EA6E54C77
  3
*A255
350
EA6E54C78
  3
*A256
350
EA6E54C79
  3
*A257
350
EA6E4F492
  3
*A258
350
EA6E54C7A
  3
*A259
350
EA6E54C7B
  3
*A26
350
EA6E54BBD
  3
*A260
350
EA6E54C7C
  3
*A261
350
EA6E54C7D
  3
*A262
350
EA6E4F4AA
  3
*A263
350
EA6E4F4CB
  3
*A264
350
EA6E54C7E
  3
*A265
350
EA6E54C7F
  3
*A266
350
EA6E54C80
  3
*A267
350
EA6E54C81
  3
*A268
350
EA6E4F493
  3
*A269
350
EA6E54C82
  3
*A27
350
EA6E54BBE
  3
*A270
350
EA6E54C83
  3
*A271
350
EA6E54C84
  3
*A272
350
EA6E54C85
  3
*A273
350
EA6E54C86
  3
*A274
350
EA6E54C87
  3
*A275
350
EA6E4F4CC
  3
*A276
350
EA6E54C88
  3
*A277
350
EA6E54C89
  3
*A278
350
EA6E54C8A
  3
*A279
350
EA6E4F450
  3
*A28
350
EA6E54BBF
  3
*A280
350
EA6E54C8B
  3
*A281
350
EA6E54C8C
  3
*A282
350
EA6E54C8D
  3
*A283
350
EA6E54C8E
  3
*A284
350
EA6E54C8F
  3
*A285
350
EA6E54C90
  3
*A286
350
EA6E54C91
  3
*A287
350
EA6E4F4CD
  3
*A288
350
EA6E54C92
  3
*A289
350
EA6E54C93
  3
*A29
350
EA6E4F4BA
  3
*A290
350
EA6E4F494
  3
*A291
350
EA6E54C94
  3
*A292
350
EA6E54C95
  3
*A293
350
EA6E54C96
  3
*A294
350
EA6E54C97
  3
*A295
350
EA6E54C98
  3
*A296
350
EA6E54C99
  3
*A297
350
EA6E54C9A
  3
*A298
350
EA6E54C9B
  3
*A299
350
EA6E4F4CE
  3
*A3
350
EA6E54BAB
  3
*A30
350
EA6E54BC0
  3
*A300
350
EA6E54C9C
  3
*A301
350
EA6E4F44D
  3
*A302
350
EA6E54C9D
  3
*A303
350
EA6E54C9E
  3
*A304
350
EA6E54C9F
  3
*A305
350
EA6E54CA0
  3
*A306
350
EA6E54CA1
  3
*A307
350
EA6E54CA2
  3
*A308
350
EA6E54CA3
  3
*A309
350
EA6E54CA4
  3
*A31
350
EA6E54BC1
  3
*A310
350
EA6E54CA5
  3
*A311
350
EA6E4F4CF
  3
*A312
350
EA6E4F495
  3
*A313
350
EA6E54CA6
  3
*A314
350
EA6E54CA7
  3
*A315
350
EA6E54CA8
  3
*A316
350
EA6E54CA9
  3
*A317
350
EA6E54CAA
  3
*A318
350
EA6E54CAB
  3
*A319
350
EA6E54CAC
  3
*A32
350
EA6E54BC2
  3
*A320
350
EA6E54CAD
  3
*A321
350
EA6E54CAE
  3
*A322
350
EA6E54CAF
  3
*A323
350
EA6E4F496
  3
*A324
350
EA6E4F4D0
  3
*A325
350
EA6E54CB0
  3
*A326
350
EA6E54CB1
  3
*A327
350
EA6E54CB2
  3
*A328
350
EA6E54CB3
  3
*A329
350
EA6E54CB4
  3
*A33
350
EA6E54BC3
  3
*A330
350
EA6E54CB5
  3
*A331
350
EA6E54CB6
  3
*A332
350
EA6E54CB7
  3
*A333
350
EA6E54CB8
  3
*A334
350
EA6E4F479
  3
*A335
350
EA6E4F497
  3
*A336
350
EA6E54CB9
  3
*A337
350
EA6E4F453
  3
*A338
350
EA6E54CBA
  3
*A339
350
EA6E54CBB
  3
*A34
350
EA6E54BC4
  3
*A340
350
EA6E54CBC
  3
*A341
350
EA6E54CBD
  3
*A342
350
EA6E54CBE
  3
*A343
350
EA6E54CBF
  3
*A344
350
EA6E54CC0
  3
*A345
350
EA6E54CC1
  3
*A346
350
EA6E4F498
  3
*A347
350
EA6E54CC2
  3
*A348
350
EA6E54CC3
  3
*A349
350
EA6E4F4D1
  3
*A35
350
EA6E4F4B1
  3
*A350
350
EA6E54CC4
  3
*A351
350
EA6E54CC5
  3
*A352
350
EA6E54CC6
  3
*A353
350
EA6E54CC7
  3
*A354
350
EA6E54CC8
  3
*A355
350
EA6E54CC9
  3
*A356
350
EA6E54CCA
  3
*A357
350
EA6E4F499
  3
*A358
350
EA6E54CCB
  3
*A359
350
EA6E54CCC
  3
*A36
350
EA6E54BC5
  3
*A360
350
EA6E54CCD
  3
*A361
350
EA6E4F4D2
  3
*A362
350
EA6E54CCE
  3
*A363
350
EA6E54CCF
  3
*A364
350
EA6E54CD0
  3
*A365
350
EA6E54CD1
  3
*A366
350
EA6E54CD2
  3
*A367
350
EA6E54CD3
  3
*A368
350
EA6E4F49A
  3
*A369
350
EA6E54CD4
  3
*A37
350
EA6E54BC6
  3
*A370
350
EA6E54CD5
  3
*A371
350
EA6E54CD6
  3
*A372
350
EA6E54CD7
  3
*A373
350
EA6E4F4D3
  3
*A374
350
EA6E54CD8
  3
*A375
350
EA6E54CD9
  3
*A376
350
EA6E54CDA
  3
*A377
350
EA6E54CDB
  3
*A378
350
EA6E54CDC
  3
*A379
350
EA6E4F49B
  3
*A38
350
EA6E54BC7
  3
*A380
350
EA6E54CDD
  3
*A381
350
EA6E54CDE
  3
*A382
350
EA6E54CDF
  3
*A383
350
EA6E54CE0
  3
*A384
350
EA6E54CE1
  3
*A385
350
EA6E4F4AB
  3
*A386
350
EA6E4F4D4
  3
*A387
350
EA6E54CE2
  3
*A388
350
EA6E54CE3
  3
*A389
350
EA6E54CE4
  3
*A39
350
EA6E54BC8
  3
*A390
350
EA6E4F49C
  3
*A391
350
EA6E54CE5
  3
*A392
350
EA6E54CE6
  3
*A393
350
EA6E54CE7
  3
*A394
350
EA6E54CE8
  3
*A395
350
EA6E54CE9
  3
*A396
350
EA6E54CEA
  3
*A397
350
EA6E54CEB
  3
*A398
350
EA6E4F4D5
  3
*A399
350
EA6E54CEC
  3
*A4
350
EA6E4F4B8
  3
*A40
350
EA6E54BC9
  3
*A400
350
EA6E54CED
  3
*A401
350
EA6E4F4B3
  3
*A402
350
EA6E54CEE
  3
*A403
350
EA6E54CEF
  3
*A404
350
EA6E54CF0
  3
*A405
350
EA6E54CF1
  3
*A406
350
EA6E54CF2
  3
*A407
350
EA6E54CF3
  3
*A408
350
EA6E54CF4
  3
*A409
350
EA6E54CF5
  3
*A41
350
EA6E4F4BB
  3
*A410
350
EA6E4F4D6
  3
*A411
350
EA6E54CF6
  3
*A412
350
EA6E4F49D
  3
*A413
350
EA6E54CF7
  3
*A414
350
EA6E54CF8
  3
*A415
350
EA6E54CF9
  3
*A416
350
EA6E54CFA
  3
*A417
350
EA6E54CFB
  3
*A418
350
EA6E54CFC
  3
*A419
350
EA6E54CFD
  3
*A42
350
EA6E54BCA
  3
*A420
350
EA6E54CFE
  3
*A421
350
EA6E54CFF
  3
*A422
350
EA6E4F4D7
  3
*A423
350
EA6E4F49E
  3
*A424
350
EA6E54D00
  3
*A425
350
EA6E54D01
  3
*A426
350
EA6E54D02
  3
*A427
350
EA6E4F4D8
  3
*A428
350
EA6E4F4D9
  3
*A429
350
EA6E4F4DA
  3
*A43
350
EA6E54BCB
  3
*A430
350
EA6E4F454
  3
*A431
350
EA6E4F4DB
  3
*A432
350
EA6E4F4DC
  3
*A433
350
EA6E4F4AC
  3
*A434
350
EA6E4F44E
  3
*A435
350
EA6E4F4DD
  3
*A436
350
EA6E4F455
  3
*A437
350
EA6E4F456
  3
*A438
350
EA6E4F457
  3
*A439
350
EA6E4F458
  3
*A44
350
EA6E54BCC
  3
*A440
350
EA6E4F447
  3
*A441
350
EA6E4F459
  3
*A442
350
EA6E4F45A
  3
*A443
350
EA6E4F45B
  3
*A444
350
EA6E4F45C
  3
*A445
350
EA6E4F47A
  3
*A446
350
EA6E4F49F
  3
*A447
350
EA6E4F4AD
  3
*A448
350
EA6E4F45D
  3
*A449
350
EA6E4F45E
  3
*A45
350
EA6E54BCD
  3
*A450
350
EA6E4F45F
  3
*A451
350
EA6E4F460
  3
*A452
350
EA6E4F461
  3
*A453
350
EA6E4F462
  3
*A454
350
EA6E4F448
  3
*A455
350
EA6E4F463
  3
*A456
350
EA6E4F464
  3
*A457
350
EA6E4F4A0
  3
*A458
350
EA6E4F465
  3
*A459
350
EA6E4F4AE
  3
*A46
350
EA6E4F481
  3
*A460
350
EA6E4F466
  3
*A461
350
EA6E4F467
  3
*A462
350
EA6E4F468
  3
*A463
350
EA6E4F469
  3
*A464
350
EA6E4F46A
  3
*A465
350
EA6E4F46B
  3
*A466
350
EA6E4F46C
  3
*A467
350
EA6E4F449
  3
*A468
350
EA6E4F4A1
  3
*A469
350
EA6E4F46D
  3
*A47
350
EA6E54BCE
  3
*A470
350
EA6E4F46E
  3
*A471
350
EA6E4F4AF
  3
*A472
350
EA6E4F46F
  3
*A473
350
EA6E4F470
  3
*A474
350
EA6E4F471
  3
*A475
350
EA6E4F472
  3
*A476
350
EA6E4F473
  3
*A477
350
EA6E4F474
  3
*A478
350
EA6E4F475
  3
*A479
350
EA6E4F4A2
  3
*A48
350
EA6E54BCF
  3
*A480
350
EA6E4F476
  3
*A481
350
EA6E4F44A
  3
*A482
350
EA6E4F477
  3
*A483
350
EA6E4F4A3
  3
*A484
350
EA6E4F4A4
  3
*A485
350
EA6E4F4A5
  3
*A486
350
EA6E4F4B4
  3
*A487
350
EA6E4F4A6
  3
*A488
350
EA6E4F4A7
  3
*A489
350
EA6E4F47B
  3
*A49
350
EA6E54BD0
  3
*A490
350
EA6E4F4A8
  3
*A491
350
EA6E54B87
  3
*A492
350
EA6E54B88
  3
*A493
350
EA6E54B89
  3
*A494
350
EA6E54B8A
  3
*A495
350
EA6E54B8B
  3
*A496
350
EA6E54B8C
  3
*A497
350
EA6E54B8D
  3
*A498
350
EA6E4F4B5
  3
*A499
350
EA6E54B8E
  3
*A5
350
EA6E54BAC
  3
*A50
350
EA6E54BD1
  3
*A500
350
EA6E4F47C
  3
*A501
350
EA6E54B8F
  3
*A502
350
EA6E54B90
  3
*A503
350
EA6E54B91
  3
*A504
350
EA6E54B92
  3
*A505
350
EA6E54B93
  3
*A506
350
EA6E54B94
  3
*A507
350
EA6E54B95
  3
*A508
350
EA6E54B96
  3
*A509
350
EA6E54B97
  3
*A51
350
EA6E54BD2
  3
*A510
350
EA6E4F4B6
  3
*A511
350
EA6E4F47D
  3
*A512
350
EA6E54B98
  3
*A513
350
EA6E54B99
  3
*A514
350
EA6E54B9A
  3
*A515
350
EA6E54B9B
  3
*A516
350
EA6E54B9C
  3
*A517
350
EA6E54B9D
  3
*A518
350
EA6E54B9E
  3
*A519
350
EA6E54B9F
  3
*A52
350
EA6E54BD3
  3
*A520
350
EA6E54BA0
  3
*A521
350
EA6E54BA1
  3
*A522
350
EA6E4F47E
  3
*A523
350
EA6E4F4B7
  3
*A524
350
EA6E54BA2
  3
*A525
350
EA6E54BA3
  3
*A526
350
EA6E54BA4
  3
*A527
350
EA6E54BA5
  3
*A528
350
EA6E54BA6
  3
*A529
350
EA6E54BA7
  3
*A53
350
EA6E4F4BC
  3
*A530
350
EA6E54BA8
  3
*A531
350
EA6E54BA9
  3
*A532
350
EA6E54BAA
  3
*A54
350
EA6E54BD4
  3
*A55
350
EA6E54BD5
  3
*A56
350
EA6E54BD6
  3
*A57
350
EA6E4F482
  3
*A58
350
EA6E54BD7
  3
*A59
350
EA6E54BD8
  3
*A6
350
EA6E54BAD
  3
*A60
350
EA6E54BD9
  3
*A61
350
EA6E54BDA
  3
*A62
350
EA6E54BDB
  3
*A63
350
EA6E54BDC
  3
*A64
350
EA6E54BDD
  3
*A65
350
EA6E4F451
  3
*A66
350
EA6E54BDE
  3
*A67
350
EA6E54BDF
  3
*A68
350
EA6E4F483
  3
*A69
350
EA6E54BE0
  3
*A7
350
EA6E54BAE
  3
*A70
350
EA6E54BE1
  3
*A71
350
EA6E54BE2
  3
*A72
350
EA6E54BE3
  3
*A73
350
EA6E54BE4
  3
*A74
350
EA6E54BE5
  3
*A75
350
EA6E54BE6
  3
*A76
350
EA6E54BE7
  3
*A77
350
EA6E4F4BD
  3
*A78
350
EA6E54BE8
  3
*A79
350
EA6E4F484
  3
*A8
350
EA6E54BAF
  3
*A80
350
EA6E54BE9
  3
*A81
350
EA6E54BEA
  3
*A82
350
EA6E54BEB
  3
*A83
350
EA6E54BEC
  3
*A84
350
EA6E54BED
  3
*A85
350
EA6E54BEE
  3
*A86
350
EA6E54BEF
  3
*A87
350
EA6E54BF0
  3
*A88
350
EA6E54BF1
  3
*A89
350
EA6E4F4BE
  3
*A9
350
EA6E54BB0
  3
*A90
350
EA6E4F485
  3
*A91
350
EA6E54BF2
  3
*A92
350
EA6E54BF3
  3
*A93
350
EA6E54BF4
  3
*A94
350
EA6E54BF5
  3
*A95
350
EA6E54BF6
  3
*A96
350
EA6E54BF7
  3
*A97
350
EA6E54BF8
  3
*A98
350
EA6E54BF9
  3
*A99
350
EA6E54BFA
  0
DICTIONARY
  5
EA6E4E124
102
{ACAD_REACTORS
330
EA6E4DC87
102
}
330
EA6E4DC87
100
AcDbDictionary
281
     1
  3
Model
350
EA6E4EE67
  3
ﾚｲｱｳﾄ1
350
EA6E4EE68
  0
DICTIONARY
  5
EA6E4DC95
102
{ACAD_REACTORS
330
EA6E4DC87
102
}
330
EA6E4DC87
100
AcDbDictionary
281
     1
  3
STANDARD
350
EA6E4DC96
  0
DICTIONARY
  5
EA6E4E125
102
{ACAD_REACTORS
330
EA6E4DC87
102
}
330
EA6E4DC87
100
AcDbDictionary
281
     1
  3
セットアップ1
350
EA6E4F4DE
  0
ACDBDICTIONARYWDFLT
  5
EA6E4E122
102
{ACAD_REACTORS
330
EA6E4DC87
102
}
330
EA6E4DC87
100
AcDbDictionary
281
     1
  3
Normal
350
EA6E4E123
  3
Style_1
350
EA6E4F4E1
100
AcDbDictionaryWithDefault
340
EA6E4E123
  0
DICTIONARY
  5
EA6E4DCDF
102
{ACAD_REACTORS
330
EA6E4DC87
102
}
330
EA6E4DC87
100
AcDbDictionary
281
     1
  3
DIMASSOC
350
EA6E4E23D
  3
SORTENTS
350
EA6E4DCE0
  0
DICTIONARY
  5
EA6E4EE6A
102
{ACAD_REACTORS
330
EA6E4E3D8
102
}
330
EA6E4E3D8
100
AcDbDictionary
280
     1
281
     1
  3
0
360
EA6E4EE6B
  3
0-0
360
EA6E4EE6C
  3
10画層
360
EA6E4EE6D
  3
2
360
EA6E4EE6E
  3
3
360
EA6E4EE6F
  3
3A
360
EA6E4EE70
  3
4
360
EA6E4EE71
  3
5画層
360
EA6E4EE72
  3
6画層
360
EA6E4EE73
  3
7
360
EA6E4EE74
  3
7a画層
360
EA6E4EE75
  3
8
360
EA6E4EE76
  3
ASYST
360
EA6E4EE77
  3
ASYST PHASE 1
360
EA6E4EE78
  3
ASYST PHASE 2
360
EA6E4EE79
  3
cap-0
360
EA6E4EE7A
  3
dims
360
EA6E4EE7B
  3
elec
360
EA6E4EE7C
  3
ELECTRICAL
360
EA6E4EE7D
  3
F
360
EA6E4EE7E
  3
Frame
360
EA6E4EE7F
  3
FROZEN
360
EA6E4EE80
  3
FROZEN ACTIVE
360
EA6E4EE81
  3
jiku-0
360
EA6E4EE82
  3
MP
360
EA6E4EE83
  3
MPR
360
EA6E4EE84
  3
p-
360
EA6E4EE85
  3
ST
360
EA6E4EE86
  3
TC
360
EA6E4EE87
  3
TEXT
360
EA6E4EE88
  3
ｹｰﾌﾞﾙ図
360
EA6E4EE89
  3
０画層
360
EA6E4EE8A
  3
３A画層
360
EA6E4EE8B
  3
３画層
360
EA6E4EE8C
  0
DICTIONARY
  5
EA6E4E3D9
102
{ACAD_REACTORS
330
EA6E4E3D8
102
}
330
EA6E4E3D8
100
AcDbDictionary
281
     1
  0
XRECORD
  5
EA6E4F40A
102
{ACAD_REACTORS
330
EA6E4F409
102
}
330
EA6E4F409
100
AcDbXrecord
280
     1
102
MATERIAL
340
0
  0
XRECORD
  5
EA6E4F40B
102
{ACAD_REACTORS
330
EA6E4F409
102
}
330
EA6E4F409
100
AcDbXrecord
280
     1
290
     1
  0
XRECORD
  5
EA6E4F40E
102
{ACAD_REACTORS
330
EA6E4F40D
102
}
330
EA6E4F40D
100
AcDbXrecord
280
     1
102
MATERIAL
340
0
  0
XRECORD
  5
EA6E4F40F
102
{ACAD_REACTORS
330
EA6E4F40D
102
}
330
EA6E4F40D
100
AcDbXrecord
280
     1
290
     1
  0
XRECORD
  5
EA6E4F412
102
{ACAD_REACTORS
330
EA6E4F411
102
}
330
EA6E4F411
100
AcDbXrecord
280
     1
102
MATERIAL
340
0
  0
XRECORD
  5
EA6E4F413
102
{ACAD_REACTORS
330
EA6E4F411
102
}
330
EA6E4F411
100
AcDbXrecord
280
     1
290
     1
  0
XRECORD
  5
EA6E4F416
102
{ACAD_REACTORS
330
EA6E4F415
102
}
330
EA6E4F415
100
AcDbXrecord
280
     1
102
MATERIAL
340
0
  0
XRECORD
  5
EA6E4EE60
102
{ACAD_REACTORS
330
EA6E4E15C
102
}
330
EA6E4E15C
100
AcDbXrecord
280
     1
340
EA6E4DC92
  0
XRECORD
  5
EA6E4EE5F
102
{ACAD_REACTORS
330
EA6E4E15A
102
}
330
EA6E4E15A
100
AcDbXrecord
280
     1
340
EA6E4DC8F
  0
GROUP
  5
EA6E4F446
102
{ACAD_REACTORS
330
EA6E4DC88
102
}
330
EA6E4DC88
100
AcDbGroup
300

 70
     1
 71
     1
  0
GROUP
  5
EA6E54BB1
102
{ACAD_REACTORS
330
EA6E4DC88
102
}
330
EA6E4DC88
100
AcDbGroup
300

 70
     1
 71
     1
  0
GROUP
  5
EA6E54BFB
102
{ACAD_REACTORS
330
EA6E4DC88
102
}
330
EA6E4DC88
100
AcDbGroup
300

 70
     1
 71
     1
  0
GROUP
  5
EA6E4F486
102
{ACAD_REACTORS
330
EA6E4DC88
102
}
330
EA6E4DC88
100
AcDbGroup
300

 70
     1
 71
     1
  0
GROUP
  5
EA6E4F4BF
102
{ACAD_REACTORS
330
EA6E4DC88
102
}
330
EA6E4DC88
100
AcDbGroup
300

 70
     1
 71
     1
  0
GROUP
  5
EA6E54BFC
102
{ACAD_REACTORS
330
EA6E4DC88
102
}
330
EA6E4DC88
100
AcDbGroup
300

 70
     1
 71
     1
  0
GROUP
  5
EA6E54BFD
102
{ACAD_REACTORS
330
EA6E4DC88
102
}
330
EA6E4DC88
100
AcDbGroup
300

 70
     1
 71
     1
  0
GROUP
  5
EA6E54BFE
102
{ACAD_REACTORS
330
EA6E4DC88
102
}
330
EA6E4DC88
100
AcDbGroup
300

 70
     1
 71
     1
  0
GROUP
  5
EA6E54BFF
102
{ACAD_REACTORS
330
EA6E4DC88
102
}
330
EA6E4DC88
100
AcDbGroup
300

 70
     1
 71
     1
  0
GROUP
  5
EA6E54C00
102
{ACAD_REACTORS
330
EA6E4DC88
102
}
330
EA6E4DC88
100
AcDbGroup
300

 70
     1
 71
     1
  0
GROUP
  5
EA6E54C01
102
{ACAD_REACTORS
330
EA6E4DC88
102
}
330
EA6E4DC88
100
AcDbGroup
300

 70
     1
 71
     1
  0
GROUP
  5
EA6E54C02
102
{ACAD_REACTORS
330
EA6E4DC88
102
}
330
EA6E4DC88
100
AcDbGroup
300

 70
     1
 71
     1
  0
GROUP
  5
EA6E54BB2
102
{ACAD_REACTORS
330
EA6E4DC88
102
}
330
EA6E4DC88
100
AcDbGroup
300

 70
     1
 71
     1
  0
GROUP
  5
EA6E54C03
102
{ACAD_REACTORS
330
EA6E4DC88
102
}
330
EA6E4DC88
100
AcDbGroup
300

 70
     1
 71
     1
  0
GROUP
  5
EA6E54C04
102
{ACAD_REACTORS
330
EA6E4DC88
102
}
330
EA6E4DC88
100
AcDbGroup
300

 70
     1
 71
     1
  0
GROUP
  5
EA6E4F4B0
102
{ACAD_REACTORS
330
EA6E4DC88
102
}
330
EA6E4DC88
100
AcDbGroup
300

 70
     1
 71
     1
  0
GROUP
  5
EA6E4F487
102
{ACAD_REACTORS
330
EA6E4DC88
102
}
330
EA6E4DC88
100
AcDbGroup
300

 70
     1
 71
     1
  0
GROUP
  5
EA6E54C05
102
{ACAD_REACTORS
330
EA6E4DC88
102
}
330
EA6E4DC88
100
AcDbGroup
300

 70
     1
 71
     1
  0
GROUP
  5
EA6E4F4C0
102
{ACAD_REACTORS
330
EA6E4DC88
102
}
330
EA6E4DC88
100
AcDbGroup
300

 70
     1
 71
     1
  0
GROUP
  5
EA6E54C06
102
{ACAD_REACTORS
330
EA6E4DC88
102
}
330
EA6E4DC88
100
AcDbGroup
300

 70
     3
 71
     1
  0
GROUP
  5
EA6E54C07
102
{ACAD_REACTORS
330
EA6E4DC88
102
}
330
EA6E4DC88
100
AcDbGroup
300

 70
     1
 71
     1
  0
GROUP
  5
EA6E54C08
102
{ACAD_REACTORS
330
EA6E4DC88
102
}
330
EA6E4DC88
100
AcDbGroup
300

 70
     1
 71
     1
  0
GROUP
  5
EA6E54C09
102
{ACAD_REACTORS
330
EA6E4DC88
102
}
330
EA6E4DC88
100
AcDbGroup
300

 70
     1
 71
     1
  0
GROUP
  5
EA6E54BB3
102
{ACAD_REACTORS
330
EA6E4DC88
102
}
330
EA6E4DC88
100
AcDbGroup
300

 70
     1
 71
     1
  0
GROUP
  5
EA6E54C0A
102
{ACAD_REACTORS
330
EA6E4DC88
102
}
330
EA6E4DC88
100
AcDbGroup
300

 70
     1
 71
     1
  0
GROUP
  5
EA6E54C0B
102
{ACAD_REACTORS
330
EA6E4DC88
102
}
330
EA6E4DC88
100
AcDbGroup
300

 70
     1
 71
     1
  0
GROUP
  5
EA6E54C0C
102
{ACAD_REACTORS
330
EA6E4DC88
102
}
330
EA6E4DC88
100
AcDbGroup
300

 70
     1
 71
     1
  0
GROUP
  5
EA6E54C0D
102
{ACAD_REACTORS
330
EA6E4DC88
102
}
330
EA6E4DC88
100
AcDbGroup
300

 70
     1
 71
     1
  0
GROUP
  5
EA6E4F488
102
{ACAD_REACTORS
330
EA6E4DC88
102
}
330
EA6E4DC88
100
AcDbGroup
300

 70
     1
 71
     1
  0
GROUP
  5
EA6E54C0E
102
{ACAD_REACTORS
330
EA6E4DC88
102
}
330
EA6E4DC88
100
AcDbGroup
300

 70
     1
 71
     1
  0
GROUP
  5
EA6E54C0F
102
{ACAD_REACTORS
330
EA6E4DC88
102
}
330
EA6E4DC88
100
AcDbGroup
300

 70
     1
 71
     1
  0
GROUP
  5
EA6E4F4C1
102
{ACAD_REACTORS
330
EA6E4DC88
102
}
330
EA6E4DC88
100
AcDbGroup
300

 70
     1
 71
     1
  0
GROUP
  5
EA6E54C10
102
{ACAD_REACTORS
330
EA6E4DC88
102
}
330
EA6E4DC88
100
AcDbGroup
300

 70
     1
 71
     1
  0
GROUP
  5
EA6E54C11
102
{ACAD_REACTORS
330
EA6E4DC88
102
}
330
EA6E4DC88
100
AcDbGroup
300

 70
     1
 71
     1
  0
GROUP
  5
EA6E4F480
102
{ACAD_REACTORS
330
EA6E4DC88
102
}
330
EA6E4DC88
100
AcDbGroup
300

 70
     1
 71
     1
  0
GROUP
  5
EA6E54C12
102
{ACAD_REACTORS
330
EA6E4DC88
102
}
330
EA6E4DC88
100
AcDbGroup
300

 70
     1
 71
     1
  0
GROUP
  5
EA6E54C13
102
{ACAD_REACTORS
330
EA6E4DC88
102
}
330
EA6E4DC88
100
AcDbGroup
300

 70
     1
 71
     1
  0
GROUP
  5
EA6E54C14
102
{ACAD_REACTORS
330
EA6E4DC88
102
}
330
EA6E4DC88
100
AcDbGroup
300

 70
     1
 71
     1
  0
GROUP
  5
EA6E54C15
102
{ACAD_REACTORS
330
EA6E4DC88
102
}
330
EA6E4DC88
100
AcDbGroup
300

 70
     1
 71
     1
  0
GROUP
  5
EA6E54C16
102
{ACAD_REACTORS
330
EA6E4DC88
102
}
330
EA6E4DC88
100
AcDbGroup
300

 70
     1
 71
     1
  0
GROUP
  5
EA6E4F489
102
{ACAD_REACTORS
330
EA6E4DC88
102
}
330
EA6E4DC88
100
AcDbGroup
300

 70
     1
 71
     1
  0
GROUP
  5
EA6E54C17
102
{ACAD_REACTORS
330
EA6E4DC88
102
}
330
EA6E4DC88
100
AcDbGroup
300

 70
     1
 71
     1
  0
GROUP
  5
EA6E54C18
102
{ACAD_REACTORS
330
EA6E4DC88
102
}
330
EA6E4DC88
100
AcDbGroup
300

 70
     1
 71
     1
  0
GROUP
  5
EA6E54C19
102
{ACAD_REACTORS
330
EA6E4DC88
102
}
330
EA6E4DC88
100
AcDbGroup
300

 70
     1
 71
     1
  0
GROUP
  5
EA6E4F4A9
102
{ACAD_REACTORS
330
EA6E4DC88
102
}
330
EA6E4DC88
100
AcDbGroup
300

 70
     1
 71
     1
  0
GROUP
  5
EA6E54BB4
102
{ACAD_REACTORS
330
EA6E4DC88
102
}
330
EA6E4DC88
100
AcDbGroup
300

 70
     1
 71
     1
  0
GROUP
  5
EA6E4F4C2
102
{ACAD_REACTORS
330
EA6E4DC88
102
}
330
EA6E4DC88
100
AcDbGroup
300

 70
     3
 71
     1
  0
GROUP
  5
EA6E54C1A
102
{ACAD_REACTORS
330
EA6E4DC88
102
}
330
EA6E4DC88
100
AcDbGroup
300

 70
     1
 71
     1
  0
GROUP
  5
EA6E54C1B
102
{ACAD_REACTORS
330
EA6E4DC88
102
}
330
EA6E4DC88
100
AcDbGroup
300

 70
     1
 71
     1
  0
GROUP
  5
EA6E54C1C
102
{ACAD_REACTORS
330
EA6E4DC88
102
}
330
EA6E4DC88
100
AcDbGroup
300

 70
     1
 71
     1
  0
GROUP
  5
EA6E54C1D
102
{ACAD_REACTORS
330
EA6E4DC88
102
}
330
EA6E4DC88
100
AcDbGroup
300

 70
     3
 71
     1
  0
GROUP
  5
EA6E54C1E
102
{ACAD_REACTORS
330
EA6E4DC88
102
}
330
EA6E4DC88
100
AcDbGroup
300

 70
     1
 71
     1
  0
GROUP
  5
EA6E4F48A
102
{ACAD_REACTORS
330
EA6E4DC88
102
}
330
EA6E4DC88
100
AcDbGroup
300

 70
     1
 71
     1
  0
GROUP
  5
EA6E54C1F
102
{ACAD_REACTORS
330
EA6E4DC88
102
}
330
EA6E4DC88
100
AcDbGroup
300

 70
     1
 71
     1
  0
GROUP
  5
EA6E54C20
102
{ACAD_REACTORS
330
EA6E4DC88
102
}
330
EA6E4DC88
100
AcDbGroup
300

 70
     1
 71
     1
  0
GROUP
  5
EA6E54C21
102
{ACAD_REACTORS
330
EA6E4DC88
102
}
330
EA6E4DC88
100
AcDbGroup
300

 70
     1
 71
     1
  0
GROUP
  5
EA6E54BB5
102
{ACAD_REACTORS
330
EA6E4DC88
102
}
330
EA6E4DC88
100
AcDbGroup
300

 70
     1
 71
     1
  0
GROUP
  5
EA6E54C22
102
{ACAD_REACTORS
330
EA6E4DC88
102
}
330
EA6E4DC88
100
AcDbGroup
300

 70
     1
 71
     1
  0
GROUP
  5
EA6E54C23
102
{ACAD_REACTORS
330
EA6E4DC88
102
}
330
EA6E4DC88
100
AcDbGroup
300

 70
     1
 71
     1
  0
GROUP
  5
EA6E4F4C3
102
{ACAD_REACTORS
330
EA6E4DC88
102
}
330
EA6E4DC88
100
AcDbGroup
300

 70
     1
 71
     1
  0
GROUP
  5
EA6E54C24
102
{ACAD_REACTORS
330
EA6E4DC88
102
}
330
EA6E4DC88
100
AcDbGroup
300

 70
     1
 71
     1
  0
GROUP
  5
EA6E54C25
102
{ACAD_REACTORS
330
EA6E4DC88
102
}
330
EA6E4DC88
100
AcDbGroup
300

 70
     3
 71
     1
  0
GROUP
  5
EA6E54C26
102
{ACAD_REACTORS
330
EA6E4DC88
102
}
330
EA6E4DC88
100
AcDbGroup
300

 70
     1
 71
     1
  0
GROUP
  5
EA6E54C27
102
{ACAD_REACTORS
330
EA6E4DC88
102
}
330
EA6E4DC88
100
AcDbGroup
300

 70
     1
 71
     1
  0
GROUP
  5
EA6E4F4B2
102
{ACAD_REACTORS
330
EA6E4DC88
102
}
330
EA6E4DC88
100
AcDbGroup
300

 70
     1
 71
     1
  0
GROUP
  5
EA6E54C28
102
{ACAD_REACTORS
330
EA6E4DC88
102
}
330
EA6E4DC88
100
AcDbGroup
300

 70
     1
 71
     1
  0
GROUP
  5
EA6E54C29
102
{ACAD_REACTORS
330
EA6E4DC88
102
}
330
EA6E4DC88
100
AcDbGroup
300

 70
     1
 71
     1
  0
GROUP
  5
EA6E4F44F
102
{ACAD_REACTORS
330
EA6E4DC88
102
}
330
EA6E4DC88
100
AcDbGroup
300

 70
     3
 71
     1
  0
GROUP
  5
EA6E54C2A
102
{ACAD_REACTORS
330
EA6E4DC88
102
}
330
EA6E4DC88
100
AcDbGroup
300

 70
     1
 71
     1
  0
GROUP
  5
EA6E54C2B
102
{ACAD_REACTORS
330
EA6E4DC88
102
}
330
EA6E4DC88
100
AcDbGroup
300

 70
     1
 71
     1
  0
GROUP
  5
EA6E54C2C
102
{ACAD_REACTORS
330
EA6E4DC88
102
}
330
EA6E4DC88
100
AcDbGroup
300

 70
     1
 71
     1
  0
GROUP
  5
EA6E54C2D
102
{ACAD_REACTORS
330
EA6E4DC88
102
}
330
EA6E4DC88
100
AcDbGroup
300

 70
     1
 71
     1
  0
GROUP
  5
EA6E4F4C4
102
{ACAD_REACTORS
330
EA6E4DC88
102
}
330
EA6E4DC88
100
AcDbGroup
300

 70
     1
 71
     1
  0
GROUP
  5
EA6E54C2E
102
{ACAD_REACTORS
330
EA6E4DC88
102
}
330
EA6E4DC88
100
AcDbGroup
300

 70
     1
 71
     1
  0
GROUP
  5
EA6E54C2F
102
{ACAD_REACTORS
330
EA6E4DC88
102
}
330
EA6E4DC88
100
AcDbGroup
300

 70
     1
 71
     1
  0
GROUP
  5
EA6E54C30
102
{ACAD_REACTORS
330
EA6E4DC88
102
}
330
EA6E4DC88
100
AcDbGroup
300

 70
     1
 71
     1
  0
GROUP
  5
EA6E4F44C
102
{ACAD_REACTORS
330
EA6E4DC88
102
}
330
EA6E4DC88
100
AcDbGroup
300

 70
     1
 71
     1
  0
GROUP
  5
EA6E54C31
102
{ACAD_REACTORS
330
EA6E4DC88
102
}
330
EA6E4DC88
100
AcDbGroup
300

 70
     1
 71
     1
  0
GROUP
  5
EA6E4F4B9
102
{ACAD_REACTORS
330
EA6E4DC88
102
}
330
EA6E4DC88
100
AcDbGroup
300

 70
     1
 71
     1
  0
GROUP
  5
EA6E54C32
102
{ACAD_REACTORS
330
EA6E4DC88
102
}
330
EA6E4DC88
100
AcDbGroup
300

 70
     1
 71
     1
  0
GROUP
  5
EA6E54C33
102
{ACAD_REACTORS
330
EA6E4DC88
102
}
330
EA6E4DC88
100
AcDbGroup
300

 70
     1
 71
     1
  0
GROUP
  5
EA6E54C34
102
{ACAD_REACTORS
330
EA6E4DC88
102
}
330
EA6E4DC88
100
AcDbGroup
300

 70
     1
 71
     1
  0
GROUP
  5
EA6E54C35
102
{ACAD_REACTORS
330
EA6E4DC88
102
}
330
EA6E4DC88
100
AcDbGroup
300

 70
     1
 71
     1
  0
GROUP
  5
EA6E54C36
102
{ACAD_REACTORS
330
EA6E4DC88
102
}
330
EA6E4DC88
100
AcDbGroup
300

 70
     1
 71
     1
  0
GROUP
  5
EA6E54C37
102
{ACAD_REACTORS
330
EA6E4DC88
102
}
330
EA6E4DC88
100
AcDbGroup
300

 70
     1
 71
     1
  0
GROUP
  5
EA6E4F4C5
102
{ACAD_REACTORS
330
EA6E4DC88
102
}
330
EA6E4DC88
100
AcDbGroup
300

 70
     1
 71
     1
  0
GROUP
  5
EA6E54C38
102
{ACAD_REACTORS
330
EA6E4DC88
102
}
330
EA6E4DC88
100
AcDbGroup
300

 70
     1
 71
     1
  0
GROUP
  5
EA6E54C39
102
{ACAD_REACTORS
330
EA6E4DC88
102
}
330
EA6E4DC88
100
AcDbGroup
300

 70
     1
 71
     1
  0
GROUP
  5
EA6E4F48B
102
{ACAD_REACTORS
330
EA6E4DC88
102
}
330
EA6E4DC88
100
AcDbGroup
300

 70
     1
 71
     1
  0
GROUP
  5
EA6E54BB6
102
{ACAD_REACTORS
330
EA6E4DC88
102
}
330
EA6E4DC88
100
AcDbGroup
300

 70
     1
 71
     1
  0
GROUP
  5
EA6E54C3A
102
{ACAD_REACTORS
330
EA6E4DC88
102
}
330
EA6E4DC88
100
AcDbGroup
300

 70
     1
 71
     1
  0
GROUP
  5
EA6E54C3B
102
{ACAD_REACTORS
330
EA6E4DC88
102
}
330
EA6E4DC88
100
AcDbGroup
300

 70
     1
 71
     1
  0
GROUP
  5
EA6E54C3C
102
{ACAD_REACTORS
330
EA6E4DC88
102
}
330
EA6E4DC88
100
AcDbGroup
300

 70
     1
 71
     1
  0
GROUP
  5
EA6E54C3D
102
{ACAD_REACTORS
330
EA6E4DC88
102
}
330
EA6E4DC88
100
AcDbGroup
300

 70
     1
 71
     1
  0
GROUP
  5
EA6E54C3E
102
{ACAD_REACTORS
330
EA6E4DC88
102
}
330
EA6E4DC88
100
AcDbGroup
300

 70
     1
 71
     1
  0
GROUP
  5
EA6E54C3F
102
{ACAD_REACTORS
330
EA6E4DC88
102
}
330
EA6E4DC88
100
AcDbGroup
300

 70
     1
 71
     1
  0
GROUP
  5
EA6E54C40
102
{ACAD_REACTORS
330
EA6E4DC88
102
}
330
EA6E4DC88
100
AcDbGroup
300

 70
     1
 71
     1
  0
GROUP
  5
EA6E54C41
102
{ACAD_REACTORS
330
EA6E4DC88
102
}
330
EA6E4DC88
100
AcDbGroup
300

 70
     1
 71
     1
  0
GROUP
  5
EA6E4F4C6
102
{ACAD_REACTORS
330
EA6E4DC88
102
}
330
EA6E4DC88
100
AcDbGroup
300

 70
     1
 71
     1
  0
GROUP
  5
EA6E54C42
102
{ACAD_REACTORS
330
EA6E4DC88
102
}
330
EA6E4DC88
100
AcDbGroup
300

 70
     1
 71
     1
  0
GROUP
  5
EA6E54BB7
102
{ACAD_REACTORS
330
EA6E4DC88
102
}
330
EA6E4DC88
100
AcDbGroup
300

 70
     1
 71
     1
  0
GROUP
  5
EA6E4F48C
102
{ACAD_REACTORS
330
EA6E4DC88
102
}
330
EA6E4DC88
100
AcDbGroup
300

 70
     1
 71
     1
  0
GROUP
  5
EA6E54C43
102
{ACAD_REACTORS
330
EA6E4DC88
102
}
330
EA6E4DC88
100
AcDbGroup
300

 70
     1
 71
     1
  0
GROUP
  5
EA6E54C44
102
{ACAD_REACTORS
330
EA6E4DC88
102
}
330
EA6E4DC88
100
AcDbGroup
300

 70
     1
 71
     1
  0
GROUP
  5
EA6E54C45
102
{ACAD_REACTORS
330
EA6E4DC88
102
}
330
EA6E4DC88
100
AcDbGroup
300

 70
     1
 71
     1
  0
GROUP
  5
EA6E54C46
102
{ACAD_REACTORS
330
EA6E4DC88
102
}
330
EA6E4DC88
100
AcDbGroup
300

 70
     1
 71
     1
  0
GROUP
  5
EA6E54C47
102
{ACAD_REACTORS
330
EA6E4DC88
102
}
330
EA6E4DC88
100
AcDbGroup
300

 70
     1
 71
     1
  0
GROUP
  5
EA6E54C48
102
{ACAD_REACTORS
330
EA6E4DC88
102
}
330
EA6E4DC88
100
AcDbGroup
300

 70
     1
 71
     1
  0
GROUP
  5
EA6E54C49
102
{ACAD_REACTORS
330
EA6E4DC88
102
}
330
EA6E4DC88
100
AcDbGroup
300

 70
     1
 71
     1
  0
GROUP
  5
EA6E54C4A
102
{ACAD_REACTORS
330
EA6E4DC88
102
}
330
EA6E4DC88
100
AcDbGroup
300

 70
     1
 71
     1
  0
GROUP
  5
EA6E54C4B
102
{ACAD_REACTORS
330
EA6E4DC88
102
}
330
EA6E4DC88
100
AcDbGroup
300

 70
     1
 71
     1
  0
GROUP
  5
EA6E4F47F
102
{ACAD_REACTORS
330
EA6E4DC88
102
}
330
EA6E4DC88
100
AcDbGroup
300

 70
     1
 71
     1
  0
GROUP
  5
EA6E54BB8
102
{ACAD_REACTORS
330
EA6E4DC88
102
}
330
EA6E4DC88
100
AcDbGroup
300

 70
     3
 71
     1
  0
GROUP
  5
EA6E4F452
102
{ACAD_REACTORS
330
EA6E4DC88
102
}
330
EA6E4DC88
100
AcDbGroup
300

 70
     1
 71
     1
  0
GROUP
  5
EA6E4F48D
102
{ACAD_REACTORS
330
EA6E4DC88
102
}
330
EA6E4DC88
100
AcDbGroup
300

 70
     1
 71
     1
  0
GROUP
  5
EA6E54C4C
102
{ACAD_REACTORS
330
EA6E4DC88
102
}
330
EA6E4DC88
100
AcDbGroup
300

 70
     1
 71
     1
  0
GROUP
  5
EA6E54C4D
102
{ACAD_REACTORS
330
EA6E4DC88
102
}
330
EA6E4DC88
100
AcDbGroup
300

 70
     1
 71
     1
  0
GROUP
  5
EA6E54C4E
102
{ACAD_REACTORS
330
EA6E4DC88
102
}
330
EA6E4DC88
100
AcDbGroup
300

 70
     1
 71
     1
  0
GROUP
  5
EA6E54C4F
102
{ACAD_REACTORS
330
EA6E4DC88
102
}
330
EA6E4DC88
100
AcDbGroup
300

 70
     1
 71
     1
  0
GROUP
  5
EA6E54C50
102
{ACAD_REACTORS
330
EA6E4DC88
102
}
330
EA6E4DC88
100
AcDbGroup
300

 70
     1
 71
     1
  0
GROUP
  5
EA6E54C51
102
{ACAD_REACTORS
330
EA6E4DC88
102
}
330
EA6E4DC88
100
AcDbGroup
300

 70
     1
 71
     1
  0
GROUP
  5
EA6E54C52
102
{ACAD_REACTORS
330
EA6E4DC88
102
}
330
EA6E4DC88
100
AcDbGroup
300

 70
     1
 71
     1
  0
GROUP
  5
EA6E54C53
102
{ACAD_REACTORS
330
EA6E4DC88
102
}
330
EA6E4DC88
100
AcDbGroup
300

 70
     1
 71
     1
  0
GROUP
  5
EA6E54BB9
102
{ACAD_REACTORS
330
EA6E4DC88
102
}
330
EA6E4DC88
100
AcDbGroup
300

 70
     1
 71
     1
  0
GROUP
  5
EA6E54C54
102
{ACAD_REACTORS
330
EA6E4DC88
102
}
330
EA6E4DC88
100
AcDbGroup
300

 70
     1
 71
     1
  0
GROUP
  5
EA6E54C55
102
{ACAD_REACTORS
330
EA6E4DC88
102
}
330
EA6E4DC88
100
AcDbGroup
300

 70
     1
 71
     1
  0
GROUP
  5
EA6E4F48E
102
{ACAD_REACTORS
330
EA6E4DC88
102
}
330
EA6E4DC88
100
AcDbGroup
300

 70
     1
 71
     1
  0
GROUP
  5
EA6E4F4C7
102
{ACAD_REACTORS
330
EA6E4DC88
102
}
330
EA6E4DC88
100
AcDbGroup
300

 70
     1
 71
     1
  0
GROUP
  5
EA6E54C56
102
{ACAD_REACTORS
330
EA6E4DC88
102
}
330
EA6E4DC88
100
AcDbGroup
300

 70
     1
 71
     1
  0
GROUP
  5
EA6E54C57
102
{ACAD_REACTORS
330
EA6E4DC88
102
}
330
EA6E4DC88
100
AcDbGroup
300

 70
     1
 71
     1
  0
GROUP
  5
EA6E54C58
102
{ACAD_REACTORS
330
EA6E4DC88
102
}
330
EA6E4DC88
100
AcDbGroup
300

 70
     1
 71
     1
  0
GROUP
  5
EA6E54C59
102
{ACAD_REACTORS
330
EA6E4DC88
102
}
330
EA6E4DC88
100
AcDbGroup
300

 70
     1
 71
     1
  0
GROUP
  5
EA6E54C5A
102
{ACAD_REACTORS
330
EA6E4DC88
102
}
330
EA6E4DC88
100
AcDbGroup
300

 70
     1
 71
     1
  0
GROUP
  5
EA6E54C5B
102
{ACAD_REACTORS
330
EA6E4DC88
102
}
330
EA6E4DC88
100
AcDbGroup
300

 70
     1
 71
     1
  0
GROUP
  5
EA6E54BBA
102
{ACAD_REACTORS
330
EA6E4DC88
102
}
330
EA6E4DC88
100
AcDbGroup
300

 70
     1
 71
     1
  0
GROUP
  5
EA6E54C5C
102
{ACAD_REACTORS
330
EA6E4DC88
102
}
330
EA6E4DC88
100
AcDbGroup
300

 70
     1
 71
     1
  0
GROUP
  5
EA6E54C5D
102
{ACAD_REACTORS
330
EA6E4DC88
102
}
330
EA6E4DC88
100
AcDbGroup
300

 70
     1
 71
     1
  0
GROUP
  5
EA6E54C5E
102
{ACAD_REACTORS
330
EA6E4DC88
102
}
330
EA6E4DC88
100
AcDbGroup
300

 70
     1
 71
     1
  0
GROUP
  5
EA6E4F478
102
{ACAD_REACTORS
330
EA6E4DC88
102
}
330
EA6E4DC88
100
AcDbGroup
300

 70
     1
 71
     1
  0
GROUP
  5
EA6E4F48F
102
{ACAD_REACTORS
330
EA6E4DC88
102
}
330
EA6E4DC88
100
AcDbGroup
300

 70
     1
 71
     1
  0
GROUP
  5
EA6E54C5F
102
{ACAD_REACTORS
330
EA6E4DC88
102
}
330
EA6E4DC88
100
AcDbGroup
300

 70
     1
 71
     1
  0
GROUP
  5
EA6E4F4C8
102
{ACAD_REACTORS
330
EA6E4DC88
102
}
330
EA6E4DC88
100
AcDbGroup
300

 70
     1
 71
     1
  0
GROUP
  5
EA6E54C60
102
{ACAD_REACTORS
330
EA6E4DC88
102
}
330
EA6E4DC88
100
AcDbGroup
300

 70
     1
 71
     1
  0
GROUP
  5
EA6E54C61
102
{ACAD_REACTORS
330
EA6E4DC88
102
}
330
EA6E4DC88
100
AcDbGroup
300

 70
     1
 71
     1
  0
GROUP
  5
EA6E54C62
102
{ACAD_REACTORS
330
EA6E4DC88
102
}
330
EA6E4DC88
100
AcDbGroup
300

 70
     3
 71
     1
  0
GROUP
  5
EA6E54BBB
102
{ACAD_REACTORS
330
EA6E4DC88
102
}
330
EA6E4DC88
100
AcDbGroup
300

 70
     3
 71
     1
  0
GROUP
  5
EA6E54C63
102
{ACAD_REACTORS
330
EA6E4DC88
102
}
330
EA6E4DC88
100
AcDbGroup
300

 70
     1
 71
     1
  0
GROUP
  5
EA6E54C64
102
{ACAD_REACTORS
330
EA6E4DC88
102
}
330
EA6E4DC88
100
AcDbGroup
300

 70
     1
 71
     1
  0
GROUP
  5
EA6E54C65
102
{ACAD_REACTORS
330
EA6E4DC88
102
}
330
EA6E4DC88
100
AcDbGroup
300

 70
     1
 71
     1
  0
GROUP
  5
EA6E54C66
102
{ACAD_REACTORS
330
EA6E4DC88
102
}
330
EA6E4DC88
100
AcDbGroup
300

 70
     3
 71
     1
  0
GROUP
  5
EA6E54C67
102
{ACAD_REACTORS
330
EA6E4DC88
102
}
330
EA6E4DC88
100
AcDbGroup
300

 70
     1
 71
     1
  0
GROUP
  5
EA6E4F490
102
{ACAD_REACTORS
330
EA6E4DC88
102
}
330
EA6E4DC88
100
AcDbGroup
300

 70
     1
 71
     1
  0
GROUP
  5
EA6E54C68
102
{ACAD_REACTORS
330
EA6E4DC88
102
}
330
EA6E4DC88
100
AcDbGroup
300

 70
     1
 71
     1
  0
GROUP
  5
EA6E54C69
102
{ACAD_REACTORS
330
EA6E4DC88
102
}
330
EA6E4DC88
100
AcDbGroup
300

 70
     1
 71
     1
  0
GROUP
  5
EA6E4F4C9
102
{ACAD_REACTORS
330
EA6E4DC88
102
}
330
EA6E4DC88
100
AcDbGroup
300

 70
     1
 71
     1
  0
GROUP
  5
EA6E54C6A
102
{ACAD_REACTORS
330
EA6E4DC88
102
}
330
EA6E4DC88
100
AcDbGroup
300

 70
     1
 71
     1
  0
GROUP
  5
EA6E4F44B
102
{ACAD_REACTORS
330
EA6E4DC88
102
}
330
EA6E4DC88
100
AcDbGroup
300

 70
     1
 71
     1
  0
GROUP
  5
EA6E54C6B
102
{ACAD_REACTORS
330
EA6E4DC88
102
}
330
EA6E4DC88
100
AcDbGroup
300

 70
     1
 71
     1
  0
GROUP
  5
EA6E54C6C
102
{ACAD_REACTORS
330
EA6E4DC88
102
}
330
EA6E4DC88
100
AcDbGroup
300

 70
     1
 71
     1
  0
GROUP
  5
EA6E54C6D
102
{ACAD_REACTORS
330
EA6E4DC88
102
}
330
EA6E4DC88
100
AcDbGroup
300

 70
     1
 71
     1
  0
GROUP
  5
EA6E54C6E
102
{ACAD_REACTORS
330
EA6E4DC88
102
}
330
EA6E4DC88
100
AcDbGroup
300

 70
     1
 71
     1
  0
GROUP
  5
EA6E54C6F
102
{ACAD_REACTORS
330
EA6E4DC88
102
}
330
EA6E4DC88
100
AcDbGroup
300

 70
     1
 71
     1
  0
GROUP
  5
EA6E54C70
102
{ACAD_REACTORS
330
EA6E4DC88
102
}
330
EA6E4DC88
100
AcDbGroup
300

 70
     1
 71
     1
  0
GROUP
  5
EA6E4F491
102
{ACAD_REACTORS
330
EA6E4DC88
102
}
330
EA6E4DC88
100
AcDbGroup
300

 70
     1
 71
     1
  0
GROUP
  5
EA6E54C71
102
{ACAD_REACTORS
330
EA6E4DC88
102
}
330
EA6E4DC88
100
AcDbGroup
300

 70
     1
 71
     1
  0
GROUP
  5
EA6E54C72
102
{ACAD_REACTORS
330
EA6E4DC88
102
}
330
EA6E4DC88
100
AcDbGroup
300

 70
     1
 71
     1
  0
GROUP
  5
EA6E54C73
102
{ACAD_REACTORS
330
EA6E4DC88
102
}
330
EA6E4DC88
100
AcDbGroup
300

 70
     1
 71
     1
  0
GROUP
  5
EA6E54BBC
102
{ACAD_REACTORS
330
EA6E4DC88
102
}
330
EA6E4DC88
100
AcDbGroup
300

 70
     1
 71
     1
  0
GROUP
  5
EA6E4F4CA
102
{ACAD_REACTORS
330
EA6E4DC88
102
}
330
EA6E4DC88
100
AcDbGroup
300

 70
     1
 71
     1
  0
GROUP
  5
EA6E54C74
102
{ACAD_REACTORS
330
EA6E4DC88
102
}
330
EA6E4DC88
100
AcDbGroup
300

 70
     1
 71
     1
  0
GROUP
  5
EA6E54C75
102
{ACAD_REACTORS
330
EA6E4DC88
102
}
330
EA6E4DC88
100
AcDbGroup
300

 70
     1
 71
     1
  0
GROUP
  5
EA6E54C76
102
{ACAD_REACTORS
330
EA6E4DC88
102
}
330
EA6E4DC88
100
AcDbGroup
300

 70
     1
 71
     1
  0
GROUP
  5
EA6E54C77
102
{ACAD_REACTORS
330
EA6E4DC88
102
}
330
EA6E4DC88
100
AcDbGroup
300

 70
     1
 71
     1
  0
GROUP
  5
EA6E54C78
102
{ACAD_REACTORS
330
EA6E4DC88
102
}
330
EA6E4DC88
100
AcDbGroup
300

 70
     1
 71
     1
  0
GROUP
  5
EA6E54C79
102
{ACAD_REACTORS
330
EA6E4DC88
102
}
330
EA6E4DC88
100
AcDbGroup
300

 70
     1
 71
     1
  0
GROUP
  5
EA6E4F492
102
{ACAD_REACTORS
330
EA6E4DC88
102
}
330
EA6E4DC88
100
AcDbGroup
300

 70
     3
 71
     1
  0
GROUP
  5
EA6E54C7A
102
{ACAD_REACTORS
330
EA6E4DC88
102
}
330
EA6E4DC88
100
AcDbGroup
300

 70
     1
 71
     1
  0
GROUP
  5
EA6E54C7B
102
{ACAD_REACTORS
330
EA6E4DC88
102
}
330
EA6E4DC88
100
AcDbGroup
300

 70
     1
 71
     1
  0
GROUP
  5
EA6E54BBD
102
{ACAD_REACTORS
330
EA6E4DC88
102
}
330
EA6E4DC88
100
AcDbGroup
300

 70
     1
 71
     1
  0
GROUP
  5
EA6E54C7C
102
{ACAD_REACTORS
330
EA6E4DC88
102
}
330
EA6E4DC88
100
AcDbGroup
300

 70
     1
 71
     1
  0
GROUP
  5
EA6E54C7D
102
{ACAD_REACTORS
330
EA6E4DC88
102
}
330
EA6E4DC88
100
AcDbGroup
300

 70
     1
 71
     1
  0
GROUP
  5
EA6E4F4AA
102
{ACAD_REACTORS
330
EA6E4DC88
102
}
330
EA6E4DC88
100
AcDbGroup
300

 70
     1
 71
     1
  0
GROUP
  5
EA6E4F4CB
102
{ACAD_REACTORS
330
EA6E4DC88
102
}
330
EA6E4DC88
100
AcDbGroup
300

 70
     1
 71
     1
  0
GROUP
  5
EA6E54C7E
102
{ACAD_REACTORS
330
EA6E4DC88
102
}
330
EA6E4DC88
100
AcDbGroup
300

 70
     1
 71
     1
  0
GROUP
  5
EA6E54C7F
102
{ACAD_REACTORS
330
EA6E4DC88
102
}
330
EA6E4DC88
100
AcDbGroup
300

 70
     1
 71
     1
  0
GROUP
  5
EA6E54C80
102
{ACAD_REACTORS
330
EA6E4DC88
102
}
330
EA6E4DC88
100
AcDbGroup
300

 70
     1
 71
     1
  0
GROUP
  5
EA6E54C81
102
{ACAD_REACTORS
330
EA6E4DC88
102
}
330
EA6E4DC88
100
AcDbGroup
300

 70
     1
 71
     1
  0
GROUP
  5
EA6E4F493
102
{ACAD_REACTORS
330
EA6E4DC88
102
}
330
EA6E4DC88
100
AcDbGroup
300

 70
     1
 71
     1
  0
GROUP
  5
EA6E54C82
102
{ACAD_REACTORS
330
EA6E4DC88
102
}
330
EA6E4DC88
100
AcDbGroup
300

 70
     1
 71
     1
  0
GROUP
  5
EA6E54BBE
102
{ACAD_REACTORS
330
EA6E4DC88
102
}
330
EA6E4DC88
100
AcDbGroup
300

 70
     1
 71
     1
  0
GROUP
  5
EA6E54C83
102
{ACAD_REACTORS
330
EA6E4DC88
102
}
330
EA6E4DC88
100
AcDbGroup
300

 70
     1
 71
     1
  0
GROUP
  5
EA6E54C84
102
{ACAD_REACTORS
330
EA6E4DC88
102
}
330
EA6E4DC88
100
AcDbGroup
300

 70
     1
 71
     1
  0
GROUP
  5
EA6E54C85
102
{ACAD_REACTORS
330
EA6E4DC88
102
}
330
EA6E4DC88
100
AcDbGroup
300

 70
     1
 71
     1
  0
GROUP
  5
EA6E54C86
102
{ACAD_REACTORS
330
EA6E4DC88
102
}
330
EA6E4DC88
100
AcDbGroup
300

 70
     1
 71
     1
  0
GROUP
  5
EA6E54C87
102
{ACAD_REACTORS
330
EA6E4DC88
102
}
330
EA6E4DC88
100
AcDbGroup
300

 70
     1
 71
     1
  0
GROUP
  5
EA6E4F4CC
102
{ACAD_REACTORS
330
EA6E4DC88
102
}
330
EA6E4DC88
100
AcDbGroup
300

 70
     1
 71
     1
  0
GROUP
  5
EA6E54C88
102
{ACAD_REACTORS
330
EA6E4DC88
102
}
330
EA6E4DC88
100
AcDbGroup
300

 70
     1
 71
     1
  0
GROUP
  5
EA6E54C89
102
{ACAD_REACTORS
330
EA6E4DC88
102
}
330
EA6E4DC88
100
AcDbGroup
300

 70
     1
 71
     1
  0
GROUP
  5
EA6E54C8A
102
{ACAD_REACTORS
330
EA6E4DC88
102
}
330
EA6E4DC88
100
AcDbGroup
300

 70
     3
 71
     1
  0
GROUP
  5
EA6E4F450
102
{ACAD_REACTORS
330
EA6E4DC88
102
}
330
EA6E4DC88
100
AcDbGroup
300

 70
     1
 71
     1
  0
GROUP
  5
EA6E54BBF
102
{ACAD_REACTORS
330
EA6E4DC88
102
}
330
EA6E4DC88
100
AcDbGroup
300

 70
     1
 71
     1
  0
GROUP
  5
EA6E54C8B
102
{ACAD_REACTORS
330
EA6E4DC88
102
}
330
EA6E4DC88
100
AcDbGroup
300

 70
     1
 71
     1
  0
GROUP
  5
EA6E54C8C
102
{ACAD_REACTORS
330
EA6E4DC88
102
}
330
EA6E4DC88
100
AcDbGroup
300

 70
     1
 71
     1
  0
GROUP
  5
EA6E54C8D
102
{ACAD_REACTORS
330
EA6E4DC88
102
}
330
EA6E4DC88
100
AcDbGroup
300

 70
     1
 71
     1
  0
GROUP
  5
EA6E54C8E
102
{ACAD_REACTORS
330
EA6E4DC88
102
}
330
EA6E4DC88
100
AcDbGroup
300

 70
     1
 71
     1
  0
GROUP
  5
EA6E54C8F
102
{ACAD_REACTORS
330
EA6E4DC88
102
}
330
EA6E4DC88
100
AcDbGroup
300

 70
     1
 71
     1
  0
GROUP
  5
EA6E54C90
102
{ACAD_REACTORS
330
EA6E4DC88
102
}
330
EA6E4DC88
100
AcDbGroup
300

 70
     1
 71
     1
  0
GROUP
  5
EA6E54C91
102
{ACAD_REACTORS
330
EA6E4DC88
102
}
330
EA6E4DC88
100
AcDbGroup
300

 70
     1
 71
     1
  0
GROUP
  5
EA6E4F4CD
102
{ACAD_REACTORS
330
EA6E4DC88
102
}
330
EA6E4DC88
100
AcDbGroup
300

 70
     1
 71
     1
  0
GROUP
  5
EA6E54C92
102
{ACAD_REACTORS
330
EA6E4DC88
102
}
330
EA6E4DC88
100
AcDbGroup
300

 70
     1
 71
     1
  0
GROUP
  5
EA6E54C93
102
{ACAD_REACTORS
330
EA6E4DC88
102
}
330
EA6E4DC88
100
AcDbGroup
300

 70
     1
 71
     1
  0
GROUP
  5
EA6E4F4BA
102
{ACAD_REACTORS
330
EA6E4DC88
102
}
330
EA6E4DC88
100
AcDbGroup
300

 70
     1
 71
     1
  0
GROUP
  5
EA6E4F494
102
{ACAD_REACTORS
330
EA6E4DC88
102
}
330
EA6E4DC88
100
AcDbGroup
300

 70
     1
 71
     1
  0
GROUP
  5
EA6E54C94
102
{ACAD_REACTORS
330
EA6E4DC88
102
}
330
EA6E4DC88
100
AcDbGroup
300

 70
     1
 71
     1
  0
GROUP
  5
EA6E54C95
102
{ACAD_REACTORS
330
EA6E4DC88
102
}
330
EA6E4DC88
100
AcDbGroup
300

 70
     1
 71
     1
  0
GROUP
  5
EA6E54C96
102
{ACAD_REACTORS
330
EA6E4DC88
102
}
330
EA6E4DC88
100
AcDbGroup
300

 70
     1
 71
     1
  0
GROUP
  5
EA6E54C97
102
{ACAD_REACTORS
330
EA6E4DC88
102
}
330
EA6E4DC88
100
AcDbGroup
300

 70
     1
 71
     1
  0
GROUP
  5
EA6E54C98
102
{ACAD_REACTORS
330
EA6E4DC88
102
}
330
EA6E4DC88
100
AcDbGroup
300

 70
     1
 71
     1
  0
GROUP
  5
EA6E54C99
102
{ACAD_REACTORS
330
EA6E4DC88
102
}
330
EA6E4DC88
100
AcDbGroup
300

 70
     1
 71
     1
  0
GROUP
  5
EA6E54C9A
102
{ACAD_REACTORS
330
EA6E4DC88
102
}
330
EA6E4DC88
100
AcDbGroup
300

 70
     1
 71
     1
  0
GROUP
  5
EA6E54C9B
102
{ACAD_REACTORS
330
EA6E4DC88
102
}
330
EA6E4DC88
100
AcDbGroup
300

 70
     3
 71
     1
  0
GROUP
  5
EA6E4F4CE
102
{ACAD_REACTORS
330
EA6E4DC88
102
}
330
EA6E4DC88
100
AcDbGroup
300

 70
     1
 71
     1
  0
GROUP
  5
EA6E54BAB
102
{ACAD_REACTORS
330
EA6E4DC88
102
}
330
EA6E4DC88
100
AcDbGroup
300

 70
     3
 71
     1
  0
GROUP
  5
EA6E54BC0
102
{ACAD_REACTORS
330
EA6E4DC88
102
}
330
EA6E4DC88
100
AcDbGroup
300

 70
     1
 71
     1
  0
GROUP
  5
EA6E54C9C
102
{ACAD_REACTORS
330
EA6E4DC88
102
}
330
EA6E4DC88
100
AcDbGroup
300

 70
     1
 71
     1
  0
GROUP
  5
EA6E4F44D
102
{ACAD_REACTORS
330
EA6E4DC88
102
}
330
EA6E4DC88
100
AcDbGroup
300

 70
     1
 71
     1
  0
GROUP
  5
EA6E54C9D
102
{ACAD_REACTORS
330
EA6E4DC88
102
}
330
EA6E4DC88
100
AcDbGroup
300

 70
     1
 71
     1
  0
GROUP
  5
EA6E54C9E
102
{ACAD_REACTORS
330
EA6E4DC88
102
}
330
EA6E4DC88
100
AcDbGroup
300

 70
     1
 71
     1
  0
GROUP
  5
EA6E54C9F
102
{ACAD_REACTORS
330
EA6E4DC88
102
}
330
EA6E4DC88
100
AcDbGroup
300

 70
     1
 71
     1
  0
GROUP
  5
EA6E54CA0
102
{ACAD_REACTORS
330
EA6E4DC88
102
}
330
EA6E4DC88
100
AcDbGroup
300

 70
     3
 71
     1
  0
GROUP
  5
EA6E54CA1
102
{ACAD_REACTORS
330
EA6E4DC88
102
}
330
EA6E4DC88
100
AcDbGroup
300

 70
     1
 71
     1
  0
GROUP
  5
EA6E54CA2
102
{ACAD_REACTORS
330
EA6E4DC88
102
}
330
EA6E4DC88
100
AcDbGroup
300

 70
     1
 71
     1
  0
GROUP
  5
EA6E54CA3
102
{ACAD_REACTORS
330
EA6E4DC88
102
}
330
EA6E4DC88
100
AcDbGroup
300

 70
     1
 71
     1
  0
GROUP
  5
EA6E54CA4
102
{ACAD_REACTORS
330
EA6E4DC88
102
}
330
EA6E4DC88
100
AcDbGroup
300

 70
     1
 71
     1
  0
GROUP
  5
EA6E54BC1
102
{ACAD_REACTORS
330
EA6E4DC88
102
}
330
EA6E4DC88
100
AcDbGroup
300

 70
     1
 71
     1
  0
GROUP
  5
EA6E54CA5
102
{ACAD_REACTORS
330
EA6E4DC88
102
}
330
EA6E4DC88
100
AcDbGroup
300

 70
     1
 71
     1
  0
GROUP
  5
EA6E4F4CF
102
{ACAD_REACTORS
330
EA6E4DC88
102
}
330
EA6E4DC88
100
AcDbGroup
300

 70
     1
 71
     1
  0
GROUP
  5
EA6E4F495
102
{ACAD_REACTORS
330
EA6E4DC88
102
}
330
EA6E4DC88
100
AcDbGroup
300

 70
     1
 71
     1
  0
GROUP
  5
EA6E54CA6
102
{ACAD_REACTORS
330
EA6E4DC88
102
}
330
EA6E4DC88
100
AcDbGroup
300

 70
     1
 71
     1
  0
GROUP
  5
EA6E54CA7
102
{ACAD_REACTORS
330
EA6E4DC88
102
}
330
EA6E4DC88
100
AcDbGroup
300

 70
     1
 71
     1
  0
GROUP
  5
EA6E54CA8
102
{ACAD_REACTORS
330
EA6E4DC88
102
}
330
EA6E4DC88
100
AcDbGroup
300

 70
     1
 71
     1
  0
GROUP
  5
EA6E54CA9
102
{ACAD_REACTORS
330
EA6E4DC88
102
}
330
EA6E4DC88
100
AcDbGroup
300

 70
     1
 71
     1
  0
GROUP
  5
EA6E54CAA
102
{ACAD_REACTORS
330
EA6E4DC88
102
}
330
EA6E4DC88
100
AcDbGroup
300

 70
     1
 71
     1
  0
GROUP
  5
EA6E54CAB
102
{ACAD_REACTORS
330
EA6E4DC88
102
}
330
EA6E4DC88
100
AcDbGroup
300

 70
     1
 71
     1
  0
GROUP
  5
EA6E54CAC
102
{ACAD_REACTORS
330
EA6E4DC88
102
}
330
EA6E4DC88
100
AcDbGroup
300

 70
     1
 71
     1
  0
GROUP
  5
EA6E54BC2
102
{ACAD_REACTORS
330
EA6E4DC88
102
}
330
EA6E4DC88
100
AcDbGroup
300

 70
     1
 71
     1
  0
GROUP
  5
EA6E54CAD
102
{ACAD_REACTORS
330
EA6E4DC88
102
}
330
EA6E4DC88
100
AcDbGroup
300

 70
     1
 71
     1
  0
GROUP
  5
EA6E54CAE
102
{ACAD_REACTORS
330
EA6E4DC88
102
}
330
EA6E4DC88
100
AcDbGroup
300

 70
     1
 71
     1
  0
GROUP
  5
EA6E54CAF
102
{ACAD_REACTORS
330
EA6E4DC88
102
}
330
EA6E4DC88
100
AcDbGroup
300

 70
     1
 71
     1
  0
GROUP
  5
EA6E4F496
102
{ACAD_REACTORS
330
EA6E4DC88
102
}
330
EA6E4DC88
100
AcDbGroup
300

 70
     1
 71
     1
  0
GROUP
  5
EA6E4F4D0
102
{ACAD_REACTORS
330
EA6E4DC88
102
}
330
EA6E4DC88
100
AcDbGroup
300

 70
     1
 71
     1
  0
GROUP
  5
EA6E54CB0
102
{ACAD_REACTORS
330
EA6E4DC88
102
}
330
EA6E4DC88
100
AcDbGroup
300

 70
     1
 71
     1
  0
GROUP
  5
EA6E54CB1
102
{ACAD_REACTORS
330
EA6E4DC88
102
}
330
EA6E4DC88
100
AcDbGroup
300

 70
     1
 71
     1
  0
GROUP
  5
EA6E54CB2
102
{ACAD_REACTORS
330
EA6E4DC88
102
}
330
EA6E4DC88
100
AcDbGroup
300

 70
     1
 71
     1
  0
GROUP
  5
EA6E54CB3
102
{ACAD_REACTORS
330
EA6E4DC88
102
}
330
EA6E4DC88
100
AcDbGroup
300

 70
     3
 71
     1
  0
GROUP
  5
EA6E54CB4
102
{ACAD_REACTORS
330
EA6E4DC88
102
}
330
EA6E4DC88
100
AcDbGroup
300

 70
     1
 71
     1
  0
GROUP
  5
EA6E54BC3
102
{ACAD_REACTORS
330
EA6E4DC88
102
}
330
EA6E4DC88
100
AcDbGroup
300

 70
     1
 71
     1
  0
GROUP
  5
EA6E54CB5
102
{ACAD_REACTORS
330
EA6E4DC88
102
}
330
EA6E4DC88
100
AcDbGroup
300

 70
     1
 71
     1
  0
GROUP
  5
EA6E54CB6
102
{ACAD_REACTORS
330
EA6E4DC88
102
}
330
EA6E4DC88
100
AcDbGroup
300

 70
     1
 71
     1
  0
GROUP
  5
EA6E54CB7
102
{ACAD_REACTORS
330
EA6E4DC88
102
}
330
EA6E4DC88
100
AcDbGroup
300

 70
     1
 71
     1
  0
GROUP
  5
EA6E54CB8
102
{ACAD_REACTORS
330
EA6E4DC88
102
}
330
EA6E4DC88
100
AcDbGroup
300

 70
     1
 71
     1
  0
GROUP
  5
EA6E4F479
102
{ACAD_REACTORS
330
EA6E4DC88
102
}
330
EA6E4DC88
100
AcDbGroup
300

 70
     1
 71
     1
  0
GROUP
  5
EA6E4F497
102
{ACAD_REACTORS
330
EA6E4DC88
102
}
330
EA6E4DC88
100
AcDbGroup
300

 70
     1
 71
     1
  0
GROUP
  5
EA6E54CB9
102
{ACAD_REACTORS
330
EA6E4DC88
102
}
330
EA6E4DC88
100
AcDbGroup
300

 70
     1
 71
     1
  0
GROUP
  5
EA6E4F453
102
{ACAD_REACTORS
330
EA6E4DC88
102
}
330
EA6E4DC88
100
AcDbGroup
300

 70
     1
 71
     1
  0
GROUP
  5
EA6E54CBA
102
{ACAD_REACTORS
330
EA6E4DC88
102
}
330
EA6E4DC88
100
AcDbGroup
300

 70
     1
 71
     1
  0
GROUP
  5
EA6E54CBB
102
{ACAD_REACTORS
330
EA6E4DC88
102
}
330
EA6E4DC88
100
AcDbGroup
300

 70
     1
 71
     1
  0
GROUP
  5
EA6E54BC4
102
{ACAD_REACTORS
330
EA6E4DC88
102
}
330
EA6E4DC88
100
AcDbGroup
300

 70
     1
 71
     1
  0
GROUP
  5
EA6E54CBC
102
{ACAD_REACTORS
330
EA6E4DC88
102
}
330
EA6E4DC88
100
AcDbGroup
300

 70
     1
 71
     1
  0
GROUP
  5
EA6E54CBD
102
{ACAD_REACTORS
330
EA6E4DC88
102
}
330
EA6E4DC88
100
AcDbGroup
300

 70
     1
 71
     1
  0
GROUP
  5
EA6E54CBE
102
{ACAD_REACTORS
330
EA6E4DC88
102
}
330
EA6E4DC88
100
AcDbGroup
300

 70
     1
 71
     1
  0
GROUP
  5
EA6E54CBF
102
{ACAD_REACTORS
330
EA6E4DC88
102
}
330
EA6E4DC88
100
AcDbGroup
300

 70
     1
 71
     1
  0
GROUP
  5
EA6E54CC0
102
{ACAD_REACTORS
330
EA6E4DC88
102
}
330
EA6E4DC88
100
AcDbGroup
300

 70
     1
 71
     1
  0
GROUP
  5
EA6E54CC1
102
{ACAD_REACTORS
330
EA6E4DC88
102
}
330
EA6E4DC88
100
AcDbGroup
300

 70
     3
 71
     1
  0
GROUP
  5
EA6E4F498
102
{ACAD_REACTORS
330
EA6E4DC88
102
}
330
EA6E4DC88
100
AcDbGroup
300

 70
     1
 71
     1
  0
GROUP
  5
EA6E54CC2
102
{ACAD_REACTORS
330
EA6E4DC88
102
}
330
EA6E4DC88
100
AcDbGroup
300

 70
     1
 71
     1
  0
GROUP
  5
EA6E54CC3
102
{ACAD_REACTORS
330
EA6E4DC88
102
}
330
EA6E4DC88
100
AcDbGroup
300

 70
     1
 71
     1
  0
GROUP
  5
EA6E4F4D1
102
{ACAD_REACTORS
330
EA6E4DC88
102
}
330
EA6E4DC88
100
AcDbGroup
300

 70
     1
 71
     1
  0
GROUP
  5
EA6E4F4B1
102
{ACAD_REACTORS
330
EA6E4DC88
102
}
330
EA6E4DC88
100
AcDbGroup
300

 70
     1
 71
     1
  0
GROUP
  5
EA6E54CC4
102
{ACAD_REACTORS
330
EA6E4DC88
102
}
330
EA6E4DC88
100
AcDbGroup
300

 70
     1
 71
     1
  0
GROUP
  5
EA6E54CC5
102
{ACAD_REACTORS
330
EA6E4DC88
102
}
330
EA6E4DC88
100
AcDbGroup
300

 70
     1
 71
     1
  0
GROUP
  5
EA6E54CC6
102
{ACAD_REACTORS
330
EA6E4DC88
102
}
330
EA6E4DC88
100
AcDbGroup
300

 70
     1
 71
     1
  0
GROUP
  5
EA6E54CC7
102
{ACAD_REACTORS
330
EA6E4DC88
102
}
330
EA6E4DC88
100
AcDbGroup
300

 70
     1
 71
     1
  0
GROUP
  5
EA6E54CC8
102
{ACAD_REACTORS
330
EA6E4DC88
102
}
330
EA6E4DC88
100
AcDbGroup
300

 70
     1
 71
     1
  0
GROUP
  5
EA6E54CC9
102
{ACAD_REACTORS
330
EA6E4DC88
102
}
330
EA6E4DC88
100
AcDbGroup
300

 70
     1
 71
     1
  0
GROUP
  5
EA6E54CCA
102
{ACAD_REACTORS
330
EA6E4DC88
102
}
330
EA6E4DC88
100
AcDbGroup
300

 70
     1
 71
     1
  0
GROUP
  5
EA6E4F499
102
{ACAD_REACTORS
330
EA6E4DC88
102
}
330
EA6E4DC88
100
AcDbGroup
300

 70
     1
 71
     1
  0
GROUP
  5
EA6E54CCB
102
{ACAD_REACTORS
330
EA6E4DC88
102
}
330
EA6E4DC88
100
AcDbGroup
300

 70
     1
 71
     1
  0
GROUP
  5
EA6E54CCC
102
{ACAD_REACTORS
330
EA6E4DC88
102
}
330
EA6E4DC88
100
AcDbGroup
300

 70
     1
 71
     1
  0
GROUP
  5
EA6E54BC5
102
{ACAD_REACTORS
330
EA6E4DC88
102
}
330
EA6E4DC88
100
AcDbGroup
300

 70
     1
 71
     1
  0
GROUP
  5
EA6E54CCD
102
{ACAD_REACTORS
330
EA6E4DC88
102
}
330
EA6E4DC88
100
AcDbGroup
300

 70
     1
 71
     1
  0
GROUP
  5
EA6E4F4D2
102
{ACAD_REACTORS
330
EA6E4DC88
102
}
330
EA6E4DC88
100
AcDbGroup
300

 70
     1
 71
     1
  0
GROUP
  5
EA6E54CCE
102
{ACAD_REACTORS
330
EA6E4DC88
102
}
330
EA6E4DC88
100
AcDbGroup
300

 70
     1
 71
     1
  0
GROUP
  5
EA6E54CCF
102
{ACAD_REACTORS
330
EA6E4DC88
102
}
330
EA6E4DC88
100
AcDbGroup
300

 70
     1
 71
     1
  0
GROUP
  5
EA6E54CD0
102
{ACAD_REACTORS
330
EA6E4DC88
102
}
330
EA6E4DC88
100
AcDbGroup
300

 70
     1
 71
     1
  0
GROUP
  5
EA6E54CD1
102
{ACAD_REACTORS
330
EA6E4DC88
102
}
330
EA6E4DC88
100
AcDbGroup
300

 70
     1
 71
     1
  0
GROUP
  5
EA6E54CD2
102
{ACAD_REACTORS
330
EA6E4DC88
102
}
330
EA6E4DC88
100
AcDbGroup
300

 70
     1
 71
     1
  0
GROUP
  5
EA6E54CD3
102
{ACAD_REACTORS
330
EA6E4DC88
102
}
330
EA6E4DC88
100
AcDbGroup
300

 70
     1
 71
     1
  0
GROUP
  5
EA6E4F49A
102
{ACAD_REACTORS
330
EA6E4DC88
102
}
330
EA6E4DC88
100
AcDbGroup
300

 70
     1
 71
     1
  0
GROUP
  5
EA6E54CD4
102
{ACAD_REACTORS
330
EA6E4DC88
102
}
330
EA6E4DC88
100
AcDbGroup
300

 70
     1
 71
     1
  0
GROUP
  5
EA6E54BC6
102
{ACAD_REACTORS
330
EA6E4DC88
102
}
330
EA6E4DC88
100
AcDbGroup
300

 70
     1
 71
     1
  0
GROUP
  5
EA6E54CD5
102
{ACAD_REACTORS
330
EA6E4DC88
102
}
330
EA6E4DC88
100
AcDbGroup
300

 70
     3
 71
     1
  0
GROUP
  5
EA6E54CD6
102
{ACAD_REACTORS
330
EA6E4DC88
102
}
330
EA6E4DC88
100
AcDbGroup
300

 70
     1
 71
     1
  0
GROUP
  5
EA6E54CD7
102
{ACAD_REACTORS
330
EA6E4DC88
102
}
330
EA6E4DC88
100
AcDbGroup
300

 70
     1
 71
     1
  0
GROUP
  5
EA6E4F4D3
102
{ACAD_REACTORS
330
EA6E4DC88
102
}
330
EA6E4DC88
100
AcDbGroup
300

 70
     1
 71
     1
  0
GROUP
  5
EA6E54CD8
102
{ACAD_REACTORS
330
EA6E4DC88
102
}
330
EA6E4DC88
100
AcDbGroup
300

 70
     1
 71
     1
  0
GROUP
  5
EA6E54CD9
102
{ACAD_REACTORS
330
EA6E4DC88
102
}
330
EA6E4DC88
100
AcDbGroup
300

 70
     1
 71
     1
  0
GROUP
  5
EA6E54CDA
102
{ACAD_REACTORS
330
EA6E4DC88
102
}
330
EA6E4DC88
100
AcDbGroup
300

 70
     1
 71
     1
  0
GROUP
  5
EA6E54CDB
102
{ACAD_REACTORS
330
EA6E4DC88
102
}
330
EA6E4DC88
100
AcDbGroup
300

 70
     1
 71
     1
  0
GROUP
  5
EA6E54CDC
102
{ACAD_REACTORS
330
EA6E4DC88
102
}
330
EA6E4DC88
100
AcDbGroup
300

 70
     1
 71
     1
  0
GROUP
  5
EA6E4F49B
102
{ACAD_REACTORS
330
EA6E4DC88
102
}
330
EA6E4DC88
100
AcDbGroup
300

 70
     1
 71
     1
  0
GROUP
  5
EA6E54BC7
102
{ACAD_REACTORS
330
EA6E4DC88
102
}
330
EA6E4DC88
100
AcDbGroup
300

 70
     1
 71
     1
  0
GROUP
  5
EA6E54CDD
102
{ACAD_REACTORS
330
EA6E4DC88
102
}
330
EA6E4DC88
100
AcDbGroup
300

 70
     1
 71
     1
  0
GROUP
  5
EA6E54CDE
102
{ACAD_REACTORS
330
EA6E4DC88
102
}
330
EA6E4DC88
100
AcDbGroup
300

 70
     1
 71
     1
  0
GROUP
  5
EA6E54CDF
102
{ACAD_REACTORS
330
EA6E4DC88
102
}
330
EA6E4DC88
100
AcDbGroup
300

 70
     1
 71
     1
  0
GROUP
  5
EA6E54CE0
102
{ACAD_REACTORS
330
EA6E4DC88
102
}
330
EA6E4DC88
100
AcDbGroup
300

 70
     1
 71
     1
  0
GROUP
  5
EA6E54CE1
102
{ACAD_REACTORS
330
EA6E4DC88
102
}
330
EA6E4DC88
100
AcDbGroup
300

 70
     1
 71
     1
  0
GROUP
  5
EA6E4F4AB
102
{ACAD_REACTORS
330
EA6E4DC88
102
}
330
EA6E4DC88
100
AcDbGroup
300

 70
     1
 71
     1
  0
GROUP
  5
EA6E4F4D4
102
{ACAD_REACTORS
330
EA6E4DC88
102
}
330
EA6E4DC88
100
AcDbGroup
300

 70
     1
 71
     1
  0
GROUP
  5
EA6E54CE2
102
{ACAD_REACTORS
330
EA6E4DC88
102
}
330
EA6E4DC88
100
AcDbGroup
300

 70
     1
 71
     1
  0
GROUP
  5
EA6E54CE3
102
{ACAD_REACTORS
330
EA6E4DC88
102
}
330
EA6E4DC88
100
AcDbGroup
300

 70
     1
 71
     1
  0
GROUP
  5
EA6E54CE4
102
{ACAD_REACTORS
330
EA6E4DC88
102
}
330
EA6E4DC88
100
AcDbGroup
300

 70
     1
 71
     1
  0
GROUP
  5
EA6E54BC8
102
{ACAD_REACTORS
330
EA6E4DC88
102
}
330
EA6E4DC88
100
AcDbGroup
300

 70
     1
 71
     1
  0
GROUP
  5
EA6E4F49C
102
{ACAD_REACTORS
330
EA6E4DC88
102
}
330
EA6E4DC88
100
AcDbGroup
300

 70
     1
 71
     1
  0
GROUP
  5
EA6E54CE5
102
{ACAD_REACTORS
330
EA6E4DC88
102
}
330
EA6E4DC88
100
AcDbGroup
300

 70
     1
 71
     1
  0
GROUP
  5
EA6E54CE6
102
{ACAD_REACTORS
330
EA6E4DC88
102
}
330
EA6E4DC88
100
AcDbGroup
300

 70
     1
 71
     1
  0
GROUP
  5
EA6E54CE7
102
{ACAD_REACTORS
330
EA6E4DC88
102
}
330
EA6E4DC88
100
AcDbGroup
300

 70
     1
 71
     1
  0
GROUP
  5
EA6E54CE8
102
{ACAD_REACTORS
330
EA6E4DC88
102
}
330
EA6E4DC88
100
AcDbGroup
300

 70
     1
 71
     1
  0
GROUP
  5
EA6E54CE9
102
{ACAD_REACTORS
330
EA6E4DC88
102
}
330
EA6E4DC88
100
AcDbGroup
300

 70
     1
 71
     1
  0
GROUP
  5
EA6E54CEA
102
{ACAD_REACTORS
330
EA6E4DC88
102
}
330
EA6E4DC88
100
AcDbGroup
300

 70
     1
 71
     1
  0
GROUP
  5
EA6E54CEB
102
{ACAD_REACTORS
330
EA6E4DC88
102
}
330
EA6E4DC88
100
AcDbGroup
300

 70
     1
 71
     1
  0
GROUP
  5
EA6E4F4D5
102
{ACAD_REACTORS
330
EA6E4DC88
102
}
330
EA6E4DC88
100
AcDbGroup
300

 70
     1
 71
     1
  0
GROUP
  5
EA6E54CEC
102
{ACAD_REACTORS
330
EA6E4DC88
102
}
330
EA6E4DC88
100
AcDbGroup
300

 70
     1
 71
     1
  0
GROUP
  5
EA6E4F4B8
102
{ACAD_REACTORS
330
EA6E4DC88
102
}
330
EA6E4DC88
100
AcDbGroup
300

 70
     3
 71
     1
  0
GROUP
  5
EA6E54BC9
102
{ACAD_REACTORS
330
EA6E4DC88
102
}
330
EA6E4DC88
100
AcDbGroup
300

 70
     1
 71
     1
  0
GROUP
  5
EA6E54CED
102
{ACAD_REACTORS
330
EA6E4DC88
102
}
330
EA6E4DC88
100
AcDbGroup
300

 70
     1
 71
     1
  0
GROUP
  5
EA6E4F4B3
102
{ACAD_REACTORS
330
EA6E4DC88
102
}
330
EA6E4DC88
100
AcDbGroup
300

 70
     1
 71
     1
  0
GROUP
  5
EA6E54CEE
102
{ACAD_REACTORS
330
EA6E4DC88
102
}
330
EA6E4DC88
100
AcDbGroup
300

 70
     1
 71
     1
  0
GROUP
  5
EA6E54CEF
102
{ACAD_REACTORS
330
EA6E4DC88
102
}
330
EA6E4DC88
100
AcDbGroup
300

 70
     1
 71
     1
  0
GROUP
  5
EA6E54CF0
102
{ACAD_REACTORS
330
EA6E4DC88
102
}
330
EA6E4DC88
100
AcDbGroup
300

 70
     1
 71
     1
  0
GROUP
  5
EA6E54CF1
102
{ACAD_REACTORS
330
EA6E4DC88
102
}
330
EA6E4DC88
100
AcDbGroup
300

 70
     1
 71
     1
  0
GROUP
  5
EA6E54CF2
102
{ACAD_REACTORS
330
EA6E4DC88
102
}
330
EA6E4DC88
100
AcDbGroup
300

 70
     1
 71
     1
  0
GROUP
  5
EA6E54CF3
102
{ACAD_REACTORS
330
EA6E4DC88
102
}
330
EA6E4DC88
100
AcDbGroup
300

 70
     1
 71
     1
  0
GROUP
  5
EA6E54CF4
102
{ACAD_REACTORS
330
EA6E4DC88
102
}
330
EA6E4DC88
100
AcDbGroup
300

 70
     1
 71
     1
  0
GROUP
  5
EA6E54CF5
102
{ACAD_REACTORS
330
EA6E4DC88
102
}
330
EA6E4DC88
100
AcDbGroup
300

 70
     3
 71
     1
  0
GROUP
  5
EA6E4F4BB
102
{ACAD_REACTORS
330
EA6E4DC88
102
}
330
EA6E4DC88
100
AcDbGroup
300

 70
     1
 71
     1
  0
GROUP
  5
EA6E4F4D6
102
{ACAD_REACTORS
330
EA6E4DC88
102
}
330
EA6E4DC88
100
AcDbGroup
300

 70
     1
 71
     1
  0
GROUP
  5
EA6E54CF6
102
{ACAD_REACTORS
330
EA6E4DC88
102
}
330
EA6E4DC88
100
AcDbGroup
300

 70
     1
 71
     1
  0
GROUP
  5
EA6E4F49D
102
{ACAD_REACTORS
330
EA6E4DC88
102
}
330
EA6E4DC88
100
AcDbGroup
300

 70
     1
 71
     1
  0
GROUP
  5
EA6E54CF7
102
{ACAD_REACTORS
330
EA6E4DC88
102
}
330
EA6E4DC88
100
AcDbGroup
300

 70
     1
 71
     1
  0
GROUP
  5
EA6E54CF8
102
{ACAD_REACTORS
330
EA6E4DC88
102
}
330
EA6E4DC88
100
AcDbGroup
300

 70
     1
 71
     1
  0
GROUP
  5
EA6E54CF9
102
{ACAD_REACTORS
330
EA6E4DC88
102
}
330
EA6E4DC88
100
AcDbGroup
300

 70
     1
 71
     1
  0
GROUP
  5
EA6E54CFA
102
{ACAD_REACTORS
330
EA6E4DC88
102
}
330
EA6E4DC88
100
AcDbGroup
300

 70
     1
 71
     1
  0
GROUP
  5
EA6E54CFB
102
{ACAD_REACTORS
330
EA6E4DC88
102
}
330
EA6E4DC88
100
AcDbGroup
300

 70
     1
 71
     1
  0
GROUP
  5
EA6E54CFC
102
{ACAD_REACTORS
330
EA6E4DC88
102
}
330
EA6E4DC88
100
AcDbGroup
300

 70
     1
 71
     1
  0
GROUP
  5
EA6E54CFD
102
{ACAD_REACTORS
330
EA6E4DC88
102
}
330
EA6E4DC88
100
AcDbGroup
300

 70
     1
 71
     1
  0
GROUP
  5
EA6E54BCA
102
{ACAD_REACTORS
330
EA6E4DC88
102
}
330
EA6E4DC88
100
AcDbGroup
300

 70
     1
 71
     1
  0
GROUP
  5
EA6E54CFE
102
{ACAD_REACTORS
330
EA6E4DC88
102
}
330
EA6E4DC88
100
AcDbGroup
300

 70
     1
 71
     1
  0
GROUP
  5
EA6E54CFF
102
{ACAD_REACTORS
330
EA6E4DC88
102
}
330
EA6E4DC88
100
AcDbGroup
300

 70
     1
 71
     1
  0
GROUP
  5
EA6E4F4D7
102
{ACAD_REACTORS
330
EA6E4DC88
102
}
330
EA6E4DC88
100
AcDbGroup
300

 70
     3
 71
     1
  0
GROUP
  5
EA6E4F49E
102
{ACAD_REACTORS
330
EA6E4DC88
102
}
330
EA6E4DC88
100
AcDbGroup
300

 70
     1
 71
     1
  0
GROUP
  5
EA6E54D00
102
{ACAD_REACTORS
330
EA6E4DC88
102
}
330
EA6E4DC88
100
AcDbGroup
300

 70
     1
 71
     1
  0
GROUP
  5
EA6E54D01
102
{ACAD_REACTORS
330
EA6E4DC88
102
}
330
EA6E4DC88
100
AcDbGroup
300

 70
     1
 71
     1
  0
GROUP
  5
EA6E54D02
102
{ACAD_REACTORS
330
EA6E4DC88
102
}
330
EA6E4DC88
100
AcDbGroup
300

 70
     1
 71
     1
  0
GROUP
  5
EA6E4F4D8
102
{ACAD_REACTORS
330
EA6E4DC88
102
}
330
EA6E4DC88
100
AcDbGroup
300

 70
     1
 71
     1
  0
GROUP
  5
EA6E4F4D9
102
{ACAD_REACTORS
330
EA6E4DC88
102
}
330
EA6E4DC88
100
AcDbGroup
300

 70
     1
 71
     1
  0
GROUP
  5
EA6E4F4DA
102
{ACAD_REACTORS
330
EA6E4DC88
102
}
330
EA6E4DC88
100
AcDbGroup
300

 70
     1
 71
     1
  0
GROUP
  5
EA6E54BCB
102
{ACAD_REACTORS
330
EA6E4DC88
102
}
330
EA6E4DC88
100
AcDbGroup
300

 70
     1
 71
     1
  0
GROUP
  5
EA6E4F454
102
{ACAD_REACTORS
330
EA6E4DC88
102
}
330
EA6E4DC88
100
AcDbGroup
300

 70
     1
 71
     1
  0
GROUP
  5
EA6E4F4DB
102
{ACAD_REACTORS
330
EA6E4DC88
102
}
330
EA6E4DC88
100
AcDbGroup
300

 70
     1
 71
     1
  0
GROUP
  5
EA6E4F4DC
102
{ACAD_REACTORS
330
EA6E4DC88
102
}
330
EA6E4DC88
100
AcDbGroup
300

 70
     1
 71
     1
  0
GROUP
  5
EA6E4F4AC
102
{ACAD_REACTORS
330
EA6E4DC88
102
}
330
EA6E4DC88
100
AcDbGroup
300

 70
     1
 71
     1
  0
GROUP
  5
EA6E4F44E
102
{ACAD_REACTORS
330
EA6E4DC88
102
}
330
EA6E4DC88
100
AcDbGroup
300

 70
     1
 71
     1
  0
GROUP
  5
EA6E4F4DD
102
{ACAD_REACTORS
330
EA6E4DC88
102
}
330
EA6E4DC88
100
AcDbGroup
300

 70
     1
 71
     1
  0
GROUP
  5
EA6E4F455
102
{ACAD_REACTORS
330
EA6E4DC88
102
}
330
EA6E4DC88
100
AcDbGroup
300

 70
     1
 71
     1
  0
GROUP
  5
EA6E4F456
102
{ACAD_REACTORS
330
EA6E4DC88
102
}
330
EA6E4DC88
100
AcDbGroup
300

 70
     1
 71
     1
  0
GROUP
  5
EA6E4F457
102
{ACAD_REACTORS
330
EA6E4DC88
102
}
330
EA6E4DC88
100
AcDbGroup
300

 70
     1
 71
     1
  0
GROUP
  5
EA6E4F458
102
{ACAD_REACTORS
330
EA6E4DC88
102
}
330
EA6E4DC88
100
AcDbGroup
300

 70
     1
 71
     1
  0
GROUP
  5
EA6E54BCC
102
{ACAD_REACTORS
330
EA6E4DC88
102
}
330
EA6E4DC88
100
AcDbGroup
300

 70
     1
 71
     1
  0
GROUP
  5
EA6E4F447
102
{ACAD_REACTORS
330
EA6E4DC88
102
}
330
EA6E4DC88
100
AcDbGroup
300

 70
     1
 71
     1
  0
GROUP
  5
EA6E4F459
102
{ACAD_REACTORS
330
EA6E4DC88
102
}
330
EA6E4DC88
100
AcDbGroup
300

 70
     1
 71
     1
  0
GROUP
  5
EA6E4F45A
102
{ACAD_REACTORS
330
EA6E4DC88
102
}
330
EA6E4DC88
100
AcDbGroup
300

 70
     1
 71
     1
  0
GROUP
  5
EA6E4F45B
102
{ACAD_REACTORS
330
EA6E4DC88
102
}
330
EA6E4DC88
100
AcDbGroup
300

 70
     1
 71
     1
  0
GROUP
  5
EA6E4F45C
102
{ACAD_REACTORS
330
EA6E4DC88
102
}
330
EA6E4DC88
100
AcDbGroup
300

 70
     1
 71
     1
  0
GROUP
  5
EA6E4F47A
102
{ACAD_REACTORS
330
EA6E4DC88
102
}
330
EA6E4DC88
100
AcDbGroup
300

 70
     1
 71
     1
  0
GROUP
  5
EA6E4F49F
102
{ACAD_REACTORS
330
EA6E4DC88
102
}
330
EA6E4DC88
100
AcDbGroup
300

 70
     1
 71
     1
  0
GROUP
  5
EA6E4F4AD
102
{ACAD_REACTORS
330
EA6E4DC88
102
}
330
EA6E4DC88
100
AcDbGroup
300

 70
     1
 71
     1
  0
GROUP
  5
EA6E4F45D
102
{ACAD_REACTORS
330
EA6E4DC88
102
}
330
EA6E4DC88
100
AcDbGroup
300

 70
     1
 71
     1
  0
GROUP
  5
EA6E4F45E
102
{ACAD_REACTORS
330
EA6E4DC88
102
}
330
EA6E4DC88
100
AcDbGroup
300

 70
     1
 71
     1
  0
GROUP
  5
EA6E54BCD
102
{ACAD_REACTORS
330
EA6E4DC88
102
}
330
EA6E4DC88
100
AcDbGroup
300

 70
     1
 71
     1
  0
GROUP
  5
EA6E4F45F
102
{ACAD_REACTORS
330
EA6E4DC88
102
}
330
EA6E4DC88
100
AcDbGroup
300

 70
     1
 71
     1
  0
GROUP
  5
EA6E4F460
102
{ACAD_REACTORS
330
EA6E4DC88
102
}
330
EA6E4DC88
100
AcDbGroup
300

 70
     1
 71
     1
  0
GROUP
  5
EA6E4F461
102
{ACAD_REACTORS
330
EA6E4DC88
102
}
330
EA6E4DC88
100
AcDbGroup
300

 70
     1
 71
     1
  0
GROUP
  5
EA6E4F462
102
{ACAD_REACTORS
330
EA6E4DC88
102
}
330
EA6E4DC88
100
AcDbGroup
300

 70
     1
 71
     1
  0
GROUP
  5
EA6E4F448
102
{ACAD_REACTORS
330
EA6E4DC88
102
}
330
EA6E4DC88
100
AcDbGroup
300

 70
     1
 71
     1
  0
GROUP
  5
EA6E4F463
102
{ACAD_REACTORS
330
EA6E4DC88
102
}
330
EA6E4DC88
100
AcDbGroup
300

 70
     1
 71
     1
  0
GROUP
  5
EA6E4F464
102
{ACAD_REACTORS
330
EA6E4DC88
102
}
330
EA6E4DC88
100
AcDbGroup
300

 70
     1
 71
     1
  0
GROUP
  5
EA6E4F4A0
102
{ACAD_REACTORS
330
EA6E4DC88
102
}
330
EA6E4DC88
100
AcDbGroup
300

 70
     1
 71
     1
  0
GROUP
  5
EA6E4F465
102
{ACAD_REACTORS
330
EA6E4DC88
102
}
330
EA6E4DC88
100
AcDbGroup
300

 70
     1
 71
     1
  0
GROUP
  5
EA6E4F4AE
102
{ACAD_REACTORS
330
EA6E4DC88
102
}
330
EA6E4DC88
100
AcDbGroup
300

 70
     1
 71
     1
  0
GROUP
  5
EA6E4F481
102
{ACAD_REACTORS
330
EA6E4DC88
102
}
330
EA6E4DC88
100
AcDbGroup
300

 70
     1
 71
     1
  0
GROUP
  5
EA6E4F466
102
{ACAD_REACTORS
330
EA6E4DC88
102
}
330
EA6E4DC88
100
AcDbGroup
300

 70
     1
 71
     1
  0
GROUP
  5
EA6E4F467
102
{ACAD_REACTORS
330
EA6E4DC88
102
}
330
EA6E4DC88
100
AcDbGroup
300

 70
     1
 71
     1
  0
GROUP
  5
EA6E4F468
102
{ACAD_REACTORS
330
EA6E4DC88
102
}
330
EA6E4DC88
100
AcDbGroup
300

 70
     1
 71
     1
  0
GROUP
  5
EA6E4F469
102
{ACAD_REACTORS
330
EA6E4DC88
102
}
330
EA6E4DC88
100
AcDbGroup
300

 70
     1
 71
     1
  0
GROUP
  5
EA6E4F46A
102
{ACAD_REACTORS
330
EA6E4DC88
102
}
330
EA6E4DC88
100
AcDbGroup
300

 70
     1
 71
     1
  0
GROUP
  5
EA6E4F46B
102
{ACAD_REACTORS
330
EA6E4DC88
102
}
330
EA6E4DC88
100
AcDbGroup
300

 70
     1
 71
     1
  0
GROUP
  5
EA6E4F46C
102
{ACAD_REACTORS
330
EA6E4DC88
102
}
330
EA6E4DC88
100
AcDbGroup
300

 70
     1
 71
     1
  0
GROUP
  5
EA6E4F449
102
{ACAD_REACTORS
330
EA6E4DC88
102
}
330
EA6E4DC88
100
AcDbGroup
300

 70
     1
 71
     1
  0
GROUP
  5
EA6E4F4A1
102
{ACAD_REACTORS
330
EA6E4DC88
102
}
330
EA6E4DC88
100
AcDbGroup
300

 70
     1
 71
     1
  0
GROUP
  5
EA6E4F46D
102
{ACAD_REACTORS
330
EA6E4DC88
102
}
330
EA6E4DC88
100
AcDbGroup
300

 70
     1
 71
     1
  0
GROUP
  5
EA6E54BCE
102
{ACAD_REACTORS
330
EA6E4DC88
102
}
330
EA6E4DC88
100
AcDbGroup
300

 70
     1
 71
     1
  0
GROUP
  5
EA6E4F46E
102
{ACAD_REACTORS
330
EA6E4DC88
102
}
330
EA6E4DC88
100
AcDbGroup
300

 70
     1
 71
     1
  0
GROUP
  5
EA6E4F4AF
102
{ACAD_REACTORS
330
EA6E4DC88
102
}
330
EA6E4DC88
100
AcDbGroup
300

 70
     1
 71
     1
  0
GROUP
  5
EA6E4F46F
102
{ACAD_REACTORS
330
EA6E4DC88
102
}
330
EA6E4DC88
100
AcDbGroup
300

 70
     1
 71
     1
  0
GROUP
  5
EA6E4F470
102
{ACAD_REACTORS
330
EA6E4DC88
102
}
330
EA6E4DC88
100
AcDbGroup
300

 70
     1
 71
     1
  0
GROUP
  5
EA6E4F471
102
{ACAD_REACTORS
330
EA6E4DC88
102
}
330
EA6E4DC88
100
AcDbGroup
300

 70
     1
 71
     1
  0
GROUP
  5
EA6E4F472
102
{ACAD_REACTORS
330
EA6E4DC88
102
}
330
EA6E4DC88
100
AcDbGroup
300

 70
     1
 71
     1
  0
GROUP
  5
EA6E4F473
102
{ACAD_REACTORS
330
EA6E4DC88
102
}
330
EA6E4DC88
100
AcDbGroup
300

 70
     1
 71
     1
  0
GROUP
  5
EA6E4F474
102
{ACAD_REACTORS
330
EA6E4DC88
102
}
330
EA6E4DC88
100
AcDbGroup
300

 70
     1
 71
     1
  0
GROUP
  5
EA6E4F475
102
{ACAD_REACTORS
330
EA6E4DC88
102
}
330
EA6E4DC88
100
AcDbGroup
300

 70
     1
 71
     1
  0
GROUP
  5
EA6E4F4A2
102
{ACAD_REACTORS
330
EA6E4DC88
102
}
330
EA6E4DC88
100
AcDbGroup
300

 70
     3
 71
     1
  0
GROUP
  5
EA6E54BCF
102
{ACAD_REACTORS
330
EA6E4DC88
102
}
330
EA6E4DC88
100
AcDbGroup
300

 70
     1
 71
     1
  0
GROUP
  5
EA6E4F476
102
{ACAD_REACTORS
330
EA6E4DC88
102
}
330
EA6E4DC88
100
AcDbGroup
300

 70
     1
 71
     1
  0
GROUP
  5
EA6E4F44A
102
{ACAD_REACTORS
330
EA6E4DC88
102
}
330
EA6E4DC88
100
AcDbGroup
300

 70
     1
 71
     1
  0
GROUP
  5
EA6E4F477
102
{ACAD_REACTORS
330
EA6E4DC88
102
}
330
EA6E4DC88
100
AcDbGroup
300

 70
     1
 71
     1
  0
GROUP
  5
EA6E4F4A3
102
{ACAD_REACTORS
330
EA6E4DC88
102
}
330
EA6E4DC88
100
AcDbGroup
300

 70
     1
 71
     1
  0
GROUP
  5
EA6E4F4A4
102
{ACAD_REACTORS
330
EA6E4DC88
102
}
330
EA6E4DC88
100
AcDbGroup
300

 70
     1
 71
     1
  0
GROUP
  5
EA6E4F4A5
102
{ACAD_REACTORS
330
EA6E4DC88
102
}
330
EA6E4DC88
100
AcDbGroup
300

 70
     1
 71
     1
  0
GROUP
  5
EA6E4F4B4
102
{ACAD_REACTORS
330
EA6E4DC88
102
}
330
EA6E4DC88
100
AcDbGroup
300

 70
     1
 71
     1
  0
GROUP
  5
EA6E4F4A6
102
{ACAD_REACTORS
330
EA6E4DC88
102
}
330
EA6E4DC88
100
AcDbGroup
300

 70
     1
 71
     1
  0
GROUP
  5
EA6E4F4A7
102
{ACAD_REACTORS
330
EA6E4DC88
102
}
330
EA6E4DC88
100
AcDbGroup
300

 70
     3
 71
     1
  0
GROUP
  5
EA6E4F47B
102
{ACAD_REACTORS
330
EA6E4DC88
102
}
330
EA6E4DC88
100
AcDbGroup
300

 70
     1
 71
     1
  0
GROUP
  5
EA6E54BD0
102
{ACAD_REACTORS
330
EA6E4DC88
102
}
330
EA6E4DC88
100
AcDbGroup
300

 70
     1
 71
     1
  0
GROUP
  5
EA6E4F4A8
102
{ACAD_REACTORS
330
EA6E4DC88
102
}
330
EA6E4DC88
100
AcDbGroup
300

 70
     1
 71
     1
  0
GROUP
  5
EA6E54B87
102
{ACAD_REACTORS
330
EA6E4DC88
102
}
330
EA6E4DC88
100
AcDbGroup
300

 70
     1
 71
     1
  0
GROUP
  5
EA6E54B88
102
{ACAD_REACTORS
330
EA6E4DC88
102
}
330
EA6E4DC88
100
AcDbGroup
300

 70
     1
 71
     1
  0
GROUP
  5
EA6E54B89
102
{ACAD_REACTORS
330
EA6E4DC88
102
}
330
EA6E4DC88
100
AcDbGroup
300

 70
     1
 71
     1
  0
GROUP
  5
EA6E54B8A
102
{ACAD_REACTORS
330
EA6E4DC88
102
}
330
EA6E4DC88
100
AcDbGroup
300

 70
     1
 71
     1
  0
GROUP
  5
EA6E54B8B
102
{ACAD_REACTORS
330
EA6E4DC88
102
}
330
EA6E4DC88
100
AcDbGroup
300

 70
     1
 71
     1
  0
GROUP
  5
EA6E54B8C
102
{ACAD_REACTORS
330
EA6E4DC88
102
}
330
EA6E4DC88
100
AcDbGroup
300

 70
     1
 71
     1
  0
GROUP
  5
EA6E54B8D
102
{ACAD_REACTORS
330
EA6E4DC88
102
}
330
EA6E4DC88
100
AcDbGroup
300

 70
     1
 71
     1
  0
GROUP
  5
EA6E4F4B5
102
{ACAD_REACTORS
330
EA6E4DC88
102
}
330
EA6E4DC88
100
AcDbGroup
300

 70
     1
 71
     1
  0
GROUP
  5
EA6E54B8E
102
{ACAD_REACTORS
330
EA6E4DC88
102
}
330
EA6E4DC88
100
AcDbGroup
300

 70
     1
 71
     1
  0
GROUP
  5
EA6E54BAC
102
{ACAD_REACTORS
330
EA6E4DC88
102
}
330
EA6E4DC88
100
AcDbGroup
300

 70
     1
 71
     1
  0
GROUP
  5
EA6E54BD1
102
{ACAD_REACTORS
330
EA6E4DC88
102
}
330
EA6E4DC88
100
AcDbGroup
300

 70
     3
 71
     1
  0
GROUP
  5
EA6E4F47C
102
{ACAD_REACTORS
330
EA6E4DC88
102
}
330
EA6E4DC88
100
AcDbGroup
300

 70
     1
 71
     1
  0
GROUP
  5
EA6E54B8F
102
{ACAD_REACTORS
330
EA6E4DC88
102
}
330
EA6E4DC88
100
AcDbGroup
300

 70
     3
 71
     1
  0
GROUP
  5
EA6E54B90
102
{ACAD_REACTORS
330
EA6E4DC88
102
}
330
EA6E4DC88
100
AcDbGroup
300

 70
     1
 71
     1
  0
GROUP
  5
EA6E54B91
102
{ACAD_REACTORS
330
EA6E4DC88
102
}
330
EA6E4DC88
100
AcDbGroup
300

 70
     1
 71
     1
  0
GROUP
  5
EA6E54B92
102
{ACAD_REACTORS
330
EA6E4DC88
102
}
330
EA6E4DC88
100
AcDbGroup
300

 70
     1
 71
     1
  0
GROUP
  5
EA6E54B93
102
{ACAD_REACTORS
330
EA6E4DC88
102
}
330
EA6E4DC88
100
AcDbGroup
300

 70
     3
 71
     1
  0
GROUP
  5
EA6E54B94
102
{ACAD_REACTORS
330
EA6E4DC88
102
}
330
EA6E4DC88
100
AcDbGroup
300

 70
     1
 71
     1
  0
GROUP
  5
EA6E54B95
102
{ACAD_REACTORS
330
EA6E4DC88
102
}
330
EA6E4DC88
100
AcDbGroup
300

 70
     1
 71
     1
  0
GROUP
  5
EA6E54B96
102
{ACAD_REACTORS
330
EA6E4DC88
102
}
330
EA6E4DC88
100
AcDbGroup
300

 70
     1
 71
     1
  0
GROUP
  5
EA6E54B97
102
{ACAD_REACTORS
330
EA6E4DC88
102
}
330
EA6E4DC88
100
AcDbGroup
300

 70
     1
 71
     1
  0
GROUP
  5
EA6E54BD2
102
{ACAD_REACTORS
330
EA6E4DC88
102
}
330
EA6E4DC88
100
AcDbGroup
300

 70
     1
 71
     1
  0
GROUP
  5
EA6E4F4B6
102
{ACAD_REACTORS
330
EA6E4DC88
102
}
330
EA6E4DC88
100
AcDbGroup
300

 70
     1
 71
     1
  0
GROUP
  5
EA6E4F47D
102
{ACAD_REACTORS
330
EA6E4DC88
102
}
330
EA6E4DC88
100
AcDbGroup
300

 70
     3
 71
     1
  0
GROUP
  5
EA6E54B98
102
{ACAD_REACTORS
330
EA6E4DC88
102
}
330
EA6E4DC88
100
AcDbGroup
300

 70
     1
 71
     1
  0
GROUP
  5
EA6E54B99
102
{ACAD_REACTORS
330
EA6E4DC88
102
}
330
EA6E4DC88
100
AcDbGroup
300

 70
     1
 71
     1
  0
GROUP
  5
EA6E54B9A
102
{ACAD_REACTORS
330
EA6E4DC88
102
}
330
EA6E4DC88
100
AcDbGroup
300

 70
     1
 71
     1
  0
GROUP
  5
EA6E54B9B
102
{ACAD_REACTORS
330
EA6E4DC88
102
}
330
EA6E4DC88
100
AcDbGroup
300

 70
     1
 71
     1
  0
GROUP
  5
EA6E54B9C
102
{ACAD_REACTORS
330
EA6E4DC88
102
}
330
EA6E4DC88
100
AcDbGroup
300

 70
     1
 71
     1
  0
GROUP
  5
EA6E54B9D
102
{ACAD_REACTORS
330
EA6E4DC88
102
}
330
EA6E4DC88
100
AcDbGroup
300

 70
     1
 71
     1
  0
GROUP
  5
EA6E54B9E
102
{ACAD_REACTORS
330
EA6E4DC88
102
}
330
EA6E4DC88
100
AcDbGroup
300

 70
     1
 71
     1
  0
GROUP
  5
EA6E54B9F
102
{ACAD_REACTORS
330
EA6E4DC88
102
}
330
EA6E4DC88
100
AcDbGroup
300

 70
     1
 71
     1
  0
GROUP
  5
EA6E54BD3
102
{ACAD_REACTORS
330
EA6E4DC88
102
}
330
EA6E4DC88
100
AcDbGroup
300

 70
     1
 71
     1
  0
GROUP
  5
EA6E54BA0
102
{ACAD_REACTORS
330
EA6E4DC88
102
}
330
EA6E4DC88
100
AcDbGroup
300

 70
     1
 71
     1
  0
GROUP
  5
EA6E54BA1
102
{ACAD_REACTORS
330
EA6E4DC88
102
}
330
EA6E4DC88
100
AcDbGroup
300

 70
     1
 71
     1
  0
GROUP
  5
EA6E4F47E
102
{ACAD_REACTORS
330
EA6E4DC88
102
}
330
EA6E4DC88
100
AcDbGroup
300

 70
     1
 71
     1
  0
GROUP
  5
EA6E4F4B7
102
{ACAD_REACTORS
330
EA6E4DC88
102
}
330
EA6E4DC88
100
AcDbGroup
300

 70
     1
 71
     1
  0
GROUP
  5
EA6E54BA2
102
{ACAD_REACTORS
330
EA6E4DC88
102
}
330
EA6E4DC88
100
AcDbGroup
300

 70
     1
 71
     1
  0
GROUP
  5
EA6E54BA3
102
{ACAD_REACTORS
330
EA6E4DC88
102
}
330
EA6E4DC88
100
AcDbGroup
300

 70
     3
 71
     1
  0
GROUP
  5
EA6E54BA4
102
{ACAD_REACTORS
330
EA6E4DC88
102
}
330
EA6E4DC88
100
AcDbGroup
300

 70
     1
 71
     1
  0
GROUP
  5
EA6E54BA5
102
{ACAD_REACTORS
330
EA6E4DC88
102
}
330
EA6E4DC88
100
AcDbGroup
300

 70
     1
 71
     1
  0
GROUP
  5
EA6E54BA6
102
{ACAD_REACTORS
330
EA6E4DC88
102
}
330
EA6E4DC88
100
AcDbGroup
300

 70
     1
 71
     1
  0
GROUP
  5
EA6E54BA7
102
{ACAD_REACTORS
330
EA6E4DC88
102
}
330
EA6E4DC88
100
AcDbGroup
300

 70
     1
 71
     1
  0
GROUP
  5
EA6E4F4BC
102
{ACAD_REACTORS
330
EA6E4DC88
102
}
330
EA6E4DC88
100
AcDbGroup
300

 70
     1
 71
     1
  0
GROUP
  5
EA6E54BA8
102
{ACAD_REACTORS
330
EA6E4DC88
102
}
330
EA6E4DC88
100
AcDbGroup
300

 70
     1
 71
     1
  0
GROUP
  5
EA6E54BA9
102
{ACAD_REACTORS
330
EA6E4DC88
102
}
330
EA6E4DC88
100
AcDbGroup
300

 70
     1
 71
     1
  0
GROUP
  5
EA6E54BAA
102
{ACAD_REACTORS
330
EA6E4DC88
102
}
330
EA6E4DC88
100
AcDbGroup
300

 70
     1
 71
     1
  0
GROUP
  5
EA6E54BD4
102
{ACAD_REACTORS
330
EA6E4DC88
102
}
330
EA6E4DC88
100
AcDbGroup
300

 70
     1
 71
     1
  0
GROUP
  5
EA6E54BD5
102
{ACAD_REACTORS
330
EA6E4DC88
102
}
330
EA6E4DC88
100
AcDbGroup
300

 70
     1
 71
     1
  0
GROUP
  5
EA6E54BD6
102
{ACAD_REACTORS
330
EA6E4DC88
102
}
330
EA6E4DC88
100
AcDbGroup
300

 70
     1
 71
     1
  0
GROUP
  5
EA6E4F482
102
{ACAD_REACTORS
330
EA6E4DC88
102
}
330
EA6E4DC88
100
AcDbGroup
300

 70
     1
 71
     1
  0
GROUP
  5
EA6E54BD7
102
{ACAD_REACTORS
330
EA6E4DC88
102
}
330
EA6E4DC88
100
AcDbGroup
300

 70
     1
 71
     1
  0
GROUP
  5
EA6E54BD8
102
{ACAD_REACTORS
330
EA6E4DC88
102
}
330
EA6E4DC88
100
AcDbGroup
300

 70
     1
 71
     1
  0
GROUP
  5
EA6E54BAD
102
{ACAD_REACTORS
330
EA6E4DC88
102
}
330
EA6E4DC88
100
AcDbGroup
300

 70
     1
 71
     1
  0
GROUP
  5
EA6E54BD9
102
{ACAD_REACTORS
330
EA6E4DC88
102
}
330
EA6E4DC88
100
AcDbGroup
300

 70
     1
 71
     1
  0
GROUP
  5
EA6E54BDA
102
{ACAD_REACTORS
330
EA6E4DC88
102
}
330
EA6E4DC88
100
AcDbGroup
300

 70
     1
 71
     1
  0
GROUP
  5
EA6E54BDB
102
{ACAD_REACTORS
330
EA6E4DC88
102
}
330
EA6E4DC88
100
AcDbGroup
300

 70
     1
 71
     1
  0
GROUP
  5
EA6E54BDC
102
{ACAD_REACTORS
330
EA6E4DC88
102
}
330
EA6E4DC88
100
AcDbGroup
300

 70
     1
 71
     1
  0
GROUP
  5
EA6E54BDD
102
{ACAD_REACTORS
330
EA6E4DC88
102
}
330
EA6E4DC88
100
AcDbGroup
300

 70
     1
 71
     1
  0
GROUP
  5
EA6E4F451
102
{ACAD_REACTORS
330
EA6E4DC88
102
}
330
EA6E4DC88
100
AcDbGroup
300

 70
     1
 71
     1
  0
GROUP
  5
EA6E54BDE
102
{ACAD_REACTORS
330
EA6E4DC88
102
}
330
EA6E4DC88
100
AcDbGroup
300

 70
     1
 71
     1
  0
GROUP
  5
EA6E54BDF
102
{ACAD_REACTORS
330
EA6E4DC88
102
}
330
EA6E4DC88
100
AcDbGroup
300

 70
     1
 71
     1
  0
GROUP
  5
EA6E4F483
102
{ACAD_REACTORS
330
EA6E4DC88
102
}
330
EA6E4DC88
100
AcDbGroup
300

 70
     1
 71
     1
  0
GROUP
  5
EA6E54BE0
102
{ACAD_REACTORS
330
EA6E4DC88
102
}
330
EA6E4DC88
100
AcDbGroup
300

 70
     1
 71
     1
  0
GROUP
  5
EA6E54BAE
102
{ACAD_REACTORS
330
EA6E4DC88
102
}
330
EA6E4DC88
100
AcDbGroup
300

 70
     1
 71
     1
  0
GROUP
  5
EA6E54BE1
102
{ACAD_REACTORS
330
EA6E4DC88
102
}
330
EA6E4DC88
100
AcDbGroup
300

 70
     1
 71
     1
  0
GROUP
  5
EA6E54BE2
102
{ACAD_REACTORS
330
EA6E4DC88
102
}
330
EA6E4DC88
100
AcDbGroup
300

 70
     1
 71
     1
  0
GROUP
  5
EA6E54BE3
102
{ACAD_REACTORS
330
EA6E4DC88
102
}
330
EA6E4DC88
100
AcDbGroup
300

 70
     1
 71
     1
  0
GROUP
  5
EA6E54BE4
102
{ACAD_REACTORS
330
EA6E4DC88
102
}
330
EA6E4DC88
100
AcDbGroup
300

 70
     3
 71
     1
  0
GROUP
  5
EA6E54BE5
102
{ACAD_REACTORS
330
EA6E4DC88
102
}
330
EA6E4DC88
100
AcDbGroup
300

 70
     1
 71
     1
  0
GROUP
  5
EA6E54BE6
102
{ACAD_REACTORS
330
EA6E4DC88
102
}
330
EA6E4DC88
100
AcDbGroup
300

 70
     1
 71
     1
  0
GROUP
  5
EA6E54BE7
102
{ACAD_REACTORS
330
EA6E4DC88
102
}
330
EA6E4DC88
100
AcDbGroup
300

 70
     1
 71
     1
  0
GROUP
  5
EA6E4F4BD
102
{ACAD_REACTORS
330
EA6E4DC88
102
}
330
EA6E4DC88
100
AcDbGroup
300

 70
     1
 71
     1
  0
GROUP
  5
EA6E54BE8
102
{ACAD_REACTORS
330
EA6E4DC88
102
}
330
EA6E4DC88
100
AcDbGroup
300

 70
     1
 71
     1
  0
GROUP
  5
EA6E4F484
102
{ACAD_REACTORS
330
EA6E4DC88
102
}
330
EA6E4DC88
100
AcDbGroup
300

 70
     1
 71
     1
  0
GROUP
  5
EA6E54BAF
102
{ACAD_REACTORS
330
EA6E4DC88
102
}
330
EA6E4DC88
100
AcDbGroup
300

 70
     1
 71
     1
  0
GROUP
  5
EA6E54BE9
102
{ACAD_REACTORS
330
EA6E4DC88
102
}
330
EA6E4DC88
100
AcDbGroup
300

 70
     1
 71
     1
  0
GROUP
  5
EA6E54BEA
102
{ACAD_REACTORS
330
EA6E4DC88
102
}
330
EA6E4DC88
100
AcDbGroup
300

 70
     1
 71
     1
  0
GROUP
  5
EA6E54BEB
102
{ACAD_REACTORS
330
EA6E4DC88
102
}
330
EA6E4DC88
100
AcDbGroup
300

 70
     1
 71
     1
  0
GROUP
  5
EA6E54BEC
102
{ACAD_REACTORS
330
EA6E4DC88
102
}
330
EA6E4DC88
100
AcDbGroup
300

 70
     1
 71
     1
  0
GROUP
  5
EA6E54BED
102
{ACAD_REACTORS
330
EA6E4DC88
102
}
330
EA6E4DC88
100
AcDbGroup
300

 70
     1
 71
     1
  0
GROUP
  5
EA6E54BEE
102
{ACAD_REACTORS
330
EA6E4DC88
102
}
330
EA6E4DC88
100
AcDbGroup
300

 70
     1
 71
     1
  0
GROUP
  5
EA6E54BEF
102
{ACAD_REACTORS
330
EA6E4DC88
102
}
330
EA6E4DC88
100
AcDbGroup
300

 70
     1
 71
     1
  0
GROUP
  5
EA6E54BF0
102
{ACAD_REACTORS
330
EA6E4DC88
102
}
330
EA6E4DC88
100
AcDbGroup
300

 70
     1
 71
     1
  0
GROUP
  5
EA6E54BF1
102
{ACAD_REACTORS
330
EA6E4DC88
102
}
330
EA6E4DC88
100
AcDbGroup
300

 70
     1
 71
     1
  0
GROUP
  5
EA6E4F4BE
102
{ACAD_REACTORS
330
EA6E4DC88
102
}
330
EA6E4DC88
100
AcDbGroup
300

 70
     1
 71
     1
  0
GROUP
  5
EA6E54BB0
102
{ACAD_REACTORS
330
EA6E4DC88
102
}
330
EA6E4DC88
100
AcDbGroup
300

 70
     1
 71
     1
  0
GROUP
  5
EA6E4F485
102
{ACAD_REACTORS
330
EA6E4DC88
102
}
330
EA6E4DC88
100
AcDbGroup
300

 70
     1
 71
     1
  0
GROUP
  5
EA6E54BF2
102
{ACAD_REACTORS
330
EA6E4DC88
102
}
330
EA6E4DC88
100
AcDbGroup
300

 70
     1
 71
     1
  0
GROUP
  5
EA6E54BF3
102
{ACAD_REACTORS
330
EA6E4DC88
102
}
330
EA6E4DC88
100
AcDbGroup
300

 70
     1
 71
     1
  0
GROUP
  5
EA6E54BF4
102
{ACAD_REACTORS
330
EA6E4DC88
102
}
330
EA6E4DC88
100
AcDbGroup
300

 70
     1
 71
     1
  0
GROUP
  5
EA6E54BF5
102
{ACAD_REACTORS
330
EA6E4DC88
102
}
330
EA6E4DC88
100
AcDbGroup
300

 70
     1
 71
     1
  0
GROUP
  5
EA6E54BF6
102
{ACAD_REACTORS
330
EA6E4DC88
102
}
330
EA6E4DC88
100
AcDbGroup
300

 70
     1
 71
     1
  0
GROUP
  5
EA6E54BF7
102
{ACAD_REACTORS
330
EA6E4DC88
102
}
330
EA6E4DC88
100
AcDbGroup
300

 70
     1
 71
     1
  0
GROUP
  5
EA6E54BF8
102
{ACAD_REACTORS
330
EA6E4DC88
102
}
330
EA6E4DC88
100
AcDbGroup
300

 70
     1
 71
     1
  0
GROUP
  5
EA6E54BF9
102
{ACAD_REACTORS
330
EA6E4DC88
102
}
330
EA6E4DC88
100
AcDbGroup
300

 70
     1
 71
     1
  0
GROUP
  5
EA6E54BFA
102
{ACAD_REACTORS
330
EA6E4DC88
102
}
330
EA6E4DC88
100
AcDbGroup
300

 70
     1
 71
     1
  0
LAYOUT
  5
EA6E4EE67
102
{ACAD_REACTORS
330
EA6E4E124
102
}
330
EA6E4E124
100
AcDbPlotSettings
  1

  2
RICOH imagio Neo C355 RPCS
  4

  6

 40
0.0
 41
0.0
 42
0.0
 43
0.0
 44
0.0
 45
0.0
 46
0.0
 47
0.0
 48
0.0
 49
0.0
140
0.0
141
0.0
142
1.0
143
1.0
 70
  1712
 72
     0
 73
     0
 74
     0
  7
aclt.ctb
 75
     0
147
1.0
148
0.0
149
0.0
100
AcDbLayout
  1
Model
 70
     1
 71
     0
 10
0.0
 20
0.0
 11
12.0
 21
9.0
 12
0.0
 22
0.0
 32
0.0
 14
0.0
 24
0.0
 34
0.0
 15
0.0
 25
0.0
 35
0.0
146
0.0
 13
0.0
 23
0.0
 33
0.0
 16
1.0
 26
0.0
 36
0.0
 17
0.0
 27
1.0
 37
0.0
 76
     0
330
EA6E4DC92
  0
LAYOUT
  5
EA6E4EE68
102
{ACAD_REACTORS
330
EA6E4E124
102
}
330
EA6E4E124
100
AcDbPlotSettings
  1

  2
RICOH imagio Neo C355 RPCS
  4

  6

 40
0.0
 41
0.0
 42
0.0
 43
0.0
 44
0.0
 45
0.0
 46
0.0
 47
0.0
 48
0.0
 49
0.0
140
0.0
141
0.0
142
1.0
143
1.0
 70
   688
 72
     0
 73
     0
 74
     5
  7
aclt.ctb
 75
    16
147
1.0
148
0.0
149
0.0
100
AcDbLayout
  1
ﾚｲｱｳﾄ1
 70
     0
 71
     1
 10
0.0
 20
0.0
 11
12.0
 21
9.0
 12
0.0
 22
0.0
 32
0.0
 14
1.000000000000000E+20
 24
1.000000000000000E+20
 34
1.000000000000000E+20
 15
-1.000000000000000E+20
 25
-1.000000000000000E+20
 35
-1.000000000000000E+20
146
0.0
 13
0.0
 23
0.0
 33
0.0
 16
1.0
 26
0.0
 36
0.0
 17
0.0
 27
1.0
 37
0.0
 76
     0
330
EA6E4DC8F
  0
MLINESTYLE
  5
EA6E4DC96
102
{ACAD_REACTORS
330
EA6E4DC95
102
}
330
EA6E4DC95
100
AcDbMlineStyle
  2
STANDARD
 70
     0
  3

 62
   256
 51
90.0
 52
90.0
 71
     2
 49
0.5
 62
   256
  6
BYLAYER
 49
-0.5
 62
   256
  6
BYLAYER
  0
PLOTSETTINGS
  5
EA6E4F4DE
102
{ACAD_XDICTIONARY
360
EA6E4F4DF
102
}
102
{ACAD_REACTORS
330
EA6E4E125
102
}
330
EA6E4E125
100
AcDbPlotSettings
  1
セットアップ1
  2
EPSON LP-8900
  4
A4
  6
ZOOM_ALL
 40
5.873749732971191
 41
5.873717308044433
 42
5.873748779296875
 43
5.873748779296875
 44
209.9733276367187
 45
297.0106506347656
 46
15.0
 47
2.629999999999999
 48
-409.6174180266133
 49
-718.4349759011563
140
-49.61741659461336
141
-158.4349759011564
142
1.0
143
2.0
 70
 11936
 72
     1
 73
     0
 74
     4
  7
monochrome.ctb
 75
     0
147
0.5
148
409.6174180266133
149
718.4349759011563
1001
ACAD_PSEXT
1000
EPSON LP-8900
1000
EPSON LP-8900
1000
IP_172.16.3.45
1000

1070
     0
  0
ACDBPLACEHOLDER
  5
EA6E4E123
102
{ACAD_REACTORS
330
EA6E4E122
102
}
330
EA6E4E122
  0
ACDBPLACEHOLDER
  5
EA6E4F4E1
102
{ACAD_REACTORS
330
EA6E4E122
102
}
330
EA6E4E122
  0
DICTIONARYVAR
  5
EA6E4E23D
102
{ACAD_REACTORS
330
EA6E4DCDF
102
}
330
EA6E4DCDF
100
DictionaryVariables
280
     0
  1
0
  0
DICTIONARYVAR
  5
EA6E4DCE0
102
{ACAD_REACTORS
330
EA6E4DCDF
102
}
330
EA6E4DCDF
100
DictionaryVariables
280
     0
  1
96
  0
XRECORD
  5
EA6E4EE6B
102
{ACAD_REACTORS
330
EA6E4EE6A
102
}
330
EA6E4EE6A
100
AcDbXrecord
280
     1
  1
0
  1
*-0
  1
*
  1
*
 70
     0
  1
*
  1
*
  0
XRECORD
  5
EA6E4EE6C
102
{ACAD_REACTORS
330
EA6E4EE6A
102
}
330
EA6E4EE6A
100
AcDbXrecord
280
     1
  1
0-0
  1
*-0
  1
*
  1
*
 70
     0
  1
*
  1
*
  0
XRECORD
  5
EA6E4EE6D
102
{ACAD_REACTORS
330
EA6E4EE6A
102
}
330
EA6E4EE6A
100
AcDbXrecord
280
     1
  1
10画層
  1
*-10
  1
*
  1
*
 70
     0
  1
*
  1
*
  0
XRECORD
  5
EA6E4EE6E
102
{ACAD_REACTORS
330
EA6E4EE6A
102
}
330
EA6E4EE6A
100
AcDbXrecord
280
     1
  1
2
  1
*-2
  1
*
  1
*
 70
     0
  1
*
  1
*
  0
XRECORD
  5
EA6E4EE6F
102
{ACAD_REACTORS
330
EA6E4EE6A
102
}
330
EA6E4EE6A
100
AcDbXrecord
280
     1
  1
3
  1
*-3
  1
*
  1
*
 70
     0
  1
*
  1
*
  0
XRECORD
  5
EA6E4EE70
102
{ACAD_REACTORS
330
EA6E4EE6A
102
}
330
EA6E4EE6A
100
AcDbXrecord
280
     1
  1
3A
  1
*-3A
  1
*
  1
*
 70
     0
  1
*
  1
*
  0
XRECORD
  5
EA6E4EE71
102
{ACAD_REACTORS
330
EA6E4EE6A
102
}
330
EA6E4EE6A
100
AcDbXrecord
280
     1
  1
4
  1
*-4
  1
*
  1
*
 70
     0
  1
*
  1
*
  0
XRECORD
  5
EA6E4EE72
102
{ACAD_REACTORS
330
EA6E4EE6A
102
}
330
EA6E4EE6A
100
AcDbXrecord
280
     1
  1
5画層
  1
*-5
  1
*
  1
*
 70
     0
  1
*
  1
*
  0
XRECORD
  5
EA6E4EE73
102
{ACAD_REACTORS
330
EA6E4EE6A
102
}
330
EA6E4EE6A
100
AcDbXrecord
280
     1
  1
6画層
  1
*-6
  1
*
  1
*
 70
     0
  1
*
  1
*
  0
XRECORD
  5
EA6E4EE74
102
{ACAD_REACTORS
330
EA6E4EE6A
102
}
330
EA6E4EE6A
100
AcDbXrecord
280
     1
  1
7
  1
*-7*
  1
*
  1
*
 70
     0
  1
*
  1
*
  0
XRECORD
  5
EA6E4EE75
102
{ACAD_REACTORS
330
EA6E4EE6A
102
}
330
EA6E4EE6A
100
AcDbXrecord
280
     1
  1
7a画層
  1
*-7a
  1
*
  1
*
 70
     0
  1
*
  1
*
  0
XRECORD
  5
EA6E4EE76
102
{ACAD_REACTORS
330
EA6E4EE6A
102
}
330
EA6E4EE6A
100
AcDbXrecord
280
     1
  1
8
  1
*-8,8
  1
*
  1
*
 70
     0
  1
*
  1
*
  0
XRECORD
  5
EA6E4EE77
102
{ACAD_REACTORS
330
EA6E4EE6A
102
}
330
EA6E4EE6A
100
AcDbXrecord
280
     1
  1
ASYST
  1
ASYST*
  1
*
  1
*
 70
     0
  1
*
  1
*
  0
XRECORD
  5
EA6E4EE78
102
{ACAD_REACTORS
330
EA6E4EE6A
102
}
330
EA6E4EE6A
100
AcDbXrecord
280
     1
  1
ASYST PHASE 1
  1
A1.0-8$0$ASYT*
  1
*
  1
*
 70
     0
  1
*
  1
*
  0
XRECORD
  5
EA6E4EE79
102
{ACAD_REACTORS
330
EA6E4EE6A
102
}
330
EA6E4EE6A
100
AcDbXrecord
280
     1
  1
ASYST PHASE 2
  1
A2.0-8$0$ASYT*
  1
*
  1
*
 70
     0
  1
*
  1
*
  0
XRECORD
  5
EA6E4EE7A
102
{ACAD_REACTORS
330
EA6E4EE6A
102
}
330
EA6E4EE6A
100
AcDbXrecord
280
     1
  1
cap-0
  1
*
  1
*
  1
*
 70
     0
  1
*
  1
*
  0
XRECORD
  5
EA6E4EE7B
102
{ACAD_REACTORS
330
EA6E4EE6A
102
}
330
EA6E4EE6A
100
AcDbXrecord
280
     1
  1
dims
  1
*di*
  1
*
  1
*
 70
     0
  1
*
  1
*
  0
XRECORD
  5
EA6E4EE7C
102
{ACAD_REACTORS
330
EA6E4EE6A
102
}
330
EA6E4EE6A
100
AcDbXrecord
280
     1
  1
elec
  1
e-*
  1
*
  1
*
 70
     0
  1
*
  1
*
  0
XRECORD
  5
EA6E4EE7D
102
{ACAD_REACTORS
330
EA6E4EE6A
102
}
330
EA6E4EE6A
100
AcDbXrecord
280
     1
  1
ELECTRICAL
  1
E-*
  1
*
  1
*
 70
     0
  1
*
  1
*
  0
XRECORD
  5
EA6E4EE7E
102
{ACAD_REACTORS
330
EA6E4EE6A
102
}
330
EA6E4EE6A
100
AcDbXrecord
280
     1
  1
F
  1
*
  1
*
  1
*
 70
     0
  1
*
  1
*
  0
XRECORD
  5
EA6E4EE7F
102
{ACAD_REACTORS
330
EA6E4EE6A
102
}
330
EA6E4EE6A
100
AcDbXrecord
280
     1
  1
Frame
  1
F*
  1
*
  1
*
 70
     0
  1
*
  1
*
  0
XRECORD
  5
EA6E4EE80
102
{ACAD_REACTORS
330
EA6E4EE6A
102
}
330
EA6E4EE6A
100
AcDbXrecord
280
     1
  1
FROZEN
  1
*
  1
*
  1
*
 70
     4
  1
*
  1
*
  0
XRECORD
  5
EA6E4EE81
102
{ACAD_REACTORS
330
EA6E4EE6A
102
}
330
EA6E4EE6A
100
AcDbXrecord
280
     1
  1
FROZEN ACTIVE
  1
*
  1
*
  1
*
 70
    16
  1
*
  1
*
  0
XRECORD
  5
EA6E4EE82
102
{ACAD_REACTORS
330
EA6E4EE6A
102
}
330
EA6E4EE6A
100
AcDbXrecord
280
     1
  1
jiku-0
  1
*
  1
*
  1
*
 70
     0
  1
*
  1
*
  0
XRECORD
  5
EA6E4EE83
102
{ACAD_REACTORS
330
EA6E4EE6A
102
}
330
EA6E4EE6A
100
AcDbXrecord
280
     1
  1
MP
  1
MP_*
  1
*
  1
*
 70
     0
  1
*
  1
*
  0
XRECORD
  5
EA6E4EE84
102
{ACAD_REACTORS
330
EA6E4EE6A
102
}
330
EA6E4EE6A
100
AcDbXrecord
280
     1
  1
MPR
  1
MPR*
  1
*
  1
*
 70
     0
  1
*
  1
*
  0
XRECORD
  5
EA6E4EE85
102
{ACAD_REACTORS
330
EA6E4EE6A
102
}
330
EA6E4EE6A
100
AcDbXrecord
280
     1
  1
p-
  1
p-*
  1
*
  1
*
 70
     0
  1
*
  1
*
  0
XRECORD
  5
EA6E4EE86
102
{ACAD_REACTORS
330
EA6E4EE6A
102
}
330
EA6E4EE6A
100
AcDbXrecord
280
     1
  1
ST
  1
ST_*
  1
*
  1
*
 70
     0
  1
*
  1
*
  0
XRECORD
  5
EA6E4EE87
102
{ACAD_REACTORS
330
EA6E4EE6A
102
}
330
EA6E4EE6A
100
AcDbXrecord
280
     1
  1
TC
  1
TC_*,0N
  1
*
  1
*
 70
     0
  1
*
  1
*
  0
XRECORD
  5
EA6E4EE88
102
{ACAD_REACTORS
330
EA6E4EE6A
102
}
330
EA6E4EE6A
100
AcDbXrecord
280
     1
  1
TEXT
  1
TEXT
  1
*
  1
*
 70
     0
  1
*
  1
*
  0
XRECORD
  5
EA6E4EE89
102
{ACAD_REACTORS
330
EA6E4EE6A
102
}
330
EA6E4EE6A
100
AcDbXrecord
280
     1
  1
ｹｰﾌﾞﾙ図
  1
*
  1
*
  1
*
 70
     0
  1
*
  1
*
  0
XRECORD
  5
EA6E4EE8A
102
{ACAD_REACTORS
330
EA6E4EE6A
102
}
330
EA6E4EE6A
100
AcDbXrecord
280
     1
  1
０画層
  1
*-0
  1
*
  1
*
 70
     0
  1
*
  1
*
  0
XRECORD
  5
EA6E4EE8B
102
{ACAD_REACTORS
330
EA6E4EE6A
102
}
330
EA6E4EE6A
100
AcDbXrecord
280
     1
  1
３A画層
  1
*-3A
  1
*
  1
*
 70
     0
  1
*
  1
*
  0
XRECORD
  5
EA6E4EE8C
102
{ACAD_REACTORS
330
EA6E4EE6A
102
}
330
EA6E4EE6A
100
AcDbXrecord
280
     1
  1
３画層
  1
*-3
  1
*
  1
*
 70
     0
  1
*
  1
*
  0
DICTIONARY
  5
EA6E4F4DF
330
EA6E4F4DE
100
AcDbDictionary
280
     1
281
     1
  3
ACAD_XREC_ROUNDTRIP
360
EA6E4F4E0
  0
XRECORD
  5
EA6E4F4E0
102
{ACAD_REACTORS
330
EA6E4F4DF
102
}
330
EA6E4F4DF
100
AcDbXrecord
280
     1
102
SHADEPLOT
 70
     0
102
SHADEPLOTRESLEVEL
 70
     2
102
SHADEPLOTCUSTOMDPI
 70
   300
  0
ENDSEC
  0
EOF
